  0
SECTION
  2
HEADER
  9
$ACADVER
  1
AC1024
  9
$DWGCODEPAGE
  3
ANSI_1252
  9
$EXTMAX
 10
558.8
 20
431.8
 30
0.0
  9
$EXTMIN
 10
0.0
 20
0.0
 30
0.0
  9
$LIMMIN
 10
0.0
 20
0.0
  9
$LIMMAX
 10
558.8
 20
431.8
  9
$VIEWCTR
 10
279.4
 20
215.9
  9
$VIEWSIZE
 40
431.8
  9
$CLAYER
  8
0
  9
$LTSCALE
 40
30.734
  9
$CELTYPE
  6
BYLAYER
  9
$DIMSCALE
 40
1.0
  9
$DIMASZ
 40
3.0
  9
$DIMEXO
 40
0.5
  9
$DIMDLI
 40
21.2344
  9
$DIMEXE
 40
1.5
  9
$DIMCEN
 40
5.0292
  9
$DIMLFAC
 40
1.0
  9
$DIMBLK
  1
_FILLED
  9
$DIMALT
 70
0
  9
$DIMALTF
 40
0.0393700787
  9
$DIMTXT
 40
3.0
  9
$DIMTOL
 70
1
  9
$DIMLIM
 70
0
  9
$DIMTFAC
 40
1.0
  9
$DIMTP
 40
0.01
  9
$DIMTM
 40
0.01
  9
$DIMGAP
 40
0.625
  9
$DIMDSEP
 70
44
  9
$AUNITS
 70
0
  9
$PDMODE
 70
3
  9
$PDSIZE
 40
3.0
  9
$HANDSEED
  5
322
  9
$TILEMODE
 70
1
  9
$MEASUREMENT
 70
1
  9
$INSUNITS
 70
4
  0
ENDSEC
  0
SECTION
  2
CLASSES
  0
CLASS
  1
ACDBDICTIONARYWDFLT
  2
AcDbDictionaryWithDefault
  3
AutoCAD 2000
 90
0
 91
1
280
0
281
0
  0
CLASS
  1
ACDBPLACEHOLDER
  2
AcDbPlaceHolder
  3
AutoCAD 2000
 90
0
 91
1
280
0
281
0
  0
CLASS
  1
LAYOUT
  2
AcDbLayout
  3
AutoCAD 2000
 90
0
 91
0
280
0
281
0
  0
ENDSEC
  0
SECTION
  2
TABLES
  0
TABLE
  2
VPORT
  5
8
100
AcDbSymbolTable
 70
2
  0
VPORT
  5
1F4
100
AcDbSymbolTableRecord
100
AcDbViewportTableRecord
  2
*ACTIVE
 70
0
 10
0.0
 20
0.0
 11
1.0
 21
1.0
 12
279.4
 22
215.9
 13
0.0
 23
0.0
 14
1.0
 24
1.0
 15
0.0
 25
0.0
 16
0.0
 26
0.0
 36
1.0
 17
0.0
 27
0.0
 37
0.0
 40
431.8
 41
1.2941176471
 42
50.0
 43
0.0
 44
0.0
 50
0.0
 51
0.0
 71
0
 72
100
 73
1
 74
1
 75
0
 76
0
 77
0
 78
0
  0
ENDTAB
  0
TABLE
  2
LTYPE
  5
5
100
AcDbSymbolTable
 70
6
  0
LTYPE
  5
14
100
AcDbSymbolTableRecord
100
AcDbLinetypeTableRecord
  2
BYBLOCK
 70
0
  3

 72
65
 73
0
 40
0.0
  0
LTYPE
  5
15
100
AcDbSymbolTableRecord
100
AcDbLinetypeTableRecord
  2
BYLAYER
 70
0
  3

 72
65
 73
0
 40
0.0
  0
LTYPE
  5
16
100
AcDbSymbolTableRecord
100
AcDbLinetypeTableRecord
  2
CONTINUOUS
 70
64
  3
Solid line
 72
65
 73
0
 40
0.0
  0
LTYPE
  5
1F5
100
AcDbSymbolTableRecord
100
AcDbLinetypeTableRecord
  2
CENTER
 70
64
  3
____ _ ____ _ ____ _ ____ _ ____ _ ____ _ ____
 72
65
 73
4
 40
0.6
 49
0.375
 74
0
 49
-0.075
 74
0
 49
0.075
 74
0
 49
-0.075
 74
0
  0
LTYPE
  5
1F6
100
AcDbSymbolTableRecord
100
AcDbLinetypeTableRecord
  2
HIDDEN
 70
64
  3
- - - - - - - - - - - - - - - - - - - -
 72
65
 73
2
 40
0.2
 49
0.1
 74
0
 49
-0.1
 74
0
  0
LTYPE
  5
1F7
100
AcDbSymbolTableRecord
100
AcDbLinetypeTableRecord
  2
PHANTOM
 70
64
  3
_____ _ _ _____ _ _ _____ _ _ _____
 72
65
 73
6
 40
0.8
 49
0.45
 74
0
 49
-0.05
 74
0
 49
0.1
 74
0
 49
-0.05
 74
0
 49
0.1
 74
0
 49
-0.05
 74
0
  0
LTYPE
  5
1F8
100
AcDbSymbolTableRecord
100
AcDbLinetypeTableRecord
  2
DOT
 70
64
  3
. . . . . . . . . . . . . . . . . . . .
 72
65
 73
2
 40
0.2
 49
0.1
 74
0
 49
-0.1
 74
0
  0
LTYPE
  5
1F9
100
AcDbSymbolTableRecord
100
AcDbLinetypeTableRecord
  2
DASHED
 70
64
  3
- - - - - - - - - - - - - - - - - - - -
 72
65
 73
2
 40
0.2
 49
0.1
 74
0
 49
-0.1
 74
0
  0
ENDTAB
  0
TABLE
  2
LAYER
  5
2
100
AcDbSymbolTable
 70
36
  0
LAYER
  5
10
100
AcDbSymbolTableRecord
100
AcDbLayerTableRecord
  2
0
 70
0
 62
7
  6
CONTINUOUS
370
-3
390
F
  0
LAYER
  5
1FA
100
AcDbSymbolTableRecord
100
AcDbLayerTableRecord
  2
DEFAULT_1
 70
0
 62
7
  6
CENTER
370
-3
390
F
  0
LAYER
  5
1FB
100
AcDbSymbolTableRecord
100
AcDbLayerTableRecord
  2
DEFAULT_2
 70
0
 62
7
  6
HIDDEN
370
-3
390
F
  0
LAYER
  5
1FC
100
AcDbSymbolTableRecord
100
AcDbLayerTableRecord
  2
DEFAULT_3
 70
0
 62
7
  6
PHANTOM
370
-3
390
F
  0
LAYER
  5
1FD
100
AcDbSymbolTableRecord
100
AcDbLayerTableRecord
  2
ASSI
 70
0
 62
7
  6
CONTINUOUS
370
-3
390
F
  0
LAYER
  5
1FE
100
AcDbSymbolTableRecord
100
AcDbLayerTableRecord
  2
COORDINATE
 70
0
 62
7
  6
CONTINUOUS
370
-3
390
F
  0
LAYER
  5
1FF
100
AcDbSymbolTableRecord
100
AcDbLayerTableRecord
  2
COPY_PUBLISH
 70
0
 62
7
  6
CONTINUOUS
370
-3
390
F
  0
LAYER
  5
200
100
AcDbSymbolTableRecord
100
AcDbLayerTableRecord
  2
COSMETIC
 70
0
 62
7
  6
CONTINUOUS
370
-3
390
F
  0
LAYER
  5
201
100
AcDbSymbolTableRecord
100
AcDbLayerTableRecord
  2
CURVE
 70
0
 62
7
  6
CONTINUOUS
370
-3
390
F
  0
LAYER
  5
202
100
AcDbSymbolTableRecord
100
AcDbLayerTableRecord
  2
IMPORT_IGES
 70
0
 62
7
  6
CONTINUOUS
370
-3
390
F
  0
LAYER
  5
203
100
AcDbSymbolTableRecord
100
AcDbLayerTableRecord
  2
INTF_1
 70
0
 62
7
  6
CONTINUOUS
370
-3
390
F
  0
LAYER
  5
204
100
AcDbSymbolTableRecord
100
AcDbLayerTableRecord
  2
NOTE
 70
0
 62
7
  6
CONTINUOUS
370
-3
390
F
  0
LAYER
  5
205
100
AcDbSymbolTableRecord
100
AcDbLayerTableRecord
  2
PIANI
 70
0
 62
7
  6
CONTINUOUS
370
-3
390
F
  0
LAYER
  5
206
100
AcDbSymbolTableRecord
100
AcDbLayerTableRecord
  2
PUNTI
 70
0
 62
7
  6
CONTINUOUS
370
-3
390
F
  0
LAYER
  5
207
100
AcDbSymbolTableRecord
100
AcDbLayerTableRecord
  2
RACCORDO
 70
0
 62
7
  6
CONTINUOUS
370
-3
390
F
  0
LAYER
  5
208
100
AcDbSymbolTableRecord
100
AcDbLayerTableRecord
  2
RGB____0____0____0__
 70
0
 62
7
  6
CONTINUOUS
370
-3
390
F
  0
LAYER
  5
209
100
AcDbSymbolTableRecord
100
AcDbLayerTableRecord
  2
SNAPLINE
 70
0
 62
7
  6
CONTINUOUS
370
-3
390
F
  0
LAYER
  5
20A
100
AcDbSymbolTableRecord
100
AcDbLayerTableRecord
  2
TRASH
 70
0
 62
7
  6
CONTINUOUS
370
-3
390
F
  0
ENDTAB
  0
TABLE
  2
STYLE
  5
3
100
AcDbSymbolTable
 70
1
  0
STYLE
  5
11
100
AcDbSymbolTableRecord
100
AcDbTextStyleTableRecord
  2
STANDARD
 70
0
 40
0.0
 41
0.8
 50
0.0
 71
0
 42
0.2
  3
txt
  4

  0
STYLE
  5
20B
100
AcDbSymbolTableRecord
100
AcDbTextStyleTableRecord
  2
TEXTSTYLE_1
 70
0
 40
0.0
 41
0.8
 50
0.0
 71
0
 42
0.2
  3
gdt
  4

  0
ENDTAB
  0
TABLE
  2
VIEW
  5
6
100
AcDbSymbolTable
 70
0
  0
ENDTAB
  0
TABLE
  2
UCS
  5
7
100
AcDbSymbolTable
 70
0
  0
ENDTAB
  0
TABLE
  2
APPID
  5
9
100
AcDbSymbolTable
 70
1
  0
APPID
  5
20C
100
AcDbSymbolTableRecord
100
AcDbRegAppTableRecord
  2
ACAD
 70
0
  0
ENDTAB
  0
TABLE
  2
BLOCK_RECORD
  5
1
100
AcDbSymbolTable
 70
0
  0
BLOCK_RECORD
  5
20D
100
AcDbSymbolTableRecord
100
AcDbBlockTableRecord
  2
*Model_Space
  0
BLOCK_RECORD
  5
20E
100
AcDbSymbolTableRecord
100
AcDbBlockTableRecord
  2
*Paper_Space
  0
BLOCK_RECORD
  5
20F
100
AcDbSymbolTableRecord
100
AcDbBlockTableRecord
  2
_FILLED
  0
ENDTAB
  0
TABLE
  2
DIMSTYLE
  5
A
100
AcDbSymbolTable
 70
1
100
AcDbDimStyleTable
 71
0
  0
DIMSTYLE
105
210
100
AcDbSymbolTableRecord
100
AcDbDimStyleTableRecord
  2
STANDARD
 70
0
  3

  4

 40
1.0
 41
3.0
 42
0.5
 43
0.38
 44
1.5
 45
0.0
 46
0.0
 47
0.01
 48
0.01
140
3.0
141
0.09
142
0.0
143
25.4
144
1.0
145
0.0
146
1.0
147
0.625
 71
1.0
 72
0.0
 73
0
 74
0
 75
0
 76
0
 77
1
 78
8
 79
2
170
0
171
1
172
0
173
0
174
0
175
0
176
0
177
0
178
0
270
2
179
2
271
2
272
2
273
2
274
2
275
0
280
0
281
0
282
0
283
1
284
8
285
0
286
0
287
3
288
0
340
11
278
44
341
20F
342
20F
343
20F
344
20F
  0
ENDTAB
  0
ENDSEC
  0
SECTION
  2
BLOCKS
  0
BLOCK
  5
20
100
AcDbEntity
  8
0
100
AcDbBlockBegin
  2
*Model_Space
 70
0
 10
0.0
 20
0.0
 30
0.0
  3
*Model_Space
  1

  0
ENDBLK
  5
21
100
AcDbEntity
  8
0
100
AcDbBlockEnd
  0
BLOCK
  5
1C
100
AcDbEntity
  8
0
100
AcDbBlockBegin
  2
*Paper_Space
 70
0
 10
0.0
 20
0.0
 30
0.0
  3
*Paper_Space
  1

  0
ENDBLK
  5
1D
100
AcDbEntity
  8
0
100
AcDbBlockEnd
  0
BLOCK
  5
211
100
AcDbEntity
  8
0
100
AcDbBlockBegin
  2
_FILLED
 70
64
 10
0.0
 20
0.0
  3
_FILLED
  1

  0
SOLID
  5
212
100
AcDbEntity
  8
0
  6
BYBLOCK
 62
0
100
AcDbTrace
 10
0.0
 20
0.0
 11
-1.0
 21
0.3166666667
 12
-1.0
 22
-0.3166666667
 13
-1.0
 23
-0.3166666667
  0
ENDBLK
  5
213
100
AcDbEntity
  8
0
  6
BYBLOCK
 62
0
100
AcDbBlockEnd
  0
ENDSEC
  0
SECTION
  2
ENTITIES
  0
LINE
  5
214
100
AcDbEntity
  8
ASSI
100
AcDbLine
 62
7
  6
CONTINUOUS
 10
-74.762952177
 20
85.5635592505
 11
-75.762952177
 21
84.6975338467
  0
LINE
  5
215
100
AcDbEntity
  8
RACCORDO
100
AcDbLine
 62
250
  6
CONTINUOUS
 10
-68.2164154699
 20
86.6645238281
 11
-69.2164154699
 21
85.7984984244
  0
LINE
  5
216
100
AcDbEntity
  8
RACCORDO
100
AcDbLine
 62
7
  6
CONTINUOUS
 10
-78.1446187002
 20
79.1382443865
 11
-78.1446187002
 21
-36.0431343168
  0
LINE
  5
217
100
AcDbEntity
  8
RACCORDO
100
AcDbLine
 62
250
  6
CONTINUOUS
 10
-77.1446187002
 20
78.2722189827
 11
-77.1446187002
 21
-36.9091597206
  0
LINE
  5
218
100
AcDbEntity
  8
RACCORDO
100
AcDbLine
 62
7
  6
CONTINUOUS
 10
-69.7711156661
 20
-46.8928753928
 11
67.9269235356
 21
-86.6428753928
  0
LINE
  5
219
100
AcDbEntity
  8
RACCORDO
100
AcDbLine
 62
250
  6
CONTINUOUS
 10
-70.2164154699
 20
-45.8373629509
 11
67.4816237318
 21
-85.5873629509
  0
LINE
  5
21A
100
AcDbEntity
  8
0
100
AcDbLine
 62
7
  6
CONTINUOUS
 10
-6.5635482917
 20
-62.0472994414
 11
3.8287565537
 21
-65.0472994414
  0
LINE
  5
21B
100
AcDbEntity
  8
0
100
AcDbLine
 62
7
  6
CONTINUOUS
 10
-6.5385482917
 20
-62.0256488063
 11
3.8287565537
 21
-65.018431928
  0
LINE
  5
21C
100
AcDbEntity
  8
0
100
AcDbLine
 62
7
  6
CONTINUOUS
 10
-4.9149424959
 20
-57.7815044833
 11
-4.5581045225
 21
-57.8845147333
  0
LINE
  5
21D
100
AcDbEntity
  8
0
100
AcDbLine
 62
7
  6
CONTINUOUS
 10
-3.9107349447
 20
-58.0713942333
 11
-3.5539956982
 21
-58.1743759833
  0
LINE
  5
21E
100
AcDbEntity
  8
0
100
AcDbLine
 62
7
  6
CONTINUOUS
 10
-0.5525568967
 20
-59.0408167333
 11
-0.2288721078
 21
-59.1342564833
  0
LINE
  5
21F
100
AcDbEntity
  8
0
100
AcDbLine
 62
7
  6
CONTINUOUS
 10
-1.6817258515
 20
-58.0858464922
 11
-0.5525568967
 21
-58.4118094922
  0
LINE
  5
220
100
AcDbEntity
  8
0
100
AcDbLine
 62
7
  6
CONTINUOUS
 10
-0.2288721078
 20
-58.5052492422
 11
0.1500347909
 21
-58.6146302422
  0
LINE
  5
221
100
AcDbEntity
  8
0
100
AcDbLine
 62
7
  6
CONTINUOUS
 10
0.1500347909
 20
-58.3351136149
 11
-0.2288721078
 21
-58.2257326149
  0
LINE
  5
222
100
AcDbEntity
  8
0
100
AcDbLine
 62
7
  6
CONTINUOUS
 10
-0.5525568967
 20
-58.1322928649
 11
-1.3838373613
 21
-57.8923228649
  0
LINE
  5
223
100
AcDbEntity
  8
0
100
AcDbLine
 62
7
  6
CONTINUOUS
 10
0.1750347909
 20
-58.3134629798
 11
-0.2038721078
 21
-58.2040819798
  0
LINE
  5
224
100
AcDbEntity
  8
0
100
AcDbLine
 62
7
  6
CONTINUOUS
 10
-0.5525568967
 20
-58.1034253514
 11
-1.3588373613
 21
-57.8706722298
  0
LINE
  5
225
100
AcDbEntity
  8
0
100
AcDbLine
 62
7
  6
CONTINUOUS
 10
-3.5539956982
 20
-57.0598419918
 11
-2.7235472993
 21
-57.2995717952
  0
LINE
  5
226
100
AcDbEntity
  8
0
100
AcDbLine
 62
7
  6
CONTINUOUS
 10
-2.806777782
 20
-56.9702903221
 11
-3.5539956982
 21
-56.7545870896
  0
LINE
  5
227
100
AcDbEntity
  8
0
100
AcDbLine
 62
7
  6
CONTINUOUS
 10
-2.7817777153
 20
-56.9486397063
 11
-3.5289956982
 21
-56.7329364545
  0
LINE
  5
228
100
AcDbEntity
  8
0
100
AcDbLine
 62
7
  6
CONTINUOUS
 10
-3.5539956982
 20
-55.8386872828
 11
-2.8067842993
 21
-56.0543886339
  0
LINE
  5
229
100
AcDbEntity
  8
0
100
AcDbLine
 62
7
  6
CONTINUOUS
 10
-0.2288721078
 20
-56.4933137465
 11
-0.457521867
 21
-56.4273082465
  0
LINE
  5
22A
100
AcDbEntity
  8
0
100
AcDbLine
 62
7
  6
CONTINUOUS
 10
-2.7235433406
 20
-55.7731641926
 11
-3.9107349447
 21
-55.4304514965
  0
LINE
  5
22B
100
AcDbEntity
  8
0
100
AcDbLine
 62
7
  6
CONTINUOUS
 10
-4.5581045225
 20
-55.2435719965
 11
-4.9149424959
 21
-55.1405617465
  0
LINE
  5
22C
100
AcDbEntity
  8
0
100
AcDbLine
 62
7
  6
CONTINUOUS
 10
-0.2038721078
 20
-56.4716631114
 11
-0.432521867
 21
-56.4056576114
  0
LINE
  5
22D
100
AcDbEntity
  8
0
100
AcDbLine
 62
7
  6
CONTINUOUS
 10
-2.6985433421
 20
-55.7515135571
 11
-3.8857349447
 21
-55.4088008614
  0
LINE
  5
22E
100
AcDbEntity
  8
0
100
AcDbLine
 62
7
  6
CONTINUOUS
 10
-4.5331045225
 20
-55.2219213614
 11
-4.8899424959
 21
-55.1189111114
  0
LINE
  5
22F
100
AcDbEntity
  8
0
100
AcDbLine
 62
7
  6
CONTINUOUS
 10
3.8287565537
 20
-56.3870454036
 11
-6.5635482917
 21
-53.3870454036
  0
LINE
  5
230
100
AcDbEntity
  8
0
100
AcDbLine
 62
7
  6
CONTINUOUS
 10
-6.6762783972
 20
2.3679873765
 11
-7.441738333
 21
-0.0932210439
  0
LINE
  5
231
100
AcDbEntity
  8
0
100
AcDbLine
 62
7
  6
CONTINUOUS
 10
-9.0430924721
 20
3.0800952616
 11
-9.0680924721
 21
3.0584446265
  0
LINE
  5
232
100
AcDbEntity
  8
0
100
AcDbLine
 62
7
  6
CONTINUOUS
 10
-8.1595084033
 20
2.8250265116
 11
-8.1845084033
 21
2.8033758765
  0
LINE
  5
233
100
AcDbEntity
  8
0
100
AcDbLine
 62
7
  6
CONTINUOUS
 10
-9.0680924721
 20
3.0584446265
 11
-7.8327817118
 21
-1.1947986086
  0
LINE
  5
234
100
AcDbEntity
  8
0
100
AcDbLine
 62
7
  6
CONTINUOUS
 10
-7.441738333
 20
-0.0932210439
 11
-8.1845084033
 21
2.8033758765
  0
LINE
  5
235
100
AcDbEntity
  8
0
100
AcDbLine
 62
7
  6
CONTINUOUS
 10
-7.4249930387
 20
-0.0393793501
 11
-8.1595084033
 21
2.8250265116
  0
LINE
  5
236
100
AcDbEntity
  8
0
100
AcDbLine
 62
7
  6
CONTINUOUS
 10
-0.3584888426
 20
-3.3524411086
 11
-0.7228681653
 21
0.6493858765
  0
LINE
  5
237
100
AcDbEntity
  8
0
100
AcDbLine
 62
7
  6
CONTINUOUS
 10
-0.3334888426
 20
-3.3307904735
 11
-0.6978681653
 21
0.6710365116
  0
LINE
  5
238
100
AcDbEntity
  8
0
100
AcDbLine
 62
7
  6
CONTINUOUS
 10
-1.3213038436
 20
-0.540674572
 11
-1.1541921176
 21
-3.1227413586
  0
LINE
  5
239
100
AcDbEntity
  8
0
100
AcDbLine
 62
7
  6
CONTINUOUS
 10
-6.5635482917
 20
-53.3870454036
 11
-6.5635482917
 21
-62.0472994414
  0
LINE
  5
23A
100
AcDbEntity
  8
0
100
AcDbLine
 62
7
  6
CONTINUOUS
 10
-6.5385482917
 20
-53.3942622819
 11
-6.5385482917
 21
-62.0256488063
  0
LINE
  5
23B
100
AcDbEntity
  8
0
100
AcDbLine
 62
7
  6
CONTINUOUS
 10
-5.5616049756
 20
2.0464427033
 11
-5.5616049756
 21
-1.8504308586
  0
LINE
  5
23C
100
AcDbEntity
  8
0
100
AcDbLine
 62
7
  6
CONTINUOUS
 10
-4.9149424959
 20
-55.1405617465
 11
-4.9149424959
 21
-57.7815044833
  0
LINE
  5
23D
100
AcDbEntity
  8
0
100
AcDbLine
 62
7
  6
CONTINUOUS
 10
-4.7482235241
 20
-2.0852338586
 11
-4.7482235241
 21
1.8116397033
  0
LINE
  5
23E
100
AcDbEntity
  8
0
100
AcDbLine
 62
7
  6
CONTINUOUS
 10
-4.7232235241
 20
-2.0635832235
 11
-4.7232235241
 21
1.8332903384
  0
LINE
  5
23F
100
AcDbEntity
  8
0
100
AcDbLine
 62
7
  6
CONTINUOUS
 10
-4.5581045225
 20
-57.8845147333
 11
-4.5581045225
 21
-55.2435719965
  0
LINE
  5
240
100
AcDbEntity
  8
0
100
AcDbLine
 62
7
  6
CONTINUOUS
 10
-4.5331045225
 20
-57.8628640982
 11
-4.5331045225
 21
-55.2219213614
  0
LINE
  5
241
100
AcDbEntity
  8
0
100
AcDbLine
 62
7
  6
CONTINUOUS
 10
-3.9107349447
 20
-55.4304514965
 11
-3.9107349447
 21
-58.0713942333
  0
LINE
  5
242
100
AcDbEntity
  8
0
100
AcDbLine
 62
7
  6
CONTINUOUS
 10
-3.5539956982
 20
-58.1743759833
 11
-3.5539956982
 21
-57.0598419918
  0
LINE
  5
243
100
AcDbEntity
  8
0
100
AcDbLine
 62
7
  6
CONTINUOUS
 10
-3.5539956982
 20
-56.7545870896
 11
-3.5539956982
 21
-55.8386872828
  0
LINE
  5
244
100
AcDbEntity
  8
0
100
AcDbLine
 62
7
  6
CONTINUOUS
 10
-3.5289956982
 20
-58.1527253482
 11
-3.5289956982
 21
-57.0670588702
  0
LINE
  5
245
100
AcDbEntity
  8
0
100
AcDbLine
 62
7
  6
CONTINUOUS
 10
-3.5289956982
 20
-56.7329364545
 11
-3.5289956982
 21
-55.8459041611
  0
LINE
  5
246
100
AcDbEntity
  8
0
100
AcDbLine
 62
7
  6
CONTINUOUS
 10
-1.6817258515
 20
-57.7695471679
 11
-1.6817258515
 21
-58.0858464922
  0
LINE
  5
247
100
AcDbEntity
  8
0
100
AcDbLine
 62
7
  6
CONTINUOUS
 10
-0.5525568967
 20
-56.9484205495
 11
-0.5525568967
 21
-58.1322928649
  0
LINE
  5
248
100
AcDbEntity
  8
0
100
AcDbLine
 62
7
  6
CONTINUOUS
 10
-0.5525568967
 20
-58.4118094922
 11
-0.5525568967
 21
-59.0408167333
  0
LINE
  5
249
100
AcDbEntity
  8
0
100
AcDbLine
 62
7
  6
CONTINUOUS
 10
-0.2288721078
 20
-59.1342564833
 11
-0.2288721078
 21
-58.5052492422
  0
LINE
  5
24A
100
AcDbEntity
  8
0
100
AcDbLine
 62
7
  6
CONTINUOUS
 10
-0.2288721078
 20
-58.2257326149
 11
-0.2288721078
 21
-56.4933137465
  0
LINE
  5
24B
100
AcDbEntity
  8
0
100
AcDbLine
 62
7
  6
CONTINUOUS
 10
-0.2038721078
 20
-59.1126058482
 11
-0.2038721078
 21
-58.5124661205
  0
LINE
  5
24C
100
AcDbEntity
  8
0
100
AcDbLine
 62
7
  6
CONTINUOUS
 10
-0.2038721078
 20
-58.2040819798
 11
-0.2038721078
 21
-56.4716631114
  0
LINE
  5
24D
100
AcDbEntity
  8
0
100
AcDbLine
 62
7
  6
CONTINUOUS
 10
0.1500347909
 20
-58.6146302422
 11
0.1500347909
 21
-58.3351136149
  0
LINE
  5
24E
100
AcDbEntity
  8
0
100
AcDbLine
 62
7
  6
CONTINUOUS
 10
0.1750347909
 20
-58.5929796071
 11
0.1750347909
 21
-58.3134629798
  0
LINE
  5
24F
100
AcDbEntity
  8
0
100
AcDbLine
 62
7
  6
CONTINUOUS
 10
-3.5322130059
 20
-2.4362658586
 11
-3.3566861111
 21
0.0574958911
  0
LINE
  5
250
100
AcDbEntity
  8
0
100
AcDbLine
 62
7
  6
CONTINUOUS
 10
-3.5072130059
 20
-2.4146152235
 11
-3.3372524109
 21
0.0000644816
  0
LINE
  5
251
100
AcDbEntity
  8
0
100
AcDbLine
 62
7
  6
CONTINUOUS
 10
-3.9585105468
 20
1.5834353765
 11
-4.3103550178
 21
-2.2116356086
  0
LINE
  5
252
100
AcDbEntity
  8
0
100
AcDbLine
 62
7
  6
CONTINUOUS
 10
0.9914680927
 20
0.1544996265
 11
-0.2307665501
 21
-3.3893113586
  0
LINE
  5
253
100
AcDbEntity
  8
0
100
AcDbLine
 62
7
  6
CONTINUOUS
 10
-7.1159889396
 20
-1.4017188586
 11
-5.863452934
 21
2.1333448765
  0
LINE
  5
254
100
AcDbEntity
  8
0
100
AcDbLine
 62
7
  6
CONTINUOUS
 10
-7.0909889396
 20
-1.3800682235
 11
-5.838452934
 21
2.1549955116
  0
LINE
  5
255
100
AcDbEntity
  8
0
100
AcDbLine
 62
7
  6
CONTINUOUS
 10
-1.527630066
 20
0.8817006265
 11
-2.3410106515
 21
-1.046923345
  0
LINE
  5
256
100
AcDbEntity
  8
0
100
AcDbLine
 62
7
  6
CONTINUOUS
 10
-2.2884143306
 20
-2.7953196086
 11
-1.3213038436
 21
-0.540674572
  0
LINE
  5
257
100
AcDbEntity
  8
0
100
AcDbLine
 62
7
  6
CONTINUOUS
 10
-2.2634143306
 20
-2.7736689735
 11
-1.3192438144
 21
-0.5725043736
  0
LINE
  5
258
100
AcDbEntity
  8
0
100
AcDbLine
 62
7
  6
CONTINUOUS
 10
-6.6512783972
 20
2.3896380116
 11
-6.6762783972
 21
2.3679873765
  0
LINE
  5
259
100
AcDbEntity
  8
0
100
AcDbLine
 62
7
  6
CONTINUOUS
 10
-5.838452934
 20
2.1549955116
 11
-5.863452934
 21
2.1333448765
  0
LINE
  5
25A
100
AcDbEntity
  8
0
100
AcDbLine
 62
7
  6
CONTINUOUS
 10
-5.5366049756
 20
2.0680933384
 11
-5.5616049756
 21
2.0464427033
  0
LINE
  5
25B
100
AcDbEntity
  8
0
100
AcDbLine
 62
7
  6
CONTINUOUS
 10
-4.7232235241
 20
1.8332903384
 11
-4.7482235241
 21
1.8116397033
  0
LINE
  5
25C
100
AcDbEntity
  8
0
100
AcDbLine
 62
7
  6
CONTINUOUS
 10
-3.9335105468
 20
1.6050860116
 11
-3.9585105468
 21
1.5834353765
  0
LINE
  5
25D
100
AcDbEntity
  8
0
100
AcDbLine
 62
7
  6
CONTINUOUS
 10
-7.0909889396
 20
-1.3800682235
 11
-7.1159889396
 21
-1.4017188586
  0
LINE
  5
25E
100
AcDbEntity
  8
0
100
AcDbLine
 62
7
  6
CONTINUOUS
 10
-3.120801997
 20
1.3704772616
 11
-3.145801997
 21
1.3488266265
  0
LINE
  5
25F
100
AcDbEntity
  8
0
100
AcDbLine
 62
7
  6
CONTINUOUS
 10
-1.502630066
 20
0.9033512616
 11
-1.527630066
 21
0.8817006265
  0
LINE
  5
260
100
AcDbEntity
  8
0
100
AcDbLine
 62
7
  6
CONTINUOUS
 10
-4.7232235241
 20
-2.0635832235
 11
-4.7482235241
 21
-2.0852338586
  0
LINE
  5
261
100
AcDbEntity
  8
0
100
AcDbLine
 62
7
  6
CONTINUOUS
 10
-0.6978681653
 20
0.6710365116
 11
-0.7228681653
 21
0.6493858765
  0
LINE
  5
262
100
AcDbEntity
  8
0
100
AcDbLine
 62
7
  6
CONTINUOUS
 10
-3.5072130059
 20
-2.4146152235
 11
-3.5322130059
 21
-2.4362658586
  0
LINE
  5
263
100
AcDbEntity
  8
0
100
AcDbLine
 62
7
  6
CONTINUOUS
 10
1.0164680927
 20
0.1761502616
 11
0.9914680927
 21
0.1544996265
  0
LINE
  5
264
100
AcDbEntity
  8
0
100
AcDbLine
 62
7
  6
CONTINUOUS
 10
-2.2634143306
 20
-2.7736689735
 11
-2.2884143306
 21
-2.7953196086
  0
LINE
  5
265
100
AcDbEntity
  8
0
100
AcDbLine
 62
7
  6
CONTINUOUS
 10
-7.8327817118
 20
-1.1947986086
 11
-7.1159889396
 21
-1.4017188586
  0
LINE
  5
266
100
AcDbEntity
  8
0
100
AcDbLine
 62
7
  6
CONTINUOUS
 10
-5.5616049756
 20
-1.8504308586
 11
-4.7482235241
 21
-2.0852338586
  0
LINE
  5
267
100
AcDbEntity
  8
0
100
AcDbLine
 62
7
  6
CONTINUOUS
 10
-4.3103550178
 20
-2.2116356086
 11
-3.5322130059
 21
-2.4362658586
  0
LINE
  5
268
100
AcDbEntity
  8
0
100
AcDbLine
 62
7
  6
CONTINUOUS
 10
-2.4024906609
 20
-2.7623886086
 11
-2.2884143306
 21
-2.7953196086
  0
LINE
  5
269
100
AcDbEntity
  8
0
100
AcDbLine
 62
7
  6
CONTINUOUS
 10
-1.1541921176
 20
-3.1227413586
 11
-0.3584888426
 21
-3.3524411086
  0
LINE
  5
26A
100
AcDbEntity
  8
0
100
AcDbLine
 62
7
  6
CONTINUOUS
 10
-0.2307665501
 20
-3.3893113586
 11
0.5737909686
 21
-3.6215671086
  0
LINE
  5
26B
100
AcDbEntity
  8
0
100
AcDbLine
 62
7
  6
CONTINUOUS
 10
2.11663168
 20
-4.0669468586
 11
2.9739024329
 21
-4.3144196086
  0
LINE
  5
26C
100
AcDbEntity
  8
0
100
AcDbLine
 62
7
  6
CONTINUOUS
 10
3.2127507369
 20
-4.3833687427
 11
4.0228593918
 21
-4.6172269677
  0
LINE
  5
26D
100
AcDbEntity
  8
0
100
AcDbLine
 62
7
  6
CONTINUOUS
 10
5.2684408962
 20
-4.9767953761
 11
6.0508193132
 21
-5.202648571
  0
LINE
  5
26E
100
AcDbEntity
  8
0
100
AcDbLine
 62
7
  6
CONTINUOUS
 10
0.7982327104
 20
-2.9084496736
 11
1.9059233691
 21
-3.2282124236
  0
LINE
  5
26F
100
AcDbEntity
  8
0
100
AcDbLine
 62
7
  6
CONTINUOUS
 10
1.7433695348
 20
-2.5793449584
 11
0.964614377
 21
-2.3545377084
  0
LINE
  5
270
100
AcDbEntity
  8
0
100
AcDbLine
 62
7
  6
CONTINUOUS
 10
1.7359083903
 20
-2.5483235981
 11
0.989614377
 21
-2.3328870733
  0
LINE
  5
271
100
AcDbEntity
  8
0
100
AcDbLine
 62
7
  6
CONTINUOUS
 10
4.0228593918
 20
-3.0922976512
 11
4.458975092
 21
-3.2181934097
  0
LINE
  5
272
100
AcDbEntity
  8
0
100
AcDbLine
 62
7
  6
CONTINUOUS
 10
4.4607283209
 20
-2.5805241871
 11
3.9958888865
 21
-2.4463366008
  0
LINE
  5
273
100
AcDbEntity
  8
0
100
AcDbLine
 62
7
  6
CONTINUOUS
 10
4.4857283209
 20
-2.558873552
 11
4.0208888865
 21
-2.4246859657
  0
LINE
  5
274
100
AcDbEntity
  8
0
100
AcDbLine
 62
7
  6
CONTINUOUS
 10
1.7783171239
 20
-0.0726441235
 11
0.9914680927
 21
0.1544996265
  0
LINE
  5
275
100
AcDbEntity
  8
0
100
AcDbLine
 62
7
  6
CONTINUOUS
 10
-0.7228681653
 20
0.6493858765
 11
-1.527630066
 21
0.8817006265
  0
LINE
  5
276
100
AcDbEntity
  8
0
100
AcDbLine
 62
7
  6
CONTINUOUS
 10
-3.145801997
 20
1.3488266265
 11
-3.9585105468
 21
1.5834353765
  0
LINE
  5
277
100
AcDbEntity
  8
0
100
AcDbLine
 62
7
  6
CONTINUOUS
 10
-5.863452934
 20
2.1333448765
 11
-6.6762783972
 21
2.3679873765
  0
LINE
  5
278
100
AcDbEntity
  8
0
100
AcDbLine
 62
7
  6
CONTINUOUS
 10
-8.1845084033
 20
2.8033758765
 11
-9.0680924721
 21
3.0584446265
  0
LINE
  5
279
100
AcDbEntity
  8
0
100
AcDbLine
 62
7
  6
CONTINUOUS
 10
-4.7482235241
 20
1.8116397033
 11
-5.5616049756
 21
2.0464427033
  0
LINE
  5
27A
100
AcDbEntity
  8
0
100
AcDbLine
 62
7
  6
CONTINUOUS
 10
1.8033171239
 20
-0.0509934884
 11
1.0164680927
 21
0.1761502616
  0
LINE
  5
27B
100
AcDbEntity
  8
0
100
AcDbLine
 62
7
  6
CONTINUOUS
 10
-0.6978681653
 20
0.6710365116
 11
-1.502630066
 21
0.9033512616
  0
LINE
  5
27C
100
AcDbEntity
  8
0
100
AcDbLine
 62
7
  6
CONTINUOUS
 10
-3.120801997
 20
1.3704772616
 11
-3.9335105468
 21
1.6050860116
  0
LINE
  5
27D
100
AcDbEntity
  8
0
100
AcDbLine
 62
7
  6
CONTINUOUS
 10
-5.838452934
 20
2.1549955116
 11
-6.6512783972
 21
2.3896380116
  0
LINE
  5
27E
100
AcDbEntity
  8
0
100
AcDbLine
 62
7
  6
CONTINUOUS
 10
-8.1595084033
 20
2.8250265116
 11
-9.0430924721
 21
3.0800952616
  0
LINE
  5
27F
100
AcDbEntity
  8
0
100
AcDbLine
 62
7
  6
CONTINUOUS
 10
-4.7232235241
 20
1.8332903384
 11
-5.5366049756
 21
2.0680933384
  0
LINE
  5
280
100
AcDbEntity
  8
0
100
AcDbLine
 62
7
  6
CONTINUOUS
 10
-3.3566861111
 20
0.0574958911
 11
-2.4024906609
 21
-2.7623886086
  0
LINE
  5
281
100
AcDbEntity
  8
0
100
AcDbLine
 62
7
  6
CONTINUOUS
 10
-2.3410106515
 20
-1.046923345
 11
-3.145801997
 21
1.3488266265
  0
LINE
  5
282
100
AcDbEntity
  8
0
100
AcDbLine
 62
7
  6
CONTINUOUS
 10
-2.3230464664
 20
-1.0043280844
 11
-3.120801997
 21
1.3704772616
  0
LINE
  5
283
100
AcDbEntity
  8
0
100
AcDbLine
 62
7
  6
CONTINUOUS
 10
3.2127507369
 20
-0.5322552612
 11
3.2127507369
 21
-4.3833687427
  0
LINE
  5
284
100
AcDbEntity
  8
0
100
AcDbLine
 62
7
  6
CONTINUOUS
 10
3.8287565537
 20
-65.0472994414
 11
3.8287565537
 21
-56.3870454036
  0
LINE
  5
285
100
AcDbEntity
  8
0
100
AcDbLine
 62
7
  6
CONTINUOUS
 10
3.9958888865
 20
-2.4463366008
 11
3.9958888865
 21
-1.3766331801
  0
LINE
  5
286
100
AcDbEntity
  8
0
100
AcDbLine
 62
7
  6
CONTINUOUS
 10
4.0208888865
 20
-2.4246859657
 11
4.0208888865
 21
-1.3766331801
  0
LINE
  5
287
100
AcDbEntity
  8
0
100
AcDbLine
 62
7
  6
CONTINUOUS
 10
4.0228593918
 20
-4.6172269677
 11
4.0228593918
 21
-3.0922976512
  0
LINE
  5
288
100
AcDbEntity
  8
0
100
AcDbLine
 62
7
  6
CONTINUOUS
 10
4.0478593918
 20
-4.5955763326
 11
4.0478593918
 21
-3.0995145296
  0
LINE
  5
289
100
AcDbEntity
  8
0
100
AcDbLine
 62
7
  6
CONTINUOUS
 10
5.3039145619
 20
-3.1681191512
 11
5.3039145619
 21
-3.145093411
  0
LINE
  5
28A
100
AcDbEntity
  8
0
100
AcDbLine
 62
7
  6
CONTINUOUS
 10
0.964614377
 20
-2.3545377084
 11
1.369610291
 21
-1.0253581411
  0
LINE
  5
28B
100
AcDbEntity
  8
0
100
AcDbLine
 62
7
  6
CONTINUOUS
 10
0.989614377
 20
-2.3328870733
 11
1.3777286938
 21
-1.0591121984
  0
LINE
  5
28C
100
AcDbEntity
  8
0
100
AcDbLine
 62
7
  6
CONTINUOUS
 10
0.5737909686
 20
-3.6215671086
 11
0.7982327104
 21
-2.9084496736
  0
LINE
  5
28D
100
AcDbEntity
  8
0
100
AcDbLine
 62
7
  6
CONTINUOUS
 10
0.5987909686
 20
-3.5999164735
 11
0.8147794646
 21
-2.9136574868
  0
LINE
  5
28E
100
AcDbEntity
  8
0
100
AcDbLine
 62
7
  6
CONTINUOUS
 10
1.8033171239
 20
-0.0509934884
 11
1.7783171239
 21
-0.0726441235
  0
LINE
  5
28F
100
AcDbEntity
  8
0
100
AcDbLine
 62
7
  6
CONTINUOUS
 10
-0.3334888426
 20
-3.3307904735
 11
-0.3584888426
 21
-3.3524411086
  0
LINE
  5
290
100
AcDbEntity
  8
0
100
AcDbLine
 62
7
  6
CONTINUOUS
 10
0.989614377
 20
-2.3328870733
 11
0.964614377
 21
-2.3545377084
  0
LINE
  5
291
100
AcDbEntity
  8
0
100
AcDbLine
 62
7
  6
CONTINUOUS
 10
3.2377507369
 20
-0.5106046261
 11
3.2127507369
 21
-0.5322552612
  0
LINE
  5
292
100
AcDbEntity
  8
0
100
AcDbLine
 62
7
  6
CONTINUOUS
 10
0.5987909686
 20
-3.5999164735
 11
0.5737909686
 21
-3.6215671086
  0
LINE
  5
293
100
AcDbEntity
  8
0
100
AcDbLine
 62
250
  6
CONTINUOUS
 10
5.2450517773
 20
-1.1310880814
 11
5.2200517773
 21
-1.1527387165
  0
LINE
  5
294
100
AcDbEntity
  8
0
100
AcDbLine
 62
7
  6
CONTINUOUS
 10
4.0208888865
 20
-2.4246859657
 11
3.9958888865
 21
-2.4463366008
  0
LINE
  5
295
100
AcDbEntity
  8
0
100
AcDbLine
 62
250
  6
CONTINUOUS
 10
4.4857283209
 20
-2.558873552
 11
4.4607283209
 21
-2.5805241871
  0
LINE
  5
296
100
AcDbEntity
  8
0
100
AcDbLine
 62
7
  6
CONTINUOUS
 10
2.9989024329
 20
-4.2927689735
 11
2.9739024329
 21
-4.3144196086
  0
LINE
  5
297
100
AcDbEntity
  8
0
100
AcDbLine
 62
7
  6
CONTINUOUS
 10
5.3289145619
 20
-3.1464685161
 11
5.3039145619
 21
-3.1681191512
  0
LINE
  5
298
100
AcDbEntity
  8
0
100
AcDbLine
 62
7
  6
CONTINUOUS
 10
4.0478593918
 20
-4.5955763326
 11
4.0228593918
 21
-4.6172269677
  0
LINE
  5
299
100
AcDbEntity
  8
0
100
AcDbLine
 62
250
  6
CONTINUOUS
 10
5.7977572024
 20
-4.0460734464
 11
5.7727572024
 21
-4.0677240815
  0
LINE
  5
29A
100
AcDbEntity
  8
0
100
AcDbLine
 62
7
  6
CONTINUOUS
 10
6.0758193132
 20
-5.1809979359
 11
6.0508193132
 21
-5.202648571
  0
LINE
  5
29B
100
AcDbEntity
  8
0
100
AcDbLine
 62
7
  6
CONTINUOUS
 10
2.9739024329
 20
-4.3144196086
 11
1.7783171239
 21
-0.0726441235
  0
LINE
  5
29C
100
AcDbEntity
  8
0
100
AcDbLine
 62
7
  6
CONTINUOUS
 10
2.9989024329
 20
-4.2927689735
 11
1.8033171239
 21
-0.0509934884
  0
LINE
  5
29D
100
AcDbEntity
  8
0
100
AcDbLine
 62
7
  6
CONTINUOUS
 10
1.9059233691
 20
-3.2282124236
 11
2.11663168
 21
-4.0669468586
  0
LINE
  5
29E
100
AcDbEntity
  8
0
100
AcDbLine
 62
7
  6
CONTINUOUS
 10
1.369610291
 20
-1.0253581411
 11
1.7433695348
 21
-2.5793449584
  0
LINE
  5
29F
100
AcDbEntity
  8
RACCORDO
100
AcDbLine
 62
250
  6
CONTINUOUS
 10
69.4816237318
 20
46.9145238281
 11
68.4816237318
 21
46.0484984244
  0
LINE
  5
2A0
100
AcDbEntity
  8
RACCORDO
100
AcDbLine
 62
250
  6
CONTINUOUS
 10
78.1418777697
 20
35.7542697903
 11
77.1418777697
 21
34.8882443865
  0
LINE
  5
2A1
100
AcDbEntity
  8
0
100
AcDbLine
 62
7
  6
CONTINUOUS
 10
-1.3838373613
 20
-57.8923228649
 11
-0.5525568967
 21
-56.9484205495
  0
LINE
  5
2A2
100
AcDbEntity
  8
0
100
AcDbLine
 62
7
  6
CONTINUOUS
 10
-0.457521867
 20
-56.4273082465
 11
-1.6817258515
 21
-57.7695471679
  0
LINE
  5
2A3
100
AcDbEntity
  8
0
100
AcDbLine
 62
7
  6
CONTINUOUS
 10
-4.8899424959
 20
-55.1189111114
 11
-4.9149424959
 21
-55.1405617465
  0
LINE
  5
2A4
100
AcDbEntity
  8
0
100
AcDbLine
 62
7
  6
CONTINUOUS
 10
-4.5331045225
 20
-55.2219213614
 11
-4.5581045225
 21
-55.2435719965
  0
LINE
  5
2A5
100
AcDbEntity
  8
0
100
AcDbLine
 62
7
  6
CONTINUOUS
 10
-3.8857349447
 20
-55.4088008614
 11
-3.9107349447
 21
-55.4304514965
  0
LINE
  5
2A6
100
AcDbEntity
  8
0
100
AcDbLine
 62
250
  6
CONTINUOUS
 10
-2.6985422879
 20
-55.7515138614
 11
-2.7235422879
 21
-55.7731644965
  0
LINE
  5
2A7
100
AcDbEntity
  8
0
100
AcDbLine
 62
7
  6
CONTINUOUS
 10
-3.5289956982
 20
-56.7329364545
 11
-3.5539956982
 21
-56.7545870896
  0
LINE
  5
2A8
100
AcDbEntity
  8
0
100
AcDbLine
 62
7
  6
CONTINUOUS
 10
-4.5331045225
 20
-57.8628640982
 11
-4.5581045225
 21
-57.8845147333
  0
LINE
  5
2A9
100
AcDbEntity
  8
0
100
AcDbLine
 62
250
  6
CONTINUOUS
 10
-2.7817811856
 20
-56.9486387045
 11
-2.8067811856
 21
-56.9702893396
  0
LINE
  5
2AA
100
AcDbEntity
  8
0
100
AcDbLine
 62
250
  6
CONTINUOUS
 10
-1.9142018276
 20
-56.7411376549
 11
-1.9392018276
 21
-56.76278829
  0
LINE
  5
2AB
100
AcDbEntity
  8
0
100
AcDbLine
 62
7
  6
CONTINUOUS
 10
-3.5289956982
 20
-58.1527253482
 11
-3.5539956982
 21
-58.1743759833
  0
LINE
  5
2AC
100
AcDbEntity
  8
0
100
AcDbLine
 62
7
  6
CONTINUOUS
 10
-0.432521867
 20
-56.4056576114
 11
-0.457521867
 21
-56.4273082465
  0
LINE
  5
2AD
100
AcDbEntity
  8
0
100
AcDbLine
 62
7
  6
CONTINUOUS
 10
-0.2038721078
 20
-56.4716631114
 11
-0.2288721078
 21
-56.4933137465
  0
LINE
  5
2AE
100
AcDbEntity
  8
0
100
AcDbLine
 62
7
  6
CONTINUOUS
 10
-6.5635482917
 20
-62.0472994414
 11
-6.5385482917
 21
-62.0256488063
  0
LINE
  5
2AF
100
AcDbEntity
  8
0
100
AcDbLine
 62
7
  6
CONTINUOUS
 10
-0.2038721078
 20
-58.2040819798
 11
-0.2288721078
 21
-58.2257326149
  0
LINE
  5
2B0
100
AcDbEntity
  8
0
100
AcDbLine
 62
250
  6
CONTINUOUS
 10
1.3189168091
 20
-56.911263464
 11
1.2939168091
 21
-56.9329140991
  0
LINE
  5
2B1
100
AcDbEntity
  8
0
100
AcDbLine
 62
7
  6
CONTINUOUS
 10
0.1750347909
 20
-58.3134629798
 11
0.1500347909
 21
-58.3351136149
  0
LINE
  5
2B2
100
AcDbEntity
  8
0
100
AcDbLine
 62
7
  6
CONTINUOUS
 10
0.1750347909
 20
-58.5929796071
 11
0.1500347909
 21
-58.6146302422
  0
LINE
  5
2B3
100
AcDbEntity
  8
0
100
AcDbLine
 62
250
  6
CONTINUOUS
 10
0.7784318789
 20
-58.0757012154
 11
0.7534318789
 21
-58.0973518505
  0
LINE
  5
2B4
100
AcDbEntity
  8
0
100
AcDbLine
 62
7
  6
CONTINUOUS
 10
-0.2038721078
 20
-59.1126058482
 11
-0.2288721078
 21
-59.1342564833
  0
LINE
  5
2B5
100
AcDbEntity
  8
0
100
AcDbLine
 62
250
  6
CONTINUOUS
 10
2.2051504329
 20
-58.487559386
 11
2.1801504329
 21
-58.5092100211
  0
LINE
  5
2B6
100
AcDbEntity
  8
0
100
AcDbLine
 62
250
  6
CONTINUOUS
 10
1.3189168091
 20
-59.2615751805
 11
1.2939168091
 21
-59.2832258156
  0
LINE
  5
2B7
100
AcDbEntity
  8
RACCORDO
100
AcDbLine
 62
250
  6
CONTINUOUS
 10
67.4816237318
 20
43.450422213
 11
-70.2164154699
 21
83.200422213
  0
LINE
  5
2B8
100
AcDbEntity
  8
RACCORDO
100
AcDbLine
 62
250
  6
CONTINUOUS
 10
68.4816237318
 20
46.0484984244
 11
-69.2164154699
 21
85.7984984244
  0
LINE
  5
2B9
100
AcDbEntity
  8
0
100
AcDbLine
 62
7
  6
CONTINUOUS
 10
69.4816237318
 20
46.9145238281
 11
-68.2164154699
 21
86.6645238281
  0
LINE
  5
2BA
100
AcDbEntity
  8
RACCORDO
100
AcDbLine
 62
250
  6
CONTINUOUS
 10
74.4098269621
 20
-80.6591597206
 11
74.4098269621
 21
34.5222189827
  0
LINE
  5
2BB
100
AcDbEntity
  8
RACCORDO
100
AcDbLine
 62
250
  6
CONTINUOUS
 10
77.1418777697
 20
-80.2931343168
 11
77.1418777697
 21
34.8882443865
  0
LINE
  5
2BC
100
AcDbEntity
  8
0
100
AcDbLine
 62
7
  6
CONTINUOUS
 10
78.1418777697
 20
-79.427108913
 11
78.1418777697
 21
35.7542697903
  0
LINE
  5
2BD
100
AcDbEntity
  8
RACCORDO
100
AcDbLine
 62
250
  6
CONTINUOUS
 10
78.1418777697
 20
-79.427108913
 11
77.1418777697
 21
-80.2931343168
  0
LINE
  5
2BE
100
AcDbEntity
  8
ASSI
100
AcDbLine
 62
7
  6
CONTINUOUS
 10
76.0281604389
 20
-84.4863983732
 11
75.0281604389
 21
-85.352423777
  0
ARC
  5
2BF
100
AcDbEntity
  8
0
100
AcDbCircle
 62
7
  6
CONTINUOUS
 10
4.9314529328
 20
-3.7230732704
 40
0.7003204904
100
AcDbArc
 50
49.6137560206
 51
55.4209672969
  0
SPLINE
  5
2C0
100
AcDbEntity
  8
0
100
AcDbSpline
 62
7
  6
CONTINUOUS
 70
0
 71
3
 72
18
 73
14
 74
0
 42
0.0000001
 43
0.0000001
 44
0.0000000001
 40
0.0
 40
0.0
 40
0.0
 40
0.0
 40
0.1245785072
 40
0.2577844013
 40
0.3264773083
 40
0.3956185711
 40
0.5322613145
 40
0.6628123564
 40
0.783786067
 40
0.8405862894
 40
0.895143809
 40
0.9480225267
 40
1.0
 40
1.0
 40
1.0
 40
1.0
 10
-58.9580852207
 20
64.3619649449
 30
0.0
 10
-58.9580852207
 20
64.6350800613
 30
0.0
 10
-59.0472845036
 20
65.2019019705
 30
0.0
 10
-59.33657721
 20
65.864077243
 30
0.0
 10
-59.6643582019
 20
66.361045405
 30
0.0
 10
-60.0512815014
 20
66.823300424
 30
0.0
 10
-60.6181039139
 20
67.3059188704
 30
0.0
 10
-61.3844375674
 20
67.6945557989
 30
0.0
 10
-62.0577569459
 20
67.8311594384
 30
0.0
 10
-62.5687925965
 20
67.8077757176
 30
0.0
 10
-62.92206107
 20
67.7281352447
 30
0.0
 10
-63.2442972446
 20
67.5874647048
 30
0.0
 10
-63.4339837788
 20
67.4543503026
 30
0.0
 10
-63.5201224436
 20
67.3797517823
 30
0.0
  0
SPLINE
  5
2C1
100
AcDbEntity
  8
0
100
AcDbSpline
 62
7
  6
CONTINUOUS
 70
0
 71
3
 72
11
 73
7
 74
0
 42
0.0000001
 43
0.0000001
 44
0.0000000001
 40
0.0
 40
0.0
 40
0.0
 40
0.0
 40
0.2663096459
 40
0.5195412026
 40
0.7625832377
 40
1.0
 40
1.0
 40
1.0
 40
1.0
 10
61.4194459053
 20
29.6119649449
 30
0.0
 10
61.4194459053
 20
29.4615929064
 30
0.0
 10
61.3939259321
 20
29.1673330442
 30
0.0
 10
61.2721804656
 20
28.7511322819
 30
0.0
 10
61.0710380542
 20
28.3850521267
 30
0.0
 10
60.8866686112
 20
28.1819396002
 30
0.0
 10
60.7853307056
 20
28.0941781075
 30
0.0
  0
SPLINE
  5
2C2
100
AcDbEntity
  8
0
100
AcDbSpline
 62
7
  6
CONTINUOUS
 70
0
 71
3
 72
11
 73
7
 74
0
 42
0.0000001
 43
0.0000001
 44
0.0000000001
 40
0.0
 40
0.0
 40
0.0
 40
0.0
 40
0.2663096459
 40
0.5195412026
 40
0.7625832377
 40
1.0
 40
1.0
 40
1.0
 40
1.0
 10
-58.9580852207
 20
-33.4989056828
 30
0.0
 10
-58.9580852207
 20
-33.6492777212
 30
0.0
 10
-58.983605194
 20
-33.9435375834
 30
0.0
 10
-59.1053506605
 20
-34.3597383457
 30
0.0
 10
-59.3064930718
 20
-34.725818501
 30
0.0
 10
-59.4908625148
 20
-34.9289310275
 30
0.0
 10
-59.5922004205
 20
-35.0166925202
 30
0.0
  0
SPLINE
  5
2C3
100
AcDbEntity
  8
0
100
AcDbSpline
 62
7
  6
CONTINUOUS
 70
0
 71
3
 72
18
 73
14
 74
0
 42
0.0000001
 43
0.0000001
 44
0.0000000001
 40
0.0
 40
0.0
 40
0.0
 40
0.0
 40
0.1245785072
 40
0.2577844013
 40
0.3264773083
 40
0.3956185711
 40
0.5322613145
 40
0.6628123564
 40
0.783786067
 40
0.8405862894
 40
0.895143809
 40
0.9480225267
 40
1.0
 40
1.0
 40
1.0
 40
1.0
 10
61.4194459053
 20
-68.2489056828
 30
0.0
 10
61.4194459053
 20
-67.9757905664
 30
0.0
 10
61.3302466225
 20
-67.4089686572
 30
0.0
 10
61.040953916
 20
-66.7467933846
 30
0.0
 10
60.7131729241
 20
-66.2498252226
 30
0.0
 10
60.3262496247
 20
-65.7875702036
 30
0.0
 10
59.7594272122
 20
-65.3049517573
 30
0.0
 10
58.9930935587
 20
-64.9163148288
 30
0.0
 10
58.3197741801
 20
-64.7797111892
 30
0.0
 10
57.8087385295
 20
-64.80309491
 30
0.0
 10
57.4554700561
 20
-64.882735383
 30
0.0
 10
57.1332338814
 20
-65.0234059228
 30
0.0
 10
56.9435473472
 20
-65.1565203251
 30
0.0
 10
56.8574086824
 20
-65.2311188453
 30
0.0
  0
SPLINE
  5
2C4
100
AcDbEntity
  8
0
100
AcDbSpline
 62
7
  6
CONTINUOUS
 70
0
 71
3
 72
11
 73
7
 74
0
 42
0.0000001
 43
0.0000001
 44
0.0000000001
 40
0.0
 40
0.0
 40
0.0
 40
0.0
 40
0.2348764469
 40
0.4745881015
 40
0.7292814168
 40
1.0
 40
1.0
 40
1.0
 40
1.0
 10
0.9670877607
 20
-57.2841561268
 30
0.0
 10
0.9876260356
 20
-57.2663694621
 30
0.0
 10
1.0330753092
 20
-57.2344810705
 30
0.0
 10
1.1141211731
 20
-57.2067053006
 30
0.0
 10
1.2035504379
 20
-57.2041574738
 30
0.0
 10
1.2638296972
 20
-57.2148416043
 30
0.0
 10
1.2939168091
 20
-57.2235270054
 30
0.0
  0
SPLINE
  5
2C5
100
AcDbEntity
  8
0
100
AcDbSpline
 62
7
  6
CONTINUOUS
 70
0
 71
3
 72
11
 73
7
 74
0
 42
0.0000001
 43
0.0000001
 44
0.0000000001
 40
0.0
 40
0.0
 40
0.0
 40
0.0
 40
0.2340396751
 40
0.4799169841
 40
0.7354482488
 40
1.0
 40
1.0
 40
1.0
 40
1.0
 10
0.7094060255
 20
-57.0243086592
 30
0.0
 10
0.6477222982
 20
-57.0777283768
 30
0.0
 10
0.5413864893
 20
-57.2134646866
 30
0.0
 10
0.46485122
 20
-57.4607589459
 30
0.0
 10
0.4158315442
 20
-57.7234933856
 30
0.0
 10
0.4076831853
 20
-57.905304575
 30
0.0
 10
0.4076831853
 20
-57.9975427998
 30
0.0
  0
SPLINE
  5
2C6
100
AcDbEntity
  8
0
100
AcDbSpline
 62
7
  6
CONTINUOUS
 70
0
 71
3
 72
14
 73
10
 74
0
 42
0.0000001
 43
0.0000001
 44
0.0000000001
 40
0.0
 40
0.0
 40
0.0
 40
0.0
 40
0.1162224473
 40
0.238355436
 40
0.3651669377
 40
0.4948738154
 40
0.6253790231
 40
0.7545019465
 40
1.0
 40
1.0
 40
1.0
 40
1.0
 10
78.1418777697
 20
35.7542697903
 30
0.0
 10
78.1418777697
 20
36.3361132838
 30
0.0
 10
78.0214589751
 20
37.5315478194
 30
0.0
 10
77.5214020697
 20
39.2981989433
 30
0.0
 10
76.7175148928
 20
41.023561828
 30
0.0
 10
75.6408732316
 20
42.6426464898
 30
0.0
 10
74.3305035581
 20
44.0962902055
 30
0.0
 10
72.377477471
 20
45.7099047984
 30
0.0
 10
70.6624422789
 20
46.5736508751
 30
0.0
 10
69.4816237318
 20
46.9145238281
 30
0.0
  0
SPLINE
  5
2C7
100
AcDbEntity
  8
0
100
AcDbSpline
 62
7
  6
CONTINUOUS
 70
0
 71
3
 72
13
 73
9
 74
0
 42
0.0000001
 43
0.0000001
 44
0.0000000001
 40
0.0
 40
0.0
 40
0.0
 40
0.0
 40
0.2706652339
 40
0.525063979
 40
0.6471290177
 40
0.7664071047
 40
0.8837142582
 40
1.0
 40
1.0
 40
1.0
 40
1.0
 10
-68.2164154699
 20
86.6645238281
 30
0.0
 10
-68.815748231
 20
86.8375362936
 30
0.0
 10
-70.0147025634
 20
87.0631424094
 30
0.0
 10
-71.5203159149
 20
87.0069456187
 30
0.0
 10
-72.6359060608
 20
86.747085614
 30
0.0
 10
-73.4115067067
 20
86.453772815
 30
0.0
 10
-74.1274692402
 20
86.0627098609
 30
0.0
 10
-74.5603552737
 20
85.7390050516
 30
0.0
 10
-74.7629498574
 20
85.5635565698
 30
0.0
  0
SPLINE
  5
2C8
100
AcDbEntity
  8
RACCORDO
100
AcDbSpline
 62
7
  6
CONTINUOUS
 70
0
 71
3
 72
15
 73
11
 74
0
 42
0.0000001
 43
0.0000001
 44
0.0000000001
 40
0.0
 40
0.0
 40
0.0
 40
0.0
 40
0.119265364
 40
0.2422050974
 40
0.3682582234
 40
0.4963261569
 40
0.6249673023
 40
0.752643272
 40
0.8779785378
 40
1.0
 40
1.0
 40
1.0
 40
1.0
 10
-78.1446187002
 20
-36.0431343168
 30
0.0
 10
-78.1446187002
 20
-36.6236341213
 30
0.0
 10
-78.0292527072
 20
-37.8047850705
 30
0.0
 10
-77.5457090206
 20
-39.5388588056
 30
0.0
 10
-76.7730490282
 20
-41.2118994395
 30
0.0
 10
-75.7408427099
 20
-42.7711369828
 30
0.0
 10
-74.4848334392
 20
-44.1669335838
 30
0.0
 10
-73.0459412378
 20
-45.3530946313
 30
0.0
 10
-71.4700696886
 20
-46.2884435604
 30
0.0
 10
-70.341730308
 20
-46.7281531342
 30
0.0
 10
-69.7711156661
 20
-46.8928753928
 30
0.0
  0
SPLINE
  5
2C9
100
AcDbEntity
  8
RACCORDO
100
AcDbSpline
 62
7
  6
CONTINUOUS
 70
0
 71
3
 72
12
 73
8
 74
0
 42
0.0000001
 43
0.0000001
 44
0.0000000001
 40
0.0
 40
0.0
 40
0.0
 40
0.0
 40
0.2444065811
 40
0.3675066105
 40
0.4914341141
 40
0.7425198232
 40
1.0
 40
1.0
 40
1.0
 40
1.0
 10
-75.762952177
 20
84.6975338467
 30
0.0
 10
-76.1466530184
 20
84.3652391706
 30
0.0
 10
-76.6669159125
 20
83.7944293184
 30
0.0
 10
-77.2152583749
 20
82.9318429989
 30
0.0
 10
-77.670277983
 20
82.0005092523
 30
0.0
 10
-78.049433473
 20
80.7322154831
 30
0.0
 10
-78.1446187002
 20
79.6729843951
 30
0.0
 10
-78.1446187002
 20
79.1382443865
 30
0.0
  0
SPLINE
  5
2CA
100
AcDbEntity
  8
RACCORDO
100
AcDbSpline
 62
7
  6
CONTINUOUS
 70
0
 71
3
 72
13
 73
9
 74
0
 42
0.0000001
 43
0.0000001
 44
0.0000000001
 40
0.0
 40
0.0
 40
0.0
 40
0.0
 40
0.260055791
 40
0.5115573479
 40
0.6350384567
 40
0.7573431973
 40
0.8788672244
 40
1.0
 40
1.0
 40
1.0
 40
1.0
 10
67.9269235356
 20
-86.6428753928
 30
0.0
 10
68.5530447003
 20
-86.8236210043
 30
0.0
 10
69.8246720673
 20
-87.057573867
 30
0.0
 10
71.4308236797
 20
-86.9844231009
 30
0.0
 10
72.6454967424
 20
-86.6923834599
 30
0.0
 10
73.5071278763
 20
-86.3605170951
 30
0.0
 10
74.310355474
 20
-85.9174313233
 30
0.0
 10
74.7986959144
 20
-85.5511458845
 30
0.0
 10
75.0281604389
 20
-85.352423777
 30
0.0
  0
SPLINE
  5
2CB
100
AcDbEntity
  8
0
100
AcDbSpline
 62
7
  6
CONTINUOUS
 70
0
 71
3
 72
11
 73
7
 74
0
 42
0.0000001
 43
0.0000001
 44
0.0000000001
 40
0.0
 40
0.0
 40
0.0
 40
0.0
 40
0.2374167623
 40
0.4804587974
 40
0.7336903541
 40
1.0
 40
1.0
 40
1.0
 40
1.0
 10
60.7853307056
 20
-69.7666925202
 30
0.0
 10
60.8866686112
 20
-69.6789310275
 30
0.0
 10
61.0710380542
 20
-69.475818501
 30
0.0
 10
61.2721804656
 20
-69.1097383457
 30
0.0
 10
61.3939259321
 20
-68.6935375834
 30
0.0
 10
61.4194459053
 20
-68.3992777212
 30
0.0
 10
61.4194459053
 20
-68.2489056828
 30
0.0
  0
SPLINE
  5
2CC
100
AcDbEntity
  8
0
100
AcDbSpline
 62
7
  6
CONTINUOUS
 70
0
 71
3
 72
18
 73
14
 74
0
 42
0.0000001
 43
0.0000001
 44
0.0000000001
 40
0.0
 40
0.0
 40
0.0
 40
0.0
 40
0.0519774733
 40
0.104856191
 40
0.1594137106
 40
0.216213933
 40
0.3371876436
 40
0.4677386855
 40
0.6043814289
 40
0.6735226917
 40
0.7422155987
 40
0.8754214928
 40
1.0
 40
1.0
 40
1.0
 40
1.0
 10
-63.5201224436
 20
-30.4811188453
 30
0.0
 10
-63.4339837788
 20
-30.4065203251
 30
0.0
 10
-63.2442972446
 20
-30.2734059228
 30
0.0
 10
-62.92206107
 20
-30.132735383
 30
0.0
 10
-62.5687925965
 20
-30.05309491
 30
0.0
 10
-62.0577569459
 20
-30.0297111892
 30
0.0
 10
-61.3844375674
 20
-30.1663148288
 30
0.0
 10
-60.6181039139
 20
-30.5549517573
 30
0.0
 10
-60.0512815014
 20
-31.0375702036
 30
0.0
 10
-59.6643582019
 20
-31.4998252226
 30
0.0
 10
-59.33657721
 20
-31.9967933846
 30
0.0
 10
-59.0472845036
 20
-32.6589686572
 30
0.0
 10
-58.9580852207
 20
-33.2257905664
 30
0.0
 10
-58.9580852207
 20
-33.4989056828
 30
0.0
  0
SPLINE
  5
2CD
100
AcDbEntity
  8
0
100
AcDbSpline
 62
7
  6
CONTINUOUS
 70
0
 71
3
 72
18
 73
14
 74
0
 42
0.0000001
 43
0.0000001
 44
0.0000000001
 40
0.0
 40
0.0
 40
0.0
 40
0.0
 40
0.0519774733
 40
0.104856191
 40
0.1594137106
 40
0.216213933
 40
0.3371876436
 40
0.4677386855
 40
0.6043814289
 40
0.6735226917
 40
0.7422155987
 40
0.8754214928
 40
1.0
 40
1.0
 40
1.0
 40
1.0
 10
56.8574086824
 20
32.6297517823
 30
0.0
 10
56.9435473472
 20
32.7043503026
 30
0.0
 10
57.1332338814
 20
32.8374647048
 30
0.0
 10
57.4554700561
 20
32.9781352447
 30
0.0
 10
57.8087385295
 20
33.0577757176
 30
0.0
 10
58.3197741801
 20
33.0811594384
 30
0.0
 10
58.9930935587
 20
32.9445557989
 30
0.0
 10
59.7594272122
 20
32.5559188704
 30
0.0
 10
60.3262496247
 20
32.073300424
 30
0.0
 10
60.7131729241
 20
31.611045405
 30
0.0
 10
61.040953916
 20
31.114077243
 30
0.0
 10
61.3302466225
 20
30.4519019705
 30
0.0
 10
61.4194459053
 20
29.8850800613
 30
0.0
 10
61.4194459053
 20
29.6119649449
 30
0.0
  0
SPLINE
  5
2CE
100
AcDbEntity
  8
0
100
AcDbSpline
 62
7
  6
CONTINUOUS
 70
0
 71
3
 72
11
 73
7
 74
0
 42
0.0000001
 43
0.0000001
 44
0.0000000001
 40
0.0
 40
0.0
 40
0.0
 40
0.0
 40
0.2374167623
 40
0.4804587974
 40
0.7336903541
 40
1.0
 40
1.0
 40
1.0
 40
1.0
 10
-59.5922004205
 20
62.8441781075
 30
0.0
 10
-59.4908625148
 20
62.9319396002
 30
0.0
 10
-59.3064930718
 20
63.1350521267
 30
0.0
 10
-59.1053506605
 20
63.5011322819
 30
0.0
 10
-58.983605194
 20
63.9173330442
 30
0.0
 10
-58.9580852207
 20
64.2115929064
 30
0.0
 10
-58.9580852207
 20
64.3619649449
 30
0.0
  0
SPLINE
  5
2CF
100
AcDbEntity
  8
0
100
AcDbSpline
 62
7
  6
CONTINUOUS
 70
0
 71
3
 72
11
 73
7
 74
0
 42
0.0000001
 43
0.0000001
 44
0.0000000001
 40
0.0
 40
0.0
 40
0.0
 40
0.0
 40
0.2374168629
 40
0.4804564427
 40
0.7336945496
 40
1.0
 40
1.0
 40
1.0
 40
1.0
 10
76.0281581193
 20
-84.4863956925
 30
0.0
 10
76.3659548807
 20
-84.1938610756
 30
0.0
 10
76.9805135282
 20
-83.5168201794
 30
0.0
 10
77.6510174999
 20
-82.2965579287
 30
0.0
 10
78.0568008177
 20
-80.9092094007
 30
0.0
 10
78.1418777697
 20
-79.9283413945
 30
0.0
 10
78.1418777697
 20
-79.427108913
 30
0.0
  0
SPLINE
  5
2D0
100
AcDbEntity
  8
0
100
AcDbSpline
 62
7
  6
CONTINUOUS
 70
0
 71
3
 72
9
 73
5
 74
0
 42
0.0000001
 43
0.0000001
 44
0.0000000001
 40
0.0
 40
0.0
 40
0.0
 40
0.0
 40
0.4944561017
 40
1.0
 40
1.0
 40
1.0
 40
1.0
 10
4.458975092
 20
-3.2181934097
 30
0.0
 10
4.5660768615
 20
-3.2491110274
 30
0.0
 10
4.7663690773
 20
-3.3794422383
 30
0.0
 10
4.8762154343
 20
-3.5845790938
 30
0.0
 10
4.9127691841
 20
-3.6925331488
 30
0.0
  0
SPLINE
  5
2D1
100
AcDbEntity
  8
0
100
AcDbSpline
 62
7
  6
CONTINUOUS
 70
0
 71
3
 72
11
 73
7
 74
0
 42
0.0000001
 43
0.0000001
 44
0.0000000001
 40
0.0
 40
0.0
 40
0.0
 40
0.0
 40
0.2509902286
 40
0.5009356852
 40
0.7505820716
 40
1.0
 40
1.0
 40
1.0
 40
1.0
 10
4.9127691841
 20
-3.6925331488
 30
0.0
 10
4.9485582539
 20
-3.7981277771
 30
0.0
 10
5.0061481913
 20
-4.0132941491
 30
0.0
 10
5.095894541
 20
-4.3343278248
 30
0.0
 10
5.1827031202
 20
-4.6555548968
 30
0.0
 10
5.2400123636
 20
-4.8697082941
 30
0.0
 10
5.2684408962
 20
-4.9767953761
 30
0.0
  0
SPLINE
  5
2D2
100
AcDbEntity
  8
0
100
AcDbSpline
 62
7
  6
CONTINUOUS
 70
0
 71
3
 72
13
 73
9
 74
0
 42
0.0000001
 43
0.0000001
 44
0.0000000001
 40
0.0
 40
0.0
 40
0.0
 40
0.0
 40
0.1318867533
 40
0.2595678197
 40
0.3844562449
 40
0.5084473405
 40
0.7551143134
 40
1.0
 40
1.0
 40
1.0
 40
1.0
 10
5.3039145619
 20
-3.145093411
 30
0.0
 10
5.3179004635
 20
-3.1473261606
 30
0.0
 10
5.34619177
 20
-3.141040402
 30
0.0
 10
5.3851998648
 20
-3.1287417734
 30
0.0
 10
5.4231976021
 20
-3.1145094524
 30
0.0
 10
5.4712969146
 20
-3.091687026
 30
0.0
 10
5.5278983116
 20
-3.0571822671
 30
0.0
 10
5.5698082327
 20
-3.0249048146
 30
0.0
 10
5.5896874146
 20
-3.0076889381
 30
0.0
  0
SPLINE
  5
2D3
100
AcDbEntity
  8
0
100
AcDbSpline
 62
7
  6
CONTINUOUS
 70
0
 71
3
 72
9
 73
5
 74
0
 42
0.0000001
 43
0.0000001
 44
0.0000000001
 40
0.0
 40
0.0
 40
0.0
 40
0.0
 40
0.4895462082
 40
1.0
 40
1.0
 40
1.0
 40
1.0
 10
3.9958888865
 20
-1.3766331801
 30
0.0
 10
4.1026785603
 20
-1.3892387072
 30
0.0
 10
4.3202654903
 20
-1.4245014252
 30
0.0
 10
4.5291668869
 20
-1.4955754164
 30
0.0
 10
4.6330999468
 20
-1.53764209
 30
0.0
  0
SPLINE
  5
2D4
100
AcDbEntity
  8
0
100
AcDbSpline
 62
7
  6
CONTINUOUS
 70
0
 71
3
 72
11
 73
7
 74
0
 42
0.0000001
 43
0.0000001
 44
0.0000000001
 40
0.0
 40
0.0
 40
0.0
 40
0.0
 40
0.2507593195
 40
0.51157245
 40
0.7646208374
 40
1.0
 40
1.0
 40
1.0
 40
1.0
 10
4.6330999468
 20
-1.53764209
 30
0.0
 10
4.6960219483
 20
-1.5631113373
 30
0.0
 10
4.816896167
 20
-1.6343445538
 30
0.0
 10
4.9663519048
 20
-1.7809021113
 30
0.0
 10
5.0658162027
 20
-1.9611652796
 30
0.0
 10
5.0915708349
 20
-2.0936729829
 30
0.0
 10
5.0925628125
 20
-2.1573830366
 30
0.0
  0
SPLINE
  5
2D5
100
AcDbEntity
  8
0
100
AcDbSpline
 62
7
  6
CONTINUOUS
 70
0
 71
3
 72
11
 73
7
 74
0
 42
0.0000001
 43
0.0000001
 44
0.0000000001
 40
0.0
 40
0.0
 40
0.0
 40
0.0
 40
0.2662292516
 40
0.5218268726
 40
0.7647103354
 40
1.0
 40
1.0
 40
1.0
 40
1.0
 10
5.0925628125
 20
-2.1573830366
 30
0.0
 10
5.0931222628
 20
-2.1938011322
 30
0.0
 10
5.0906405956
 20
-2.2653331017
 30
0.0
 10
5.0714987788
 20
-2.3687939109
 30
0.0
 10
5.0309519699
 20
-2.4618633484
 30
0.0
 10
4.9877952103
 20
-2.5125948199
 30
0.0
 10
4.9634621581
 20
-2.5336678541
 30
0.0
  0
SPLINE
  5
2D6
100
AcDbEntity
  8
0
100
AcDbSpline
 62
7
  6
CONTINUOUS
 70
0
 71
3
 72
18
 73
14
 74
0
 42
0.0000001
 43
0.0000001
 44
0.0000000001
 40
0.0
 40
0.0
 40
0.0
 40
0.0
 40
0.0617109231
 40
0.1259857674
 40
0.1919137488
 40
0.259019912
 40
0.3261724518
 40
0.3920078895
 40
0.5197247883
 40
0.6439561818
 40
0.7650217881
 40
0.8837366471
 40
1.0
 40
1.0
 40
1.0
 40
1.0
 10
1.2939168091
 20
-57.2235270054
 30
0.0
 10
1.3214462324
 20
-57.2314740654
 30
0.0
 10
1.3761417538
 20
-57.2530639987
 30
0.0
 10
1.4537044961
 20
-57.2975495001
 30
0.0
 10
1.5251370871
 20
-57.3556012662
 30
0.0
 10
1.5874107749
 20
-57.4250038497
 30
0.0
 10
1.6411933644
 20
-57.5009317754
 30
0.0
 10
1.7016506174
 20
-57.6060757629
 30
0.0
 10
1.7527594051
 20
-57.7455073027
 30
0.0
 10
1.7909878229
 20
-57.9145494782
 30
0.0
 10
1.8185368236
 20
-58.0814126274
 30
0.0
 10
1.8335803081
 20
-58.2462463157
 30
0.0
 10
1.8344017393
 20
-58.3554177279
 30
0.0
 10
1.8344017393
 20
-58.4094009705
 30
0.0
  0
SPLINE
  5
2D7
100
AcDbEntity
  8
0
100
AcDbSpline
 62
7
  6
CONTINUOUS
 70
0
 71
3
 72
14
 73
10
 74
0
 42
0.0000001
 43
0.0000001
 44
0.0000000001
 40
0.0
 40
0.0
 40
0.0
 40
0.0
 40
0.1325211189
 40
0.2632662654
 40
0.5182673356
 40
0.6432297194
 40
0.7661107218
 40
0.8843350111
 40
1.0
 40
1.0
 40
1.0
 40
1.0
 10
1.8344017393
 20
-58.4094009705
 30
0.0
 10
1.8344017393
 20
-58.4474768739
 30
0.0
 10
1.8343641403
 20
-58.5231408651
 30
0.0
 10
1.8257832468
 20
-58.671874108
 30
0.0
 10
1.8043366275
 20
-58.8174492542
 30
0.0
 10
1.7707150679
 20
-58.9580138909
 30
0.0
 10
1.7387404021
 20
-59.0584193364
 30
0.0
 10
1.6916031075
 20
-59.1503685881
 30
0.0
 10
1.6458675012
 20
-59.2008407164
 30
0.0
 10
1.6207458575
 20
-59.2225966942
 30
0.0
  0
SPLINE
  5
2D8
100
AcDbEntity
  8
0
100
AcDbSpline
 62
7
  6
CONTINUOUS
 70
0
 71
3
 72
11
 73
7
 74
0
 42
0.0000001
 43
0.0000001
 44
0.0000000001
 40
0.0
 40
0.0
 40
0.0
 40
0.0
 40
0.2706354739
 40
0.5265814005
 40
0.7677179376
 40
1.0
 40
1.0
 40
1.0
 40
1.0
 10
1.2939168091
 20
-59.5738387218
 30
0.0
 10
1.3473113566
 20
-59.5892524
 30
0.0
 10
1.4542276705
 20
-59.6099713123
 30
0.0
 10
1.6131399059
 20
-59.6078876856
 30
0.0
 10
1.7596063235
 20
-59.5678223468
 30
0.0
 10
1.8423705802
 20
-59.5136704757
 30
0.0
 10
1.8784275927
 20
-59.4824441618
 30
0.0
  0
SPLINE
  5
2D9
100
AcDbEntity
  8
0
100
AcDbSpline
 62
7
  6
CONTINUOUS
 70
0
 71
3
 72
18
 73
14
 74
0
 42
0.0000001
 43
0.0000001
 44
0.0000000001
 40
0.0
 40
0.0
 40
0.0
 40
0.0
 40
0.1160645587
 40
0.2352159968
 40
0.2959284406
 40
0.3573311214
 40
0.4833520818
 40
0.548213272
 40
0.6138705577
 40
0.6800461621
 40
0.7463355638
 40
0.8764609563
 40
1.0
 40
1.0
 40
1.0
 40
1.0
 10
0.4076831853
 20
-57.9975427998
 30
0.0
 10
0.4076831853
 20
-58.072666866
 30
0.0
 10
0.4131929734
 20
-58.2250290105
 30
0.0
 10
0.4384169055
 20
-58.4152020997
 30
0.0
 10
0.4689334131
 20
-58.5683929071
 30
0.0
 10
0.505786195
 20
-58.7247018222
 30
0.0
 10
0.5584829211
 20
-58.8802252553
 30
0.0
 10
0.6345315484
 20
-59.028071278
 30
0.0
 10
0.7012417937
 20
-59.1366606768
 30
0.0
 10
0.7785630237
 20
-59.2392793135
 30
0.0
 10
0.8959598962
 20
-59.3627015115
 30
0.0
 10
1.0648467094
 20
-59.4858066391
 30
0.0
 10
1.2170917959
 20
-59.5516612508
 30
0.0
 10
1.2939168091
 20
-59.5738387218
 30
0.0
  0
SPLINE
  5
2DA
100
AcDbEntity
  8
0
100
AcDbSpline
 62
7
  6
CONTINUOUS
 70
0
 71
3
 72
15
 73
11
 74
0
 42
0.0000001
 43
0.0000001
 44
0.0000000001
 40
0.0
 40
0.0
 40
0.0
 40
0.0
 40
0.2423683187
 40
0.3686075049
 40
0.4984520529
 40
0.628865955
 40
0.7581503565
 40
0.8833072642
 40
0.9429672735
 40
1.0
 40
1.0
 40
1.0
 40
1.0
 10
-2.8067842993
 20
-56.0543888625
 30
0.0
 10
-2.7410468484
 20
-56.0733653842
 30
0.0
 10
-2.6448193827
 20
-56.1156164373
 30
0.0
 10
-2.5244913064
 20
-56.1889760028
 30
0.0
 10
-2.4421831369
 20
-56.2619307395
 30
0.0
 10
-2.3780783048
 20
-56.3524449914
 30
0.0
 10
-2.3348077699
 20
-56.4528155189
 30
0.0
 10
-2.3143663926
 20
-56.539542224
 30
0.0
 10
-2.3070756945
 20
-56.6075291726
 30
0.0
 10
-2.3070252269
 20
-56.6405062317
 30
0.0
 10
-2.3070252269
 20
-56.6566068207
 30
0.0
  0
SPLINE
  5
2DB
100
AcDbEntity
  8
0
100
AcDbSpline
 62
7
  6
CONTINUOUS
 70
0
 71
3
 72
11
 73
7
 74
0
 42
0.0000001
 43
0.0000001
 44
0.0000000001
 40
0.0
 40
0.0
 40
0.0
 40
0.0
 40
0.1325690515
 40
0.2647534377
 40
0.523590252
 40
1.0
 40
1.0
 40
1.0
 40
1.0
 10
-2.3070252269
 20
-56.6566068207
 30
0.0
 10
-2.3070252269
 20
-56.6703368574
 30
0.0
 10
-2.3068895292
 20
-56.6977699514
 30
0.0
 10
-2.311825963
 20
-56.7518952035
 30
0.0
 10
-2.3305634348
 20
-56.8396432255
 30
0.0
 10
-2.3701139009
 20
-56.9102923527
 30
0.0
 10
-2.407412388
 20
-56.9425937809
 30
0.0
  0
SPLINE
  5
2DC
100
AcDbEntity
  8
0
100
AcDbSpline
 62
7
  6
CONTINUOUS
 70
0
 71
3
 72
13
 73
9
 74
0
 42
0.0000001
 43
0.0000001
 44
0.0000000001
 40
0.0
 40
0.0
 40
0.0
 40
0.0
 40
0.2695326766
 40
0.399408624
 40
0.5260976485
 40
0.6491388809
 40
0.7685691129
 40
1.0
 40
1.0
 40
1.0
 40
1.0
 10
-2.7235472993
 20
-57.299571383
 30
0.0
 10
-2.6682092868
 20
-57.3155463727
 30
0.0
 10
-2.5840028287
 20
-57.3327019641
 30
0.0
 10
-2.4716622584
 20
-57.3395154868
 30
0.0
 10
-2.3904704683
 20
-57.3371520711
 30
0.0
 10
-2.3120525406
 20
-57.3262477471
 30
0.0
 10
-2.2150082008
 20
-57.2961944683
 30
0.0
 10
-2.1493071816
 20
-57.2565083571
 30
0.0
 10
-2.1119222952
 20
-57.2241320948
 30
0.0
  0
SPLINE
  5
2DD
100
AcDbEntity
  8
0
100
AcDbSpline
 62
7
  6
CONTINUOUS
 70
0
 71
3
 72
11
 73
7
 74
0
 42
0.0000001
 43
0.0000001
 44
0.0000000001
 40
0.0
 40
0.0
 40
0.0
 40
0.0
 40
0.234123744
 40
0.4801360402
 40
0.7356019566
 40
1.0
 40
1.0
 40
1.0
 40
1.0
 10
1.9104554121
 20
-59.4546046172
 30
0.0
 10
1.9707332866
 20
-59.4006381429
 30
0.0
 10
2.0744076765
 20
-59.264930427
 30
0.0
 10
2.1489787405
 20
-59.019488184
 30
0.0
 10
2.1972087161
 20
-58.7590493361
 30
0.0
 10
2.2051504329
 20
-58.5789274085
 30
0.0
 10
2.2051504329
 20
-58.487559386
 30
0.0
  0
SPLINE
  5
2DE
100
AcDbEntity
  8
0
100
AcDbSpline
 62
7
  6
CONTINUOUS
 70
0
 71
3
 72
18
 73
14
 74
0
 42
0.0000001
 43
0.0000001
 44
0.0000000001
 40
0.0
 40
0.0
 40
0.0
 40
0.0
 40
0.0617109231
 40
0.1259857674
 40
0.1919137488
 40
0.259019912
 40
0.3261724518
 40
0.3920078895
 40
0.5197247883
 40
0.6439561818
 40
0.7650217882
 40
0.8837366471
 40
1.0
 40
1.0
 40
1.0
 40
1.0
 10
1.2939168091
 20
-59.2832258156
 30
0.0
 10
1.2663873858
 20
-59.2752787556
 30
0.0
 10
1.2116918644
 20
-59.2536888223
 30
0.0
 10
1.1341291221
 20
-59.2092033208
 30
0.0
 10
1.0626965311
 20
-59.1511515548
 30
0.0
 10
1.0004228433
 20
-59.0817489713
 30
0.0
 10
0.9466402538
 20
-59.0058210455
 30
0.0
 10
0.8861830008
 20
-58.900677058
 30
0.0
 10
0.8350742131
 20
-58.7612455182
 30
0.0
 10
0.7968457953
 20
-58.5922033427
 30
0.0
 10
0.7692967946
 20
-58.4253401935
 30
0.0
 10
0.7542533101
 20
-58.2605065052
 30
0.0
 10
0.7534318789
 20
-58.151335093
 30
0.0
 10
0.7534318789
 20
-58.0973518505
 30
0.0
  0
SPLINE
  5
2DF
100
AcDbEntity
  8
0
100
AcDbSpline
 62
7
  6
CONTINUOUS
 70
0
 71
3
 72
14
 73
10
 74
0
 42
0.0000001
 43
0.0000001
 44
0.0000000001
 40
0.0
 40
0.0
 40
0.0
 40
0.0
 40
0.1325211189
 40
0.2632662654
 40
0.5182673356
 40
0.6432297194
 40
0.7661107218
 40
0.8843350111
 40
1.0
 40
1.0
 40
1.0
 40
1.0
 10
0.7534318789
 20
-58.0973518505
 30
0.0
 10
0.7534318789
 20
-58.0592759471
 30
0.0
 10
0.7534694779
 20
-57.9836119559
 30
0.0
 10
0.7620503714
 20
-57.8348787129
 30
0.0
 10
0.7834969907
 20
-57.6893035667
 30
0.0
 10
0.8171185503
 20
-57.54873893
 30
0.0
 10
0.8490932161
 20
-57.4483334845
 30
0.0
 10
0.8962305107
 20
-57.3563842328
 30
0.0
 10
0.941966117
 20
-57.3059121046
 30
0.0
 10
0.9670877607
 20
-57.2841561268
 30
0.0
  0
SPLINE
  5
2E0
100
AcDbEntity
  8
0
100
AcDbSpline
 62
7
  6
CONTINUOUS
 70
0
 71
3
 72
11
 73
7
 74
0
 42
0.0000001
 43
0.0000001
 44
0.0000000001
 40
0.0
 40
0.0
 40
0.0
 40
0.0
 40
0.2340396751
 40
0.4799169841
 40
0.7354482488
 40
1.0
 40
1.0
 40
1.0
 40
1.0
 10
1.8784275927
 20
-59.4824441618
 30
0.0
 10
1.94011132
 20
-59.4290244441
 30
0.0
 10
2.0464471289
 20
-59.2932881343
 30
0.0
 10
2.1229823982
 20
-59.0459938751
 30
0.0
 10
2.172002074
 20
-58.7832594353
 30
0.0
 10
2.1801504329
 20
-58.6014482459
 30
0.0
 10
2.1801504329
 20
-58.5092100211
 30
0.0
  0
SPLINE
  5
2E1
100
AcDbEntity
  8
0
100
AcDbSpline
 62
7
  6
CONTINUOUS
 70
0
 71
3
 72
9
 73
5
 74
0
 42
0.0000001
 43
0.0000001
 44
0.0000000001
 40
0.0
 40
0.0
 40
0.0
 40
0.0
 40
0.4794710788
 40
1.0
 40
1.0
 40
1.0
 40
1.0
 10
-2.4349244652
 20
-56.954041124
 30
0.0
 10
-2.4862024707
 20
-56.9767494237
 30
0.0
 10
-2.6079495118
 20
-56.9841032566
 30
0.0
 10
-2.7232826459
 20
-56.9655257856
 30
0.0
 10
-2.7817777153
 20
-56.9486400095
 30
0.0
  0
SPLINE
  5
2E2
100
AcDbEntity
  8
0
100
AcDbSpline
 62
7
  6
CONTINUOUS
 70
0
 71
3
 72
18
 73
14
 74
0
 42
0.0000001
 43
0.0000001
 44
0.0000000001
 40
0.0
 40
0.0
 40
0.0
 40
0.0
 40
0.1160645587
 40
0.2352159968
 40
0.2959284406
 40
0.3573311214
 40
0.4833520818
 40
0.548213272
 40
0.6138705577
 40
0.6800461621
 40
0.7463355638
 40
0.8764609563
 40
1.0
 40
1.0
 40
1.0
 40
1.0
 10
2.1801504329
 20
-58.5092100211
 30
0.0
 10
2.1801504329
 20
-58.434085955
 30
0.0
 10
2.1746406448
 20
-58.2817238105
 30
0.0
 10
2.1494167127
 20
-58.0915507213
 30
0.0
 10
2.1189002051
 20
-57.9383599139
 30
0.0
 10
2.0820474232
 20
-57.7820509988
 30
0.0
 10
2.0293506971
 20
-57.6265275657
 30
0.0
 10
1.9533020698
 20
-57.478681543
 30
0.0
 10
1.8865918245
 20
-57.3700921442
 30
0.0
 10
1.8092705945
 20
-57.2674735074
 30
0.0
 10
1.691873722
 20
-57.1440513095
 30
0.0
 10
1.5229869088
 20
-57.0209461818
 30
0.0
 10
1.3707418223
 20
-56.9550915702
 30
0.0
 10
1.2939168091
 20
-56.9329140991
 30
0.0
  0
SPLINE
  5
2E3
100
AcDbEntity
  8
0
100
AcDbSpline
 62
7
  6
CONTINUOUS
 70
0
 71
3
 72
11
 73
7
 74
0
 42
0.0000001
 43
0.0000001
 44
0.0000000001
 40
0.0
 40
0.0
 40
0.0
 40
0.0
 40
0.2706354739
 40
0.5265814005
 40
0.7677179376
 40
1.0
 40
1.0
 40
1.0
 40
1.0
 10
1.2939168091
 20
-56.9329140991
 30
0.0
 10
1.2405222616
 20
-56.9175004209
 30
0.0
 10
1.1336059477
 20
-56.8967815086
 30
0.0
 10
0.9746937123
 20
-56.8988651354
 30
0.0
 10
0.8282272947
 20
-56.9389304742
 30
0.0
 10
0.745463038
 20
-56.9930823452
 30
0.0
 10
0.7094060255
 20
-57.0243086592
 30
0.0
  0
SPLINE
  5
2E4
100
AcDbEntity
  8
0
100
AcDbSpline
 62
7
  6
CONTINUOUS
 70
0
 71
3
 72
11
 73
7
 74
0
 42
0.0000001
 43
0.0000001
 44
0.0000000001
 40
0.0
 40
0.0
 40
0.0
 40
0.0
 40
0.2303393634
 40
0.4750193294
 40
0.7320484118
 40
1.0
 40
1.0
 40
1.0
 40
1.0
 10
-2.407412388
 20
-56.9425937809
 30
0.0
 10
-2.4314350437
 20
-56.9633980051
 30
0.0
 10
-2.4923133331
 20
-56.9940238348
 30
0.0
 10
-2.5939496552
 20
-57.0025845872
 30
0.0
 10
-2.7001194761
 20
-56.9958801329
 30
0.0
 10
-2.7712598491
 20
-56.9805435929
 30
0.0
 10
-2.806777782
 20
-56.9702906253
 30
0.0
  0
SPLINE
  5
2E5
100
AcDbEntity
  8
0
100
AcDbSpline
 62
7
  6
CONTINUOUS
 70
0
 71
3
 72
12
 73
8
 74
0
 42
0.0000001
 43
0.0000001
 44
0.0000000001
 40
0.0
 40
0.0
 40
0.0
 40
0.0
 40
0.2342691062
 40
0.4781130227
 40
0.7340693535
 40
0.8660990737
 40
1.0
 40
1.0
 40
1.0
 40
1.0
 10
-2.0869222834
 20
-57.2024814495
 30
0.0
 10
-2.0569523855
 20
-57.1765267539
 30
0.0
 10
-2.0031841385
 20
-57.1144051672
 30
0.0
 10
-1.9489429653
 20
-57.0014048236
 30
0.0
 10
-1.9237325182
 20
-56.8967925173
 30
0.0
 10
-1.914430064
 20
-56.8088494456
 30
0.0
 10
-1.9142018276
 20
-56.7637983312
 30
0.0
 10
-1.9142018276
 20
-56.7411376549
 30
0.0
  0
SPLINE
  5
2E6
100
AcDbEntity
  8
0
100
AcDbSpline
 62
7
  6
CONTINUOUS
 70
0
 71
3
 72
12
 73
8
 74
0
 42
0.0000001
 43
0.0000001
 44
0.0000000001
 40
0.0
 40
0.0
 40
0.0
 40
0.0
 40
0.2342691061
 40
0.4781130222
 40
0.734069353
 40
0.8660990734
 40
1.0
 40
1.0
 40
1.0
 40
1.0
 10
-2.1119222952
 20
-57.2241320948
 30
0.0
 10
-2.0819523955
 20
-57.1981773996
 30
0.0
 10
-2.0281841447
 20
-57.1360558127
 30
0.0
 10
-1.9739429678
 20
-57.0230554666
 30
0.0
 10
-1.9487325189
 20
-56.9184431574
 30
0.0
 10
-1.9394300641
 20
-56.8305000829
 30
0.0
 10
-1.9392018276
 20
-56.785448967
 30
0.0
 10
-1.9392018276
 20
-56.76278829
 30
0.0
  0
SPLINE
  5
2E7
100
AcDbEntity
  8
0
100
AcDbSpline
 62
7
  6
CONTINUOUS
 70
0
 71
3
 72
16
 73
12
 74
0
 42
0.0000001
 43
0.0000001
 44
0.0000000001
 40
0.0
 40
0.0
 40
0.0
 40
0.0
 40
0.1052889659
 40
0.215260435
 40
0.3320877725
 40
0.455720471
 40
0.5863197417
 40
0.7226105039
 40
0.8617513467
 40
0.9314508026
 40
1.0
 40
1.0
 40
1.0
 40
1.0
 10
5.6366542909
 20
-2.9661764601
 30
0.0
 10
5.6904324381
 20
-2.9154150381
 30
0.0
 10
5.7838924198
 20
-2.7928208211
 30
0.0
 10
5.8644584714
 20
-2.5707905642
 30
0.0
 10
5.8881283993
 20
-2.3238990429
 30
0.0
 10
5.8649520981
 20
-2.0628898341
 30
0.0
 10
5.7873404107
 20
-1.7978452143
 30
0.0
 10
5.6541519865
 20
-1.5436930375
 30
0.0
 10
5.5026528353
 20
-1.3525924334
 30
0.0
 10
5.3624582748
 20
-1.2170510168
 30
0.0
 10
5.2854305576
 20
-1.1573112188
 30
0.0
 10
5.2450517773
 20
-1.1310880814
 30
0.0
  0
SPLINE
  5
2E8
100
AcDbEntity
  8
0
100
AcDbSpline
 62
7
  6
CONTINUOUS
 70
0
 71
3
 72
16
 73
12
 74
0
 42
0.0000001
 43
0.0000001
 44
0.0000000001
 40
0.0
 40
0.0
 40
0.0
 40
0.0
 40
0.1052304494
 40
0.2148503914
 40
0.3313416314
 40
0.454810809
 40
0.5853683072
 40
0.7218475619
 40
0.8613379987
 40
0.9312445238
 40
1.0
 40
1.0
 40
1.0
 40
1.0
 10
5.5896874146
 20
-3.0076889381
 30
0.0
 10
5.6463368667
 20
-2.9586290737
 30
0.0
 10
5.7459319527
 20
-2.83836541
 30
0.0
 10
5.8344070449
 20
-2.6161402336
 30
0.0
 10
5.8633205121
 20
-2.3667625992
 30
0.0
 10
5.8433367437
 20
-2.1021751184
 30
0.0
 10
5.7678885894
 20
-1.8324771053
 30
0.0
 10
5.6346827874
 20
-1.5733358152
 30
0.0
 10
5.4815962047
 20
-1.3784155624
 30
0.0
 10
5.3393718394
 20
-1.2402784696
 30
0.0
 10
5.2611163992
 20
-1.1794072592
 30
0.0
 10
5.2200517773
 20
-1.1527387165
 30
0.0
  0
SPLINE
  5
2E9
100
AcDbEntity
  8
0
100
AcDbSpline
 62
7
  6
CONTINUOUS
 70
0
 71
3
 72
9
 73
5
 74
0
 42
0.0000001
 43
0.0000001
 44
0.0000000001
 40
0.0
 40
0.0
 40
0.0
 40
0.0
 40
0.4732947561
 40
1.0
 40
1.0
 40
1.0
 40
1.0
 10
4.9304707576
 20
-2.5516865802
 30
0.0
 10
4.8674017503
 20
-2.5848873296
 30
0.0
 10
4.7107882462
 20
-2.6067911505
 30
0.0
 10
4.5623736085
 20
-2.5792872124
 30
0.0
 10
4.4857283209
 20
-2.558873552
 30
0.0
  0
SPLINE
  5
2EA
100
AcDbEntity
  8
0
100
AcDbSpline
 62
7
  6
CONTINUOUS
 70
0
 71
3
 72
11
 73
7
 74
0
 42
0.0000001
 43
0.0000001
 44
0.0000000001
 40
0.0
 40
0.0
 40
0.0
 40
0.0
 40
0.2277506501
 40
0.4695926754
 40
0.7301882641
 40
1.0
 40
1.0
 40
1.0
 40
1.0
 10
4.9634621581
 20
-2.5336678541
 30
0.0
 10
4.9334173531
 20
-2.5596874098
 30
0.0
 10
4.8597516312
 20
-2.6008925669
 30
0.0
 10
4.7321475296
 20
-2.6204012967
 30
0.0
 10
4.5970536847
 20
-2.6118574812
 30
0.0
 10
4.5062279301
 20
-2.592642526
 30
0.0
 10
4.4607283209
 20
-2.5805241871
 30
0.0
  0
SPLINE
  5
2EB
100
AcDbEntity
  8
0
100
AcDbSpline
 62
7
  6
CONTINUOUS
 70
0
 71
3
 72
16
 73
12
 74
0
 42
0.0000001
 43
0.0000001
 44
0.0000000001
 40
0.0
 40
0.0
 40
0.0
 40
0.0
 40
0.0571121843
 40
0.1162962991
 40
0.2395353513
 40
0.3670644796
 40
0.4969147012
 40
0.6274142646
 40
0.7553705738
 40
0.8799249744
 40
1.0
 40
1.0
 40
1.0
 40
1.0
 10
-1.9392018276
 20
-56.76278829
 30
0.0
 10
-1.9392018276
 20
-56.7369656536
 30
0.0
 10
-1.939794723
 20
-56.6843243681
 30
0.0
 10
-1.9524361122
 20
-56.5765989966
 30
0.0
 10
-1.9863119764
 20
-56.4399164845
 30
0.0
 10
-2.0559177547
 20
-56.2814846317
 30
0.0
 10
-2.155303092
 20
-56.1359482325
 30
0.0
 10
-2.2771626541
 20
-56.0082383902
 30
0.0
 10
-2.4186105818
 20
-55.9069918393
 30
0.0
 10
-2.5673202536
 20
-55.8270526617
 30
0.0
 10
-2.6713826232
 20
-55.7882217225
 30
0.0
 10
-2.7235433406
 20
-55.7731642705
 30
0.0
  0
SPLINE
  5
2EC
100
AcDbEntity
  8
0
100
AcDbSpline
 62
7
  6
CONTINUOUS
 70
0
 71
3
 72
9
 73
5
 74
0
 42
0.0000001
 43
0.0000001
 44
0.0000000001
 40
0.0
 40
0.0
 40
0.0
 40
0.0
 40
0.5187221155
 40
1.0
 40
1.0
 40
1.0
 40
1.0
 10
58.9174277777
 20
32.0951536857
 30
0.0
 10
58.9174277777
 20
32.23263427
 30
0.0
 10
58.9556617885
 20
32.5002989481
 30
0.0
 10
59.0880245316
 20
32.7386813854
 30
0.0
 10
59.1714829441
 20
32.8351456162
 30
0.0
  0
SPLINE
  5
2ED
100
AcDbEntity
  8
0
100
AcDbSpline
 62
7
  6
CONTINUOUS
 70
0
 71
3
 72
18
 73
14
 74
0
 42
0.0000001
 43
0.0000001
 44
0.0000000001
 40
0.0
 40
0.0
 40
0.0
 40
0.0
 40
0.1162633529
 40
0.2349782118
 40
0.3560438182
 40
0.4802752117
 40
0.6079921105
 40
0.6738275482
 40
0.740980088
 40
0.8080862512
 40
0.8740142326
 40
0.9382890769
 40
1.0
 40
1.0
 40
1.0
 40
1.0
 10
0.7784318789
 20
-58.0757012154
 30
0.0
 10
0.7784318789
 20
-58.1296844579
 30
0.0
 10
0.7792533101
 20
-58.2388558701
 30
0.0
 10
0.7942967946
 20
-58.4036895584
 30
0.0
 10
0.8218457953
 20
-58.5705527076
 30
0.0
 10
0.8600742131
 20
-58.7395948831
 30
0.0
 10
0.9111830008
 20
-58.8790264229
 30
0.0
 10
0.9716402538
 20
-58.9841704104
 30
0.0
 10
1.0254228433
 20
-59.0600983362
 30
0.0
 10
1.0876965311
 20
-59.1295009197
 30
0.0
 10
1.1591291221
 20
-59.1875526858
 30
0.0
 10
1.2366918644
 20
-59.2320381872
 30
0.0
 10
1.2913873858
 20
-59.2536281205
 30
0.0
 10
1.3189168091
 20
-59.2615751805
 30
0.0
  0
SPLINE
  5
2EE
100
AcDbEntity
  8
0
100
AcDbSpline
 62
7
  6
CONTINUOUS
 70
0
 71
3
 72
11
 73
7
 74
0
 42
0.0000001
 43
0.0000001
 44
0.0000000001
 40
0.0
 40
0.0
 40
0.0
 40
0.0
 40
0.2699613863
 40
0.5252454204
 40
0.7657311833
 40
1.0
 40
1.0
 40
1.0
 40
1.0
 10
1.3189168091
 20
-59.2615751805
 30
0.0
 10
1.346955363
 20
-59.2696692138
 30
0.0
 10
1.4031621475
 20
-59.2800285524
 30
0.0
 10
1.4866289176
 20
-59.279503789
 30
0.0
 10
1.5636411661
 20
-59.2579318348
 30
0.0
 10
1.6078934813
 20
-59.2307779264
 30
0.0
 10
1.6280110792
 20
-59.2153948835
 30
0.0
  0
SPLINE
  5
2EF
100
AcDbEntity
  8
0
100
AcDbSpline
 62
7
  6
CONTINUOUS
 70
0
 71
3
 72
11
 73
7
 74
0
 42
0.0000001
 43
0.0000001
 44
0.0000000001
 40
0.0
 40
0.0
 40
0.0
 40
0.0
 40
0.2706354674
 40
0.5265813954
 40
0.7677179389
 40
1.0
 40
1.0
 40
1.0
 40
1.0
 10
1.3189168091
 20
-56.911263464
 30
0.0
 10
1.2655222854
 20
-56.8958497927
 30
0.0
 10
1.1586060191
 20
-56.8751308851
 30
0.0
 10
0.9996938518
 20
-56.8772144887
 30
0.0
 10
0.8532274844
 20
-56.9172797617
 30
0.0
 10
0.7704632353
 20
-56.9714315689
 30
0.0
 10
0.7344062235
 20
-57.0026578525
 30
0.0
  0
SPLINE
  5
2F0
100
AcDbEntity
  8
0
100
AcDbSpline
 62
7
  6
CONTINUOUS
 70
0
 71
3
 72
9
 73
5
 74
0
 42
0.0000001
 43
0.0000001
 44
0.0000000001
 40
0.0
 40
0.0
 40
0.0
 40
0.0
 40
0.5156007989
 40
1.0
 40
1.0
 40
1.0
 40
1.0
 10
57.0732934826
 20
31.8480865381
 30
0.0
 10
57.0732934826
 20
32.0407364961
 30
0.0
 10
57.1148423954
 20
32.4162122865
 30
0.0
 10
57.2538052469
 20
32.7691409074
 30
0.0
 10
57.3446121922
 20
32.9257043407
 30
0.0
  0
SPLINE
  5
2F1
100
AcDbEntity
  8
0
100
AcDbSpline
 62
7
  6
CONTINUOUS
 70
0
 71
3
 72
18
 73
14
 74
0
 42
0.0000001
 43
0.0000001
 44
0.0000000001
 40
0.0
 40
0.0
 40
0.0
 40
0.0
 40
0.1160645587
 40
0.2352159968
 40
0.2959284406
 40
0.3573311214
 40
0.4833520818
 40
0.548213272
 40
0.6138705577
 40
0.6800461621
 40
0.7463355638
 40
0.8764609563
 40
1.0
 40
1.0
 40
1.0
 40
1.0
 10
2.2051504329
 20
-58.487559386
 30
0.0
 10
2.2051504329
 20
-58.4124353199
 30
0.0
 10
2.1996406448
 20
-58.2600731754
 30
0.0
 10
2.1744167127
 20
-58.0699000862
 30
0.0
 10
2.1439002051
 20
-57.9167092788
 30
0.0
 10
2.1070474232
 20
-57.7604003637
 30
0.0
 10
2.0543506971
 20
-57.6048769306
 30
0.0
 10
1.9783020698
 20
-57.4570309079
 30
0.0
 10
1.9115918245
 20
-57.3484415091
 30
0.0
 10
1.8342705945
 20
-57.2458228723
 30
0.0
 10
1.716873722
 20
-57.1224006744
 30
0.0
 10
1.5479869088
 20
-56.9992955467
 30
0.0
 10
1.3957418223
 20
-56.9334409351
 30
0.0
 10
1.3189168091
 20
-56.911263464
 30
0.0
  0
SPLINE
  5
2F2
100
AcDbEntity
  8
0
100
AcDbSpline
 62
7
  6
CONTINUOUS
 70
0
 71
3
 72
14
 73
10
 74
0
 42
0.0000001
 43
0.0000001
 44
0.0000000001
 40
0.0
 40
0.0
 40
0.0
 40
0.0
 40
0.2538683327
 40
0.3905810096
 40
0.527073785
 40
0.6585636145
 40
0.7814734958
 40
0.8945901099
 40
1.0
 40
1.0
 40
1.0
 40
1.0
 10
58.9174277777
 20
32.0951536857
 30
0.0
 10
58.9174277777
 20
31.8011871963
 30
0.0
 10
59.0571683729
 20
31.3451123036
 30
0.0
 10
59.411669187
 20
30.8460674784
 30
0.0
 10
59.7604895278
 20
30.5268214126
 30
0.0
 10
60.1572923274
 20
30.3008808993
 30
0.0
 10
60.5724823178
 20
30.1861787907
 30
0.0
 10
60.9741681878
 20
30.1947707819
 30
0.0
 10
61.2163246388
 20
30.2892635386
 30
0.0
 10
61.3190992503
 20
30.3551106106
 30
0.0
  0
SPLINE
  5
2F3
100
AcDbEntity
  8
0
100
AcDbSpline
 62
7
  6
CONTINUOUS
 70
0
 71
3
 72
15
 73
11
 74
0
 42
0.0000001
 43
0.0000001
 44
0.0000000001
 40
0.0
 40
0.0
 40
0.0
 40
0.0
 40
0.1218550967
 40
0.2515989839
 40
0.3861262331
 40
0.5213134692
 40
0.652904712
 40
0.777389025
 40
0.8928921466
 40
1.0
 40
1.0
 40
1.0
 40
1.0
 10
57.0732934826
 20
31.8480865381
 30
0.0
 10
57.0732934826
 20
31.6042191438
 30
0.0
 10
57.144307056
 20
31.0992851882
 30
0.0
 10
57.4277995358
 20
30.3742342253
 30
0.0
 10
57.8705061627
 20
29.7017528478
 30
0.0
 10
58.4413015094
 20
29.1290157644
 30
0.0
 10
59.1006501668
 20
28.6957442181
 30
0.0
 10
59.8040850401
 20
28.4332422342
 30
0.0
 10
60.5035820905
 20
28.3622024403
 30
0.0
 10
60.9491799933
 20
28.4542194467
 30
0.0
 10
61.1480562916
 20
28.5341932238
 30
0.0
  0
SPLINE
  5
2F4
100
AcDbEntity
  8
0
100
AcDbSpline
 62
7
  6
CONTINUOUS
 70
0
 71
3
 72
16
 73
12
 74
0
 42
0.0000001
 43
0.0000001
 44
0.0000000001
 40
0.0
 40
0.0
 40
0.0
 40
0.0
 40
0.0571121843
 40
0.1162962991
 40
0.2395353514
 40
0.3670644797
 40
0.4969147012
 40
0.6274142647
 40
0.7553705739
 40
0.8799249744
 40
1.0
 40
1.0
 40
1.0
 40
1.0
 10
-1.9142018276
 20
-56.7411376549
 30
0.0
 10
-1.9142018276
 20
-56.7153150185
 30
0.0
 10
-1.914794723
 20
-56.6626737329
 30
0.0
 10
-1.9274361122
 20
-56.5549483613
 30
0.0
 10
-1.9613119765
 20
-56.418265849
 30
0.0
 10
-2.030917755
 20
-56.259833996
 30
0.0
 10
-2.1303030926
 20
-56.1142975967
 30
0.0
 10
-2.252162655
 20
-55.9865877544
 30
0.0
 10
-2.3936105829
 20
-55.8853412035
 30
0.0
 10
-2.542320255
 20
-55.805402026
 30
0.0
 10
-2.6463826247
 20
-55.7665710869
 30
0.0
 10
-2.6985433421
 20
-55.751513635
 30
0.0
  0
SPLINE
  5
2F5
100
AcDbEntity
  8
0
100
AcDbSpline
 62
7
  6
CONTINUOUS
 70
0
 71
3
 72
14
 73
10
 74
0
 42
0.0000001
 43
0.0000001
 44
0.0000000001
 40
0.0
 40
0.0
 40
0.0
 40
0.0
 40
0.2538683327
 40
0.3905810096
 40
0.527073785
 40
0.6585636145
 40
0.7814734958
 40
0.8945901099
 40
1.0
 40
1.0
 40
1.0
 40
1.0
 10
58.9174277777
 20
-65.765716942
 30
0.0
 10
58.9174277777
 20
-66.0596834314
 30
0.0
 10
59.0571683729
 20
-66.515758324
 30
0.0
 10
59.411669187
 20
-67.0148031493
 30
0.0
 10
59.7604895278
 20
-67.3340492151
 30
0.0
 10
60.1572923274
 20
-67.5599897284
 30
0.0
 10
60.5724823178
 20
-67.674691837
 30
0.0
 10
60.9741681878
 20
-67.6660998457
 30
0.0
 10
61.2163246388
 20
-67.5716070891
 30
0.0
 10
61.3190992503
 20
-67.505760017
 30
0.0
  0
SPLINE
  5
2F6
100
AcDbEntity
  8
0
100
AcDbSpline
 62
7
  6
CONTINUOUS
 70
0
 71
3
 72
15
 73
11
 74
0
 42
0.0000001
 43
0.0000001
 44
0.0000000001
 40
0.0
 40
0.0
 40
0.0
 40
0.0
 40
0.1218550967
 40
0.2515989839
 40
0.3861262331
 40
0.5213134692
 40
0.652904712
 40
0.777389025
 40
0.8928921466
 40
1.0
 40
1.0
 40
1.0
 40
1.0
 10
57.0732934826
 20
-66.0127840895
 30
0.0
 10
57.0732934826
 20
-66.2566514838
 30
0.0
 10
57.144307056
 20
-66.7615854394
 30
0.0
 10
57.4277995358
 20
-67.4866364023
 30
0.0
 10
57.8705061627
 20
-68.1591177799
 30
0.0
 10
58.4413015094
 20
-68.7318548633
 30
0.0
 10
59.1006501668
 20
-69.1651264096
 30
0.0
 10
59.8040850401
 20
-69.4276283935
 30
0.0
 10
60.5035820905
 20
-69.4986681873
 30
0.0
 10
60.9491799933
 20
-69.406651181
 30
0.0
 10
61.1480562916
 20
-69.3266774039
 30
0.0
  0
SPLINE
  5
2F7
100
AcDbEntity
  8
0
100
AcDbSpline
 62
7
  6
CONTINUOUS
 70
0
 71
3
 72
9
 73
5
 74
0
 42
0.0000001
 43
0.0000001
 44
0.0000000001
 40
0.0
 40
0.0
 40
0.0
 40
0.0
 40
0.5187221155
 40
1.0
 40
1.0
 40
1.0
 40
1.0
 10
58.9174277777
 20
-65.765716942
 30
0.0
 10
58.9174277777
 20
-65.6282363577
 30
0.0
 10
58.9556617885
 20
-65.3605716795
 30
0.0
 10
59.0880245316
 20
-65.1221892422
 30
0.0
 10
59.1714829441
 20
-65.0257250115
 30
0.0
  0
SPLINE
  5
2F8
100
AcDbEntity
  8
0
100
AcDbSpline
 62
7
  6
CONTINUOUS
 70
0
 71
3
 72
9
 73
5
 74
0
 42
0.0000001
 43
0.0000001
 44
0.0000000001
 40
0.0
 40
0.0
 40
0.0
 40
0.0
 40
0.5156007989
 40
1.0
 40
1.0
 40
1.0
 40
1.0
 10
57.0732934826
 20
-66.0127840895
 30
0.0
 10
57.0732934826
 20
-65.8201341316
 30
0.0
 10
57.1148423954
 20
-65.4446583412
 30
0.0
 10
57.2538052469
 20
-65.0917297202
 30
0.0
 10
57.3446121922
 20
-64.935166287
 30
0.0
  0
SPLINE
  5
2F9
100
AcDbEntity
  8
RACCORDO
100
AcDbSpline
 62
250
  6
CONTINUOUS
 70
0
 71
3
 72
13
 73
9
 74
0
 42
0.0000001
 43
0.0000001
 44
0.0000000001
 40
0.0
 40
0.0
 40
0.0
 40
0.0
 40
0.3262008805
 40
0.598964221
 40
0.7147969158
 40
0.818166206
 40
0.9118014641
 40
1.0
 40
1.0
 40
1.0
 40
1.0
 10
-70.2164154699
 20
-45.8373629509
 30
0.0
 10
-70.2164154699
 20
-45.9695072593
 30
0.0
 10
-70.2008626844
 20
-46.2125315343
 30
0.0
 10
-70.1296193806
 20
-46.4962900495
 30
0.0
 10
-70.0397589611
 20
-46.6751033951
 30
0.0
 10
-69.9628939559
 20
-46.7769616564
 30
0.0
 10
-69.8735534003
 20
-46.8520033194
 30
0.0
 10
-69.805443454
 20
-46.8829664553
 30
0.0
 10
-69.7711152296
 20
-46.8928738806
 30
0.0
  0
SPLINE
  5
2FA
100
AcDbEntity
  8
RACCORDO
100
AcDbSpline
 62
250
  6
CONTINUOUS
 70
0
 71
3
 72
13
 73
9
 74
0
 42
0.0000001
 43
0.0000001
 44
0.0000000001
 40
0.0
 40
0.0
 40
0.0
 40
0.0
 40
0.3262008805
 40
0.598964221
 40
0.7147969158
 40
0.818166206
 40
0.9118014641
 40
1.0
 40
1.0
 40
1.0
 40
1.0
 10
67.4816237318
 20
-85.5873629509
 30
0.0
 10
67.4816237318
 20
-85.7195072593
 30
0.0
 10
67.4971765173
 20
-85.9625315342
 30
0.0
 10
67.5684198211
 20
-86.2462900495
 30
0.0
 10
67.6582802406
 20
-86.4251033951
 30
0.0
 10
67.7351452459
 20
-86.5269616564
 30
0.0
 10
67.8244858014
 20
-86.6020033194
 30
0.0
 10
67.8925957477
 20
-86.6329664553
 30
0.0
 10
67.9269239721
 20
-86.6428738806
 30
0.0
  0
SPLINE
  5
2FB
100
AcDbEntity
  8
RACCORDO
100
AcDbSpline
 62
250
  6
CONTINUOUS
 70
0
 71
3
 72
13
 73
9
 74
0
 42
0.0000001
 43
0.0000001
 44
0.0000000001
 40
0.0
 40
0.0
 40
0.0
 40
0.0
 40
0.26343795
 40
0.5372792361
 40
0.6685141827
 40
0.7910640924
 40
0.9021210001
 40
1.0
 40
1.0
 40
1.0
 40
1.0
 10
74.4098269621
 20
-80.6591597206
 30
0.0
 10
74.6498630529
 20
-80.7284521714
 30
0.0
 10
75.1574091907
 20
-80.8093845742
 30
0.0
 10
75.7950878477
 20
-80.789802179
 30
0.0
 10
76.2879701503
 20
-80.6986336436
 30
0.0
 10
76.6197545769
 20
-80.5972797976
 30
0.0
 10
76.906476764
 20
-80.4659942725
 30
0.0
 10
77.0717080471
 20
-80.3539030791
 30
0.0
 10
77.1418777697
 20
-80.2931343168
 30
0.0
  0
SPLINE
  5
2FC
100
AcDbEntity
  8
RACCORDO
100
AcDbSpline
 62
250
  6
CONTINUOUS
 70
0
 71
3
 72
13
 73
9
 74
0
 42
0.0000001
 43
0.0000001
 44
0.0000000001
 40
0.0
 40
0.0
 40
0.0
 40
0.0
 40
0.26343795
 40
0.5372792361
 40
0.6685141827
 40
0.7910640924
 40
0.9021210001
 40
1.0
 40
1.0
 40
1.0
 40
1.0
 10
74.4098269621
 20
34.5222189827
 30
0.0
 10
74.6498630529
 20
34.4529265319
 30
0.0
 10
75.1574091907
 20
34.3719941291
 30
0.0
 10
75.7950878477
 20
34.3915765243
 30
0.0
 10
76.2879701503
 20
34.4827450597
 30
0.0
 10
76.6197545769
 20
34.5840989057
 30
0.0
 10
76.9064767639
 20
34.7153844309
 30
0.0
 10
77.0717080471
 20
34.8274756242
 30
0.0
 10
77.1418777697
 20
34.8882443865
 30
0.0
  0
SPLINE
  5
2FD
100
AcDbEntity
  8
RACCORDO
100
AcDbSpline
 62
250
  6
CONTINUOUS
 70
0
 71
3
 72
13
 73
9
 74
0
 42
0.0000001
 43
0.0000001
 44
0.0000000001
 40
0.0
 40
0.0
 40
0.0
 40
0.0
 40
0.2572193009
 40
0.5311669029
 40
0.6639738027
 40
0.7885137631
 40
0.9013526058
 40
1.0
 40
1.0
 40
1.0
 40
1.0
 10
67.4816237318
 20
43.450422213
 30
0.0
 10
67.4816237318
 20
43.6946593339
 30
0.0
 10
67.5404316805
 20
44.1992486805
 30
0.0
 10
67.7161095897
 20
44.8076713749
 30
0.0
 10
67.9173371598
 20
45.2709499371
 30
0.0
 10
68.0877132544
 20
45.5791478414
 30
0.0
 10
68.2724225411
 20
45.8401366706
 30
0.0
 10
68.4108169736
 20
45.9871779729
 30
0.0
 10
68.4816237318
 20
46.0484984244
 30
0.0
  0
SPLINE
  5
2FE
100
AcDbEntity
  8
RACCORDO
100
AcDbSpline
 62
250
  6
CONTINUOUS
 70
0
 71
3
 72
13
 73
9
 74
0
 42
0.0000001
 43
0.0000001
 44
0.0000000001
 40
0.0
 40
0.0
 40
0.0
 40
0.0
 40
0.2572193009
 40
0.5311669029
 40
0.6639738027
 40
0.7885137631
 40
0.9013526058
 40
1.0
 40
1.0
 40
1.0
 40
1.0
 10
-70.2164154699
 20
83.200422213
 30
0.0
 10
-70.2164154699
 20
83.4446593339
 30
0.0
 10
-70.1576075212
 20
83.9492486805
 30
0.0
 10
-69.9819296121
 20
84.5576713749
 30
0.0
 10
-69.7807020419
 20
85.0209499371
 30
0.0
 10
-69.6103259474
 20
85.3291478414
 30
0.0
 10
-69.4256166607
 20
85.5901366706
 30
0.0
 10
-69.2872222281
 20
85.7371779729
 30
0.0
 10
-69.2164154699
 20
85.7984984244
 30
0.0
  0
SPLINE
  5
2FF
100
AcDbEntity
  8
RACCORDO
100
AcDbSpline
 62
250
  6
CONTINUOUS
 70
0
 71
3
 72
13
 73
9
 74
0
 42
0.0000001
 43
0.0000001
 44
0.0000000001
 40
0.0
 40
0.0
 40
0.0
 40
0.0
 40
0.3152752823
 40
0.5848509777
 40
0.7019452126
 40
0.8083349851
 40
0.9064521086
 40
1.0
 40
1.0
 40
1.0
 40
1.0
 10
-77.1446187002
 20
78.2722189827
 30
0.0
 10
-77.2867038518
 20
78.313235433
 30
0.0
 10
-77.5452502195
 20
78.4089354077
 30
0.0
 10
-77.8282456455
 20
78.5846239622
 30
0.0
 10
-77.9927864981
 20
78.7485824929
 30
0.0
 10
-78.0792363225
 20
78.873448508
 30
0.0
 10
-78.1324865149
 20
79.0040632829
 30
0.0
 10
-78.1446146816
 20
79.0943636582
 30
0.0
 10
-78.1446166882
 20
79.1382443865
 30
0.0
  0
SPLINE
  5
300
100
AcDbEntity
  8
RACCORDO
100
AcDbSpline
 62
250
  6
CONTINUOUS
 70
0
 71
3
 72
13
 73
9
 74
0
 42
0.0000001
 43
0.0000001
 44
0.0000000001
 40
0.0
 40
0.0
 40
0.0
 40
0.0
 40
0.3152752823
 40
0.5848509777
 40
0.7019452126
 40
0.8083349851
 40
0.9064521086
 40
1.0
 40
1.0
 40
1.0
 40
1.0
 10
-77.1446187002
 20
-36.9091597206
 30
0.0
 10
-77.2867038518
 20
-36.8681432703
 30
0.0
 10
-77.5452502195
 20
-36.7724432956
 30
0.0
 10
-77.8282456455
 20
-36.5967547412
 30
0.0
 10
-77.9927864981
 20
-36.4327962104
 30
0.0
 10
-78.0792363225
 20
-36.3079301953
 30
0.0
 10
-78.1324865149
 20
-36.1773154204
 30
0.0
 10
-78.1446146816
 20
-36.0870150451
 30
0.0
 10
-78.1446166882
 20
-36.0431343168
 30
0.0
  0
SPLINE
  5
301
100
AcDbEntity
  8
0
100
AcDbSpline
 62
7
  6
CONTINUOUS
 70
0
 71
3
 72
11
 73
7
 74
0
 42
0.0000001
 43
0.0000001
 44
0.0000000001
 40
0.0
 40
0.0
 40
0.0
 40
0.0
 40
0.2374167623
 40
0.4804587974
 40
0.7336903541
 40
1.0
 40
1.0
 40
1.0
 40
1.0
 10
56.8574086824
 20
-65.2311188453
 30
0.0
 10
56.7560707768
 20
-65.318880338
 30
0.0
 10
56.5717013338
 20
-65.5219928645
 30
0.0
 10
56.3705589224
 20
-65.8880730198
 30
0.0
 10
56.2488134559
 20
-66.3042737821
 30
0.0
 10
56.2232934826
 20
-66.5985336443
 30
0.0
 10
56.2232934826
 20
-66.7489056828
 30
0.0
  0
SPLINE
  5
302
100
AcDbEntity
  8
0
100
AcDbSpline
 62
7
  6
CONTINUOUS
 70
0
 71
3
 72
9
 73
5
 74
0
 42
0.0000001
 43
0.0000001
 44
0.0000000001
 40
0.0
 40
0.0
 40
0.0
 40
0.0
 40
0.4843992011
 40
1.0
 40
1.0
 40
1.0
 40
1.0
 10
-63.0329189338
 20
-30.185166287
 30
0.0
 10
-63.1237258792
 20
-30.3417297202
 30
0.0
 10
-63.2626887306
 20
-30.6946583412
 30
0.0
 10
-63.3042376434
 20
-31.0701341316
 30
0.0
 10
-63.3042376434
 20
-31.2627840895
 30
0.0
  0
SPLINE
  5
303
100
AcDbEntity
  8
0
100
AcDbSpline
 62
7
  6
CONTINUOUS
 70
0
 71
3
 72
9
 73
5
 74
0
 42
0.0000001
 43
0.0000001
 44
0.0000000001
 40
0.0
 40
0.0
 40
0.0
 40
0.0
 40
0.4812778845
 40
1.0
 40
1.0
 40
1.0
 40
1.0
 10
-61.206048182
 20
-30.2757250115
 30
0.0
 10
-61.2895065944
 20
-30.3721892422
 30
0.0
 10
-61.4218693375
 20
-30.6105716795
 30
0.0
 10
-61.4601033483
 20
-30.8782363577
 30
0.0
 10
-61.4601033483
 20
-31.015716942
 30
0.0
  0
SPLINE
  5
304
100
AcDbEntity
  8
0
100
AcDbSpline
 62
7
  6
CONTINUOUS
 70
0
 71
3
 72
15
 73
11
 74
0
 42
0.0000001
 43
0.0000001
 44
0.0000000001
 40
0.0
 40
0.0
 40
0.0
 40
0.0
 40
0.1071078534
 40
0.222610975
 40
0.347095288
 40
0.4786865308
 40
0.6138737669
 40
0.7484010161
 40
0.8781449033
 40
1.0
 40
1.0
 40
1.0
 40
1.0
 10
-59.2294748345
 20
-34.5766774039
 30
0.0
 10
-59.4283511328
 20
-34.656651181
 30
0.0
 10
-59.8739490355
 20
-34.7486681873
 30
0.0
 10
-60.573446086
 20
-34.6776283935
 30
0.0
 10
-61.2768809593
 20
-34.4151264096
 30
0.0
 10
-61.9362296166
 20
-33.9818548633
 30
0.0
 10
-62.5070249634
 20
-33.4091177799
 30
0.0
 10
-62.9497315902
 20
-32.7366364023
 30
0.0
 10
-63.23322407
 20
-32.0115854394
 30
0.0
 10
-63.3042376434
 20
-31.5066514838
 30
0.0
 10
-63.3042376434
 20
-31.2627840895
 30
0.0
  0
SPLINE
  5
305
100
AcDbEntity
  8
0
100
AcDbSpline
 62
7
  6
CONTINUOUS
 70
0
 71
3
 72
18
 73
14
 74
0
 42
0.0000001
 43
0.0000001
 44
0.0000000001
 40
0.0
 40
0.0
 40
0.0
 40
0.0
 40
0.0519774733
 40
0.104856191
 40
0.1594137106
 40
0.216213933
 40
0.3371876436
 40
0.4677386855
 40
0.6043814289
 40
0.6735226917
 40
0.7422155987
 40
0.8754214928
 40
1.0
 40
1.0
 40
1.0
 40
1.0
 10
-59.5922004205
 20
-35.0166925202
 30
0.0
 10
-59.6783390853
 20
-35.0912910405
 30
0.0
 10
-59.8680256195
 20
-35.2244054427
 30
0.0
 10
-60.1902617941
 20
-35.3650759826
 30
0.0
 10
-60.5435302676
 20
-35.4447164555
 30
0.0
 10
-61.0545659182
 20
-35.4681001763
 30
0.0
 10
-61.7278852967
 20
-35.3314965367
 30
0.0
 10
-62.4942189502
 20
-34.9428596082
 30
0.0
 10
-63.0610413627
 20
-34.4602411619
 30
0.0
 10
-63.4479646622
 20
-33.9979861429
 30
0.0
 10
-63.7757456541
 20
-33.5010179809
 30
0.0
 10
-64.0650383605
 20
-32.8388427083
 30
0.0
 10
-64.1542376434
 20
-32.2720207991
 30
0.0
 10
-64.1542376434
 20
-31.9989056828
 30
0.0
  0
SPLINE
  5
306
100
AcDbEntity
  8
0
100
AcDbSpline
 62
7
  6
CONTINUOUS
 70
0
 71
3
 72
14
 73
10
 74
0
 42
0.0000001
 43
0.0000001
 44
0.0000000001
 40
0.0
 40
0.0
 40
0.0
 40
0.0
 40
0.1054098901
 40
0.2185265042
 40
0.3414363855
 40
0.472926215
 40
0.6094189904
 40
0.7461316673
 40
1.0
 40
1.0
 40
1.0
 40
1.0
 10
-59.0584318757
 20
-32.755760017
 30
0.0
 10
-59.1612064873
 20
-32.8216070891
 30
0.0
 10
-59.4033629382
 20
-32.9160998457
 30
0.0
 10
-59.8050488083
 20
-32.924691837
 30
0.0
 10
-60.2202387986
 20
-32.8099897284
 30
0.0
 10
-60.6170415983
 20
-32.5840492151
 30
0.0
 10
-60.9658619391
 20
-32.2648031493
 30
0.0
 10
-61.3203627531
 20
-31.765758324
 30
0.0
 10
-61.4601033483
 20
-31.3096834314
 30
0.0
 10
-61.4601033483
 20
-31.015716942
 30
0.0
  0
SPLINE
  5
307
100
AcDbEntity
  8
0
100
AcDbSpline
 62
7
  6
CONTINUOUS
 70
0
 71
3
 72
18
 73
14
 74
0
 42
0.0000001
 43
0.0000001
 44
0.0000000001
 40
0.0
 40
0.0
 40
0.0
 40
0.0
 40
0.0519774733
 40
0.104856191
 40
0.1594137106
 40
0.216213933
 40
0.3371876436
 40
0.4677386855
 40
0.6043814289
 40
0.6735226917
 40
0.7422155987
 40
0.8754214928
 40
1.0
 40
1.0
 40
1.0
 40
1.0
 10
60.7853307056
 20
28.0941781075
 30
0.0
 10
60.6991920407
 20
28.0195795872
 30
0.0
 10
60.5095055066
 20
27.886465185
 30
0.0
 10
60.1872693319
 20
27.7457946451
 30
0.0
 10
59.8340008584
 20
27.6661541721
 30
0.0
 10
59.3229652078
 20
27.6427704513
 30
0.0
 10
58.6496458293
 20
27.7793740909
 30
0.0
 10
57.8833121758
 20
28.1680110194
 30
0.0
 10
57.3164897633
 20
28.6506294658
 30
0.0
 10
56.9295664638
 20
29.1128844847
 30
0.0
 10
56.601785472
 20
29.6098526467
 30
0.0
 10
56.3124927655
 20
30.2720279193
 30
0.0
 10
56.2232934826
 20
30.8388498285
 30
0.0
 10
56.2232934826
 20
31.1119649449
 30
0.0
  0
SPLINE
  5
308
100
AcDbEntity
  8
0
100
AcDbSpline
 62
7
  6
CONTINUOUS
 70
0
 71
3
 72
18
 73
14
 74
0
 42
0.0000001
 43
0.0000001
 44
0.0000000001
 40
0.0
 40
0.0
 40
0.0
 40
0.0
 40
0.1245785072
 40
0.2577844013
 40
0.3264773083
 40
0.3956185711
 40
0.5322613145
 40
0.6628123564
 40
0.783786067
 40
0.8405862894
 40
0.895143809
 40
0.9480225267
 40
1.0
 40
1.0
 40
1.0
 40
1.0
 10
-64.1542376434
 20
65.8619649449
 30
0.0
 10
-64.1542376434
 20
65.5888498285
 30
0.0
 10
-64.0650383605
 20
65.0220279193
 30
0.0
 10
-63.7757456541
 20
64.3598526467
 30
0.0
 10
-63.4479646622
 20
63.8628844847
 30
0.0
 10
-63.0610413627
 20
63.4006294658
 30
0.0
 10
-62.4942189502
 20
62.9180110194
 30
0.0
 10
-61.7278852967
 20
62.5293740909
 30
0.0
 10
-61.0545659182
 20
62.3927704513
 30
0.0
 10
-60.5435302676
 20
62.4161541721
 30
0.0
 10
-60.1902617941
 20
62.4957946451
 30
0.0
 10
-59.8680256195
 20
62.636465185
 30
0.0
 10
-59.6783390853
 20
62.7695795872
 30
0.0
 10
-59.5922004205
 20
62.8441781075
 30
0.0
  0
SPLINE
  5
309
100
AcDbEntity
  8
0
100
AcDbSpline
 62
7
  6
CONTINUOUS
 70
0
 71
3
 72
11
 73
7
 74
0
 42
0.0000001
 43
0.0000001
 44
0.0000000001
 40
0.0
 40
0.0
 40
0.0
 40
0.0
 40
0.2663096459
 40
0.5195412026
 40
0.7625832377
 40
1.0
 40
1.0
 40
1.0
 40
1.0
 10
56.2232934826
 20
31.1119649449
 30
0.0
 10
56.2232934826
 20
31.2623369834
 30
0.0
 10
56.2488134559
 20
31.5565968456
 30
0.0
 10
56.3705589224
 20
31.9727976079
 30
0.0
 10
56.5717013338
 20
32.3388777631
 30
0.0
 10
56.7560707768
 20
32.5419902896
 30
0.0
 10
56.8574086824
 20
32.6297517823
 30
0.0
  0
SPLINE
  5
30A
100
AcDbEntity
  8
0
100
AcDbSpline
 62
7
  6
CONTINUOUS
 70
0
 71
3
 72
11
 73
7
 74
0
 42
0.0000001
 43
0.0000001
 44
0.0000000001
 40
0.0
 40
0.0
 40
0.0
 40
0.0
 40
0.2663096459
 40
0.5195412026
 40
0.7625832377
 40
1.0
 40
1.0
 40
1.0
 40
1.0
 10
-64.1542376434
 20
-31.9989056828
 30
0.0
 10
-64.1542376434
 20
-31.8485336443
 30
0.0
 10
-64.1287176701
 20
-31.5542737821
 30
0.0
 10
-64.0069722036
 20
-31.1380730198
 30
0.0
 10
-63.8058297923
 20
-30.7719928645
 30
0.0
 10
-63.6214603492
 20
-30.568880338
 30
0.0
 10
-63.5201224436
 20
-30.4811188453
 30
0.0
  0
SPLINE
  5
30B
100
AcDbEntity
  8
0
100
AcDbSpline
 62
7
  6
CONTINUOUS
 70
0
 71
3
 72
15
 73
11
 74
0
 42
0.0000001
 43
0.0000001
 44
0.0000000001
 40
0.0
 40
0.0
 40
0.0
 40
0.0
 40
0.1071078534
 40
0.222610975
 40
0.347095288
 40
0.4786865308
 40
0.6138737669
 40
0.7484010161
 40
0.8781449033
 40
1.0
 40
1.0
 40
1.0
 40
1.0
 10
-59.2294748345
 20
63.2841932238
 30
0.0
 10
-59.4283511328
 20
63.2042194467
 30
0.0
 10
-59.8739490355
 20
63.1122024403
 30
0.0
 10
-60.573446086
 20
63.1832422342
 30
0.0
 10
-61.2768809593
 20
63.4457442181
 30
0.0
 10
-61.9362296166
 20
63.8790157644
 30
0.0
 10
-62.5070249634
 20
64.4517528478
 30
0.0
 10
-62.9497315902
 20
65.1242342253
 30
0.0
 10
-63.23322407
 20
65.8492851882
 30
0.0
 10
-63.3042376434
 20
66.3542191438
 30
0.0
 10
-63.3042376434
 20
66.5980865381
 30
0.0
  0
SPLINE
  5
30C
100
AcDbEntity
  8
0
100
AcDbSpline
 62
7
  6
CONTINUOUS
 70
0
 71
3
 72
14
 73
10
 74
0
 42
0.0000001
 43
0.0000001
 44
0.0000000001
 40
0.0
 40
0.0
 40
0.0
 40
0.0
 40
0.1054098901
 40
0.2185265042
 40
0.3414363855
 40
0.472926215
 40
0.6094189904
 40
0.7461316673
 40
1.0
 40
1.0
 40
1.0
 40
1.0
 10
-59.0584318757
 20
65.1051106106
 30
0.0
 10
-59.1612064873
 20
65.0392635386
 30
0.0
 10
-59.4033629382
 20
64.9447707819
 30
0.0
 10
-59.8050488083
 20
64.9361787907
 30
0.0
 10
-60.2202387986
 20
65.0508808993
 30
0.0
 10
-60.6170415983
 20
65.2768214126
 30
0.0
 10
-60.9658619391
 20
65.5960674784
 30
0.0
 10
-61.3203627531
 20
66.0951123036
 30
0.0
 10
-61.4601033483
 20
66.5511871963
 30
0.0
 10
-61.4601033483
 20
66.8451536857
 30
0.0
  0
SPLINE
  5
30D
100
AcDbEntity
  8
0
100
AcDbSpline
 62
7
  6
CONTINUOUS
 70
0
 71
3
 72
11
 73
7
 74
0
 42
0.0000001
 43
0.0000001
 44
0.0000000001
 40
0.0
 40
0.0
 40
0.0
 40
0.0
 40
0.2374167623
 40
0.4804587974
 40
0.7336903541
 40
1.0
 40
1.0
 40
1.0
 40
1.0
 10
-63.5201224436
 20
67.3797517823
 30
0.0
 10
-63.6214603492
 20
67.2919902896
 30
0.0
 10
-63.8058297923
 20
67.0888777631
 30
0.0
 10
-64.0069722036
 20
66.7227976079
 30
0.0
 10
-64.1287176701
 20
66.3065968456
 30
0.0
 10
-64.1542376434
 20
66.0123369834
 30
0.0
 10
-64.1542376434
 20
65.8619649449
 30
0.0
  0
SPLINE
  5
30E
100
AcDbEntity
  8
0
100
AcDbSpline
 62
7
  6
CONTINUOUS
 70
0
 71
3
 72
9
 73
5
 74
0
 42
0.0000001
 43
0.0000001
 44
0.0000000001
 40
0.0
 40
0.0
 40
0.0
 40
0.0
 40
0.4843992011
 40
1.0
 40
1.0
 40
1.0
 40
1.0
 10
-63.0329189338
 20
67.6757043407
 30
0.0
 10
-63.1237258792
 20
67.5191409074
 30
0.0
 10
-63.2626887306
 20
67.1662122865
 30
0.0
 10
-63.3042376434
 20
66.7907364961
 30
0.0
 10
-63.3042376434
 20
66.5980865381
 30
0.0
  0
SPLINE
  5
30F
100
AcDbEntity
  8
0
100
AcDbSpline
 62
7
  6
CONTINUOUS
 70
0
 71
3
 72
9
 73
5
 74
0
 42
0.0000001
 43
0.0000001
 44
0.0000000001
 40
0.0
 40
0.0
 40
0.0
 40
0.0
 40
0.4812778845
 40
1.0
 40
1.0
 40
1.0
 40
1.0
 10
-61.206048182
 20
67.5851456162
 30
0.0
 10
-61.2895065944
 20
67.4886813854
 30
0.0
 10
-61.4218693375
 20
67.2502989481
 30
0.0
 10
-61.4601033483
 20
66.98263427
 30
0.0
 10
-61.4601033483
 20
66.8451536857
 30
0.0
  0
SPLINE
  5
310
100
AcDbEntity
  8
0
100
AcDbSpline
 62
7
  6
CONTINUOUS
 70
0
 71
3
 72
18
 73
14
 74
0
 42
0.0000001
 43
0.0000001
 44
0.0000000001
 40
0.0
 40
0.0
 40
0.0
 40
0.0
 40
0.1245785072
 40
0.2577844013
 40
0.3264773083
 40
0.3956185711
 40
0.5322613145
 40
0.6628123564
 40
0.783786067
 40
0.8405862894
 40
0.895143809
 40
0.9480225267
 40
1.0
 40
1.0
 40
1.0
 40
1.0
 10
56.2232934826
 20
-66.7489056828
 30
0.0
 10
56.2232934826
 20
-67.0220207991
 30
0.0
 10
56.3124927655
 20
-67.5888427083
 30
0.0
 10
56.601785472
 20
-68.2510179809
 30
0.0
 10
56.9295664638
 20
-68.7479861429
 30
0.0
 10
57.3164897633
 20
-69.2102411619
 30
0.0
 10
57.8833121758
 20
-69.6928596082
 30
0.0
 10
58.6496458293
 20
-70.0814965367
 30
0.0
 10
59.3229652078
 20
-70.2181001763
 30
0.0
 10
59.8340008584
 20
-70.1947164555
 30
0.0
 10
60.1872693319
 20
-70.1150759826
 30
0.0
 10
60.5095055066
 20
-69.9744054427
 30
0.0
 10
60.6991920407
 20
-69.8412910405
 30
0.0
 10
60.7853307056
 20
-69.7666925202
 30
0.0
  0
SPLINE
  5
311
100
AcDbEntity
  8
RACCORDO
100
AcDbSpline
 62
250
  6
CONTINUOUS
 70
0
 71
3
 72
14
 73
10
 74
0
 42
0.0000001
 43
0.0000001
 44
0.0000000001
 40
0.0
 40
0.0
 40
0.0
 40
0.0
 40
0.1162219377
 40
0.2383553549
 40
0.3651669591
 40
0.4948738186
 40
0.6253789967
 40
0.7545020149
 40
1.0
 40
1.0
 40
1.0
 40
1.0
 10
-77.1446187002
 20
-36.9091597206
 30
0.0
 10
-77.1446187002
 20
-37.3746324782
 30
0.0
 10
-77.0482833442
 20
-38.3309795806
 30
0.0
 10
-76.6482411582
 20
-39.7443016117
 30
0.0
 10
-76.0051282565
 20
-41.1245930305
 30
0.0
 10
-75.1438129013
 20
-42.4198594323
 30
0.0
 10
-74.0955190036
 20
-43.5827761327
 30
0.0
 10
-72.5330993644
 20
-44.8736697033
 30
0.0
 10
-71.1610700516
 20
-45.5646646624
 30
0.0
 10
-70.2164154699
 20
-45.8373629509
 30
0.0
  0
SPLINE
  5
312
100
AcDbEntity
  8
RACCORDO
100
AcDbSpline
 62
250
  6
CONTINUOUS
 70
0
 71
3
 72
15
 73
11
 74
0
 42
0.0000001
 43
0.0000001
 44
0.0000000001
 40
0.0
 40
0.0
 40
0.0
 40
0.0
 40
0.1369989379
 40
0.2664267254
 40
0.3892465895
 40
0.5076598271
 40
0.6248108366
 40
0.7441338374
 40
0.8685698422
 40
1.0
 40
1.0
 40
1.0
 40
1.0
 10
-70.2164154699
 20
83.200422213
 30
0.0
 10
-70.6570418966
 20
83.327620106
 30
0.0
 10
-71.5385054258
 20
83.5002560013
 30
0.0
 10
-72.8511224275
 20
83.4890095425
 30
0.0
 10
-74.0693532982
 20
83.1969451517
 30
0.0
 10
-75.1422478664
 20
82.6307153532
 30
0.0
 10
-76.0220358093
 20
81.8117856364
 30
0.0
 10
-76.6702071009
 20
80.7766214243
 30
0.0
 10
-77.062775622
 20
79.5720325513
 30
0.0
 10
-77.1446187002
 20
78.7121954242
 30
0.0
 10
-77.1446187002
 20
78.2722189827
 30
0.0
  0
SPLINE
  5
313
100
AcDbEntity
  8
RACCORDO
100
AcDbSpline
 62
250
  6
CONTINUOUS
 70
0
 71
3
 72
11
 73
7
 74
0
 42
0.0000001
 43
0.0000001
 44
0.0000000001
 40
0.0
 40
0.0
 40
0.0
 40
0.0
 40
0.2374169249
 40
0.4804565494
 40
0.7336958229
 40
1.0
 40
1.0
 40
1.0
 40
1.0
 10
75.0281596895
 20
-85.3524229117
 30
0.0
 10
75.3659500436
 20
-85.0598806692
 30
0.0
 10
75.9805189024
 20
-84.3828506014
 30
0.0
 10
76.6510149935
 20
-83.1625790096
 30
0.0
 10
77.0568026114
 20
-81.775232925
 30
0.0
 10
77.1418777697
 20
-80.7943644375
 30
0.0
 10
77.1418777697
 20
-80.2931343168
 30
0.0
  0
SPLINE
  5
314
100
AcDbEntity
  8
RACCORDO
100
AcDbSpline
 62
250
  6
CONTINUOUS
 70
0
 71
3
 72
14
 73
10
 74
0
 42
0.0000001
 43
0.0000001
 44
0.0000000001
 40
0.0
 40
0.0
 40
0.0
 40
0.0
 40
0.1162219377
 40
0.2383553549
 40
0.3651669591
 40
0.4948738186
 40
0.6253789967
 40
0.7545020149
 40
1.0
 40
1.0
 40
1.0
 40
1.0
 10
74.4098269621
 20
34.5222189827
 30
0.0
 10
74.4098269621
 20
34.9876917403
 30
0.0
 10
74.3134916062
 20
35.9440388428
 30
0.0
 10
73.9134494201
 20
37.3573608739
 30
0.0
 10
73.2703365185
 20
38.7376522927
 30
0.0
 10
72.4090211632
 20
40.0329186944
 30
0.0
 10
71.3607272655
 20
41.1958353948
 30
0.0
 10
69.7983076264
 20
42.4867289655
 30
0.0
 10
68.4262783135
 20
43.1777239245
 30
0.0
 10
67.4816237318
 20
43.450422213
 30
0.0
  0
SPLINE
  5
315
100
AcDbEntity
  8
RACCORDO
100
AcDbSpline
 62
250
  6
CONTINUOUS
 70
0
 71
3
 72
15
 73
11
 74
0
 42
0.0000001
 43
0.0000001
 44
0.0000000001
 40
0.0
 40
0.0
 40
0.0
 40
0.0
 40
0.1369989379
 40
0.2664267254
 40
0.3892465895
 40
0.5076598271
 40
0.6248108366
 40
0.7441338374
 40
0.8685698422
 40
1.0
 40
1.0
 40
1.0
 40
1.0
 10
67.4816237318
 20
-85.5873629509
 30
0.0
 10
67.9222501585
 20
-85.7145608439
 30
0.0
 10
68.8037136877
 20
-85.8871967392
 30
0.0
 10
70.1163306895
 20
-85.8759502804
 30
0.0
 10
71.3345615601
 20
-85.5838858896
 30
0.0
 10
72.4074561283
 20
-85.0176560911
 30
0.0
 10
73.2872440712
 20
-84.1987263743
 30
0.0
 10
73.9354153628
 20
-83.1635621621
 30
0.0
 10
74.3279838839
 20
-81.9589732892
 30
0.0
 10
74.4098269621
 20
-81.099136162
 30
0.0
 10
74.4098269621
 20
-80.6591597206
 30
0.0
  0
SPLINE
  5
316
100
AcDbEntity
  8
0
100
AcDbSpline
 62
7
  6
CONTINUOUS
 70
0
 71
3
 72
9
 73
5
 74
0
 42
0.0000001
 43
0.0000001
 44
0.0000000001
 40
0.0
 40
0.0
 40
0.0
 40
0.0
 40
0.4998517812
 40
1.0
 40
1.0
 40
1.0
 40
1.0
 10
6.0508193132
 20
-5.202648571
 30
0.0
 10
6.0032709542
 20
-5.0138531205
 30
0.0
 10
5.9130079809
 20
-4.6349473918
 30
0.0
 10
5.8204631583
 20
-4.256598861
 30
0.0
 10
5.7727572024
 20
-4.0677240815
 30
0.0
  0
SPLINE
  5
317
100
AcDbEntity
  8
0
100
AcDbSpline
 62
7
  6
CONTINUOUS
 70
0
 71
3
 72
11
 73
7
 74
0
 42
0.0000001
 43
0.0000001
 44
0.0000000001
 40
0.0
 40
0.0
 40
0.0
 40
0.0
 40
0.2415428933
 40
0.4876147693
 40
0.7421436479
 40
1.0
 40
1.0
 40
1.0
 40
1.0
 10
5.7727572024
 20
-4.0677240815
 30
0.0
 10
5.7523306725
 20
-3.9868484789
 30
0.0
 10
5.7114867781
 20
-3.8234554919
 30
0.0
 10
5.6287747983
 20
-3.5802413969
 30
0.0
 10
5.5040752766
 20
-3.3478401589
 30
0.0
 10
5.3772972444
 20
-3.2185642516
 30
0.0
 10
5.3039145619
 20
-3.1681191512
 30
0.0
  0
SPLINE
  5
318
100
AcDbEntity
  8
0
100
AcDbSpline
 62
7
  6
CONTINUOUS
 70
0
 71
3
 72
10
 73
6
 74
0
 42
0.0000001
 43
0.0000001
 44
0.0000000001
 40
0.0
 40
0.0
 40
0.0
 40
0.0
 40
0.2621551042
 40
0.5141591636
 40
1.0
 40
1.0
 40
1.0
 40
1.0
 10
5.2200517773
 20
-1.1527387165
 30
0.0
 10
5.0651247469
 20
-1.052043542
 30
0.0
 10
4.7368523891
 20
-0.8918923182
 30
0.0
 10
4.0649418688
 20
-0.6763764046
 30
0.0
 10
3.5518065818
 20
-0.5802513646
 30
0.0
 10
3.2127507369
 20
-0.5322552612
 30
0.0
  0
SPLINE
  5
319
100
AcDbEntity
  8
0
100
AcDbSpline
 62
7
  6
CONTINUOUS
 70
0
 71
3
 72
10
 73
6
 74
0
 42
0.0000001
 43
0.0000001
 44
0.0000000001
 40
0.0
 40
0.0
 40
0.0
 40
0.0
 40
0.2621551042
 40
0.5141591636
 40
1.0
 40
1.0
 40
1.0
 40
1.0
 10
5.2450517773
 20
-1.1310880814
 30
0.0
 10
5.0901247469
 20
-1.0303929069
 30
0.0
 10
4.7618523891
 20
-0.8702416831
 30
0.0
 10
4.0899418688
 20
-0.6547257695
 30
0.0
 10
3.5768065818
 20
-0.5586007295
 30
0.0
 10
3.2377507369
 20
-0.5106046261
 30
0.0
  0
SPLINE
  5
31A
100
AcDbEntity
  8
0
100
AcDbSpline
 62
7
  6
CONTINUOUS
 70
0
 71
3
 72
9
 73
5
 74
0
 42
0.0000001
 43
0.0000001
 44
0.0000000001
 40
0.0
 40
0.0
 40
0.0
 40
0.0
 40
0.4998517812
 40
1.0
 40
1.0
 40
1.0
 40
1.0
 10
6.0758193132
 20
-5.1809979359
 30
0.0
 10
6.0282709542
 20
-4.9922024854
 30
0.0
 10
5.9380079809
 20
-4.6132967567
 30
0.0
 10
5.8454631583
 20
-4.2349482259
 30
0.0
 10
5.7977572024
 20
-4.0460734464
 30
0.0
  0
SPLINE
  5
31B
100
AcDbEntity
  8
0
100
AcDbSpline
 62
7
  6
CONTINUOUS
 70
0
 71
3
 72
10
 73
6
 74
0
 42
0.0000001
 43
0.0000001
 44
0.0000000001
 40
0.0
 40
0.0
 40
0.0
 40
0.0
 40
0.487074887
 40
0.7404831333
 40
1.0
 40
1.0
 40
1.0
 40
1.0
 10
5.7977572024
 20
-4.0460734464
 30
0.0
 10
5.7593766844
 20
-3.8941118781
 30
0.0
 10
5.7006877731
 20
-3.6617682262
 30
0.0
 10
5.5577639723
 20
-3.37145716
 30
0.0
 10
5.4488903347
 20
-3.243674396
 30
0.0
 10
5.3852165228
 20
-3.1896434309
 30
0.0
  0
SPLINE
  5
31C
100
AcDbEntity
  8
0
100
AcDbSpline
 62
7
  6
CONTINUOUS
 70
0
 71
3
 72
11
 73
7
 74
0
 42
0.0000001
 43
0.0000001
 44
0.0000000001
 40
0.0
 40
0.0
 40
0.0
 40
0.0
 40
0.2348764469
 40
0.4745881015
 40
0.7292814168
 40
1.0
 40
1.0
 40
1.0
 40
1.0
 10
1.6207458575
 20
-59.2225966942
 30
0.0
 10
1.6002075826
 20
-59.2403833589
 30
0.0
 10
1.554758309
 20
-59.2722717505
 30
0.0
 10
1.4737124451
 20
-59.3000475204
 30
0.0
 10
1.3842831803
 20
-59.3025953472
 30
0.0
 10
1.324003921
 20
-59.2919112167
 30
0.0
 10
1.2939168091
 20
-59.2832258156
 30
0.0
  0
SPLINE
  5
31D
100
AcDbEntity
  8
0
100
AcDbSpline
 62
7
  6
CONTINUOUS
 70
0
 71
3
 72
14
 73
10
 74
0
 42
0.0000001
 43
0.0000001
 44
0.0000000001
 40
0.0
 40
0.0
 40
0.0
 40
0.0
 40
0.1160019691
 40
0.236208212
 40
0.3595988115
 40
0.4840682737
 40
0.7383512525
 40
0.868393286
 40
1.0
 40
1.0
 40
1.0
 40
1.0
 10
0.9423841709
 20
-57.3138922258
 30
0.0
 10
0.9231633056
 20
-57.3376663497
 30
0.0
 10
0.8900500686
 20
-57.3911047713
 30
0.0
 10
0.8559655329
 20
-57.4798315437
 30
0.0
 10
0.8305144936
 20
-57.5735146982
 30
0.0
 10
0.8025438907
 20
-57.7029049378
 30
0.0
 10
0.7851976843
 20
-57.8361922687
 30
0.0
 10
0.7783868751
 20
-57.9720434327
 30
0.0
 10
0.7784318789
 20
-58.0410165639
 30
0.0
 10
0.7784318789
 20
-58.0757012154
 30
0.0
  0
SPLINE
  5
31E
100
AcDbEntity
  8
RACCORDO
100
AcDbSpline
 62
250
  6
CONTINUOUS
 70
0
 71
3
 72
14
 73
10
 74
0
 42
0.0000001
 43
0.0000001
 44
0.0000000001
 40
0.0
 40
0.0
 40
0.0
 40
0.0
 40
0.1162219423
 40
0.2383553618
 40
0.3651669629
 40
0.4948738194
 40
0.6253789946
 40
0.7545020101
 40
1.0
 40
1.0
 40
1.0
 40
1.0
 10
77.1418777697
 20
34.8882443865
 30
0.0
 10
77.1418777697
 20
35.4700853591
 30
0.0
 10
77.0214590335
 20
36.6655193385
 30
0.0
 10
76.5214057021
 20
38.4321717698
 30
0.0
 10
75.717514721
 20
40.1575360602
 30
0.0
 10
74.6408705127
 20
41.7766190292
 30
0.0
 10
73.3305031967
 20
43.2302648951
 30
0.0
 10
71.3774787101
 20
44.843881962
 30
0.0
 10
69.6624419877
 20
45.7076255554
 30
0.0
 10
68.4816237318
 20
46.0484984244
 30
0.0
  0
SPLINE
  5
31F
100
AcDbEntity
  8
RACCORDO
100
AcDbSpline
 62
250
  6
CONTINUOUS
 70
0
 71
3
 72
13
 73
9
 74
0
 42
0.0000001
 43
0.0000001
 44
0.0000000001
 40
0.0
 40
0.0
 40
0.0
 40
0.0
 40
0.2706644477
 40
0.525063813
 40
0.6471289972
 40
0.7664070613
 40
0.8837142451
 40
1.0
 40
1.0
 40
1.0
 40
1.0
 10
-69.2164154699
 20
85.7984984244
 30
0.0
 10
-69.815746567
 20
85.9715104095
 30
0.0
 10
-71.0147007342
 20
86.1971152391
 30
0.0
 10
-72.5203142719
 20
86.1409209986
 30
0.0
 10
-73.6359064372
 20
85.8810617876
 30
0.0
 10
-74.4115081025
 20
85.5877494156
 30
0.0
 10
-75.1274686783
 20
85.1966841829
 30
0.0
 10
-75.5603607052
 20
84.8729860206
 30
0.0
 10
-75.7629514276
 20
84.6975329814
 30
0.0
  0
ENDSEC
  0
SECTION
  2
OBJECTS
  0
DICTIONARY
  5
C
100
AcDbDictionary
280
0
281
1
  3
ACAD_GROUP
350
D
  3
ACAD_MLINESTYLE
350
17
  3
ACAD_LAYOUT
350
1A
  3
ACAD_PLOTSETTINGS
350
19
  3
ACAD_PLOTSTYLENAME
350
E
  0
DICTIONARY
  5
D
102
{ACAD_REACTORS
330
C
102
}
100
AcDbDictionary
280
0
281
1
  0
ACDBDICTIONARYWDFLT
  5
E
102
{ACAD_REACTORS
330
C
102
}
100
AcDbDictionary
281
1
  3
Normal
350
F
100
AcDbDictionaryWithDefault
340
F
  0
DICTIONARY
  5
17
102
{ACAD_REACTORS
330
C
102
}
100
AcDbDictionary
280
0
281
1
  3
Standard
350
18
  0
DICTIONARY
  5
19
102
{ACAD_REACTORS
330
C
102
}
100
AcDbDictionary
281
1
  0
DICTIONARY
  5
1A
102
{ACAD_REACTORS
330
C
102
}
100
AcDbDictionary
281
1
  3
Model
350
320
  3
Layout1
350
321
  0
ACDBPLACEHOLDER
  5
F
102
{ACAD_REACTORS
330
E
102
}
  0
MLINESTYLE
  5
18
102
{ACAD_REACTORS
330
17
102
}
100
AcDbMlineStyle
  2
STANDARD
 70
0
  3

 62
256
 51
90.0
 52
90.0
 71
2
 49
0.5
 62
256
  6
BYLAYER
 49
-0.5
 62
256
  6
BYLAYER
  0
LAYOUT
  5
320
102
{ACAD_REACTORS
330
1A
102
}
100
AcDbPlotSettings
  1

  2
none_device
  4
ANSI_C_(22.00_x_17.00_Inches)
  6

 40
0.0
 41
0.0
 42
0.0
 43
0.0
 44
558.8
 45
431.8
 46
0.0
 47
0.0
 48
0.0
 49
0.0
140
0.0
141
0.0
142
1.0
143
1.0
 70
1024
 72
1
 73
0
 74
0
  7

 75
0
147
1.0
148
0.0
149
0.0
100
AcDbLayout
  1
Model
 70
0
 71
0
 10
0.0
 20
0.0
 11
558.8
 21
431.8
 12
0.0
 22
0.0
 32
0.0
 14
0.0
 24
0.0
 34
0.0
 15
0.0
 25
0.0
 35
0.0
146
0.0
 13
0.0
 23
0.0
 33
0.0
 16
1.0
 26
0.0
 36
0.0
 17
0.0
 27
1.0
 37
0.0
 76
0
330
20D
345
0
346
0
  0
LAYOUT
  5
321
102
{ACAD_REACTORS
330
1A
102
}
100
AcDbPlotSettings
  1

  2
none_device
  4
ANSI_C_(22.00_x_17.00_Inches)
  6

 40
0.0
 41
0.0
 42
0.0
 43
0.0
 44
558.8
 45
431.8
 46
0.0
 47
0.0
 48
0.0
 49
0.0
140
0.0
141
0.0
142
1.0
143
1.0
 70
0
 72
1
 73
0
 74
0
  7

 75
0
147
1.0
148
0.0
149
0.0
100
AcDbLayout
  1
Layout1
 70
0
 71
1
 10
0.0
 20
0.0
 11
558.8
 21
431.8
 12
0.0
 22
0.0
 32
0.0
 14
0.0
 24
0.0
 34
0.0
 15
0.0
 25
0.0
 35
0.0
146
0.0
 13
0.0
 23
0.0
 33
0.0
 16
1.0
 26
0.0
 36
0.0
 17
0.0
 27
1.0
 37
0.0
 76
0
330
20E
345
0
346
0
  0
ENDSEC
  0
EOF
