  0
SECTION
  2
HEADER
  9
$ACADVER
  1
AC1024
  9
$DWGCODEPAGE
  3
ANSI_1252
  9
$EXTMAX
 10
558.8
 20
431.8
 30
0.0
  9
$EXTMIN
 10
0.0
 20
0.0
 30
0.0
  9
$LIMMIN
 10
0.0
 20
0.0
  9
$LIMMAX
 10
558.8
 20
431.8
  9
$VIEWCTR
 10
279.4
 20
215.9
  9
$VIEWSIZE
 40
431.8
  9
$CLAYER
  8
0
  9
$LTSCALE
 40
30.734
  9
$CELTYPE
  6
BYLAYER
  9
$DIMSCALE
 40
1.0
  9
$DIMASZ
 40
3.0
  9
$DIMEXO
 40
0.5
  9
$DIMDLI
 40
21.2344
  9
$DIMEXE
 40
1.5
  9
$DIMCEN
 40
5.0292
  9
$DIMLFAC
 40
1.0
  9
$DIMBLK
  1
_FILLED
  9
$DIMALT
 70
0
  9
$DIMALTF
 40
0.0393700787
  9
$DIMTXT
 40
3.0
  9
$DIMTOL
 70
1
  9
$DIMLIM
 70
0
  9
$DIMTFAC
 40
1.0
  9
$DIMTP
 40
0.01
  9
$DIMTM
 40
0.01
  9
$DIMGAP
 40
0.625
  9
$DIMDSEP
 70
44
  9
$AUNITS
 70
0
  9
$PDMODE
 70
3
  9
$PDSIZE
 40
3.0
  9
$HANDSEED
  5
324
  9
$TILEMODE
 70
1
  9
$MEASUREMENT
 70
1
  9
$INSUNITS
 70
4
  0
ENDSEC
  0
SECTION
  2
CLASSES
  0
CLASS
  1
ACDBDICTIONARYWDFLT
  2
AcDbDictionaryWithDefault
  3
AutoCAD 2000
 90
0
 91
1
280
0
281
0
  0
CLASS
  1
ACDBPLACEHOLDER
  2
AcDbPlaceHolder
  3
AutoCAD 2000
 90
0
 91
1
280
0
281
0
  0
CLASS
  1
LAYOUT
  2
AcDbLayout
  3
AutoCAD 2000
 90
0
 91
0
280
0
281
0
  0
ENDSEC
  0
SECTION
  2
TABLES
  0
TABLE
  2
VPORT
  5
8
100
AcDbSymbolTable
 70
2
  0
VPORT
  5
1F4
100
AcDbSymbolTableRecord
100
AcDbViewportTableRecord
  2
*ACTIVE
 70
0
 10
0.0
 20
0.0
 11
1.0
 21
1.0
 12
279.4
 22
215.9
 13
0.0
 23
0.0
 14
1.0
 24
1.0
 15
0.0
 25
0.0
 16
0.0
 26
0.0
 36
1.0
 17
0.0
 27
0.0
 37
0.0
 40
431.8
 41
1.2941176471
 42
50.0
 43
0.0
 44
0.0
 50
0.0
 51
0.0
 71
0
 72
100
 73
1
 74
1
 75
0
 76
0
 77
0
 78
0
  0
ENDTAB
  0
TABLE
  2
LTYPE
  5
5
100
AcDbSymbolTable
 70
6
  0
LTYPE
  5
14
100
AcDbSymbolTableRecord
100
AcDbLinetypeTableRecord
  2
BYBLOCK
 70
0
  3

 72
65
 73
0
 40
0.0
  0
LTYPE
  5
15
100
AcDbSymbolTableRecord
100
AcDbLinetypeTableRecord
  2
BYLAYER
 70
0
  3

 72
65
 73
0
 40
0.0
  0
LTYPE
  5
16
100
AcDbSymbolTableRecord
100
AcDbLinetypeTableRecord
  2
CONTINUOUS
 70
64
  3
Solid line
 72
65
 73
0
 40
0.0
  0
LTYPE
  5
1F5
100
AcDbSymbolTableRecord
100
AcDbLinetypeTableRecord
  2
CENTER
 70
64
  3
____ _ ____ _ ____ _ ____ _ ____ _ ____ _ ____
 72
65
 73
4
 40
0.6
 49
0.375
 74
0
 49
-0.075
 74
0
 49
0.075
 74
0
 49
-0.075
 74
0
  0
LTYPE
  5
1F6
100
AcDbSymbolTableRecord
100
AcDbLinetypeTableRecord
  2
HIDDEN
 70
64
  3
- - - - - - - - - - - - - - - - - - - -
 72
65
 73
2
 40
0.2
 49
0.1
 74
0
 49
-0.1
 74
0
  0
LTYPE
  5
1F7
100
AcDbSymbolTableRecord
100
AcDbLinetypeTableRecord
  2
PHANTOM
 70
64
  3
_____ _ _ _____ _ _ _____ _ _ _____
 72
65
 73
6
 40
0.8
 49
0.45
 74
0
 49
-0.05
 74
0
 49
0.1
 74
0
 49
-0.05
 74
0
 49
0.1
 74
0
 49
-0.05
 74
0
  0
LTYPE
  5
1F8
100
AcDbSymbolTableRecord
100
AcDbLinetypeTableRecord
  2
DOT
 70
64
  3
. . . . . . . . . . . . . . . . . . . .
 72
65
 73
2
 40
0.2
 49
0.1
 74
0
 49
-0.1
 74
0
  0
LTYPE
  5
1F9
100
AcDbSymbolTableRecord
100
AcDbLinetypeTableRecord
  2
DASHED
 70
64
  3
- - - - - - - - - - - - - - - - - - - -
 72
65
 73
2
 40
0.2
 49
0.1
 74
0
 49
-0.1
 74
0
  0
ENDTAB
  0
TABLE
  2
LAYER
  5
2
100
AcDbSymbolTable
 70
36
  0
LAYER
  5
10
100
AcDbSymbolTableRecord
100
AcDbLayerTableRecord
  2
0
 70
0
 62
7
  6
CONTINUOUS
370
-3
390
F
  0
LAYER
  5
1FA
100
AcDbSymbolTableRecord
100
AcDbLayerTableRecord
  2
DEFAULT_1
 70
0
 62
7
  6
CENTER
370
-3
390
F
  0
LAYER
  5
1FB
100
AcDbSymbolTableRecord
100
AcDbLayerTableRecord
  2
DEFAULT_2
 70
0
 62
7
  6
HIDDEN
370
-3
390
F
  0
LAYER
  5
1FC
100
AcDbSymbolTableRecord
100
AcDbLayerTableRecord
  2
DEFAULT_3
 70
0
 62
7
  6
PHANTOM
370
-3
390
F
  0
LAYER
  5
1FD
100
AcDbSymbolTableRecord
100
AcDbLayerTableRecord
  2
ASSI
 70
0
 62
7
  6
CONTINUOUS
370
-3
390
F
  0
LAYER
  5
1FE
100
AcDbSymbolTableRecord
100
AcDbLayerTableRecord
  2
COORDINATE
 70
0
 62
7
  6
CONTINUOUS
370
-3
390
F
  0
LAYER
  5
1FF
100
AcDbSymbolTableRecord
100
AcDbLayerTableRecord
  2
COPY_PUBLISH
 70
0
 62
7
  6
CONTINUOUS
370
-3
390
F
  0
LAYER
  5
200
100
AcDbSymbolTableRecord
100
AcDbLayerTableRecord
  2
COSMETIC
 70
0
 62
7
  6
CONTINUOUS
370
-3
390
F
  0
LAYER
  5
201
100
AcDbSymbolTableRecord
100
AcDbLayerTableRecord
  2
CURVE
 70
0
 62
7
  6
CONTINUOUS
370
-3
390
F
  0
LAYER
  5
202
100
AcDbSymbolTableRecord
100
AcDbLayerTableRecord
  2
IMPORT_IGES
 70
0
 62
7
  6
CONTINUOUS
370
-3
390
F
  0
LAYER
  5
203
100
AcDbSymbolTableRecord
100
AcDbLayerTableRecord
  2
INTF_1
 70
0
 62
7
  6
CONTINUOUS
370
-3
390
F
  0
LAYER
  5
204
100
AcDbSymbolTableRecord
100
AcDbLayerTableRecord
  2
NOTE
 70
0
 62
7
  6
CONTINUOUS
370
-3
390
F
  0
LAYER
  5
205
100
AcDbSymbolTableRecord
100
AcDbLayerTableRecord
  2
PIANI
 70
0
 62
7
  6
CONTINUOUS
370
-3
390
F
  0
LAYER
  5
206
100
AcDbSymbolTableRecord
100
AcDbLayerTableRecord
  2
PUNTI
 70
0
 62
7
  6
CONTINUOUS
370
-3
390
F
  0
LAYER
  5
207
100
AcDbSymbolTableRecord
100
AcDbLayerTableRecord
  2
RACCORDO
 70
0
 62
7
  6
CONTINUOUS
370
-3
390
F
  0
LAYER
  5
208
100
AcDbSymbolTableRecord
100
AcDbLayerTableRecord
  2
RGB____0____0____0__
 70
0
 62
7
  6
CONTINUOUS
370
-3
390
F
  0
LAYER
  5
209
100
AcDbSymbolTableRecord
100
AcDbLayerTableRecord
  2
SNAPLINE
 70
0
 62
7
  6
CONTINUOUS
370
-3
390
F
  0
LAYER
  5
20A
100
AcDbSymbolTableRecord
100
AcDbLayerTableRecord
  2
TRASH
 70
0
 62
7
  6
CONTINUOUS
370
-3
390
F
  0
ENDTAB
  0
TABLE
  2
STYLE
  5
3
100
AcDbSymbolTable
 70
1
  0
STYLE
  5
11
100
AcDbSymbolTableRecord
100
AcDbTextStyleTableRecord
  2
STANDARD
 70
0
 40
0.0
 41
0.8
 50
0.0
 71
0
 42
0.2
  3
txt
  4

  0
STYLE
  5
20B
100
AcDbSymbolTableRecord
100
AcDbTextStyleTableRecord
  2
TEXTSTYLE_1
 70
0
 40
0.0
 41
0.8
 50
0.0
 71
0
 42
0.2
  3
gdt
  4

  0
ENDTAB
  0
TABLE
  2
VIEW
  5
6
100
AcDbSymbolTable
 70
0
  0
ENDTAB
  0
TABLE
  2
UCS
  5
7
100
AcDbSymbolTable
 70
0
  0
ENDTAB
  0
TABLE
  2
APPID
  5
9
100
AcDbSymbolTable
 70
1
  0
APPID
  5
20C
100
AcDbSymbolTableRecord
100
AcDbRegAppTableRecord
  2
ACAD
 70
0
  0
ENDTAB
  0
TABLE
  2
BLOCK_RECORD
  5
1
100
AcDbSymbolTable
 70
0
  0
BLOCK_RECORD
  5
20D
100
AcDbSymbolTableRecord
100
AcDbBlockTableRecord
  2
*Model_Space
  0
BLOCK_RECORD
  5
20E
100
AcDbSymbolTableRecord
100
AcDbBlockTableRecord
  2
*Paper_Space
  0
BLOCK_RECORD
  5
20F
100
AcDbSymbolTableRecord
100
AcDbBlockTableRecord
  2
_FILLED
  0
ENDTAB
  0
TABLE
  2
DIMSTYLE
  5
A
100
AcDbSymbolTable
 70
1
100
AcDbDimStyleTable
 71
0
  0
DIMSTYLE
105
210
100
AcDbSymbolTableRecord
100
AcDbDimStyleTableRecord
  2
STANDARD
 70
0
  3

  4

 40
1.0
 41
3.0
 42
0.5
 43
0.38
 44
1.5
 45
0.0
 46
0.0
 47
0.01
 48
0.01
140
3.0
141
0.09
142
0.0
143
25.4
144
1.0
145
0.0
146
1.0
147
0.625
 71
1.0
 72
0.0
 73
0
 74
0
 75
0
 76
0
 77
1
 78
8
 79
2
170
0
171
1
172
0
173
0
174
0
175
0
176
0
177
0
178
0
270
2
179
2
271
2
272
2
273
2
274
2
275
0
280
0
281
0
282
0
283
1
284
8
285
0
286
0
287
3
288
0
340
11
278
44
341
20F
342
20F
343
20F
344
20F
  0
ENDTAB
  0
ENDSEC
  0
SECTION
  2
BLOCKS
  0
BLOCK
  5
20
100
AcDbEntity
  8
0
100
AcDbBlockBegin
  2
*Model_Space
 70
0
 10
0.0
 20
0.0
 30
0.0
  3
*Model_Space
  1

  0
ENDBLK
  5
21
100
AcDbEntity
  8
0
100
AcDbBlockEnd
  0
BLOCK
  5
1C
100
AcDbEntity
  8
0
100
AcDbBlockBegin
  2
*Paper_Space
 70
0
 10
0.0
 20
0.0
 30
0.0
  3
*Paper_Space
  1

  0
ENDBLK
  5
1D
100
AcDbEntity
  8
0
100
AcDbBlockEnd
  0
BLOCK
  5
211
100
AcDbEntity
  8
0
100
AcDbBlockBegin
  2
_FILLED
 70
64
 10
0.0
 20
0.0
  3
_FILLED
  1

  0
SOLID
  5
212
100
AcDbEntity
  8
0
  6
BYBLOCK
 62
0
100
AcDbTrace
 10
0.0
 20
0.0
 11
-1.0
 21
0.3166666667
 12
-1.0
 22
-0.3166666667
 13
-1.0
 23
-0.3166666667
  0
ENDBLK
  5
213
100
AcDbEntity
  8
0
  6
BYBLOCK
 62
0
100
AcDbBlockEnd
  0
ENDSEC
  0
SECTION
  2
ENTITIES
  0
LINE
  5
214
100
AcDbEntity
  8
ASSI
100
AcDbLine
 62
7
  6
CONTINUOUS
 10
-46.1956175751
 20
51.0253297266
 11
-46.8206175751
 21
50.4840638492
  0
LINE
  5
215
100
AcDbEntity
  8
RACCORDO
100
AcDbLine
 62
250
  6
CONTINUOUS
 10
-42.9223492215
 20
51.5758120154
 11
-43.5473492215
 21
51.0345461381
  0
LINE
  5
216
100
AcDbEntity
  8
RACCORDO
100
AcDbLine
 62
7
  6
CONTINUOUS
 10
-48.0114508366
 20
47.7044191191
 11
-48.0114508366
 21
-21.1446004817
  0
LINE
  5
217
100
AcDbEntity
  8
RACCORDO
100
AcDbLine
 62
250
  6
CONTINUOUS
 10
-47.5114508366
 20
47.2714064172
 11
-47.5114508366
 21
-21.5776131836
  0
LINE
  5
218
100
AcDbEntity
  8
RACCORDO
100
AcDbLine
 62
7
  6
CONTINUOUS
 10
-43.8246993196
 20
-26.5694710197
 11
42.7778410588
 21
-51.5694710197
  0
LINE
  5
219
100
AcDbEntity
  8
RACCORDO
100
AcDbLine
 62
250
  6
CONTINUOUS
 10
-44.0473492215
 20
-26.0417147988
 11
42.5551911569
 21
-51.0417147988
  0
LINE
  5
21A
100
AcDbEntity
  8
0
100
AcDbLine
 62
7
  6
CONTINUOUS
 10
-3.3441552436
 20
-37.1421957459
 11
1.8519971791
 21
-38.6421957459
  0
LINE
  5
21B
100
AcDbEntity
  8
0
100
AcDbLine
 62
7
  6
CONTINUOUS
 10
-3.3291552436
 20
-37.1292053649
 11
1.8519971791
 21
-38.6248752378
  0
LINE
  5
21C
100
AcDbEntity
  8
0
100
AcDbLine
 62
7
  6
CONTINUOUS
 10
-2.5198523457
 20
-35.0092982669
 11
-2.341433359
 21
-35.0608033919
  0
LINE
  5
21D
100
AcDbEntity
  8
0
100
AcDbLine
 62
7
  6
CONTINUOUS
 10
-2.0177485701
 20
-35.1542431419
 11
-1.8393789469
 21
-35.2057340169
  0
LINE
  5
21E
100
AcDbEntity
  8
0
100
AcDbLine
 62
7
  6
CONTINUOUS
 10
-0.3386595461
 20
-35.6389543919
 11
-0.1768171517
 21
-35.6856742669
  0
LINE
  5
21F
100
AcDbEntity
  8
0
100
AcDbLine
 62
7
  6
CONTINUOUS
 10
-0.9032440235
 20
-35.1614692713
 11
-0.3386595461
 21
-35.3244507713
  0
LINE
  5
220
100
AcDbEntity
  8
0
100
AcDbLine
 62
7
  6
CONTINUOUS
 10
-0.1768171517
 20
-35.3711706463
 11
0.0126362977
 21
-35.4258611463
  0
LINE
  5
221
100
AcDbEntity
  8
0
100
AcDbLine
 62
7
  6
CONTINUOUS
 10
0.0126362977
 20
-35.2861028327
 11
-0.1768171517
 21
-35.2314123327
  0
LINE
  5
222
100
AcDbEntity
  8
0
100
AcDbLine
 62
7
  6
CONTINUOUS
 10
-0.3386595461
 20
-35.1846924577
 11
-0.7542997784
 21
-35.0647074577
  0
LINE
  5
223
100
AcDbEntity
  8
0
100
AcDbLine
 62
7
  6
CONTINUOUS
 10
0.0276362977
 20
-35.2731124516
 11
-0.1618171517
 21
-35.2184219516
  0
LINE
  5
224
100
AcDbEntity
  8
0
100
AcDbLine
 62
7
  6
CONTINUOUS
 10
-0.3386595461
 20
-35.1673719496
 11
-0.7392997784
 21
-35.0517170766
  0
LINE
  5
225
100
AcDbEntity
  8
0
100
AcDbLine
 62
7
  6
CONTINUOUS
 10
-1.8393789469
 20
-34.6484670211
 11
-1.4241547579
 21
-34.7683319198
  0
LINE
  5
226
100
AcDbEntity
  8
0
100
AcDbLine
 62
7
  6
CONTINUOUS
 10
-1.4657697831
 20
-34.6036912456
 11
-1.8393789469
 21
-34.49583957
  0
LINE
  5
227
100
AcDbEntity
  8
0
100
AcDbLine
 62
7
  6
CONTINUOUS
 10
-1.4507699666
 20
-34.5907008116
 11
-1.8243789469
 21
-34.4828491889
  0
LINE
  5
228
100
AcDbEntity
  8
0
100
AcDbLine
 62
7
  6
CONTINUOUS
 10
-1.8393789469
 20
-34.0378896666
 11
-1.4657734023
 21
-34.1457402975
  0
LINE
  5
229
100
AcDbEntity
  8
0
100
AcDbLine
 62
7
  6
CONTINUOUS
 10
-0.1768171517
 20
-34.3652028985
 11
-0.2911420313
 21
-34.3322001485
  0
LINE
  5
22A
100
AcDbEntity
  8
0
100
AcDbLine
 62
7
  6
CONTINUOUS
 10
-1.4241527701
 20
-34.005128121
 11
-2.0177485701
 21
-33.8337717735
  0
LINE
  5
22B
100
AcDbEntity
  8
0
100
AcDbLine
 62
7
  6
CONTINUOUS
 10
-2.341433359
 20
-33.7403320235
 11
-2.5198523457
 21
-33.6888268985
  0
LINE
  5
22C
100
AcDbEntity
  8
0
100
AcDbLine
 62
7
  6
CONTINUOUS
 10
-0.1618171517
 20
-34.3522125174
 11
-0.2761420313
 21
-34.3192097674
  0
LINE
  5
22D
100
AcDbEntity
  8
0
100
AcDbLine
 62
7
  6
CONTINUOUS
 10
-1.4091527678
 20
-33.9921377405
 11
-2.0027485701
 21
-33.8207813924
  0
LINE
  5
22E
100
AcDbEntity
  8
0
100
AcDbLine
 62
7
  6
CONTINUOUS
 10
-2.326433359
 20
-33.7273416424
 11
-2.5048523457
 21
-33.6758365174
  0
LINE
  5
22F
100
AcDbEntity
  8
0
100
AcDbLine
 62
7
  6
CONTINUOUS
 10
1.8519971791
 20
-34.312068727
 11
-3.3441552436
 21
-32.812068727
  0
LINE
  5
230
100
AcDbEntity
  8
0
100
AcDbLine
 62
7
  6
CONTINUOUS
 10
-4.5839273338
 20
1.4836794321
 11
-4.5964273338
 21
1.4728541145
  0
LINE
  5
231
100
AcDbEntity
  8
0
100
AcDbLine
 62
7
  6
CONTINUOUS
 10
-0.2416255191
 20
-1.732588753
 11
-0.4238151804
 21
0.2683247395
  0
LINE
  5
232
100
AcDbEntity
  8
0
100
AcDbLine
 62
7
  6
CONTINUOUS
 10
-0.2291255191
 20
-1.7217634355
 11
-0.4113151804
 21
0.2791500571
  0
LINE
  5
233
100
AcDbEntity
  8
0
100
AcDbLine
 62
7
  6
CONTINUOUS
 10
-0.7230330196
 20
-0.3267054847
 11
-0.6394771566
 21
-1.617738878
  0
LINE
  5
234
100
AcDbEntity
  8
0
100
AcDbLine
 62
7
  6
CONTINUOUS
 10
-3.3441552436
 20
-32.812068727
 11
-3.3441552436
 21
-37.1421957459
  0
LINE
  5
235
100
AcDbEntity
  8
0
100
AcDbLine
 62
7
  6
CONTINUOUS
 10
-3.3291552436
 20
-32.816398854
 11
-3.3291552436
 21
-37.1292053649
  0
LINE
  5
236
100
AcDbEntity
  8
0
100
AcDbLine
 62
7
  6
CONTINUOUS
 10
-2.8431835856
 20
0.9668531529
 11
-2.8431835856
 21
-0.981583628
  0
LINE
  5
237
100
AcDbEntity
  8
0
100
AcDbLine
 62
7
  6
CONTINUOUS
 10
-2.5198523457
 20
-33.6888268985
 11
-2.5198523457
 21
-35.0092982669
  0
LINE
  5
238
100
AcDbEntity
  8
0
100
AcDbLine
 62
7
  6
CONTINUOUS
 10
-2.4364928598
 20
-1.098985128
 11
-2.4364928598
 21
0.8494516529
  0
LINE
  5
239
100
AcDbEntity
  8
0
100
AcDbLine
 62
7
  6
CONTINUOUS
 10
-2.4239928598
 20
-1.0881598105
 11
-2.4239928598
 21
0.8602769705
  0
LINE
  5
23A
100
AcDbEntity
  8
0
100
AcDbLine
 62
7
  6
CONTINUOUS
 10
-2.341433359
 20
-35.0608033919
 11
-2.341433359
 21
-33.7403320235
  0
LINE
  5
23B
100
AcDbEntity
  8
0
100
AcDbLine
 62
7
  6
CONTINUOUS
 10
-2.326433359
 20
-35.0478130108
 11
-2.326433359
 21
-33.7273416424
  0
LINE
  5
23C
100
AcDbEntity
  8
0
100
AcDbLine
 62
7
  6
CONTINUOUS
 10
-2.0177485701
 20
-33.8337717735
 11
-2.0177485701
 21
-35.1542431419
  0
LINE
  5
23D
100
AcDbEntity
  8
0
100
AcDbLine
 62
7
  6
CONTINUOUS
 10
-1.8393789469
 20
-35.2057340169
 11
-1.8393789469
 21
-34.6484670211
  0
LINE
  5
23E
100
AcDbEntity
  8
0
100
AcDbLine
 62
7
  6
CONTINUOUS
 10
-1.8393789469
 20
-34.49583957
 11
-1.8393789469
 21
-34.0378896666
  0
LINE
  5
23F
100
AcDbEntity
  8
0
100
AcDbLine
 62
7
  6
CONTINUOUS
 10
-1.8243789469
 20
-35.1927436358
 11
-1.8243789469
 21
-34.6527971482
  0
LINE
  5
240
100
AcDbEntity
  8
0
100
AcDbLine
 62
7
  6
CONTINUOUS
 10
-1.8243789469
 20
-34.4828491889
 11
-1.8243789469
 21
-34.0422197936
  0
LINE
  5
241
100
AcDbEntity
  8
0
100
AcDbLine
 62
7
  6
CONTINUOUS
 10
-0.9032440235
 20
-35.0033196092
 11
-0.9032440235
 21
-35.1614692713
  0
LINE
  5
242
100
AcDbEntity
  8
0
100
AcDbLine
 62
7
  6
CONTINUOUS
 10
-0.3386595461
 20
-34.5927562999
 11
-0.3386595461
 21
-35.1846924577
  0
LINE
  5
243
100
AcDbEntity
  8
0
100
AcDbLine
 62
7
  6
CONTINUOUS
 10
-0.3386595461
 20
-35.3244507713
 11
-0.3386595461
 21
-35.6389543919
  0
LINE
  5
244
100
AcDbEntity
  8
0
100
AcDbLine
 62
7
  6
CONTINUOUS
 10
-0.1768171517
 20
-35.6856742669
 11
-0.1768171517
 21
-35.3711706463
  0
LINE
  5
245
100
AcDbEntity
  8
0
100
AcDbLine
 62
7
  6
CONTINUOUS
 10
-0.1768171517
 20
-35.2314123327
 11
-0.1768171517
 21
-34.3652028985
  0
LINE
  5
246
100
AcDbEntity
  8
0
100
AcDbLine
 62
7
  6
CONTINUOUS
 10
-0.1618171517
 20
-35.6726838858
 11
-0.1618171517
 21
-35.3755007733
  0
LINE
  5
247
100
AcDbEntity
  8
0
100
AcDbLine
 62
7
  6
CONTINUOUS
 10
-0.1618171517
 20
-35.2184219516
 11
-0.1618171517
 21
-34.3522125174
  0
LINE
  5
248
100
AcDbEntity
  8
0
100
AcDbLine
 62
7
  6
CONTINUOUS
 10
0.0126362977
 20
-35.4258611463
 11
0.0126362977
 21
-35.2861028327
  0
LINE
  5
249
100
AcDbEntity
  8
0
100
AcDbLine
 62
7
  6
CONTINUOUS
 10
0.0276362977
 20
-35.4128707652
 11
0.0276362977
 21
-35.2731124516
  0
LINE
  5
24A
100
AcDbEntity
  8
0
100
AcDbLine
 62
7
  6
CONTINUOUS
 10
-1.8284876007
 20
-1.274501128
 11
-1.7407241533
 21
-0.0276202532
  0
LINE
  5
24B
100
AcDbEntity
  8
0
100
AcDbLine
 62
7
  6
CONTINUOUS
 10
-1.8159876007
 20
-1.2636758105
 11
-1.7310073032
 21
-0.0563359579
  0
LINE
  5
24C
100
AcDbEntity
  8
0
100
AcDbLine
 62
7
  6
CONTINUOUS
 10
-2.0416363712
 20
0.7353494895
 11
-2.2175586067
 21
-1.162186003
  0
LINE
  5
24D
100
AcDbEntity
  8
0
100
AcDbLine
 62
7
  6
CONTINUOUS
 10
-3.4005202964
 20
1.1276254895
 11
-3.7832502643
 21
-0.1029787207
  0
LINE
  5
24E
100
AcDbEntity
  8
0
100
AcDbLine
 62
7
  6
CONTINUOUS
 10
0.4333529486
 20
0.0208816145
 11
-0.1777643728
 21
-1.751023878
  0
LINE
  5
24F
100
AcDbEntity
  8
0
100
AcDbLine
 62
7
  6
CONTINUOUS
 10
-3.6203755676
 20
-0.757227628
 11
-2.9941075648
 21
1.0103042395
  0
LINE
  5
250
100
AcDbEntity
  8
0
100
AcDbLine
 62
7
  6
CONTINUOUS
 10
-3.6078755676
 20
-0.7464023105
 11
-2.9816075648
 21
1.0211295571
  0
LINE
  5
251
100
AcDbEntity
  8
0
100
AcDbLine
 62
7
  6
CONTINUOUS
 10
-0.8261961308
 20
0.3844821145
 11
-1.2328864235
 21
-0.5798298712
  0
LINE
  5
252
100
AcDbEntity
  8
0
100
AcDbLine
 62
7
  6
CONTINUOUS
 10
-1.2065882631
 20
-1.454028003
 11
-0.7230330196
 21
-0.3267054847
  0
LINE
  5
253
100
AcDbEntity
  8
0
100
AcDbLine
 62
7
  6
CONTINUOUS
 10
-1.1940882631
 20
-1.4432026855
 11
-0.722003005
 21
-0.3426203855
  0
LINE
  5
254
100
AcDbEntity
  8
0
100
AcDbLine
 62
7
  6
CONTINUOUS
 10
-4.1421352994
 20
1.3561450571
 11
-4.1546352994
 21
1.3453197395
  0
LINE
  5
255
100
AcDbEntity
  8
0
100
AcDbLine
 62
7
  6
CONTINUOUS
 10
-3.3880202964
 20
1.1384508071
 11
-3.4005202964
 21
1.1276254895
  0
LINE
  5
256
100
AcDbEntity
  8
0
100
AcDbLine
 62
7
  6
CONTINUOUS
 10
-2.9816075648
 20
1.0211295571
 11
-2.9941075648
 21
1.0103042395
  0
LINE
  5
257
100
AcDbEntity
  8
0
100
AcDbLine
 62
7
  6
CONTINUOUS
 10
-2.8306835856
 20
0.9776784705
 11
-2.8431835856
 21
0.9668531529
  0
LINE
  5
258
100
AcDbEntity
  8
0
100
AcDbLine
 62
7
  6
CONTINUOUS
 10
-2.4239928598
 20
0.8602769705
 11
-2.4364928598
 21
0.8494516529
  0
LINE
  5
259
100
AcDbEntity
  8
0
100
AcDbLine
 62
7
  6
CONTINUOUS
 10
-2.0291363712
 20
0.7461748071
 11
-2.0416363712
 21
0.7353494895
  0
LINE
  5
25A
100
AcDbEntity
  8
0
100
AcDbLine
 62
7
  6
CONTINUOUS
 10
-3.6078755676
 20
-0.7464023105
 11
-3.6203755676
 21
-0.757227628
  0
LINE
  5
25B
100
AcDbEntity
  8
0
100
AcDbLine
 62
7
  6
CONTINUOUS
 10
-1.6227820963
 20
0.6288704321
 11
-1.6352820963
 21
0.6180451145
  0
LINE
  5
25C
100
AcDbEntity
  8
0
100
AcDbLine
 62
7
  6
CONTINUOUS
 10
-0.8136961308
 20
0.3953074321
 11
-0.8261961308
 21
0.3844821145
  0
LINE
  5
25D
100
AcDbEntity
  8
0
100
AcDbLine
 62
7
  6
CONTINUOUS
 10
-2.4239928598
 20
-1.0881598105
 11
-2.4364928598
 21
-1.098985128
  0
LINE
  5
25E
100
AcDbEntity
  8
0
100
AcDbLine
 62
7
  6
CONTINUOUS
 10
-0.4113151804
 20
0.2791500571
 11
-0.4238151804
 21
0.2683247395
  0
LINE
  5
25F
100
AcDbEntity
  8
0
100
AcDbLine
 62
7
  6
CONTINUOUS
 10
-1.8159876007
 20
-1.2636758105
 11
-1.8284876007
 21
-1.274501128
  0
LINE
  5
260
100
AcDbEntity
  8
0
100
AcDbLine
 62
7
  6
CONTINUOUS
 10
0.4458529486
 20
0.0317069321
 11
0.4333529486
 21
0.0208816145
  0
LINE
  5
261
100
AcDbEntity
  8
0
100
AcDbLine
 62
7
  6
CONTINUOUS
 10
-1.1940882631
 20
-1.4432026855
 11
-1.2065882631
 21
-1.454028003
  0
LINE
  5
262
100
AcDbEntity
  8
0
100
AcDbLine
 62
7
  6
CONTINUOUS
 10
0.8392774642
 20
-0.0818649429
 11
0.8267774642
 21
-0.0926902605
  0
LINE
  5
263
100
AcDbEntity
  8
0
100
AcDbLine
 62
7
  6
CONTINUOUS
 10
-3.9787719537
 20
-0.653767503
 11
-3.6203755676
 21
-0.757227628
  0
LINE
  5
264
100
AcDbEntity
  8
0
100
AcDbLine
 62
7
  6
CONTINUOUS
 10
-2.8431835856
 20
-0.981583628
 11
-2.4364928598
 21
-1.098985128
  0
LINE
  5
265
100
AcDbEntity
  8
0
100
AcDbLine
 62
7
  6
CONTINUOUS
 10
-2.2175586067
 20
-1.162186003
 11
-1.8284876007
 21
-1.274501128
  0
LINE
  5
266
100
AcDbEntity
  8
0
100
AcDbLine
 62
7
  6
CONTINUOUS
 10
-1.2636264282
 20
-1.437562503
 11
-1.2065882631
 21
-1.454028003
  0
LINE
  5
267
100
AcDbEntity
  8
0
100
AcDbLine
 62
7
  6
CONTINUOUS
 10
-0.6394771566
 20
-1.617738878
 11
-0.2416255191
 21
-1.732588753
  0
LINE
  5
268
100
AcDbEntity
  8
0
100
AcDbLine
 62
7
  6
CONTINUOUS
 10
-0.1777643728
 20
-1.751023878
 11
0.2245143865
 21
-1.867151753
  0
LINE
  5
269
100
AcDbEntity
  8
0
100
AcDbLine
 62
7
  6
CONTINUOUS
 10
0.9959347422
 20
-2.089841628
 11
1.4245701187
 21
-2.213578003
  0
LINE
  5
26A
100
AcDbEntity
  8
0
100
AcDbLine
 62
7
  6
CONTINUOUS
 10
1.5439942707
 20
-2.2480525701
 11
1.9490485981
 21
-2.3649816826
  0
LINE
  5
26B
100
AcDbEntity
  8
0
100
AcDbLine
 62
7
  6
CONTINUOUS
 10
2.5718393503
 20
-2.5447658868
 11
2.9630285588
 21
-2.6576924842
  0
LINE
  5
26C
100
AcDbEntity
  8
0
100
AcDbLine
 62
7
  6
CONTINUOUS
 10
0.3367352574
 20
-1.5105930355
 11
0.8905805868
 21
-1.6704744105
  0
LINE
  5
26D
100
AcDbEntity
  8
0
100
AcDbLine
 62
7
  6
CONTINUOUS
 10
0.8093036696
 20
-1.3460406779
 11
0.4199260907
 21
-1.2336370529
  0
LINE
  5
26E
100
AcDbEntity
  8
0
100
AcDbLine
 62
7
  6
CONTINUOUS
 10
0.8055730974
 20
-1.3305299978
 11
0.4324260907
 21
-1.2228117354
  0
LINE
  5
26F
100
AcDbEntity
  8
0
100
AcDbLine
 62
7
  6
CONTINUOUS
 10
1.9490485981
 20
-1.6025170243
 11
2.1671064482
 21
-1.6654649036
  0
LINE
  5
270
100
AcDbEntity
  8
0
100
AcDbLine
 62
7
  6
CONTINUOUS
 10
2.1679830627
 20
-1.3466302923
 11
1.9355633455
 21
-1.2795364991
  0
LINE
  5
271
100
AcDbEntity
  8
0
100
AcDbLine
 62
7
  6
CONTINUOUS
 10
2.1804830627
 20
-1.3358049747
 11
1.9480633455
 21
-1.2687111816
  0
LINE
  5
272
100
AcDbEntity
  8
0
100
AcDbLine
 62
7
  6
CONTINUOUS
 10
0.8267774642
 20
-0.0926902605
 11
0.4333529486
 21
0.0208816145
  0
LINE
  5
273
100
AcDbEntity
  8
0
100
AcDbLine
 62
7
  6
CONTINUOUS
 10
-0.4238151804
 20
0.2683247395
 11
-0.8261961308
 21
0.3844821145
  0
LINE
  5
274
100
AcDbEntity
  8
0
100
AcDbLine
 62
7
  6
CONTINUOUS
 10
-1.6352820963
 20
0.6180451145
 11
-2.0416363712
 21
0.7353494895
  0
LINE
  5
275
100
AcDbEntity
  8
0
100
AcDbLine
 62
7
  6
CONTINUOUS
 10
-2.9941075648
 20
1.0103042395
 11
-3.4005202964
 21
1.1276254895
  0
LINE
  5
276
100
AcDbEntity
  8
0
100
AcDbLine
 62
7
  6
CONTINUOUS
 10
-4.1546352994
 20
1.3453197395
 11
-4.5964273338
 21
1.4728541145
  0
LINE
  5
277
100
AcDbEntity
  8
0
100
AcDbLine
 62
7
  6
CONTINUOUS
 10
-2.4364928598
 20
0.8494516529
 11
-2.8431835856
 21
0.9668531529
  0
LINE
  5
278
100
AcDbEntity
  8
0
100
AcDbLine
 62
7
  6
CONTINUOUS
 10
0.8392774642
 20
-0.0818649429
 11
0.4458529486
 21
0.0317069321
  0
LINE
  5
279
100
AcDbEntity
  8
0
100
AcDbLine
 62
7
  6
CONTINUOUS
 10
-0.4113151804
 20
0.2791500571
 11
-0.8136961308
 21
0.3953074321
  0
LINE
  5
27A
100
AcDbEntity
  8
0
100
AcDbLine
 62
7
  6
CONTINUOUS
 10
-1.6227820963
 20
0.6288704321
 11
-2.0291363712
 21
0.7461748071
  0
LINE
  5
27B
100
AcDbEntity
  8
0
100
AcDbLine
 62
7
  6
CONTINUOUS
 10
-2.9816075648
 20
1.0211295571
 11
-3.3880202964
 21
1.1384508071
  0
LINE
  5
27C
100
AcDbEntity
  8
0
100
AcDbLine
 62
7
  6
CONTINUOUS
 10
-4.1421352994
 20
1.3561450571
 11
-4.5839273338
 21
1.4836794321
  0
LINE
  5
27D
100
AcDbEntity
  8
0
100
AcDbLine
 62
7
  6
CONTINUOUS
 10
-2.4239928598
 20
0.8602769705
 11
-2.8306835856
 21
0.9776784705
  0
LINE
  5
27E
100
AcDbEntity
  8
0
100
AcDbLine
 62
7
  6
CONTINUOUS
 10
-1.7407241533
 20
-0.0276202532
 11
-1.2636264282
 21
-1.437562503
  0
LINE
  5
27F
100
AcDbEntity
  8
0
100
AcDbLine
 62
7
  6
CONTINUOUS
 10
-1.2328864235
 20
-0.5798298712
 11
-1.6352820963
 21
0.6180451145
  0
LINE
  5
280
100
AcDbEntity
  8
0
100
AcDbLine
 62
7
  6
CONTINUOUS
 10
-1.223904331
 20
-0.5585322409
 11
-1.6227820963
 21
0.6288704321
  0
LINE
  5
281
100
AcDbEntity
  8
0
100
AcDbLine
 62
7
  6
CONTINUOUS
 10
-4.5964273338
 20
1.4728541145
 11
-3.9787719537
 21
-0.653767503
  0
LINE
  5
282
100
AcDbEntity
  8
0
100
AcDbLine
 62
7
  6
CONTINUOUS
 10
-3.7832502643
 20
-0.1029787207
 11
-4.1546352994
 21
1.3453197395
  0
LINE
  5
283
100
AcDbEntity
  8
0
100
AcDbLine
 62
7
  6
CONTINUOUS
 10
-3.7748776171
 20
-0.0760578738
 11
-4.1421352994
 21
1.3561450571
  0
LINE
  5
284
100
AcDbEntity
  8
0
100
AcDbLine
 62
7
  6
CONTINUOUS
 10
0.8905805868
 20
-1.6704744105
 11
0.9959347422
 21
-2.089841628
  0
LINE
  5
285
100
AcDbEntity
  8
0
100
AcDbLine
 62
7
  6
CONTINUOUS
 10
0.6224240477
 20
-0.5690472693
 11
0.8093036696
 21
-1.3460406779
  0
LINE
  5
286
100
AcDbEntity
  8
0
100
AcDbLine
 62
7
  6
CONTINUOUS
 10
1.5439942707
 20
-0.3224958293
 11
1.5439942707
 21
-2.2480525701
  0
LINE
  5
287
100
AcDbEntity
  8
0
100
AcDbLine
 62
7
  6
CONTINUOUS
 10
1.8519971791
 20
-38.6421957459
 11
1.8519971791
 21
-34.312068727
  0
LINE
  5
288
100
AcDbEntity
  8
0
100
AcDbLine
 62
7
  6
CONTINUOUS
 10
1.9355633455
 20
-1.2795364991
 11
1.9355633455
 21
-0.7446847888
  0
LINE
  5
289
100
AcDbEntity
  8
0
100
AcDbLine
 62
7
  6
CONTINUOUS
 10
1.9480633455
 20
-1.2687111816
 11
1.9480633455
 21
-0.7446847888
  0
LINE
  5
28A
100
AcDbEntity
  8
0
100
AcDbLine
 62
7
  6
CONTINUOUS
 10
1.9490485981
 20
-2.3649816826
 11
1.9490485981
 21
-1.6025170243
  0
LINE
  5
28B
100
AcDbEntity
  8
0
100
AcDbLine
 62
7
  6
CONTINUOUS
 10
1.9615485981
 20
-2.354156365
 11
1.9615485981
 21
-1.6061254635
  0
LINE
  5
28C
100
AcDbEntity
  8
0
100
AcDbLine
 62
7
  6
CONTINUOUS
 10
2.5895761832
 20
-1.6404277743
 11
2.5895761832
 21
-1.6289149042
  0
LINE
  5
28D
100
AcDbEntity
  8
0
100
AcDbLine
 62
7
  6
CONTINUOUS
 10
0.4199260907
 20
-1.2336370529
 11
0.6224240477
 21
-0.5690472693
  0
LINE
  5
28E
100
AcDbEntity
  8
0
100
AcDbLine
 62
7
  6
CONTINUOUS
 10
0.4324260907
 20
-1.2228117354
 11
0.6264832491
 21
-0.5859242979
  0
LINE
  5
28F
100
AcDbEntity
  8
0
100
AcDbLine
 62
7
  6
CONTINUOUS
 10
0.2245143865
 20
-1.867151753
 11
0.3367352574
 21
-1.5105930355
  0
LINE
  5
290
100
AcDbEntity
  8
0
100
AcDbLine
 62
7
  6
CONTINUOUS
 10
0.2370143865
 20
-1.8563264355
 11
0.3450086345
 21
-1.5131969421
  0
LINE
  5
291
100
AcDbEntity
  8
0
100
AcDbLine
 62
7
  6
CONTINUOUS
 10
-0.2291255191
 20
-1.7217634355
 11
-0.2416255191
 21
-1.732588753
  0
LINE
  5
292
100
AcDbEntity
  8
0
100
AcDbLine
 62
7
  6
CONTINUOUS
 10
0.4324260907
 20
-1.2228117354
 11
0.4199260907
 21
-1.2336370529
  0
LINE
  5
293
100
AcDbEntity
  8
0
100
AcDbLine
 62
7
  6
CONTINUOUS
 10
1.5564942707
 20
-0.3116705118
 11
1.5439942707
 21
-0.3224958293
  0
LINE
  5
294
100
AcDbEntity
  8
0
100
AcDbLine
 62
7
  6
CONTINUOUS
 10
0.2370143865
 20
-1.8563264355
 11
0.2245143865
 21
-1.867151753
  0
LINE
  5
295
100
AcDbEntity
  8
0
100
AcDbLine
 62
250
  6
CONTINUOUS
 10
2.5601447909
 20
-0.6219122394
 11
2.5476447909
 21
-0.632737557
  0
LINE
  5
296
100
AcDbEntity
  8
0
100
AcDbLine
 62
7
  6
CONTINUOUS
 10
1.9480633455
 20
-1.2687111816
 11
1.9355633455
 21
-1.2795364991
  0
LINE
  5
297
100
AcDbEntity
  8
0
100
AcDbLine
 62
250
  6
CONTINUOUS
 10
2.1804830627
 20
-1.3358049747
 11
2.1679830627
 21
-1.3466302923
  0
LINE
  5
298
100
AcDbEntity
  8
0
100
AcDbLine
 62
7
  6
CONTINUOUS
 10
1.4370701187
 20
-2.2027526855
 11
1.4245701187
 21
-2.213578003
  0
LINE
  5
299
100
AcDbEntity
  8
0
100
AcDbLine
 62
7
  6
CONTINUOUS
 10
2.6020761832
 20
-1.6296024568
 11
2.5895761832
 21
-1.6404277743
  0
LINE
  5
29A
100
AcDbEntity
  8
0
100
AcDbLine
 62
7
  6
CONTINUOUS
 10
1.9615485981
 20
-2.354156365
 11
1.9490485981
 21
-2.3649816826
  0
LINE
  5
29B
100
AcDbEntity
  8
0
100
AcDbLine
 62
250
  6
CONTINUOUS
 10
2.8364975034
 20
-2.0794049219
 11
2.8239975034
 21
-2.0902302395
  0
LINE
  5
29C
100
AcDbEntity
  8
0
100
AcDbLine
 62
7
  6
CONTINUOUS
 10
2.9755285588
 20
-2.6468671667
 11
2.9630285588
 21
-2.6576924842
  0
LINE
  5
29D
100
AcDbEntity
  8
0
100
AcDbLine
 62
7
  6
CONTINUOUS
 10
1.4245701187
 20
-2.213578003
 11
0.8267774642
 21
-0.0926902605
  0
LINE
  5
29E
100
AcDbEntity
  8
0
100
AcDbLine
 62
7
  6
CONTINUOUS
 10
1.4370701187
 20
-2.2027526855
 11
0.8392774642
 21
-0.0818649429
  0
LINE
  5
29F
100
AcDbEntity
  8
RACCORDO
100
AcDbLine
 62
250
  6
CONTINUOUS
 10
43.6801911569
 20
26.5758120154
 11
43.0551911569
 21
26.0345461381
  0
LINE
  5
2A0
100
AcDbEntity
  8
RACCORDO
100
AcDbLine
 62
250
  6
CONTINUOUS
 10
48.0103181759
 20
20.9956849965
 11
47.3853181759
 21
20.4544191191
  0
LINE
  5
2A1
100
AcDbEntity
  8
0
100
AcDbLine
 62
7
  6
CONTINUOUS
 10
-0.7542997784
 20
-35.0647074577
 11
-0.3386595461
 21
-34.5927562999
  0
LINE
  5
2A2
100
AcDbEntity
  8
0
100
AcDbLine
 62
7
  6
CONTINUOUS
 10
-0.7392997784
 20
-35.0517170766
 11
-0.3386595461
 21
-34.5967981184
  0
LINE
  5
2A3
100
AcDbEntity
  8
0
100
AcDbLine
 62
7
  6
CONTINUOUS
 10
-0.2911420313
 20
-34.3322001485
 11
-0.9032440235
 21
-35.0033196092
  0
LINE
  5
2A4
100
AcDbEntity
  8
0
100
AcDbLine
 62
7
  6
CONTINUOUS
 10
-2.5048523457
 20
-33.6758365174
 11
-2.5198523457
 21
-33.6888268985
  0
LINE
  5
2A5
100
AcDbEntity
  8
0
100
AcDbLine
 62
7
  6
CONTINUOUS
 10
-2.326433359
 20
-33.7273416424
 11
-2.341433359
 21
-33.7403320235
  0
LINE
  5
2A6
100
AcDbEntity
  8
0
100
AcDbLine
 62
7
  6
CONTINUOUS
 10
-2.0027485701
 20
-33.8207813924
 11
-2.0177485701
 21
-33.8337717735
  0
LINE
  5
2A7
100
AcDbEntity
  8
0
100
AcDbLine
 62
250
  6
CONTINUOUS
 10
-1.4091522417
 20
-33.9921378924
 11
-1.4241522417
 21
-34.0051282735
  0
LINE
  5
2A8
100
AcDbEntity
  8
0
100
AcDbLine
 62
7
  6
CONTINUOUS
 10
-1.8243789469
 20
-34.4828491889
 11
-1.8393789469
 21
-34.49583957
  0
LINE
  5
2A9
100
AcDbEntity
  8
0
100
AcDbLine
 62
7
  6
CONTINUOUS
 10
-2.326433359
 20
-35.0478130108
 11
-2.341433359
 21
-35.0608033919
  0
LINE
  5
2AA
100
AcDbEntity
  8
0
100
AcDbLine
 62
250
  6
CONTINUOUS
 10
-1.4507716906
 20
-34.5907003139
 11
-1.4657716906
 21
-34.603690695
  0
LINE
  5
2AB
100
AcDbEntity
  8
0
100
AcDbLine
 62
250
  6
CONTINUOUS
 10
-1.0169820116
 20
-34.4869497892
 11
-1.0319820116
 21
-34.4999401702
  0
LINE
  5
2AC
100
AcDbEntity
  8
0
100
AcDbLine
 62
7
  6
CONTINUOUS
 10
-1.8243789469
 20
-35.1927436358
 11
-1.8393789469
 21
-35.2057340169
  0
LINE
  5
2AD
100
AcDbEntity
  8
0
100
AcDbLine
 62
7
  6
CONTINUOUS
 10
-0.2761420313
 20
-34.3192097674
 11
-0.2911420313
 21
-34.3322001485
  0
LINE
  5
2AE
100
AcDbEntity
  8
0
100
AcDbLine
 62
7
  6
CONTINUOUS
 10
-0.1618171517
 20
-34.3522125174
 11
-0.1768171517
 21
-34.3652028985
  0
LINE
  5
2AF
100
AcDbEntity
  8
0
100
AcDbLine
 62
7
  6
CONTINUOUS
 10
-3.3441552436
 20
-37.1421957459
 11
-3.3291552436
 21
-37.1292053649
  0
LINE
  5
2B0
100
AcDbEntity
  8
0
100
AcDbLine
 62
7
  6
CONTINUOUS
 10
-0.1618171517
 20
-35.2184219516
 11
-0.1768171517
 21
-35.2314123327
  0
LINE
  5
2B1
100
AcDbEntity
  8
0
100
AcDbLine
 62
250
  6
CONTINUOUS
 10
0.5995773068
 20
-34.5720126937
 11
0.5845773068
 21
-34.5850030748
  0
LINE
  5
2B2
100
AcDbEntity
  8
0
100
AcDbLine
 62
7
  6
CONTINUOUS
 10
0.0276362977
 20
-35.2731124516
 11
0.0126362977
 21
-35.2861028327
  0
LINE
  5
2B3
100
AcDbEntity
  8
0
100
AcDbLine
 62
7
  6
CONTINUOUS
 10
0.0276362977
 20
-35.4128707652
 11
0.0126362977
 21
-35.4258611463
  0
LINE
  5
2B4
100
AcDbEntity
  8
0
100
AcDbLine
 62
250
  6
CONTINUOUS
 10
0.3293348417
 20
-35.1542315694
 11
0.3143348417
 21
-35.1672219505
  0
LINE
  5
2B5
100
AcDbEntity
  8
0
100
AcDbLine
 62
7
  6
CONTINUOUS
 10
-0.1618171517
 20
-35.6726838858
 11
-0.1768171517
 21
-35.6856742669
  0
LINE
  5
2B6
100
AcDbEntity
  8
0
100
AcDbLine
 62
250
  6
CONTINUOUS
 10
1.0426941187
 20
-35.3601606547
 11
1.0276941187
 21
-35.3731510358
  0
LINE
  5
2B7
100
AcDbEntity
  8
0
100
AcDbLine
 62
250
  6
CONTINUOUS
 10
0.5995773068
 20
-35.7471685519
 11
0.5845773068
 21
-35.760158933
  0
LINE
  5
2B8
100
AcDbEntity
  8
RACCORDO
100
AcDbLine
 62
250
  6
CONTINUOUS
 10
42.5551911569
 20
24.7355080324
 11
-44.0473492215
 21
49.7355080324
  0
LINE
  5
2B9
100
AcDbEntity
  8
RACCORDO
100
AcDbLine
 62
250
  6
CONTINUOUS
 10
43.0551911569
 20
26.0345461381
 11
-43.5473492215
 21
51.0345461381
  0
LINE
  5
2BA
100
AcDbEntity
  8
0
100
AcDbLine
 62
7
  6
CONTINUOUS
 10
43.6801911569
 20
26.5758120154
 11
-42.9223492215
 21
51.5758120154
  0
LINE
  5
2BB
100
AcDbEntity
  8
RACCORDO
100
AcDbLine
 62
250
  6
CONTINUOUS
 10
46.0192927721
 20
-48.5776131836
 11
46.0192927721
 21
20.2714064172
  0
LINE
  5
2BC
100
AcDbEntity
  8
RACCORDO
100
AcDbLine
 62
250
  6
CONTINUOUS
 10
47.3853181759
 20
-48.3946004817
 11
47.3853181759
 21
20.4544191191
  0
LINE
  5
2BD
100
AcDbEntity
  8
0
100
AcDbLine
 62
7
  6
CONTINUOUS
 10
48.0103181759
 20
-47.8533346044
 11
48.0103181759
 21
20.9956849965
  0
LINE
  5
2BE
100
AcDbEntity
  8
RACCORDO
100
AcDbLine
 62
250
  6
CONTINUOUS
 10
48.0103181759
 20
-47.8533346044
 11
47.3853181759
 21
-48.3946004817
  0
LINE
  5
2BF
100
AcDbEntity
  8
ASSI
100
AcDbLine
 62
7
  6
CONTINUOUS
 10
46.9534595105
 20
-50.3829793345
 11
46.3284595105
 21
-50.9242452118
  0
ARC
  5
2C0
100
AcDbEntity
  8
0
100
AcDbCircle
 62
7
  6
CONTINUOUS
 10
2.4034642507
 20
-1.9177441055
 40
0.3499604398
100
AcDbArc
 50
49.6584630944
 51
55.4220577827
  0
SPLINE
  5
2C1
100
AcDbEntity
  8
0
100
AcDbSpline
 62
7
  6
CONTINUOUS
 70
0
 71
3
 72
14
 73
10
 74
0
 42
0.0000001
 43
0.0000001
 44
0.0000000001
 40
0.0
 40
0.0
 40
0.0
 40
0.0
 40
0.2564723719
 40
0.3945423517
 40
0.5316431198
 40
0.6626317489
 40
0.7840108151
 40
0.8953103177
 40
1.0
 40
1.0
 40
1.0
 40
1.0
 10
-38.4181840969
 20
40.3162793983
 30
0.0
 10
-38.4181840969
 20
40.5964742653
 30
0.0
 10
-38.5577390241
 20
41.0312128588
 30
0.0
 10
-38.9071354828
 20
41.4975231013
 30
0.0
 10
-39.2481304736
 20
41.7883361771
 30
0.0
 10
-39.6315482866
 20
41.9825501547
 30
0.0
 10
-40.0265036679
 20
42.0628958961
 30
0.0
 10
-40.3997742287
 20
42.0180320312
 30
0.0
 10
-40.6127424169
 20
41.9000446963
 30
0.0
 10
-40.6992022873
 20
41.8251723297
 30
0.0
  0
SPLINE
  5
2C2
100
AcDbEntity
  8
0
100
AcDbSpline
 62
7
  6
CONTINUOUS
 70
0
 71
3
 72
10
 73
6
 74
0
 42
0.0000001
 43
0.0000001
 44
0.0000000001
 40
0.0
 40
0.0
 40
0.0
 40
0.0
 40
0.5183187022
 40
0.7619787869
 40
1.0
 40
1.0
 40
1.0
 40
1.0
 10
39.5241022437
 20
17.8162793983
 30
0.0
 10
39.5241022437
 20
17.6703163299
 30
0.0
 10
39.4866408118
 20
17.4512866872
 30
0.0
 10
39.349896013
 20
17.2028942681
 30
0.0
 10
39.2577144533
 20
17.1012657842
 30
0.0
 10
39.2070442227
 20
17.057386467
 30
0.0
  0
SPLINE
  5
2C3
100
AcDbEntity
  8
0
100
AcDbSpline
 62
7
  6
CONTINUOUS
 70
0
 71
3
 72
10
 73
6
 74
0
 42
0.0000001
 43
0.0000001
 44
0.0000000001
 40
0.0
 40
0.0
 40
0.0
 40
0.0
 40
0.5183187022
 40
0.7619787869
 40
1.0
 40
1.0
 40
1.0
 40
1.0
 10
-38.4181840969
 20
-19.8724861647
 30
0.0
 10
-38.4181840969
 20
-20.0184492331
 30
0.0
 10
-38.4556455288
 20
-20.2374788759
 30
0.0
 10
-38.5923903276
 20
-20.4858712949
 30
0.0
 10
-38.6845718873
 20
-20.5874997788
 30
0.0
 10
-38.7352421179
 20
-20.6313790961
 30
0.0
  0
SPLINE
  5
2C4
100
AcDbEntity
  8
0
100
AcDbSpline
 62
7
  6
CONTINUOUS
 70
0
 71
3
 72
14
 73
10
 74
0
 42
0.0000001
 43
0.0000001
 44
0.0000000001
 40
0.0
 40
0.0
 40
0.0
 40
0.0
 40
0.2564723719
 40
0.3945423517
 40
0.5316431198
 40
0.6626317489
 40
0.7840108151
 40
0.8953103177
 40
1.0
 40
1.0
 40
1.0
 40
1.0
 10
39.5241022437
 20
-42.3724861647
 30
0.0
 10
39.5241022437
 20
-42.0922912978
 30
0.0
 10
39.3845473165
 20
-41.6575527042
 30
0.0
 10
39.0351508578
 20
-41.1912424617
 30
0.0
 10
38.694155867
 20
-40.9004293859
 30
0.0
 10
38.310738054
 20
-40.7062154083
 30
0.0
 10
37.9157826727
 20
-40.6258696669
 30
0.0
 10
37.5425121119
 20
-40.6707335319
 30
0.0
 10
37.3295439237
 20
-40.7887208667
 30
0.0
 10
37.2430840533
 20
-40.8635932333
 30
0.0
  0
SPLINE
  5
2C5
100
AcDbEntity
  8
0
100
AcDbSpline
 62
7
  6
CONTINUOUS
 70
0
 71
3
 72
13
 73
9
 74
0
 42
0.0000001
 43
0.0000001
 44
0.0000000001
 40
0.0
 40
0.0
 40
0.0
 40
0.0
 40
0.2376484151
 40
0.3645777191
 40
0.4944049658
 40
0.6250312721
 40
0.7542741359
 40
1.0
 40
1.0
 40
1.0
 40
1.0
 10
48.0103181759
 20
20.9956849965
 30
0.0
 10
48.0103181759
 20
21.5900020297
 30
0.0
 10
47.8219810877
 20
22.5074234089
 30
0.0
 10
47.2982347017
 20
23.6298387609
 30
0.0
 10
46.7597878656
 20
24.4400062244
 30
0.0
 10
46.1046378737
 20
25.1666602673
 30
0.0
 10
45.1281147214
 20
25.9735235639
 30
0.0
 10
44.270600298
 20
26.4053755771
 30
0.0
 10
43.6801911569
 20
26.5758120154
 30
0.0
  0
SPLINE
  5
2C6
100
AcDbEntity
  8
0
100
AcDbSpline
 62
7
  6
CONTINUOUS
 70
0
 71
3
 72
11
 73
7
 74
0
 42
0.0000001
 43
0.0000001
 44
0.0000000001
 40
0.0
 40
0.0
 40
0.0
 40
0.0
 40
0.2709662379
 40
0.5256492418
 40
0.7667315495
 40
1.0
 40
1.0
 40
1.0
 40
1.0
 10
-42.9223492215
 20
51.5758120154
 30
0.0
 10
-43.2220147838
 20
51.6623180119
 30
0.0
 10
-43.8216944491
 20
51.7750518517
 30
0.0
 10
-44.7117908771
 20
51.7420869366
 30
0.0
 10
-45.5252954349
 20
51.5000191216
 30
0.0
 10
-45.9926456829
 20
51.2011121191
 30
0.0
 10
-46.1956172002
 20
51.0253292941
 30
0.0
  0
SPLINE
  5
2C7
100
AcDbEntity
  8
0
100
AcDbSpline
 62
7
  6
CONTINUOUS
 70
0
 71
3
 72
11
 73
7
 74
0
 42
0.0000001
 43
0.0000001
 44
0.0000000001
 40
0.0
 40
0.0
 40
0.0
 40
0.0
 40
0.2348764479
 40
0.4745881015
 40
0.7292814157
 40
1.0
 40
1.0
 40
1.0
 40
1.0
 10
0.4211627688
 20
-34.7606241005
 30
0.0
 10
0.4314319065
 20
-34.7517307663
 30
0.0
 10
0.4541565442
 20
-34.7357865667
 30
0.0
 10
0.4946794791
 20
-34.7218986766
 30
0.0
 10
0.5393941163
 20
-34.7206247614
 30
0.0
 10
0.5695337492
 20
-34.7259668269
 30
0.0
 10
0.5845773068
 20
-34.7303095279
 30
0.0
  0
SPLINE
  5
2C8
100
AcDbEntity
  8
0
100
AcDbSpline
 62
7
  6
CONTINUOUS
 70
0
 71
3
 72
11
 73
7
 74
0
 42
0.0000001
 43
0.0000001
 44
0.0000000001
 40
0.0
 40
0.0
 40
0.0
 40
0.0
 40
0.2340396754
 40
0.4799169848
 40
0.7354482493
 40
1.0
 40
1.0
 40
1.0
 40
1.0
 10
0.2923219031
 20
-34.6307003651
 30
0.0
 10
0.2614800418
 20
-34.6574102249
 30
0.0
 10
0.2083121419
 20
-34.7252783797
 30
0.0
 10
0.1700445106
 20
-34.8489255063
 30
0.0
 10
0.145534674
 20
-34.9802927223
 30
0.0
 10
0.1414604949
 20
-35.0711983142
 30
0.0
 10
0.1414604949
 20
-35.1173174251
 30
0.0
  0
SPLINE
  5
2C9
100
AcDbEntity
  8
RACCORDO
100
AcDbSpline
 62
7
  6
CONTINUOUS
 70
0
 71
3
 72
14
 73
10
 74
0
 42
0.0000001
 43
0.0000001
 44
0.0000000001
 40
0.0
 40
0.0
 40
0.0
 40
0.0
 40
0.1193651076
 40
0.2424085214
 40
0.3685677207
 40
0.4967432935
 40
0.6254925447
 40
0.7532760119
 40
1.0
 40
1.0
 40
1.0
 40
1.0
 10
-48.0114508366
 20
-21.1446004817
 30
0.0
 10
-48.0114508366
 20
-21.4348491064
 30
0.0
 10
-47.9537656958
 20
-22.0254247675
 30
0.0
 10
-47.7120040116
 20
-22.8924581471
 30
0.0
 10
-47.3256418299
 20
-23.7289935202
 30
0.0
 10
-46.8096561047
 20
-24.5085569315
 30
0.0
 10
-46.1812090188
 20
-25.2066616382
 30
0.0
 10
-45.235479132
 20
-25.9870597657
 30
0.0
 10
-44.4010981622
 20
-26.4030790062
 30
0.0
 10
-43.8246993196
 20
-26.5694710197
 30
0.0
  0
SPLINE
  5
2CA
100
AcDbEntity
  8
RACCORDO
100
AcDbSpline
 62
7
  6
CONTINUOUS
 70
0
 71
3
 72
11
 73
7
 74
0
 42
0.0000001
 43
0.0000001
 44
0.0000000001
 40
0.0
 40
0.0
 40
0.0
 40
0.0
 40
0.2445017121
 40
0.4912365723
 40
0.7424208419
 40
1.0
 40
1.0
 40
1.0
 40
1.0
 10
-46.8206175751
 20
50.4840638492
 30
0.0
 10
-47.0124682771
 20
50.3179162675
 30
0.0
 10
-47.3597652022
 20
49.937074926
 30
0.0
 10
-47.7376800045
 20
49.2582673809
 30
0.0
 10
-47.9638053558
 20
48.5014977511
 30
0.0
 10
-48.0114508366
 20
47.97178823
 30
0.0
 10
-48.0114508366
 20
47.7044191191
 30
0.0
  0
SPLINE
  5
2CB
100
AcDbEntity
  8
RACCORDO
100
AcDbSpline
 62
7
  6
CONTINUOUS
 70
0
 71
3
 72
11
 73
7
 74
0
 42
0.0000001
 43
0.0000001
 44
0.0000000001
 40
0.0
 40
0.0
 40
0.0
 40
0.0
 40
0.26034679
 40
0.5121297739
 40
0.7576581186
 40
1.0
 40
1.0
 40
1.0
 40
1.0
 10
42.7778410588
 20
-51.5694710197
 30
0.0
 10
43.0909016412
 20
-51.6598438255
 30
0.0
 10
43.7269123564
 20
-51.7767504626
 30
0.0
 10
44.6831279243
 20
-51.7334644824
 30
0.0
 10
45.5780898478
 20
-51.4588171885
 30
0.0
 10
46.0991792505
 20
-51.1228077416
 30
0.0
 10
46.3284595105
 20
-50.9242452118
 30
0.0
  0
SPLINE
  5
2CC
100
AcDbEntity
  8
0
100
AcDbSpline
 62
7
  6
CONTINUOUS
 70
0
 71
3
 72
10
 73
6
 74
0
 42
0.0000001
 43
0.0000001
 44
0.0000000001
 40
0.0
 40
0.0
 40
0.0
 40
0.0
 40
0.2380212131
 40
0.4816812978
 40
1.0
 40
1.0
 40
1.0
 40
1.0
 10
39.2070442227
 20
-43.1313790961
 30
0.0
 10
39.2577144533
 20
-43.0874997788
 30
0.0
 10
39.349896013
 20
-42.9858712949
 30
0.0
 10
39.4866408118
 20
-42.7374788759
 30
0.0
 10
39.5241022437
 20
-42.5184492331
 30
0.0
 10
39.5241022437
 20
-42.3724861647
 30
0.0
  0
SPLINE
  5
2CD
100
AcDbEntity
  8
0
100
AcDbSpline
 62
7
  6
CONTINUOUS
 70
0
 71
3
 72
14
 73
10
 74
0
 42
0.0000001
 43
0.0000001
 44
0.0000000001
 40
0.0
 40
0.0
 40
0.0
 40
0.0
 40
0.1046896823
 40
0.2159891849
 40
0.3373682511
 40
0.4683568802
 40
0.6054576483
 40
0.7435276281
 40
1.0
 40
1.0
 40
1.0
 40
1.0
 10
-40.6992022873
 20
-18.3635932333
 30
0.0
 10
-40.6127424169
 20
-18.2887208667
 30
0.0
 10
-40.3997742287
 20
-18.1707335319
 30
0.0
 10
-40.0265036679
 20
-18.1258696669
 30
0.0
 10
-39.6315482866
 20
-18.2062154083
 30
0.0
 10
-39.2481304736
 20
-18.4004293859
 30
0.0
 10
-38.9071354828
 20
-18.6912424617
 30
0.0
 10
-38.5577390241
 20
-19.1575527042
 30
0.0
 10
-38.4181840969
 20
-19.5922912978
 30
0.0
 10
-38.4181840969
 20
-19.8724861647
 30
0.0
  0
SPLINE
  5
2CE
100
AcDbEntity
  8
0
100
AcDbSpline
 62
7
  6
CONTINUOUS
 70
0
 71
3
 72
14
 73
10
 74
0
 42
0.0000001
 43
0.0000001
 44
0.0000000001
 40
0.0
 40
0.0
 40
0.0
 40
0.0
 40
0.1046896823
 40
0.2159891849
 40
0.3373682511
 40
0.4683568802
 40
0.6054576483
 40
0.7435276281
 40
1.0
 40
1.0
 40
1.0
 40
1.0
 10
37.2430840533
 20
19.3251723297
 30
0.0
 10
37.3295439237
 20
19.4000446963
 30
0.0
 10
37.5425121119
 20
19.5180320312
 30
0.0
 10
37.9157826727
 20
19.5628958961
 30
0.0
 10
38.310738054
 20
19.4825501547
 30
0.0
 10
38.694155867
 20
19.2883361771
 30
0.0
 10
39.0351508578
 20
18.9975231013
 30
0.0
 10
39.3845473165
 20
18.5312128588
 30
0.0
 10
39.5241022437
 20
18.0964742653
 30
0.0
 10
39.5241022437
 20
17.8162793983
 30
0.0
  0
SPLINE
  5
2CF
100
AcDbEntity
  8
0
100
AcDbSpline
 62
7
  6
CONTINUOUS
 70
0
 71
3
 72
10
 73
6
 74
0
 42
0.0000001
 43
0.0000001
 44
0.0000000001
 40
0.0
 40
0.0
 40
0.0
 40
0.0
 40
0.2380212131
 40
0.4816812978
 40
1.0
 40
1.0
 40
1.0
 40
1.0
 10
-38.7352421179
 20
39.557386467
 30
0.0
 10
-38.6845718873
 20
39.6012657842
 30
0.0
 10
-38.5923903276
 20
39.7028942681
 30
0.0
 10
-38.4556455288
 20
39.9512866872
 30
0.0
 10
-38.4181840969
 20
40.1703163299
 30
0.0
 10
-38.4181840969
 20
40.3162793983
 30
0.0
  0
SPLINE
  5
2D0
100
AcDbEntity
  8
0
100
AcDbSpline
 62
7
  6
CONTINUOUS
 70
0
 71
3
 72
11
 73
7
 74
0
 42
0.0000001
 43
0.0000001
 44
0.0000000001
 40
0.0
 40
0.0
 40
0.0
 40
0.0
 40
0.237416919
 40
0.4804565388
 40
0.7336958043
 40
1.0
 40
1.0
 40
1.0
 40
1.0
 10
46.9534591356
 20
-50.382978902
 30
0.0
 10
47.1223543086
 20
-50.2367077846
 30
0.0
 10
47.4296387323
 20
-49.8981927592
 30
0.0
 10
47.7648867738
 20
-49.2880569814
 30
0.0
 10
47.9677805936
 20
-48.5943839366
 30
0.0
 10
48.0103181759
 20
-48.1039496823
 30
0.0
 10
48.0103181759
 20
-47.8533346044
 30
0.0
  0
SPLINE
  5
2D1
100
AcDbEntity
  8
0
100
AcDbSpline
 62
7
  6
CONTINUOUS
 70
0
 71
3
 72
9
 73
5
 74
0
 42
0.0000001
 43
0.0000001
 44
0.0000000001
 40
0.0
 40
0.0
 40
0.0
 40
0.0
 40
0.4895462082
 40
1.0
 40
1.0
 40
1.0
 40
1.0
 10
1.9355633455
 20
-0.7446847888
 30
0.0
 10
1.9889581824
 20
-0.7509875523
 30
0.0
 10
2.0977516474
 20
-0.7686189113
 30
0.0
 10
2.2022023457
 20
-0.8041559069
 30
0.0
 10
2.2541688756
 20
-0.8251892437
 30
0.0
  0
SPLINE
  5
2D2
100
AcDbEntity
  8
0
100
AcDbSpline
 62
7
  6
CONTINUOUS
 70
0
 71
3
 72
11
 73
7
 74
0
 42
0.0000001
 43
0.0000001
 44
0.0000000001
 40
0.0
 40
0.0
 40
0.0
 40
0.0
 40
0.2507593195
 40
0.51157245
 40
0.7646208374
 40
1.0
 40
1.0
 40
1.0
 40
1.0
 10
2.2541688756
 20
-0.8251892437
 30
0.0
 10
2.2856298764
 20
-0.8379238674
 30
0.0
 10
2.3460669857
 20
-0.8735404756
 30
0.0
 10
2.4207948546
 20
-0.9468192544
 30
0.0
 10
2.4705270036
 20
-1.0369508385
 30
0.0
 10
2.4834043197
 20
-1.1032046902
 30
0.0
 10
2.4839003085
 20
-1.135059717
 30
0.0
  0
SPLINE
  5
2D3
100
AcDbEntity
  8
0
100
AcDbSpline
 62
7
  6
CONTINUOUS
 70
0
 71
3
 72
10
 73
6
 74
0
 42
0.0000001
 43
0.0000001
 44
0.0000000001
 40
0.0
 40
0.0
 40
0.0
 40
0.0
 40
0.5210814051
 40
0.7643435217
 40
1.0
 40
1.0
 40
1.0
 40
1.0
 10
2.4839003085
 20
-1.135059717
 30
0.0
 10
2.4844469527
 20
-1.1706441823
 30
0.0
 10
2.4806091643
 20
-1.2239793956
 30
0.0
 10
2.4531081959
 20
-1.2872999584
 30
0.0
 10
2.4315165265
 20
-1.312665588
 30
0.0
 10
2.4193500042
 20
-1.3232021059
 30
0.0
  0
SPLINE
  5
2D4
100
AcDbEntity
  8
0
100
AcDbSpline
 62
7
  6
CONTINUOUS
 70
0
 71
3
 72
13
 73
9
 74
0
 42
0.0000001
 43
0.0000001
 44
0.0000000001
 40
0.0
 40
0.0
 40
0.0
 40
0.0
 40
0.1318867532
 40
0.2595678196
 40
0.3844562448
 40
0.5084473404
 40
0.7551143134
 40
1.0
 40
1.0
 40
1.0
 40
1.0
 10
2.5895761832
 20
-1.6289149042
 30
0.0
 10
2.596569134
 20
-1.630031279
 30
0.0
 10
2.6107147874
 20
-1.6268883997
 30
0.0
 10
2.6302188349
 20
-1.6207390853
 30
0.0
 10
2.6492177037
 20
-1.6136229248
 30
0.0
 10
2.67326736
 20
-1.6022117115
 30
0.0
 10
2.7015680587
 20
-1.5849593318
 30
0.0
 10
2.7225230193
 20
-1.5688206054
 30
0.0
 10
2.7324626103
 20
-1.5602126671
 30
0.0
  0
SPLINE
  5
2D5
100
AcDbEntity
  8
0
100
AcDbSpline
 62
7
  6
CONTINUOUS
 70
0
 71
3
 72
9
 73
5
 74
0
 42
0.0000001
 43
0.0000001
 44
0.0000000001
 40
0.0
 40
0.0
 40
0.0
 40
0.0
 40
0.4944561017
 40
1.0
 40
1.0
 40
1.0
 40
1.0
 10
2.1671064482
 20
-1.6654649036
 30
0.0
 10
2.220657333
 20
-1.6809237124
 30
0.0
 10
2.3208034409
 20
-1.7460893179
 30
0.0
 10
2.3757266194
 20
-1.8486577456
 30
0.0
 10
2.3940034943
 20
-1.9026347731
 30
0.0
  0
SPLINE
  5
2D6
100
AcDbEntity
  8
0
100
AcDbSpline
 62
7
  6
CONTINUOUS
 70
0
 71
3
 72
11
 73
7
 74
0
 42
0.0000001
 43
0.0000001
 44
0.0000000001
 40
0.0
 40
0.0
 40
0.0
 40
0.0
 40
0.2509902286
 40
0.5009356852
 40
0.7505820716
 40
1.0
 40
1.0
 40
1.0
 40
1.0
 10
2.3940034943
 20
-1.9026347731
 30
0.0
 10
2.4118980292
 20
-1.9554320873
 30
0.0
 10
2.4406929979
 20
-2.0630152733
 30
0.0
 10
2.4855661727
 20
-2.2235321111
 30
0.0
 10
2.5289704623
 20
-2.3841456471
 30
0.0
 10
2.557625084
 20
-2.4912223458
 30
0.0
 10
2.5718393503
 20
-2.5447658868
 30
0.0
  0
SPLINE
  5
2D7
100
AcDbEntity
  8
0
100
AcDbSpline
 62
7
  6
CONTINUOUS
 70
0
 71
3
 72
11
 73
7
 74
0
 42
0.0000001
 43
0.0000001
 44
0.0000000001
 40
0.0
 40
0.0
 40
0.0
 40
0.0
 40
0.2698021793
 40
0.5263429231
 40
0.768337709
 40
1.0
 40
1.0
 40
1.0
 40
1.0
 10
-1.4241547579
 20
-34.7683317137
 30
0.0
 10
-1.3964857505
 20
-34.7763192095
 30
0.0
 10
-1.3410884916
 20
-34.78742924
 30
0.0
 10
-1.2586756903
 20
-34.7895288088
 30
0.0
 10
-1.1812263044
 20
-34.7737854839
 30
0.0
 10
-1.1370346863
 20
-34.7468002023
 30
0.0
 10
-1.1183422425
 20
-34.7306120702
 30
0.0
  0
SPLINE
  5
2D8
100
AcDbEntity
  8
0
100
AcDbSpline
 62
7
  6
CONTINUOUS
 70
0
 71
3
 72
12
 73
8
 74
0
 42
0.0000001
 43
0.0000001
 44
0.0000000001
 40
0.0
 40
0.0
 40
0.0
 40
0.0
 40
0.242962546
 40
0.4987252728
 40
0.7576609022
 40
0.8831246786
 40
1.0
 40
1.0
 40
1.0
 40
1.0
 10
-1.4657734023
 20
-34.1457404118
 30
0.0
 10
-1.4329046628
 20
-34.155228663
 30
0.0
 10
-1.3681854477
 20
-34.1833233444
 30
0.0
 10
-1.2785201998
 20
-34.245215815
 30
0.0
 10
-1.2340154866
 20
-34.3272946348
 30
0.0
 10
-1.2174788374
 20
-34.3961268531
 30
0.0
 10
-1.2158937112
 20
-34.4303925705
 30
0.0
 10
-1.2158937112
 20
-34.4468494356
 30
0.0
  0
SPLINE
  5
2D9
100
AcDbEntity
  8
0
100
AcDbSpline
 62
7
  6
CONTINUOUS
 70
0
 71
3
 72
9
 73
5
 74
0
 42
0.0000001
 43
0.0000001
 44
0.0000000001
 40
0.0
 40
0.0
 40
0.0
 40
0.0
 40
0.5225936335
 40
1.0
 40
1.0
 40
1.0
 40
1.0
 10
-1.2158937112
 20
-34.4468494356
 30
0.0
 10
-1.2158937112
 20
-34.4738551784
 30
0.0
 10
-1.2204449005
 20
-34.5259834518
 30
0.0
 10
-1.2474380533
 20
-34.5736922092
 30
0.0
 10
-1.2660872996
 20
-34.5898429224
 30
0.0
  0
SPLINE
  5
2DA
100
AcDbEntity
  8
0
100
AcDbSpline
 62
7
  6
CONTINUOUS
 70
0
 71
3
 72
11
 73
7
 74
0
 42
0.0000001
 43
0.0000001
 44
0.0000000001
 40
0.0
 40
0.0
 40
0.0
 40
0.0
 40
0.2706354747
 40
0.5265814012
 40
0.7677179375
 40
1.0
 40
1.0
 40
1.0
 40
1.0
 10
0.5845773068
 20
-35.9054653861
 30
0.0
 10
0.6112745819
 20
-35.9131722256
 30
0.0
 10
0.6647327417
 20
-35.9235316821
 30
0.0
 10
0.7441888635
 20
-35.9224898673
 30
0.0
 10
0.8174220753
 20
-35.902457194
 30
0.0
 10
0.8588042041
 20
-35.8753812546
 30
0.0
 10
0.8768327105
 20
-35.8597680958
 30
0.0
  0
SPLINE
  5
2DB
100
AcDbEntity
  8
0
100
AcDbSpline
 62
7
  6
CONTINUOUS
 70
0
 71
3
 72
13
 73
9
 74
0
 42
0.0000001
 43
0.0000001
 44
0.0000000001
 40
0.0
 40
0.0
 40
0.0
 40
0.0
 40
0.1163532659
 40
0.2358010896
 40
0.4840643634
 40
0.614794508
 40
0.7473782828
 40
1.0
 40
1.0
 40
1.0
 40
1.0
 10
0.1414604949
 20
-35.1173174251
 30
0.0
 10
0.1414604949
 20
-35.1548794582
 30
0.0
 10
0.1441450427
 20
-35.2311205151
 30
0.0
 10
0.1651647644
 20
-35.385896239
 30
0.0
 10
0.2044675891
 20
-35.544145179
 30
0.0
 10
0.2861884008
 20
-35.6888831586
 30
0.0
 10
0.3932102145
 20
-35.8174995503
 30
0.0
 10
0.5062234925
 20
-35.8828465883
 30
0.0
 10
0.5845773068
 20
-35.9054653861
 30
0.0
  0
SPLINE
  5
2DC
100
AcDbEntity
  8
0
100
AcDbSpline
 62
7
  6
CONTINUOUS
 70
0
 71
3
 72
13
 73
9
 74
0
 42
0.0000001
 43
0.0000001
 44
0.0000000001
 40
0.0
 40
0.0
 40
0.0
 40
0.0
 40
0.2632097378
 40
0.518230373
 40
0.6432023445
 40
0.7660927757
 40
0.8843261368
 40
1.0
 40
1.0
 40
1.0
 40
1.0
 10
0.8548197719
 20
-35.3232465104
 30
0.0
 10
0.8548197719
 20
-35.3610562548
 30
0.0
 10
0.8535214059
 20
-35.4356171737
 30
0.0
 10
0.8397596762
 20
-35.5272693938
 30
0.0
 10
0.8229814752
 20
-35.5975531875
 30
0.0
 10
0.8069878177
 20
-35.6477556216
 30
0.0
 10
0.7834208193
 20
-35.6937303218
 30
0.0
 10
0.760552665
 20
-35.7189663708
 30
0.0
 10
0.7479918448
 20
-35.7298443604
 30
0.0
  0
SPLINE
  5
2DD
100
AcDbEntity
  8
0
100
AcDbSpline
 62
7
  6
CONTINUOUS
 70
0
 71
3
 72
15
 73
11
 74
0
 42
0.0000001
 43
0.0000001
 44
0.0000000001
 40
0.0
 40
0.0
 40
0.0
 40
0.0
 40
0.1257258711
 40
0.2585035536
 40
0.3914435232
 40
0.5192789747
 40
0.6436256855
 40
0.7648036705
 40
0.8836287261
 40
1.0
 40
1.0
 40
1.0
 40
1.0
 10
0.5845773068
 20
-34.7303095279
 30
0.0
 10
0.6125946392
 20
-34.7383974351
 30
0.0
 10
0.6677665938
 20
-34.7651254366
 30
0.0
 10
0.7334342227
 20
-34.8294325015
 30
0.0
 10
0.7828520446
 20
-34.9070388773
 30
0.0
 10
0.8140512638
 20
-34.9912614702
 30
0.0
 10
0.8330992501
 20
-35.0758306053
 30
0.0
 10
0.8468908504
 20
-35.1592497731
 30
0.0
 10
0.8544080766
 20
-35.2416698939
 30
0.0
 10
0.8548197719
 20
-35.2962548892
 30
0.0
 10
0.8548197719
 20
-35.3232465104
 30
0.0
  0
SPLINE
  5
2DE
100
AcDbEntity
  8
RACCORDO
100
AcDbSpline
 62
250
  6
CONTINUOUS
 70
0
 71
3
 72
13
 73
9
 74
0
 42
0.0000001
 43
0.0000001
 44
0.0000000001
 40
0.0
 40
0.0
 40
0.0
 40
0.0
 40
0.2376483316
 40
0.3645776814
 40
0.4944049616
 40
0.6250313034
 40
0.754274219
 40
1.0
 40
1.0
 40
1.0
 40
1.0
 10
47.3853181759
 20
20.4544191191
 30
0.0
 10
47.3853181759
 20
21.0487360042
 30
0.0
 10
47.1969815531
 20
21.9661573821
 30
0.0
 10
46.6732358182
 20
23.0885731996
 30
0.0
 10
46.1347888577
 20
23.898741067
 30
0.0
 10
45.4796384915
 20
24.6253953382
 30
0.0
 10
44.5031147129
 20
25.4322581393
 30
0.0
 10
43.6456001589
 20
25.86410974
 30
0.0
 10
43.0551911569
 20
26.0345461381
 30
0.0
  0
SPLINE
  5
2DF
100
AcDbEntity
  8
RACCORDO
100
AcDbSpline
 62
250
  6
CONTINUOUS
 70
0
 71
3
 72
11
 73
7
 74
0
 42
0.0000001
 43
0.0000001
 44
0.0000000001
 40
0.0
 40
0.0
 40
0.0
 40
0.0
 40
0.2709659421
 40
0.5256491819
 40
0.7667315177
 40
1.0
 40
1.0
 40
1.0
 40
1.0
 10
-43.5473492215
 20
51.0345461381
 30
0.0
 10
-43.847014406
 20
51.1210520255
 30
0.0
 10
-44.446694167
 20
51.2337854295
 30
0.0
 10
-45.3367897182
 20
51.200819753
 30
0.0
 10
-46.1502966695
 20
50.9587544317
 30
0.0
 10
-46.6176417479
 20
50.659841684
 30
0.0
 10
-46.8206170829
 20
50.4840632809
 30
0.0
  0
SPLINE
  5
2E0
100
AcDbEntity
  8
0
100
AcDbSpline
 62
7
  6
CONTINUOUS
 70
0
 71
3
 72
9
 73
5
 74
0
 42
0.0000001
 43
0.0000001
 44
0.0000000001
 40
0.0
 40
0.0
 40
0.0
 40
0.0
 40
0.4743251299
 40
1.0
 40
1.0
 40
1.0
 40
1.0
 10
2.398591217
 20
-1.3343710057
 30
0.0
 10
2.3671428329
 20
-1.3496925436
 30
0.0
 10
2.2906320986
 20
-1.3592920184
 30
0.0
 10
2.2179463261
 20
-1.3457829181
 30
0.0
 10
2.1804830627
 20
-1.3358049747
 30
0.0
  0
SPLINE
  5
2E1
100
AcDbEntity
  8
0
100
AcDbSpline
 62
7
  6
CONTINUOUS
 70
0
 71
3
 72
11
 73
7
 74
0
 42
0.0000001
 43
0.0000001
 44
0.0000000001
 40
0.0
 40
0.0
 40
0.0
 40
0.0
 40
0.2277506502
 40
0.4695926722
 40
0.730188261
 40
1.0
 40
1.0
 40
1.0
 40
1.0
 10
2.4193500042
 20
-1.3232021059
 30
0.0
 10
2.4043276025
 20
-1.3362118881
 30
0.0
 10
2.367494741
 20
-1.356814476
 30
0.0
 10
2.3036926834
 20
-1.3665688472
 30
0.0
 10
2.236145753
 20
-1.362296941
 30
0.0
 10
2.1907328701
 20
-1.3526894625
 30
0.0
 10
2.1679830627
 20
-1.3466302923
 30
0.0
  0
SPLINE
  5
2E2
100
AcDbEntity
  8
0
100
AcDbSpline
 62
7
  6
CONTINUOUS
 70
0
 71
3
 72
15
 73
11
 74
0
 42
0.0000001
 43
0.0000001
 44
0.0000000001
 40
0.0
 40
0.0
 40
0.0
 40
0.0
 40
0.1052933259
 40
0.2152017961
 40
0.3319746586
 40
0.4555963454
 40
0.5862168204
 40
0.7225869546
 40
0.861847185
 40
1.0
 40
1.0
 40
1.0
 40
1.0
 10
2.753277094
 20
-1.5419490862
 30
0.0
 10
2.7805214475
 20
-1.5167728894
 30
0.0
 10
2.8280043745
 20
-1.4557479711
 30
0.0
 10
2.8692519655
 20
-1.3446954783
 30
0.0
 10
2.881720558
 20
-1.2209385824
 30
0.0
 10
2.8705232585
 20
-1.0899827548
 30
0.0
 10
2.8319824839
 20
-0.9569113878
 30
0.0
 10
2.7653666401
 20
-0.8291146402
 30
0.0
 10
2.6744426849
 20
-0.7144876576
 30
0.0
 10
2.6009645496
 20
-0.6484217609
 30
0.0
 10
2.5601447909
 20
-0.6219122394
 30
0.0
  0
SPLINE
  5
2E3
100
AcDbEntity
  8
0
100
AcDbSpline
 62
7
  6
CONTINUOUS
 70
0
 71
3
 72
15
 73
11
 74
0
 42
0.0000001
 43
0.0000001
 44
0.0000000001
 40
0.0
 40
0.0
 40
0.0
 40
0.0
 40
0.1052551839
 40
0.2149008921
 40
0.3314195136
 40
0.4549177126
 40
0.5855058985
 40
0.7220172328
 40
0.8615404568
 40
1.0
 40
1.0
 40
1.0
 40
1.0
 10
2.7324626103
 20
-1.5602126671
 30
0.0
 10
2.7607873363
 20
-1.5356827348
 30
0.0
 10
2.8105848907
 20
-1.475550992
 30
0.0
 10
2.8548223812
 20
-1.3644379802
 30
0.0
 10
2.869279336
 20
-1.2397508588
 30
0.0
 10
2.859286551
 20
-1.107450219
 30
0.0
 10
2.8215661167
 20
-0.9726291206
 30
0.0
 10
2.7549487632
 20
-0.8429477564
 30
0.0
 10
2.6632971307
 20
-0.7266046413
 30
0.0
 10
2.588982972
 20
-0.6595837568
 30
0.0
 10
2.5476447909
 20
-0.632737557
 30
0.0
  0
SPLINE
  5
2E4
100
AcDbEntity
  8
0
100
AcDbSpline
 62
7
  6
CONTINUOUS
 70
0
 71
3
 72
11
 73
7
 74
0
 42
0.0000001
 43
0.0000001
 44
0.0000000001
 40
0.0
 40
0.0
 40
0.0
 40
0.0
 40
0.2348764479
 40
0.4745881015
 40
0.7292814157
 40
1.0
 40
1.0
 40
1.0
 40
1.0
 10
0.7479918448
 20
-35.7298443604
 30
0.0
 10
0.737722707
 20
-35.7387376946
 30
0.0
 10
0.7149980694
 20
-35.7546818942
 30
0.0
 10
0.6744751344
 20
-35.7685697844
 30
0.0
 10
0.6297604972
 20
-35.7698436995
 30
0.0
 10
0.5996208644
 20
-35.764501634
 30
0.0
 10
0.5845773068
 20
-35.760158933
 30
0.0
  0
SPLINE
  5
2E5
100
AcDbEntity
  8
0
100
AcDbSpline
 62
7
  6
CONTINUOUS
 70
0
 71
3
 72
11
 73
7
 74
0
 42
0.0000001
 43
0.0000001
 44
0.0000000001
 40
0.0
 40
0.0
 40
0.0
 40
0.0
 40
0.2363629406
 40
0.4842245727
 40
0.738556961
 40
1.0
 40
1.0
 40
1.0
 40
1.0
 10
0.4064019488
 20
-34.7796583382
 30
0.0
 10
0.38821659
 20
-34.8041278507
 30
0.0
 10
0.3639725686
 20
-34.8632217529
 30
0.0
 10
0.3430905132
 20
-34.9559698258
 30
0.0
 10
0.3301333826
 20
-35.0539073982
 30
0.0
 10
0.3293348417
 20
-35.1205095122
 30
0.0
 10
0.3293348417
 20
-35.1542315694
 30
0.0
  0
SPLINE
  5
2E6
100
AcDbEntity
  8
0
100
AcDbSpline
 62
7
  6
CONTINUOUS
 70
0
 71
3
 72
11
 73
7
 74
0
 42
0.0000001
 43
0.0000001
 44
0.0000000001
 40
0.0
 40
0.0
 40
0.0
 40
0.0
 40
0.2340396754
 40
0.4799169848
 40
0.7354482493
 40
1.0
 40
1.0
 40
1.0
 40
1.0
 10
0.8768327105
 20
-35.8597680958
 30
0.0
 10
0.9076745717
 20
-35.833058236
 30
0.0
 10
0.9608424717
 20
-35.7651900812
 30
0.0
 10
0.999110103
 20
-35.6415429546
 30
0.0
 10
1.0236199396
 20
-35.5101757386
 30
0.0
 10
1.0276941187
 20
-35.4192701467
 30
0.0
 10
1.0276941187
 20
-35.3731510358
 30
0.0
  0
SPLINE
  5
2E7
100
AcDbEntity
  8
0
100
AcDbSpline
 62
7
  6
CONTINUOUS
 70
0
 71
3
 72
11
 73
7
 74
0
 42
0.0000001
 43
0.0000001
 44
0.0000000001
 40
0.0
 40
0.0
 40
0.0
 40
0.0
 40
0.2322820611
 40
0.4734186045
 40
0.7293645325
 40
1.0
 40
1.0
 40
1.0
 40
1.0
 10
0.3073220116
 20
-34.61770989
 30
0.0
 10
0.3253505175
 20
-34.6020967478
 30
0.0
 10
0.3667326421
 20
-34.5750208435
 30
0.0
 10
0.4399658265
 20
-34.5549882062
 30
0.0
 10
0.5194219109
 20
-34.5539464041
 30
0.0
 10
0.5728800447
 20
-34.564305858
 30
0.0
 10
0.5995773068
 20
-34.5720126937
 30
0.0
  0
SPLINE
  5
2E8
100
AcDbEntity
  8
0
100
AcDbSpline
 62
7
  6
CONTINUOUS
 70
0
 71
3
 72
8
 73
4
 74
0
 42
0.0000001
 43
0.0000001
 44
0.0000000001
 40
0.0
 40
0.0
 40
0.0
 40
0.0
 40
1.0
 40
1.0
 40
1.0
 40
1.0
 10
-1.2584957611
 20
-34.5826990272
 30
0.0
 10
-1.2677145853
 20
-34.5893046913
 30
0.0
 10
-1.2781812548
 20
-34.5943234189
 30
0.0
 10
-1.2889613479
 20
-34.5978463592
 30
0.0
  0
SPLINE
  5
2E9
100
AcDbEntity
  8
0
100
AcDbSpline
 62
7
  6
CONTINUOUS
 70
0
 71
3
 72
9
 73
5
 74
0
 42
0.0000001
 43
0.0000001
 44
0.0000000001
 40
0.0
 40
0.0
 40
0.0
 40
0.0
 40
0.4821304863
 40
1.0
 40
1.0
 40
1.0
 40
1.0
 10
-1.2889613479
 20
-34.5978463592
 30
0.0
 10
-1.31391452
 20
-34.6060010695
 30
0.0
 10
-1.3699122018
 20
-34.6074601162
 30
0.0
 10
-1.4236783238
 20
-34.5985215106
 30
0.0
 10
-1.4507699666
 20
-34.5907009632
 30
0.0
  0
SPLINE
  5
2EA
100
AcDbEntity
  8
0
100
AcDbSpline
 62
7
  6
CONTINUOUS
 70
0
 71
3
 72
10
 73
6
 74
0
 42
0.0000001
 43
0.0000001
 44
0.0000000001
 40
0.0
 40
0.0
 40
0.0
 40
0.0
 40
0.2306692705
 40
0.4756996662
 40
1.0
 40
1.0
 40
1.0
 40
1.0
 10
-1.2660872996
 20
-34.5898429224
 30
0.0
 10
-1.2780986164
 20
-34.6002450229
 30
0.0
 10
-1.3085533585
 20
-34.6155510906
 30
0.0
 10
-1.3777704427
 20
-34.621434768
 30
0.0
 10
-1.4310705774
 20
-34.6137080036
 30
0.0
 10
-1.4657697831
 20
-34.6036913973
 30
0.0
  0
SPLINE
  5
2EB
100
AcDbEntity
  8
0
100
AcDbSpline
 62
7
  6
CONTINUOUS
 70
0
 71
3
 72
10
 73
6
 74
0
 42
0.0000001
 43
0.0000001
 44
0.0000000001
 40
0.0
 40
0.0
 40
0.0
 40
0.0
 40
0.4761230058
 40
0.7331694794
 40
1.0
 40
1.0
 40
1.0
 40
1.0
 10
-1.1033422383
 20
-34.7176216855
 30
0.0
 10
-1.0730163429
 20
-34.6913586866
 30
0.0
 10
-1.0387423226
 20
-34.6358902959
 30
0.0
 10
-1.0189061833
 20
-34.5537912581
 30
0.0
 10
-1.0169820116
 20
-34.5094325177
 30
0.0
 10
-1.0169820116
 20
-34.4869497892
 30
0.0
  0
SPLINE
  5
2EC
100
AcDbEntity
  8
0
100
AcDbSpline
 62
7
  6
CONTINUOUS
 70
0
 71
3
 72
10
 73
6
 74
0
 42
0.0000001
 43
0.0000001
 44
0.0000000001
 40
0.0
 40
0.0
 40
0.0
 40
0.0
 40
0.4761230053
 40
0.733169479
 40
1.0
 40
1.0
 40
1.0
 40
1.0
 10
-1.1183422425
 20
-34.7306120702
 30
0.0
 10
-1.0880163458
 20
-34.7043490715
 30
0.0
 10
-1.0537423237
 20
-34.6488806802
 30
0.0
 10
-1.0339061834
 20
-34.5667816407
 30
0.0
 10
-1.0319820116
 20
-34.5224228992
 30
0.0
 10
-1.0319820116
 20
-34.4999401702
 30
0.0
  0
SPLINE
  5
2ED
100
AcDbEntity
  8
0
100
AcDbSpline
 62
7
  6
CONTINUOUS
 70
0
 71
3
 72
9
 73
5
 74
0
 42
0.0000001
 43
0.0000001
 44
0.0000000001
 40
0.0
 40
0.0
 40
0.0
 40
0.0
 40
0.5187110643
 40
1.0
 40
1.0
 40
1.0
 40
1.0
 10
38.2730931799
 20
19.0578737687
 30
0.0
 10
38.2730931799
 20
19.126567672
 30
0.0
 10
38.2921837615
 20
19.2603108328
 30
0.0
 10
38.3582734659
 20
19.3794429591
 30
0.0
 10
38.3999472059
 20
19.4276698649
 30
0.0
  0
SPLINE
  5
2EE
100
AcDbEntity
  8
0
100
AcDbSpline
 62
7
  6
CONTINUOUS
 70
0
 71
3
 72
9
 73
5
 74
0
 42
0.0000001
 43
0.0000001
 44
0.0000000001
 40
0.0
 40
0.0
 40
0.0
 40
0.0
 40
0.5156017946
 40
1.0
 40
1.0
 40
1.0
 40
1.0
 10
37.3510260323
 20
18.9343401949
 30
0.0
 10
37.3510260323
 20
19.0306938023
 30
0.0
 10
37.3718129896
 20
19.2184876457
 30
0.0
 10
37.4413375908
 20
19.3949976811
 30
0.0
 10
37.4867697308
 20
19.473293444
 30
0.0
  0
SPLINE
  5
2EF
100
AcDbEntity
  8
0
100
AcDbSpline
 62
7
  6
CONTINUOUS
 70
0
 71
3
 72
14
 73
10
 74
0
 42
0.0000001
 43
0.0000001
 44
0.0000000001
 40
0.0
 40
0.0
 40
0.0
 40
0.0
 40
0.2538690958
 40
0.3905820756
 40
0.5270751915
 40
0.6585650917
 40
0.7814740071
 40
0.8945901875
 40
1.0
 40
1.0
 40
1.0
 40
1.0
 10
38.2730931799
 20
19.0578737687
 30
0.0
 10
38.2730931799
 20
18.9108883006
 30
0.0
 10
38.3429650565
 20
18.6828469505
 30
0.0
 10
38.520221825
 20
18.4333237319
 30
0.0
 10
38.6946336154
 20
18.2736977571
 30
0.0
 10
38.8930400585
 20
18.1607297952
 30
0.0
 10
39.1006384142
 20
18.1033866142
 30
0.0
 10
39.3014836767
 20
18.1076834649
 30
0.0
 10
39.4225598021
 20
18.1549382229
 30
0.0
 10
39.4739474818
 20
18.1878624632
 30
0.0
  0
SPLINE
  5
2F0
100
AcDbEntity
  8
0
100
AcDbSpline
 62
7
  6
CONTINUOUS
 70
0
 71
3
 72
14
 73
10
 74
0
 42
0.0000001
 43
0.0000001
 44
0.0000000001
 40
0.0
 40
0.0
 40
0.0
 40
0.0
 40
0.2502932677
 40
0.3850584755
 40
0.5204837256
 40
0.6523049319
 40
0.7770050436
 40
0.8927072853
 40
1.0
 40
1.0
 40
1.0
 40
1.0
 10
37.3510260323
 20
18.9343401949
 30
0.0
 10
37.3510260323
 20
18.6843071789
 30
0.0
 10
37.462292062
 20
18.296524363
 30
0.0
 10
37.74958027
 20
17.8614823397
 30
0.0
 10
38.0351529795
 20
17.5746248038
 30
0.0
 10
38.3648286274
 20
17.3581260392
 30
0.0
 10
38.7165862691
 20
17.2268716148
 30
0.0
 10
39.0663521426
 20
17.1914069727
 30
0.0
 10
39.2891553849
 20
17.2374514151
 30
0.0
 10
39.3885874246
 20
17.2774647763
 30
0.0
  0
SPLINE
  5
2F1
100
AcDbEntity
  8
0
100
AcDbSpline
 62
7
  6
CONTINUOUS
 70
0
 71
3
 72
14
 73
10
 74
0
 42
0.0000001
 43
0.0000001
 44
0.0000000001
 40
0.0
 40
0.0
 40
0.0
 40
0.0
 40
0.2538690958
 40
0.3905820756
 40
0.5270751915
 40
0.6585650917
 40
0.7814740071
 40
0.8945901875
 40
1.0
 40
1.0
 40
1.0
 40
1.0
 10
38.2730931799
 20
-41.1308917943
 30
0.0
 10
38.2730931799
 20
-41.2778772624
 30
0.0
 10
38.3429650565
 20
-41.5059186125
 30
0.0
 10
38.520221825
 20
-41.7554418311
 30
0.0
 10
38.6946336154
 20
-41.915067806
 30
0.0
 10
38.8930400585
 20
-42.0280357678
 30
0.0
 10
39.1006384142
 20
-42.0853789488
 30
0.0
 10
39.3014836767
 20
-42.0810820981
 30
0.0
 10
39.4225598021
 20
-42.0338273401
 30
0.0
 10
39.4739474818
 20
-42.0009030998
 30
0.0
  0
SPLINE
  5
2F2
100
AcDbEntity
  8
0
100
AcDbSpline
 62
7
  6
CONTINUOUS
 70
0
 71
3
 72
14
 73
10
 74
0
 42
0.0000001
 43
0.0000001
 44
0.0000000001
 40
0.0
 40
0.0
 40
0.0
 40
0.0
 40
0.2502932677
 40
0.3850584755
 40
0.5204837256
 40
0.6523049319
 40
0.7770050436
 40
0.8927072853
 40
1.0
 40
1.0
 40
1.0
 40
1.0
 10
37.3510260323
 20
-41.2544253681
 30
0.0
 10
37.3510260323
 20
-41.5044583841
 30
0.0
 10
37.462292062
 20
-41.8922412001
 30
0.0
 10
37.74958027
 20
-42.3272832234
 30
0.0
 10
38.0351529795
 20
-42.6141407592
 30
0.0
 10
38.3648286274
 20
-42.8306395238
 30
0.0
 10
38.7165862691
 20
-42.9618939482
 30
0.0
 10
39.0663521426
 20
-42.9973585903
 30
0.0
 10
39.2891553849
 20
-42.951314148
 30
0.0
 10
39.3885874246
 20
-42.9113007867
 30
0.0
  0
SPLINE
  5
2F3
100
AcDbEntity
  8
0
100
AcDbSpline
 62
7
  6
CONTINUOUS
 70
0
 71
3
 72
9
 73
5
 74
0
 42
0.0000001
 43
0.0000001
 44
0.0000000001
 40
0.0
 40
0.0
 40
0.0
 40
0.0
 40
0.5187110643
 40
1.0
 40
1.0
 40
1.0
 40
1.0
 10
38.2730931799
 20
-41.1308917943
 30
0.0
 10
38.2730931799
 20
-41.062197891
 30
0.0
 10
38.2921837615
 20
-40.9284547302
 30
0.0
 10
38.3582734659
 20
-40.8093226039
 30
0.0
 10
38.3999472059
 20
-40.7610956981
 30
0.0
  0
SPLINE
  5
2F4
100
AcDbEntity
  8
0
100
AcDbSpline
 62
7
  6
CONTINUOUS
 70
0
 71
3
 72
9
 73
5
 74
0
 42
0.0000001
 43
0.0000001
 44
0.0000000001
 40
0.0
 40
0.0
 40
0.0
 40
0.0
 40
0.5156017946
 40
1.0
 40
1.0
 40
1.0
 40
1.0
 10
37.3510260323
 20
-41.2544253681
 30
0.0
 10
37.3510260323
 20
-41.1580717607
 30
0.0
 10
37.3718129896
 20
-40.9702779173
 30
0.0
 10
37.4413375908
 20
-40.7937678819
 30
0.0
 10
37.4867697308
 20
-40.7154721191
 30
0.0
  0
SPLINE
  5
2F5
100
AcDbEntity
  8
RACCORDO
100
AcDbSpline
 62
250
  6
CONTINUOUS
 70
0
 71
3
 72
11
 73
7
 74
0
 42
0.0000001
 43
0.0000001
 44
0.0000000001
 40
0.0
 40
0.0
 40
0.0
 40
0.0
 40
0.3270144641
 40
0.6004641717
 40
0.8193110823
 40
1.0
 40
1.0
 40
1.0
 40
1.0
 10
-44.0473492215
 20
-26.0417147988
 30
0.0
 10
-44.0473492215
 20
-26.107786195
 30
0.0
 10
-44.039615471
 20
-26.2294734865
 30
0.0
 10
-43.9987328082
 20
-26.3910519512
 30
0.0
 10
-43.9304937111
 20
-26.5118035156
 30
0.0
 10
-43.859773711
 20
-26.5593438416
 30
0.0
 10
-43.8246992581
 20
-26.5694708067
 30
0.0
  0
SPLINE
  5
2F6
100
AcDbEntity
  8
RACCORDO
100
AcDbSpline
 62
250
  6
CONTINUOUS
 70
0
 71
3
 72
11
 73
7
 74
0
 42
0.0000001
 43
0.0000001
 44
0.0000000001
 40
0.0
 40
0.0
 40
0.0
 40
0.0
 40
0.3270144641
 40
0.6004641717
 40
0.8193110823
 40
1.0
 40
1.0
 40
1.0
 40
1.0
 10
42.5551911569
 20
-51.0417147988
 30
0.0
 10
42.5551911569
 20
-51.107786195
 30
0.0
 10
42.5629249075
 20
-51.2294734865
 30
0.0
 10
42.6038075702
 20
-51.3910519512
 30
0.0
 10
42.6720466674
 20
-51.5118035156
 30
0.0
 10
42.7427666674
 20
-51.5593438416
 30
0.0
 10
42.7778411203
 20
-51.5694708067
 30
0.0
  0
SPLINE
  5
2F7
100
AcDbEntity
  8
RACCORDO
100
AcDbSpline
 62
250
  6
CONTINUOUS
 70
0
 71
3
 72
11
 73
7
 74
0
 42
0.0000001
 43
0.0000001
 44
0.0000000001
 40
0.0
 40
0.0
 40
0.0
 40
0.0
 40
0.2637510302
 40
0.537916264
 40
0.7915793986
 40
1.0
 40
1.0
 40
1.0
 40
1.0
 10
46.0192927721
 20
-48.5776131836
 30
0.0
 10
46.1393111334
 20
-48.6122595002
 30
0.0
 10
46.393106134
 20
-48.6527799589
 30
0.0
 10
46.770092525
 20
-48.6409580524
 30
0.0
 10
47.1117062365
 20
-48.5622921524
 30
0.0
 10
47.3106980114
 20
-48.4592234398
 30
0.0
 10
47.3853181759
 20
-48.3946004817
 30
0.0
  0
SPLINE
  5
2F8
100
AcDbEntity
  8
RACCORDO
100
AcDbSpline
 62
250
  6
CONTINUOUS
 70
0
 71
3
 72
11
 73
7
 74
0
 42
0.0000001
 43
0.0000001
 44
0.0000000001
 40
0.0
 40
0.0
 40
0.0
 40
0.0
 40
0.2637510302
 40
0.537916264
 40
0.7915793986
 40
1.0
 40
1.0
 40
1.0
 40
1.0
 10
46.0192927721
 20
20.2714064172
 30
0.0
 10
46.1393111334
 20
20.2367601006
 30
0.0
 10
46.393106134
 20
20.1962396419
 30
0.0
 10
46.770092525
 20
20.2080615485
 30
0.0
 10
47.1117062365
 20
20.2867274485
 30
0.0
 10
47.3106980114
 20
20.3897961611
 30
0.0
 10
47.3853181759
 20
20.4544191191
 30
0.0
  0
SPLINE
  5
2F9
100
AcDbEntity
  8
RACCORDO
100
AcDbSpline
 62
250
  6
CONTINUOUS
 70
0
 71
3
 72
12
 73
8
 74
0
 42
0.0000001
 43
0.0000001
 44
0.0000000001
 40
0.0
 40
0.0
 40
0.0
 40
0.0
 40
0.2572975322
 40
0.5313271098
 40
0.7884497163
 40
0.9013233012
 40
1.0
 40
1.0
 40
1.0
 40
1.0
 10
42.5551911569
 20
24.7355080324
 30
0.0
 10
42.5551911569
 20
24.8576268859
 30
0.0
 10
42.5845815893
 20
25.1100239014
 30
0.0
 10
42.6889156917
 20
25.470682002
 30
0.0
 10
42.8219027073
 20
25.7483803543
 30
0.0
 10
42.950577277
 20
25.9303703864
 30
0.0
 10
43.0197879434
 20
26.0038860557
 30
0.0
 10
43.0551911569
 20
26.0345461381
 30
0.0
  0
SPLINE
  5
2FA
100
AcDbEntity
  8
RACCORDO
100
AcDbSpline
 62
250
  6
CONTINUOUS
 70
0
 71
3
 72
12
 73
8
 74
0
 42
0.0000001
 43
0.0000001
 44
0.0000000001
 40
0.0
 40
0.0
 40
0.0
 40
0.0
 40
0.2572975322
 40
0.5313271098
 40
0.7884497163
 40
0.9013233012
 40
1.0
 40
1.0
 40
1.0
 40
1.0
 10
-44.0473492215
 20
49.7355080324
 30
0.0
 10
-44.0473492215
 20
49.8576268859
 30
0.0
 10
-44.0179587891
 20
50.1100239014
 30
0.0
 10
-43.9136246868
 20
50.470682002
 30
0.0
 10
-43.7806376711
 20
50.7483803543
 30
0.0
 10
-43.6519631015
 20
50.9303703864
 30
0.0
 10
-43.5827524351
 20
51.0038860557
 30
0.0
 10
-43.5473492215
 20
51.0345461381
 30
0.0
  0
SPLINE
  5
2FB
100
AcDbEntity
  8
RACCORDO
100
AcDbSpline
 62
250
  6
CONTINUOUS
 70
0
 71
3
 72
11
 73
7
 74
0
 42
0.0000001
 43
0.0000001
 44
0.0000000001
 40
0.0
 40
0.0
 40
0.0
 40
0.0
 40
0.3160296762
 40
0.5862567789
 40
0.8093516779
 40
1.0
 40
1.0
 40
1.0
 40
1.0
 10
-47.5114508366
 20
47.2714064172
 30
0.0
 10
-47.5824926515
 20
47.2919144227
 30
0.0
 10
-47.7119262341
 20
47.3398099947
 30
0.0
 10
-47.8740839724
 20
47.440681206
 30
0.0
 10
-47.9831593689
 20
47.5622636237
 30
0.0
 10
-48.0114515011
 20
47.6598124062
 30
0.0
 10
-48.011450111
 20
47.7044191191
 30
0.0
  0
SPLINE
  5
2FC
100
AcDbEntity
  8
RACCORDO
100
AcDbSpline
 62
250
  6
CONTINUOUS
 70
0
 71
3
 72
11
 73
7
 74
0
 42
0.0000001
 43
0.0000001
 44
0.0000000001
 40
0.0
 40
0.0
 40
0.0
 40
0.0
 40
0.3160296762
 40
0.5862567789
 40
0.8093516779
 40
1.0
 40
1.0
 40
1.0
 40
1.0
 10
-47.5114508366
 20
-21.5776131836
 30
0.0
 10
-47.5824926515
 20
-21.5571051782
 30
0.0
 10
-47.7119262341
 20
-21.5092096062
 30
0.0
 10
-47.8740839724
 20
-21.4083383949
 30
0.0
 10
-47.9831593689
 20
-21.2867559772
 30
0.0
 10
-48.0114515011
 20
-21.1892071947
 30
0.0
 10
-48.011450111
 20
-21.1446004817
 30
0.0
  0
SPLINE
  5
2FD
100
AcDbEntity
  8
0
100
AcDbSpline
 62
7
  6
CONTINUOUS
 70
0
 71
3
 72
10
 73
6
 74
0
 42
0.0000001
 43
0.0000001
 44
0.0000000001
 40
0.0
 40
0.0
 40
0.0
 40
0.0
 40
0.2380212131
 40
0.4816812978
 40
1.0
 40
1.0
 40
1.0
 40
1.0
 10
37.2430840533
 20
-40.8635932333
 30
0.0
 10
37.1924138227
 20
-40.9074725506
 30
0.0
 10
37.100232263
 20
-41.0091010345
 30
0.0
 10
36.9634874642
 20
-41.2574934535
 30
0.0
 10
36.9260260323
 20
-41.4765230963
 30
0.0
 10
36.9260260323
 20
-41.6224861647
 30
0.0
  0
SPLINE
  5
2FE
100
AcDbEntity
  8
0
100
AcDbSpline
 62
7
  6
CONTINUOUS
 70
0
 71
3
 72
9
 73
5
 74
0
 42
0.0000001
 43
0.0000001
 44
0.0000000001
 40
0.0
 40
0.0
 40
0.0
 40
0.0
 40
0.4843982054
 40
1.0
 40
1.0
 40
1.0
 40
1.0
 10
-40.4555166098
 20
-18.2154721191
 30
0.0
 10
-40.5009487498
 20
-18.2937678819
 30
0.0
 10
-40.570473351
 20
-18.4702779173
 30
0.0
 10
-40.5912603083
 20
-18.6580717607
 30
0.0
 10
-40.5912603083
 20
-18.7544253681
 30
0.0
  0
SPLINE
  5
2FF
100
AcDbEntity
  8
0
100
AcDbSpline
 62
7
  6
CONTINUOUS
 70
0
 71
3
 72
9
 73
5
 74
0
 42
0.0000001
 43
0.0000001
 44
0.0000000001
 40
0.0
 40
0.0
 40
0.0
 40
0.0
 40
0.4812889357
 40
1.0
 40
1.0
 40
1.0
 40
1.0
 10
-39.5423391347
 20
-18.2610956981
 30
0.0
 10
-39.5840128747
 20
-18.3093226039
 30
0.0
 10
-39.6501025791
 20
-18.4284547302
 30
0.0
 10
-39.6691931607
 20
-18.562197891
 30
0.0
 10
-39.6691931607
 20
-18.6308917943
 30
0.0
  0
SPLINE
  5
300
100
AcDbEntity
  8
0
100
AcDbSpline
 62
7
  6
CONTINUOUS
 70
0
 71
3
 72
14
 73
10
 74
0
 42
0.0000001
 43
0.0000001
 44
0.0000000001
 40
0.0
 40
0.0
 40
0.0
 40
0.0
 40
0.1072927147
 40
0.2229949564
 40
0.3476950681
 40
0.4795162744
 40
0.6149415245
 40
0.7497067323
 40
1.0
 40
1.0
 40
1.0
 40
1.0
 10
-38.553698916
 20
-20.4113007867
 30
0.0
 10
-38.6531309557
 20
-20.451314148
 30
0.0
 10
-38.875934198
 20
-20.4973585903
 30
0.0
 10
-39.2257000715
 20
-20.4618939482
 30
0.0
 10
-39.5774577132
 20
-20.3306395238
 30
0.0
 10
-39.9071333611
 20
-20.1141407592
 30
0.0
 10
-40.1927060706
 20
-19.8272832234
 30
0.0
 10
-40.4799942786
 20
-19.3922412001
 30
0.0
 10
-40.5912603083
 20
-19.0044583841
 30
0.0
 10
-40.5912603083
 20
-18.7544253681
 30
0.0
  0
SPLINE
  5
301
100
AcDbEntity
  8
0
100
AcDbSpline
 62
7
  6
CONTINUOUS
 70
0
 71
3
 72
14
 73
10
 74
0
 42
0.0000001
 43
0.0000001
 44
0.0000000001
 40
0.0
 40
0.0
 40
0.0
 40
0.0
 40
0.1046896823
 40
0.2159891849
 40
0.3373682511
 40
0.4683568802
 40
0.6054576483
 40
0.7435276281
 40
1.0
 40
1.0
 40
1.0
 40
1.0
 10
-38.7352421179
 20
-20.6313790961
 30
0.0
 10
-38.8217019882
 20
-20.7062514627
 30
0.0
 10
-39.0346701765
 20
-20.8242387975
 30
0.0
 10
-39.4079407373
 20
-20.8691026625
 30
0.0
 10
-39.8028961186
 20
-20.7887569211
 30
0.0
 10
-40.1863139316
 20
-20.5945429435
 30
0.0
 10
-40.5273089224
 20
-20.3037298677
 30
0.0
 10
-40.8767053811
 20
-19.8374196252
 30
0.0
 10
-41.0162603083
 20
-19.4026810316
 30
0.0
 10
-41.0162603083
 20
-19.1224861647
 30
0.0
  0
SPLINE
  5
302
100
AcDbEntity
  8
0
100
AcDbSpline
 62
7
  6
CONTINUOUS
 70
0
 71
3
 72
14
 73
10
 74
0
 42
0.0000001
 43
0.0000001
 44
0.0000000001
 40
0.0
 40
0.0
 40
0.0
 40
0.0
 40
0.1054098125
 40
0.2185259929
 40
0.3414349083
 40
0.4729248085
 40
0.6094179244
 40
0.7461309042
 40
1.0
 40
1.0
 40
1.0
 40
1.0
 10
-38.4683388588
 20
-19.5009030998
 30
0.0
 10
-38.5197265385
 20
-19.5338273401
 30
0.0
 10
-38.6408026639
 20
-19.5810820981
 30
0.0
 10
-38.8416479264
 20
-19.5853789488
 30
0.0
 10
-39.0492462821
 20
-19.5280357678
 30
0.0
 10
-39.2476527252
 20
-19.415067806
 30
0.0
 10
-39.4220645156
 20
-19.2554418311
 30
0.0
 10
-39.5993212841
 20
-19.0059186125
 30
0.0
 10
-39.6691931607
 20
-18.7778772624
 30
0.0
 10
-39.6691931607
 20
-18.6308917943
 30
0.0
  0
SPLINE
  5
303
100
AcDbEntity
  8
0
100
AcDbSpline
 62
7
  6
CONTINUOUS
 70
0
 71
3
 72
14
 73
10
 74
0
 42
0.0000001
 43
0.0000001
 44
0.0000000001
 40
0.0
 40
0.0
 40
0.0
 40
0.0
 40
0.1046896823
 40
0.2159891849
 40
0.3373682511
 40
0.4683568802
 40
0.6054576483
 40
0.7435276281
 40
1.0
 40
1.0
 40
1.0
 40
1.0
 10
39.2070442227
 20
17.057386467
 30
0.0
 10
39.1205843524
 20
16.9825141003
 30
0.0
 10
38.9076161641
 20
16.8645267655
 30
0.0
 10
38.5343456033
 20
16.8196629005
 30
0.0
 10
38.139390222
 20
16.9000086419
 30
0.0
 10
37.755972409
 20
17.0942226195
 30
0.0
 10
37.4149774182
 20
17.3850356953
 30
0.0
 10
37.0655809595
 20
17.8513459378
 30
0.0
 10
36.9260260323
 20
18.2860845314
 30
0.0
 10
36.9260260323
 20
18.5662793983
 30
0.0
  0
SPLINE
  5
304
100
AcDbEntity
  8
0
100
AcDbSpline
 62
7
  6
CONTINUOUS
 70
0
 71
3
 72
14
 73
10
 74
0
 42
0.0000001
 43
0.0000001
 44
0.0000000001
 40
0.0
 40
0.0
 40
0.0
 40
0.0
 40
0.1072927147
 40
0.2229949564
 40
0.3476950681
 40
0.4795162744
 40
0.6149415245
 40
0.7497067323
 40
1.0
 40
1.0
 40
1.0
 40
1.0
 10
-38.553698916
 20
39.7774647763
 30
0.0
 10
-38.6531309557
 20
39.7374514151
 30
0.0
 10
-38.875934198
 20
39.6914069727
 30
0.0
 10
-39.2257000715
 20
39.7268716148
 30
0.0
 10
-39.5774577132
 20
39.8581260392
 30
0.0
 10
-39.9071333611
 20
40.0746248038
 30
0.0
 10
-40.1927060706
 20
40.3614823397
 30
0.0
 10
-40.4799942786
 20
40.796524363
 30
0.0
 10
-40.5912603083
 20
41.1843071789
 30
0.0
 10
-40.5912603083
 20
41.4343401949
 30
0.0
  0
SPLINE
  5
305
100
AcDbEntity
  8
0
100
AcDbSpline
 62
7
  6
CONTINUOUS
 70
0
 71
3
 72
14
 73
10
 74
0
 42
0.0000001
 43
0.0000001
 44
0.0000000001
 40
0.0
 40
0.0
 40
0.0
 40
0.0
 40
0.1054098125
 40
0.2185259929
 40
0.3414349083
 40
0.4729248085
 40
0.6094179244
 40
0.7461309042
 40
1.0
 40
1.0
 40
1.0
 40
1.0
 10
-38.4683388588
 20
40.6878624632
 30
0.0
 10
-38.5197265385
 20
40.6549382229
 30
0.0
 10
-38.6408026639
 20
40.6076834649
 30
0.0
 10
-38.8416479264
 20
40.6033866142
 30
0.0
 10
-39.0492462821
 20
40.6607297952
 30
0.0
 10
-39.2476527252
 20
40.7736977571
 30
0.0
 10
-39.4220645156
 20
40.9333237319
 30
0.0
 10
-39.5993212841
 20
41.1828469505
 30
0.0
 10
-39.6691931607
 20
41.4108883006
 30
0.0
 10
-39.6691931607
 20
41.5578737687
 30
0.0
  0
SPLINE
  5
306
100
AcDbEntity
  8
0
100
AcDbSpline
 62
7
  6
CONTINUOUS
 70
0
 71
3
 72
10
 73
6
 74
0
 42
0.0000001
 43
0.0000001
 44
0.0000000001
 40
0.0
 40
0.0
 40
0.0
 40
0.0
 40
0.2380212131
 40
0.4816812978
 40
1.0
 40
1.0
 40
1.0
 40
1.0
 10
-40.6992022873
 20
41.8251723297
 30
0.0
 10
-40.7498725179
 20
41.7812930124
 30
0.0
 10
-40.8420540776
 20
41.6796645285
 30
0.0
 10
-40.9787988764
 20
41.4312721095
 30
0.0
 10
-41.0162603083
 20
41.2122424667
 30
0.0
 10
-41.0162603083
 20
41.0662793983
 30
0.0
  0
SPLINE
  5
307
100
AcDbEntity
  8
0
100
AcDbSpline
 62
7
  6
CONTINUOUS
 70
0
 71
3
 72
9
 73
5
 74
0
 42
0.0000001
 43
0.0000001
 44
0.0000000001
 40
0.0
 40
0.0
 40
0.0
 40
0.0
 40
0.4843982054
 40
1.0
 40
1.0
 40
1.0
 40
1.0
 10
-40.4555166098
 20
41.973293444
 30
0.0
 10
-40.5009487498
 20
41.8949976811
 30
0.0
 10
-40.570473351
 20
41.7184876457
 30
0.0
 10
-40.5912603083
 20
41.5306938023
 30
0.0
 10
-40.5912603083
 20
41.4343401949
 30
0.0
  0
SPLINE
  5
308
100
AcDbEntity
  8
0
100
AcDbSpline
 62
7
  6
CONTINUOUS
 70
0
 71
3
 72
9
 73
5
 74
0
 42
0.0000001
 43
0.0000001
 44
0.0000000001
 40
0.0
 40
0.0
 40
0.0
 40
0.0
 40
0.4812889357
 40
1.0
 40
1.0
 40
1.0
 40
1.0
 10
-39.5423391347
 20
41.9276698649
 30
0.0
 10
-39.5840128747
 20
41.8794429591
 30
0.0
 10
-39.6501025791
 20
41.7603108328
 30
0.0
 10
-39.6691931607
 20
41.626567672
 30
0.0
 10
-39.6691931607
 20
41.5578737687
 30
0.0
  0
SPLINE
  5
309
100
AcDbEntity
  8
RACCORDO
100
AcDbSpline
 62
250
  6
CONTINUOUS
 70
0
 71
3
 72
11
 73
7
 74
0
 42
0.0000001
 43
0.0000001
 44
0.0000000001
 40
0.0
 40
0.0
 40
0.0
 40
0.0
 40
0.2374168983
 40
0.480456536
 40
0.7336967363
 40
1.0
 40
1.0
 40
1.0
 40
1.0
 10
46.3284590183
 20
-50.9242446435
 30
0.0
 10
46.4973573495
 20
-50.7779772217
 30
0.0
 10
46.8046358246
 20
-50.4394558273
 30
0.0
 10
47.1398885106
 20
-49.8293229234
 30
0.0
 10
47.3427804693
 20
-49.1356486136
 30
0.0
 10
47.3853181759
 20
-48.6452146685
 30
0.0
 10
47.3853181759
 20
-48.3946004817
 30
0.0
  0
SPLINE
  5
30A
100
AcDbEntity
  8
0
100
AcDbSpline
 62
7
  6
CONTINUOUS
 70
0
 71
3
 72
14
 73
10
 74
0
 42
0.0000001
 43
0.0000001
 44
0.0000000001
 40
0.0
 40
0.0
 40
0.0
 40
0.0
 40
0.2564723719
 40
0.3945423517
 40
0.5316431198
 40
0.6626317489
 40
0.7840108151
 40
0.8953103177
 40
1.0
 40
1.0
 40
1.0
 40
1.0
 10
-41.0162603083
 20
41.0662793983
 30
0.0
 10
-41.0162603083
 20
40.7860845314
 30
0.0
 10
-40.8767053811
 20
40.3513459378
 30
0.0
 10
-40.5273089224
 20
39.8850356953
 30
0.0
 10
-40.1863139316
 20
39.5942226195
 30
0.0
 10
-39.8028961186
 20
39.4000086419
 30
0.0
 10
-39.4079407373
 20
39.3196629005
 30
0.0
 10
-39.0346701765
 20
39.3645267655
 30
0.0
 10
-38.8217019882
 20
39.4825141003
 30
0.0
 10
-38.7352421179
 20
39.557386467
 30
0.0
  0
SPLINE
  5
30B
100
AcDbEntity
  8
0
100
AcDbSpline
 62
7
  6
CONTINUOUS
 70
0
 71
3
 72
10
 73
6
 74
0
 42
0.0000001
 43
0.0000001
 44
0.0000000001
 40
0.0
 40
0.0
 40
0.0
 40
0.0
 40
0.5183187022
 40
0.7619787869
 40
1.0
 40
1.0
 40
1.0
 40
1.0
 10
36.9260260323
 20
18.5662793983
 30
0.0
 10
36.9260260323
 20
18.7122424667
 30
0.0
 10
36.9634874642
 20
18.9312721095
 30
0.0
 10
37.100232263
 20
19.1796645285
 30
0.0
 10
37.1924138227
 20
19.2812930124
 30
0.0
 10
37.2430840533
 20
19.3251723297
 30
0.0
  0
SPLINE
  5
30C
100
AcDbEntity
  8
0
100
AcDbSpline
 62
7
  6
CONTINUOUS
 70
0
 71
3
 72
10
 73
6
 74
0
 42
0.0000001
 43
0.0000001
 44
0.0000000001
 40
0.0
 40
0.0
 40
0.0
 40
0.0
 40
0.5183187022
 40
0.7619787869
 40
1.0
 40
1.0
 40
1.0
 40
1.0
 10
-41.0162603083
 20
-19.1224861647
 30
0.0
 10
-41.0162603083
 20
-18.9765230963
 30
0.0
 10
-40.9787988764
 20
-18.7574934535
 30
0.0
 10
-40.8420540776
 20
-18.5091010345
 30
0.0
 10
-40.7498725179
 20
-18.4074725506
 30
0.0
 10
-40.6992022873
 20
-18.3635932333
 30
0.0
  0
SPLINE
  5
30D
100
AcDbEntity
  8
0
100
AcDbSpline
 62
7
  6
CONTINUOUS
 70
0
 71
3
 72
14
 73
10
 74
0
 42
0.0000001
 43
0.0000001
 44
0.0000000001
 40
0.0
 40
0.0
 40
0.0
 40
0.0
 40
0.2564723719
 40
0.3945423517
 40
0.5316431198
 40
0.6626317489
 40
0.7840108151
 40
0.8953103177
 40
1.0
 40
1.0
 40
1.0
 40
1.0
 10
36.9260260323
 20
-41.6224861647
 30
0.0
 10
36.9260260323
 20
-41.9026810316
 30
0.0
 10
37.0655809595
 20
-42.3374196252
 30
0.0
 10
37.4149774182
 20
-42.8037298677
 30
0.0
 10
37.755972409
 20
-43.0945429435
 30
0.0
 10
38.139390222
 20
-43.2887569211
 30
0.0
 10
38.5343456033
 20
-43.3691026625
 30
0.0
 10
38.9076161641
 20
-43.3242387975
 30
0.0
 10
39.1205843524
 20
-43.2062514627
 30
0.0
 10
39.2070442227
 20
-43.1313790961
 30
0.0
  0
SPLINE
  5
30E
100
AcDbEntity
  8
RACCORDO
100
AcDbSpline
 62
250
  6
CONTINUOUS
 70
0
 71
3
 72
13
 73
9
 74
0
 42
0.0000001
 43
0.0000001
 44
0.0000000001
 40
0.0
 40
0.0
 40
0.0
 40
0.0
 40
0.237648329
 40
0.36457768
 40
0.4944049621
 40
0.6250313056
 40
0.7542742217
 40
1.0
 40
1.0
 40
1.0
 40
1.0
 10
-47.5114508366
 20
-21.5776131836
 30
0.0
 10
-47.5114508366
 20
-22.0530666851
 30
0.0
 10
-47.3607815101
 20
-22.7870037729
 30
0.0
 10
-46.9417849613
 20
-23.6849364418
 30
0.0
 10
-46.5110273812
 20
-24.3330707373
 30
0.0
 10
-45.9869070791
 20
-24.9143941572
 30
0.0
 10
-45.205688009
 20
-25.5598843272
 30
0.0
 10
-44.5196764163
 20
-25.9053656822
 30
0.0
 10
-44.0473492215
 20
-26.0417147988
 30
0.0
  0
SPLINE
  5
30F
100
AcDbEntity
  8
RACCORDO
100
AcDbSpline
 62
250
  6
CONTINUOUS
 70
0
 71
3
 72
15
 73
11
 74
0
 42
0.0000001
 43
0.0000001
 44
0.0000000001
 40
0.0
 40
0.0
 40
0.0
 40
0.0
 40
0.1369985644
 40
0.26642665
 40
0.3892465749
 40
0.5076598327
 40
0.6248108593
 40
0.7441339126
 40
0.8685701983
 40
1.0
 40
1.0
 40
1.0
 40
1.0
 10
-44.0473492215
 20
49.7355080324
 30
0.0
 10
-44.2676618803
 20
49.7991068188
 30
0.0
 10
-44.7083936167
 20
49.8854244244
 30
0.0
 10
-45.3647022138
 20
49.8798024317
 30
0.0
 10
-45.9738185665
 20
49.7337705273
 30
0.0
 10
-46.5102662222
 20
49.450655655
 30
0.0
 10
-46.9501602868
 20
49.041190452
 30
0.0
 10
-47.2742459041
 20
48.5236074072
 30
0.0
 10
-47.4705289798
 20
47.9213125172
 30
0.0
 10
-47.5114508366
 20
47.4913940878
 30
0.0
 10
-47.5114508366
 20
47.2714064172
 30
0.0
  0
SPLINE
  5
310
100
AcDbEntity
  8
RACCORDO
100
AcDbSpline
 62
250
  6
CONTINUOUS
 70
0
 71
3
 72
13
 73
9
 74
0
 42
0.0000001
 43
0.0000001
 44
0.0000000001
 40
0.0
 40
0.0
 40
0.0
 40
0.0
 40
0.237648329
 40
0.36457768
 40
0.4944049621
 40
0.6250313056
 40
0.7542742217
 40
1.0
 40
1.0
 40
1.0
 40
1.0
 10
46.0192927721
 20
20.2714064172
 30
0.0
 10
46.0192927721
 20
20.7468599187
 30
0.0
 10
45.8686234455
 20
21.4807970065
 30
0.0
 10
45.4496268968
 20
22.3787296754
 30
0.0
 10
45.0188693166
 20
23.0268639709
 30
0.0
 10
44.4947490145
 20
23.6081873909
 30
0.0
 10
43.7135299444
 20
24.2536775608
 30
0.0
 10
43.0275183518
 20
24.5991589158
 30
0.0
 10
42.5551911569
 20
24.7355080324
 30
0.0
  0
SPLINE
  5
311
100
AcDbEntity
  8
RACCORDO
100
AcDbSpline
 62
250
  6
CONTINUOUS
 70
0
 71
3
 72
15
 73
11
 74
0
 42
0.0000001
 43
0.0000001
 44
0.0000000001
 40
0.0
 40
0.0
 40
0.0
 40
0.0
 40
0.1369985644
 40
0.26642665
 40
0.3892465749
 40
0.5076598327
 40
0.6248108593
 40
0.7441339126
 40
0.8685701983
 40
1.0
 40
1.0
 40
1.0
 40
1.0
 10
42.5551911569
 20
-51.0417147988
 30
0.0
 10
42.7755038157
 20
-51.1053135852
 30
0.0
 10
43.2162355521
 20
-51.1916311908
 30
0.0
 10
43.8725441492
 20
-51.1860091981
 30
0.0
 10
44.4816605019
 20
-51.0399772937
 30
0.0
 10
45.0181081577
 20
-50.7568624214
 30
0.0
 10
45.4580022222
 20
-50.3473972184
 30
0.0
 10
45.7820878395
 20
-49.8298141736
 30
0.0
 10
45.9783709153
 20
-49.2275192836
 30
0.0
 10
46.0192927721
 20
-48.7976008542
 30
0.0
 10
46.0192927721
 20
-48.5776131836
 30
0.0
  0
SPLINE
  5
312
100
AcDbEntity
  8
0
100
AcDbSpline
 62
7
  6
CONTINUOUS
 70
0
 71
3
 72
14
 73
10
 74
0
 42
0.0000001
 43
0.0000001
 44
0.0000000001
 40
0.0
 40
0.0
 40
0.0
 40
0.0
 40
0.1162641141
 40
0.2395878654
 40
0.3672046412
 40
0.4971441055
 40
0.6277333579
 40
0.7557776082
 40
1.0
 40
1.0
 40
1.0
 40
1.0
 10
-1.0169820116
 20
-34.4869497892
 30
0.0
 10
-1.0169820116
 20
-34.4606840804
 30
0.0
 10
-1.0201387365
 20
-34.40637555
 30
0.0
 10
-1.0406351689
 20
-34.3255276662
 30
0.0
 10
-1.0753143968
 20
-34.2462932424
 30
0.0
 10
-1.1250334245
 20
-34.1735344591
 30
0.0
 10
-1.1859851769
 20
-34.1096608875
 30
0.0
 10
-1.2786290332
 20
-34.043326208
 30
0.0
 10
-1.3561439676
 20
-34.0074400511
 30
0.0
 10
-1.4091527678
 20
-33.9921377795
 30
0.0
  0
SPLINE
  5
313
100
AcDbEntity
  8
0
100
AcDbSpline
 62
7
  6
CONTINUOUS
 70
0
 71
3
 72
10
 73
6
 74
0
 42
0.0000001
 43
0.0000001
 44
0.0000000001
 40
0.0
 40
0.0
 40
0.0
 40
0.0
 40
0.2621551042
 40
0.5141591636
 40
1.0
 40
1.0
 40
1.0
 40
1.0
 10
2.5476447909
 20
-0.632737557
 30
0.0
 10
2.4701812757
 20
-0.5823899697
 30
0.0
 10
2.3060450968
 20
-0.5023143578
 30
0.0
 10
1.9700898366
 20
-0.394556401
 30
0.0
 10
1.7135221931
 20
-0.346493881
 30
0.0
 10
1.5439942707
 20
-0.3224958293
 30
0.0
  0
SPLINE
  5
314
100
AcDbEntity
  8
0
100
AcDbSpline
 62
7
  6
CONTINUOUS
 70
0
 71
3
 72
10
 73
6
 74
0
 42
0.0000001
 43
0.0000001
 44
0.0000000001
 40
0.0
 40
0.0
 40
0.0
 40
0.0
 40
0.2621551042
 40
0.5141591636
 40
1.0
 40
1.0
 40
1.0
 40
1.0
 10
2.5601447909
 20
-0.6219122394
 30
0.0
 10
2.4826812757
 20
-0.5715646522
 30
0.0
 10
2.3185450968
 20
-0.4914890403
 30
0.0
 10
1.9825898366
 20
-0.3837310835
 30
0.0
 10
1.7260221931
 20
-0.3356685635
 30
0.0
 10
1.5564942707
 20
-0.3116705118
 30
0.0
  0
SPLINE
  5
315
100
AcDbEntity
  8
0
100
AcDbSpline
 62
7
  6
CONTINUOUS
 70
0
 71
3
 72
13
 73
9
 74
0
 42
0.0000001
 43
0.0000001
 44
0.0000000001
 40
0.0
 40
0.0
 40
0.0
 40
0.0
 40
0.2526217172
 40
0.385205492
 40
0.5159356366
 40
0.7641989104
 40
0.8836467341
 40
1.0
 40
1.0
 40
1.0
 40
1.0
 10
0.5995773068
 20
-34.5720126937
 30
0.0
 10
0.677931121
 20
-34.5946314916
 30
0.0
 10
0.790944399
 20
-34.6599785295
 30
0.0
 10
0.8979662127
 20
-34.7885949212
 30
0.0
 10
0.9796870244
 20
-34.9333329009
 30
0.0
 10
1.0189898492
 20
-35.0915818408
 30
0.0
 10
1.0400095708
 20
-35.2463575647
 30
0.0
 10
1.0426941187
 20
-35.3225986217
 30
0.0
 10
1.0426941187
 20
-35.3601606547
 30
0.0
  0
SPLINE
  5
316
100
AcDbEntity
  8
0
100
AcDbSpline
 62
7
  6
CONTINUOUS
 70
0
 71
3
 72
11
 73
7
 74
0
 42
0.0000001
 43
0.0000001
 44
0.0000000001
 40
0.0
 40
0.0
 40
0.0
 40
0.0
 40
0.2645517554
 40
0.5200830219
 40
0.765960327
 40
1.0
 40
1.0
 40
1.0
 40
1.0
 10
1.0426941187
 20
-35.3601606547
 30
0.0
 10
1.0426941187
 20
-35.406279779
 30
0.0
 10
1.0386199364
 20
-35.4971853967
 30
0.0
 10
1.0141100878
 20
-35.628552648
 30
0.0
 10
0.9758424257
 20
-35.7521998026
 30
0.0
 10
0.922674485
 20
-35.8200679578
 30
0.0
 10
0.891832602
 20
-35.8467778088
 30
0.0
  0
SPLINE
  5
317
100
AcDbEntity
  8
0
100
AcDbSpline
 62
7
  6
CONTINUOUS
 70
0
 71
3
 72
8
 73
4
 74
0
 42
0.0000001
 43
0.0000001
 44
0.0000000001
 40
0.0
 40
0.0
 40
0.0
 40
0.0
 40
1.0
 40
1.0
 40
1.0
 40
1.0
 10
2.9630285588
 20
-2.6576924842
 30
0.0
 10
2.9154661303
 20
-2.4688411693
 30
0.0
 10
2.8716892918
 20
-2.2790489278
 30
0.0
 10
2.8239975034
 20
-2.0902302395
 30
0.0
  0
SPLINE
  5
318
100
AcDbEntity
  8
0
100
AcDbSpline
 62
7
  6
CONTINUOUS
 70
0
 71
3
 72
10
 73
6
 74
0
 42
0.0000001
 43
0.0000001
 44
0.0000000001
 40
0.0
 40
0.0
 40
0.0
 40
0.0
 40
0.4874074624
 40
0.7420393214
 40
1.0
 40
1.0
 40
1.0
 40
1.0
 10
2.8239975034
 20
-2.0902302395
 30
0.0
 10
2.8033965731
 20
-2.0086641263
 30
0.0
 10
2.7719017643
 20
-1.8834603871
 30
0.0
 10
2.6896414595
 20
-1.7302825537
 30
0.0
 10
2.6262675244
 20
-1.6656503245
 30
0.0
 10
2.5895761832
 20
-1.6404277743
 30
0.0
  0
SPLINE
  5
319
100
AcDbEntity
  8
0
100
AcDbSpline
 62
7
  6
CONTINUOUS
 70
0
 71
3
 72
11
 73
7
 74
0
 42
0.0000001
 43
0.0000001
 44
0.0000000001
 40
0.0
 40
0.0
 40
0.0
 40
0.0
 40
0.2697981956
 40
0.5251725447
 40
0.7658354921
 40
1.0
 40
1.0
 40
1.0
 40
1.0
 10
0.5995773068
 20
-35.7471685519
 30
0.0
 10
0.6134003821
 20
-35.7511589301
 30
0.0
 10
0.6411130007
 20
-35.756306022
 30
0.0
 10
0.6822758594
 20
-35.75621443
 30
0.0
 10
0.7203720093
 20
-35.7459890339
 30
0.0
 10
0.7423678228
 20
-35.7328601141
 30
0.0
 10
0.7523790202
 20
-35.7253963335
 30
0.0
  0
SPLINE
  5
31A
100
AcDbEntity
  8
0
100
AcDbSpline
 62
7
  6
CONTINUOUS
 70
0
 71
3
 72
15
 73
11
 74
0
 42
0.0000001
 43
0.0000001
 44
0.0000000001
 40
0.0
 40
0.0
 40
0.0
 40
0.0
 40
0.1163712739
 40
0.2351963295
 40
0.3563743145
 40
0.4807210253
 40
0.6085564768
 40
0.7414964464
 40
0.8742741289
 40
1.0
 40
1.0
 40
1.0
 40
1.0
 10
0.3293348417
 20
-35.1542315694
 30
0.0
 10
0.3293348417
 20
-35.1812231907
 30
0.0
 10
0.329746537
 20
-35.2358081859
 30
0.0
 10
0.3372637631
 20
-35.3182283067
 30
0.0
 10
0.3510553634
 20
-35.4016474746
 30
0.0
 10
0.3701033498
 20
-35.4862166096
 30
0.0
 10
0.4013025689
 20
-35.5704392025
 30
0.0
 10
0.4507203909
 20
-35.6480455784
 30
0.0
 10
0.5163880197
 20
-35.7123526432
 30
0.0
 10
0.5715599744
 20
-35.7390806447
 30
0.0
 10
0.5995773068
 20
-35.7471685519
 30
0.0
  0
SPLINE
  5
31B
100
AcDbEntity
  8
0
100
AcDbSpline
 62
7
  6
CONTINUOUS
 70
0
 71
3
 72
8
 73
4
 74
0
 42
0.0000001
 43
0.0000001
 44
0.0000000001
 40
0.0
 40
0.0
 40
0.0
 40
0.0
 40
1.0
 40
1.0
 40
1.0
 40
1.0
 10
2.9755285588
 20
-2.6468671667
 30
0.0
 10
2.9279661303
 20
-2.4580158518
 30
0.0
 10
2.8841892918
 20
-2.2682236102
 30
0.0
 10
2.8364975034
 20
-2.0794049219
 30
0.0
  0
SPLINE
  5
31C
100
AcDbEntity
  8
0
100
AcDbSpline
 62
7
  6
CONTINUOUS
 70
0
 71
3
 72
10
 73
6
 74
0
 42
0.0000001
 43
0.0000001
 44
0.0000000001
 40
0.0
 40
0.0
 40
0.0
 40
0.0
 40
0.4870738696
 40
0.7404901645
 40
1.0
 40
1.0
 40
1.0
 40
1.0
 10
2.8364975034
 20
-2.0794049219
 30
0.0
 10
2.8172959843
 20
-2.0033795553
 30
0.0
 10
2.7879339641
 20
-1.8871364265
 30
0.0
 10
2.7163907099
 20
-1.7419122511
 30
0.0
 10
2.6618839178
 20
-1.6780108801
 30
0.0
 10
2.6300085203
 20
-1.6510045259
 30
0.0
  0
SPLINE
  5
31D
100
AcDbEntity
  8
0
100
AcDbSpline
 62
7
  6
CONTINUOUS
 70
0
 71
3
 72
14
 73
10
 74
0
 42
0.0000001
 43
0.0000001
 44
0.0000000001
 40
0.0
 40
0.0
 40
0.0
 40
0.0
 40
0.1162641142
 40
0.2395878655
 40
0.3672046414
 40
0.4971441057
 40
0.6277333581
 40
0.7557776084
 40
1.0
 40
1.0
 40
1.0
 40
1.0
 10
-1.0319820116
 20
-34.4999401702
 30
0.0
 10
-1.0319820116
 20
-34.4736744614
 30
0.0
 10
-1.0351387365
 20
-34.4193659308
 30
0.0
 10
-1.055635169
 20
-34.3385180466
 30
0.0
 10
-1.0903143973
 20
-34.2592836226
 30
0.0
 10
-1.1400334252
 20
-34.1865248392
 30
0.0
 10
-1.2009851781
 20
-34.1226512675
 30
0.0
 10
-1.2936290349
 20
-34.0563165881
 30
0.0
 10
-1.3711439696
 20
-34.0204304313
 30
0.0
 10
-1.4241527701
 20
-34.0051281599
 30
0.0
  0
SPLINE
  5
31E
100
AcDbEntity
  8
0
100
AcDbSpline
 62
7
  6
CONTINUOUS
 70
0
 71
3
 72
13
 73
9
 74
0
 42
0.0000001
 43
0.0000001
 44
0.0000000001
 40
0.0
 40
0.0
 40
0.0
 40
0.0
 40
0.1163532659
 40
0.2358010896
 40
0.4840643634
 40
0.614794508
 40
0.7473782828
 40
1.0
 40
1.0
 40
1.0
 40
1.0
 10
1.0276941187
 20
-35.3731510358
 30
0.0
 10
1.0276941187
 20
-35.3355890027
 30
0.0
 10
1.0250095708
 20
-35.2593479458
 30
0.0
 10
1.0039898492
 20
-35.1045722219
 30
0.0
 10
0.9646870244
 20
-34.9463232819
 30
0.0
 10
0.8829662127
 20
-34.8015853023
 30
0.0
 10
0.775944399
 20
-34.6729689106
 30
0.0
 10
0.662931121
 20
-34.6076218727
 30
0.0
 10
0.5845773068
 20
-34.5850030748
 30
0.0
  0
SPLINE
  5
31F
100
AcDbEntity
  8
0
100
AcDbSpline
 62
7
  6
CONTINUOUS
 70
0
 71
3
 72
11
 73
7
 74
0
 42
0.0000001
 43
0.0000001
 44
0.0000000001
 40
0.0
 40
0.0
 40
0.0
 40
0.0
 40
0.2706354747
 40
0.5265814012
 40
0.7677179375
 40
1.0
 40
1.0
 40
1.0
 40
1.0
 10
0.5845773068
 20
-34.5850030748
 30
0.0
 10
0.5578800316
 20
-34.5772962353
 30
0.0
 10
0.5044218718
 20
-34.5669367788
 30
0.0
 10
0.42496575
 20
-34.5679785936
 30
0.0
 10
0.3517325382
 20
-34.588011267
 30
0.0
 10
0.3103504094
 20
-34.6150872063
 30
0.0
 10
0.2923219031
 20
-34.6307003651
 30
0.0
  0
SPLINE
  5
320
100
AcDbEntity
  8
0
100
AcDbSpline
 62
7
  6
CONTINUOUS
 70
0
 71
3
 72
13
 73
9
 74
0
 42
0.0000001
 43
0.0000001
 44
0.0000000001
 40
0.0
 40
0.0
 40
0.0
 40
0.0
 40
0.2632097378
 40
0.518230373
 40
0.6432023445
 40
0.7660927757
 40
0.8843261368
 40
1.0
 40
1.0
 40
1.0
 40
1.0
 10
0.3143348417
 20
-35.1672219505
 30
0.0
 10
0.3143348417
 20
-35.1294122062
 30
0.0
 10
0.3156332077
 20
-35.0548512872
 30
0.0
 10
0.3293949373
 20
-34.9631990671
 30
0.0
 10
0.3461731384
 20
-34.8929152734
 30
0.0
 10
0.3621667958
 20
-34.8427128393
 30
0.0
 10
0.3857337943
 20
-34.7967381391
 30
0.0
 10
0.4086019485
 20
-34.7715020901
 30
0.0
 10
0.4211627688
 20
-34.7606241005
 30
0.0
  0
SPLINE
  5
321
100
AcDbEntity
  8
0
100
AcDbSpline
 62
7
  6
CONTINUOUS
 70
0
 71
3
 72
15
 73
11
 74
0
 42
0.0000001
 43
0.0000001
 44
0.0000000001
 40
0.0
 40
0.0
 40
0.0
 40
0.0
 40
0.1257258711
 40
0.2585035536
 40
0.3914435232
 40
0.5192789747
 40
0.6436256855
 40
0.7648036705
 40
0.8836287261
 40
1.0
 40
1.0
 40
1.0
 40
1.0
 10
0.5845773068
 20
-35.760158933
 30
0.0
 10
0.5565599744
 20
-35.7520710258
 30
0.0
 10
0.5013880197
 20
-35.7253430243
 30
0.0
 10
0.4357203909
 20
-35.6610359595
 30
0.0
 10
0.3863025689
 20
-35.5834295836
 30
0.0
 10
0.3551033498
 20
-35.4992069907
 30
0.0
 10
0.3360553634
 20
-35.4146378556
 30
0.0
 10
0.3222637631
 20
-35.3312186878
 30
0.0
 10
0.314746537
 20
-35.248798567
 30
0.0
 10
0.3143348417
 20
-35.1942135717
 30
0.0
 10
0.3143348417
 20
-35.1672219505
 30
0.0
  0
ENDSEC
  0
SECTION
  2
OBJECTS
  0
DICTIONARY
  5
C
100
AcDbDictionary
280
0
281
1
  3
ACAD_GROUP
350
D
  3
ACAD_MLINESTYLE
350
17
  3
ACAD_LAYOUT
350
1A
  3
ACAD_PLOTSETTINGS
350
19
  3
ACAD_PLOTSTYLENAME
350
E
  0
DICTIONARY
  5
D
102
{ACAD_REACTORS
330
C
102
}
100
AcDbDictionary
280
0
281
1
  0
ACDBDICTIONARYWDFLT
  5
E
102
{ACAD_REACTORS
330
C
102
}
100
AcDbDictionary
281
1
  3
Normal
350
F
100
AcDbDictionaryWithDefault
340
F
  0
DICTIONARY
  5
17
102
{ACAD_REACTORS
330
C
102
}
100
AcDbDictionary
280
0
281
1
  3
Standard
350
18
  0
DICTIONARY
  5
19
102
{ACAD_REACTORS
330
C
102
}
100
AcDbDictionary
281
1
  0
DICTIONARY
  5
1A
102
{ACAD_REACTORS
330
C
102
}
100
AcDbDictionary
281
1
  3
Model
350
322
  3
Layout1
350
323
  0
ACDBPLACEHOLDER
  5
F
102
{ACAD_REACTORS
330
E
102
}
  0
MLINESTYLE
  5
18
102
{ACAD_REACTORS
330
17
102
}
100
AcDbMlineStyle
  2
STANDARD
 70
0
  3

 62
256
 51
90.0
 52
90.0
 71
2
 49
0.5
 62
256
  6
BYLAYER
 49
-0.5
 62
256
  6
BYLAYER
  0
LAYOUT
  5
322
102
{ACAD_REACTORS
330
1A
102
}
100
AcDbPlotSettings
  1

  2
none_device
  4
ANSI_C_(22.00_x_17.00_Inches)
  6

 40
0.0
 41
0.0
 42
0.0
 43
0.0
 44
558.8
 45
431.8
 46
0.0
 47
0.0
 48
0.0
 49
0.0
140
0.0
141
0.0
142
1.0
143
1.0
 70
1024
 72
1
 73
0
 74
0
  7

 75
0
147
1.0
148
0.0
149
0.0
100
AcDbLayout
  1
Model
 70
0
 71
0
 10
0.0
 20
0.0
 11
558.8
 21
431.8
 12
0.0
 22
0.0
 32
0.0
 14
0.0
 24
0.0
 34
0.0
 15
0.0
 25
0.0
 35
0.0
146
0.0
 13
0.0
 23
0.0
 33
0.0
 16
1.0
 26
0.0
 36
0.0
 17
0.0
 27
1.0
 37
0.0
 76
0
330
20D
345
0
346
0
  0
LAYOUT
  5
323
102
{ACAD_REACTORS
330
1A
102
}
100
AcDbPlotSettings
  1

  2
none_device
  4
ANSI_C_(22.00_x_17.00_Inches)
  6

 40
0.0
 41
0.0
 42
0.0
 43
0.0
 44
558.8
 45
431.8
 46
0.0
 47
0.0
 48
0.0
 49
0.0
140
0.0
141
0.0
142
1.0
143
1.0
 70
0
 72
1
 73
0
 74
0
  7

 75
0
147
1.0
148
0.0
149
0.0
100
AcDbLayout
  1
Layout1
 70
0
 71
1
 10
0.0
 20
0.0
 11
558.8
 21
431.8
 12
0.0
 22
0.0
 32
0.0
 14
0.0
 24
0.0
 34
0.0
 15
0.0
 25
0.0
 35
0.0
146
0.0
 13
0.0
 23
0.0
 33
0.0
 16
1.0
 26
0.0
 36
0.0
 17
0.0
 27
1.0
 37
0.0
 76
0
330
20E
345
0
346
0
  0
ENDSEC
  0
EOF
