  0
SECTION
  2
HEADER
  9
$ACADVER
  1
AC1024
  9
$DWGCODEPAGE
  3
ANSI_1252
  9
$EXTMAX
 10
558.8
 20
431.8
 30
0.0
  9
$EXTMIN
 10
0.0
 20
0.0
 30
0.0
  9
$LIMMIN
 10
0.0
 20
0.0
  9
$LIMMAX
 10
558.8
 20
431.8
  9
$VIEWCTR
 10
279.4
 20
215.9
  9
$VIEWSIZE
 40
431.8
  9
$CLAYER
  8
0
  9
$LTSCALE
 40
30.734
  9
$CELTYPE
  6
BYLAYER
  9
$DIMSCALE
 40
1.0
  9
$DIMASZ
 40
3.0
  9
$DIMEXO
 40
0.5
  9
$DIMDLI
 40
21.2344
  9
$DIMEXE
 40
1.5
  9
$DIMCEN
 40
5.0292
  9
$DIMLFAC
 40
1.0
  9
$DIMBLK
  1
_FILLED
  9
$DIMALT
 70
0
  9
$DIMALTF
 40
0.0393700787
  9
$DIMTXT
 40
3.0
  9
$DIMTOL
 70
1
  9
$DIMLIM
 70
0
  9
$DIMTFAC
 40
1.0
  9
$DIMTP
 40
0.01
  9
$DIMTM
 40
0.01
  9
$DIMGAP
 40
0.625
  9
$DIMDSEP
 70
44
  9
$AUNITS
 70
0
  9
$PDMODE
 70
3
  9
$PDSIZE
 40
3.0
  9
$HANDSEED
  5
33B
  9
$TILEMODE
 70
1
  9
$MEASUREMENT
 70
1
  9
$INSUNITS
 70
4
  0
ENDSEC
  0
SECTION
  2
CLASSES
  0
CLASS
  1
ACDBDICTIONARYWDFLT
  2
AcDbDictionaryWithDefault
  3
AutoCAD 2000
 90
0
 91
1
280
0
281
0
  0
CLASS
  1
ACDBPLACEHOLDER
  2
AcDbPlaceHolder
  3
AutoCAD 2000
 90
0
 91
1
280
0
281
0
  0
CLASS
  1
LAYOUT
  2
AcDbLayout
  3
AutoCAD 2000
 90
0
 91
0
280
0
281
0
  0
ENDSEC
  0
SECTION
  2
TABLES
  0
TABLE
  2
VPORT
  5
8
100
AcDbSymbolTable
 70
2
  0
VPORT
  5
1F4
100
AcDbSymbolTableRecord
100
AcDbViewportTableRecord
  2
*ACTIVE
 70
0
 10
0.0
 20
0.0
 11
1.0
 21
1.0
 12
279.4
 22
215.9
 13
0.0
 23
0.0
 14
1.0
 24
1.0
 15
0.0
 25
0.0
 16
0.0
 26
0.0
 36
1.0
 17
0.0
 27
0.0
 37
0.0
 40
431.8
 41
1.2941176471
 42
50.0
 43
0.0
 44
0.0
 50
0.0
 51
0.0
 71
0
 72
100
 73
1
 74
1
 75
0
 76
0
 77
0
 78
0
  0
ENDTAB
  0
TABLE
  2
LTYPE
  5
5
100
AcDbSymbolTable
 70
6
  0
LTYPE
  5
14
100
AcDbSymbolTableRecord
100
AcDbLinetypeTableRecord
  2
BYBLOCK
 70
0
  3

 72
65
 73
0
 40
0.0
  0
LTYPE
  5
15
100
AcDbSymbolTableRecord
100
AcDbLinetypeTableRecord
  2
BYLAYER
 70
0
  3

 72
65
 73
0
 40
0.0
  0
LTYPE
  5
16
100
AcDbSymbolTableRecord
100
AcDbLinetypeTableRecord
  2
CONTINUOUS
 70
64
  3
Solid line
 72
65
 73
0
 40
0.0
  0
LTYPE
  5
1F5
100
AcDbSymbolTableRecord
100
AcDbLinetypeTableRecord
  2
CENTER
 70
64
  3
____ _ ____ _ ____ _ ____ _ ____ _ ____ _ ____
 72
65
 73
4
 40
0.6
 49
0.375
 74
0
 49
-0.075
 74
0
 49
0.075
 74
0
 49
-0.075
 74
0
  0
LTYPE
  5
1F6
100
AcDbSymbolTableRecord
100
AcDbLinetypeTableRecord
  2
HIDDEN
 70
64
  3
- - - - - - - - - - - - - - - - - - - -
 72
65
 73
2
 40
0.2
 49
0.1
 74
0
 49
-0.1
 74
0
  0
LTYPE
  5
1F7
100
AcDbSymbolTableRecord
100
AcDbLinetypeTableRecord
  2
PHANTOM
 70
64
  3
_____ _ _ _____ _ _ _____ _ _ _____
 72
65
 73
6
 40
0.8
 49
0.45
 74
0
 49
-0.05
 74
0
 49
0.1
 74
0
 49
-0.05
 74
0
 49
0.1
 74
0
 49
-0.05
 74
0
  0
LTYPE
  5
1F8
100
AcDbSymbolTableRecord
100
AcDbLinetypeTableRecord
  2
DOT
 70
64
  3
. . . . . . . . . . . . . . . . . . . .
 72
65
 73
2
 40
0.2
 49
0.1
 74
0
 49
-0.1
 74
0
  0
LTYPE
  5
1F9
100
AcDbSymbolTableRecord
100
AcDbLinetypeTableRecord
  2
DASHED
 70
64
  3
- - - - - - - - - - - - - - - - - - - -
 72
65
 73
2
 40
0.2
 49
0.1
 74
0
 49
-0.1
 74
0
  0
ENDTAB
  0
TABLE
  2
LAYER
  5
2
100
AcDbSymbolTable
 70
36
  0
LAYER
  5
10
100
AcDbSymbolTableRecord
100
AcDbLayerTableRecord
  2
0
 70
0
 62
7
  6
CONTINUOUS
370
-3
390
F
  0
LAYER
  5
1FA
100
AcDbSymbolTableRecord
100
AcDbLayerTableRecord
  2
DEFAULT_1
 70
0
 62
7
  6
CENTER
370
-3
390
F
  0
LAYER
  5
1FB
100
AcDbSymbolTableRecord
100
AcDbLayerTableRecord
  2
DEFAULT_2
 70
0
 62
7
  6
HIDDEN
370
-3
390
F
  0
LAYER
  5
1FC
100
AcDbSymbolTableRecord
100
AcDbLayerTableRecord
  2
DEFAULT_3
 70
0
 62
7
  6
PHANTOM
370
-3
390
F
  0
LAYER
  5
1FD
100
AcDbSymbolTableRecord
100
AcDbLayerTableRecord
  2
ASSI
 70
0
 62
7
  6
CONTINUOUS
370
-3
390
F
  0
LAYER
  5
1FE
100
AcDbSymbolTableRecord
100
AcDbLayerTableRecord
  2
COORDINATE
 70
0
 62
7
  6
CONTINUOUS
370
-3
390
F
  0
LAYER
  5
1FF
100
AcDbSymbolTableRecord
100
AcDbLayerTableRecord
  2
COPY_PUBLISH
 70
0
 62
7
  6
CONTINUOUS
370
-3
390
F
  0
LAYER
  5
200
100
AcDbSymbolTableRecord
100
AcDbLayerTableRecord
  2
COSMETIC
 70
0
 62
7
  6
CONTINUOUS
370
-3
390
F
  0
LAYER
  5
201
100
AcDbSymbolTableRecord
100
AcDbLayerTableRecord
  2
CURVE
 70
0
 62
7
  6
CONTINUOUS
370
-3
390
F
  0
LAYER
  5
202
100
AcDbSymbolTableRecord
100
AcDbLayerTableRecord
  2
IMPORT_IGES
 70
0
 62
7
  6
CONTINUOUS
370
-3
390
F
  0
LAYER
  5
203
100
AcDbSymbolTableRecord
100
AcDbLayerTableRecord
  2
INTF_1
 70
0
 62
7
  6
CONTINUOUS
370
-3
390
F
  0
LAYER
  5
204
100
AcDbSymbolTableRecord
100
AcDbLayerTableRecord
  2
NOTE
 70
0
 62
7
  6
CONTINUOUS
370
-3
390
F
  0
LAYER
  5
205
100
AcDbSymbolTableRecord
100
AcDbLayerTableRecord
  2
PIANI
 70
0
 62
7
  6
CONTINUOUS
370
-3
390
F
  0
LAYER
  5
206
100
AcDbSymbolTableRecord
100
AcDbLayerTableRecord
  2
PUNTI
 70
0
 62
7
  6
CONTINUOUS
370
-3
390
F
  0
LAYER
  5
207
100
AcDbSymbolTableRecord
100
AcDbLayerTableRecord
  2
RACCORDO
 70
0
 62
7
  6
CONTINUOUS
370
-3
390
F
  0
LAYER
  5
208
100
AcDbSymbolTableRecord
100
AcDbLayerTableRecord
  2
RGB____0____0____0__
 70
0
 62
7
  6
CONTINUOUS
370
-3
390
F
  0
LAYER
  5
209
100
AcDbSymbolTableRecord
100
AcDbLayerTableRecord
  2
SNAPLINE
 70
0
 62
7
  6
CONTINUOUS
370
-3
390
F
  0
LAYER
  5
20A
100
AcDbSymbolTableRecord
100
AcDbLayerTableRecord
  2
TRASH
 70
0
 62
7
  6
CONTINUOUS
370
-3
390
F
  0
ENDTAB
  0
TABLE
  2
STYLE
  5
3
100
AcDbSymbolTable
 70
1
  0
STYLE
  5
11
100
AcDbSymbolTableRecord
100
AcDbTextStyleTableRecord
  2
STANDARD
 70
0
 40
0.0
 41
0.8
 50
0.0
 71
0
 42
0.2
  3
txt
  4

  0
STYLE
  5
20B
100
AcDbSymbolTableRecord
100
AcDbTextStyleTableRecord
  2
TEXTSTYLE_1
 70
0
 40
0.0
 41
0.8
 50
0.0
 71
0
 42
0.2
  3
gdt
  4

  0
ENDTAB
  0
TABLE
  2
VIEW
  5
6
100
AcDbSymbolTable
 70
0
  0
ENDTAB
  0
TABLE
  2
UCS
  5
7
100
AcDbSymbolTable
 70
0
  0
ENDTAB
  0
TABLE
  2
APPID
  5
9
100
AcDbSymbolTable
 70
1
  0
APPID
  5
20C
100
AcDbSymbolTableRecord
100
AcDbRegAppTableRecord
  2
ACAD
 70
0
  0
ENDTAB
  0
TABLE
  2
BLOCK_RECORD
  5
1
100
AcDbSymbolTable
 70
0
  0
BLOCK_RECORD
  5
20D
100
AcDbSymbolTableRecord
100
AcDbBlockTableRecord
  2
*Model_Space
  0
BLOCK_RECORD
  5
20E
100
AcDbSymbolTableRecord
100
AcDbBlockTableRecord
  2
*Paper_Space
  0
BLOCK_RECORD
  5
20F
100
AcDbSymbolTableRecord
100
AcDbBlockTableRecord
  2
_FILLED
  0
ENDTAB
  0
TABLE
  2
DIMSTYLE
  5
A
100
AcDbSymbolTable
 70
1
100
AcDbDimStyleTable
 71
0
  0
DIMSTYLE
105
210
100
AcDbSymbolTableRecord
100
AcDbDimStyleTableRecord
  2
STANDARD
 70
0
  3

  4

 40
1.0
 41
3.0
 42
0.5
 43
0.38
 44
1.5
 45
0.0
 46
0.0
 47
0.01
 48
0.01
140
3.0
141
0.09
142
0.0
143
25.4
144
1.0
145
0.0
146
1.0
147
0.625
 71
1.0
 72
0.0
 73
0
 74
0
 75
0
 76
0
 77
1
 78
8
 79
2
170
0
171
1
172
0
173
0
174
0
175
0
176
0
177
0
178
0
270
2
179
2
271
2
272
2
273
2
274
2
275
0
280
0
281
0
282
0
283
1
284
8
285
0
286
0
287
3
288
0
340
11
278
44
341
20F
342
20F
343
20F
344
20F
  0
ENDTAB
  0
ENDSEC
  0
SECTION
  2
BLOCKS
  0
BLOCK
  5
20
100
AcDbEntity
  8
0
100
AcDbBlockBegin
  2
*Model_Space
 70
0
 10
0.0
 20
0.0
 30
0.0
  3
*Model_Space
  1

  0
ENDBLK
  5
21
100
AcDbEntity
  8
0
100
AcDbBlockEnd
  0
BLOCK
  5
1C
100
AcDbEntity
  8
0
100
AcDbBlockBegin
  2
*Paper_Space
 70
0
 10
0.0
 20
0.0
 30
0.0
  3
*Paper_Space
  1

  0
ENDBLK
  5
1D
100
AcDbEntity
  8
0
100
AcDbBlockEnd
  0
BLOCK
  5
211
100
AcDbEntity
  8
0
100
AcDbBlockBegin
  2
_FILLED
 70
64
 10
0.0
 20
0.0
  3
_FILLED
  1

  0
SOLID
  5
212
100
AcDbEntity
  8
0
  6
BYBLOCK
 62
0
100
AcDbTrace
 10
0.0
 20
0.0
 11
-1.0
 21
0.3166666667
 12
-1.0
 22
-0.3166666667
 13
-1.0
 23
-0.3166666667
  0
ENDBLK
  5
213
100
AcDbEntity
  8
0
  6
BYBLOCK
 62
0
100
AcDbBlockEnd
  0
ENDSEC
  0
SECTION
  2
ENTITIES
  0
LINE
  5
214
100
AcDbEntity
  8
ASSI
100
AcDbLine
 62
7
  6
CONTINUOUS
 10
-66.1142018621
 20
56.774298582
 11
-66.7392018621
 21
56.2330327047
  0
LINE
  5
215
100
AcDbEntity
  8
RACCORDO
100
AcDbLine
 62
250
  6
CONTINUOUS
 10
-62.8409335086
 20
57.3247808709
 11
-63.4659335086
 21
56.7835149935
  0
LINE
  5
216
100
AcDbEntity
  8
RACCORDO
100
AcDbLine
 62
7
  6
CONTINUOUS
 10
-67.9300351237
 20
53.4533879746
 11
-67.9300351237
 21
-15.3956316263
  0
LINE
  5
217
100
AcDbEntity
  8
RACCORDO
100
AcDbLine
 62
250
  6
CONTINUOUS
 10
-67.4300351237
 20
53.0203752727
 11
-67.4300351237
 21
-15.8286443282
  0
LINE
  5
218
100
AcDbEntity
  8
RACCORDO
100
AcDbLine
 62
7
  6
CONTINUOUS
 10
-63.7432836067
 20
-20.8205021643
 11
62.6964253459
 21
-57.3205021643
  0
LINE
  5
219
100
AcDbEntity
  8
RACCORDO
100
AcDbLine
 62
250
  6
CONTINUOUS
 10
-63.9659335086
 20
-20.2927459433
 11
62.473775444
 21
-56.7927459433
  0
LINE
  5
21A
100
AcDbEntity
  8
0
100
AcDbLine
 62
7
  6
CONTINUOUS
 10
-3.3441552436
 20
-37.1432268905
 11
1.8519971791
 21
-38.6432268905
  0
LINE
  5
21B
100
AcDbEntity
  8
0
100
AcDbLine
 62
7
  6
CONTINUOUS
 10
-3.3316552436
 20
-37.1324015729
 11
1.8519971791
 21
-38.6287931338
  0
LINE
  5
21C
100
AcDbEntity
  8
0
100
AcDbLine
 62
7
  6
CONTINUOUS
 10
-2.5198523457
 20
-35.0103294114
 11
-2.341433359
 21
-35.0618345364
  0
LINE
  5
21D
100
AcDbEntity
  8
0
100
AcDbLine
 62
7
  6
CONTINUOUS
 10
-2.0177485701
 20
-35.1552742864
 11
-1.8393789469
 21
-35.2067651614
  0
LINE
  5
21E
100
AcDbEntity
  8
0
100
AcDbLine
 62
7
  6
CONTINUOUS
 10
-0.3386595461
 20
-35.6399855364
 11
-0.1768171517
 21
-35.6867054114
  0
LINE
  5
21F
100
AcDbEntity
  8
0
100
AcDbLine
 62
7
  6
CONTINUOUS
 10
-0.9032440235
 20
-35.1625004159
 11
-0.3386595461
 21
-35.3254819159
  0
LINE
  5
220
100
AcDbEntity
  8
0
100
AcDbLine
 62
7
  6
CONTINUOUS
 10
-0.1768171517
 20
-35.3722017909
 11
0.0126362977
 21
-35.4268922909
  0
LINE
  5
221
100
AcDbEntity
  8
0
100
AcDbLine
 62
7
  6
CONTINUOUS
 10
0.0126362977
 20
-35.2871339772
 11
-0.1768171517
 21
-35.2324434772
  0
LINE
  5
222
100
AcDbEntity
  8
0
100
AcDbLine
 62
7
  6
CONTINUOUS
 10
-0.3386595461
 20
-35.1857236022
 11
-0.7542997784
 21
-35.0657386022
  0
LINE
  5
223
100
AcDbEntity
  8
0
100
AcDbLine
 62
7
  6
CONTINUOUS
 10
0.0251362977
 20
-35.2763086597
 11
-0.1643171517
 21
-35.2216181597
  0
LINE
  5
224
100
AcDbEntity
  8
0
100
AcDbLine
 62
7
  6
CONTINUOUS
 10
-0.3386595461
 20
-35.1712898455
 11
-0.7417997784
 21
-35.0549132847
  0
LINE
  5
225
100
AcDbEntity
  8
0
100
AcDbLine
 62
7
  6
CONTINUOUS
 10
-1.8393789469
 20
-34.6494981657
 11
-1.4241547584
 21
-34.7693630642
  0
LINE
  5
226
100
AcDbEntity
  8
0
100
AcDbLine
 62
7
  6
CONTINUOUS
 10
-1.4657698114
 20
-34.604722382
 11
-1.8393789469
 21
-34.4968707146
  0
LINE
  5
227
100
AcDbEntity
  8
0
100
AcDbLine
 62
7
  6
CONTINUOUS
 10
-1.453269758
 20
-34.5938970799
 11
-1.8268789469
 21
-34.486045397
  0
LINE
  5
228
100
AcDbEntity
  8
0
100
AcDbLine
 62
7
  6
CONTINUOUS
 10
-1.8393789469
 20
-34.0389208112
 11
-1.4657733822
 21
-34.1467714478
  0
LINE
  5
229
100
AcDbEntity
  8
0
100
AcDbLine
 62
7
  6
CONTINUOUS
 10
-0.1768171517
 20
-34.366234043
 11
-0.2911420313
 21
-34.333231293
  0
LINE
  5
22A
100
AcDbEntity
  8
0
100
AcDbLine
 62
7
  6
CONTINUOUS
 10
-1.4241527701
 20
-34.0061592655
 11
-2.0177485701
 21
-33.834802918
  0
LINE
  5
22B
100
AcDbEntity
  8
0
100
AcDbLine
 62
7
  6
CONTINUOUS
 10
-2.341433359
 20
-33.741363168
 11
-2.5198523457
 21
-33.689858043
  0
LINE
  5
22C
100
AcDbEntity
  8
0
100
AcDbLine
 62
7
  6
CONTINUOUS
 10
-0.1643171517
 20
-34.3554087255
 11
-0.2786420313
 21
-34.3224059755
  0
LINE
  5
22D
100
AcDbEntity
  8
0
100
AcDbLine
 62
7
  6
CONTINUOUS
 10
-1.4116527655
 20
-33.9953339493
 11
-2.0052485701
 21
-33.8239776005
  0
LINE
  5
22E
100
AcDbEntity
  8
0
100
AcDbLine
 62
7
  6
CONTINUOUS
 10
-2.328933359
 20
-33.7305378505
 11
-2.5073523457
 21
-33.6790327255
  0
LINE
  5
22F
100
AcDbEntity
  8
0
100
AcDbLine
 62
7
  6
CONTINUOUS
 10
1.8519971791
 20
-34.3130998716
 11
-3.3441552436
 21
-32.8130998716
  0
LINE
  5
230
100
AcDbEntity
  8
0
100
AcDbLine
 62
7
  6
CONTINUOUS
 10
-0.2416255191
 20
-1.7336198976
 11
-0.4238151804
 21
0.267293595
  0
LINE
  5
231
100
AcDbEntity
  8
0
100
AcDbLine
 62
7
  6
CONTINUOUS
 10
-0.2291255191
 20
-1.72279458
 11
-0.4113151804
 21
0.2781189125
  0
LINE
  5
232
100
AcDbEntity
  8
0
100
AcDbLine
 62
7
  6
CONTINUOUS
 10
-0.7230330196
 20
-0.3277366293
 11
-0.6394771566
 21
-1.6187700226
  0
LINE
  5
233
100
AcDbEntity
  8
0
100
AcDbLine
 62
7
  6
CONTINUOUS
 10
-3.3441552436
 20
-32.8130998716
 11
-3.3441552436
 21
-37.1432268905
  0
LINE
  5
234
100
AcDbEntity
  8
0
100
AcDbLine
 62
7
  6
CONTINUOUS
 10
-3.3316552436
 20
-32.8167083107
 11
-3.3316552436
 21
-37.1324015729
  0
LINE
  5
235
100
AcDbEntity
  8
0
100
AcDbLine
 62
7
  6
CONTINUOUS
 10
-2.8431835856
 20
0.9658220084
 11
-2.8431835856
 21
-0.9826147726
  0
LINE
  5
236
100
AcDbEntity
  8
0
100
AcDbLine
 62
7
  6
CONTINUOUS
 10
-2.5198523457
 20
-33.689858043
 11
-2.5198523457
 21
-35.0103294114
  0
LINE
  5
237
100
AcDbEntity
  8
0
100
AcDbLine
 62
7
  6
CONTINUOUS
 10
-2.4364928598
 20
-1.1000162726
 11
-2.4364928598
 21
0.8484205084
  0
LINE
  5
238
100
AcDbEntity
  8
0
100
AcDbLine
 62
7
  6
CONTINUOUS
 10
-2.4239928598
 20
-1.089190955
 11
-2.4239928598
 21
0.8592458259
  0
LINE
  5
239
100
AcDbEntity
  8
0
100
AcDbLine
 62
7
  6
CONTINUOUS
 10
-2.341433359
 20
-35.0618345364
 11
-2.341433359
 21
-33.741363168
  0
LINE
  5
23A
100
AcDbEntity
  8
0
100
AcDbLine
 62
7
  6
CONTINUOUS
 10
-2.328933359
 20
-35.0510092189
 11
-2.328933359
 21
-33.7305378505
  0
LINE
  5
23B
100
AcDbEntity
  8
0
100
AcDbLine
 62
7
  6
CONTINUOUS
 10
-2.0177485701
 20
-33.834802918
 11
-2.0177485701
 21
-35.1552742864
  0
LINE
  5
23C
100
AcDbEntity
  8
0
100
AcDbLine
 62
7
  6
CONTINUOUS
 10
-1.8393789469
 20
-35.2067651614
 11
-1.8393789469
 21
-34.6494981657
  0
LINE
  5
23D
100
AcDbEntity
  8
0
100
AcDbLine
 62
7
  6
CONTINUOUS
 10
-1.8393789469
 20
-34.4968707146
 11
-1.8393789469
 21
-34.0389208112
  0
LINE
  5
23E
100
AcDbEntity
  8
0
100
AcDbLine
 62
7
  6
CONTINUOUS
 10
-1.8268789469
 20
-35.1959398439
 11
-1.8268789469
 21
-34.6531066049
  0
LINE
  5
23F
100
AcDbEntity
  8
0
100
AcDbLine
 62
7
  6
CONTINUOUS
 10
-1.8268789469
 20
-34.486045397
 11
-1.8268789469
 21
-34.0425292503
  0
LINE
  5
240
100
AcDbEntity
  8
0
100
AcDbLine
 62
7
  6
CONTINUOUS
 10
-0.9032440235
 20
-35.0043507537
 11
-0.9032440235
 21
-35.1625004159
  0
LINE
  5
241
100
AcDbEntity
  8
0
100
AcDbLine
 62
7
  6
CONTINUOUS
 10
-0.3386595461
 20
-34.5937874445
 11
-0.3386595461
 21
-35.1857236022
  0
LINE
  5
242
100
AcDbEntity
  8
0
100
AcDbLine
 62
7
  6
CONTINUOUS
 10
-0.3386595461
 20
-35.3254819159
 11
-0.3386595461
 21
-35.6399855364
  0
LINE
  5
243
100
AcDbEntity
  8
0
100
AcDbLine
 62
7
  6
CONTINUOUS
 10
-0.1768171517
 20
-35.6867054114
 11
-0.1768171517
 21
-35.3722017909
  0
LINE
  5
244
100
AcDbEntity
  8
0
100
AcDbLine
 62
7
  6
CONTINUOUS
 10
-0.1768171517
 20
-35.2324434772
 11
-0.1768171517
 21
-34.366234043
  0
LINE
  5
245
100
AcDbEntity
  8
0
100
AcDbLine
 62
7
  6
CONTINUOUS
 10
-0.1643171517
 20
-35.6758800939
 11
-0.1643171517
 21
-35.37581023
  0
LINE
  5
246
100
AcDbEntity
  8
0
100
AcDbLine
 62
7
  6
CONTINUOUS
 10
-0.1643171517
 20
-35.2216181597
 11
-0.1643171517
 21
-34.3554087255
  0
LINE
  5
247
100
AcDbEntity
  8
0
100
AcDbLine
 62
7
  6
CONTINUOUS
 10
0.0126362977
 20
-35.4268922909
 11
0.0126362977
 21
-35.2871339772
  0
LINE
  5
248
100
AcDbEntity
  8
0
100
AcDbLine
 62
7
  6
CONTINUOUS
 10
0.0251362977
 20
-35.4160669733
 11
0.0251362977
 21
-35.2763086597
  0
LINE
  5
249
100
AcDbEntity
  8
0
100
AcDbLine
 62
7
  6
CONTINUOUS
 10
-1.8284876007
 20
-1.2755322726
 11
-1.7407241533
 21
-0.0286513977
  0
LINE
  5
24A
100
AcDbEntity
  8
0
100
AcDbLine
 62
7
  6
CONTINUOUS
 10
-1.8159876007
 20
-1.264706955
 11
-1.7310073032
 21
-0.0573671025
  0
LINE
  5
24B
100
AcDbEntity
  8
0
100
AcDbLine
 62
7
  6
CONTINUOUS
 10
-2.0416363712
 20
0.734318345
 11
-2.2175586067
 21
-1.1632171476
  0
LINE
  5
24C
100
AcDbEntity
  8
0
100
AcDbLine
 62
7
  6
CONTINUOUS
 10
0.4199260907
 20
-1.2346681975
 11
0.6224240477
 21
-0.5700784138
  0
LINE
  5
24D
100
AcDbEntity
  8
0
100
AcDbLine
 62
7
  6
CONTINUOUS
 10
0.4324260907
 20
-1.2238428799
 11
0.6264832491
 21
-0.5869554425
  0
LINE
  5
24E
100
AcDbEntity
  8
0
100
AcDbLine
 62
7
  6
CONTINUOUS
 10
-3.4005202964
 20
1.126594345
 11
-3.7832502643
 21
-0.1040098652
  0
LINE
  5
24F
100
AcDbEntity
  8
0
100
AcDbLine
 62
7
  6
CONTINUOUS
 10
0.2245143865
 20
-1.8681828976
 11
0.3367352574
 21
-1.5116241801
  0
LINE
  5
250
100
AcDbEntity
  8
0
100
AcDbLine
 62
7
  6
CONTINUOUS
 10
0.2370143865
 20
-1.85735758
 11
0.3450086345
 21
-1.5142280867
  0
LINE
  5
251
100
AcDbEntity
  8
0
100
AcDbLine
 62
7
  6
CONTINUOUS
 10
0.4333529486
 20
0.01985047
 11
-0.1777643728
 21
-1.7520550226
  0
LINE
  5
252
100
AcDbEntity
  8
0
100
AcDbLine
 62
7
  6
CONTINUOUS
 10
-3.6203755676
 20
-0.7582587726
 11
-2.9941075648
 21
1.009273095
  0
LINE
  5
253
100
AcDbEntity
  8
0
100
AcDbLine
 62
7
  6
CONTINUOUS
 10
-3.6078755676
 20
-0.747433455
 11
-2.9816075648
 21
1.0200984125
  0
LINE
  5
254
100
AcDbEntity
  8
0
100
AcDbLine
 62
7
  6
CONTINUOUS
 10
-0.8261961308
 20
0.38345097
 11
-1.2328864235
 21
-0.5808610158
  0
LINE
  5
255
100
AcDbEntity
  8
0
100
AcDbLine
 62
7
  6
CONTINUOUS
 10
-1.2065882631
 20
-1.4550591476
 11
-0.7230330196
 21
-0.3277366293
  0
LINE
  5
256
100
AcDbEntity
  8
0
100
AcDbLine
 62
7
  6
CONTINUOUS
 10
-1.1940882631
 20
-1.44423383
 11
-0.722003005
 21
-0.3436515301
  0
LINE
  5
257
100
AcDbEntity
  8
0
100
AcDbLine
 62
7
  6
CONTINUOUS
 10
-4.5839273338
 20
1.4826482875
 11
-4.5964273338
 21
1.47182297
  0
LINE
  5
258
100
AcDbEntity
  8
0
100
AcDbLine
 62
7
  6
CONTINUOUS
 10
-4.1421352994
 20
1.3551139125
 11
-4.1546352994
 21
1.344288595
  0
LINE
  5
259
100
AcDbEntity
  8
0
100
AcDbLine
 62
7
  6
CONTINUOUS
 10
-3.3880202964
 20
1.1374196625
 11
-3.4005202964
 21
1.126594345
  0
LINE
  5
25A
100
AcDbEntity
  8
0
100
AcDbLine
 62
7
  6
CONTINUOUS
 10
-2.9816075648
 20
1.0200984125
 11
-2.9941075648
 21
1.009273095
  0
LINE
  5
25B
100
AcDbEntity
  8
0
100
AcDbLine
 62
7
  6
CONTINUOUS
 10
-2.8306835856
 20
0.9766473259
 11
-2.8431835856
 21
0.9658220084
  0
LINE
  5
25C
100
AcDbEntity
  8
0
100
AcDbLine
 62
7
  6
CONTINUOUS
 10
-2.4239928598
 20
0.8592458259
 11
-2.4364928598
 21
0.8484205084
  0
LINE
  5
25D
100
AcDbEntity
  8
0
100
AcDbLine
 62
7
  6
CONTINUOUS
 10
-2.0291363712
 20
0.7451436625
 11
-2.0416363712
 21
0.734318345
  0
LINE
  5
25E
100
AcDbEntity
  8
0
100
AcDbLine
 62
7
  6
CONTINUOUS
 10
-3.6078755676
 20
-0.747433455
 11
-3.6203755676
 21
-0.7582587726
  0
LINE
  5
25F
100
AcDbEntity
  8
0
100
AcDbLine
 62
7
  6
CONTINUOUS
 10
-1.6227820963
 20
0.6278392875
 11
-1.6352820963
 21
0.61701397
  0
LINE
  5
260
100
AcDbEntity
  8
0
100
AcDbLine
 62
7
  6
CONTINUOUS
 10
-0.8136961308
 20
0.3942762875
 11
-0.8261961308
 21
0.38345097
  0
LINE
  5
261
100
AcDbEntity
  8
0
100
AcDbLine
 62
7
  6
CONTINUOUS
 10
-2.4239928598
 20
-1.089190955
 11
-2.4364928598
 21
-1.1000162726
  0
LINE
  5
262
100
AcDbEntity
  8
0
100
AcDbLine
 62
7
  6
CONTINUOUS
 10
-0.4113151804
 20
0.2781189125
 11
-0.4238151804
 21
0.267293595
  0
LINE
  5
263
100
AcDbEntity
  8
0
100
AcDbLine
 62
7
  6
CONTINUOUS
 10
-1.8159876007
 20
-1.264706955
 11
-1.8284876007
 21
-1.2755322726
  0
LINE
  5
264
100
AcDbEntity
  8
0
100
AcDbLine
 62
7
  6
CONTINUOUS
 10
0.4458529486
 20
0.0306757875
 11
0.4333529486
 21
0.01985047
  0
LINE
  5
265
100
AcDbEntity
  8
0
100
AcDbLine
 62
7
  6
CONTINUOUS
 10
-1.1940882631
 20
-1.44423383
 11
-1.2065882631
 21
-1.4550591476
  0
LINE
  5
266
100
AcDbEntity
  8
0
100
AcDbLine
 62
7
  6
CONTINUOUS
 10
0.8392774642
 20
-0.0828960875
 11
0.8267774642
 21
-0.093721405
  0
LINE
  5
267
100
AcDbEntity
  8
0
100
AcDbLine
 62
7
  6
CONTINUOUS
 10
-3.9787719537
 20
-0.6547986476
 11
-3.6203755676
 21
-0.7582587726
  0
LINE
  5
268
100
AcDbEntity
  8
0
100
AcDbLine
 62
7
  6
CONTINUOUS
 10
-2.8431835856
 20
-0.9826147726
 11
-2.4364928598
 21
-1.1000162726
  0
LINE
  5
269
100
AcDbEntity
  8
0
100
AcDbLine
 62
7
  6
CONTINUOUS
 10
-2.2175586067
 20
-1.1632171476
 11
-1.8284876007
 21
-1.2755322726
  0
LINE
  5
26A
100
AcDbEntity
  8
0
100
AcDbLine
 62
7
  6
CONTINUOUS
 10
-1.2636264282
 20
-1.4385936476
 11
-1.2065882631
 21
-1.4550591476
  0
LINE
  5
26B
100
AcDbEntity
  8
0
100
AcDbLine
 62
7
  6
CONTINUOUS
 10
-0.6394771566
 20
-1.6187700226
 11
-0.2416255191
 21
-1.7336198976
  0
LINE
  5
26C
100
AcDbEntity
  8
0
100
AcDbLine
 62
7
  6
CONTINUOUS
 10
-0.1777643728
 20
-1.7520550226
 11
0.2245143865
 21
-1.8681828976
  0
LINE
  5
26D
100
AcDbEntity
  8
0
100
AcDbLine
 62
7
  6
CONTINUOUS
 10
0.9959347422
 20
-2.0908727726
 11
1.4245701187
 21
-2.2146091476
  0
LINE
  5
26E
100
AcDbEntity
  8
0
100
AcDbLine
 62
7
  6
CONTINUOUS
 10
1.5439942707
 20
-2.2490837146
 11
1.9490485981
 21
-2.3660128271
  0
LINE
  5
26F
100
AcDbEntity
  8
0
100
AcDbLine
 62
7
  6
CONTINUOUS
 10
2.5718393503
 20
-2.5457970314
 11
2.9630285588
 21
-2.6587236288
  0
LINE
  5
270
100
AcDbEntity
  8
0
100
AcDbLine
 62
7
  6
CONTINUOUS
 10
0.3367352574
 20
-1.5116241801
 11
0.8905805868
 21
-1.6715055551
  0
LINE
  5
271
100
AcDbEntity
  8
0
100
AcDbLine
 62
7
  6
CONTINUOUS
 10
0.8093036696
 20
-1.3470718225
 11
0.4199260907
 21
-1.2346681975
  0
LINE
  5
272
100
AcDbEntity
  8
0
100
AcDbLine
 62
7
  6
CONTINUOUS
 10
0.8055730974
 20
-1.3315611423
 11
0.4324260907
 21
-1.2238428799
  0
LINE
  5
273
100
AcDbEntity
  8
0
100
AcDbLine
 62
7
  6
CONTINUOUS
 10
1.9490485981
 20
-1.6035481689
 11
2.1671064482
 21
-1.6664960481
  0
LINE
  5
274
100
AcDbEntity
  8
0
100
AcDbLine
 62
7
  6
CONTINUOUS
 10
2.1679830627
 20
-1.3476614368
 11
1.9355633455
 21
-1.2805676437
  0
LINE
  5
275
100
AcDbEntity
  8
0
100
AcDbLine
 62
7
  6
CONTINUOUS
 10
2.1804830627
 20
-1.3368361193
 11
1.9480633455
 21
-1.2697423261
  0
LINE
  5
276
100
AcDbEntity
  8
0
100
AcDbLine
 62
7
  6
CONTINUOUS
 10
0.8267774642
 20
-0.093721405
 11
0.4333529486
 21
0.01985047
  0
LINE
  5
277
100
AcDbEntity
  8
0
100
AcDbLine
 62
7
  6
CONTINUOUS
 10
-0.4238151804
 20
0.267293595
 11
-0.8261961308
 21
0.38345097
  0
LINE
  5
278
100
AcDbEntity
  8
0
100
AcDbLine
 62
7
  6
CONTINUOUS
 10
-1.6352820963
 20
0.61701397
 11
-2.0416363712
 21
0.734318345
  0
LINE
  5
279
100
AcDbEntity
  8
0
100
AcDbLine
 62
7
  6
CONTINUOUS
 10
-2.9941075648
 20
1.009273095
 11
-3.4005202964
 21
1.126594345
  0
LINE
  5
27A
100
AcDbEntity
  8
0
100
AcDbLine
 62
7
  6
CONTINUOUS
 10
-4.1546352994
 20
1.344288595
 11
-4.5964273338
 21
1.47182297
  0
LINE
  5
27B
100
AcDbEntity
  8
0
100
AcDbLine
 62
7
  6
CONTINUOUS
 10
-2.4364928598
 20
0.8484205084
 11
-2.8431835856
 21
0.9658220084
  0
LINE
  5
27C
100
AcDbEntity
  8
0
100
AcDbLine
 62
7
  6
CONTINUOUS
 10
0.8392774642
 20
-0.0828960875
 11
0.4458529486
 21
0.0306757875
  0
LINE
  5
27D
100
AcDbEntity
  8
0
100
AcDbLine
 62
7
  6
CONTINUOUS
 10
-0.4113151804
 20
0.2781189125
 11
-0.8136961308
 21
0.3942762875
  0
LINE
  5
27E
100
AcDbEntity
  8
0
100
AcDbLine
 62
7
  6
CONTINUOUS
 10
-1.6227820963
 20
0.6278392875
 11
-2.0291363712
 21
0.7451436625
  0
LINE
  5
27F
100
AcDbEntity
  8
0
100
AcDbLine
 62
7
  6
CONTINUOUS
 10
-2.9816075648
 20
1.0200984125
 11
-3.3880202964
 21
1.1374196625
  0
LINE
  5
280
100
AcDbEntity
  8
0
100
AcDbLine
 62
7
  6
CONTINUOUS
 10
-4.1421352994
 20
1.3551139125
 11
-4.5839273338
 21
1.4826482875
  0
LINE
  5
281
100
AcDbEntity
  8
0
100
AcDbLine
 62
7
  6
CONTINUOUS
 10
-2.4239928598
 20
0.8592458259
 11
-2.8306835856
 21
0.9766473259
  0
LINE
  5
282
100
AcDbEntity
  8
0
100
AcDbLine
 62
7
  6
CONTINUOUS
 10
-1.7407241533
 20
-0.0286513977
 11
-1.2636264282
 21
-1.4385936476
  0
LINE
  5
283
100
AcDbEntity
  8
0
100
AcDbLine
 62
7
  6
CONTINUOUS
 10
-1.2328864235
 20
-0.5808610158
 11
-1.6352820963
 21
0.61701397
  0
LINE
  5
284
100
AcDbEntity
  8
0
100
AcDbLine
 62
7
  6
CONTINUOUS
 10
-1.223904331
 20
-0.5595633855
 11
-1.6227820963
 21
0.6278392875
  0
LINE
  5
285
100
AcDbEntity
  8
0
100
AcDbLine
 62
7
  6
CONTINUOUS
 10
-4.5964273338
 20
1.47182297
 11
-3.9787719537
 21
-0.6547986476
  0
LINE
  5
286
100
AcDbEntity
  8
0
100
AcDbLine
 62
7
  6
CONTINUOUS
 10
1.4245701187
 20
-2.2146091476
 11
0.8267774642
 21
-0.093721405
  0
LINE
  5
287
100
AcDbEntity
  8
0
100
AcDbLine
 62
7
  6
CONTINUOUS
 10
1.4370701187
 20
-2.20378383
 11
0.8392774642
 21
-0.0828960875
  0
LINE
  5
288
100
AcDbEntity
  8
0
100
AcDbLine
 62
7
  6
CONTINUOUS
 10
-3.7832502643
 20
-0.1040098652
 11
-4.1546352994
 21
1.344288595
  0
LINE
  5
289
100
AcDbEntity
  8
0
100
AcDbLine
 62
7
  6
CONTINUOUS
 10
-3.7748776171
 20
-0.0770890183
 11
-4.1421352994
 21
1.3551139125
  0
LINE
  5
28A
100
AcDbEntity
  8
0
100
AcDbLine
 62
7
  6
CONTINUOUS
 10
0.8905805868
 20
-1.6715055551
 11
0.9959347422
 21
-2.0908727726
  0
LINE
  5
28B
100
AcDbEntity
  8
0
100
AcDbLine
 62
7
  6
CONTINUOUS
 10
0.6224240477
 20
-0.5700784138
 11
0.8093036696
 21
-1.3470718225
  0
LINE
  5
28C
100
AcDbEntity
  8
0
100
AcDbLine
 62
7
  6
CONTINUOUS
 10
1.5439942707
 20
-0.3235269739
 11
1.5439942707
 21
-2.2490837146
  0
LINE
  5
28D
100
AcDbEntity
  8
0
100
AcDbLine
 62
7
  6
CONTINUOUS
 10
1.8519971791
 20
-38.6432268905
 11
1.8519971791
 21
-34.3130998716
  0
LINE
  5
28E
100
AcDbEntity
  8
0
100
AcDbLine
 62
7
  6
CONTINUOUS
 10
1.9355633455
 20
-1.2805676437
 11
1.9355633455
 21
-0.7457159333
  0
LINE
  5
28F
100
AcDbEntity
  8
0
100
AcDbLine
 62
7
  6
CONTINUOUS
 10
1.9480633455
 20
-1.2697423261
 11
1.9480633455
 21
-0.7457159333
  0
LINE
  5
290
100
AcDbEntity
  8
0
100
AcDbLine
 62
7
  6
CONTINUOUS
 10
1.9490485981
 20
-2.3660128271
 11
1.9490485981
 21
-1.6035481689
  0
LINE
  5
291
100
AcDbEntity
  8
0
100
AcDbLine
 62
7
  6
CONTINUOUS
 10
1.9615485981
 20
-2.3551875096
 11
1.9615485981
 21
-1.6071566081
  0
LINE
  5
292
100
AcDbEntity
  8
0
100
AcDbLine
 62
7
  6
CONTINUOUS
 10
2.5895761832
 20
-1.6414589189
 11
2.5895761832
 21
-1.6299460488
  0
LINE
  5
293
100
AcDbEntity
  8
0
100
AcDbLine
 62
7
  6
CONTINUOUS
 10
-0.2291255191
 20
-1.72279458
 11
-0.2416255191
 21
-1.7336198976
  0
LINE
  5
294
100
AcDbEntity
  8
0
100
AcDbLine
 62
7
  6
CONTINUOUS
 10
0.4324260907
 20
-1.2238428799
 11
0.4199260907
 21
-1.2346681975
  0
LINE
  5
295
100
AcDbEntity
  8
0
100
AcDbLine
 62
7
  6
CONTINUOUS
 10
1.5564942707
 20
-0.3127016563
 11
1.5439942707
 21
-0.3235269739
  0
LINE
  5
296
100
AcDbEntity
  8
0
100
AcDbLine
 62
7
  6
CONTINUOUS
 10
0.2370143865
 20
-1.85735758
 11
0.2245143865
 21
-1.8681828976
  0
LINE
  5
297
100
AcDbEntity
  8
0
100
AcDbLine
 62
250
  6
CONTINUOUS
 10
2.5601447909
 20
-0.622943384
 11
2.5476447909
 21
-0.6337687015
  0
LINE
  5
298
100
AcDbEntity
  8
0
100
AcDbLine
 62
7
  6
CONTINUOUS
 10
1.9480633455
 20
-1.2697423261
 11
1.9355633455
 21
-1.2805676437
  0
LINE
  5
299
100
AcDbEntity
  8
0
100
AcDbLine
 62
250
  6
CONTINUOUS
 10
2.1804830627
 20
-1.3368361193
 11
2.1679830627
 21
-1.3476614368
  0
LINE
  5
29A
100
AcDbEntity
  8
0
100
AcDbLine
 62
7
  6
CONTINUOUS
 10
1.4370701187
 20
-2.20378383
 11
1.4245701187
 21
-2.2146091476
  0
LINE
  5
29B
100
AcDbEntity
  8
0
100
AcDbLine
 62
7
  6
CONTINUOUS
 10
2.6020761832
 20
-1.6306336013
 11
2.5895761832
 21
-1.6414589189
  0
LINE
  5
29C
100
AcDbEntity
  8
0
100
AcDbLine
 62
7
  6
CONTINUOUS
 10
1.9615485981
 20
-2.3551875096
 11
1.9490485981
 21
-2.3660128271
  0
LINE
  5
29D
100
AcDbEntity
  8
0
100
AcDbLine
 62
250
  6
CONTINUOUS
 10
2.8364975034
 20
-2.0804360665
 11
2.8239975034
 21
-2.091261384
  0
LINE
  5
29E
100
AcDbEntity
  8
0
100
AcDbLine
 62
7
  6
CONTINUOUS
 10
2.9755285588
 20
-2.6478983112
 11
2.9630285588
 21
-2.6587236288
  0
LINE
  5
29F
100
AcDbEntity
  8
0
100
AcDbLine
 62
7
  6
CONTINUOUS
 10
-0.7542997784
 20
-35.0657386022
 11
-0.3386595461
 21
-34.5937874445
  0
LINE
  5
2A0
100
AcDbEntity
  8
0
100
AcDbLine
 62
7
  6
CONTINUOUS
 10
-0.2911420313
 20
-34.333231293
 11
-0.9032440235
 21
-35.0043507537
  0
LINE
  5
2A1
100
AcDbEntity
  8
0
100
AcDbLine
 62
7
  6
CONTINUOUS
 10
-2.5073523457
 20
-33.6790327255
 11
-2.5198523457
 21
-33.689858043
  0
LINE
  5
2A2
100
AcDbEntity
  8
0
100
AcDbLine
 62
7
  6
CONTINUOUS
 10
-2.328933359
 20
-33.7305378505
 11
-2.341433359
 21
-33.741363168
  0
LINE
  5
2A3
100
AcDbEntity
  8
0
100
AcDbLine
 62
7
  6
CONTINUOUS
 10
-2.0052485701
 20
-33.8239776005
 11
-2.0177485701
 21
-33.834802918
  0
LINE
  5
2A4
100
AcDbEntity
  8
0
100
AcDbLine
 62
250
  6
CONTINUOUS
 10
-1.4116522417
 20
-33.9953341005
 11
-1.4241522417
 21
-34.006159418
  0
LINE
  5
2A5
100
AcDbEntity
  8
0
100
AcDbLine
 62
7
  6
CONTINUOUS
 10
-1.8268789469
 20
-34.486045397
 11
-1.8393789469
 21
-34.4968707146
  0
LINE
  5
2A6
100
AcDbEntity
  8
0
100
AcDbLine
 62
7
  6
CONTINUOUS
 10
-2.328933359
 20
-35.0510092189
 11
-2.341433359
 21
-35.0618345364
  0
LINE
  5
2A7
100
AcDbEntity
  8
0
100
AcDbLine
 62
250
  6
CONTINUOUS
 10
-1.4532716906
 20
-34.593896522
 11
-1.4657716906
 21
-34.6047218396
  0
LINE
  5
2A8
100
AcDbEntity
  8
0
100
AcDbLine
 62
250
  6
CONTINUOUS
 10
-1.0194820116
 20
-34.4901459972
 11
-1.0319820116
 21
-34.5009713148
  0
LINE
  5
2A9
100
AcDbEntity
  8
0
100
AcDbLine
 62
7
  6
CONTINUOUS
 10
-1.8268789469
 20
-35.1959398439
 11
-1.8393789469
 21
-35.2067651614
  0
LINE
  5
2AA
100
AcDbEntity
  8
0
100
AcDbLine
 62
7
  6
CONTINUOUS
 10
-0.2786420313
 20
-34.3224059755
 11
-0.2911420313
 21
-34.333231293
  0
LINE
  5
2AB
100
AcDbEntity
  8
0
100
AcDbLine
 62
7
  6
CONTINUOUS
 10
-0.1643171517
 20
-34.3554087255
 11
-0.1768171517
 21
-34.366234043
  0
LINE
  5
2AC
100
AcDbEntity
  8
0
100
AcDbLine
 62
7
  6
CONTINUOUS
 10
-3.3441552436
 20
-37.1432268905
 11
-3.3316552436
 21
-37.1324015729
  0
LINE
  5
2AD
100
AcDbEntity
  8
RACCORDO
100
AcDbLine
 62
250
  6
CONTINUOUS
 10
63.598775444
 20
20.8247808709
 11
62.973775444
 21
20.2835149935
  0
LINE
  5
2AE
100
AcDbEntity
  8
0
100
AcDbLine
 62
7
  6
CONTINUOUS
 10
-0.1643171517
 20
-35.2216181597
 11
-0.1768171517
 21
-35.2324434772
  0
LINE
  5
2AF
100
AcDbEntity
  8
0
100
AcDbLine
 62
250
  6
CONTINUOUS
 10
0.5970773068
 20
-34.5752089018
 11
0.5845773068
 21
-34.5860342193
  0
LINE
  5
2B0
100
AcDbEntity
  8
0
100
AcDbLine
 62
7
  6
CONTINUOUS
 10
0.0251362977
 20
-35.2763086597
 11
0.0126362977
 21
-35.2871339772
  0
LINE
  5
2B1
100
AcDbEntity
  8
0
100
AcDbLine
 62
7
  6
CONTINUOUS
 10
0.0251362977
 20
-35.4160669733
 11
0.0126362977
 21
-35.4268922909
  0
LINE
  5
2B2
100
AcDbEntity
  8
0
100
AcDbLine
 62
250
  6
CONTINUOUS
 10
0.3268348417
 20
-35.1574277775
 11
0.3143348417
 21
-35.168253095
  0
LINE
  5
2B3
100
AcDbEntity
  8
0
100
AcDbLine
 62
7
  6
CONTINUOUS
 10
-0.1643171517
 20
-35.6758800939
 11
-0.1768171517
 21
-35.6867054114
  0
LINE
  5
2B4
100
AcDbEntity
  8
0
100
AcDbLine
 62
250
  6
CONTINUOUS
 10
1.0401941187
 20
-35.3633568628
 11
1.0276941187
 21
-35.3741821803
  0
LINE
  5
2B5
100
AcDbEntity
  8
0
100
AcDbLine
 62
250
  6
CONTINUOUS
 10
0.5970773068
 20
-35.75036476
 11
0.5845773068
 21
-35.7611900776
  0
LINE
  5
2B6
100
AcDbEntity
  8
RACCORDO
100
AcDbLine
 62
250
  6
CONTINUOUS
 10
67.9289024629
 20
15.2446538519
 11
67.3039024629
 21
14.7033879746
  0
LINE
  5
2B7
100
AcDbEntity
  8
RACCORDO
100
AcDbLine
 62
250
  6
CONTINUOUS
 10
62.473775444
 20
18.9844768878
 11
-63.9659335086
 21
55.4844768878
  0
LINE
  5
2B8
100
AcDbEntity
  8
RACCORDO
100
AcDbLine
 62
250
  6
CONTINUOUS
 10
62.973775444
 20
20.2835149935
 11
-63.4659335086
 21
56.7835149935
  0
LINE
  5
2B9
100
AcDbEntity
  8
0
100
AcDbLine
 62
7
  6
CONTINUOUS
 10
63.598775444
 20
20.8247808709
 11
-62.8409335086
 21
57.3247808709
  0
LINE
  5
2BA
100
AcDbEntity
  8
RACCORDO
100
AcDbLine
 62
250
  6
CONTINUOUS
 10
65.9378770591
 20
-54.3286443282
 11
65.9378770591
 21
14.5203752727
  0
LINE
  5
2BB
100
AcDbEntity
  8
RACCORDO
100
AcDbLine
 62
250
  6
CONTINUOUS
 10
67.3039024629
 20
-54.1456316263
 11
67.3039024629
 21
14.7033879746
  0
LINE
  5
2BC
100
AcDbEntity
  8
0
100
AcDbLine
 62
7
  6
CONTINUOUS
 10
67.9289024629
 20
-53.6043657489
 11
67.9289024629
 21
15.2446538519
  0
LINE
  5
2BD
100
AcDbEntity
  8
RACCORDO
100
AcDbLine
 62
250
  6
CONTINUOUS
 10
67.9289024629
 20
-53.6043657489
 11
67.3039024629
 21
-54.1456316263
  0
LINE
  5
2BE
100
AcDbEntity
  8
ASSI
100
AcDbLine
 62
7
  6
CONTINUOUS
 10
66.8720437975
 20
-56.134010479
 11
66.2470437975
 21
-56.6752763564
  0
ARC
  5
2BF
100
AcDbEntity
  8
0
100
AcDbCircle
 62
7
  6
CONTINUOUS
 10
2.4036175614
 20
-1.9185678417
 40
0.3497026613
100
AcDbArc
 50
49.7161527559
 51
55.4234536064
  0
SPLINE
  5
2C0
100
AcDbEntity
  8
0
100
AcDbSpline
 62
7
  6
CONTINUOUS
 70
0
 71
3
 72
14
 73
10
 74
0
 42
0.0000001
 43
0.0000001
 44
0.0000000001
 40
0.0
 40
0.0
 40
0.0
 40
0.0
 40
0.2564723764
 40
0.3945423588
 40
0.5316430772
 40
0.662631651
 40
0.7840108429
 40
0.8953103479
 40
1.0
 40
1.0
 40
1.0
 40
1.0
 10
-58.336768384
 20
46.0652482538
 30
0.0
 10
-58.336768384
 20
46.3454431639
 30
0.0
 10
-58.4763234615
 20
46.7801815563
 30
0.0
 10
-58.8257187824
 20
47.2464928049
 30
0.0
 10
-59.1667150818
 20
47.5373045823
 30
0.0
 10
-59.5501329142
 20
47.7315177078
 30
0.0
 10
-59.9450881832
 20
47.8118663005
 30
0.0
 10
-60.318358336
 20
47.7670009929
 30
0.0
 10
-60.531327982
 20
47.6490150018
 30
0.0
 10
-60.6177862692
 20
47.5741408335
 30
0.0
  0
SPLINE
  5
2C1
100
AcDbEntity
  8
0
100
AcDbSpline
 62
7
  6
CONTINUOUS
 70
0
 71
3
 72
10
 73
6
 74
0
 42
0.0000001
 43
0.0000001
 44
0.0000000001
 40
0.0
 40
0.0
 40
0.0
 40
0.0
 40
0.5183193944
 40
0.7619787106
 40
1.0
 40
1.0
 40
1.0
 40
1.0
 10
59.4426865307
 20
12.0652482538
 30
0.0
 10
59.4426865307
 20
11.9192849674
 30
0.0
 10
59.405226013
 20
11.7002552387
 30
0.0
 10
59.2684804991
 20
11.4518626234
 30
0.0
 10
59.1762975392
 20
11.3502360748
 30
0.0
 10
59.1256282046
 20
11.3063556741
 30
0.0
  0
SPLINE
  5
2C2
100
AcDbEntity
  8
0
100
AcDbSpline
 62
7
  6
CONTINUOUS
 70
0
 71
3
 72
10
 73
6
 74
0
 42
0.0000001
 43
0.0000001
 44
0.0000000001
 40
0.0
 40
0.0
 40
0.0
 40
0.0
 40
0.5183193944
 40
0.7619787106
 40
1.0
 40
1.0
 40
1.0
 40
1.0
 10
-58.336768384
 20
-14.1235173093
 30
0.0
 10
-58.336768384
 20
-14.2694805956
 30
0.0
 10
-58.3742289017
 20
-14.4885103244
 30
0.0
 10
-58.5109744156
 20
-14.7369029396
 30
0.0
 10
-58.6031573755
 20
-14.8385294882
 30
0.0
 10
-58.6538267101
 20
-14.882409889
 30
0.0
  0
SPLINE
  5
2C3
100
AcDbEntity
  8
0
100
AcDbSpline
 62
7
  6
CONTINUOUS
 70
0
 71
3
 72
14
 73
10
 74
0
 42
0.0000001
 43
0.0000001
 44
0.0000000001
 40
0.0
 40
0.0
 40
0.0
 40
0.0
 40
0.2564723764
 40
0.3945423588
 40
0.5316430772
 40
0.662631651
 40
0.7840108429
 40
0.8953103479
 40
1.0
 40
1.0
 40
1.0
 40
1.0
 10
59.4426865307
 20
-48.1235173093
 30
0.0
 10
59.4426865307
 20
-47.8433223992
 30
0.0
 10
59.3031314532
 20
-47.4085840067
 30
0.0
 10
58.9537361323
 20
-46.9422727581
 30
0.0
 10
58.6127398328
 20
-46.6514609807
 30
0.0
 10
58.2293220005
 20
-46.4572478552
 30
0.0
 10
57.8343667315
 20
-46.3768992626
 30
0.0
 10
57.4610965787
 20
-46.4217645701
 30
0.0
 10
57.2481269327
 20
-46.5397505613
 30
0.0
 10
57.1616686455
 20
-46.6146247296
 30
0.0
  0
SPLINE
  5
2C4
100
AcDbEntity
  8
0
100
AcDbSpline
 62
7
  6
CONTINUOUS
 70
0
 71
3
 72
14
 73
10
 74
0
 42
0.0000001
 43
0.0000001
 44
0.0000000001
 40
0.0
 40
0.0
 40
0.0
 40
0.0
 40
0.2564723764
 40
0.3945423588
 40
0.5316430772
 40
0.662631651
 40
0.7840108429
 40
0.8953103479
 40
1.0
 40
1.0
 40
1.0
 40
1.0
 10
-17.2005617042
 20
34.1902482538
 30
0.0
 10
-17.2005617042
 20
34.4704431639
 30
0.0
 10
-17.3401167818
 20
34.9051815563
 30
0.0
 10
-17.6895121026
 20
35.3714928049
 30
0.0
 10
-18.0305084021
 20
35.6623045823
 30
0.0
 10
-18.4139262345
 20
35.8565177078
 30
0.0
 10
-18.8088815034
 20
35.9368663005
 30
0.0
 10
-19.1821516562
 20
35.8920009929
 30
0.0
 10
-19.3951213023
 20
35.7740150018
 30
0.0
 10
-19.4815795894
 20
35.6991408335
 30
0.0
  0
SPLINE
  5
2C5
100
AcDbEntity
  8
0
100
AcDbSpline
 62
7
  6
CONTINUOUS
 70
0
 71
3
 72
14
 73
10
 74
0
 42
0.0000001
 43
0.0000001
 44
0.0000000001
 40
0.0
 40
0.0
 40
0.0
 40
0.0
 40
0.2564723764
 40
0.3945423588
 40
0.5316430772
 40
0.662631651
 40
0.7840108429
 40
0.8953103479
 40
1.0
 40
1.0
 40
1.0
 40
1.0
 10
18.306479851
 20
-36.2485173093
 30
0.0
 10
18.306479851
 20
-35.9683223992
 30
0.0
 10
18.1669247734
 20
-35.5335840067
 30
0.0
 10
17.8175294525
 20
-35.0672727581
 30
0.0
 10
17.4765331531
 20
-34.7764609807
 30
0.0
 10
17.0931153207
 20
-34.5822478552
 30
0.0
 10
16.6981600517
 20
-34.5018992626
 30
0.0
 10
16.3248898989
 20
-34.5467645701
 30
0.0
 10
16.1119202529
 20
-34.6647505613
 30
0.0
 10
16.0254619657
 20
-34.7396247296
 30
0.0
  0
SPLINE
  5
2C6
100
AcDbEntity
  8
0
100
AcDbSpline
 62
7
  6
CONTINUOUS
 70
0
 71
3
 72
13
 73
9
 74
0
 42
0.0000001
 43
0.0000001
 44
0.0000000001
 40
0.0
 40
0.0
 40
0.0
 40
0.0
 40
0.2376483345
 40
0.3645776826
 40
0.494404961
 40
0.6250313011
 40
0.7542742149
 40
1.0
 40
1.0
 40
1.0
 40
1.0
 10
67.9289024629
 20
15.2446538519
 30
0.0
 10
67.9289024629
 20
15.8389707443
 30
0.0
 10
67.7405658373
 20
16.7563921253
 30
0.0
 10
67.2168201002
 20
17.87880794
 30
0.0
 10
66.6783731468
 20
18.6889757961
 30
0.0
 10
66.0232227908
 20
19.4156300583
 30
0.0
 10
65.0466990143
 20
20.2224928638
 30
0.0
 10
64.1891844556
 20
20.6543444699
 30
0.0
 10
63.598775444
 20
20.8247808709
 30
0.0
  0
SPLINE
  5
2C7
100
AcDbEntity
  8
0
100
AcDbSpline
 62
7
  6
CONTINUOUS
 70
0
 71
3
 72
11
 73
7
 74
0
 42
0.0000001
 43
0.0000001
 44
0.0000000001
 40
0.0
 40
0.0
 40
0.0
 40
0.0
 40
0.2709659513
 40
0.5256491879
 40
0.7667315201
 40
1.0
 40
1.0
 40
1.0
 40
1.0
 10
-62.8409335086
 20
57.3247808709
 30
0.0
 10
-63.1405987032
 20
57.4112867613
 30
0.0
 10
-63.7402784718
 20
57.5240201653
 30
0.0
 10
-64.6303740255
 20
57.4910544817
 30
0.0
 10
-65.4438809652
 20
57.2489891596
 30
0.0
 10
-65.9112260372
 20
56.950076415
 30
0.0
 10
-66.1142013702
 20
56.7742980136
 30
0.0
  0
SPLINE
  5
2C8
100
AcDbEntity
  8
0
100
AcDbSpline
 62
7
  6
CONTINUOUS
 70
0
 71
3
 72
11
 73
7
 74
0
 42
0.0000001
 43
0.0000001
 44
0.0000000001
 40
0.0
 40
0.0
 40
0.0
 40
0.0
 40
0.2340396732
 40
0.4799169787
 40
0.735448245
 40
1.0
 40
1.0
 40
1.0
 40
1.0
 10
0.2923220018
 20
-34.6317314241
 30
0.0
 10
0.2614801208
 20
-34.6584412759
 30
0.0
 10
0.2083121837
 20
-34.726309431
 30
0.0
 10
0.1700445244
 20
-34.8499565831
 30
0.0
 10
0.1455346769
 20
-34.9813238312
 30
0.0
 10
0.1414604949
 20
-35.0722294466
 30
0.0
 10
0.1414604949
 20
-35.1183485697
 30
0.0
  0
SPLINE
  5
2C9
100
AcDbEntity
  8
0
100
AcDbSpline
 62
7
  6
CONTINUOUS
 70
0
 71
3
 72
11
 73
7
 74
0
 42
0.0000001
 43
0.0000001
 44
0.0000000001
 40
0.0
 40
0.0
 40
0.0
 40
0.0
 40
0.2348764443
 40
0.4745881015
 40
0.7292814196
 40
1.0
 40
1.0
 40
1.0
 40
1.0
 10
0.4211628172
 20
-34.7616552031
 30
0.0
 10
0.431431954
 20
-34.7527618756
 30
0.0
 10
0.4541565887
 20
-34.7368176894
 30
0.0
 10
0.4946795129
 20
-34.7229298174
 30
0.0
 10
0.5393941334
 20
-34.7216559085
 30
0.0
 10
0.5695337549
 20
-34.7269979731
 30
0.0
 10
0.5845773068
 20
-34.7313406725
 30
0.0
  0
SPLINE
  5
2CA
100
AcDbEntity
  8
RACCORDO
100
AcDbSpline
 62
7
  6
CONTINUOUS
 70
0
 71
3
 72
14
 73
10
 74
0
 42
0.0000001
 43
0.0000001
 44
0.0000000001
 40
0.0
 40
0.0
 40
0.0
 40
0.0
 40
0.1193648007
 40
0.2424083415
 40
0.3685675384
 40
0.4967431483
 40
0.6254924639
 40
0.7532760139
 40
1.0
 40
1.0
 40
1.0
 40
1.0
 10
-67.9300351237
 20
-15.3956316263
 30
0.0
 10
-67.9300351237
 20
-15.6858795194
 30
0.0
 10
-67.8723495761
 20
-16.2764546851
 30
0.0
 10
-67.6305892061
 20
-17.1434879726
 30
0.0
 10
-67.2442272862
 20
-17.9800240033
 30
0.0
 10
-66.7282416743
 20
-18.7595878373
 30
0.0
 10
-66.0997942316
 20
-19.4576929309
 30
0.0
 10
-65.154063622
 20
-20.238090842
 30
0.0
 10
-64.3196824736
 20
-20.6541101438
 30
0.0
 10
-63.7432836067
 20
-20.8205021643
 30
0.0
  0
SPLINE
  5
2CB
100
AcDbEntity
  8
RACCORDO
100
AcDbSpline
 62
7
  6
CONTINUOUS
 70
0
 71
3
 72
11
 73
7
 74
0
 42
0.0000001
 43
0.0000001
 44
0.0000000001
 40
0.0
 40
0.0
 40
0.0
 40
0.0
 40
0.2445017121
 40
0.4912365723
 40
0.7424208419
 40
1.0
 40
1.0
 40
1.0
 40
1.0
 10
-66.7392018621
 20
56.2330327047
 30
0.0
 10
-66.9310525641
 20
56.066885123
 30
0.0
 10
-67.2783494893
 20
55.6860437815
 30
0.0
 10
-67.6562642916
 20
55.0072362364
 30
0.0
 10
-67.8823896429
 20
54.2504666066
 30
0.0
 10
-67.9300351237
 20
53.7207570854
 30
0.0
 10
-67.9300351237
 20
53.4533879746
 30
0.0
  0
SPLINE
  5
2CC
100
AcDbEntity
  8
RACCORDO
100
AcDbSpline
 62
7
  6
CONTINUOUS
 70
0
 71
3
 72
11
 73
7
 74
0
 42
0.0000001
 43
0.0000001
 44
0.0000000001
 40
0.0
 40
0.0
 40
0.0
 40
0.0
 40
0.2603472959
 40
0.512130438
 40
0.7576587747
 40
1.0
 40
1.0
 40
1.0
 40
1.0
 10
62.6964253459
 20
-57.3205021643
 30
0.0
 10
63.0094865579
 20
-57.4108751518
 30
0.0
 10
63.645498195
 20
-57.5277808232
 30
0.0
 10
64.6017148787
 20
-57.4844972121
 30
0.0
 10
65.4966755521
 20
-57.2098471661
 30
0.0
 10
66.0177641426
 20
-56.8738383621
 30
0.0
 10
66.2470437975
 20
-56.6752763564
 30
0.0
  0
SPLINE
  5
2CD
100
AcDbEntity
  8
0
100
AcDbSpline
 62
7
  6
CONTINUOUS
 70
0
 71
3
 72
14
 73
10
 74
0
 42
0.0000001
 43
0.0000001
 44
0.0000000001
 40
0.0
 40
0.0
 40
0.0
 40
0.0
 40
0.1046896521
 40
0.2159891571
 40
0.337368349
 40
0.4683569228
 40
0.6054576412
 40
0.7435276236
 40
1.0
 40
1.0
 40
1.0
 40
1.0
 10
-60.6177862692
 20
-12.6146247296
 30
0.0
 10
-60.531327982
 20
-12.5397505613
 30
0.0
 10
-60.318358336
 20
-12.4217645701
 30
0.0
 10
-59.9450881832
 20
-12.3768992626
 30
0.0
 10
-59.5501329142
 20
-12.4572478552
 30
0.0
 10
-59.1667150818
 20
-12.6514609807
 30
0.0
 10
-58.8257187824
 20
-12.9422727581
 30
0.0
 10
-58.4763234615
 20
-13.4085840067
 30
0.0
 10
-58.336768384
 20
-13.8433223992
 30
0.0
 10
-58.336768384
 20
-14.1235173093
 30
0.0
  0
SPLINE
  5
2CE
100
AcDbEntity
  8
0
100
AcDbSpline
 62
7
  6
CONTINUOUS
 70
0
 71
3
 72
10
 73
6
 74
0
 42
0.0000001
 43
0.0000001
 44
0.0000000001
 40
0.0
 40
0.0
 40
0.0
 40
0.0
 40
0.2380212894
 40
0.4816806056
 40
1.0
 40
1.0
 40
1.0
 40
1.0
 10
17.9894215248
 20
-37.007409889
 30
0.0
 10
18.0400908595
 20
-36.9635294882
 30
0.0
 10
18.1322738193
 20
-36.8619029396
 30
0.0
 10
18.2690193333
 20
-36.6135103244
 30
0.0
 10
18.306479851
 20
-36.3944805956
 30
0.0
 10
18.306479851
 20
-36.2485173093
 30
0.0
  0
SPLINE
  5
2CF
100
AcDbEntity
  8
0
100
AcDbSpline
 62
7
  6
CONTINUOUS
 70
0
 71
3
 72
10
 73
6
 74
0
 42
0.0000001
 43
0.0000001
 44
0.0000000001
 40
0.0
 40
0.0
 40
0.0
 40
0.0
 40
0.2380212894
 40
0.4816806056
 40
1.0
 40
1.0
 40
1.0
 40
1.0
 10
-17.5176200303
 20
33.4313556741
 30
0.0
 10
-17.4669506957
 20
33.4752360748
 30
0.0
 10
-17.3747677359
 20
33.5768626234
 30
0.0
 10
-17.2380222219
 20
33.8252552387
 30
0.0
 10
-17.2005617042
 20
34.0442849674
 30
0.0
 10
-17.2005617042
 20
34.1902482538
 30
0.0
  0
SPLINE
  5
2D0
100
AcDbEntity
  8
0
100
AcDbSpline
 62
7
  6
CONTINUOUS
 70
0
 71
3
 72
10
 73
6
 74
0
 42
0.0000001
 43
0.0000001
 44
0.0000000001
 40
0.0
 40
0.0
 40
0.0
 40
0.0
 40
0.2380212894
 40
0.4816806056
 40
1.0
 40
1.0
 40
1.0
 40
1.0
 10
59.1256282046
 20
-48.882409889
 30
0.0
 10
59.1762975392
 20
-48.8385294882
 30
0.0
 10
59.2684804991
 20
-48.7369029396
 30
0.0
 10
59.405226013
 20
-48.4885103244
 30
0.0
 10
59.4426865307
 20
-48.2694805956
 30
0.0
 10
59.4426865307
 20
-48.1235173093
 30
0.0
  0
SPLINE
  5
2D1
100
AcDbEntity
  8
0
100
AcDbSpline
 62
7
  6
CONTINUOUS
 70
0
 71
3
 72
14
 73
10
 74
0
 42
0.0000001
 43
0.0000001
 44
0.0000000001
 40
0.0
 40
0.0
 40
0.0
 40
0.0
 40
0.1046896521
 40
0.2159891571
 40
0.337368349
 40
0.4683569228
 40
0.6054576412
 40
0.7435276236
 40
1.0
 40
1.0
 40
1.0
 40
1.0
 10
57.1616686455
 20
13.5741408335
 30
0.0
 10
57.2481269327
 20
13.6490150018
 30
0.0
 10
57.4610965787
 20
13.7670009929
 30
0.0
 10
57.8343667315
 20
13.8118663005
 30
0.0
 10
58.2293220005
 20
13.7315177078
 30
0.0
 10
58.6127398328
 20
13.5373045823
 30
0.0
 10
58.9537361323
 20
13.2464928049
 30
0.0
 10
59.3031314532
 20
12.7801815563
 30
0.0
 10
59.4426865307
 20
12.3454431639
 30
0.0
 10
59.4426865307
 20
12.0652482538
 30
0.0
  0
SPLINE
  5
2D2
100
AcDbEntity
  8
0
100
AcDbSpline
 62
7
  6
CONTINUOUS
 70
0
 71
3
 72
10
 73
6
 74
0
 42
0.0000001
 43
0.0000001
 44
0.0000000001
 40
0.0
 40
0.0
 40
0.0
 40
0.0
 40
0.2380212894
 40
0.4816806056
 40
1.0
 40
1.0
 40
1.0
 40
1.0
 10
-58.6538267101
 20
45.3063556741
 30
0.0
 10
-58.6031573755
 20
45.3502360748
 30
0.0
 10
-58.5109744156
 20
45.4518626234
 30
0.0
 10
-58.3742289017
 20
45.7002552387
 30
0.0
 10
-58.336768384
 20
45.9192849674
 30
0.0
 10
-58.336768384
 20
46.0652482538
 30
0.0
  0
SPLINE
  5
2D3
100
AcDbEntity
  8
0
100
AcDbSpline
 62
7
  6
CONTINUOUS
 70
0
 71
3
 72
11
 73
7
 74
0
 42
0.0000001
 43
0.0000001
 44
0.0000000001
 40
0.0
 40
0.0
 40
0.0
 40
0.0
 40
0.2374168938
 40
0.4804565281
 40
0.7336967226
 40
1.0
 40
1.0
 40
1.0
 40
1.0
 10
66.8720433057
 20
-56.1340099106
 30
0.0
 10
67.0409416336
 20
-55.9877424916
 30
0.0
 10
67.3482201045
 20
-55.6492211037
 30
0.0
 10
67.6834727871
 20
-55.039088213
 30
0.0
 10
67.8863647538
 20
-54.3454139014
 30
0.0
 10
67.9289024629
 20
-53.8549799485
 30
0.0
 10
67.9289024629
 20
-53.6043657489
 30
0.0
  0
SPLINE
  5
2D4
100
AcDbEntity
  8
0
100
AcDbSpline
 62
7
  6
CONTINUOUS
 70
0
 71
3
 72
13
 73
9
 74
0
 42
0.0000001
 43
0.0000001
 44
0.0000000001
 40
0.0
 40
0.0
 40
0.0
 40
0.0
 40
0.1318867532
 40
0.2595678196
 40
0.3844562447
 40
0.5084473404
 40
0.7551143134
 40
1.0
 40
1.0
 40
1.0
 40
1.0
 10
2.5895761832
 20
-1.6299460488
 30
0.0
 10
2.5965691342
 20
-1.6310624236
 30
0.0
 10
2.6107147877
 20
-1.6279195441
 30
0.0
 10
2.6302188356
 20
-1.6217702297
 30
0.0
 10
2.6492177046
 20
-1.6146540689
 30
0.0
 10
2.6732673614
 20
-1.6032428553
 30
0.0
 10
2.7015680604
 20
-1.5859904752
 30
0.0
 10
2.7225230213
 20
-1.5698517484
 30
0.0
 10
2.7324626124
 20
-1.5612438098
 30
0.0
  0
SPLINE
  5
2D5
100
AcDbEntity
  8
0
100
AcDbSpline
 62
7
  6
CONTINUOUS
 70
0
 71
3
 72
11
 73
7
 74
0
 42
0.0000001
 43
0.0000001
 44
0.0000000001
 40
0.0
 40
0.0
 40
0.0
 40
0.0
 40
0.2509902286
 40
0.5009356852
 40
0.7505820716
 40
1.0
 40
1.0
 40
1.0
 40
1.0
 10
2.3940034943
 20
-1.9036659177
 30
0.0
 10
2.4118980292
 20
-1.9564632318
 30
0.0
 10
2.4406929979
 20
-2.0640464178
 30
0.0
 10
2.4855661727
 20
-2.2245632557
 30
0.0
 10
2.5289704623
 20
-2.3851767917
 30
0.0
 10
2.557625084
 20
-2.4922534903
 30
0.0
 10
2.5718393503
 20
-2.5457970314
 30
0.0
  0
SPLINE
  5
2D6
100
AcDbEntity
  8
0
100
AcDbSpline
 62
7
  6
CONTINUOUS
 70
0
 71
3
 72
9
 73
5
 74
0
 42
0.0000001
 43
0.0000001
 44
0.0000000001
 40
0.0
 40
0.0
 40
0.0
 40
0.0
 40
0.4944561017
 40
1.0
 40
1.0
 40
1.0
 40
1.0
 10
2.1671064482
 20
-1.6664960481
 30
0.0
 10
2.220657333
 20
-1.681954857
 30
0.0
 10
2.3208034409
 20
-1.7471204624
 30
0.0
 10
2.3757266194
 20
-1.8496888902
 30
0.0
 10
2.3940034943
 20
-1.9036659177
 30
0.0
  0
SPLINE
  5
2D7
100
AcDbEntity
  8
0
100
AcDbSpline
 62
7
  6
CONTINUOUS
 70
0
 71
3
 72
10
 73
6
 74
0
 42
0.0000001
 43
0.0000001
 44
0.0000000001
 40
0.0
 40
0.0
 40
0.0
 40
0.0
 40
0.5210814045
 40
0.7643435216
 40
1.0
 40
1.0
 40
1.0
 40
1.0
 10
2.4839003085
 20
-1.1360908616
 30
0.0
 10
2.4844469526
 20
-1.1716753247
 30
0.0
 10
2.4806091647
 20
-1.2250105346
 30
0.0
 10
2.4531082007
 20
-1.2883310946
 30
0.0
 10
2.4315165343
 20
-1.3136967242
 30
0.0
 10
2.4193500135
 20
-1.3242332424
 30
0.0
  0
SPLINE
  5
2D8
100
AcDbEntity
  8
0
100
AcDbSpline
 62
7
  6
CONTINUOUS
 70
0
 71
3
 72
11
 73
7
 74
0
 42
0.0000001
 43
0.0000001
 44
0.0000000001
 40
0.0
 40
0.0
 40
0.0
 40
0.0
 40
0.2507593195
 40
0.51157245
 40
0.7646208374
 40
1.0
 40
1.0
 40
1.0
 40
1.0
 10
2.2541688756
 20
-0.8262203883
 30
0.0
 10
2.2856298764
 20
-0.8389550119
 30
0.0
 10
2.3460669857
 20
-0.8745716202
 30
0.0
 10
2.4207948546
 20
-0.9478503989
 30
0.0
 10
2.4705270036
 20
-1.0379819831
 30
0.0
 10
2.4834043197
 20
-1.1042358347
 30
0.0
 10
2.4839003085
 20
-1.1360908616
 30
0.0
  0
SPLINE
  5
2D9
100
AcDbEntity
  8
0
100
AcDbSpline
 62
7
  6
CONTINUOUS
 70
0
 71
3
 72
9
 73
5
 74
0
 42
0.0000001
 43
0.0000001
 44
0.0000000001
 40
0.0
 40
0.0
 40
0.0
 40
0.0
 40
0.4895462082
 40
1.0
 40
1.0
 40
1.0
 40
1.0
 10
1.9355633455
 20
-0.7457159333
 30
0.0
 10
1.9889581824
 20
-0.7520186969
 30
0.0
 10
2.0977516474
 20
-0.7696500559
 30
0.0
 10
2.2022023457
 20
-0.8051870515
 30
0.0
 10
2.2541688756
 20
-0.8262203883
 30
0.0
  0
SPLINE
  5
2DA
100
AcDbEntity
  8
0
100
AcDbSpline
 62
7
  6
CONTINUOUS
 70
0
 71
3
 72
9
 73
5
 74
0
 42
0.0000001
 43
0.0000001
 44
0.0000000001
 40
0.0
 40
0.0
 40
0.0
 40
0.0
 40
0.522593629
 40
1.0
 40
1.0
 40
1.0
 40
1.0
 10
-1.2158937112
 20
-34.4478805801
 30
0.0
 10
-1.2158937112
 20
-34.4748863196
 30
0.0
 10
-1.2204448994
 20
-34.5270145868
 30
0.0
 10
-1.2474380441
 20
-34.5747233399
 30
0.0
 10
-1.2660872855
 20
-34.5908740548
 30
0.0
  0
SPLINE
  5
2DB
100
AcDbEntity
  8
0
100
AcDbSpline
 62
7
  6
CONTINUOUS
 70
0
 71
3
 72
12
 73
8
 74
0
 42
0.0000001
 43
0.0000001
 44
0.0000000001
 40
0.0
 40
0.0
 40
0.0
 40
0.0
 40
0.242962548
 40
0.4987252754
 40
0.7576609038
 40
0.8831246793
 40
1.0
 40
1.0
 40
1.0
 40
1.0
 10
-1.4657733822
 20
-34.1467715621
 30
0.0
 10
-1.4329046446
 20
-34.1562598146
 30
0.0
 10
-1.3681854333
 20
-34.1843544969
 30
0.0
 10
-1.2785201924
 20
-34.2462469688
 30
0.0
 10
-1.2340154846
 20
-34.3283257858
 30
0.0
 10
-1.2174788372
 20
-34.3971580005
 30
0.0
 10
-1.2158937112
 20
-34.4314237159
 30
0.0
 10
-1.2158937112
 20
-34.4478805801
 30
0.0
  0
SPLINE
  5
2DC
100
AcDbEntity
  8
0
100
AcDbSpline
 62
7
  6
CONTINUOUS
 70
0
 71
3
 72
11
 73
7
 74
0
 42
0.0000001
 43
0.0000001
 44
0.0000000001
 40
0.0
 40
0.0
 40
0.0
 40
0.0
 40
0.2698021794
 40
0.5263429231
 40
0.7683377091
 40
1.0
 40
1.0
 40
1.0
 40
1.0
 10
-1.4241547584
 20
-34.7693628581
 30
0.0
 10
-1.396485751
 20
-34.777350354
 30
0.0
 10
-1.341088492
 20
-34.7884603845
 30
0.0
 10
-1.2586756906
 20
-34.7905599533
 30
0.0
 10
-1.1812263047
 20
-34.7748166286
 30
0.0
 10
-1.1370346864
 20
-34.747831347
 30
0.0
 10
-1.1183422427
 20
-34.7316432148
 30
0.0
  0
SPLINE
  5
2DD
100
AcDbEntity
  8
0
100
AcDbSpline
 62
7
  6
CONTINUOUS
 70
0
 71
3
 72
13
 73
9
 74
0
 42
0.0000001
 43
0.0000001
 44
0.0000000001
 40
0.0
 40
0.0
 40
0.0
 40
0.0
 40
0.2632097402
 40
0.5182303764
 40
0.6432023487
 40
0.766092778
 40
0.8843261356
 40
1.0
 40
1.0
 40
1.0
 40
1.0
 10
0.8548197719
 20
-35.324277655
 30
0.0
 10
0.8548197719
 20
-35.3620874053
 30
0.0
 10
0.8535214052
 20
-35.4366483358
 30
0.0
 10
0.8397596706
 20
-35.5283005697
 30
0.0
 10
0.8229814644
 20
-35.5985843731
 30
0.0
 10
0.8069878001
 20
-35.6487868128
 30
0.0
 10
0.7834207873
 20
-35.694761514
 30
0.0
 10
0.7605526222
 20
-35.7199975597
 30
0.0
 10
0.7479917963
 20
-35.7308755469
 30
0.0
  0
SPLINE
  5
2DE
100
AcDbEntity
  8
0
100
AcDbSpline
 62
7
  6
CONTINUOUS
 70
0
 71
3
 72
15
 73
11
 74
0
 42
0.0000001
 43
0.0000001
 44
0.0000000001
 40
0.0
 40
0.0
 40
0.0
 40
0.0
 40
0.1257258711
 40
0.2585035536
 40
0.3914435232
 40
0.5192789747
 40
0.6436256855
 40
0.7648036705
 40
0.8836287261
 40
1.0
 40
1.0
 40
1.0
 40
1.0
 10
0.5845773068
 20
-34.7313406725
 30
0.0
 10
0.6125946392
 20
-34.7394285797
 30
0.0
 10
0.6677665938
 20
-34.7661565812
 30
0.0
 10
0.7334342227
 20
-34.830463646
 30
0.0
 10
0.7828520446
 20
-34.9080700219
 30
0.0
 10
0.8140512638
 20
-34.9922926148
 30
0.0
 10
0.8330992501
 20
-35.0768617498
 30
0.0
 10
0.8468908504
 20
-35.1602809177
 30
0.0
 10
0.8544080766
 20
-35.2427010385
 30
0.0
 10
0.8548197719
 20
-35.2972860337
 30
0.0
 10
0.8548197719
 20
-35.324277655
 30
0.0
  0
SPLINE
  5
2DF
100
AcDbEntity
  8
0
100
AcDbSpline
 62
7
  6
CONTINUOUS
 70
0
 71
3
 72
11
 73
7
 74
0
 42
0.0000001
 43
0.0000001
 44
0.0000000001
 40
0.0
 40
0.0
 40
0.0
 40
0.0
 40
0.2706354682
 40
0.526581396
 40
0.7677179388
 40
1.0
 40
1.0
 40
1.0
 40
1.0
 10
0.5845773068
 20
-35.9064965307
 30
0.0
 10
0.6112745701
 20
-35.9142033668
 30
0.0
 10
0.6647327061
 20
-35.9245628209
 30
0.0
 10
0.744188794
 20
-35.9235210177
 30
0.0
 10
0.8174219808
 20
-35.9034883771
 30
0.0
 10
0.8588041058
 20
-35.8764124696
 30
0.0
 10
0.8768326117
 20
-35.8607993259
 30
0.0
  0
SPLINE
  5
2E0
100
AcDbEntity
  8
0
100
AcDbSpline
 62
7
  6
CONTINUOUS
 70
0
 71
3
 72
13
 73
9
 74
0
 42
0.0000001
 43
0.0000001
 44
0.0000000001
 40
0.0
 40
0.0
 40
0.0
 40
0.0
 40
0.1163532659
 40
0.2358010896
 40
0.4840643634
 40
0.614794508
 40
0.7473782828
 40
1.0
 40
1.0
 40
1.0
 40
1.0
 10
0.1414604949
 20
-35.1183485697
 30
0.0
 10
0.1414604949
 20
-35.1559106028
 30
0.0
 10
0.1441450427
 20
-35.2321516597
 30
0.0
 10
0.1651647644
 20
-35.3869273836
 30
0.0
 10
0.2044675891
 20
-35.5451763236
 30
0.0
 10
0.2861884008
 20
-35.6899143032
 30
0.0
 10
0.3932102145
 20
-35.8185306949
 30
0.0
 10
0.5062234925
 20
-35.8838777328
 30
0.0
 10
0.5845773068
 20
-35.9064965307
 30
0.0
  0
SPLINE
  5
2E1
100
AcDbEntity
  8
0
100
AcDbSpline
 62
7
  6
CONTINUOUS
 70
0
 71
3
 72
14
 73
10
 74
0
 42
0.0000001
 43
0.0000001
 44
0.0000000001
 40
0.0
 40
0.0
 40
0.0
 40
0.0
 40
0.2564723764
 40
0.3945423588
 40
0.5316430772
 40
0.662631651
 40
0.7840108429
 40
0.8953103479
 40
1.0
 40
1.0
 40
1.0
 40
1.0
 10
-60.9348445953
 20
46.8152482538
 30
0.0
 10
-60.9348445953
 20
46.5350533437
 30
0.0
 10
-60.7952895177
 20
46.1003149512
 30
0.0
 10
-60.4458941969
 20
45.6340037026
 30
0.0
 10
-60.1048978974
 20
45.3431919252
 30
0.0
 10
-59.721480065
 20
45.1489787997
 30
0.0
 10
-59.3265247961
 20
45.0686302071
 30
0.0
 10
-58.9532546433
 20
45.1134955146
 30
0.0
 10
-58.7402849972
 20
45.2314815058
 30
0.0
 10
-58.6538267101
 20
45.3063556741
 30
0.0
  0
SPLINE
  5
2E2
100
AcDbEntity
  8
0
100
AcDbSpline
 62
7
  6
CONTINUOUS
 70
0
 71
3
 72
10
 73
6
 74
0
 42
0.0000001
 43
0.0000001
 44
0.0000000001
 40
0.0
 40
0.0
 40
0.0
 40
0.0
 40
0.5183193944
 40
0.7619787106
 40
1.0
 40
1.0
 40
1.0
 40
1.0
 10
56.8446103194
 20
12.8152482538
 30
0.0
 10
56.8446103194
 20
12.9612115401
 30
0.0
 10
56.8820708371
 20
13.1802412688
 30
0.0
 10
57.018816351
 20
13.4286338841
 30
0.0
 10
57.1109993109
 20
13.5302604327
 30
0.0
 10
57.1616686455
 20
13.5741408335
 30
0.0
  0
SPLINE
  5
2E3
100
AcDbEntity
  8
0
100
AcDbSpline
 62
7
  6
CONTINUOUS
 70
0
 71
3
 72
10
 73
6
 74
0
 42
0.0000001
 43
0.0000001
 44
0.0000000001
 40
0.0
 40
0.0
 40
0.0
 40
0.0
 40
0.5183193944
 40
0.7619787106
 40
1.0
 40
1.0
 40
1.0
 40
1.0
 10
-60.9348445953
 20
-13.3735173093
 30
0.0
 10
-60.9348445953
 20
-13.227554023
 30
0.0
 10
-60.8973840776
 20
-13.0085242942
 30
0.0
 10
-60.7606385636
 20
-12.7601316789
 30
0.0
 10
-60.6684556038
 20
-12.6585051303
 30
0.0
 10
-60.6177862692
 20
-12.6146247296
 30
0.0
  0
SPLINE
  5
2E4
100
AcDbEntity
  8
0
100
AcDbSpline
 62
7
  6
CONTINUOUS
 70
0
 71
3
 72
14
 73
10
 74
0
 42
0.0000001
 43
0.0000001
 44
0.0000000001
 40
0.0
 40
0.0
 40
0.0
 40
0.0
 40
0.2564723764
 40
0.3945423588
 40
0.5316430772
 40
0.662631651
 40
0.7840108429
 40
0.8953103479
 40
1.0
 40
1.0
 40
1.0
 40
1.0
 10
56.8446103194
 20
-47.3735173093
 30
0.0
 10
56.8446103194
 20
-47.6537122194
 30
0.0
 10
56.9841653969
 20
-48.0884506118
 30
0.0
 10
57.3335607178
 20
-48.5547618604
 30
0.0
 10
57.6745570173
 20
-48.8455736378
 30
0.0
 10
58.0579748496
 20
-49.0397867633
 30
0.0
 10
58.4529301186
 20
-49.120135356
 30
0.0
 10
58.8262002714
 20
-49.0752700484
 30
0.0
 10
59.0391699174
 20
-48.9572840573
 30
0.0
 10
59.1256282046
 20
-48.882409889
 30
0.0
  0
SPLINE
  5
2E5
100
AcDbEntity
  8
0
100
AcDbSpline
 62
7
  6
CONTINUOUS
 70
0
 71
3
 72
14
 73
10
 74
0
 42
0.0000001
 43
0.0000001
 44
0.0000000001
 40
0.0
 40
0.0
 40
0.0
 40
0.0
 40
0.2564723764
 40
0.3945423588
 40
0.5316430772
 40
0.662631651
 40
0.7840108429
 40
0.8953103479
 40
1.0
 40
1.0
 40
1.0
 40
1.0
 10
-19.7986379155
 20
34.9402482538
 30
0.0
 10
-19.7986379155
 20
34.6600533437
 30
0.0
 10
-19.659082838
 20
34.2253149512
 30
0.0
 10
-19.3096875171
 20
33.7590037026
 30
0.0
 10
-18.9686912177
 20
33.4681919252
 30
0.0
 10
-18.5852733853
 20
33.2739787997
 30
0.0
 10
-18.1903181163
 20
33.1936302071
 30
0.0
 10
-17.8170479635
 20
33.2384955146
 30
0.0
 10
-17.6040783175
 20
33.3564815058
 30
0.0
 10
-17.5176200303
 20
33.4313556741
 30
0.0
  0
SPLINE
  5
2E6
100
AcDbEntity
  8
0
100
AcDbSpline
 62
7
  6
CONTINUOUS
 70
0
 71
3
 72
14
 73
10
 74
0
 42
0.0000001
 43
0.0000001
 44
0.0000000001
 40
0.0
 40
0.0
 40
0.0
 40
0.0
 40
0.2564723764
 40
0.3945423588
 40
0.5316430772
 40
0.662631651
 40
0.7840108429
 40
0.8953103479
 40
1.0
 40
1.0
 40
1.0
 40
1.0
 10
15.7084036396
 20
-35.4985173093
 30
0.0
 10
15.7084036396
 20
-35.7787122194
 30
0.0
 10
15.8479587172
 20
-36.2134506118
 30
0.0
 10
16.197354038
 20
-36.6797618604
 30
0.0
 10
16.5383503375
 20
-36.9705736378
 30
0.0
 10
16.9217681699
 20
-37.1647867633
 30
0.0
 10
17.3167234388
 20
-37.245135356
 30
0.0
 10
17.6899935916
 20
-37.2002700484
 30
0.0
 10
17.9029632377
 20
-37.0822840573
 30
0.0
 10
17.9894215248
 20
-37.007409889
 30
0.0
  0
SPLINE
  5
2E7
100
AcDbEntity
  8
RACCORDO
100
AcDbSpline
 62
250
  6
CONTINUOUS
 70
0
 71
3
 72
13
 73
9
 74
0
 42
0.0000001
 43
0.0000001
 44
0.0000000001
 40
0.0
 40
0.0
 40
0.0
 40
0.0
 40
0.2376483325
 40
0.364577693
 40
0.4944049645
 40
0.6250312964
 40
0.7542742203
 40
1.0
 40
1.0
 40
1.0
 40
1.0
 10
-67.4300351237
 20
-15.8286443282
 30
0.0
 10
-67.4300351237
 20
-16.3040978038
 30
0.0
 10
-67.2793654456
 20
-17.0380348213
 30
0.0
 10
-66.860368782
 20
-17.9359673465
 30
0.0
 10
-66.4296111799
 20
-18.5841015285
 30
0.0
 10
-65.9054909984
 20
-19.1654249402
 30
0.0
 10
-65.1242721046
 20
-19.8109151821
 30
0.0
 10
-64.4382606735
 20
-20.1563968354
 30
0.0
 10
-63.9659335086
 20
-20.2927459433
 30
0.0
  0
SPLINE
  5
2E8
100
AcDbEntity
  8
RACCORDO
100
AcDbSpline
 62
250
  6
CONTINUOUS
 70
0
 71
3
 72
15
 73
11
 74
0
 42
0.0000001
 43
0.0000001
 44
0.0000000001
 40
0.0
 40
0.0
 40
0.0
 40
0.0
 40
0.1369984119
 40
0.2664266372
 40
0.3892465724
 40
0.50765983
 40
0.6248108578
 40
0.7441339231
 40
0.8685703429
 40
1.0
 40
1.0
 40
1.0
 40
1.0
 10
-63.9659335086
 20
55.4844768878
 30
0.0
 10
-64.1862458844
 20
55.5480755926
 30
0.0
 10
-64.6269775753
 20
55.634392875
 30
0.0
 10
-65.2832860548
 20
55.6287709699
 30
0.0
 10
-65.8924025032
 20
55.4827387852
 30
0.0
 10
-66.4288500235
 20
55.1996238794
 30
0.0
 10
-66.8687440778
 20
54.7901588144
 30
0.0
 10
-67.192829996
 20
54.2725757732
 30
0.0
 10
-67.3891129777
 20
53.6702809651
 30
0.0
 10
-67.4300351237
 20
53.2403626636
 30
0.0
 10
-67.4300351237
 20
53.0203752727
 30
0.0
  0
SPLINE
  5
2E9
100
AcDbEntity
  8
RACCORDO
100
AcDbSpline
 62
250
  6
CONTINUOUS
 70
0
 71
3
 72
13
 73
9
 74
0
 42
0.0000001
 43
0.0000001
 44
0.0000000001
 40
0.0
 40
0.0
 40
0.0
 40
0.0
 40
0.2376483325
 40
0.364577693
 40
0.4944049645
 40
0.6250312964
 40
0.7542742203
 40
1.0
 40
1.0
 40
1.0
 40
1.0
 10
65.9378770591
 20
14.5203752727
 30
0.0
 10
65.9378770591
 20
14.9958287483
 30
0.0
 10
65.787207381
 20
15.7297657658
 30
0.0
 10
65.3682107174
 20
16.627698291
 30
0.0
 10
64.9374531154
 20
17.275832473
 30
0.0
 10
64.4133329338
 20
17.8571558847
 30
0.0
 10
63.63211404
 20
18.5026461266
 30
0.0
 10
62.9461026089
 20
18.8481277799
 30
0.0
 10
62.473775444
 20
18.9844768878
 30
0.0
  0
SPLINE
  5
2EA
100
AcDbEntity
  8
RACCORDO
100
AcDbSpline
 62
250
  6
CONTINUOUS
 70
0
 71
3
 72
15
 73
11
 74
0
 42
0.0000001
 43
0.0000001
 44
0.0000000001
 40
0.0
 40
0.0
 40
0.0
 40
0.0
 40
0.1369984119
 40
0.2664266372
 40
0.3892465724
 40
0.50765983
 40
0.6248108578
 40
0.7441339231
 40
0.8685703429
 40
1.0
 40
1.0
 40
1.0
 40
1.0
 10
62.473775444
 20
-56.7927459433
 30
0.0
 10
62.6940878198
 20
-56.8563446481
 30
0.0
 10
63.1348195108
 20
-56.9426619305
 30
0.0
 10
63.7911279902
 20
-56.9370400254
 30
0.0
 10
64.4002444386
 20
-56.7910078407
 30
0.0
 10
64.9366919589
 20
-56.5078929349
 30
0.0
 10
65.3765860133
 20
-56.0984278699
 30
0.0
 10
65.7006719314
 20
-55.5808448287
 30
0.0
 10
65.8969549131
 20
-54.9785500206
 30
0.0
 10
65.9378770591
 20
-54.5486317191
 30
0.0
 10
65.9378770591
 20
-54.3286443282
 30
0.0
  0
SPLINE
  5
2EB
100
AcDbEntity
  8
0
100
AcDbSpline
 62
7
  6
CONTINUOUS
 70
0
 71
3
 72
10
 73
6
 74
0
 42
0.0000001
 43
0.0000001
 44
0.0000000001
 40
0.0
 40
0.0
 40
0.0
 40
0.0
 40
0.2621551042
 40
0.5141591636
 40
1.0
 40
1.0
 40
1.0
 40
1.0
 10
2.5601447909
 20
-0.622943384
 30
0.0
 10
2.4826812757
 20
-0.5725957968
 30
0.0
 10
2.3185450968
 20
-0.4925201848
 30
0.0
 10
1.9825898366
 20
-0.384762228
 30
0.0
 10
1.7260221931
 20
-0.336699708
 30
0.0
 10
1.5564942707
 20
-0.3127016563
 30
0.0
  0
SPLINE
  5
2EC
100
AcDbEntity
  8
0
100
AcDbSpline
 62
7
  6
CONTINUOUS
 70
0
 71
3
 72
8
 73
4
 74
0
 42
0.0000001
 43
0.0000001
 44
0.0000000001
 40
0.0
 40
0.0
 40
0.0
 40
0.0
 40
1.0
 40
1.0
 40
1.0
 40
1.0
 10
2.9755285588
 20
-2.6478983112
 30
0.0
 10
2.9279661303
 20
-2.4590469964
 30
0.0
 10
2.8841892918
 20
-2.2692547548
 30
0.0
 10
2.8364975034
 20
-2.0804360665
 30
0.0
  0
SPLINE
  5
2ED
100
AcDbEntity
  8
0
100
AcDbSpline
 62
7
  6
CONTINUOUS
 70
0
 71
3
 72
10
 73
6
 74
0
 42
0.0000001
 43
0.0000001
 44
0.0000000001
 40
0.0
 40
0.0
 40
0.0
 40
0.0
 40
0.4870726412
 40
0.7404993504
 40
1.0
 40
1.0
 40
1.0
 40
1.0
 10
2.8364975034
 20
-2.0804360665
 30
0.0
 10
2.8172814667
 20
-2.0043532197
 30
0.0
 10
2.7878968098
 20
-1.8880181438
 30
0.0
 10
2.7162485517
 20
-1.7427055681
 30
0.0
 10
2.6616515064
 20
-1.6787914137
 30
0.0
 10
2.6297264699
 20
-1.6517969422
 30
0.0
  0
SPLINE
  5
2EE
100
AcDbEntity
  8
RACCORDO
100
AcDbSpline
 62
250
  6
CONTINUOUS
 70
0
 71
3
 72
13
 73
9
 74
0
 42
0.0000001
 43
0.0000001
 44
0.0000000001
 40
0.0
 40
0.0
 40
0.0
 40
0.0
 40
0.2376483339
 40
0.3645776942
 40
0.4944049642
 40
0.6250312949
 40
0.7542742192
 40
1.0
 40
1.0
 40
1.0
 40
1.0
 10
67.3039024629
 20
14.7033879746
 30
0.0
 10
67.3039024629
 20
15.2977048249
 30
0.0
 10
67.1155654081
 20
16.2151261159
 30
0.0
 10
66.5918195241
 20
17.3375417525
 30
0.0
 10
66.053372534
 20
18.1477094819
 30
0.0
 10
65.3982223133
 20
18.8743637445
 30
0.0
 10
64.4216987565
 20
19.6812266367
 30
0.0
 10
63.5641844048
 20
20.1130786073
 30
0.0
 10
62.973775444
 20
20.2835149935
 30
0.0
  0
SPLINE
  5
2EF
100
AcDbEntity
  8
RACCORDO
100
AcDbSpline
 62
250
  6
CONTINUOUS
 70
0
 71
3
 72
11
 73
7
 74
0
 42
0.0000001
 43
0.0000001
 44
0.0000000001
 40
0.0
 40
0.0
 40
0.0
 40
0.0
 40
0.270965861
 40
0.5256491703
 40
0.7667315398
 40
1.0
 40
1.0
 40
1.0
 40
1.0
 10
-63.4659335086
 20
56.7835149935
 30
0.0
 10
-63.7655986324
 20
56.8700208635
 30
0.0
 10
-64.3652784183
 20
56.9827536668
 30
0.0
 10
-65.2553744247
 20
56.9497890892
 30
0.0
 10
-66.0688804342
 20
56.707723257
 30
0.0
 10
-66.536229191
 20
56.4088141848
 30
0.0
 10
-66.7392014656
 20
56.2330322468
 30
0.0
  0
SPLINE
  5
2F0
100
AcDbEntity
  8
0
100
AcDbSpline
 62
250
  6
CONTINUOUS
 70
0
 71
3
 72
9
 73
5
 74
0
 42
0.0000001
 43
0.0000001
 44
0.0000000001
 40
0.0
 40
0.0
 40
0.0
 40
0.0
 40
0.4820336842
 40
1.0
 40
1.0
 40
1.0
 40
1.0
 10
-60.1281553822
 20
47.7844494565
 30
0.0
 10
-60.1882237424
 20
47.7068591028
 30
0.0
 10
-60.282341106
 20
47.5207833363
 30
0.0
 10
-60.3097948066
 20
47.3155500073
 30
0.0
 10
-60.3097948066
 20
47.21011064
 30
0.0
  0
SPLINE
  5
2F1
100
AcDbEntity
  8
0
100
AcDbSpline
 62
250
  6
CONTINUOUS
 70
0
 71
3
 72
14
 73
10
 74
0
 42
0.0000001
 43
0.0000001
 44
0.0000000001
 40
0.0
 40
0.0
 40
0.0
 40
0.0
 40
0.2528466108
 40
0.3890125691
 40
0.5252252425
 40
0.6568475315
 40
0.7803015039
 40
0.8941480305
 40
1.0
 40
1.0
 40
1.0
 40
1.0
 10
-60.3097948066
 20
47.21011064
 30
0.0
 10
-60.3097948066
 20
46.9734266121
 30
0.0
 10
-60.1993476423
 20
46.6062462068
 30
0.0
 10
-59.9177304336
 20
46.2015089732
 30
0.0
 10
-59.6397970733
 20
45.9402203884
 30
0.0
 10
-59.3222590786
 20
45.7515957838
 30
0.0
 10
-58.9880862602
 20
45.6499967476
 30
0.0
 10
-58.6621054039
 20
45.6451852045
 30
0.0
 10
-58.4620768679
 20
45.7120237656
 30
0.0
 10
-58.3758555054
 20
45.7608483749
 30
0.0
  0
SPLINE
  5
2F2
100
AcDbEntity
  8
0
100
AcDbSpline
 62
250
  6
CONTINUOUS
 70
0
 71
3
 72
14
 73
10
 74
0
 42
0.0000001
 43
0.0000001
 44
0.0000000001
 40
0.0
 40
0.0
 40
0.0
 40
0.0
 40
0.2518545308
 40
0.3874818495
 40
0.5234027158
 40
0.6551234371
 40
0.7790800071
 40
0.8936426707
 40
1.0
 40
1.0
 40
1.0
 40
1.0
 10
-60.6133979859
 20
47.0936291835
 30
0.0
 10
-60.6133979859
 20
46.8361099513
 30
0.0
 10
-60.4953947279
 20
46.4366422927
 30
0.0
 10
-60.1930385421
 20
45.9932407625
 30
0.0
 10
-59.8937884258
 20
45.704557937
 30
0.0
 10
-59.5504916462
 20
45.4923607167
 30
0.0
 10
-59.1872373846
 20
45.3721735575
 30
0.0
 10
-58.8301667959
 20
45.3547065204
 30
0.0
 10
-58.6076168428
 20
45.4176311337
 30
0.0
 10
-58.5103241962
 20
45.4662171159
 30
0.0
  0
SPLINE
  5
2F3
100
AcDbEntity
  8
0
100
AcDbSpline
 62
250
  6
CONTINUOUS
 70
0
 71
3
 72
9
 73
5
 74
0
 42
0.0000001
 43
0.0000001
 44
0.0000000001
 40
0.0
 40
0.0
 40
0.0
 40
0.0
 40
0.482033684
 40
1.0
 40
1.0
 40
1.0
 40
1.0
 10
57.6512995337
 20
13.7844494582
 30
0.0
 10
57.5912311731
 20
13.7068591043
 30
0.0
 10
57.4971138089
 20
13.5207833374
 30
0.0
 10
57.4696601081
 20
13.3155500077
 30
0.0
 10
57.4696601081
 20
13.21011064
 30
0.0
  0
SPLINE
  5
2F4
100
AcDbEntity
  8
0
100
AcDbSpline
 62
7
  6
CONTINUOUS
 70
0
 71
3
 72
9
 73
5
 74
0
 42
0.0000001
 43
0.0000001
 44
0.0000000001
 40
0.0
 40
0.0
 40
0.0
 40
0.0
 40
0.5187164809
 40
1.0
 40
1.0
 40
1.0
 40
1.0
 10
58.1916774669
 20
13.3068426241
 30
0.0
 10
58.1916774669
 20
13.3755917769
 30
0.0
 10
58.2107990258
 20
13.5094439101
 30
0.0
 10
58.2770016255
 20
13.6286458302
 30
0.0
 10
58.3187408192
 20
13.6768820789
 30
0.0
  0
SPLINE
  5
2F5
100
AcDbEntity
  8
0
100
AcDbSpline
 62
250
  6
CONTINUOUS
 70
0
 71
3
 72
14
 73
10
 74
0
 42
0.0000001
 43
0.0000001
 44
0.0000000001
 40
0.0
 40
0.0
 40
0.0
 40
0.0
 40
0.2528466108
 40
0.3890125691
 40
0.5252252425
 40
0.6568475316
 40
0.780301504
 40
0.8941480305
 40
1.0
 40
1.0
 40
1.0
 40
1.0
 10
57.4696601081
 20
13.21011064
 30
0.0
 10
57.4696601081
 20
12.973426612
 30
0.0
 10
57.5801072725
 20
12.6062462065
 30
0.0
 10
57.8617244815
 20
12.2015089726
 30
0.0
 10
58.1396578421
 20
11.9402203878
 30
0.0
 10
58.4571958372
 20
11.7515957833
 30
0.0
 10
58.7913686558
 20
11.6499967473
 30
0.0
 10
59.1173495123
 20
11.6451852047
 30
0.0
 10
59.3173780482
 20
11.7120237662
 30
0.0
 10
59.4035994107
 20
11.7608483757
 30
0.0
  0
SPLINE
  5
2F6
100
AcDbEntity
  8
0
100
AcDbSpline
 62
7
  6
CONTINUOUS
 70
0
 71
3
 72
14
 73
10
 74
0
 42
0.0000001
 43
0.0000001
 44
0.0000000001
 40
0.0
 40
0.0
 40
0.0
 40
0.0
 40
0.253865135
 40
0.3905761922
 40
0.5270680257
 40
0.6585584443
 40
0.7814697987
 40
0.8945888386
 40
1.0
 40
1.0
 40
1.0
 40
1.0
 10
58.1916774669
 20
13.3068426241
 30
0.0
 10
58.1916774669
 20
13.1598674895
 30
0.0
 10
58.2615388004
 20
12.931841823
 30
0.0
 10
58.4387751675
 20
12.6823296537
 30
0.0
 10
58.6131685663
 20
12.5227057859
 30
0.0
 10
58.8115560567
 20
12.4097285415
 30
0.0
 10
59.019139411
 20
12.3523665462
 30
0.0
 10
59.2199787668
 20
12.3566339905
 30
0.0
 10
59.3410552007
 20
12.403869904
 30
0.0
 10
59.3924493633
 20
12.4367792813
 30
0.0
  0
SPLINE
  5
2F7
100
AcDbEntity
  8
0
100
AcDbSpline
 62
250
  6
CONTINUOUS
 70
0
 71
3
 72
14
 73
10
 74
0
 42
0.0000001
 43
0.0000001
 44
0.0000000001
 40
0.0
 40
0.0
 40
0.0
 40
0.0
 40
0.2518545308
 40
0.3874818496
 40
0.5234027159
 40
0.6551234372
 40
0.7790800072
 40
0.8936426708
 40
1.0
 40
1.0
 40
1.0
 40
1.0
 10
57.1660569288
 20
13.0936291835
 30
0.0
 10
57.1660569288
 20
12.836109951
 30
0.0
 10
57.2840601871
 20
12.4366422919
 30
0.0
 10
57.5864163736
 20
11.9932407613
 30
0.0
 10
57.8856664905
 20
11.7045579357
 30
0.0
 10
58.2289632707
 20
11.4923607156
 30
0.0
 10
58.5922175328
 20
11.3721735569
 30
0.0
 10
58.9492881218
 20
11.3547065206
 30
0.0
 10
59.171838075
 20
11.4176311348
 30
0.0
 10
59.2691307214
 20
11.4662171174
 30
0.0
  0
SPLINE
  5
2F8
100
AcDbEntity
  8
0
100
AcDbSpline
 62
250
  6
CONTINUOUS
 70
0
 71
3
 72
14
 73
10
 74
0
 42
0.0000001
 43
0.0000001
 44
0.0000000001
 40
0.0
 40
0.0
 40
0.0
 40
0.0
 40
0.2528466108
 40
0.3890125691
 40
0.5252252425
 40
0.6568475316
 40
0.780301504
 40
0.8941480305
 40
1.0
 40
1.0
 40
1.0
 40
1.0
 10
-60.3097948066
 20
-12.978654923
 30
0.0
 10
-60.3097948066
 20
-13.215338951
 30
0.0
 10
-60.1993476422
 20
-13.5825193566
 30
0.0
 10
-59.9177304332
 20
-13.9872565904
 30
0.0
 10
-59.6397970726
 20
-14.2485451752
 30
0.0
 10
-59.3222590775
 20
-14.4371697797
 30
0.0
 10
-58.9880862588
 20
-14.5387688157
 30
0.0
 10
-58.6621054024
 20
-14.5435803583
 30
0.0
 10
-58.4620768664
 20
-14.4767417968
 30
0.0
 10
-58.375855504
 20
-14.4279171874
 30
0.0
  0
SPLINE
  5
2F9
100
AcDbEntity
  8
0
100
AcDbSpline
 62
250
  6
CONTINUOUS
 70
0
 71
3
 72
14
 73
10
 74
0
 42
0.0000001
 43
0.0000001
 44
0.0000000001
 40
0.0
 40
0.0
 40
0.0
 40
0.0
 40
0.2518545308
 40
0.3874818496
 40
0.5234027159
 40
0.6551234372
 40
0.7790800072
 40
0.8936426708
 40
1.0
 40
1.0
 40
1.0
 40
1.0
 10
-60.6133979859
 20
-13.0951363796
 30
0.0
 10
-60.6133979859
 20
-13.352655612
 30
0.0
 10
-60.4953947276
 20
-13.7521232711
 30
0.0
 10
-60.1930385411
 20
-14.1955248017
 30
0.0
 10
-59.8937884242
 20
-14.4842076273
 30
0.0
 10
-59.5504916439
 20
-14.6964048475
 30
0.0
 10
-59.1872373819
 20
-14.8165920061
 30
0.0
 10
-58.8301667928
 20
-14.8340590424
 30
0.0
 10
-58.6076168397
 20
-14.7711344283
 30
0.0
 10
-58.5103241933
 20
-14.7225484456
 30
0.0
  0
SPLINE
  5
2FA
100
AcDbEntity
  8
0
100
AcDbSpline
 62
250
  6
CONTINUOUS
 70
0
 71
3
 72
14
 73
10
 74
0
 42
0.0000001
 43
0.0000001
 44
0.0000000001
 40
0.0
 40
0.0
 40
0.0
 40
0.0
 40
0.2528466108
 40
0.3890125691
 40
0.5252252425
 40
0.6568475315
 40
0.7803015039
 40
0.8941480305
 40
1.0
 40
1.0
 40
1.0
 40
1.0
 10
57.4696601081
 20
-46.978654923
 30
0.0
 10
57.4696601081
 20
-47.2153389509
 30
0.0
 10
57.5801072723
 20
-47.5825193562
 30
0.0
 10
57.8617244811
 20
-47.9872565898
 30
0.0
 10
58.1396578413
 20
-48.2485451746
 30
0.0
 10
58.4571958361
 20
-48.4371697792
 30
0.0
 10
58.7913686545
 20
-48.5387688155
 30
0.0
 10
59.1173495108
 20
-48.5435803585
 30
0.0
 10
59.3173780468
 20
-48.4767417974
 30
0.0
 10
59.4035994093
 20
-48.4279171882
 30
0.0
  0
SPLINE
  5
2FB
100
AcDbEntity
  8
0
100
AcDbSpline
 62
7
  6
CONTINUOUS
 70
0
 71
3
 72
14
 73
10
 74
0
 42
0.0000001
 43
0.0000001
 44
0.0000000001
 40
0.0
 40
0.0
 40
0.0
 40
0.0
 40
0.253865135
 40
0.3905761922
 40
0.5270680257
 40
0.6585584443
 40
0.7814697987
 40
0.8945888386
 40
1.0
 40
1.0
 40
1.0
 40
1.0
 10
58.1916774669
 20
-46.8819229389
 30
0.0
 10
58.1916774669
 20
-47.0288980736
 30
0.0
 10
58.2615388004
 20
-47.2569237401
 30
0.0
 10
58.4387751675
 20
-47.5064359093
 30
0.0
 10
58.6131685663
 20
-47.6660597772
 30
0.0
 10
58.8115560567
 20
-47.7790370216
 30
0.0
 10
59.019139411
 20
-47.8363990168
 30
0.0
 10
59.2199787668
 20
-47.8321315725
 30
0.0
 10
59.3410552007
 20
-47.7848956591
 30
0.0
 10
59.3924493633
 20
-47.7519862817
 30
0.0
  0
SPLINE
  5
2FC
100
AcDbEntity
  8
0
100
AcDbSpline
 62
250
  6
CONTINUOUS
 70
0
 71
3
 72
14
 73
10
 74
0
 42
0.0000001
 43
0.0000001
 44
0.0000000001
 40
0.0
 40
0.0
 40
0.0
 40
0.0
 40
0.2518545308
 40
0.3874818495
 40
0.5234027158
 40
0.6551234371
 40
0.7790800071
 40
0.8936426707
 40
1.0
 40
1.0
 40
1.0
 40
1.0
 10
57.1660569288
 20
-47.0951363796
 30
0.0
 10
57.1660569288
 20
-47.3526556117
 30
0.0
 10
57.2840601868
 20
-47.7521232703
 30
0.0
 10
57.5864163726
 20
-48.1955248005
 30
0.0
 10
57.8856664889
 20
-48.484207626
 30
0.0
 10
58.2289632685
 20
-48.6964048463
 30
0.0
 10
58.59221753
 20
-48.8165920055
 30
0.0
 10
58.9492881188
 20
-48.8340590427
 30
0.0
 10
59.1718380719
 20
-48.7711344293
 30
0.0
 10
59.2691307185
 20
-48.7225484471
 30
0.0
  0
SPLINE
  5
2FD
100
AcDbEntity
  8
0
100
AcDbSpline
 62
250
  6
CONTINUOUS
 70
0
 71
3
 72
9
 73
5
 74
0
 42
0.0000001
 43
0.0000001
 44
0.0000000001
 40
0.0
 40
0.0
 40
0.0
 40
0.0
 40
0.4820336842
 40
1.0
 40
1.0
 40
1.0
 40
1.0
 10
57.6512995325
 20
-46.4043161065
 30
0.0
 10
57.5912311723
 20
-46.4819064602
 30
0.0
 10
57.4971138087
 20
-46.6679822267
 30
0.0
 10
57.4696601081
 20
-46.8732155557
 30
0.0
 10
57.4696601081
 20
-46.978654923
 30
0.0
  0
SPLINE
  5
2FE
100
AcDbEntity
  8
0
100
AcDbSpline
 62
7
  6
CONTINUOUS
 70
0
 71
3
 72
9
 73
5
 74
0
 42
0.0000001
 43
0.0000001
 44
0.0000000001
 40
0.0
 40
0.0
 40
0.0
 40
0.0
 40
0.5187164809
 40
1.0
 40
1.0
 40
1.0
 40
1.0
 10
58.1916774669
 20
-46.8819229389
 30
0.0
 10
58.1916774669
 20
-46.8131737861
 30
0.0
 10
58.2107990258
 20
-46.679321653
 30
0.0
 10
58.2770016255
 20
-46.5601197328
 30
0.0
 10
58.3187408192
 20
-46.5118834841
 30
0.0
  0
SPLINE
  5
2FF
100
AcDbEntity
  8
0
100
AcDbSpline
 62
7
  6
CONTINUOUS
 70
0
 71
3
 72
14
 73
10
 74
0
 42
0.0000001
 43
0.0000001
 44
0.0000000001
 40
0.0
 40
0.0
 40
0.0
 40
0.0
 40
0.2502844023
 40
0.3850448162
 40
0.5204672541
 40
0.6522889186
 40
0.7769930593
 40
0.8927016726
 40
1.0
 40
1.0
 40
1.0
 40
1.0
 10
-19.3736379155
 20
35.3083090504
 30
0.0
 10
-19.3736379155
 20
35.0583175935
 30
0.0
 10
-19.2624089743
 20
34.670599571
 30
0.0
 10
-18.9752040246
 20
34.2356044136
 30
0.0
 10
-18.689706831
 20
33.9487581184
 30
0.0
 10
-18.3601067008
 20
33.732237144
 30
0.0
 10
-18.0084140634
 20
33.600925095
 30
0.0
 10
-17.6586895855
 20
33.5653613859
 30
0.0
 10
-17.4358913862
 20
33.6113218792
 30
0.0
 10
-17.3364476522
 20
33.6512836106
 30
0.0
  0
SPLINE
  5
300
100
AcDbEntity
  8
0
100
AcDbSpline
 62
7
  6
CONTINUOUS
 70
0
 71
3
 72
14
 73
10
 74
0
 42
0.0000001
 43
0.0000001
 44
0.0000000001
 40
0.0
 40
0.0
 40
0.0
 40
0.0
 40
0.253865135
 40
0.3905761922
 40
0.5270680257
 40
0.6585584443
 40
0.7814697987
 40
0.8945888386
 40
1.0
 40
1.0
 40
1.0
 40
1.0
 10
-18.451570768
 20
35.4318426241
 30
0.0
 10
-18.451570768
 20
35.2848674895
 30
0.0
 10
-18.3817094346
 20
35.056841823
 30
0.0
 10
-18.2044730674
 20
34.8073296537
 30
0.0
 10
-18.0300796686
 20
34.6477057859
 30
0.0
 10
-17.8316921782
 20
34.5347285415
 30
0.0
 10
-17.6241088239
 20
34.4773665462
 30
0.0
 10
-17.4232694681
 20
34.4816339905
 30
0.0
 10
-17.3021930342
 20
34.528869904
 30
0.0
 10
-17.2507988717
 20
34.5617792813
 30
0.0
  0
SPLINE
  5
301
100
AcDbEntity
  8
0
100
AcDbSpline
 62
7
  6
CONTINUOUS
 70
0
 71
3
 72
9
 73
5
 74
0
 42
0.0000001
 43
0.0000001
 44
0.0000000001
 40
0.0
 40
0.0
 40
0.0
 40
0.0
 40
0.5155965254
 40
1.0
 40
1.0
 40
1.0
 40
1.0
 10
-19.3736379155
 20
35.3083090504
 30
0.0
 10
-19.3736379155
 20
35.4046403013
 30
0.0
 10
-19.3528611123
 20
35.5923922907
 30
0.0
 10
-19.2833677372
 20
35.7688675012
 30
0.0
 10
-19.2379568822
 20
35.8471535379
 30
0.0
  0
SPLINE
  5
302
100
AcDbEntity
  8
0
100
AcDbSpline
 62
7
  6
CONTINUOUS
 70
0
 71
3
 72
9
 73
5
 74
0
 42
0.0000001
 43
0.0000001
 44
0.0000000001
 40
0.0
 40
0.0
 40
0.0
 40
0.0
 40
0.5187164809
 40
1.0
 40
1.0
 40
1.0
 40
1.0
 10
-18.451570768
 20
35.4318426241
 30
0.0
 10
-18.451570768
 20
35.5005917769
 30
0.0
 10
-18.4324492092
 20
35.6344439101
 30
0.0
 10
-18.3662466094
 20
35.7536458302
 30
0.0
 10
-18.3245074157
 20
35.8018820789
 30
0.0
  0
SPLINE
  5
303
100
AcDbEntity
  8
0
100
AcDbSpline
 62
7
  6
CONTINUOUS
 70
0
 71
3
 72
9
 73
5
 74
0
 42
0.0000001
 43
0.0000001
 44
0.0000000001
 40
0.0
 40
0.0
 40
0.0
 40
0.0
 40
0.4812835191
 40
1.0
 40
1.0
 40
1.0
 40
1.0
 10
-59.4607140955
 20
47.6768820789
 30
0.0
 10
-59.5024532892
 20
47.6286458302
 30
0.0
 10
-59.5686558889
 20
47.5094439101
 30
0.0
 10
-59.5877774478
 20
47.3755917769
 30
0.0
 10
-59.5877774478
 20
47.3068426241
 30
0.0
  0
SPLINE
  5
304
100
AcDbEntity
  8
0
100
AcDbSpline
 62
7
  6
CONTINUOUS
 70
0
 71
3
 72
14
 73
10
 74
0
 42
0.0000001
 43
0.0000001
 44
0.0000000001
 40
0.0
 40
0.0
 40
0.0
 40
0.0
 40
0.1054111614
 40
0.2185302013
 40
0.3414415557
 40
0.4729319743
 40
0.6094238078
 40
0.746134865
 40
1.0
 40
1.0
 40
1.0
 40
1.0
 10
-58.3870055514
 20
-13.7519862817
 30
0.0
 10
-58.438399714
 20
-13.7848956591
 30
0.0
 10
-58.5594761478
 20
-13.8321315725
 30
0.0
 10
-58.7603155037
 20
-13.8363990168
 30
0.0
 10
-58.9678988579
 20
-13.7790370216
 30
0.0
 10
-59.1662863484
 20
-13.6660597772
 30
0.0
 10
-59.3406797472
 20
-13.5064359093
 30
0.0
 10
-59.5179161143
 20
-13.2569237401
 30
0.0
 10
-59.5877774478
 20
-13.0288980736
 30
0.0
 10
-59.5877774478
 20
-12.8819229389
 30
0.0
  0
SPLINE
  5
305
100
AcDbEntity
  8
0
100
AcDbSpline
 62
7
  6
CONTINUOUS
 70
0
 71
3
 72
11
 73
7
 74
0
 42
0.0000001
 43
0.0000001
 44
0.0000000001
 40
0.0
 40
0.0
 40
0.0
 40
0.0
 40
0.2340396732
 40
0.4799169787
 40
0.735448245
 40
1.0
 40
1.0
 40
1.0
 40
1.0
 10
0.8768326117
 20
-35.8607993259
 30
0.0
 10
0.9076744928
 20
-35.8340894742
 30
0.0
 10
0.9608424298
 20
-35.766221319
 30
0.0
 10
0.9991100891
 20
-35.6425741669
 30
0.0
 10
1.0236199367
 20
-35.5112069188
 30
0.0
 10
1.0276941187
 20
-35.4203013034
 30
0.0
 10
1.0276941187
 20
-35.3741821803
 30
0.0
  0
SPLINE
  5
306
100
AcDbEntity
  8
0
100
AcDbSpline
 62
7
  6
CONTINUOUS
 70
0
 71
3
 72
11
 73
7
 74
0
 42
0.0000001
 43
0.0000001
 44
0.0000000001
 40
0.0
 40
0.0
 40
0.0
 40
0.0
 40
0.2322423091
 40
0.4736543429
 40
0.7296478404
 40
1.0
 40
1.0
 40
1.0
 40
1.0
 10
0.3090547272
 20
-34.6173142093
 30
0.0
 10
0.327064195
 20
-34.6023434345
 30
0.0
 10
0.3682651582
 20
-34.5766124786
 30
0.0
 10
0.4404247946
 20
-34.5579499597
 30
0.0
 10
0.5184357862
 20
-34.5573894281
 30
0.0
 10
0.5708845072
 20
-34.5676476918
 30
0.0
 10
0.5970773068
 20
-34.5752089018
 30
0.0
  0
SPLINE
  5
307
100
AcDbEntity
  8
0
100
AcDbSpline
 62
7
  6
CONTINUOUS
 70
0
 71
3
 72
14
 73
10
 74
0
 42
0.0000001
 43
0.0000001
 44
0.0000000001
 40
0.0
 40
0.0
 40
0.0
 40
0.0
 40
0.1046896521
 40
0.2159891571
 40
0.337368349
 40
0.4683569228
 40
0.6054576412
 40
0.7435276236
 40
1.0
 40
1.0
 40
1.0
 40
1.0
 10
59.1256282046
 20
11.3063556741
 30
0.0
 10
59.0391699174
 20
11.2314815058
 30
0.0
 10
58.8262002714
 20
11.1134955146
 30
0.0
 10
58.4529301186
 20
11.0686302071
 30
0.0
 10
58.0579748496
 20
11.1489787997
 30
0.0
 10
57.6745570173
 20
11.3431919252
 30
0.0
 10
57.3335607178
 20
11.6340037026
 30
0.0
 10
56.9841653969
 20
12.1003149512
 30
0.0
 10
56.8446103194
 20
12.5350533437
 30
0.0
 10
56.8446103194
 20
12.8152482538
 30
0.0
  0
SPLINE
  5
308
100
AcDbEntity
  8
0
100
AcDbSpline
 62
7
  6
CONTINUOUS
 70
0
 71
3
 72
9
 73
5
 74
0
 42
0.0000001
 43
0.0000001
 44
0.0000000001
 40
0.0
 40
0.0
 40
0.0
 40
0.0
 40
0.4763313331
 40
1.0
 40
1.0
 40
1.0
 40
1.0
 10
0.7268997879
 20
-35.7430011495
 30
0.0
 10
0.7082093896
 20
-35.7526132836
 30
0.0
 10
0.663793862
 20
-35.7632292255
 30
0.0
 10
0.6192767426
 20
-35.7567731851
 30
0.0
 10
0.5970773068
 20
-35.75036476
 30
0.0
  0
SPLINE
  5
309
100
AcDbEntity
  8
0
100
AcDbSpline
 62
7
  6
CONTINUOUS
 70
0
 71
3
 72
11
 73
7
 74
0
 42
0.0000001
 43
0.0000001
 44
0.0000000001
 40
0.0
 40
0.0
 40
0.0
 40
0.0
 40
0.2348764443
 40
0.4745881015
 40
0.7292814196
 40
1.0
 40
1.0
 40
1.0
 40
1.0
 10
0.7479917963
 20
-35.7308755469
 30
0.0
 10
0.7377226596
 20
-35.7397688744
 30
0.0
 10
0.7149980249
 20
-35.7557130606
 30
0.0
 10
0.6744751006
 20
-35.7696009326
 30
0.0
 10
0.6297604801
 20
-35.7708748415
 30
0.0
 10
0.5996208586
 20
-35.7655327769
 30
0.0
 10
0.5845773068
 20
-35.7611900776
 30
0.0
  0
SPLINE
  5
30A
100
AcDbEntity
  8
0
100
AcDbSpline
 62
7
  6
CONTINUOUS
 70
0
 71
3
 72
10
 73
6
 74
0
 42
0.0000001
 43
0.0000001
 44
0.0000000001
 40
0.0
 40
0.0
 40
0.0
 40
0.0
 40
0.4761230053
 40
0.733169479
 40
1.0
 40
1.0
 40
1.0
 40
1.0
 10
-1.1183422427
 20
-34.7316432148
 30
0.0
 10
-1.0880163459
 20
-34.7053802162
 30
0.0
 10
-1.0537423237
 20
-34.6499118248
 30
0.0
 10
-1.0339061835
 20
-34.5678127853
 30
0.0
 10
-1.0319820116
 20
-34.5234540438
 30
0.0
 10
-1.0319820116
 20
-34.5009713148
 30
0.0
  0
SPLINE
  5
30B
100
AcDbEntity
  8
0
100
AcDbSpline
 62
7
  6
CONTINUOUS
 70
0
 71
3
 72
8
 73
4
 74
0
 42
0.0000001
 43
0.0000001
 44
0.0000000001
 40
0.0
 40
0.0
 40
0.0
 40
0.0
 40
1.0
 40
1.0
 40
1.0
 40
1.0
 10
-1.2594924511
 20
-34.5847968647
 30
0.0
 10
-1.2668609608
 20
-34.5902855354
 30
0.0
 10
-1.2750658511
 20
-34.5947499748
 30
0.0
 10
-1.2835896606
 20
-34.598180006
 30
0.0
  0
SPLINE
  5
30C
100
AcDbEntity
  8
0
100
AcDbSpline
 62
7
  6
CONTINUOUS
 70
0
 71
3
 72
9
 73
5
 74
0
 42
0.0000001
 43
0.0000001
 44
0.0000000001
 40
0.0
 40
0.0
 40
0.0
 40
0.0
 40
0.4803828756
 40
1.0
 40
1.0
 40
1.0
 40
1.0
 10
-1.2835896606
 20
-34.598180006
 30
0.0
 10
-1.3090672167
 20
-34.6084323246
 30
0.0
 10
-1.3683243969
 20
-34.6112951388
 30
0.0
 10
-1.42472914
 20
-34.6021360388
 30
0.0
 10
-1.453269758
 20
-34.5938972315
 30
0.0
  0
SPLINE
  5
30D
100
AcDbEntity
  8
0
100
AcDbSpline
 62
7
  6
CONTINUOUS
 70
0
 71
3
 72
10
 73
6
 74
0
 42
0.0000001
 43
0.0000001
 44
0.0000000001
 40
0.0
 40
0.0
 40
0.0
 40
0.0
 40
0.2306692671
 40
0.4756996613
 40
1.0
 40
1.0
 40
1.0
 40
1.0
 10
-1.2660872855
 20
-34.5908740548
 30
0.0
 10
-1.278098603
 20
-34.6012761596
 30
0.0
 10
-1.3085533505
 20
-34.6165822348
 30
0.0
 10
-1.377770451
 20
-34.6224659135
 30
0.0
 10
-1.4310705981
 20
-34.6147391448
 30
0.0
 10
-1.4657698114
 20
-34.6047225336
 30
0.0
  0
SPLINE
  5
30E
100
AcDbEntity
  8
0
100
AcDbSpline
 62
7
  6
CONTINUOUS
 70
0
 71
3
 72
9
 73
5
 74
0
 42
0.0000001
 43
0.0000001
 44
0.0000000001
 40
0.0
 40
0.0
 40
0.0
 40
0.0
 40
0.4741793023
 40
1.0
 40
1.0
 40
1.0
 40
1.0
 10
2.3991941506
 20
-1.3351067863
 30
0.0
 10
2.3677296946
 20
-1.3506052045
 30
0.0
 10
2.2909670085
 20
-1.3603887778
 30
0.0
 10
2.2180670918
 20
-1.3468462273
 30
0.0
 10
2.1804830627
 20
-1.3368361193
 30
0.0
  0
SPLINE
  5
30F
100
AcDbEntity
  8
0
100
AcDbSpline
 62
7
  6
CONTINUOUS
 70
0
 71
3
 72
11
 73
7
 74
0
 42
0.0000001
 43
0.0000001
 44
0.0000000001
 40
0.0
 40
0.0
 40
0.0
 40
0.0
 40
0.2277506503
 40
0.4695926708
 40
0.7301882597
 40
1.0
 40
1.0
 40
1.0
 40
1.0
 10
2.4193500135
 20
-1.3242332424
 30
0.0
 10
2.4043276121
 20
-1.3372430264
 30
0.0
 10
2.3674947504
 20
-1.357845618
 30
0.0
 10
2.3036926901
 20
-1.3675999918
 30
0.0
 10
2.2361457565
 20
-1.3633280862
 30
0.0
 10
2.1907328713
 20
-1.3537206073
 30
0.0
 10
2.1679830627
 20
-1.3476614368
 30
0.0
  0
SPLINE
  5
310
100
AcDbEntity
  8
0
100
AcDbSpline
 62
7
  6
CONTINUOUS
 70
0
 71
3
 72
15
 73
11
 74
0
 42
0.0000001
 43
0.0000001
 44
0.0000000001
 40
0.0
 40
0.0
 40
0.0
 40
0.0
 40
0.1053148619
 40
0.2153188158
 40
0.3321795476
 40
0.4558437811
 40
0.5864736492
 40
0.7227916424
 40
0.8619571478
 40
1.0
 40
1.0
 40
1.0
 40
1.0
 10
2.7561640659
 20
-1.5402816057
 30
0.0
 10
2.7830239275
 20
-1.5148842585
 30
0.0
 10
2.8296922145
 20
-1.4535653343
 30
0.0
 10
2.8698962699
 20
-1.3425532127
 30
0.0
 10
2.881679851
 20
-1.219134915
 30
0.0
 10
2.8700585621
 20
-1.0886604168
 30
0.0
 10
2.8312355029
 20
-0.9562117126
 30
0.0
 10
2.764625823
 20
-0.8290821363
 30
0.0
 10
2.6739625352
 20
-0.7150618529
 30
0.0
 10
2.6007809556
 20
-0.6493336743
 30
0.0
 10
2.5601447909
 20
-0.622943384
 30
0.0
  0
SPLINE
  5
311
100
AcDbEntity
  8
0
100
AcDbSpline
 62
7
  6
CONTINUOUS
 70
0
 71
3
 72
15
 73
11
 74
0
 42
0.0000001
 43
0.0000001
 44
0.0000000001
 40
0.0
 40
0.0
 40
0.0
 40
0.0
 40
0.1052551839
 40
0.2149008922
 40
0.3314195137
 40
0.4549177128
 40
0.5855058987
 40
0.7220172329
 40
0.8615404569
 40
1.0
 40
1.0
 40
1.0
 40
1.0
 10
2.7324626124
 20
-1.5612438098
 30
0.0
 10
2.7607873381
 20
-1.5367138774
 30
0.0
 10
2.8105848919
 20
-1.4765821343
 30
0.0
 10
2.8548223817
 20
-1.3654691225
 30
0.0
 10
2.869279336
 20
-1.2407820014
 30
0.0
 10
2.8592865507
 20
-1.1084813619
 30
0.0
 10
2.8215661162
 20
-0.9736602639
 30
0.0
 10
2.7549487626
 20
-0.8439789002
 30
0.0
 10
2.6632971303
 20
-0.7276357855
 30
0.0
 10
2.5889829718
 20
-0.6606149013
 30
0.0
 10
2.5476447909
 20
-0.6337687015
 30
0.0
  0
SPLINE
  5
312
100
AcDbEntity
  8
0
100
AcDbSpline
 62
7
  6
CONTINUOUS
 70
0
 71
3
 72
10
 73
6
 74
0
 42
0.0000001
 43
0.0000001
 44
0.0000000001
 40
0.0
 40
0.0
 40
0.0
 40
0.0
 40
0.4874074624
 40
0.7420393214
 40
1.0
 40
1.0
 40
1.0
 40
1.0
 10
2.8239975034
 20
-2.091261384
 30
0.0
 10
2.8033965731
 20
-2.0096952709
 30
0.0
 10
2.7719017643
 20
-1.8844915317
 30
0.0
 10
2.6896414595
 20
-1.7313136982
 30
0.0
 10
2.6262675244
 20
-1.6666814691
 30
0.0
 10
2.5895761832
 20
-1.6414589189
 30
0.0
  0
SPLINE
  5
313
100
AcDbEntity
  8
0
100
AcDbSpline
 62
7
  6
CONTINUOUS
 70
0
 71
3
 72
8
 73
4
 74
0
 42
0.0000001
 43
0.0000001
 44
0.0000000001
 40
0.0
 40
0.0
 40
0.0
 40
0.0
 40
1.0
 40
1.0
 40
1.0
 40
1.0
 10
2.9630285588
 20
-2.6587236288
 30
0.0
 10
2.9154661303
 20
-2.4698723139
 30
0.0
 10
2.8716892918
 20
-2.2800800723
 30
0.0
 10
2.8239975034
 20
-2.091261384
 30
0.0
  0
SPLINE
  5
314
100
AcDbEntity
  8
0
100
AcDbSpline
 62
7
  6
CONTINUOUS
 70
0
 71
3
 72
10
 73
6
 74
0
 42
0.0000001
 43
0.0000001
 44
0.0000000001
 40
0.0
 40
0.0
 40
0.0
 40
0.0
 40
0.2621551042
 40
0.5141591636
 40
1.0
 40
1.0
 40
1.0
 40
1.0
 10
2.5476447909
 20
-0.6337687015
 30
0.0
 10
2.4701812757
 20
-0.5834211143
 30
0.0
 10
2.3060450968
 20
-0.5033455024
 30
0.0
 10
1.9700898366
 20
-0.3955875456
 30
0.0
 10
1.7135221931
 20
-0.3475250256
 30
0.0
 10
1.5439942707
 20
-0.3235269739
 30
0.0
  0
SPLINE
  5
315
100
AcDbEntity
  8
0
100
AcDbSpline
 62
250
  6
CONTINUOUS
 70
0
 71
3
 72
9
 73
5
 74
0
 42
0.0000001
 43
0.0000001
 44
0.0000000001
 40
0.0
 40
0.0
 40
0.0
 40
0.0
 40
0.482033684
 40
1.0
 40
1.0
 40
1.0
 40
1.0
 10
-60.1281553809
 20
-12.4043161049
 30
0.0
 10
-60.1882237415
 20
-12.4819064587
 30
0.0
 10
-60.2823411058
 20
-12.6679822256
 30
0.0
 10
-60.3097948066
 20
-12.8732155553
 30
0.0
 10
-60.3097948066
 20
-12.978654923
 30
0.0
  0
SPLINE
  5
316
100
AcDbEntity
  8
RACCORDO
100
AcDbSpline
 62
250
  6
CONTINUOUS
 70
0
 71
3
 72
11
 73
7
 74
0
 42
0.0000001
 43
0.0000001
 44
0.0000000001
 40
0.0
 40
0.0
 40
0.0
 40
0.0
 40
0.3270144641
 40
0.6004641717
 40
0.8193110823
 40
1.0
 40
1.0
 40
1.0
 40
1.0
 10
-63.9659335086
 20
-20.2927459433
 30
0.0
 10
-63.9659335086
 20
-20.3588173396
 30
0.0
 10
-63.958199758
 20
-20.480504631
 30
0.0
 10
-63.9173170953
 20
-20.6420830957
 30
0.0
 10
-63.8490779981
 20
-20.7628346602
 30
0.0
 10
-63.7783579981
 20
-20.8103749861
 30
0.0
 10
-63.7432835452
 20
-20.8205019512
 30
0.0
  0
SPLINE
  5
317
100
AcDbEntity
  8
RACCORDO
100
AcDbSpline
 62
250
  6
CONTINUOUS
 70
0
 71
3
 72
11
 73
7
 74
0
 42
0.0000001
 43
0.0000001
 44
0.0000000001
 40
0.0
 40
0.0
 40
0.0
 40
0.0
 40
0.3270144641
 40
0.6004641717
 40
0.8193110823
 40
1.0
 40
1.0
 40
1.0
 40
1.0
 10
62.473775444
 20
-56.7927459433
 30
0.0
 10
62.473775444
 20
-56.8588173396
 30
0.0
 10
62.4815091945
 20
-56.980504631
 30
0.0
 10
62.5223918572
 20
-57.1420830957
 30
0.0
 10
62.5906309544
 20
-57.2628346602
 30
0.0
 10
62.6613509545
 20
-57.3103749861
 30
0.0
 10
62.6964254074
 20
-57.3205019512
 30
0.0
  0
SPLINE
  5
318
100
AcDbEntity
  8
RACCORDO
100
AcDbSpline
 62
250
  6
CONTINUOUS
 70
0
 71
3
 72
11
 73
7
 74
0
 42
0.0000001
 43
0.0000001
 44
0.0000000001
 40
0.0
 40
0.0
 40
0.0
 40
0.0
 40
0.2637510302
 40
0.537916264
 40
0.7915793986
 40
1.0
 40
1.0
 40
1.0
 40
1.0
 10
65.9378770591
 20
-54.3286443282
 30
0.0
 10
66.0578954204
 20
-54.3632906448
 30
0.0
 10
66.311690421
 20
-54.4038111035
 30
0.0
 10
66.688676812
 20
-54.3919891969
 30
0.0
 10
67.0302905235
 20
-54.313323297
 30
0.0
 10
67.2292822985
 20
-54.2102545843
 30
0.0
 10
67.3039024629
 20
-54.1456316263
 30
0.0
  0
SPLINE
  5
319
100
AcDbEntity
  8
RACCORDO
100
AcDbSpline
 62
250
  6
CONTINUOUS
 70
0
 71
3
 72
11
 73
7
 74
0
 42
0.0000001
 43
0.0000001
 44
0.0000000001
 40
0.0
 40
0.0
 40
0.0
 40
0.0
 40
0.2637510302
 40
0.537916264
 40
0.7915793986
 40
1.0
 40
1.0
 40
1.0
 40
1.0
 10
65.9378770591
 20
14.5203752727
 30
0.0
 10
66.0578954204
 20
14.4857289561
 30
0.0
 10
66.311690421
 20
14.4452084974
 30
0.0
 10
66.688676812
 20
14.4570304039
 30
0.0
 10
67.0302905235
 20
14.5356963039
 30
0.0
 10
67.2292822985
 20
14.6387650165
 30
0.0
 10
67.3039024629
 20
14.7033879746
 30
0.0
  0
SPLINE
  5
31A
100
AcDbEntity
  8
RACCORDO
100
AcDbSpline
 62
250
  6
CONTINUOUS
 70
0
 71
3
 72
12
 73
8
 74
0
 42
0.0000001
 43
0.0000001
 44
0.0000000001
 40
0.0
 40
0.0
 40
0.0
 40
0.0
 40
0.2572975322
 40
0.5313271098
 40
0.7884497163
 40
0.9013233012
 40
1.0
 40
1.0
 40
1.0
 40
1.0
 10
62.473775444
 20
18.9844768878
 30
0.0
 10
62.473775444
 20
19.1065957413
 30
0.0
 10
62.5031658763
 20
19.3589927568
 30
0.0
 10
62.6074999787
 20
19.7196508575
 30
0.0
 10
62.7404869944
 20
19.9973492097
 30
0.0
 10
62.869161564
 20
20.1793392418
 30
0.0
 10
62.9383722304
 20
20.2528549112
 30
0.0
 10
62.973775444
 20
20.2835149935
 30
0.0
  0
SPLINE
  5
31B
100
AcDbEntity
  8
RACCORDO
100
AcDbSpline
 62
250
  6
CONTINUOUS
 70
0
 71
3
 72
12
 73
8
 74
0
 42
0.0000001
 43
0.0000001
 44
0.0000000001
 40
0.0
 40
0.0
 40
0.0
 40
0.0
 40
0.2572975322
 40
0.5313271098
 40
0.7884497163
 40
0.9013233012
 40
1.0
 40
1.0
 40
1.0
 40
1.0
 10
-63.9659335086
 20
55.4844768878
 30
0.0
 10
-63.9659335086
 20
55.6065957413
 30
0.0
 10
-63.9365430762
 20
55.8589927568
 30
0.0
 10
-63.8322089738
 20
56.2196508575
 30
0.0
 10
-63.6992219582
 20
56.4973492097
 30
0.0
 10
-63.5705473885
 20
56.6793392418
 30
0.0
 10
-63.5013367221
 20
56.7528549112
 30
0.0
 10
-63.4659335086
 20
56.7835149935
 30
0.0
  0
SPLINE
  5
31C
100
AcDbEntity
  8
RACCORDO
100
AcDbSpline
 62
250
  6
CONTINUOUS
 70
0
 71
3
 72
11
 73
7
 74
0
 42
0.0000001
 43
0.0000001
 44
0.0000000001
 40
0.0
 40
0.0
 40
0.0
 40
0.0
 40
0.3160296762
 40
0.5862567789
 40
0.8093516779
 40
1.0
 40
1.0
 40
1.0
 40
1.0
 10
-67.4300351237
 20
53.0203752727
 30
0.0
 10
-67.5010769385
 20
53.0408832781
 30
0.0
 10
-67.6305105212
 20
53.0887788501
 30
0.0
 10
-67.7926682594
 20
53.1896500615
 30
0.0
 10
-67.901743656
 20
53.3112324792
 30
0.0
 10
-67.9300357882
 20
53.4087812616
 30
0.0
 10
-67.930034398
 20
53.4533879746
 30
0.0
  0
SPLINE
  5
31D
100
AcDbEntity
  8
RACCORDO
100
AcDbSpline
 62
250
  6
CONTINUOUS
 70
0
 71
3
 72
11
 73
7
 74
0
 42
0.0000001
 43
0.0000001
 44
0.0000000001
 40
0.0
 40
0.0
 40
0.0
 40
0.0
 40
0.3160296762
 40
0.5862567789
 40
0.8093516779
 40
1.0
 40
1.0
 40
1.0
 40
1.0
 10
-67.4300351237
 20
-15.8286443282
 30
0.0
 10
-67.5010769385
 20
-15.8081363227
 30
0.0
 10
-67.6305105212
 20
-15.7602407508
 30
0.0
 10
-67.7926682594
 20
-15.6593695394
 30
0.0
 10
-67.901743656
 20
-15.5377871217
 30
0.0
 10
-67.9300357882
 20
-15.4402383392
 30
0.0
 10
-67.930034398
 20
-15.3956316263
 30
0.0
  0
SPLINE
  5
31E
100
AcDbEntity
  8
0
100
AcDbSpline
 62
7
  6
CONTINUOUS
 70
0
 71
3
 72
10
 73
6
 74
0
 42
0.0000001
 43
0.0000001
 44
0.0000000001
 40
0.0
 40
0.0
 40
0.0
 40
0.0
 40
0.2668305206
 40
0.5238769942
 40
1.0
 40
1.0
 40
1.0
 40
1.0
 10
-1.0194820116
 20
-34.4901459972
 30
0.0
 10
-1.0194820116
 20
-34.5126287257
 30
0.0
 10
-1.0214061833
 20
-34.5569874662
 30
0.0
 10
-1.0412423227
 20
-34.6390865041
 30
0.0
 10
-1.075516343
 20
-34.6945548948
 30
0.0
 10
-1.1058422385
 20
-34.7208178937
 30
0.0
  0
SPLINE
  5
31F
100
AcDbEntity
  8
0
100
AcDbSpline
 62
7
  6
CONTINUOUS
 70
0
 71
3
 72
14
 73
10
 74
0
 42
0.0000001
 43
0.0000001
 44
0.0000000001
 40
0.0
 40
0.0
 40
0.0
 40
0.0
 40
0.2442223919
 40
0.3722666423
 40
0.5028558947
 40
0.6327953589
 40
0.7604121347
 40
0.8837358859
 40
1.0
 40
1.0
 40
1.0
 40
1.0
 10
-1.4116527655
 20
-33.9953339882
 30
0.0
 10
-1.3586439654
 20
-34.0106362601
 30
0.0
 10
-1.2811290314
 20
-34.0465224171
 30
0.0
 10
-1.1884851756
 20
-34.1128570966
 30
0.0
 10
-1.1275334236
 20
-34.1767306683
 30
0.0
 10
-1.0778143964
 20
-34.2494894514
 30
0.0
 10
-1.0431351687
 20
-34.3287238749
 30
0.0
 10
-1.0226387364
 20
-34.4095717584
 30
0.0
 10
-1.0194820116
 20
-34.4638802886
 30
0.0
 10
-1.0194820116
 20
-34.4901459972
 30
0.0
  0
SPLINE
  5
320
100
AcDbEntity
  8
0
100
AcDbSpline
 62
7
  6
CONTINUOUS
 70
0
 71
3
 72
14
 73
10
 74
0
 42
0.0000001
 43
0.0000001
 44
0.0000000001
 40
0.0
 40
0.0
 40
0.0
 40
0.0
 40
0.1046896521
 40
0.2159891571
 40
0.337368349
 40
0.4683569228
 40
0.6054576412
 40
0.7435276236
 40
1.0
 40
1.0
 40
1.0
 40
1.0
 10
-58.6538267101
 20
-14.882409889
 30
0.0
 10
-58.7402849972
 20
-14.9572840573
 30
0.0
 10
-58.9532546433
 20
-15.0752700484
 30
0.0
 10
-59.3265247961
 20
-15.120135356
 30
0.0
 10
-59.721480065
 20
-15.0397867633
 30
0.0
 10
-60.1048978974
 20
-14.8455736378
 30
0.0
 10
-60.4458941969
 20
-14.5547618604
 30
0.0
 10
-60.7952895177
 20
-14.0884506118
 30
0.0
 10
-60.9348445953
 20
-13.6537122194
 30
0.0
 10
-60.9348445953
 20
-13.3735173093
 30
0.0
  0
SPLINE
  5
321
100
AcDbEntity
  8
0
100
AcDbSpline
 62
7
  6
CONTINUOUS
 70
0
 71
3
 72
15
 73
11
 74
0
 42
0.0000001
 43
0.0000001
 44
0.0000000001
 40
0.0
 40
0.0
 40
0.0
 40
0.0
 40
0.1257258711
 40
0.2585035536
 40
0.3914435232
 40
0.5192789747
 40
0.6436256855
 40
0.7648036705
 40
0.8836287261
 40
1.0
 40
1.0
 40
1.0
 40
1.0
 10
0.5970773068
 20
-35.75036476
 30
0.0
 10
0.5690599744
 20
-35.7422768528
 30
0.0
 10
0.5138880197
 20
-35.7155488513
 30
0.0
 10
0.4482203909
 20
-35.6512417865
 30
0.0
 10
0.3988025689
 20
-35.5736354106
 30
0.0
 10
0.3676033498
 20
-35.4894128177
 30
0.0
 10
0.3485553634
 20
-35.4048436827
 30
0.0
 10
0.3347637631
 20
-35.3214245148
 30
0.0
 10
0.327246537
 20
-35.239004394
 30
0.0
 10
0.3268348417
 20
-35.1844193987
 30
0.0
 10
0.3268348417
 20
-35.1574277775
 30
0.0
  0
SPLINE
  5
322
100
AcDbEntity
  8
0
100
AcDbSpline
 62
7
  6
CONTINUOUS
 70
0
 71
3
 72
13
 73
9
 74
0
 42
0.0000001
 43
0.0000001
 44
0.0000000001
 40
0.0
 40
0.0
 40
0.0
 40
0.0
 40
0.2626759404
 40
0.517478139
 40
0.6422789558
 40
0.7654904753
 40
0.884463148
 40
1.0
 40
1.0
 40
1.0
 40
1.0
 10
0.3268348417
 20
-35.1574277775
 30
0.0
 10
0.3268348417
 20
-35.1208374197
 30
0.0
 10
0.3280001258
 20
-35.0486498361
 30
0.0
 10
0.3407599722
 20
-34.9598333916
 30
0.0
 10
0.3565015315
 20
-34.8915630741
 30
0.0
 10
0.371172933
 20
-34.8425287459
 30
0.0
 10
0.3920241975
 20
-34.7969369632
 30
0.0
 10
0.4125819246
 20
-34.7710273682
 30
0.0
 10
0.4240423099
 20
-34.7597278171
 30
0.0
  0
SPLINE
  5
323
100
AcDbEntity
  8
0
100
AcDbSpline
 62
7
  6
CONTINUOUS
 70
0
 71
3
 72
13
 73
9
 74
0
 42
0.0000001
 43
0.0000001
 44
0.0000000001
 40
0.0
 40
0.0
 40
0.0
 40
0.0
 40
0.2526217172
 40
0.385205492
 40
0.5159356366
 40
0.7641989104
 40
0.8836467341
 40
1.0
 40
1.0
 40
1.0
 40
1.0
 10
0.5970773068
 20
-34.5752089018
 30
0.0
 10
0.675431121
 20
-34.5978276997
 30
0.0
 10
0.788444399
 20
-34.6631747376
 30
0.0
 10
0.8954662127
 20
-34.7917911293
 30
0.0
 10
0.9771870244
 20
-34.9365291089
 30
0.0
 10
1.0164898492
 20
-35.0947780489
 30
0.0
 10
1.0375095708
 20
-35.2495537728
 30
0.0
 10
1.0401941187
 20
-35.3257948297
 30
0.0
 10
1.0401941187
 20
-35.3633568628
 30
0.0
  0
SPLINE
  5
324
100
AcDbEntity
  8
0
100
AcDbSpline
 62
7
  6
CONTINUOUS
 70
0
 71
3
 72
11
 73
7
 74
0
 42
0.0000001
 43
0.0000001
 44
0.0000000001
 40
0.0
 40
0.0
 40
0.0
 40
0.0
 40
0.264551756
 40
0.5200830227
 40
0.7659603273
 40
1.0
 40
1.0
 40
1.0
 40
1.0
 10
1.0401941187
 20
-35.3633568628
 30
0.0
 10
1.0401941187
 20
-35.4094759887
 30
0.0
 10
1.036119936
 20
-35.5003816097
 30
0.0
 10
1.0116100859
 20
-35.6317488652
 30
0.0
 10
0.97334242
 20
-35.7553960233
 30
0.0
 10
0.9201744742
 20
-35.8232641786
 30
0.0
 10
0.8893325885
 20
-35.8499740285
 30
0.0
  0
SPLINE
  5
325
100
AcDbEntity
  8
RACCORDO
100
AcDbSpline
 62
250
  6
CONTINUOUS
 70
0
 71
3
 72
11
 73
7
 74
0
 42
0.0000001
 43
0.0000001
 44
0.0000000001
 40
0.0
 40
0.0
 40
0.0
 40
0.0
 40
0.2374168889
 40
0.4804566222
 40
0.7336974242
 40
1.0
 40
1.0
 40
1.0
 40
1.0
 10
66.247043401
 20
-56.6752758986
 30
0.0
 10
66.4159391984
 20
-56.5290055243
 30
0.0
 10
66.7232221439
 20
-56.1904889667
 30
0.0
 10
67.0584735423
 20
-55.5803533962
 30
0.0
 10
67.2613646738
 20
-54.886679158
 30
0.0
 10
67.3039024629
 20
-54.3962451952
 30
0.0
 10
67.3039024629
 20
-54.1456316263
 30
0.0
  0
SPLINE
  5
326
100
AcDbEntity
  8
0
100
AcDbSpline
 62
7
  6
CONTINUOUS
 70
0
 71
3
 72
14
 73
10
 74
0
 42
0.0000001
 43
0.0000001
 44
0.0000000001
 40
0.0
 40
0.0
 40
0.0
 40
0.0
 40
0.1162641142
 40
0.2395878655
 40
0.3672046414
 40
0.4971441057
 40
0.6277333581
 40
0.7557776084
 40
1.0
 40
1.0
 40
1.0
 40
1.0
 10
-1.0319820116
 20
-34.5009713148
 30
0.0
 10
-1.0319820116
 20
-34.474705606
 30
0.0
 10
-1.0351387365
 20
-34.4203970753
 30
0.0
 10
-1.055635169
 20
-34.3395491912
 30
0.0
 10
-1.0903143973
 20
-34.2603147671
 30
0.0
 10
-1.1400334253
 20
-34.1875559837
 30
0.0
 10
-1.2009851781
 20
-34.123682412
 30
0.0
 10
-1.2936290349
 20
-34.0573477327
 30
0.0
 10
-1.3711439697
 20
-34.0214615759
 30
0.0
 10
-1.4241527701
 20
-34.0061593044
 30
0.0
  0
SPLINE
  5
327
100
AcDbEntity
  8
0
100
AcDbSpline
 62
250
  6
CONTINUOUS
 70
0
 71
3
 72
9
 73
5
 74
0
 42
0.0000001
 43
0.0000001
 44
0.0000000001
 40
0.0
 40
0.0
 40
0.0
 40
0.0
 40
0.4828965144
 40
1.0
 40
1.0
 40
1.0
 40
1.0
 10
57.3397569528
 20
13.6924194336
 30
0.0
 10
57.2819966692
 20
13.6089294828
 30
0.0
 10
57.1924364491
 20
13.4139967787
 30
0.0
 10
57.1660569288
 20
13.2023432617
 30
0.0
 10
57.1660569288
 20
13.0936291835
 30
0.0
  0
SPLINE
  5
328
100
AcDbEntity
  8
0
100
AcDbSpline
 62
7
  6
CONTINUOUS
 70
0
 71
3
 72
14
 73
10
 74
0
 42
0.0000001
 43
0.0000001
 44
0.0000000001
 40
0.0
 40
0.0
 40
0.0
 40
0.0
 40
0.1054111614
 40
0.2185302013
 40
0.3414415557
 40
0.4729319743
 40
0.6094238078
 40
0.746134865
 40
1.0
 40
1.0
 40
1.0
 40
1.0
 10
-58.3870055514
 20
46.4367792813
 30
0.0
 10
-58.438399714
 20
46.403869904
 30
0.0
 10
-58.5594761478
 20
46.3566339905
 30
0.0
 10
-58.7603155037
 20
46.3523665462
 30
0.0
 10
-58.9678988579
 20
46.4097285415
 30
0.0
 10
-59.1662863484
 20
46.5227057859
 30
0.0
 10
-59.3406797472
 20
46.6823296537
 30
0.0
 10
-59.5179161143
 20
46.931841823
 30
0.0
 10
-59.5877774478
 20
47.1598674895
 30
0.0
 10
-59.5877774478
 20
47.3068426241
 30
0.0
  0
SPLINE
  5
329
100
AcDbEntity
  8
0
100
AcDbSpline
 62
7
  6
CONTINUOUS
 70
0
 71
3
 72
13
 73
9
 74
0
 42
0.0000001
 43
0.0000001
 44
0.0000000001
 40
0.0
 40
0.0
 40
0.0
 40
0.0
 40
0.2632097402
 40
0.5182303764
 40
0.6432023487
 40
0.766092778
 40
0.8843261356
 40
1.0
 40
1.0
 40
1.0
 40
1.0
 10
0.3143348417
 20
-35.168253095
 30
0.0
 10
0.3143348417
 20
-35.1304433448
 30
0.0
 10
0.3156332084
 20
-35.0558824142
 30
0.0
 10
0.329394943
 20
-34.9642301803
 30
0.0
 10
0.3461731492
 20
-34.8939463769
 30
0.0
 10
0.3621668135
 20
-34.8437439372
 30
0.0
 10
0.3857338262
 20
-34.797769236
 30
0.0
 10
0.4086019914
 20
-34.7725331903
 30
0.0
 10
0.4211628172
 20
-34.7616552031
 30
0.0
  0
SPLINE
  5
32A
100
AcDbEntity
  8
0
100
AcDbSpline
 62
7
  6
CONTINUOUS
 70
0
 71
3
 72
15
 73
11
 74
0
 42
0.0000001
 43
0.0000001
 44
0.0000000001
 40
0.0
 40
0.0
 40
0.0
 40
0.0
 40
0.1257258711
 40
0.2585035536
 40
0.3914435232
 40
0.5192789747
 40
0.6436256855
 40
0.7648036705
 40
0.8836287261
 40
1.0
 40
1.0
 40
1.0
 40
1.0
 10
0.5845773068
 20
-35.7611900776
 30
0.0
 10
0.5565599744
 20
-35.7531021704
 30
0.0
 10
0.5013880197
 20
-35.7263741689
 30
0.0
 10
0.4357203909
 20
-35.662067104
 30
0.0
 10
0.3863025689
 20
-35.5844607282
 30
0.0
 10
0.3551033498
 20
-35.5002381352
 30
0.0
 10
0.3360553634
 20
-35.4156690002
 30
0.0
 10
0.3222637631
 20
-35.3322498323
 30
0.0
 10
0.314746537
 20
-35.2498297116
 30
0.0
 10
0.3143348417
 20
-35.1952447163
 30
0.0
 10
0.3143348417
 20
-35.168253095
 30
0.0
  0
SPLINE
  5
32B
100
AcDbEntity
  8
0
100
AcDbSpline
 62
7
  6
CONTINUOUS
 70
0
 71
3
 72
13
 73
9
 74
0
 42
0.0000001
 43
0.0000001
 44
0.0000000001
 40
0.0
 40
0.0
 40
0.0
 40
0.0
 40
0.1163532659
 40
0.2358010896
 40
0.4840643634
 40
0.614794508
 40
0.7473782828
 40
1.0
 40
1.0
 40
1.0
 40
1.0
 10
1.0276941187
 20
-35.3741821803
 30
0.0
 10
1.0276941187
 20
-35.3366201473
 30
0.0
 10
1.0250095708
 20
-35.2603790903
 30
0.0
 10
1.0039898492
 20
-35.1056033664
 30
0.0
 10
0.9646870244
 20
-34.9473544265
 30
0.0
 10
0.8829662127
 20
-34.8026164468
 30
0.0
 10
0.775944399
 20
-34.6740000551
 30
0.0
 10
0.662931121
 20
-34.6086530172
 30
0.0
 10
0.5845773068
 20
-34.5860342193
 30
0.0
  0
SPLINE
  5
32C
100
AcDbEntity
  8
0
100
AcDbSpline
 62
7
  6
CONTINUOUS
 70
0
 71
3
 72
11
 73
7
 74
0
 42
0.0000001
 43
0.0000001
 44
0.0000000001
 40
0.0
 40
0.0
 40
0.0
 40
0.0
 40
0.2706354682
 40
0.526581396
 40
0.7677179388
 40
1.0
 40
1.0
 40
1.0
 40
1.0
 10
0.5845773068
 20
-34.5860342193
 30
0.0
 10
0.5578800435
 20
-34.5783273833
 30
0.0
 10
0.5044219074
 20
-34.5679679292
 30
0.0
 10
0.4249658196
 20
-34.5690097324
 30
0.0
 10
0.3517326328
 20
-34.5890423729
 30
0.0
 10
0.3103505078
 20
-34.6161182804
 30
0.0
 10
0.2923220018
 20
-34.6317314241
 30
0.0
  0
SPLINE
  5
32D
100
AcDbEntity
  8
0
100
AcDbSpline
 62
7
  6
CONTINUOUS
 70
0
 71
3
 72
10
 73
6
 74
0
 42
0.0000001
 43
0.0000001
 44
0.0000000001
 40
0.0
 40
0.0
 40
0.0
 40
0.0
 40
0.2380212894
 40
0.4816806056
 40
1.0
 40
1.0
 40
1.0
 40
1.0
 10
-60.6177862692
 20
47.5741408335
 30
0.0
 10
-60.6684556038
 20
47.5302604327
 30
0.0
 10
-60.7606385636
 20
47.4286338841
 30
0.0
 10
-60.8973840776
 20
47.1802412688
 30
0.0
 10
-60.9348445953
 20
46.9612115401
 30
0.0
 10
-60.9348445953
 20
46.8152482538
 30
0.0
  0
SPLINE
  5
32E
100
AcDbEntity
  8
0
100
AcDbSpline
 62
250
  6
CONTINUOUS
 70
0
 71
3
 72
9
 73
5
 74
0
 42
0.0000001
 43
0.0000001
 44
0.0000000001
 40
0.0
 40
0.0
 40
0.0
 40
0.0
 40
0.4828965147
 40
1.0
 40
1.0
 40
1.0
 40
1.0
 10
-60.4396979656
 20
47.6924194282
 30
0.0
 10
-60.4974582481
 20
47.6089294777
 30
0.0
 10
-60.5870184661
 20
47.4139967753
 30
0.0
 10
-60.6133979859
 20
47.2023432605
 30
0.0
 10
-60.6133979859
 20
47.0936291835
 30
0.0
  0
SPLINE
  5
32F
100
AcDbEntity
  8
0
100
AcDbSpline
 62
7
  6
CONTINUOUS
 70
0
 71
3
 72
9
 73
5
 74
0
 42
0.0000001
 43
0.0000001
 44
0.0000000001
 40
0.0
 40
0.0
 40
0.0
 40
0.0
 40
0.4812835191
 40
1.0
 40
1.0
 40
1.0
 40
1.0
 10
-59.4607140955
 20
-12.5118834841
 30
0.0
 10
-59.5024532892
 20
-12.5601197328
 30
0.0
 10
-59.5686558889
 20
-12.679321653
 30
0.0
 10
-59.5877774478
 20
-12.8131737861
 30
0.0
 10
-59.5877774478
 20
-12.8819229389
 30
0.0
  0
SPLINE
  5
330
100
AcDbEntity
  8
0
100
AcDbSpline
 62
250
  6
CONTINUOUS
 70
0
 71
3
 72
9
 73
5
 74
0
 42
0.0000001
 43
0.0000001
 44
0.0000000001
 40
0.0
 40
0.0
 40
0.0
 40
0.0
 40
0.4828965144
 40
1.0
 40
1.0
 40
1.0
 40
1.0
 10
-60.4396979619
 20
-12.4963461294
 30
0.0
 10
-60.4974582455
 20
-12.5798360803
 30
0.0
 10
-60.5870184656
 20
-12.7747687843
 30
0.0
 10
-60.6133979859
 20
-12.9864223013
 30
0.0
 10
-60.6133979859
 20
-13.0951363796
 30
0.0
  0
SPLINE
  5
331
100
AcDbEntity
  8
0
100
AcDbSpline
 62
7
  6
CONTINUOUS
 70
0
 71
3
 72
14
 73
10
 74
0
 42
0.0000001
 43
0.0000001
 44
0.0000000001
 40
0.0
 40
0.0
 40
0.0
 40
0.0
 40
0.1054111614
 40
0.2185302013
 40
0.3414415557
 40
0.4729319743
 40
0.6094238078
 40
0.746134865
 40
1.0
 40
1.0
 40
1.0
 40
1.0
 10
18.2562426835
 20
-35.8769862817
 30
0.0
 10
18.2048485209
 20
-35.9098956591
 30
0.0
 10
18.0837720871
 20
-35.9571315725
 30
0.0
 10
17.8829327312
 20
-35.9613990168
 30
0.0
 10
17.675349377
 20
-35.9040370216
 30
0.0
 10
17.4769618865
 20
-35.7910597772
 30
0.0
 10
17.3025684878
 20
-35.6314359093
 30
0.0
 10
17.1253321206
 20
-35.3819237401
 30
0.0
 10
17.0554707872
 20
-35.1538980736
 30
0.0
 10
17.0554707872
 20
-35.0069229389
 30
0.0
  0
SPLINE
  5
332
100
AcDbEntity
  8
0
100
AcDbSpline
 62
7
  6
CONTINUOUS
 70
0
 71
3
 72
14
 73
10
 74
0
 42
0.0000001
 43
0.0000001
 44
0.0000000001
 40
0.0
 40
0.0
 40
0.0
 40
0.0
 40
0.1072983274
 40
0.2230069407
 40
0.3477110814
 40
0.4795327459
 40
0.6149551838
 40
0.7497155977
 40
1.0
 40
1.0
 40
1.0
 40
1.0
 10
18.170593903
 20
-36.7874819524
 30
0.0
 10
18.071150169
 20
-36.8274436839
 30
0.0
 10
17.8483519696
 20
-36.8734041771
 30
0.0
 10
17.4986274917
 20
-36.837840468
 30
0.0
 10
17.1469348544
 20
-36.7065284191
 30
0.0
 10
16.8173347241
 20
-36.4900074446
 30
0.0
 10
16.5318375305
 20
-36.2031611494
 30
0.0
 10
16.2446325808
 20
-35.768165992
 30
0.0
 10
16.1334036396
 20
-35.3804479696
 30
0.0
 10
16.1334036396
 20
-35.1304565127
 30
0.0
  0
SPLINE
  5
333
100
AcDbEntity
  8
0
100
AcDbSpline
 62
7
  6
CONTINUOUS
 70
0
 71
3
 72
9
 73
5
 74
0
 42
0.0000001
 43
0.0000001
 44
0.0000000001
 40
0.0
 40
0.0
 40
0.0
 40
0.0
 40
0.4812835191
 40
1.0
 40
1.0
 40
1.0
 40
1.0
 10
17.1825341394
 20
-34.6368834841
 30
0.0
 10
17.1407949457
 20
-34.6851197328
 30
0.0
 10
17.074592346
 20
-34.804321653
 30
0.0
 10
17.0554707872
 20
-34.9381737861
 30
0.0
 10
17.0554707872
 20
-35.0069229389
 30
0.0
  0
SPLINE
  5
334
100
AcDbEntity
  8
0
100
AcDbSpline
 62
7
  6
CONTINUOUS
 70
0
 71
3
 72
10
 73
6
 74
0
 42
0.0000001
 43
0.0000001
 44
0.0000000001
 40
0.0
 40
0.0
 40
0.0
 40
0.0
 40
0.2380212894
 40
0.4816806056
 40
1.0
 40
1.0
 40
1.0
 40
1.0
 10
16.0254619657
 20
-34.7396247296
 30
0.0
 10
15.9747926311
 20
-34.7835051303
 30
0.0
 10
15.8826096713
 20
-34.8851316789
 30
0.0
 10
15.7458641573
 20
-35.1335242942
 30
0.0
 10
15.7084036396
 20
-35.352554023
 30
0.0
 10
15.7084036396
 20
-35.4985173093
 30
0.0
  0
SPLINE
  5
335
100
AcDbEntity
  8
0
100
AcDbSpline
 62
7
  6
CONTINUOUS
 70
0
 71
3
 72
9
 73
5
 74
0
 42
0.0000001
 43
0.0000001
 44
0.0000000001
 40
0.0
 40
0.0
 40
0.0
 40
0.0
 40
0.4844034746
 40
1.0
 40
1.0
 40
1.0
 40
1.0
 10
16.269084673
 20
-34.5916120251
 30
0.0
 10
16.223673818
 20
-34.6698980618
 30
0.0
 10
16.1541804429
 20
-34.8463732723
 30
0.0
 10
16.1334036396
 20
-35.0341252617
 30
0.0
 10
16.1334036396
 20
-35.1304565127
 30
0.0
  0
SPLINE
  5
336
100
AcDbEntity
  8
0
100
AcDbSpline
 62
7
  6
CONTINUOUS
 70
0
 71
3
 72
10
 73
6
 74
0
 42
0.0000001
 43
0.0000001
 44
0.0000000001
 40
0.0
 40
0.0
 40
0.0
 40
0.0
 40
0.2380212894
 40
0.4816806056
 40
1.0
 40
1.0
 40
1.0
 40
1.0
 10
-19.4815795894
 20
35.6991408335
 30
0.0
 10
-19.532248924
 20
35.6552604327
 30
0.0
 10
-19.6244318839
 20
35.5536338841
 30
0.0
 10
-19.7611773978
 20
35.3052412688
 30
0.0
 10
-19.7986379155
 20
35.0862115401
 30
0.0
 10
-19.7986379155
 20
34.9402482538
 30
0.0
  0
SPLINE
  5
337
100
AcDbEntity
  8
0
100
AcDbSpline
 62
7
  6
CONTINUOUS
 70
0
 71
3
 72
10
 73
6
 74
0
 42
0.0000001
 43
0.0000001
 44
0.0000000001
 40
0.0
 40
0.0
 40
0.0
 40
0.0
 40
0.2380212894
 40
0.4816806056
 40
1.0
 40
1.0
 40
1.0
 40
1.0
 10
57.1616686455
 20
-46.6146247296
 30
0.0
 10
57.1109993109
 20
-46.6585051303
 30
0.0
 10
57.018816351
 20
-46.7601316789
 30
0.0
 10
56.8820708371
 20
-47.0085242942
 30
0.0
 10
56.8446103194
 20
-47.227554023
 30
0.0
 10
56.8446103194
 20
-47.3735173093
 30
0.0
  0
SPLINE
  5
338
100
AcDbEntity
  8
0
100
AcDbSpline
 62
250
  6
CONTINUOUS
 70
0
 71
3
 72
9
 73
5
 74
0
 42
0.0000001
 43
0.0000001
 44
0.0000000001
 40
0.0
 40
0.0
 40
0.0
 40
0.0
 40
0.4828965147
 40
1.0
 40
1.0
 40
1.0
 40
1.0
 10
57.3397569491
 20
-46.4963461348
 30
0.0
 10
57.2819966666
 20
-46.5798360853
 30
0.0
 10
57.1924364486
 20
-46.7747687877
 30
0.0
 10
57.1660569288
 20
-46.9864223025
 30
0.0
 10
57.1660569288
 20
-47.0951363796
 30
0.0
  0
ENDSEC
  0
SECTION
  2
OBJECTS
  0
DICTIONARY
  5
C
100
AcDbDictionary
280
0
281
1
  3
ACAD_GROUP
350
D
  3
ACAD_MLINESTYLE
350
17
  3
ACAD_LAYOUT
350
1A
  3
ACAD_PLOTSETTINGS
350
19
  3
ACAD_PLOTSTYLENAME
350
E
  0
DICTIONARY
  5
D
102
{ACAD_REACTORS
330
C
102
}
100
AcDbDictionary
280
0
281
1
  0
ACDBDICTIONARYWDFLT
  5
E
102
{ACAD_REACTORS
330
C
102
}
100
AcDbDictionary
281
1
  3
Normal
350
F
100
AcDbDictionaryWithDefault
340
F
  0
DICTIONARY
  5
17
102
{ACAD_REACTORS
330
C
102
}
100
AcDbDictionary
280
0
281
1
  3
Standard
350
18
  0
DICTIONARY
  5
19
102
{ACAD_REACTORS
330
C
102
}
100
AcDbDictionary
281
1
  0
DICTIONARY
  5
1A
102
{ACAD_REACTORS
330
C
102
}
100
AcDbDictionary
281
1
  3
Model
350
339
  3
Layout1
350
33A
  0
ACDBPLACEHOLDER
  5
F
102
{ACAD_REACTORS
330
E
102
}
  0
MLINESTYLE
  5
18
102
{ACAD_REACTORS
330
17
102
}
100
AcDbMlineStyle
  2
STANDARD
 70
0
  3

 62
256
 51
90.0
 52
90.0
 71
2
 49
0.5
 62
256
  6
BYLAYER
 49
-0.5
 62
256
  6
BYLAYER
  0
LAYOUT
  5
339
102
{ACAD_REACTORS
330
1A
102
}
100
AcDbPlotSettings
  1

  2
none_device
  4
ANSI_C_(22.00_x_17.00_Inches)
  6

 40
0.0
 41
0.0
 42
0.0
 43
0.0
 44
558.8
 45
431.8
 46
0.0
 47
0.0
 48
0.0
 49
0.0
140
0.0
141
0.0
142
1.0
143
1.0
 70
1024
 72
1
 73
0
 74
0
  7

 75
0
147
1.0
148
0.0
149
0.0
100
AcDbLayout
  1
Model
 70
0
 71
0
 10
0.0
 20
0.0
 11
558.8
 21
431.8
 12
0.0
 22
0.0
 32
0.0
 14
0.0
 24
0.0
 34
0.0
 15
0.0
 25
0.0
 35
0.0
146
0.0
 13
0.0
 23
0.0
 33
0.0
 16
1.0
 26
0.0
 36
0.0
 17
0.0
 27
1.0
 37
0.0
 76
0
330
20D
345
0
346
0
  0
LAYOUT
  5
33A
102
{ACAD_REACTORS
330
1A
102
}
100
AcDbPlotSettings
  1

  2
none_device
  4
ANSI_C_(22.00_x_17.00_Inches)
  6

 40
0.0
 41
0.0
 42
0.0
 43
0.0
 44
558.8
 45
431.8
 46
0.0
 47
0.0
 48
0.0
 49
0.0
140
0.0
141
0.0
142
1.0
143
1.0
 70
0
 72
1
 73
0
 74
0
  7

 75
0
147
1.0
148
0.0
149
0.0
100
AcDbLayout
  1
Layout1
 70
0
 71
1
 10
0.0
 20
0.0
 11
558.8
 21
431.8
 12
0.0
 22
0.0
 32
0.0
 14
0.0
 24
0.0
 34
0.0
 15
0.0
 25
0.0
 35
0.0
146
0.0
 13
0.0
 23
0.0
 33
0.0
 16
1.0
 26
0.0
 36
0.0
 17
0.0
 27
1.0
 37
0.0
 76
0
330
20E
345
0
346
0
  0
ENDSEC
  0
EOF
