  0
SECTION
  2
HEADER
  9
$ACADVER
  1
AC1024
  9
$DWGCODEPAGE
  3
ANSI_1252
  9
$EXTMAX
 10
558.8
 20
431.8
 30
0.0
  9
$EXTMIN
 10
0.0
 20
0.0
 30
0.0
  9
$LIMMIN
 10
0.0
 20
0.0
  9
$LIMMAX
 10
558.8
 20
431.8
  9
$VIEWCTR
 10
279.4
 20
215.9
  9
$VIEWSIZE
 40
431.8
  9
$CLAYER
  8
0
  9
$LTSCALE
 40
30.734
  9
$CELTYPE
  6
BYLAYER
  9
$DIMSCALE
 40
1.0
  9
$DIMASZ
 40
3.0
  9
$DIMEXO
 40
0.5
  9
$DIMDLI
 40
21.2344
  9
$DIMEXE
 40
1.5
  9
$DIMCEN
 40
5.0292
  9
$DIMLFAC
 40
1.0
  9
$DIMBLK
  1
_FILLED
  9
$DIMALT
 70
0
  9
$DIMALTF
 40
0.0393700787
  9
$DIMTXT
 40
3.0
  9
$DIMTOL
 70
1
  9
$DIMLIM
 70
0
  9
$DIMTFAC
 40
1.0
  9
$DIMTP
 40
0.01
  9
$DIMTM
 40
0.01
  9
$DIMGAP
 40
0.625
  9
$DIMDSEP
 70
44
  9
$AUNITS
 70
0
  9
$PDMODE
 70
3
  9
$PDSIZE
 40
3.0
  9
$HANDSEED
  5
329
  9
$TILEMODE
 70
1
  9
$MEASUREMENT
 70
1
  9
$INSUNITS
 70
4
  0
ENDSEC
  0
SECTION
  2
CLASSES
  0
CLASS
  1
ACDBDICTIONARYWDFLT
  2
AcDbDictionaryWithDefault
  3
AutoCAD 2000
 90
0
 91
1
280
0
281
0
  0
CLASS
  1
ACDBPLACEHOLDER
  2
AcDbPlaceHolder
  3
AutoCAD 2000
 90
0
 91
1
280
0
281
0
  0
CLASS
  1
LAYOUT
  2
AcDbLayout
  3
AutoCAD 2000
 90
0
 91
0
280
0
281
0
  0
ENDSEC
  0
SECTION
  2
TABLES
  0
TABLE
  2
VPORT
  5
8
100
AcDbSymbolTable
 70
2
  0
VPORT
  5
1F4
100
AcDbSymbolTableRecord
100
AcDbViewportTableRecord
  2
*ACTIVE
 70
0
 10
0.0
 20
0.0
 11
1.0
 21
1.0
 12
279.4
 22
215.9
 13
0.0
 23
0.0
 14
1.0
 24
1.0
 15
0.0
 25
0.0
 16
0.0
 26
0.0
 36
1.0
 17
0.0
 27
0.0
 37
0.0
 40
431.8
 41
1.2941176471
 42
50.0
 43
0.0
 44
0.0
 50
0.0
 51
0.0
 71
0
 72
100
 73
1
 74
1
 75
0
 76
0
 77
0
 78
0
  0
ENDTAB
  0
TABLE
  2
LTYPE
  5
5
100
AcDbSymbolTable
 70
6
  0
LTYPE
  5
14
100
AcDbSymbolTableRecord
100
AcDbLinetypeTableRecord
  2
BYBLOCK
 70
0
  3

 72
65
 73
0
 40
0.0
  0
LTYPE
  5
15
100
AcDbSymbolTableRecord
100
AcDbLinetypeTableRecord
  2
BYLAYER
 70
0
  3

 72
65
 73
0
 40
0.0
  0
LTYPE
  5
16
100
AcDbSymbolTableRecord
100
AcDbLinetypeTableRecord
  2
CONTINUOUS
 70
64
  3
Solid line
 72
65
 73
0
 40
0.0
  0
LTYPE
  5
1F5
100
AcDbSymbolTableRecord
100
AcDbLinetypeTableRecord
  2
CENTER
 70
64
  3
____ _ ____ _ ____ _ ____ _ ____ _ ____ _ ____
 72
65
 73
4
 40
0.6
 49
0.375
 74
0
 49
-0.075
 74
0
 49
0.075
 74
0
 49
-0.075
 74
0
  0
LTYPE
  5
1F6
100
AcDbSymbolTableRecord
100
AcDbLinetypeTableRecord
  2
HIDDEN
 70
64
  3
- - - - - - - - - - - - - - - - - - - -
 72
65
 73
2
 40
0.2
 49
0.1
 74
0
 49
-0.1
 74
0
  0
LTYPE
  5
1F7
100
AcDbSymbolTableRecord
100
AcDbLinetypeTableRecord
  2
PHANTOM
 70
64
  3
_____ _ _ _____ _ _ _____ _ _ _____
 72
65
 73
6
 40
0.8
 49
0.45
 74
0
 49
-0.05
 74
0
 49
0.1
 74
0
 49
-0.05
 74
0
 49
0.1
 74
0
 49
-0.05
 74
0
  0
LTYPE
  5
1F8
100
AcDbSymbolTableRecord
100
AcDbLinetypeTableRecord
  2
DOT
 70
64
  3
. . . . . . . . . . . . . . . . . . . .
 72
65
 73
2
 40
0.2
 49
0.1
 74
0
 49
-0.1
 74
0
  0
LTYPE
  5
1F9
100
AcDbSymbolTableRecord
100
AcDbLinetypeTableRecord
  2
DASHED
 70
64
  3
- - - - - - - - - - - - - - - - - - - -
 72
65
 73
2
 40
0.2
 49
0.1
 74
0
 49
-0.1
 74
0
  0
ENDTAB
  0
TABLE
  2
LAYER
  5
2
100
AcDbSymbolTable
 70
36
  0
LAYER
  5
10
100
AcDbSymbolTableRecord
100
AcDbLayerTableRecord
  2
0
 70
0
 62
7
  6
CONTINUOUS
370
-3
390
F
  0
LAYER
  5
1FA
100
AcDbSymbolTableRecord
100
AcDbLayerTableRecord
  2
DEFAULT_1
 70
0
 62
7
  6
CENTER
370
-3
390
F
  0
LAYER
  5
1FB
100
AcDbSymbolTableRecord
100
AcDbLayerTableRecord
  2
DEFAULT_2
 70
0
 62
7
  6
HIDDEN
370
-3
390
F
  0
LAYER
  5
1FC
100
AcDbSymbolTableRecord
100
AcDbLayerTableRecord
  2
DEFAULT_3
 70
0
 62
7
  6
PHANTOM
370
-3
390
F
  0
LAYER
  5
1FD
100
AcDbSymbolTableRecord
100
AcDbLayerTableRecord
  2
ASSI
 70
0
 62
7
  6
CONTINUOUS
370
-3
390
F
  0
LAYER
  5
1FE
100
AcDbSymbolTableRecord
100
AcDbLayerTableRecord
  2
COORDINATE
 70
0
 62
7
  6
CONTINUOUS
370
-3
390
F
  0
LAYER
  5
1FF
100
AcDbSymbolTableRecord
100
AcDbLayerTableRecord
  2
COPY_PUBLISH
 70
0
 62
7
  6
CONTINUOUS
370
-3
390
F
  0
LAYER
  5
200
100
AcDbSymbolTableRecord
100
AcDbLayerTableRecord
  2
COSMETIC
 70
0
 62
7
  6
CONTINUOUS
370
-3
390
F
  0
LAYER
  5
201
100
AcDbSymbolTableRecord
100
AcDbLayerTableRecord
  2
CURVE
 70
0
 62
7
  6
CONTINUOUS
370
-3
390
F
  0
LAYER
  5
202
100
AcDbSymbolTableRecord
100
AcDbLayerTableRecord
  2
IMPORT_IGES
 70
0
 62
7
  6
CONTINUOUS
370
-3
390
F
  0
LAYER
  5
203
100
AcDbSymbolTableRecord
100
AcDbLayerTableRecord
  2
NOTE
 70
0
 62
7
  6
CONTINUOUS
370
-3
390
F
  0
LAYER
  5
204
100
AcDbSymbolTableRecord
100
AcDbLayerTableRecord
  2
PIANI
 70
0
 62
7
  6
CONTINUOUS
370
-3
390
F
  0
LAYER
  5
205
100
AcDbSymbolTableRecord
100
AcDbLayerTableRecord
  2
PUNTI
 70
0
 62
7
  6
CONTINUOUS
370
-3
390
F
  0
LAYER
  5
206
100
AcDbSymbolTableRecord
100
AcDbLayerTableRecord
  2
RACCORDO
 70
0
 62
7
  6
CONTINUOUS
370
-3
390
F
  0
LAYER
  5
207
100
AcDbSymbolTableRecord
100
AcDbLayerTableRecord
  2
SNAPLINE
 70
0
 62
7
  6
CONTINUOUS
370
-3
390
F
  0
LAYER
  5
208
100
AcDbSymbolTableRecord
100
AcDbLayerTableRecord
  2
TRASH
 70
0
 62
7
  6
CONTINUOUS
370
-3
390
F
  0
ENDTAB
  0
TABLE
  2
STYLE
  5
3
100
AcDbSymbolTable
 70
1
  0
STYLE
  5
11
100
AcDbSymbolTableRecord
100
AcDbTextStyleTableRecord
  2
STANDARD
 70
0
 40
0.0
 41
0.8
 50
0.0
 71
0
 42
0.2
  3
txt
  4

  0
STYLE
  5
209
100
AcDbSymbolTableRecord
100
AcDbTextStyleTableRecord
  2
TEXTSTYLE_1
 70
0
 40
0.0
 41
0.8
 50
0.0
 71
0
 42
0.2
  3
gdt
  4

  0
ENDTAB
  0
TABLE
  2
VIEW
  5
6
100
AcDbSymbolTable
 70
0
  0
ENDTAB
  0
TABLE
  2
UCS
  5
7
100
AcDbSymbolTable
 70
0
  0
ENDTAB
  0
TABLE
  2
APPID
  5
9
100
AcDbSymbolTable
 70
1
  0
APPID
  5
20A
100
AcDbSymbolTableRecord
100
AcDbRegAppTableRecord
  2
ACAD
 70
0
  0
ENDTAB
  0
TABLE
  2
BLOCK_RECORD
  5
1
100
AcDbSymbolTable
 70
0
  0
BLOCK_RECORD
  5
20B
100
AcDbSymbolTableRecord
100
AcDbBlockTableRecord
  2
*Model_Space
  0
BLOCK_RECORD
  5
20C
100
AcDbSymbolTableRecord
100
AcDbBlockTableRecord
  2
*Paper_Space
  0
BLOCK_RECORD
  5
20D
100
AcDbSymbolTableRecord
100
AcDbBlockTableRecord
  2
_FILLED
  0
ENDTAB
  0
TABLE
  2
DIMSTYLE
  5
A
100
AcDbSymbolTable
 70
1
100
AcDbDimStyleTable
 71
0
  0
DIMSTYLE
105
20E
100
AcDbSymbolTableRecord
100
AcDbDimStyleTableRecord
  2
STANDARD
 70
0
  3

  4

 40
1.0
 41
3.0
 42
0.5
 43
0.38
 44
1.5
 45
0.0
 46
0.0
 47
0.01
 48
0.01
140
3.0
141
0.09
142
0.0
143
25.4
144
1.0
145
0.0
146
1.0
147
0.625
 71
1.0
 72
0.0
 73
0
 74
0
 75
0
 76
0
 77
1
 78
8
 79
2
170
0
171
1
172
0
173
0
174
0
175
0
176
0
177
0
178
0
270
2
179
2
271
2
272
2
273
2
274
2
275
0
280
0
281
0
282
0
283
1
284
8
285
0
286
0
287
3
288
0
340
11
278
44
341
20D
342
20D
343
20D
344
20D
  0
ENDTAB
  0
ENDSEC
  0
SECTION
  2
BLOCKS
  0
BLOCK
  5
20
100
AcDbEntity
  8
0
100
AcDbBlockBegin
  2
*Model_Space
 70
0
 10
0.0
 20
0.0
 30
0.0
  3
*Model_Space
  1

  0
ENDBLK
  5
21
100
AcDbEntity
  8
0
100
AcDbBlockEnd
  0
BLOCK
  5
1C
100
AcDbEntity
  8
0
100
AcDbBlockBegin
  2
*Paper_Space
 70
0
 10
0.0
 20
0.0
 30
0.0
  3
*Paper_Space
  1

  0
ENDBLK
  5
1D
100
AcDbEntity
  8
0
100
AcDbBlockEnd
  0
BLOCK
  5
20F
100
AcDbEntity
  8
0
100
AcDbBlockBegin
  2
_FILLED
 70
64
 10
0.0
 20
0.0
  3
_FILLED
  1

  0
SOLID
  5
210
100
AcDbEntity
  8
0
  6
BYBLOCK
 62
0
100
AcDbTrace
 10
0.0
 20
0.0
 11
-1.0
 21
0.3166666667
 12
-1.0
 22
-0.3166666667
 13
-1.0
 23
-0.3166666667
  0
ENDBLK
  5
211
100
AcDbEntity
  8
0
  6
BYBLOCK
 62
0
100
AcDbBlockEnd
  0
ENDSEC
  0
SECTION
  2
ENTITIES
  0
LINE
  5
212
100
AcDbEntity
  8
ASSI
100
AcDbLine
 62
7
  6
CONTINUOUS
 10
-88.4802960301
 20
63.4040139462
 11
-89.4052960301
 21
62.6029404477
  0
LINE
  5
213
100
AcDbEntity
  8
RACCORDO
100
AcDbLine
 62
250
  6
CONTINUOUS
 10
-85.2070276766
 20
63.954496235
 11
-86.1320276766
 21
63.1534227365
  0
LINE
  5
214
100
AcDbEntity
  8
RACCORDO
100
AcDbLine
 62
7
  6
CONTINUOUS
 10
-90.5961292917
 20
59.8232957176
 11
-90.5961292917
 21
-9.0257238832
  0
LINE
  5
215
100
AcDbEntity
  8
RACCORDO
100
AcDbLine
 62
250
  6
CONTINUOUS
 10
-90.0961292917
 20
59.3902830157
 11
-90.0961292917
 21
-9.4587365851
  0
LINE
  5
216
100
AcDbEntity
  8
RACCORDO
100
AcDbLine
 62
7
  6
CONTINUOUS
 10
-86.4093777747
 20
-14.4505944212
 11
85.0636521747
 21
-63.9505944212
  0
LINE
  5
217
100
AcDbEntity
  8
RACCORDO
100
AcDbLine
 62
250
  6
CONTINUOUS
 10
-86.6320276766
 20
-13.9228382003
 11
84.8410022728
 21
-63.4228382003
  0
LINE
  5
218
100
AcDbEntity
  8
0
100
AcDbLine
 62
7
  6
CONTINUOUS
 10
-2.6817860153
 20
-36.8832977935
 11
-2.5033670286
 21
-36.9348029185
  0
LINE
  5
219
100
AcDbEntity
  8
0
100
AcDbLine
 62
7
  6
CONTINUOUS
 10
-2.1796822397
 20
-37.0282426685
 11
-2.0013126165
 21
-37.0797335435
  0
LINE
  5
21A
100
AcDbEntity
  8
0
100
AcDbLine
 62
7
  6
CONTINUOUS
 10
-0.5005932157
 20
-37.5129539185
 11
-0.3387508213
 21
-37.5596737935
  0
LINE
  5
21B
100
AcDbEntity
  8
0
100
AcDbLine
 62
7
  6
CONTINUOUS
 10
-1.0651776931
 20
-37.0354687979
 11
-0.5005932157
 21
-37.1984502979
  0
LINE
  5
21C
100
AcDbEntity
  8
0
100
AcDbLine
 62
7
  6
CONTINUOUS
 10
-0.3387508213
 20
-37.2451701729
 11
-0.1492973719
 21
-37.2998606729
  0
LINE
  5
21D
100
AcDbEntity
  8
0
100
AcDbLine
 62
7
  6
CONTINUOUS
 10
-0.1492973719
 20
-37.1601023593
 11
-0.3387508213
 21
-37.1054118593
  0
LINE
  5
21E
100
AcDbEntity
  8
0
100
AcDbLine
 62
7
  6
CONTINUOUS
 10
-0.5005932157
 20
-37.0586919843
 11
-0.916233448
 21
-36.9387069843
  0
LINE
  5
21F
100
AcDbEntity
  8
0
100
AcDbLine
 62
7
  6
CONTINUOUS
 10
-0.1367973719
 20
-37.1492770417
 11
-0.3262508213
 21
-37.0945865417
  0
LINE
  5
220
100
AcDbEntity
  8
0
100
AcDbLine
 62
7
  6
CONTINUOUS
 10
-0.5005932157
 20
-37.0442582276
 11
-0.903733448
 21
-36.9278816667
  0
LINE
  5
221
100
AcDbEntity
  8
0
100
AcDbLine
 62
7
  6
CONTINUOUS
 10
-2.0013126165
 20
-36.5224665478
 11
-1.586088674
 21
-36.6423313752
  0
LINE
  5
222
100
AcDbEntity
  8
0
100
AcDbLine
 62
7
  6
CONTINUOUS
 10
-1.6277035068
 20
-36.4776907566
 11
-2.0013126165
 21
-36.3698390966
  0
LINE
  5
223
100
AcDbEntity
  8
0
100
AcDbLine
 62
7
  6
CONTINUOUS
 10
-1.6152034509
 20
-36.4668654552
 11
-1.9888126165
 21
-36.3590137791
  0
LINE
  5
224
100
AcDbEntity
  8
0
100
AcDbLine
 62
7
  6
CONTINUOUS
 10
-2.0013126165
 20
-35.9118891932
 11
-1.6277070325
 21
-36.0197398355
  0
LINE
  5
225
100
AcDbEntity
  8
0
100
AcDbLine
 62
7
  6
CONTINUOUS
 10
-0.3387508213
 20
-36.2392024251
 11
-0.4530757009
 21
-36.2061996751
  0
LINE
  5
226
100
AcDbEntity
  8
0
100
AcDbLine
 62
7
  6
CONTINUOUS
 10
-1.5860864862
 20
-35.8791276342
 11
-2.1796822397
 21
-35.7077713001
  0
LINE
  5
227
100
AcDbEntity
  8
0
100
AcDbLine
 62
7
  6
CONTINUOUS
 10
-2.5033670286
 20
-35.6143315501
 11
-2.6817860153
 21
-35.5628264251
  0
LINE
  5
228
100
AcDbEntity
  8
0
100
AcDbLine
 62
7
  6
CONTINUOUS
 10
-0.3262508213
 20
-36.2283771076
 11
-0.4405757009
 21
-36.1953743576
  0
LINE
  5
229
100
AcDbEntity
  8
0
100
AcDbLine
 62
7
  6
CONTINUOUS
 10
-1.5735864828
 20
-35.8683023176
 11
-2.1671822397
 21
-35.6969459826
  0
LINE
  5
22A
100
AcDbEntity
  8
0
100
AcDbLine
 62
7
  6
CONTINUOUS
 10
-2.4908670286
 20
-35.6035062326
 11
-2.6692860153
 21
-35.5520011076
  0
LINE
  5
22B
100
AcDbEntity
  8
0
100
AcDbLine
 62
7
  6
CONTINUOUS
 10
-0.3910591887
 20
-1.8637121545
 11
-0.57324885
 21
0.137201338
  0
LINE
  5
22C
100
AcDbEntity
  8
0
100
AcDbLine
 62
7
  6
CONTINUOUS
 10
-0.3785591887
 20
-1.852886837
 11
-0.56074885
 21
0.1480266556
  0
LINE
  5
22D
100
AcDbEntity
  8
0
100
AcDbLine
 62
7
  6
CONTINUOUS
 10
-0.8724666892
 20
-0.4578288862
 11
-0.7889108262
 21
-1.7488622795
  0
LINE
  5
22E
100
AcDbEntity
  8
0
100
AcDbLine
 62
7
  6
CONTINUOUS
 10
-2.9926172552
 20
0.8357297514
 11
-2.9926172552
 21
-1.1127070295
  0
LINE
  5
22F
100
AcDbEntity
  8
0
100
AcDbLine
 62
7
  6
CONTINUOUS
 10
-2.6817860153
 20
-35.5628264251
 11
-2.6817860153
 21
-36.8832977935
  0
LINE
  5
230
100
AcDbEntity
  8
0
100
AcDbLine
 62
7
  6
CONTINUOUS
 10
-2.5859265294
 20
-1.2301085295
 11
-2.5859265294
 21
0.7183282514
  0
LINE
  5
231
100
AcDbEntity
  8
0
100
AcDbLine
 62
7
  6
CONTINUOUS
 10
-2.5734265294
 20
-1.219283212
 11
-2.5734265294
 21
0.729153569
  0
LINE
  5
232
100
AcDbEntity
  8
0
100
AcDbLine
 62
7
  6
CONTINUOUS
 10
-2.5033670286
 20
-36.9348029185
 11
-2.5033670286
 21
-35.6143315501
  0
LINE
  5
233
100
AcDbEntity
  8
0
100
AcDbLine
 62
7
  6
CONTINUOUS
 10
-2.4908670286
 20
-36.923977601
 11
-2.4908670286
 21
-35.6035062326
  0
LINE
  5
234
100
AcDbEntity
  8
0
100
AcDbLine
 62
7
  6
CONTINUOUS
 10
-2.1796822397
 20
-35.7077713001
 11
-2.1796822397
 21
-37.0282426685
  0
LINE
  5
235
100
AcDbEntity
  8
0
100
AcDbLine
 62
7
  6
CONTINUOUS
 10
-2.0013126165
 20
-37.0797335435
 11
-2.0013126165
 21
-36.5224665478
  0
LINE
  5
236
100
AcDbEntity
  8
0
100
AcDbLine
 62
7
  6
CONTINUOUS
 10
-2.0013126165
 20
-36.3698390966
 11
-2.0013126165
 21
-35.9118891932
  0
LINE
  5
237
100
AcDbEntity
  8
0
100
AcDbLine
 62
7
  6
CONTINUOUS
 10
-1.9888126165
 20
-37.068908226
 11
-1.9888126165
 21
-36.5260749869
  0
LINE
  5
238
100
AcDbEntity
  8
0
100
AcDbLine
 62
7
  6
CONTINUOUS
 10
-1.9888126165
 20
-36.3590137791
 11
-1.9888126165
 21
-35.9154976324
  0
LINE
  5
239
100
AcDbEntity
  8
0
100
AcDbLine
 62
7
  6
CONTINUOUS
 10
-1.0651776931
 20
-36.8773191358
 11
-1.0651776931
 21
-37.0354687979
  0
LINE
  5
23A
100
AcDbEntity
  8
0
100
AcDbLine
 62
7
  6
CONTINUOUS
 10
-0.5005932157
 20
-36.4667558266
 11
-0.5005932157
 21
-37.0586919843
  0
LINE
  5
23B
100
AcDbEntity
  8
0
100
AcDbLine
 62
7
  6
CONTINUOUS
 10
-0.5005932157
 20
-37.1984502979
 11
-0.5005932157
 21
-37.5129539185
  0
LINE
  5
23C
100
AcDbEntity
  8
0
100
AcDbLine
 62
7
  6
CONTINUOUS
 10
-0.3387508213
 20
-37.5596737935
 11
-0.3387508213
 21
-37.2451701729
  0
LINE
  5
23D
100
AcDbEntity
  8
0
100
AcDbLine
 62
7
  6
CONTINUOUS
 10
-0.3387508213
 20
-37.1054118593
 11
-0.3387508213
 21
-36.2392024251
  0
LINE
  5
23E
100
AcDbEntity
  8
0
100
AcDbLine
 62
7
  6
CONTINUOUS
 10
-0.3262508213
 20
-37.548848476
 11
-0.3262508213
 21
-37.2487786121
  0
LINE
  5
23F
100
AcDbEntity
  8
0
100
AcDbLine
 62
7
  6
CONTINUOUS
 10
-0.3262508213
 20
-37.0945865417
 11
-0.3262508213
 21
-36.2283771076
  0
LINE
  5
240
100
AcDbEntity
  8
0
100
AcDbLine
 62
7
  6
CONTINUOUS
 10
-0.1492973719
 20
-37.2998606729
 11
-0.1492973719
 21
-37.1601023593
  0
LINE
  5
241
100
AcDbEntity
  8
0
100
AcDbLine
 62
7
  6
CONTINUOUS
 10
-0.1367973719
 20
-37.2890353554
 11
-0.1367973719
 21
-37.1492770417
  0
LINE
  5
242
100
AcDbEntity
  8
0
100
AcDbLine
 62
7
  6
CONTINUOUS
 10
-1.9779212703
 20
-1.4056245295
 11
-1.8901578229
 21
-0.1587436547
  0
LINE
  5
243
100
AcDbEntity
  8
0
100
AcDbLine
 62
7
  6
CONTINUOUS
 10
-1.9654212703
 20
-1.394799212
 11
-1.8804409728
 21
-0.1874593595
  0
LINE
  5
244
100
AcDbEntity
  8
0
100
AcDbLine
 62
7
  6
CONTINUOUS
 10
-2.1910700408
 20
0.604226088
 11
-2.3669922763
 21
-1.2933094045
  0
LINE
  5
245
100
AcDbEntity
  8
0
100
AcDbLine
 62
7
  6
CONTINUOUS
 10
0.2704924211
 20
-1.3647604544
 11
0.4729903781
 21
-0.7001706708
  0
LINE
  5
246
100
AcDbEntity
  8
0
100
AcDbLine
 62
7
  6
CONTINUOUS
 10
0.2829924211
 20
-1.3539351369
 11
0.4770495795
 21
-0.7170476995
  0
LINE
  5
247
100
AcDbEntity
  8
0
100
AcDbLine
 62
7
  6
CONTINUOUS
 10
-3.549953966
 20
0.996502088
 11
-3.9326839339
 21
-0.2341021222
  0
LINE
  5
248
100
AcDbEntity
  8
0
100
AcDbLine
 62
7
  6
CONTINUOUS
 10
0.0750807169
 20
-1.9982751545
 11
0.1873015878
 21
-1.6417164371
  0
LINE
  5
249
100
AcDbEntity
  8
0
100
AcDbLine
 62
7
  6
CONTINUOUS
 10
0.0875807169
 20
-1.987449837
 11
0.1955749649
 21
-1.6443203436
  0
LINE
  5
24A
100
AcDbEntity
  8
0
100
AcDbLine
 62
7
  6
CONTINUOUS
 10
0.283919279
 20
-0.110241787
 11
-0.3271980424
 21
-1.8821472795
  0
LINE
  5
24B
100
AcDbEntity
  8
0
100
AcDbLine
 62
7
  6
CONTINUOUS
 10
-3.7698092372
 20
-0.8883510295
 11
-3.1435412344
 21
0.879180838
  0
LINE
  5
24C
100
AcDbEntity
  8
0
100
AcDbLine
 62
7
  6
CONTINUOUS
 10
-3.7573092372
 20
-0.877525712
 11
-3.1310412344
 21
0.8900061556
  0
LINE
  5
24D
100
AcDbEntity
  8
0
100
AcDbLine
 62
7
  6
CONTINUOUS
 10
-0.9756298004
 20
0.253358713
 11
-1.3823200931
 21
-0.7109532727
  0
LINE
  5
24E
100
AcDbEntity
  8
0
100
AcDbLine
 62
7
  6
CONTINUOUS
 10
-1.3560219327
 20
-1.5851514045
 11
-0.8724666892
 21
-0.4578288862
  0
LINE
  5
24F
100
AcDbEntity
  8
0
100
AcDbLine
 62
7
  6
CONTINUOUS
 10
-1.3435219327
 20
-1.574326087
 11
-0.8714366746
 21
-0.473743787
  0
LINE
  5
250
100
AcDbEntity
  8
0
100
AcDbLine
 62
7
  6
CONTINUOUS
 10
-4.7333610034
 20
1.3525560306
 11
-4.7458610034
 21
1.341730713
  0
LINE
  5
251
100
AcDbEntity
  8
0
100
AcDbLine
 62
7
  6
CONTINUOUS
 10
-4.291568969
 20
1.2250216556
 11
-4.304068969
 21
1.214196338
  0
LINE
  5
252
100
AcDbEntity
  8
0
100
AcDbLine
 62
7
  6
CONTINUOUS
 10
-3.537453966
 20
1.0073274056
 11
-3.549953966
 21
0.996502088
  0
LINE
  5
253
100
AcDbEntity
  8
0
100
AcDbLine
 62
7
  6
CONTINUOUS
 10
-3.1310412344
 20
0.8900061556
 11
-3.1435412344
 21
0.879180838
  0
LINE
  5
254
100
AcDbEntity
  8
0
100
AcDbLine
 62
7
  6
CONTINUOUS
 10
-2.9801172552
 20
0.846555069
 11
-2.9926172552
 21
0.8357297514
  0
LINE
  5
255
100
AcDbEntity
  8
0
100
AcDbLine
 62
7
  6
CONTINUOUS
 10
-2.5734265294
 20
0.729153569
 11
-2.5859265294
 21
0.7183282514
  0
LINE
  5
256
100
AcDbEntity
  8
0
100
AcDbLine
 62
7
  6
CONTINUOUS
 10
-2.1785700408
 20
0.6150514056
 11
-2.1910700408
 21
0.604226088
  0
LINE
  5
257
100
AcDbEntity
  8
0
100
AcDbLine
 62
7
  6
CONTINUOUS
 10
-3.7573092372
 20
-0.877525712
 11
-3.7698092372
 21
-0.8883510295
  0
LINE
  5
258
100
AcDbEntity
  8
0
100
AcDbLine
 62
7
  6
CONTINUOUS
 10
-1.7722157659
 20
0.4977470306
 11
-1.7847157659
 21
0.486921713
  0
LINE
  5
259
100
AcDbEntity
  8
0
100
AcDbLine
 62
7
  6
CONTINUOUS
 10
-0.9631298004
 20
0.2641840306
 11
-0.9756298004
 21
0.253358713
  0
LINE
  5
25A
100
AcDbEntity
  8
0
100
AcDbLine
 62
7
  6
CONTINUOUS
 10
-2.5734265294
 20
-1.219283212
 11
-2.5859265294
 21
-1.2301085295
  0
LINE
  5
25B
100
AcDbEntity
  8
0
100
AcDbLine
 62
7
  6
CONTINUOUS
 10
-0.56074885
 20
0.1480266556
 11
-0.57324885
 21
0.137201338
  0
LINE
  5
25C
100
AcDbEntity
  8
0
100
AcDbLine
 62
7
  6
CONTINUOUS
 10
-1.9654212703
 20
-1.394799212
 11
-1.9779212703
 21
-1.4056245295
  0
LINE
  5
25D
100
AcDbEntity
  8
0
100
AcDbLine
 62
7
  6
CONTINUOUS
 10
0.296419279
 20
-0.0994164694
 11
0.283919279
 21
-0.110241787
  0
LINE
  5
25E
100
AcDbEntity
  8
0
100
AcDbLine
 62
7
  6
CONTINUOUS
 10
-1.3435219327
 20
-1.574326087
 11
-1.3560219327
 21
-1.5851514045
  0
LINE
  5
25F
100
AcDbEntity
  8
0
100
AcDbLine
 62
7
  6
CONTINUOUS
 10
0.6898437946
 20
-0.2129883444
 11
0.6773437946
 21
-0.223813662
  0
LINE
  5
260
100
AcDbEntity
  8
0
100
AcDbLine
 62
7
  6
CONTINUOUS
 10
-4.1282056233
 20
-0.7848909045
 11
-3.7698092372
 21
-0.8883510295
  0
LINE
  5
261
100
AcDbEntity
  8
0
100
AcDbLine
 62
7
  6
CONTINUOUS
 10
-2.9926172552
 20
-1.1127070295
 11
-2.5859265294
 21
-1.2301085295
  0
LINE
  5
262
100
AcDbEntity
  8
0
100
AcDbLine
 62
7
  6
CONTINUOUS
 10
-2.3669922763
 20
-1.2933094045
 11
-1.9779212703
 21
-1.4056245295
  0
LINE
  5
263
100
AcDbEntity
  8
0
100
AcDbLine
 62
7
  6
CONTINUOUS
 10
-1.4130600978
 20
-1.5686859045
 11
-1.3560219327
 21
-1.5851514045
  0
LINE
  5
264
100
AcDbEntity
  8
0
100
AcDbLine
 62
7
  6
CONTINUOUS
 10
-0.7889108262
 20
-1.7488622795
 11
-0.3910591887
 21
-1.8637121545
  0
LINE
  5
265
100
AcDbEntity
  8
0
100
AcDbLine
 62
7
  6
CONTINUOUS
 10
-0.3271980424
 20
-1.8821472795
 11
0.0750807169
 21
-1.9982751545
  0
LINE
  5
266
100
AcDbEntity
  8
0
100
AcDbLine
 62
7
  6
CONTINUOUS
 10
0.8465010726
 20
-2.2209650295
 11
1.2751364491
 21
-2.3447014045
  0
LINE
  5
267
100
AcDbEntity
  8
0
100
AcDbLine
 62
7
  6
CONTINUOUS
 10
1.3945606011
 20
-2.3791759716
 11
1.7996149285
 21
-2.4961050841
  0
LINE
  5
268
100
AcDbEntity
  8
0
100
AcDbLine
 62
7
  6
CONTINUOUS
 10
2.4224056807
 20
-2.6758892883
 11
2.8135948892
 21
-2.7888158857
  0
LINE
  5
269
100
AcDbEntity
  8
0
100
AcDbLine
 62
7
  6
CONTINUOUS
 10
0.1873015878
 20
-1.6417164371
 11
0.7411469172
 21
-1.8015978121
  0
LINE
  5
26A
100
AcDbEntity
  8
0
100
AcDbLine
 62
7
  6
CONTINUOUS
 10
0.65987
 20
-1.4771640794
 11
0.2704924211
 21
-1.3647604544
  0
LINE
  5
26B
100
AcDbEntity
  8
0
100
AcDbLine
 62
7
  6
CONTINUOUS
 10
0.6561394278
 20
-1.4616533993
 11
0.2829924211
 21
-1.3539351369
  0
LINE
  5
26C
100
AcDbEntity
  8
0
100
AcDbLine
 62
7
  6
CONTINUOUS
 10
1.7996149285
 20
-1.7336404259
 11
2.0176727786
 21
-1.7965883051
  0
LINE
  5
26D
100
AcDbEntity
  8
0
100
AcDbLine
 62
7
  6
CONTINUOUS
 10
2.0185493931
 20
-1.4777536938
 11
1.7861296759
 21
-1.4106599006
  0
LINE
  5
26E
100
AcDbEntity
  8
0
100
AcDbLine
 62
7
  6
CONTINUOUS
 10
2.0310493931
 20
-1.4669283762
 11
1.7986296759
 21
-1.3998345831
  0
LINE
  5
26F
100
AcDbEntity
  8
0
100
AcDbLine
 62
7
  6
CONTINUOUS
 10
0.6773437946
 20
-0.223813662
 11
0.283919279
 21
-0.110241787
  0
LINE
  5
270
100
AcDbEntity
  8
0
100
AcDbLine
 62
7
  6
CONTINUOUS
 10
-0.57324885
 20
0.137201338
 11
-0.9756298004
 21
0.253358713
  0
LINE
  5
271
100
AcDbEntity
  8
0
100
AcDbLine
 62
7
  6
CONTINUOUS
 10
-1.7847157659
 20
0.486921713
 11
-2.1910700408
 21
0.604226088
  0
LINE
  5
272
100
AcDbEntity
  8
0
100
AcDbLine
 62
7
  6
CONTINUOUS
 10
-3.1435412344
 20
0.879180838
 11
-3.549953966
 21
0.996502088
  0
LINE
  5
273
100
AcDbEntity
  8
0
100
AcDbLine
 62
7
  6
CONTINUOUS
 10
-4.304068969
 20
1.214196338
 11
-4.7458610034
 21
1.341730713
  0
LINE
  5
274
100
AcDbEntity
  8
0
100
AcDbLine
 62
7
  6
CONTINUOUS
 10
-2.5859265294
 20
0.7183282514
 11
-2.9926172552
 21
0.8357297514
  0
LINE
  5
275
100
AcDbEntity
  8
0
100
AcDbLine
 62
7
  6
CONTINUOUS
 10
0.6898437946
 20
-0.2129883444
 11
0.296419279
 21
-0.0994164694
  0
LINE
  5
276
100
AcDbEntity
  8
0
100
AcDbLine
 62
7
  6
CONTINUOUS
 10
-0.56074885
 20
0.1480266556
 11
-0.9631298004
 21
0.2641840306
  0
LINE
  5
277
100
AcDbEntity
  8
0
100
AcDbLine
 62
7
  6
CONTINUOUS
 10
-1.7722157659
 20
0.4977470306
 11
-2.1785700408
 21
0.6150514056
  0
LINE
  5
278
100
AcDbEntity
  8
0
100
AcDbLine
 62
7
  6
CONTINUOUS
 10
-3.1310412344
 20
0.8900061556
 11
-3.537453966
 21
1.0073274056
  0
LINE
  5
279
100
AcDbEntity
  8
0
100
AcDbLine
 62
7
  6
CONTINUOUS
 10
-4.291568969
 20
1.2250216556
 11
-4.7333610034
 21
1.3525560306
  0
LINE
  5
27A
100
AcDbEntity
  8
0
100
AcDbLine
 62
7
  6
CONTINUOUS
 10
-2.5734265294
 20
0.729153569
 11
-2.9801172552
 21
0.846555069
  0
LINE
  5
27B
100
AcDbEntity
  8
0
100
AcDbLine
 62
7
  6
CONTINUOUS
 10
-1.8901578229
 20
-0.1587436547
 11
-1.4130600978
 21
-1.5686859045
  0
LINE
  5
27C
100
AcDbEntity
  8
0
100
AcDbLine
 62
7
  6
CONTINUOUS
 10
-1.3823200931
 20
-0.7109532727
 11
-1.7847157659
 21
0.486921713
  0
LINE
  5
27D
100
AcDbEntity
  8
0
100
AcDbLine
 62
7
  6
CONTINUOUS
 10
-1.3733380006
 20
-0.6896556424
 11
-1.7722157659
 21
0.4977470306
  0
LINE
  5
27E
100
AcDbEntity
  8
0
100
AcDbLine
 62
7
  6
CONTINUOUS
 10
-4.7458610034
 20
1.341730713
 11
-4.1282056233
 21
-0.7848909045
  0
LINE
  5
27F
100
AcDbEntity
  8
0
100
AcDbLine
 62
7
  6
CONTINUOUS
 10
1.2751364491
 20
-2.3447014045
 11
0.6773437946
 21
-0.223813662
  0
LINE
  5
280
100
AcDbEntity
  8
0
100
AcDbLine
 62
7
  6
CONTINUOUS
 10
1.2876364491
 20
-2.333876087
 11
0.6898437946
 21
-0.2129883444
  0
LINE
  5
281
100
AcDbEntity
  8
0
100
AcDbLine
 62
7
  6
CONTINUOUS
 10
-3.9326839339
 20
-0.2341021222
 11
-4.304068969
 21
1.214196338
  0
LINE
  5
282
100
AcDbEntity
  8
0
100
AcDbLine
 62
7
  6
CONTINUOUS
 10
-3.9243112867
 20
-0.2071812753
 11
-4.291568969
 21
1.2250216556
  0
LINE
  5
283
100
AcDbEntity
  8
0
100
AcDbLine
 62
7
  6
CONTINUOUS
 10
0.7411469172
 20
-1.8015978121
 11
0.8465010726
 21
-2.2209650295
  0
LINE
  5
284
100
AcDbEntity
  8
0
100
AcDbLine
 62
7
  6
CONTINUOUS
 10
0.4729903781
 20
-0.7001706708
 11
0.65987
 21
-1.4771640794
  0
LINE
  5
285
100
AcDbEntity
  8
0
100
AcDbLine
 62
7
  6
CONTINUOUS
 10
1.3945606011
 20
-0.4536192308
 11
1.3945606011
 21
-2.3791759716
  0
LINE
  5
286
100
AcDbEntity
  8
0
100
AcDbLine
 62
7
  6
CONTINUOUS
 10
1.7861296759
 20
-1.4106599006
 11
1.7861296759
 21
-0.8758081903
  0
LINE
  5
287
100
AcDbEntity
  8
0
100
AcDbLine
 62
7
  6
CONTINUOUS
 10
1.7986296759
 20
-1.3998345831
 11
1.7986296759
 21
-0.8758081903
  0
LINE
  5
288
100
AcDbEntity
  8
0
100
AcDbLine
 62
7
  6
CONTINUOUS
 10
1.7996149285
 20
-2.4961050841
 11
1.7996149285
 21
-1.7336404259
  0
LINE
  5
289
100
AcDbEntity
  8
0
100
AcDbLine
 62
7
  6
CONTINUOUS
 10
1.8121149285
 20
-2.4852797665
 11
1.8121149285
 21
-1.737248865
  0
LINE
  5
28A
100
AcDbEntity
  8
0
100
AcDbLine
 62
7
  6
CONTINUOUS
 10
2.4401425136
 20
-1.7715511758
 11
2.4401425136
 21
-1.7600383058
  0
LINE
  5
28B
100
AcDbEntity
  8
0
100
AcDbLine
 62
7
  6
CONTINUOUS
 10
-0.3785591887
 20
-1.852886837
 11
-0.3910591887
 21
-1.8637121545
  0
LINE
  5
28C
100
AcDbEntity
  8
0
100
AcDbLine
 62
7
  6
CONTINUOUS
 10
0.2829924211
 20
-1.3539351369
 11
0.2704924211
 21
-1.3647604544
  0
LINE
  5
28D
100
AcDbEntity
  8
0
100
AcDbLine
 62
7
  6
CONTINUOUS
 10
1.4070606011
 20
-0.4427939133
 11
1.3945606011
 21
-0.4536192308
  0
LINE
  5
28E
100
AcDbEntity
  8
0
100
AcDbLine
 62
7
  6
CONTINUOUS
 10
0.0875807169
 20
-1.987449837
 11
0.0750807169
 21
-1.9982751545
  0
LINE
  5
28F
100
AcDbEntity
  8
0
100
AcDbLine
 62
250
  6
CONTINUOUS
 10
2.4107111213
 20
-0.7530356409
 11
2.3982111213
 21
-0.7638609585
  0
LINE
  5
290
100
AcDbEntity
  8
0
100
AcDbLine
 62
7
  6
CONTINUOUS
 10
1.7986296759
 20
-1.3998345831
 11
1.7861296759
 21
-1.4106599006
  0
LINE
  5
291
100
AcDbEntity
  8
0
100
AcDbLine
 62
250
  6
CONTINUOUS
 10
2.0310493931
 20
-1.4669283762
 11
2.0185493931
 21
-1.4777536938
  0
LINE
  5
292
100
AcDbEntity
  8
0
100
AcDbLine
 62
7
  6
CONTINUOUS
 10
1.2876364491
 20
-2.333876087
 11
1.2751364491
 21
-2.3447014045
  0
LINE
  5
293
100
AcDbEntity
  8
0
100
AcDbLine
 62
7
  6
CONTINUOUS
 10
2.4526425136
 20
-1.7607258583
 11
2.4401425136
 21
-1.7715511758
  0
LINE
  5
294
100
AcDbEntity
  8
0
100
AcDbLine
 62
7
  6
CONTINUOUS
 10
1.8121149285
 20
-2.4852797665
 11
1.7996149285
 21
-2.4961050841
  0
LINE
  5
295
100
AcDbEntity
  8
0
100
AcDbLine
 62
250
  6
CONTINUOUS
 10
2.6870638338
 20
-2.2105283234
 11
2.6745638338
 21
-2.221353641
  0
LINE
  5
296
100
AcDbEntity
  8
0
100
AcDbLine
 62
7
  6
CONTINUOUS
 10
2.8260948892
 20
-2.7779905682
 11
2.8135948892
 21
-2.7888158857
  0
LINE
  5
297
100
AcDbEntity
  8
0
100
AcDbLine
 62
7
  6
CONTINUOUS
 10
-0.916233448
 20
-36.9387069843
 11
-0.5005932157
 21
-36.4667558266
  0
LINE
  5
298
100
AcDbEntity
  8
0
100
AcDbLine
 62
7
  6
CONTINUOUS
 10
-0.4530757009
 20
-36.2061996751
 11
-1.0651776931
 21
-36.8773191358
  0
LINE
  5
299
100
AcDbEntity
  8
0
100
AcDbLine
 62
7
  6
CONTINUOUS
 10
-2.6692860153
 20
-35.5520011076
 11
-2.6817860153
 21
-35.5628264251
  0
LINE
  5
29A
100
AcDbEntity
  8
0
100
AcDbLine
 62
7
  6
CONTINUOUS
 10
-2.4908670286
 20
-35.6035062326
 11
-2.5033670286
 21
-35.6143315501
  0
LINE
  5
29B
100
AcDbEntity
  8
0
100
AcDbLine
 62
7
  6
CONTINUOUS
 10
-2.1671822397
 20
-35.6969459826
 11
-2.1796822397
 21
-35.7077713001
  0
LINE
  5
29C
100
AcDbEntity
  8
0
100
AcDbLine
 62
250
  6
CONTINUOUS
 10
-1.5735859113
 20
-35.8683024826
 11
-1.5860859113
 21
-35.8791278001
  0
LINE
  5
29D
100
AcDbEntity
  8
0
100
AcDbLine
 62
7
  6
CONTINUOUS
 10
-1.9888126165
 20
-36.3590137791
 11
-2.0013126165
 21
-36.3698390966
  0
LINE
  5
29E
100
AcDbEntity
  8
0
100
AcDbLine
 62
7
  6
CONTINUOUS
 10
-2.4908670286
 20
-36.923977601
 11
-2.5033670286
 21
-36.9348029185
  0
LINE
  5
29F
100
AcDbEntity
  8
0
100
AcDbLine
 62
250
  6
CONTINUOUS
 10
-1.6152053602
 20
-36.4668649041
 11
-1.6277053602
 21
-36.4776902216
  0
LINE
  5
2A0
100
AcDbEntity
  8
0
100
AcDbLine
 62
250
  6
CONTINUOUS
 10
-1.1814156812
 20
-36.3631143793
 11
-1.1939156812
 21
-36.3739396968
  0
LINE
  5
2A1
100
AcDbEntity
  8
0
100
AcDbLine
 62
7
  6
CONTINUOUS
 10
-1.9888126165
 20
-37.068908226
 11
-2.0013126165
 21
-37.0797335435
  0
LINE
  5
2A2
100
AcDbEntity
  8
0
100
AcDbLine
 62
7
  6
CONTINUOUS
 10
-0.4405757009
 20
-36.1953743576
 11
-0.4530757009
 21
-36.2061996751
  0
LINE
  5
2A3
100
AcDbEntity
  8
0
100
AcDbLine
 62
7
  6
CONTINUOUS
 10
-0.3262508213
 20
-36.2283771076
 11
-0.3387508213
 21
-36.2392024251
  0
LINE
  5
2A4
100
AcDbEntity
  8
0
100
AcDbLine
 62
7
  6
CONTINUOUS
 10
-0.3262508213
 20
-37.0945865417
 11
-0.3387508213
 21
-37.1054118593
  0
LINE
  5
2A5
100
AcDbEntity
  8
0
100
AcDbLine
 62
250
  6
CONTINUOUS
 10
0.4351436372
 20
-36.4481772839
 11
0.4226436372
 21
-36.4590026014
  0
LINE
  5
2A6
100
AcDbEntity
  8
0
100
AcDbLine
 62
7
  6
CONTINUOUS
 10
-0.1367973719
 20
-37.1492770417
 11
-0.1492973719
 21
-37.1601023593
  0
LINE
  5
2A7
100
AcDbEntity
  8
0
100
AcDbLine
 62
7
  6
CONTINUOUS
 10
-0.1367973719
 20
-37.2890353554
 11
-0.1492973719
 21
-37.2998606729
  0
LINE
  5
2A8
100
AcDbEntity
  8
0
100
AcDbLine
 62
250
  6
CONTINUOUS
 10
0.1649011721
 20
-37.0303961596
 11
0.1524011721
 21
-37.0412214771
  0
LINE
  5
2A9
100
AcDbEntity
  8
0
100
AcDbLine
 62
7
  6
CONTINUOUS
 10
-0.3262508213
 20
-37.548848476
 11
-0.3387508213
 21
-37.5596737935
  0
LINE
  5
2AA
100
AcDbEntity
  8
0
100
AcDbLine
 62
250
  6
CONTINUOUS
 10
0.8782604491
 20
-37.2363252449
 11
0.8657604491
 21
-37.2471505624
  0
LINE
  5
2AB
100
AcDbEntity
  8
0
100
AcDbLine
 62
250
  6
CONTINUOUS
 10
0.4351436372
 20
-37.6233331421
 11
0.4226436372
 21
-37.6341584596
  0
LINE
  5
2AC
100
AcDbEntity
  8
RACCORDO
100
AcDbLine
 62
250
  6
CONTINUOUS
 10
84.8410022728
 20
12.3543846309
 11
-86.6320276766
 21
61.8543846309
  0
LINE
  5
2AD
100
AcDbEntity
  8
RACCORDO
100
AcDbLine
 62
250
  6
CONTINUOUS
 10
85.3410022728
 20
13.6534227365
 11
-86.1320276766
 21
63.1534227365
  0
LINE
  5
2AE
100
AcDbEntity
  8
0
100
AcDbLine
 62
7
  6
CONTINUOUS
 10
86.2660022728
 20
14.454496235
 11
-85.2070276766
 21
63.954496235
  0
LINE
  5
2AF
100
AcDbEntity
  8
RACCORDO
100
AcDbLine
 62
250
  6
CONTINUOUS
 10
86.2660022728
 20
14.454496235
 11
85.3410022728
 21
13.6534227365
  0
LINE
  5
2B0
100
AcDbEntity
  8
RACCORDO
100
AcDbLine
 62
250
  6
CONTINUOUS
 10
90.5961292917
 20
8.8743692161
 11
89.6711292917
 21
8.0732957176
  0
LINE
  5
2B1
100
AcDbEntity
  8
RACCORDO
100
AcDbLine
 62
250
  6
CONTINUOUS
 10
88.3051038879
 20
-60.9587365851
 11
88.3051038879
 21
7.8902830157
  0
LINE
  5
2B2
100
AcDbEntity
  8
RACCORDO
100
AcDbLine
 62
250
  6
CONTINUOUS
 10
89.6711292917
 20
-60.7757238832
 11
89.6711292917
 21
8.0732957176
  0
LINE
  5
2B3
100
AcDbEntity
  8
0
100
AcDbLine
 62
7
  6
CONTINUOUS
 10
90.5961292917
 20
-59.9746503847
 11
90.5961292917
 21
8.8743692161
  0
LINE
  5
2B4
100
AcDbEntity
  8
RACCORDO
100
AcDbLine
 62
250
  6
CONTINUOUS
 10
90.5961292917
 20
-59.9746503847
 11
89.6711292917
 21
-60.7757238832
  0
LINE
  5
2B5
100
AcDbEntity
  8
ASSI
100
AcDbLine
 62
7
  6
CONTINUOUS
 10
89.5392706263
 20
-62.5042951148
 11
88.6142706263
 21
-63.3053686133
  0
SPLINE
  5
2B6
100
AcDbEntity
  8
0
100
AcDbSpline
 62
7
  6
CONTINUOUS
 70
0
 71
3
 72
14
 73
10
 74
0
 42
0.0000001
 43
0.0000001
 44
0.0000000001
 40
0.0
 40
0.0
 40
0.0
 40
0.0
 40
0.2564723759
 40
0.3945423604
 40
0.5316431072
 40
0.6626316637
 40
0.78401083
 40
0.8953103198
 40
1.0
 40
1.0
 40
1.0
 40
1.0
 10
-81.002862552
 20
52.4351559968
 30
0.0
 10
-81.002862552
 20
52.7153509472
 30
0.0
 10
-81.1424157566
 20
53.1500904725
 30
0.0
 10
-81.4918140645
 20
53.6163995116
 30
0.0
 10
-81.8328086444
 20
53.907213346
 30
0.0
 10
-82.2162270835
 20
54.1014253825
 30
0.0
 10
-82.6111826417
 20
54.1817746086
 30
0.0
 10
-82.9844514948
 20
54.1369070881
 30
0.0
 10
-83.1974242217
 20
54.0189252099
 30
0.0
 10
-83.2838811031
 20
53.9440493459
 30
0.0
  0
SPLINE
  5
2B7
100
AcDbEntity
  8
0
100
AcDbSpline
 62
7
  6
CONTINUOUS
 70
0
 71
3
 72
10
 73
6
 74
0
 42
0.0000001
 43
0.0000001
 44
0.0000000001
 40
0.0
 40
0.0
 40
0.0
 40
0.0
 40
0.5183203509
 40
0.7619786252
 40
1.0
 40
1.0
 40
1.0
 40
1.0
 10
81.8099133595
 20
5.4351559968
 30
0.0
 10
81.8099133595
 20
5.2891923981
 30
0.0
 10
81.7724552404
 20
5.0701616513
 30
0.0
 10
81.6357058806
 20
4.8217709683
 30
0.0
 10
81.5435242221
 20
4.7201440527
 30
0.0
 10
81.4928556993
 20
4.6762626477
 30
0.0
  0
SPLINE
  5
2B8
100
AcDbEntity
  8
0
100
AcDbSpline
 62
7
  6
CONTINUOUS
 70
0
 71
3
 72
10
 73
6
 74
0
 42
0.0000001
 43
0.0000001
 44
0.0000000001
 40
0.0
 40
0.0
 40
0.0
 40
0.0
 40
0.5183203509
 40
0.7619786252
 40
1.0
 40
1.0
 40
1.0
 40
1.0
 10
-81.002862552
 20
-7.7536095662
 30
0.0
 10
-81.002862552
 20
-7.8995731649
 30
0.0
 10
-81.0403206711
 20
-8.1186039118
 30
0.0
 10
-81.1770700308
 20
-8.3669945947
 30
0.0
 10
-81.2692516893
 20
-8.4686215103
 30
0.0
 10
-81.3199202122
 20
-8.5125029153
 30
0.0
  0
SPLINE
  5
2B9
100
AcDbEntity
  8
0
100
AcDbSpline
 62
7
  6
CONTINUOUS
 70
0
 71
3
 72
14
 73
10
 74
0
 42
0.0000001
 43
0.0000001
 44
0.0000000001
 40
0.0
 40
0.0
 40
0.0
 40
0.0
 40
0.2564723759
 40
0.3945423604
 40
0.5316431072
 40
0.6626316637
 40
0.78401083
 40
0.8953103198
 40
1.0
 40
1.0
 40
1.0
 40
1.0
 10
81.8099133595
 20
-54.7536095662
 30
0.0
 10
81.8099133595
 20
-54.4734146158
 30
0.0
 10
81.6703601549
 20
-54.0386750905
 30
0.0
 10
81.320961847
 20
-53.5723660514
 30
0.0
 10
80.9799672671
 20
-53.281552217
 30
0.0
 10
80.596548828
 20
-53.0873401806
 30
0.0
 10
80.2015932698
 20
-53.0069909545
 30
0.0
 10
79.8283244167
 20
-53.0518584749
 30
0.0
 10
79.6153516897
 20
-53.1698403531
 30
0.0
 10
79.5288948084
 20
-53.2447162171
 30
0.0
  0
SPLINE
  5
2BA
100
AcDbEntity
  8
0
100
AcDbSpline
 62
7
  6
CONTINUOUS
 70
0
 71
3
 72
14
 73
10
 74
0
 42
0.0000001
 43
0.0000001
 44
0.0000000001
 40
0.0
 40
0.0
 40
0.0
 40
0.0
 40
0.2564723759
 40
0.3945423604
 40
0.5316431072
 40
0.6626316637
 40
0.78401083
 40
0.8953103198
 40
1.0
 40
1.0
 40
1.0
 40
1.0
 10
0.4035254038
 20
28.9351559968
 30
0.0
 10
0.4035254038
 20
29.2153509472
 30
0.0
 10
0.2639721992
 20
29.6500904725
 30
0.0
 10
-0.0854261087
 20
30.1163995116
 30
0.0
 10
-0.4264206886
 20
30.407213346
 30
0.0
 10
-0.8098391278
 20
30.6014253825
 30
0.0
 10
-1.204794686
 20
30.6817746086
 30
0.0
 10
-1.5780635391
 20
30.6369070881
 30
0.0
 10
-1.791036266
 20
30.5189252099
 30
0.0
 10
-1.8774931473
 20
30.4440493459
 30
0.0
  0
SPLINE
  5
2BB
100
AcDbEntity
  8
0
100
AcDbSpline
 62
7
  6
CONTINUOUS
 70
0
 71
3
 72
14
 73
10
 74
0
 42
0.0000001
 43
0.0000001
 44
0.0000000001
 40
0.0
 40
0.0
 40
0.0
 40
0.0
 40
0.2564723759
 40
0.3945423604
 40
0.5316431072
 40
0.6626316637
 40
0.78401083
 40
0.8953103198
 40
1.0
 40
1.0
 40
1.0
 40
1.0
 10
0.4035254038
 20
-31.2536095662
 30
0.0
 10
0.4035254038
 20
-30.9734146158
 30
0.0
 10
0.2639721992
 20
-30.5386750905
 30
0.0
 10
-0.0854261087
 20
-30.0723660514
 30
0.0
 10
-0.4264206886
 20
-29.781552217
 30
0.0
 10
-0.8098391278
 20
-29.5873401806
 30
0.0
 10
-1.204794686
 20
-29.5069909545
 30
0.0
 10
-1.5780635391
 20
-29.5518584749
 30
0.0
 10
-1.791036266
 20
-29.6698403531
 30
0.0
 10
-1.8774931473
 20
-29.7447162171
 30
0.0
  0
SPLINE
  5
2BC
100
AcDbEntity
  8
0
100
AcDbSpline
 62
7
  6
CONTINUOUS
 70
0
 71
3
 72
11
 73
7
 74
0
 42
0.0000001
 43
0.0000001
 44
0.0000000001
 40
0.0
 40
0.0
 40
0.0
 40
0.0
 40
0.2348764418
 40
0.4745881015
 40
0.7292814223
 40
1.0
 40
1.0
 40
1.0
 40
1.0
 10
0.2592291823
 20
-36.6346235552
 30
0.0
 10
0.2694983183
 20
-36.6257302325
 30
0.0
 10
0.2922229509
 20
-36.6097860558
 30
0.0
 10
0.3327458675
 20
-36.5958981968
 30
0.0
 10
0.3774604761
 20
-36.5946242924
 30
0.0
 10
0.4076000894
 20
-36.5999663564
 30
0.0
 10
0.4226436372
 20
-36.6043090545
 30
0.0
  0
SPLINE
  5
2BD
100
AcDbEntity
  8
0
100
AcDbSpline
 62
7
  6
CONTINUOUS
 70
0
 71
3
 72
11
 73
7
 74
0
 42
0.0000001
 43
0.0000001
 44
0.0000000001
 40
0.0
 40
0.0
 40
0.0
 40
0.0
 40
0.2340396745
 40
0.4799169824
 40
0.7354482476
 40
1.0
 40
1.0
 40
1.0
 40
1.0
 10
0.1303882724
 20
-36.504699858
 30
0.0
 10
0.0995464034
 20
-36.5314097146
 30
0.0
 10
0.0463784888
 20
-36.5992778696
 30
0.0
 10
0.0081108464
 20
-36.7229250062
 30
0.0
 10
-0.0163989945
 20
-36.8542922349
 30
0.0
 10
-0.0204731747
 20
-36.945197836
 30
0.0
 10
-0.0204731747
 20
-36.9913169518
 30
0.0
  0
SPLINE
  5
2BE
100
AcDbEntity
  8
0
100
AcDbSpline
 62
7
  6
CONTINUOUS
 70
0
 71
3
 72
13
 73
9
 74
0
 42
0.0000001
 43
0.0000001
 44
0.0000000001
 40
0.0
 40
0.0
 40
0.0
 40
0.0
 40
0.2376483361
 40
0.3645776951
 40
0.4944049638
 40
0.6250312931
 40
0.7542742162
 40
1.0
 40
1.0
 40
1.0
 40
1.0
 10
90.5961292917
 20
8.8743692161
 30
0.0
 10
90.5961292917
 20
9.4686860719
 30
0.0
 10
90.4077922349
 20
10.3861073653
 30
0.0
 10
89.8840463492
 20
11.5085229998
 30
0.0
 10
89.3455993643
 20
12.3186907206
 30
0.0
 10
88.6904491513
 20
13.0453449766
 30
0.0
 10
87.7139255962
 20
13.8522078721
 30
0.0
 10
86.856411241
 20
14.2840598467
 30
0.0
 10
86.2660022728
 20
14.454496235
 30
0.0
  0
SPLINE
  5
2BF
100
AcDbEntity
  8
0
100
AcDbSpline
 62
7
  6
CONTINUOUS
 70
0
 71
3
 72
11
 73
7
 74
0
 42
0.0000001
 43
0.0000001
 44
0.0000000001
 40
0.0
 40
0.0
 40
0.0
 40
0.0
 40
0.2709658679
 40
0.5256491749
 40
0.7667315416
 40
1.0
 40
1.0
 40
1.0
 40
1.0
 10
-85.2070276766
 20
63.954496235
 30
0.0
 10
-85.506692808
 20
64.0410021072
 30
0.0
 10
-86.1063725996
 20
64.1537349107
 30
0.0
 10
-86.9964686078
 20
64.1207703272
 30
0.0
 10
-87.8099746086
 20
63.878704495
 30
0.0
 10
-88.2773233602
 20
63.5797954249
 30
0.0
 10
-88.4802956335
 20
63.4040134886
 30
0.0
  0
SPLINE
  5
2C0
100
AcDbEntity
  8
RACCORDO
100
AcDbSpline
 62
7
  6
CONTINUOUS
 70
0
 71
3
 72
14
 73
10
 74
0
 42
0.0000001
 43
0.0000001
 44
0.0000000001
 40
0.0
 40
0.0
 40
0.0
 40
0.0
 40
0.1193646969
 40
0.2424083172
 40
0.3685674931
 40
0.4967430584
 40
0.6254923396
 40
0.7532759071
 40
1.0
 40
1.0
 40
1.0
 40
1.0
 10
-90.5961292917
 20
-9.0257238832
 30
0.0
 10
-90.5961292917
 20
-9.3159715087
 30
0.0
 10
-90.5384434142
 20
-9.9065465444
 30
0.0
 10
-90.2966832985
 20
-10.7735797227
 30
0.0
 10
-89.9103212432
 20
-11.6101156914
 30
0.0
 10
-89.3943358116
 20
-12.3896792735
 30
0.0
 10
-88.7658886324
 20
-13.0877843336
 30
0.0
 10
-87.8201581029
 20
-13.8681825572
 30
0.0
 10
-86.9857768606
 20
-14.2842023375
 30
0.0
 10
-86.4093777747
 20
-14.4505944212
 30
0.0
  0
SPLINE
  5
2C1
100
AcDbEntity
  8
RACCORDO
100
AcDbSpline
 62
7
  6
CONTINUOUS
 70
0
 71
3
 72
11
 73
7
 74
0
 42
0.0000001
 43
0.0000001
 44
0.0000000001
 40
0.0
 40
0.0
 40
0.0
 40
0.0
 40
0.2445013888
 40
0.4912359182
 40
0.742420768
 40
1.0
 40
1.0
 40
1.0
 40
1.0
 10
-89.4052960301
 20
62.6029404477
 30
0.0
 10
-89.5971464554
 20
62.4367931056
 30
0.0
 10
-89.9444423338
 20
62.0559518267
 30
0.0
 10
-90.3223574268
 20
61.3771447459
 30
0.0
 10
-90.5484831841
 20
60.6203749668
 30
0.0
 10
-90.5961292917
 20
60.0906648732
 30
0.0
 10
-90.5961292917
 20
59.8232957176
 30
0.0
  0
SPLINE
  5
2C2
100
AcDbEntity
  8
RACCORDO
100
AcDbSpline
 62
7
  6
CONTINUOUS
 70
0
 71
3
 72
11
 73
7
 74
0
 42
0.0000001
 43
0.0000001
 44
0.0000000001
 40
0.0
 40
0.0
 40
0.0
 40
0.0
 40
0.2603472959
 40
0.512130438
 40
0.7576587747
 40
1.0
 40
1.0
 40
1.0
 40
1.0
 10
85.0636521747
 20
-63.9505944212
 30
0.0
 10
85.3767133867
 20
-64.0409674087
 30
0.0
 10
86.0127250238
 20
-64.1578730802
 30
0.0
 10
86.9689417075
 20
-64.1145894691
 30
0.0
 10
87.8639023809
 20
-63.839939423
 30
0.0
 10
88.3849909714
 20
-63.5039306191
 30
0.0
 10
88.6142706263
 20
-63.3053686133
 30
0.0
  0
SPLINE
  5
2C3
100
AcDbEntity
  8
0
100
AcDbSpline
 62
7
  6
CONTINUOUS
 70
0
 71
3
 72
10
 73
6
 74
0
 42
0.0000001
 43
0.0000001
 44
0.0000000001
 40
0.0
 40
0.0
 40
0.0
 40
0.0
 40
0.2380213748
 40
0.4816796491
 40
1.0
 40
1.0
 40
1.0
 40
1.0
 10
0.0864677435
 20
-32.0125029153
 30
0.0
 10
0.1371362664
 20
-31.9686215103
 30
0.0
 10
0.2293179249
 20
-31.8669945947
 30
0.0
 10
0.3660672846
 20
-31.6186039118
 30
0.0
 10
0.4035254038
 20
-31.3995731649
 30
0.0
 10
0.4035254038
 20
-31.2536095662
 30
0.0
  0
SPLINE
  5
2C4
100
AcDbEntity
  8
0
100
AcDbSpline
 62
7
  6
CONTINUOUS
 70
0
 71
3
 72
10
 73
6
 74
0
 42
0.0000001
 43
0.0000001
 44
0.0000000001
 40
0.0
 40
0.0
 40
0.0
 40
0.0
 40
0.2380213748
 40
0.4816796491
 40
1.0
 40
1.0
 40
1.0
 40
1.0
 10
0.0864677435
 20
28.1762626477
 30
0.0
 10
0.1371362664
 20
28.2201440527
 30
0.0
 10
0.2293179249
 20
28.3217709683
 30
0.0
 10
0.3660672846
 20
28.5701616513
 30
0.0
 10
0.4035254038
 20
28.7891923981
 30
0.0
 10
0.4035254038
 20
28.9351559968
 30
0.0
  0
SPLINE
  5
2C5
100
AcDbEntity
  8
0
100
AcDbSpline
 62
7
  6
CONTINUOUS
 70
0
 71
3
 72
10
 73
6
 74
0
 42
0.0000001
 43
0.0000001
 44
0.0000000001
 40
0.0
 40
0.0
 40
0.0
 40
0.0
 40
0.2380213748
 40
0.4816796491
 40
1.0
 40
1.0
 40
1.0
 40
1.0
 10
81.4928556993
 20
-55.5125029153
 30
0.0
 10
81.5435242221
 20
-55.4686215103
 30
0.0
 10
81.6357058806
 20
-55.3669945947
 30
0.0
 10
81.7724552404
 20
-55.1186039118
 30
0.0
 10
81.8099133595
 20
-54.8995731649
 30
0.0
 10
81.8099133595
 20
-54.7536095662
 30
0.0
  0
SPLINE
  5
2C6
100
AcDbEntity
  8
0
100
AcDbSpline
 62
7
  6
CONTINUOUS
 70
0
 71
3
 72
14
 73
10
 74
0
 42
0.0000001
 43
0.0000001
 44
0.0000000001
 40
0.0
 40
0.0
 40
0.0
 40
0.0
 40
0.1046896802
 40
0.21598917
 40
0.3373683363
 40
0.4683568928
 40
0.6054576396
 40
0.7435276241
 40
1.0
 40
1.0
 40
1.0
 40
1.0
 10
-83.2838811031
 20
-6.2447162171
 30
0.0
 10
-83.1974242217
 20
-6.1698403531
 30
0.0
 10
-82.9844514948
 20
-6.0518584749
 30
0.0
 10
-82.6111826417
 20
-6.0069909545
 30
0.0
 10
-82.2162270835
 20
-6.0873401806
 30
0.0
 10
-81.8328086444
 20
-6.281552217
 30
0.0
 10
-81.4918140645
 20
-6.5723660514
 30
0.0
 10
-81.1424157566
 20
-7.0386750905
 30
0.0
 10
-81.002862552
 20
-7.4734146158
 30
0.0
 10
-81.002862552
 20
-7.7536095662
 30
0.0
  0
SPLINE
  5
2C7
100
AcDbEntity
  8
0
100
AcDbSpline
 62
7
  6
CONTINUOUS
 70
0
 71
3
 72
14
 73
10
 74
0
 42
0.0000001
 43
0.0000001
 44
0.0000000001
 40
0.0
 40
0.0
 40
0.0
 40
0.0
 40
0.1046896802
 40
0.21598917
 40
0.3373683363
 40
0.4683568928
 40
0.6054576396
 40
0.7435276241
 40
1.0
 40
1.0
 40
1.0
 40
1.0
 10
79.5288948084
 20
6.9440493459
 30
0.0
 10
79.6153516897
 20
7.0189252099
 30
0.0
 10
79.8283244167
 20
7.1369070881
 30
0.0
 10
80.2015932698
 20
7.1817746086
 30
0.0
 10
80.596548828
 20
7.1014253825
 30
0.0
 10
80.9799672671
 20
6.907213346
 30
0.0
 10
81.320961847
 20
6.6163995116
 30
0.0
 10
81.6703601549
 20
6.1500904725
 30
0.0
 10
81.8099133595
 20
5.7153509472
 30
0.0
 10
81.8099133595
 20
5.4351559968
 30
0.0
  0
SPLINE
  5
2C8
100
AcDbEntity
  8
0
100
AcDbSpline
 62
7
  6
CONTINUOUS
 70
0
 71
3
 72
10
 73
6
 74
0
 42
0.0000001
 43
0.0000001
 44
0.0000000001
 40
0.0
 40
0.0
 40
0.0
 40
0.0
 40
0.2380213748
 40
0.4816796491
 40
1.0
 40
1.0
 40
1.0
 40
1.0
 10
-81.3199202122
 20
51.6762626477
 30
0.0
 10
-81.2692516893
 20
51.7201440527
 30
0.0
 10
-81.1770700308
 20
51.8217709683
 30
0.0
 10
-81.0403206711
 20
52.0701616513
 30
0.0
 10
-81.002862552
 20
52.2891923981
 30
0.0
 10
-81.002862552
 20
52.4351559968
 30
0.0
  0
SPLINE
  5
2C9
100
AcDbEntity
  8
0
100
AcDbSpline
 62
7
  6
CONTINUOUS
 70
0
 71
3
 72
11
 73
7
 74
0
 42
0.0000001
 43
0.0000001
 44
0.0000000001
 40
0.0
 40
0.0
 40
0.0
 40
0.0
 40
0.2374168854
 40
0.4804566163
 40
0.733697414
 40
1.0
 40
1.0
 40
1.0
 40
1.0
 10
89.5392702297
 20
-62.5042946572
 30
0.0
 10
89.7081660248
 20
-62.3580242852
 30
0.0
 10
90.0154489667
 20
-62.0195077321
 30
0.0
 10
90.3507003631
 20
-61.4093721717
 30
0.0
 10
90.5535915007
 20
-60.715697932
 30
0.0
 10
90.5961292917
 20
-60.2252639633
 30
0.0
 10
90.5961292917
 20
-59.9746503847
 30
0.0
  0
SPLINE
  5
2CA
100
AcDbEntity
  8
0
100
AcDbSpline
 62
7
  6
CONTINUOUS
 70
0
 71
3
 72
12
 73
8
 74
0
 42
0.0000001
 43
0.0000001
 44
0.0000000001
 40
0.0
 40
0.0
 40
0.0
 40
0.0
 40
0.2429625499
 40
0.4987252778
 40
0.7576609053
 40
0.8831246799
 40
1.0
 40
1.0
 40
1.0
 40
1.0
 10
-1.6277070325
 20
-36.0197399497
 30
0.0
 10
-1.5948382966
 20
-36.0292282034
 30
0.0
 10
-1.530119089
 20
-36.0573228866
 30
0.0
 10
-1.4404538548
 20
-36.1192153597
 30
0.0
 10
-1.3959491523
 20
-36.201294174
 30
0.0
 10
-1.3794125065
 20
-36.2701263853
 30
0.0
 10
-1.3778273808
 20
-36.3043920988
 30
0.0
 10
-1.3778273808
 20
-36.3208489622
 30
0.0
  0
SPLINE
  5
2CB
100
AcDbEntity
  8
0
100
AcDbSpline
 62
7
  6
CONTINUOUS
 70
0
 71
3
 72
9
 73
5
 74
0
 42
0.0000001
 43
0.0000001
 44
0.0000000001
 40
0.0
 40
0.0
 40
0.0
 40
0.0
 40
0.5225936283
 40
1.0
 40
1.0
 40
1.0
 40
1.0
 10
-1.3778273808
 20
-36.3208489622
 30
0.0
 10
-1.3778273808
 20
-36.3478547011
 30
0.0
 10
-1.3823785688
 20
-36.3999829674
 30
0.0
 10
-1.4093717122
 20
-36.4476917198
 30
0.0
 10
-1.4280209529
 20
-36.4638424349
 30
0.0
  0
SPLINE
  5
2CC
100
AcDbEntity
  8
0
100
AcDbSpline
 62
7
  6
CONTINUOUS
 70
0
 71
3
 72
11
 73
7
 74
0
 42
0.0000001
 43
0.0000001
 44
0.0000000001
 40
0.0
 40
0.0
 40
0.0
 40
0.0
 40
0.2698021928
 40
0.526342941
 40
0.7683377246
 40
1.0
 40
1.0
 40
1.0
 40
1.0
 10
-1.586088674
 20
-36.6423311692
 30
0.0
 10
-1.5584196475
 20
-36.6503186847
 30
0.0
 10
-1.5030223484
 20
-36.6614287503
 30
0.0
 10
-1.4206094825
 20
-36.6635283463
 30
0.0
 10
-1.3431600312
 20
-36.6477850403
 30
0.0
 10
-1.2989683749
 20
-36.6207997444
 30
0.0
 10
-1.2802759174
 20
-36.6046116014
 30
0.0
  0
SPLINE
  5
2CD
100
AcDbEntity
  8
0
100
AcDbSpline
 62
7
  6
CONTINUOUS
 70
0
 71
3
 72
15
 73
11
 74
0
 42
0.0000001
 43
0.0000001
 44
0.0000000001
 40
0.0
 40
0.0
 40
0.0
 40
0.0
 40
0.1257258711
 40
0.2585035536
 40
0.3914435232
 40
0.5192789747
 40
0.6436256855
 40
0.7648036705
 40
0.8836287261
 40
1.0
 40
1.0
 40
1.0
 40
1.0
 10
0.4226436372
 20
-36.6043090545
 30
0.0
 10
0.4506609696
 20
-36.6123969617
 30
0.0
 10
0.5058329242
 20
-36.6391249632
 30
0.0
 10
0.5715005531
 20
-36.7034320281
 30
0.0
 10
0.620918375
 20
-36.7810384039
 30
0.0
 10
0.6521175942
 20
-36.8652609969
 30
0.0
 10
0.6711655805
 20
-36.9498301319
 30
0.0
 10
0.6849571808
 20
-37.0332492998
 30
0.0
 10
0.692474407
 20
-37.1156694205
 30
0.0
 10
0.6928861023
 20
-37.1702544158
 30
0.0
 10
0.6928861023
 20
-37.1972460371
 30
0.0
  0
SPLINE
  5
2CE
100
AcDbEntity
  8
0
100
AcDbSpline
 62
7
  6
CONTINUOUS
 70
0
 71
3
 72
13
 73
9
 74
0
 42
0.0000001
 43
0.0000001
 44
0.0000000001
 40
0.0
 40
0.0
 40
0.0
 40
0.0
 40
0.263209742
 40
0.5182303789
 40
0.6432023517
 40
0.7660927796
 40
0.8843261347
 40
1.0
 40
1.0
 40
1.0
 40
1.0
 10
0.6928861023
 20
-37.1972460371
 30
0.0
 10
0.6928861023
 20
-37.2350557916
 30
0.0
 10
0.6915877351
 20
-37.3096167304
 30
0.0
 10
0.677825997
 20
-37.4012689742
 30
0.0
 10
0.6610477871
 20
-37.4715527846
 30
0.0
 10
0.6450541179
 20
-37.5217552282
 30
0.0
 10
0.6214870949
 20
-37.5677299302
 30
0.0
 10
0.5986189219
 20
-37.5929659735
 30
0.0
 10
0.5860580921
 20
-37.603843959
 30
0.0
  0
SPLINE
  5
2CF
100
AcDbEntity
  8
0
100
AcDbSpline
 62
7
  6
CONTINUOUS
 70
0
 71
3
 72
13
 73
9
 74
0
 42
0.0000001
 43
0.0000001
 44
0.0000000001
 40
0.0
 40
0.0
 40
0.0
 40
0.0
 40
0.1163532659
 40
0.2358010896
 40
0.4840643634
 40
0.614794508
 40
0.7473782828
 40
1.0
 40
1.0
 40
1.0
 40
1.0
 10
-0.0204731747
 20
-36.9913169518
 30
0.0
 10
-0.0204731747
 20
-37.0288789848
 30
0.0
 10
-0.0177886269
 20
-37.1051200418
 30
0.0
 10
0.0032310948
 20
-37.2598957657
 30
0.0
 10
0.0425339195
 20
-37.4181447056
 30
0.0
 10
0.1242547312
 20
-37.5628826853
 30
0.0
 10
0.2312765449
 20
-37.691499077
 30
0.0
 10
0.3442898229
 20
-37.7568461149
 30
0.0
 10
0.4226436372
 20
-37.7794649128
 30
0.0
  0
SPLINE
  5
2D0
100
AcDbEntity
  8
0
100
AcDbSpline
 62
7
  6
CONTINUOUS
 70
0
 71
3
 72
11
 73
7
 74
0
 42
0.0000001
 43
0.0000001
 44
0.0000000001
 40
0.0
 40
0.0
 40
0.0
 40
0.0
 40
0.2706354721
 40
0.5265813991
 40
0.767717938
 40
1.0
 40
1.0
 40
1.0
 40
1.0
 10
0.4226436372
 20
-37.7794649128
 30
0.0
 10
0.4493409077
 20
-37.7871717509
 30
0.0
 10
0.5027990581
 20
-37.7975312064
 30
0.0
 10
0.5822551665
 20
-37.7964893962
 30
0.0
 10
0.6554883684
 20
-37.7764567358
 30
0.0
 10
0.6968704957
 20
-37.749380809
 30
0.0
 10
0.7148990019
 20
-37.7337676562
 30
0.0
  0
SPLINE
  5
2D1
100
AcDbEntity
  8
0
100
AcDbSpline
 62
7
  6
CONTINUOUS
 70
0
 71
3
 72
9
 73
5
 74
0
 42
0.0000001
 43
0.0000001
 44
0.0000000001
 40
0.0
 40
0.0
 40
0.0
 40
0.0
 40
0.4895462082
 40
1.0
 40
1.0
 40
1.0
 40
1.0
 10
1.7861296759
 20
-0.8758081903
 30
0.0
 10
1.8395245128
 20
-0.8821109539
 30
0.0
 10
1.9483179778
 20
-0.8997423129
 30
0.0
 10
2.0527686761
 20
-0.9352793084
 30
0.0
 10
2.104735206
 20
-0.9563126452
 30
0.0
  0
SPLINE
  5
2D2
100
AcDbEntity
  8
0
100
AcDbSpline
 62
7
  6
CONTINUOUS
 70
0
 71
3
 72
11
 73
7
 74
0
 42
0.0000001
 43
0.0000001
 44
0.0000000001
 40
0.0
 40
0.0
 40
0.0
 40
0.0
 40
0.2507593195
 40
0.51157245
 40
0.7646208374
 40
1.0
 40
1.0
 40
1.0
 40
1.0
 10
2.104735206
 20
-0.9563126452
 30
0.0
 10
2.1361962068
 20
-0.9690472689
 30
0.0
 10
2.1966333161
 20
-1.0046638771
 30
0.0
 10
2.271361185
 20
-1.0779426559
 30
0.0
 10
2.321093334
 20
-1.1680742401
 30
0.0
 10
2.3339706501
 20
-1.2343280917
 30
0.0
 10
2.3344666389
 20
-1.2661831185
 30
0.0
  0
SPLINE
  5
2D3
100
AcDbEntity
  8
0
100
AcDbSpline
 62
7
  6
CONTINUOUS
 70
0
 71
3
 72
10
 73
6
 74
0
 42
0.0000001
 43
0.0000001
 44
0.0000000001
 40
0.0
 40
0.0
 40
0.0
 40
0.0
 40
0.5210814053
 40
0.7643435217
 40
1.0
 40
1.0
 40
1.0
 40
1.0
 10
2.3344666389
 20
-1.2661831185
 30
0.0
 10
2.3350132831
 20
-1.3017675847
 30
0.0
 10
2.3311754945
 20
-1.3551027994
 30
0.0
 10
2.3036745243
 20
-1.4184233633
 30
0.0
 10
2.2820828537
 20
-1.443788993
 30
0.0
 10
2.2699163308
 20
-1.4543255107
 30
0.0
  0
SPLINE
  5
2D4
100
AcDbEntity
  8
0
100
AcDbSpline
 62
7
  6
CONTINUOUS
 70
0
 71
3
 72
9
 73
5
 74
0
 42
0.0000001
 43
0.0000001
 44
0.0000000001
 40
0.0
 40
0.0
 40
0.0
 40
0.0
 40
0.4944561017
 40
1.0
 40
1.0
 40
1.0
 40
1.0
 10
2.0176727786
 20
-1.7965883051
 30
0.0
 10
2.0712236634
 20
-1.812047114
 30
0.0
 10
2.1713697713
 20
-1.8772127194
 30
0.0
 10
2.2262929498
 20
-1.9797811471
 30
0.0
 10
2.2445698247
 20
-2.0337581747
 30
0.0
  0
SPLINE
  5
2D5
100
AcDbEntity
  8
0
100
AcDbSpline
 62
7
  6
CONTINUOUS
 70
0
 71
3
 72
11
 73
7
 74
0
 42
0.0000001
 43
0.0000001
 44
0.0000000001
 40
0.0
 40
0.0
 40
0.0
 40
0.0
 40
0.2509902286
 40
0.5009356852
 40
0.7505820716
 40
1.0
 40
1.0
 40
1.0
 40
1.0
 10
2.2445698247
 20
-2.0337581747
 30
0.0
 10
2.2624643596
 20
-2.0865554888
 30
0.0
 10
2.2912593283
 20
-2.1941386748
 30
0.0
 10
2.3361325031
 20
-2.3546555126
 30
0.0
 10
2.3795367927
 20
-2.5152690486
 30
0.0
 10
2.4081914144
 20
-2.6223457473
 30
0.0
 10
2.4224056807
 20
-2.6758892883
 30
0.0
  0
SPLINE
  5
2D6
100
AcDbEntity
  8
0
100
AcDbSpline
 62
7
  6
CONTINUOUS
 70
0
 71
3
 72
13
 73
9
 74
0
 42
0.0000001
 43
0.0000001
 44
0.0000000001
 40
0.0
 40
0.0
 40
0.0
 40
0.0
 40
0.1318867533
 40
0.2595678197
 40
0.3844562449
 40
0.5084473405
 40
0.7551143135
 40
1.0
 40
1.0
 40
1.0
 40
1.0
 10
2.4401425136
 20
-1.7600383058
 30
0.0
 10
2.4471354643
 20
-1.7611546805
 30
0.0
 10
2.4612811175
 20
-1.7580118013
 30
0.0
 10
2.4807851647
 20
-1.751862487
 30
0.0
 10
2.4997840332
 20
-1.7447463266
 30
0.0
 10
2.5238336893
 20
-1.7333351136
 30
0.0
 10
2.5521343876
 20
-1.7160827343
 30
0.0
 10
2.573089348
 20
-1.6999440083
 30
0.0
 10
2.5830289389
 20
-1.6913360702
 30
0.0
  0
SPLINE
  5
2D7
100
AcDbEntity
  8
0
100
AcDbSpline
 62
7
  6
CONTINUOUS
 70
0
 71
3
 72
9
 73
5
 74
0
 42
0.0000001
 43
0.0000001
 44
0.0000000001
 40
0.0
 40
0.0
 40
0.0
 40
0.0
 40
0.5187097389
 40
1.0
 40
1.0
 40
1.0
 40
1.0
 10
80.5589042957
 20
6.6767503672
 30
0.0
 10
80.5589042957
 20
6.7454671143
 30
0.0
 10
80.5780098005
 20
6.8792548404
 30
0.0
 10
80.6441420397
 20
6.9984204546
 30
0.0
 10
80.6858460969
 20
7.0466496183
 30
0.0
  0
SPLINE
  5
2D8
100
AcDbEntity
  8
0
100
AcDbSpline
 62
7
  6
CONTINUOUS
 70
0
 71
3
 72
9
 73
5
 74
0
 42
0.0000001
 43
0.0000001
 44
0.0000000001
 40
0.0
 40
0.0
 40
0.0
 40
0.0
 40
0.5155939832
 40
1.0
 40
1.0
 40
1.0
 40
1.0
 10
79.6368371482
 20
6.5532167934
 30
0.0
 10
79.6368371482
 20
6.6495571146
 30
0.0
 10
79.6576167561
 20
6.8373285818
 30
0.0
 10
79.7271278563
 20
7.0138171798
 30
0.0
 10
79.7725460145
 20
7.0921098965
 30
0.0
  0
SPLINE
  5
2D9
100
AcDbEntity
  8
0
100
AcDbSpline
 62
7
  6
CONTINUOUS
 70
0
 71
3
 72
14
 73
10
 74
0
 42
0.0000001
 43
0.0000001
 44
0.0000000001
 40
0.0
 40
0.0
 40
0.0
 40
0.0
 40
0.2538736179
 40
0.3905894553
 40
0.5270837032
 40
0.6585728715
 40
0.7814793883
 40
0.8945922238
 40
1.0
 40
1.0
 40
1.0
 40
1.0
 10
80.5589042957
 20
6.6767503672
 30
0.0
 10
80.5589042957
 20
6.5297524531
 30
0.0
 10
80.6287867315
 20
6.3016911089
 30
0.0
 10
80.8060701811
 20
6.0521552476
 30
0.0
 10
80.9805059654
 20
5.8925288684
 30
0.0
 10
81.1789341867
 20
5.7795698218
 30
0.0
 10
81.3865500602
 20
5.7222475946
 30
0.0
 10
81.5874052302
 20
5.7265784568
 30
0.0
 10
81.7084751878
 20
5.7738658193
 30
0.0
 10
81.7598575638
 20
5.8068037129
 30
0.0
  0
SPLINE
  5
2DA
100
AcDbEntity
  8
0
100
AcDbSpline
 62
7
  6
CONTINUOUS
 70
0
 71
3
 72
14
 73
10
 74
0
 42
0.0000001
 43
0.0000001
 44
0.0000000001
 40
0.0
 40
0.0
 40
0.0
 40
0.0
 40
0.2502808602
 40
0.3850392942
 40
0.5204605275
 40
0.6522823596
 40
0.7769881675
 40
0.892699387
 40
1.0
 40
1.0
 40
1.0
 40
1.0
 10
79.6368371482
 20
6.5532167934
 30
0.0
 10
79.6368371482
 20
6.3032424242
 30
0.0
 10
79.7480516083
 20
5.9155512294
 30
0.0
 10
80.0352224995
 20
5.4805757708
 30
0.0
 10
80.3206885014
 20
5.1937342078
 30
0.0
 10
80.6502571011
 20
4.9772042917
 30
0.0
 10
81.0019231273
 20
4.8458672595
 30
0.0
 10
81.3516291357
 20
4.8102663438
 30
0.0
 10
81.5744281475
 20
4.8561848929
 30
0.0
 10
81.6738745323
 20
4.8961305683
 30
0.0
  0
SPLINE
  5
2DB
100
AcDbEntity
  8
0
100
AcDbSpline
 62
7
  6
CONTINUOUS
 70
0
 71
3
 72
14
 73
10
 74
0
 42
0.0000001
 43
0.0000001
 44
0.0000000001
 40
0.0
 40
0.0
 40
0.0
 40
0.0
 40
0.107300613
 40
0.2230118325
 40
0.3477176404
 40
0.4795394725
 40
0.6149607058
 40
0.7497191398
 40
1.0
 40
1.0
 40
1.0
 40
1.0
 10
0.2674865765
 20
-31.7926349947
 30
0.0
 10
0.1680401918
 20
-31.8325806701
 30
0.0
 10
-0.05475882
 20
-31.8784992192
 30
0.0
 10
-0.4044648284
 20
-31.8428983035
 30
0.0
 10
-0.7561308546
 20
-31.7115612713
 30
0.0
 10
-1.0856994544
 20
-31.4950313553
 30
0.0
 10
-1.3711654562
 20
-31.2081897922
 30
0.0
 10
-1.6583363474
 20
-30.7732143336
 30
0.0
 10
-1.7695508076
 20
-30.3855231388
 30
0.0
 10
-1.7695508076
 20
-30.1355487696
 30
0.0
  0
SPLINE
  5
2DC
100
AcDbEntity
  8
0
100
AcDbSpline
 62
7
  6
CONTINUOUS
 70
0
 71
3
 72
9
 73
5
 74
0
 42
0.0000001
 43
0.0000001
 44
0.0000000001
 40
0.0
 40
0.0
 40
0.0
 40
0.0
 40
0.4812902611
 40
1.0
 40
1.0
 40
1.0
 40
1.0
 10
-0.7205418588
 20
-29.6421159448
 30
0.0
 10
-0.7622459161
 20
-29.6903451084
 30
0.0
 10
-0.8283781552
 20
-29.8095107226
 30
0.0
 10
-0.84748366
 20
-29.9432984488
 30
0.0
 10
-0.84748366
 20
-30.0120151958
 30
0.0
  0
SPLINE
  5
2DD
100
AcDbEntity
  8
0
100
AcDbSpline
 62
7
  6
CONTINUOUS
 70
0
 71
3
 72
10
 73
6
 74
0
 42
0.0000001
 43
0.0000001
 44
0.0000000001
 40
0.0
 40
0.0
 40
0.0
 40
0.0
 40
0.2621551042
 40
0.5141591636
 40
1.0
 40
1.0
 40
1.0
 40
1.0
 10
2.4107111213
 20
-0.7530356409
 30
0.0
 10
2.333247606
 20
-0.7026880537
 30
0.0
 10
2.1691114272
 20
-0.6226124418
 30
0.0
 10
1.833156167
 20
-0.514854485
 30
0.0
 10
1.5765885235
 20
-0.466791965
 30
0.0
 10
1.4070606011
 20
-0.4427939133
 30
0.0
  0
SPLINE
  5
2DE
100
AcDbEntity
  8
0
100
AcDbSpline
 62
7
  6
CONTINUOUS
 70
0
 71
3
 72
10
 73
6
 74
0
 42
0.0000001
 43
0.0000001
 44
0.0000000001
 40
0.0
 40
0.0
 40
0.0
 40
0.0
 40
0.2380213748
 40
0.4816796491
 40
1.0
 40
1.0
 40
1.0
 40
1.0
 10
-1.8774931473
 20
-29.7447162171
 30
0.0
 10
-1.9281616702
 20
-29.7885976221
 30
0.0
 10
-2.0203433287
 20
-29.8902245377
 30
0.0
 10
-2.1570926884
 20
-30.1386152207
 30
0.0
 10
-2.1945508076
 20
-30.3576459676
 30
0.0
 10
-2.1945508076
 20
-30.5036095662
 30
0.0
  0
SPLINE
  5
2DF
100
AcDbEntity
  8
0
100
AcDbSpline
 62
7
  6
CONTINUOUS
 70
0
 71
3
 72
9
 73
5
 74
0
 42
0.0000001
 43
0.0000001
 44
0.0000000001
 40
0.0
 40
0.0
 40
0.0
 40
0.0
 40
0.4844060168
 40
1.0
 40
1.0
 40
1.0
 40
1.0
 10
-1.6338419412
 20
-29.5966556665
 30
0.0
 10
-1.6792600995
 20
-29.6749483833
 30
0.0
 10
-1.7487711996
 20
-29.8514369812
 30
0.0
 10
-1.7695508076
 20
-30.0392084484
 30
0.0
 10
-1.7695508076
 20
-30.1355487696
 30
0.0
  0
SPLINE
  5
2E0
100
AcDbEntity
  8
0
100
AcDbSpline
 62
7
  6
CONTINUOUS
 70
0
 71
3
 72
14
 73
10
 74
0
 42
0.0000001
 43
0.0000001
 44
0.0000000001
 40
0.0
 40
0.0
 40
0.0
 40
0.0
 40
0.2538736179
 40
0.3905894553
 40
0.5270837032
 40
0.6585728715
 40
0.7814793883
 40
0.8945922238
 40
1.0
 40
1.0
 40
1.0
 40
1.0
 10
80.5589042957
 20
-53.5120151958
 30
0.0
 10
80.5589042957
 20
-53.6590131099
 30
0.0
 10
80.6287867315
 20
-53.8870744541
 30
0.0
 10
80.8060701811
 20
-54.1366103154
 30
0.0
 10
80.9805059654
 20
-54.2962366946
 30
0.0
 10
81.1789341867
 20
-54.4091957412
 30
0.0
 10
81.3865500602
 20
-54.4665179685
 30
0.0
 10
81.5874052302
 20
-54.4621871062
 30
0.0
 10
81.7084751878
 20
-54.4148997437
 30
0.0
 10
81.7598575638
 20
-54.3819618501
 30
0.0
  0
SPLINE
  5
2E1
100
AcDbEntity
  8
0
100
AcDbSpline
 62
7
  6
CONTINUOUS
 70
0
 71
3
 72
14
 73
10
 74
0
 42
0.0000001
 43
0.0000001
 44
0.0000000001
 40
0.0
 40
0.0
 40
0.0
 40
0.0
 40
0.2502808602
 40
0.3850392942
 40
0.5204605275
 40
0.6522823596
 40
0.7769881675
 40
0.892699387
 40
1.0
 40
1.0
 40
1.0
 40
1.0
 10
79.6368371482
 20
-53.6355487696
 30
0.0
 10
79.6368371482
 20
-53.8855231388
 30
0.0
 10
79.7480516083
 20
-54.2732143336
 30
0.0
 10
80.0352224995
 20
-54.7081897922
 30
0.0
 10
80.3206885014
 20
-54.9950313553
 30
0.0
 10
80.6502571011
 20
-55.2115612713
 30
0.0
 10
81.0019231273
 20
-55.3428983035
 30
0.0
 10
81.3516291357
 20
-55.3784992192
 30
0.0
 10
81.5744281475
 20
-55.3325806701
 30
0.0
 10
81.6738745323
 20
-55.2926349947
 30
0.0
  0
SPLINE
  5
2E2
100
AcDbEntity
  8
0
100
AcDbSpline
 62
7
  6
CONTINUOUS
 70
0
 71
3
 72
9
 73
5
 74
0
 42
0.0000001
 43
0.0000001
 44
0.0000000001
 40
0.0
 40
0.0
 40
0.0
 40
0.0
 40
0.5187097389
 40
1.0
 40
1.0
 40
1.0
 40
1.0
 10
80.5589042957
 20
-53.5120151958
 30
0.0
 10
80.5589042957
 20
-53.4432984488
 30
0.0
 10
80.5780098005
 20
-53.3095107226
 30
0.0
 10
80.6441420397
 20
-53.1903451084
 30
0.0
 10
80.6858460969
 20
-53.1421159448
 30
0.0
  0
SPLINE
  5
2E3
100
AcDbEntity
  8
0
100
AcDbSpline
 62
7
  6
CONTINUOUS
 70
0
 71
3
 72
9
 73
5
 74
0
 42
0.0000001
 43
0.0000001
 44
0.0000000001
 40
0.0
 40
0.0
 40
0.0
 40
0.0
 40
0.5155939832
 40
1.0
 40
1.0
 40
1.0
 40
1.0
 10
79.6368371482
 20
-53.6355487696
 30
0.0
 10
79.6368371482
 20
-53.5392084484
 30
0.0
 10
79.6576167561
 20
-53.3514369812
 30
0.0
 10
79.7271278563
 20
-53.1749483833
 30
0.0
 10
79.7725460145
 20
-53.0966556665
 30
0.0
  0
SPLINE
  5
2E4
100
AcDbEntity
  8
0
100
AcDbSpline
 62
7
  6
CONTINUOUS
 70
0
 71
3
 72
10
 73
6
 74
0
 42
0.0000001
 43
0.0000001
 44
0.0000000001
 40
0.0
 40
0.0
 40
0.0
 40
0.0
 40
0.2380213748
 40
0.4816796491
 40
1.0
 40
1.0
 40
1.0
 40
1.0
 10
-1.8774931473
 20
30.4440493459
 30
0.0
 10
-1.9281616702
 20
30.4001679409
 30
0.0
 10
-2.0203433287
 20
30.2985410253
 30
0.0
 10
-2.1570926884
 20
30.0501503423
 30
0.0
 10
-2.1945508076
 20
29.8311195955
 30
0.0
 10
-2.1945508076
 20
29.6851559968
 30
0.0
  0
SPLINE
  5
2E5
100
AcDbEntity
  8
0
100
AcDbSpline
 62
7
  6
CONTINUOUS
 70
0
 71
3
 72
14
 73
10
 74
0
 42
0.0000001
 43
0.0000001
 44
0.0000000001
 40
0.0
 40
0.0
 40
0.0
 40
0.0
 40
0.2502808602
 40
0.3850392942
 40
0.5204605275
 40
0.6522823596
 40
0.7769881675
 40
0.892699387
 40
1.0
 40
1.0
 40
1.0
 40
1.0
 10
-1.7695508076
 20
30.0532167934
 30
0.0
 10
-1.7695508076
 20
29.8032424242
 30
0.0
 10
-1.6583363474
 20
29.4155512294
 30
0.0
 10
-1.3711654562
 20
28.9805757708
 30
0.0
 10
-1.0856994544
 20
28.6937342078
 30
0.0
 10
-0.7561308546
 20
28.4772042917
 30
0.0
 10
-0.4044648284
 20
28.3458672595
 30
0.0
 10
-0.05475882
 20
28.3102663438
 30
0.0
 10
0.1680401918
 20
28.3561848929
 30
0.0
 10
0.2674865765
 20
28.3961305683
 30
0.0
  0
SPLINE
  5
2E6
100
AcDbEntity
  8
0
100
AcDbSpline
 62
7
  6
CONTINUOUS
 70
0
 71
3
 72
14
 73
10
 74
0
 42
0.0000001
 43
0.0000001
 44
0.0000000001
 40
0.0
 40
0.0
 40
0.0
 40
0.0
 40
0.2538736179
 40
0.3905894553
 40
0.5270837032
 40
0.6585728715
 40
0.7814793883
 40
0.8945922238
 40
1.0
 40
1.0
 40
1.0
 40
1.0
 10
-0.84748366
 20
30.1767503672
 30
0.0
 10
-0.84748366
 20
30.0297524531
 30
0.0
 10
-0.7776012242
 20
29.8016911089
 30
0.0
 10
-0.6003177746
 20
29.5521552476
 30
0.0
 10
-0.4258819904
 20
29.3925288684
 30
0.0
 10
-0.227453769
 20
29.2795698218
 30
0.0
 10
-0.0198378955
 20
29.2222475946
 30
0.0
 10
0.1810172745
 20
29.2265784568
 30
0.0
 10
0.3020872321
 20
29.2738658193
 30
0.0
 10
0.3534696081
 20
29.3068037129
 30
0.0
  0
SPLINE
  5
2E7
100
AcDbEntity
  8
0
100
AcDbSpline
 62
7
  6
CONTINUOUS
 70
0
 71
3
 72
9
 73
5
 74
0
 42
0.0000001
 43
0.0000001
 44
0.0000000001
 40
0.0
 40
0.0
 40
0.0
 40
0.0
 40
0.5155939832
 40
1.0
 40
1.0
 40
1.0
 40
1.0
 10
-1.7695508076
 20
30.0532167934
 30
0.0
 10
-1.7695508076
 20
30.1495571146
 30
0.0
 10
-1.7487711996
 20
30.3373285818
 30
0.0
 10
-1.6792600995
 20
30.5138171798
 30
0.0
 10
-1.6338419412
 20
30.5921098965
 30
0.0
  0
SPLINE
  5
2E8
100
AcDbEntity
  8
0
100
AcDbSpline
 62
7
  6
CONTINUOUS
 70
0
 71
3
 72
9
 73
5
 74
0
 42
0.0000001
 43
0.0000001
 44
0.0000000001
 40
0.0
 40
0.0
 40
0.0
 40
0.0
 40
0.5187097389
 40
1.0
 40
1.0
 40
1.0
 40
1.0
 10
-0.84748366
 20
30.1767503672
 30
0.0
 10
-0.84748366
 20
30.2454671143
 30
0.0
 10
-0.8283781552
 20
30.3792548404
 30
0.0
 10
-0.7622459161
 20
30.4984204546
 30
0.0
 10
-0.7205418588
 20
30.5466496183
 30
0.0
  0
SPLINE
  5
2E9
100
AcDbEntity
  8
0
100
AcDbSpline
 62
7
  6
CONTINUOUS
 70
0
 71
3
 72
8
 73
4
 74
0
 42
0.0000001
 43
0.0000001
 44
0.0000000001
 40
0.0
 40
0.0
 40
0.0
 40
0.0
 40
1.0
 40
1.0
 40
1.0
 40
1.0
 10
-1.4213876084
 20
-36.4577365454
 30
0.0
 10
-1.4286576373
 20
-36.4631572268
 30
0.0
 10
-1.4367423638
 20
-36.4675809233
 30
0.0
 10
-1.4451436796
 20
-36.4709948652
 30
0.0
  0
SPLINE
  5
2EA
100
AcDbEntity
  8
0
100
AcDbSpline
 62
7
  6
CONTINUOUS
 70
0
 71
3
 72
9
 73
5
 74
0
 42
0.0000001
 43
0.0000001
 44
0.0000000001
 40
0.0
 40
0.0
 40
0.0
 40
0.0
 40
0.4802928799
 40
1.0
 40
1.0
 40
1.0
 40
1.0
 10
-1.4451436796
 20
-36.4709948652
 30
0.0
 10
-1.4706404395
 20
-36.4813556775
 30
0.0
 10
-1.5300593481
 20
-36.4842963415
 30
0.0
 10
-1.5865917486
 20
-36.4751249358
 30
0.0
 10
-1.6152034509
 20
-36.4668656068
 30
0.0
  0
SPLINE
  5
2EB
100
AcDbEntity
  8
0
100
AcDbSpline
 62
7
  6
CONTINUOUS
 70
0
 71
3
 72
10
 73
6
 74
0
 42
0.0000001
 43
0.0000001
 44
0.0000000001
 40
0.0
 40
0.0
 40
0.0
 40
0.0
 40
0.2306692649
 40
0.475699659
 40
1.0
 40
1.0
 40
1.0
 40
1.0
 10
-1.4280209529
 20
-36.4638424349
 30
0.0
 10
-1.4400322717
 20
-36.4742445415
 30
0.0
 10
-1.4704870238
 20
-36.4895506187
 30
0.0
 10
-1.5397041345
 20
-36.4954342952
 30
0.0
 10
-1.5930042891
 20
-36.4877075231
 30
0.0
 10
-1.6277035068
 20
-36.4776909083
 30
0.0
  0
SPLINE
  5
2EC
100
AcDbEntity
  8
0
100
AcDbSpline
 62
7
  6
CONTINUOUS
 70
0
 71
3
 72
10
 73
6
 74
0
 42
0.0000001
 43
0.0000001
 44
0.0000000001
 40
0.0
 40
0.0
 40
0.0
 40
0.0
 40
0.4761230046
 40
0.7331694785
 40
1.0
 40
1.0
 40
1.0
 40
1.0
 10
-1.2802759174
 20
-36.6046116014
 30
0.0
 10
-1.249950019
 20
-36.578348603
 30
0.0
 10
-1.2156759946
 20
-36.5228802108
 30
0.0
 10
-1.1958398532
 20
-36.4407811692
 30
0.0
 10
-1.1939156812
 20
-36.3964224265
 30
0.0
 10
-1.1939156812
 20
-36.3739396968
 30
0.0
  0
SPLINE
  5
2ED
100
AcDbEntity
  8
RACCORDO
100
AcDbSpline
 62
250
  6
CONTINUOUS
 70
0
 71
3
 72
11
 73
7
 74
0
 42
0.0000001
 43
0.0000001
 44
0.0000000001
 40
0.0
 40
0.0
 40
0.0
 40
0.0
 40
0.3270120749
 40
0.6004647693
 40
0.8193112579
 40
1.0
 40
1.0
 40
1.0
 40
1.0
 10
-86.6320276766
 20
-13.9228382003
 30
0.0
 10
-86.6320276766
 20
-13.9889090927
 30
0.0
 10
-86.6242937156
 20
-14.1105962251
 30
0.0
 10
-86.5834122936
 20
-14.272175572
 30
0.0
 10
-86.5151715552
 20
-14.3929257037
 30
0.0
 10
-86.4444524384
 20
-14.4404683564
 30
0.0
 10
-86.4093775503
 20
-14.4505936441
 30
0.0
  0
SPLINE
  5
2EE
100
AcDbEntity
  8
RACCORDO
100
AcDbSpline
 62
250
  6
CONTINUOUS
 70
0
 71
3
 72
11
 73
7
 74
0
 42
0.0000001
 43
0.0000001
 44
0.0000000001
 40
0.0
 40
0.0
 40
0.0
 40
0.0
 40
0.3270120749
 40
0.6004647693
 40
0.8193112579
 40
1.0
 40
1.0
 40
1.0
 40
1.0
 10
84.8410022728
 20
-63.4228382003
 30
0.0
 10
84.8410022728
 20
-63.4889090927
 30
0.0
 10
84.8487362337
 20
-63.6105962251
 30
0.0
 10
84.8896176557
 20
-63.772175572
 30
0.0
 10
84.9578583941
 20
-63.8929257037
 30
0.0
 10
85.0285775109
 20
-63.9404683564
 30
0.0
 10
85.063652399
 20
-63.9505936441
 30
0.0
  0
SPLINE
  5
2EF
100
AcDbEntity
  8
RACCORDO
100
AcDbSpline
 62
250
  6
CONTINUOUS
 70
0
 71
3
 72
11
 73
7
 74
0
 42
0.0000001
 43
0.0000001
 44
0.0000000001
 40
0.0
 40
0.0
 40
0.0
 40
0.0
 40
0.2637513752
 40
0.5379163756
 40
0.7915792861
 40
1.0
 40
1.0
 40
1.0
 40
1.0
 10
88.3051038879
 20
-60.9587365851
 30
0.0
 10
88.4251224355
 20
-60.9933829555
 30
0.0
 10
88.6789174642
 20
-61.0339040339
 30
0.0
 10
89.0559038801
 20
-61.0220818468
 30
0.0
 10
89.3975176786
 20
-60.9434162945
 30
0.0
 10
89.5965090688
 20
-60.8403468919
 30
0.0
 10
89.6711292917
 20
-60.7757238832
 30
0.0
  0
SPLINE
  5
2F0
100
AcDbEntity
  8
RACCORDO
100
AcDbSpline
 62
250
  6
CONTINUOUS
 70
0
 71
3
 72
11
 73
7
 74
0
 42
0.0000001
 43
0.0000001
 44
0.0000000001
 40
0.0
 40
0.0
 40
0.0
 40
0.0
 40
0.2637513752
 40
0.5379163756
 40
0.7915792861
 40
1.0
 40
1.0
 40
1.0
 40
1.0
 10
88.3051038879
 20
7.8902830157
 30
0.0
 10
88.4251224355
 20
7.8556366453
 30
0.0
 10
88.6789174642
 20
7.8151155669
 30
0.0
 10
89.0559038801
 20
7.8269377541
 30
0.0
 10
89.3975176786
 20
7.9056033064
 30
0.0
 10
89.5965090688
 20
8.0086727089
 30
0.0
 10
89.6711292917
 20
8.0732957176
 30
0.0
  0
SPLINE
  5
2F1
100
AcDbEntity
  8
RACCORDO
100
AcDbSpline
 62
250
  6
CONTINUOUS
 70
0
 71
3
 72
12
 73
8
 74
0
 42
0.0000001
 43
0.0000001
 44
0.0000000001
 40
0.0
 40
0.0
 40
0.0
 40
0.0
 40
0.2572978538
 40
0.5313272222
 40
0.7884496257
 40
0.9013240806
 40
1.0
 40
1.0
 40
1.0
 40
1.0
 10
84.8410022728
 20
12.3543846309
 30
0.0
 10
84.8410022728
 20
12.4765036556
 30
0.0
 10
84.870392154
 20
12.7289008459
 30
0.0
 10
84.9747266201
 20
13.0895588174
 30
0.0
 10
85.107713201
 20
13.3672577819
 30
0.0
 10
85.2363887749
 20
13.5492470779
 30
0.0
 10
85.3055993334
 20
13.6227628917
 30
0.0
 10
85.3410022728
 20
13.6534227365
 30
0.0
  0
SPLINE
  5
2F2
100
AcDbEntity
  8
RACCORDO
100
AcDbSpline
 62
250
  6
CONTINUOUS
 70
0
 71
3
 72
12
 73
8
 74
0
 42
0.0000001
 43
0.0000001
 44
0.0000000001
 40
0.0
 40
0.0
 40
0.0
 40
0.0
 40
0.2572978538
 40
0.5313272222
 40
0.7884496257
 40
0.9013240806
 40
1.0
 40
1.0
 40
1.0
 40
1.0
 10
-86.6320276766
 20
61.8543846309
 30
0.0
 10
-86.6320276766
 20
61.9765036556
 30
0.0
 10
-86.6026377953
 20
62.2289008459
 30
0.0
 10
-86.4983033292
 20
62.5895588174
 30
0.0
 10
-86.3653167483
 20
62.8672577819
 30
0.0
 10
-86.2366411744
 20
63.0492470779
 30
0.0
 10
-86.1674306159
 20
63.1227628917
 30
0.0
 10
-86.1320276765
 20
63.1534227365
 30
0.0
  0
SPLINE
  5
2F3
100
AcDbEntity
  8
RACCORDO
100
AcDbSpline
 62
250
  6
CONTINUOUS
 70
0
 71
3
 72
11
 73
7
 74
0
 42
0.0000001
 43
0.0000001
 44
0.0000000001
 40
0.0
 40
0.0
 40
0.0
 40
0.0
 40
0.3160272249
 40
0.5862563612
 40
0.809351645
 40
1.0
 40
1.0
 40
1.0
 40
1.0
 10
-90.0961292917
 20
59.3902830157
 30
0.0
 10
-90.167170631
 20
59.4107908839
 30
0.0
 10
-90.2966042364
 20
59.458686706
 30
0.0
 10
-90.4587622273
 20
59.5595570846
 30
0.0
 10
-90.5678398172
 20
59.6811398229
 30
0.0
 10
-90.5961291294
 20
59.7786889495
 30
0.0
 10
-90.5961292917
 20
59.8232957176
 30
0.0
  0
SPLINE
  5
2F4
100
AcDbEntity
  8
RACCORDO
100
AcDbSpline
 62
250
  6
CONTINUOUS
 70
0
 71
3
 72
11
 73
7
 74
0
 42
0.0000001
 43
0.0000001
 44
0.0000000001
 40
0.0
 40
0.0
 40
0.0
 40
0.0
 40
0.3160272249
 40
0.5862563612
 40
0.809351645
 40
1.0
 40
1.0
 40
1.0
 40
1.0
 10
-90.0961292917
 20
-9.4587365851
 30
0.0
 10
-90.167170631
 20
-9.4382287169
 30
0.0
 10
-90.2966042364
 20
-9.3903328949
 30
0.0
 10
-90.4587622273
 20
-9.2894625163
 30
0.0
 10
-90.5678398172
 20
-9.1678797779
 30
0.0
 10
-90.5961291294
 20
-9.0703306513
 30
0.0
 10
-90.5961292917
 20
-9.0257238832
 30
0.0
  0
SPLINE
  5
2F5
100
AcDbEntity
  8
0
100
AcDbSpline
 62
7
  6
CONTINUOUS
 70
0
 71
3
 72
11
 73
7
 74
0
 42
0.0000001
 43
0.0000001
 44
0.0000000001
 40
0.0
 40
0.0
 40
0.0
 40
0.0
 40
0.2348764418
 40
0.4745881015
 40
0.7292814223
 40
1.0
 40
1.0
 40
1.0
 40
1.0
 10
0.5860580921
 20
-37.603843959
 30
0.0
 10
0.575788956
 20
-37.6127372816
 30
0.0
 10
0.5530643235
 20
-37.6286814583
 30
0.0
 10
0.5125414068
 20
-37.6425693174
 30
0.0
 10
0.4678267983
 20
-37.6438432218
 30
0.0
 10
0.4376871849
 20
-37.6385011578
 30
0.0
 10
0.4226436372
 20
-37.6341584596
 30
0.0
  0
SPLINE
  5
2F6
100
AcDbEntity
  8
0
100
AcDbSpline
 62
7
  6
CONTINUOUS
 70
0
 71
3
 72
10
 73
6
 74
0
 42
0.0000001
 43
0.0000001
 44
0.0000000001
 40
0.0
 40
0.0
 40
0.0
 40
0.0
 40
0.2380213748
 40
0.4816796491
 40
1.0
 40
1.0
 40
1.0
 40
1.0
 10
79.5288948084
 20
-53.2447162171
 30
0.0
 10
79.4782262855
 20
-53.2885976221
 30
0.0
 10
79.386044627
 20
-53.3902245377
 30
0.0
 10
79.2492952673
 20
-53.6386152207
 30
0.0
 10
79.2118371482
 20
-53.8576459676
 30
0.0
 10
79.2118371482
 20
-54.0036095662
 30
0.0
  0
SPLINE
  5
2F7
100
AcDbEntity
  8
0
100
AcDbSpline
 62
7
  6
CONTINUOUS
 70
0
 71
3
 72
11
 73
7
 74
0
 42
0.0000001
 43
0.0000001
 44
0.0000000001
 40
0.0
 40
0.0
 40
0.0
 40
0.0
 40
0.2368712401
 40
0.4846219544
 40
0.7388134513
 40
1.0
 40
1.0
 40
1.0
 40
1.0
 10
0.239302584
 20
-36.6594981806
 30
0.0
 10
0.2218574965
 20
-36.6841481226
 30
0.0
 10
0.198727008
 20
-36.7428117686
 30
0.0
 10
0.1782227
 20
-36.8345568626
 30
0.0
 10
0.1656706506
 20
-36.9313226351
 30
0.0
 10
0.1649011721
 20
-36.9970976987
 30
0.0
 10
0.1649011721
 20
-37.0303961596
 30
0.0
  0
SPLINE
  5
2F8
100
AcDbEntity
  8
0
100
AcDbSpline
 62
7
  6
CONTINUOUS
 70
0
 71
3
 72
11
 73
7
 74
0
 42
0.0000001
 43
0.0000001
 44
0.0000000001
 40
0.0
 40
0.0
 40
0.0
 40
0.0
 40
0.2340396745
 40
0.4799169824
 40
0.7354482476
 40
1.0
 40
1.0
 40
1.0
 40
1.0
 10
0.7148990019
 20
-37.7337676562
 30
0.0
 10
0.745740871
 20
-37.7070577996
 30
0.0
 10
0.7989087856
 20
-37.6391896446
 30
0.0
 10
0.8371764279
 20
-37.515542508
 30
0.0
 10
0.8616862688
 20
-37.3841752793
 30
0.0
 10
0.8657604491
 20
-37.2932696781
 30
0.0
 10
0.8657604491
 20
-37.2471505624
 30
0.0
  0
SPLINE
  5
2F9
100
AcDbEntity
  8
0
100
AcDbSpline
 62
7
  6
CONTINUOUS
 70
0
 71
3
 72
9
 73
5
 74
0
 42
0.0000001
 43
0.0000001
 44
0.0000000001
 40
0.0
 40
0.0
 40
0.0
 40
0.0
 40
0.4844060168
 40
1.0
 40
1.0
 40
1.0
 40
1.0
 10
-83.040229897
 20
-6.0966556665
 30
0.0
 10
-83.0856480552
 20
-6.1749483833
 30
0.0
 10
-83.1551591554
 20
-6.3514369812
 30
0.0
 10
-83.1759387633
 20
-6.5392084484
 30
0.0
 10
-83.1759387633
 20
-6.6355487696
 30
0.0
  0
SPLINE
  5
2FA
100
AcDbEntity
  8
0
100
AcDbSpline
 62
7
  6
CONTINUOUS
 70
0
 71
3
 72
9
 73
5
 74
0
 42
0.0000001
 43
0.0000001
 44
0.0000000001
 40
0.0
 40
0.0
 40
0.0
 40
0.0
 40
0.4812902611
 40
1.0
 40
1.0
 40
1.0
 40
1.0
 10
-82.1269298146
 20
-6.1421159448
 30
0.0
 10
-82.1686338718
 20
-6.1903451084
 30
0.0
 10
-82.2347661109
 20
-6.3095107226
 30
0.0
 10
-82.2538716158
 20
-6.4432984488
 30
0.0
 10
-82.2538716158
 20
-6.5120151958
 30
0.0
  0
SPLINE
  5
2FB
100
AcDbEntity
  8
0
100
AcDbSpline
 62
7
  6
CONTINUOUS
 70
0
 71
3
 72
14
 73
10
 74
0
 42
0.0000001
 43
0.0000001
 44
0.0000000001
 40
0.0
 40
0.0
 40
0.0
 40
0.0
 40
0.107300613
 40
0.2230118325
 40
0.3477176404
 40
0.4795394725
 40
0.6149607058
 40
0.7497191398
 40
1.0
 40
1.0
 40
1.0
 40
1.0
 10
-81.1389013792
 20
-8.2926349947
 30
0.0
 10
-81.2383477639
 20
-8.3325806701
 30
0.0
 10
-81.4611467757
 20
-8.3784992192
 30
0.0
 10
-81.8108527842
 20
-8.3428983035
 30
0.0
 10
-82.1625188103
 20
-8.2115612713
 30
0.0
 10
-82.4920874101
 20
-7.9950313553
 30
0.0
 10
-82.777553412
 20
-7.7081897922
 30
0.0
 10
-83.0647243032
 20
-7.2732143336
 30
0.0
 10
-83.1759387633
 20
-6.8855231388
 30
0.0
 10
-83.1759387633
 20
-6.6355487696
 30
0.0
  0
SPLINE
  5
2FC
100
AcDbEntity
  8
0
100
AcDbSpline
 62
7
  6
CONTINUOUS
 70
0
 71
3
 72
14
 73
10
 74
0
 42
0.0000001
 43
0.0000001
 44
0.0000000001
 40
0.0
 40
0.0
 40
0.0
 40
0.0
 40
0.1046896802
 40
0.21598917
 40
0.3373683363
 40
0.4683568928
 40
0.6054576396
 40
0.7435276241
 40
1.0
 40
1.0
 40
1.0
 40
1.0
 10
-81.3199202122
 20
-8.5125029153
 30
0.0
 10
-81.4063770935
 20
-8.5873787793
 30
0.0
 10
-81.6193498205
 20
-8.7053606575
 30
0.0
 10
-81.9926186735
 20
-8.750228178
 30
0.0
 10
-82.3875742317
 20
-8.6698789519
 30
0.0
 10
-82.7709926709
 20
-8.4756669154
 30
0.0
 10
-83.1119872508
 20
-8.1848530811
 30
0.0
 10
-83.4613855587
 20
-7.7185440419
 30
0.0
 10
-83.6009387633
 20
-7.2838045166
 30
0.0
 10
-83.6009387633
 20
-7.0036095662
 30
0.0
  0
SPLINE
  5
2FD
100
AcDbEntity
  8
0
100
AcDbSpline
 62
7
  6
CONTINUOUS
 70
0
 71
3
 72
14
 73
10
 74
0
 42
0.0000001
 43
0.0000001
 44
0.0000000001
 40
0.0
 40
0.0
 40
0.0
 40
0.0
 40
0.1054077762
 40
0.2185206117
 40
0.3414271285
 40
0.4729162968
 40
0.6094105447
 40
0.7461263821
 40
1.0
 40
1.0
 40
1.0
 40
1.0
 10
-81.0529183477
 20
-7.3819618501
 30
0.0
 10
-81.1043007236
 20
-7.4148997437
 30
0.0
 10
-81.2253706813
 20
-7.4621871062
 30
0.0
 10
-81.4262258513
 20
-7.4665179685
 30
0.0
 10
-81.6338417248
 20
-7.4091957412
 30
0.0
 10
-81.8322699461
 20
-7.2962366946
 30
0.0
 10
-82.0067057304
 20
-7.1366103154
 30
0.0
 10
-82.1839891799
 20
-6.8870744541
 30
0.0
 10
-82.2538716158
 20
-6.6590131099
 30
0.0
 10
-82.2538716158
 20
-6.5120151958
 30
0.0
  0
SPLINE
  5
2FE
100
AcDbEntity
  8
0
100
AcDbSpline
 62
7
  6
CONTINUOUS
 70
0
 71
3
 72
14
 73
10
 74
0
 42
0.0000001
 43
0.0000001
 44
0.0000000001
 40
0.0
 40
0.0
 40
0.0
 40
0.0
 40
0.1046896802
 40
0.21598917
 40
0.3373683363
 40
0.4683568928
 40
0.6054576396
 40
0.7435276241
 40
1.0
 40
1.0
 40
1.0
 40
1.0
 10
81.4928556993
 20
4.6762626477
 30
0.0
 10
81.406398818
 20
4.6013867837
 30
0.0
 10
81.193426091
 20
4.4834049055
 30
0.0
 10
80.8201572379
 20
4.4385373851
 30
0.0
 10
80.4252016797
 20
4.5188866112
 30
0.0
 10
80.0417832406
 20
4.7130986476
 30
0.0
 10
79.7007886607
 20
5.003912482
 30
0.0
 10
79.3513903528
 20
5.4702215211
 30
0.0
 10
79.2118371482
 20
5.9049610464
 30
0.0
 10
79.2118371482
 20
6.1851559968
 30
0.0
  0
SPLINE
  5
2FF
100
AcDbEntity
  8
0
100
AcDbSpline
 62
7
  6
CONTINUOUS
 70
0
 71
3
 72
11
 73
7
 74
0
 42
0.0000001
 43
0.0000001
 44
0.0000000001
 40
0.0
 40
0.0
 40
0.0
 40
0.0
 40
0.2322375557
 40
0.4737122696
 40
0.7297142651
 40
1.0
 40
1.0
 40
1.0
 40
1.0
 10
0.148092152
 20
-36.4894791816
 30
0.0
 10
0.1660965095
 20
-36.4746547401
 30
0.0
 10
0.2072508117
 20
-36.4492263024
 30
0.0
 10
0.2791636761
 20
-36.4308682164
 30
0.0
 10
0.3568460791
 20
-36.4304143766
 30
0.0
 10
0.409065443
 20
-36.4406491577
 30
0.0
 10
0.4351436372
 20
-36.4481772839
 30
0.0
  0
SPLINE
  5
300
100
AcDbEntity
  8
0
100
AcDbSpline
 62
7
  6
CONTINUOUS
 70
0
 71
3
 72
9
 73
5
 74
0
 42
0.0000001
 43
0.0000001
 44
0.0000000001
 40
0.0
 40
0.0
 40
0.0
 40
0.0
 40
0.4749549261
 40
1.0
 40
1.0
 40
1.0
 40
1.0
 10
2.2465529678
 20
-1.4667337147
 30
0.0
 10
2.2151880067
 20
-1.4813060386
 30
0.0
 10
2.1397580947
 20
-1.4901357186
 30
0.0
 10
2.0679937809
 20
-1.4767681225
 30
0.0
 10
2.0310493931
 20
-1.4669283762
 30
0.0
  0
SPLINE
  5
301
100
AcDbEntity
  8
0
100
AcDbSpline
 62
7
  6
CONTINUOUS
 70
0
 71
3
 72
14
 73
10
 74
0
 42
0.0000001
 43
0.0000001
 44
0.0000000001
 40
0.0
 40
0.0
 40
0.0
 40
0.0
 40
0.107300613
 40
0.2230118325
 40
0.3477176404
 40
0.4795394725
 40
0.6149607058
 40
0.7497191398
 40
1.0
 40
1.0
 40
1.0
 40
1.0
 10
-81.1389013792
 20
51.8961305683
 30
0.0
 10
-81.2383477639
 20
51.8561848929
 30
0.0
 10
-81.4611467757
 20
51.8102663438
 30
0.0
 10
-81.8108527842
 20
51.8458672595
 30
0.0
 10
-82.1625188103
 20
51.9772042917
 30
0.0
 10
-82.4920874101
 20
52.1937342078
 30
0.0
 10
-82.777553412
 20
52.4805757708
 30
0.0
 10
-83.0647243032
 20
52.9155512294
 30
0.0
 10
-83.1759387633
 20
53.3032424242
 30
0.0
 10
-83.1759387633
 20
53.5532167934
 30
0.0
  0
SPLINE
  5
302
100
AcDbEntity
  8
0
100
AcDbSpline
 62
7
  6
CONTINUOUS
 70
0
 71
3
 72
14
 73
10
 74
0
 42
0.0000001
 43
0.0000001
 44
0.0000000001
 40
0.0
 40
0.0
 40
0.0
 40
0.0
 40
0.1054077762
 40
0.2185206117
 40
0.3414271285
 40
0.4729162968
 40
0.6094105447
 40
0.7461263821
 40
1.0
 40
1.0
 40
1.0
 40
1.0
 10
-81.0529183477
 20
52.8068037129
 30
0.0
 10
-81.1043007236
 20
52.7738658193
 30
0.0
 10
-81.2253706813
 20
52.7265784568
 30
0.0
 10
-81.4262258513
 20
52.7222475946
 30
0.0
 10
-81.6338417248
 20
52.7795698218
 30
0.0
 10
-81.8322699461
 20
52.8925288684
 30
0.0
 10
-82.0067057304
 20
53.0521552476
 30
0.0
 10
-82.1839891799
 20
53.3016911089
 30
0.0
 10
-82.2538716158
 20
53.5297524531
 30
0.0
 10
-82.2538716158
 20
53.6767503672
 30
0.0
  0
SPLINE
  5
303
100
AcDbEntity
  8
0
100
AcDbSpline
 62
7
  6
CONTINUOUS
 70
0
 71
3
 72
10
 73
6
 74
0
 42
0.0000001
 43
0.0000001
 44
0.0000000001
 40
0.0
 40
0.0
 40
0.0
 40
0.0
 40
0.2380213748
 40
0.4816796491
 40
1.0
 40
1.0
 40
1.0
 40
1.0
 10
-83.2838811031
 20
53.9440493459
 30
0.0
 10
-83.3345496259
 20
53.9001679409
 30
0.0
 10
-83.4267312844
 20
53.7985410253
 30
0.0
 10
-83.5634806442
 20
53.5501503423
 30
0.0
 10
-83.6009387633
 20
53.3311195955
 30
0.0
 10
-83.6009387633
 20
53.1851559968
 30
0.0
  0
SPLINE
  5
304
100
AcDbEntity
  8
0
100
AcDbSpline
 62
7
  6
CONTINUOUS
 70
0
 71
3
 72
9
 73
5
 74
0
 42
0.0000001
 43
0.0000001
 44
0.0000000001
 40
0.0
 40
0.0
 40
0.0
 40
0.0
 40
0.4844060168
 40
1.0
 40
1.0
 40
1.0
 40
1.0
 10
-83.040229897
 20
54.0921098965
 30
0.0
 10
-83.0856480552
 20
54.0138171798
 30
0.0
 10
-83.1551591554
 20
53.8373285818
 30
0.0
 10
-83.1759387633
 20
53.6495571146
 30
0.0
 10
-83.1759387633
 20
53.5532167934
 30
0.0
  0
SPLINE
  5
305
100
AcDbEntity
  8
0
100
AcDbSpline
 62
7
  6
CONTINUOUS
 70
0
 71
3
 72
9
 73
5
 74
0
 42
0.0000001
 43
0.0000001
 44
0.0000000001
 40
0.0
 40
0.0
 40
0.0
 40
0.0
 40
0.4812902611
 40
1.0
 40
1.0
 40
1.0
 40
1.0
 10
-82.1269298146
 20
54.0466496183
 30
0.0
 10
-82.1686338718
 20
53.9984204546
 30
0.0
 10
-82.2347661109
 20
53.8792548404
 30
0.0
 10
-82.2538716158
 20
53.7454671143
 30
0.0
 10
-82.2538716158
 20
53.6767503672
 30
0.0
  0
SPLINE
  5
306
100
AcDbEntity
  8
0
100
AcDbSpline
 62
7
  6
CONTINUOUS
 70
0
 71
3
 72
11
 73
7
 74
0
 42
0.0000001
 43
0.0000001
 44
0.0000000001
 40
0.0
 40
0.0
 40
0.0
 40
0.0
 40
0.2277506502
 40
0.4695926727
 40
0.7301882615
 40
1.0
 40
1.0
 40
1.0
 40
1.0
 10
2.2699163308
 20
-1.4543255107
 30
0.0
 10
2.2548939289
 20
-1.4673352922
 30
0.0
 10
2.2180610675
 20
-1.4879378785
 30
0.0
 10
2.1542590111
 20
-1.4976922487
 30
0.0
 10
2.086712082
 20
-1.4934203422
 30
0.0
 10
2.0412992
 20
-1.4838128639
 30
0.0
 10
2.0185493931
 20
-1.4777536938
 30
0.0
  0
SPLINE
  5
307
100
AcDbEntity
  8
0
100
AcDbSpline
 62
7
  6
CONTINUOUS
 70
0
 71
3
 72
13
 73
9
 74
0
 42
0.0000001
 43
0.0000001
 44
0.0000000001
 40
0.0
 40
0.0
 40
0.0
 40
0.0
 40
0.2526217172
 40
0.385205492
 40
0.5159356366
 40
0.7641989104
 40
0.8836467341
 40
1.0
 40
1.0
 40
1.0
 40
1.0
 10
0.4351436372
 20
-36.4481772839
 30
0.0
 10
0.5134974514
 20
-36.4707960817
 30
0.0
 10
0.6265107294
 20
-36.5361431197
 30
0.0
 10
0.7335325431
 20
-36.6647595114
 30
0.0
 10
0.8152533548
 20
-36.809497491
 30
0.0
 10
0.8545561796
 20
-36.967746431
 30
0.0
 10
0.8755759012
 20
-37.1225221549
 30
0.0
 10
0.8782604491
 20
-37.1987632118
 30
0.0
 10
0.8782604491
 20
-37.2363252449
 30
0.0
  0
SPLINE
  5
308
100
AcDbEntity
  8
0
100
AcDbSpline
 62
7
  6
CONTINUOUS
 70
0
 71
3
 72
15
 73
11
 74
0
 42
0.0000001
 43
0.0000001
 44
0.0000000001
 40
0.0
 40
0.0
 40
0.0
 40
0.0
 40
0.1052972545
 40
0.2152244536
 40
0.3320147321
 40
0.4556448523
 40
0.5862672626
 40
0.7226272008
 40
0.8618688155
 40
1.0
 40
1.0
 40
1.0
 40
1.0
 10
2.6044150815
 20
-1.6725430287
 30
0.0
 10
2.6315836976
 20
-1.6473228972
 30
0.0
 10
2.6789057633
 20
-1.5862390787
 30
0.0
 10
2.7199469524
 20
-1.4751937682
 30
0.0
 10
2.7322796767
 20
-1.3515032665
 30
0.0
 10
2.7209986801
 20
-1.2206421361
 30
0.0
 10
2.6824018964
 20
-1.0876934265
 30
0.0
 10
2.615787037
 20
-0.960028244
 30
0.0
 10
2.5249143578
 20
-0.8455209365
 30
0.0
 10
2.4514946784
 20
-0.779521652
 30
0.0
 10
2.4107111213
 20
-0.7530356409
 30
0.0
  0
SPLINE
  5
309
100
AcDbEntity
  8
0
100
AcDbSpline
 62
7
  6
CONTINUOUS
 70
0
 71
3
 72
15
 73
11
 74
0
 42
0.0000001
 43
0.0000001
 44
0.0000000001
 40
0.0
 40
0.0
 40
0.0
 40
0.0
 40
0.1052551838
 40
0.2149008921
 40
0.3314195135
 40
0.4549177125
 40
0.5855058983
 40
0.7220172327
 40
0.8615404568
 40
1.0
 40
1.0
 40
1.0
 40
1.0
 10
2.5830289389
 20
-1.6913360702
 30
0.0
 10
2.6113536651
 20
-1.666806138
 30
0.0
 10
2.66115122
 20
-1.6066743954
 30
0.0
 10
2.7053887112
 20
-1.4955613836
 30
0.0
 10
2.7198456664
 20
-1.370874262
 30
0.0
 10
2.7098528817
 20
-1.2385736219
 30
0.0
 10
2.6721324476
 20
-1.1037525231
 30
0.0
 10
2.605515094
 20
-0.9740711586
 30
0.0
 10
2.5138634614
 20
-0.8577280431
 30
0.0
 10
2.4395493025
 20
-0.7907071584
 30
0.0
 10
2.3982111213
 20
-0.7638609585
 30
0.0
  0
SPLINE
  5
30A
100
AcDbEntity
  8
0
100
AcDbSpline
 62
7
  6
CONTINUOUS
 70
0
 71
3
 72
11
 73
7
 74
0
 42
0.0000001
 43
0.0000001
 44
0.0000000001
 40
0.0
 40
0.0
 40
0.0
 40
0.0
 40
0.2645517563
 40
0.5200830231
 40
0.7659603275
 40
1.0
 40
1.0
 40
1.0
 40
1.0
 10
0.8782604491
 20
-37.2363252449
 30
0.0
 10
0.8782604491
 20
-37.2824443716
 30
0.0
 10
0.8741862662
 20
-37.3733499942
 30
0.0
 10
0.8496764154
 20
-37.5047172519
 30
0.0
 10
0.8114087476
 20
-37.6283644117
 30
0.0
 10
0.7582407993
 20
-37.696232567
 30
0.0
 10
0.7273989122
 20
-37.7229424163
 30
0.0
  0
SPLINE
  5
30B
100
AcDbEntity
  8
RACCORDO
100
AcDbSpline
 62
250
  6
CONTINUOUS
 70
0
 71
3
 72
11
 73
7
 74
0
 42
0.0000001
 43
0.0000001
 44
0.0000000001
 40
0.0
 40
0.0
 40
0.0
 40
0.0
 40
0.237416904
 40
0.4804566928
 40
0.7336978255
 40
1.0
 40
1.0
 40
1.0
 40
1.0
 10
88.6142704555
 20
-63.3053684161
 30
0.0
 10
88.7831684386
 20
-63.159100535
 30
0.0
 10
89.0904481434
 20
-62.8205801364
 30
0.0
 10
89.425700966
 20
-62.2104456723
 30
0.0
 10
89.6285911507
 20
-61.5167708333
 30
0.0
 10
89.6711292917
 20
-61.026337081
 30
0.0
 10
89.6711292917
 20
-60.7757238832
 30
0.0
  0
SPLINE
  5
30C
100
AcDbEntity
  8
0
100
AcDbSpline
 62
7
  6
CONTINUOUS
 70
0
 71
3
 72
11
 73
7
 74
0
 42
0.0000001
 43
0.0000001
 44
0.0000000001
 40
0.0
 40
0.0
 40
0.0
 40
0.0
 40
0.2702197879
 40
0.5253360801
 40
0.7655462249
 40
1.0
 40
1.0
 40
1.0
 40
1.0
 10
0.4351436372
 20
-37.6233331421
 30
0.0
 10
0.449489993
 20
-37.6274745783
 30
0.0
 10
0.4782442689
 20
-37.6327073199
 30
0.0
 10
0.520929232
 20
-37.6321445678
 30
0.0
 10
0.5601022258
 20
-37.6203988505
 30
0.0
 10
0.5824342249
 20
-37.6060707866
 30
0.0
 10
0.5925671242
 20
-37.5979976246
 30
0.0
  0
SPLINE
  5
30D
100
AcDbEntity
  8
0
100
AcDbSpline
 62
7
  6
CONTINUOUS
 70
0
 71
3
 72
15
 73
11
 74
0
 42
0.0000001
 43
0.0000001
 44
0.0000000001
 40
0.0
 40
0.0
 40
0.0
 40
0.0
 40
0.1163712739
 40
0.2351963295
 40
0.3563743145
 40
0.4807210253
 40
0.6085564768
 40
0.7414964464
 40
0.8742741289
 40
1.0
 40
1.0
 40
1.0
 40
1.0
 10
0.1649011721
 20
-37.0303961596
 30
0.0
 10
0.1649011721
 20
-37.0573877808
 30
0.0
 10
0.1653128674
 20
-37.1119727761
 30
0.0
 10
0.1728300935
 20
-37.1943928969
 30
0.0
 10
0.1866216938
 20
-37.2778120647
 30
0.0
 10
0.2056696802
 20
-37.3623811998
 30
0.0
 10
0.2368688993
 20
-37.4466037927
 30
0.0
 10
0.2862867213
 20
-37.5242101685
 30
0.0
 10
0.3519543501
 20
-37.5885172334
 30
0.0
 10
0.4071263048
 20
-37.6152452349
 30
0.0
 10
0.4351436372
 20
-37.6233331421
 30
0.0
  0
SPLINE
  5
30E
100
AcDbEntity
  8
0
100
AcDbSpline
 62
7
  6
CONTINUOUS
 70
0
 71
3
 72
10
 73
6
 74
0
 42
0.0000001
 43
0.0000001
 44
0.0000000001
 40
0.0
 40
0.0
 40
0.0
 40
0.0
 40
0.2668305227
 40
0.5238769968
 40
1.0
 40
1.0
 40
1.0
 40
1.0
 10
-1.1814156812
 20
-36.3631143793
 30
0.0
 10
-1.1814156812
 20
-36.3855971104
 30
0.0
 10
-1.1833398536
 20
-36.4299558558
 30
0.0
 10
-1.2031759974
 20
-36.5120549019
 30
0.0
 10
-1.237450027
 20
-36.567523296
 30
0.0
 10
-1.2677759288
 20
-36.5937862937
 30
0.0
  0
SPLINE
  5
30F
100
AcDbEntity
  8
0
100
AcDbSpline
 62
7
  6
CONTINUOUS
 70
0
 71
3
 72
14
 73
10
 74
0
 42
0.0000001
 43
0.0000001
 44
0.0000000001
 40
0.0
 40
0.0
 40
0.0
 40
0.0
 40
0.2442223881
 40
0.3722666377
 40
0.5028558904
 40
0.6327953557
 40
0.7604121326
 40
0.883735885
 40
1.0
 40
1.0
 40
1.0
 40
1.0
 10
-1.5735864828
 20
-35.8683023565
 30
0.0
 10
-1.5205776784
 20
-35.8836046243
 30
0.0
 10
-1.4430627372
 20
-35.9194907788
 30
0.0
 10
-1.3504188708
 20
-35.9858254559
 30
0.0
 10
-1.2894671103
 20
-36.0496990287
 30
0.0
 10
-1.2397480756
 20
-36.1224578152
 30
0.0
 10
-1.2050688422
 20
-36.2016922441
 30
0.0
 10
-1.1845724067
 20
-36.2825401339
 30
0.0
 10
-1.1814156812
 20
-36.3368486686
 30
0.0
 10
-1.1814156812
 20
-36.3631143793
 30
0.0
  0
SPLINE
  5
310
100
AcDbEntity
  8
0
100
AcDbSpline
 62
7
  6
CONTINUOUS
 70
0
 71
3
 72
14
 73
10
 74
0
 42
0.0000001
 43
0.0000001
 44
0.0000000001
 40
0.0
 40
0.0
 40
0.0
 40
0.0
 40
0.116264115
 40
0.2395878676
 40
0.3672046446
 40
0.4971441099
 40
0.6277333626
 40
0.7557776122
 40
1.0
 40
1.0
 40
1.0
 40
1.0
 10
-1.1939156812
 20
-36.3739396968
 30
0.0
 10
-1.1939156812
 20
-36.347673986
 30
0.0
 10
-1.1970724067
 20
-36.293365451
 30
0.0
 10
-1.2175688425
 20
-36.2125175607
 30
0.0
 10
-1.2522480763
 20
-36.1332831315
 30
0.0
 10
-1.3019671115
 20
-36.0605243447
 30
0.0
 10
-1.3629188726
 20
-35.9966507719
 30
0.0
 10
-1.4555627398
 20
-35.9303160949
 30
0.0
 10
-1.5330776814
 20
-35.8944299406
 30
0.0
 10
-1.5860864862
 20
-35.8791276731
 30
0.0
  0
SPLINE
  5
311
100
AcDbEntity
  8
RACCORDO
100
AcDbSpline
 62
250
  6
CONTINUOUS
 70
0
 71
3
 72
13
 73
9
 74
0
 42
0.0000001
 43
0.0000001
 44
0.0000000001
 40
0.0
 40
0.0
 40
0.0
 40
0.0
 40
0.2376483374
 40
0.3645776858
 40
0.4944049601
 40
0.6250312996
 40
0.7542742166
 40
1.0
 40
1.0
 40
1.0
 40
1.0
 10
89.6711292917
 20
8.0732957176
 30
0.0
 10
89.6711292917
 20
8.6676125859
 30
0.0
 10
89.4827917738
 20
9.5850337322
 30
0.0
 10
88.9590466323
 20
10.7074496623
 30
0.0
 10
88.4206000978
 20
11.5176177712
 30
0.0
 10
87.7654493859
 20
12.2442716892
 30
0.0
 10
86.7889253552
 20
13.0511339691
 30
0.0
 10
85.9314112492
 20
13.4829863458
 30
0.0
 10
85.3410022728
 20
13.6534227365
 30
0.0
  0
SPLINE
  5
312
100
AcDbEntity
  8
0
100
AcDbSpline
 62
7
  6
CONTINUOUS
 70
0
 71
3
 72
15
 73
11
 74
0
 42
0.0000001
 43
0.0000001
 44
0.0000000001
 40
0.0
 40
0.0
 40
0.0
 40
0.0
 40
0.1257258711
 40
0.2585035536
 40
0.3914435232
 40
0.5192789747
 40
0.6436256855
 40
0.7648036705
 40
0.8836287261
 40
1.0
 40
1.0
 40
1.0
 40
1.0
 10
0.4226436372
 20
-37.6341584596
 30
0.0
 10
0.3946263048
 20
-37.6260705524
 30
0.0
 10
0.3394543501
 20
-37.5993425509
 30
0.0
 10
0.2737867213
 20
-37.5350354861
 30
0.0
 10
0.2243688993
 20
-37.4574291102
 30
0.0
 10
0.1931696802
 20
-37.3732065173
 30
0.0
 10
0.1741216938
 20
-37.2886373823
 30
0.0
 10
0.1603300935
 20
-37.2052182144
 30
0.0
 10
0.1528128674
 20
-37.1227980936
 30
0.0
 10
0.1524011721
 20
-37.0682130984
 30
0.0
 10
0.1524011721
 20
-37.0412214771
 30
0.0
  0
SPLINE
  5
313
100
AcDbEntity
  8
0
100
AcDbSpline
 62
7
  6
CONTINUOUS
 70
0
 71
3
 72
13
 73
9
 74
0
 42
0.0000001
 43
0.0000001
 44
0.0000000001
 40
0.0
 40
0.0
 40
0.0
 40
0.0
 40
0.263209742
 40
0.5182303789
 40
0.6432023517
 40
0.7660927796
 40
0.8843261347
 40
1.0
 40
1.0
 40
1.0
 40
1.0
 10
0.1524011721
 20
-37.0412214771
 30
0.0
 10
0.1524011721
 20
-37.0034117226
 30
0.0
 10
0.1536995392
 20
-36.9288507837
 30
0.0
 10
0.1674612774
 20
-36.83719854
 30
0.0
 10
0.1842394873
 20
-36.7669147296
 30
0.0
 10
0.2002331564
 20
-36.7167122859
 30
0.0
 10
0.2238001795
 20
-36.670737584
 30
0.0
 10
0.2466683525
 20
-36.6455015406
 30
0.0
 10
0.2592291823
 20
-36.6346235552
 30
0.0
  0
SPLINE
  5
314
100
AcDbEntity
  8
0
100
AcDbSpline
 62
7
  6
CONTINUOUS
 70
0
 71
3
 72
11
 73
7
 74
0
 42
0.0000001
 43
0.0000001
 44
0.0000000001
 40
0.0
 40
0.0
 40
0.0
 40
0.0
 40
0.2706354721
 40
0.5265813991
 40
0.767717938
 40
1.0
 40
1.0
 40
1.0
 40
1.0
 10
0.4226436372
 20
-36.4590026014
 30
0.0
 10
0.3959463667
 20
-36.4512957633
 30
0.0
 10
0.3424882162
 20
-36.4409363077
 30
0.0
 10
0.2630321079
 20
-36.4419781179
 30
0.0
 10
0.1897989059
 20
-36.4620107784
 30
0.0
 10
0.1484167786
 20
-36.4890867051
 30
0.0
 10
0.1303882724
 20
-36.504699858
 30
0.0
  0
SPLINE
  5
315
100
AcDbEntity
  8
RACCORDO
100
AcDbSpline
 62
250
  6
CONTINUOUS
 70
0
 71
3
 72
11
 73
7
 74
0
 42
0.0000001
 43
0.0000001
 44
0.0000000001
 40
0.0
 40
0.0
 40
0.0
 40
0.0
 40
0.2709659396
 40
0.5256492446
 40
0.7667315219
 40
1.0
 40
1.0
 40
1.0
 40
1.0
 10
-86.1320276766
 20
63.1534227365
 30
0.0
 10
-86.4316928934
 20
63.2399286334
 30
0.0
 10
-87.0313728042
 20
63.3526611406
 30
0.0
 10
-87.9214686822
 20
63.3196979429
 30
0.0
 10
-88.7349752059
 20
63.0776309524
 30
0.0
 10
-89.2023209564
 20
62.7787191934
 30
0.0
 10
-89.4052958593
 20
62.6029402504
 30
0.0
  0
SPLINE
  5
316
100
AcDbEntity
  8
0
100
AcDbSpline
 62
7
  6
CONTINUOUS
 70
0
 71
3
 72
13
 73
9
 74
0
 42
0.0000001
 43
0.0000001
 44
0.0000000001
 40
0.0
 40
0.0
 40
0.0
 40
0.0
 40
0.1163532659
 40
0.2358010896
 40
0.4840643634
 40
0.614794508
 40
0.7473782828
 40
1.0
 40
1.0
 40
1.0
 40
1.0
 10
0.8657604491
 20
-37.2471505624
 30
0.0
 10
0.8657604491
 20
-37.2095885293
 30
0.0
 10
0.8630759012
 20
-37.1333474724
 30
0.0
 10
0.8420561796
 20
-36.9785717485
 30
0.0
 10
0.8027533548
 20
-36.8203228085
 30
0.0
 10
0.7210325431
 20
-36.6755848289
 30
0.0
 10
0.6140107294
 20
-36.5469684372
 30
0.0
 10
0.5009974514
 20
-36.4816213993
 30
0.0
 10
0.4226436372
 20
-36.4590026014
 30
0.0
  0
SPLINE
  5
317
100
AcDbEntity
  8
0
100
AcDbSpline
 62
7
  6
CONTINUOUS
 70
0
 71
3
 72
14
 73
10
 74
0
 42
0.0000001
 43
0.0000001
 44
0.0000000001
 40
0.0
 40
0.0
 40
0.0
 40
0.0
 40
0.2564723759
 40
0.3945423604
 40
0.5316431072
 40
0.6626316637
 40
0.78401083
 40
0.8953103198
 40
1.0
 40
1.0
 40
1.0
 40
1.0
 10
-83.6009387633
 20
53.1851559968
 30
0.0
 10
-83.6009387633
 20
52.9049610464
 30
0.0
 10
-83.4613855587
 20
52.4702215211
 30
0.0
 10
-83.1119872508
 20
52.003912482
 30
0.0
 10
-82.7709926709
 20
51.7130986476
 30
0.0
 10
-82.3875742317
 20
51.5188866112
 30
0.0
 10
-81.9926186735
 20
51.4385373851
 30
0.0
 10
-81.6193498205
 20
51.4834049055
 30
0.0
 10
-81.4063770935
 20
51.6013867837
 30
0.0
 10
-81.3199202122
 20
51.6762626477
 30
0.0
  0
SPLINE
  5
318
100
AcDbEntity
  8
0
100
AcDbSpline
 62
7
  6
CONTINUOUS
 70
0
 71
3
 72
10
 73
6
 74
0
 42
0.0000001
 43
0.0000001
 44
0.0000000001
 40
0.0
 40
0.0
 40
0.0
 40
0.0
 40
0.5183203509
 40
0.7619786252
 40
1.0
 40
1.0
 40
1.0
 40
1.0
 10
79.2118371482
 20
6.1851559968
 30
0.0
 10
79.2118371482
 20
6.3311195955
 30
0.0
 10
79.2492952673
 20
6.5501503423
 30
0.0
 10
79.386044627
 20
6.7985410253
 30
0.0
 10
79.4782262855
 20
6.9001679409
 30
0.0
 10
79.5288948084
 20
6.9440493459
 30
0.0
  0
SPLINE
  5
319
100
AcDbEntity
  8
0
100
AcDbSpline
 62
7
  6
CONTINUOUS
 70
0
 71
3
 72
8
 73
4
 74
0
 42
0.0000001
 43
0.0000001
 44
0.0000000001
 40
0.0
 40
0.0
 40
0.0
 40
0.0
 40
1.0
 40
1.0
 40
1.0
 40
1.0
 10
2.8260948892
 20
-2.7779905682
 30
0.0
 10
2.7785324607
 20
-2.5891392533
 30
0.0
 10
2.7347556222
 20
-2.3993470117
 30
0.0
 10
2.6870638338
 20
-2.2105283234
 30
0.0
  0
SPLINE
  5
31A
100
AcDbEntity
  8
0
100
AcDbSpline
 62
7
  6
CONTINUOUS
 70
0
 71
3
 72
10
 73
6
 74
0
 42
0.0000001
 43
0.0000001
 44
0.0000000001
 40
0.0
 40
0.0
 40
0.0
 40
0.0
 40
0.4874074624
 40
0.7420393214
 40
1.0
 40
1.0
 40
1.0
 40
1.0
 10
2.6870638338
 20
-2.2105283234
 30
0.0
 10
2.6664629035
 20
-2.1289622103
 30
0.0
 10
2.6349680947
 20
-2.0037584711
 30
0.0
 10
2.5527077899
 20
-1.8505806376
 30
0.0
 10
2.4893338548
 20
-1.7859484085
 30
0.0
 10
2.4526425136
 20
-1.7607258583
 30
0.0
  0
SPLINE
  5
31B
100
AcDbEntity
  8
0
100
AcDbSpline
 62
7
  6
CONTINUOUS
 70
0
 71
3
 72
10
 73
6
 74
0
 42
0.0000001
 43
0.0000001
 44
0.0000000001
 40
0.0
 40
0.0
 40
0.0
 40
0.0
 40
0.5183203509
 40
0.7619786252
 40
1.0
 40
1.0
 40
1.0
 40
1.0
 10
-83.6009387633
 20
-7.0036095662
 30
0.0
 10
-83.6009387633
 20
-6.8576459676
 30
0.0
 10
-83.5634806442
 20
-6.6386152207
 30
0.0
 10
-83.4267312844
 20
-6.3902245377
 30
0.0
 10
-83.3345496259
 20
-6.2885976221
 30
0.0
 10
-83.2838811031
 20
-6.2447162171
 30
0.0
  0
SPLINE
  5
31C
100
AcDbEntity
  8
0
100
AcDbSpline
 62
7
  6
CONTINUOUS
 70
0
 71
3
 72
14
 73
10
 74
0
 42
0.0000001
 43
0.0000001
 44
0.0000000001
 40
0.0
 40
0.0
 40
0.0
 40
0.0
 40
0.2564723759
 40
0.3945423604
 40
0.5316431072
 40
0.6626316637
 40
0.78401083
 40
0.8953103198
 40
1.0
 40
1.0
 40
1.0
 40
1.0
 10
79.2118371482
 20
-54.0036095662
 30
0.0
 10
79.2118371482
 20
-54.2838045166
 30
0.0
 10
79.3513903528
 20
-54.7185440419
 30
0.0
 10
79.7007886607
 20
-55.1848530811
 30
0.0
 10
80.0417832406
 20
-55.4756669154
 30
0.0
 10
80.4252016797
 20
-55.6698789519
 30
0.0
 10
80.8201572379
 20
-55.750228178
 30
0.0
 10
81.193426091
 20
-55.7053606575
 30
0.0
 10
81.406398818
 20
-55.5873787793
 30
0.0
 10
81.4928556993
 20
-55.5125029153
 30
0.0
  0
SPLINE
  5
31D
100
AcDbEntity
  8
0
100
AcDbSpline
 62
7
  6
CONTINUOUS
 70
0
 71
3
 72
14
 73
10
 74
0
 42
0.0000001
 43
0.0000001
 44
0.0000000001
 40
0.0
 40
0.0
 40
0.0
 40
0.0
 40
0.2564723759
 40
0.3945423604
 40
0.5316431072
 40
0.6626316637
 40
0.78401083
 40
0.8953103198
 40
1.0
 40
1.0
 40
1.0
 40
1.0
 10
-2.1945508076
 20
29.6851559968
 30
0.0
 10
-2.1945508076
 20
29.4049610464
 30
0.0
 10
-2.0549976029
 20
28.9702215211
 30
0.0
 10
-1.7055992951
 20
28.503912482
 30
0.0
 10
-1.3646047152
 20
28.2130986476
 30
0.0
 10
-0.981186276
 20
28.0188866112
 30
0.0
 10
-0.5862307178
 20
27.9385373851
 30
0.0
 10
-0.2129618647
 20
27.9834049055
 30
0.0
 10
0.0000108622
 20
28.1013867837
 30
0.0
 10
0.0864677435
 20
28.1762626477
 30
0.0
  0
SPLINE
  5
31E
100
AcDbEntity
  8
0
100
AcDbSpline
 62
7
  6
CONTINUOUS
 70
0
 71
3
 72
14
 73
10
 74
0
 42
0.0000001
 43
0.0000001
 44
0.0000000001
 40
0.0
 40
0.0
 40
0.0
 40
0.0
 40
0.1054077762
 40
0.2185206117
 40
0.3414271285
 40
0.4729162968
 40
0.6094105447
 40
0.7461263821
 40
1.0
 40
1.0
 40
1.0
 40
1.0
 10
0.3534696081
 20
-30.8819618501
 30
0.0
 10
0.3020872321
 20
-30.9148997437
 30
0.0
 10
0.1810172745
 20
-30.9621871062
 30
0.0
 10
-0.0198378955
 20
-30.9665179685
 30
0.0
 10
-0.227453769
 20
-30.9091957412
 30
0.0
 10
-0.4258819904
 20
-30.7962366946
 30
0.0
 10
-0.6003177746
 20
-30.6366103154
 30
0.0
 10
-0.7776012242
 20
-30.3870744541
 30
0.0
 10
-0.84748366
 20
-30.1590131099
 30
0.0
 10
-0.84748366
 20
-30.0120151958
 30
0.0
  0
SPLINE
  5
31F
100
AcDbEntity
  8
0
100
AcDbSpline
 62
7
  6
CONTINUOUS
 70
0
 71
3
 72
14
 73
10
 74
0
 42
0.0000001
 43
0.0000001
 44
0.0000000001
 40
0.0
 40
0.0
 40
0.0
 40
0.0
 40
0.2564723759
 40
0.3945423604
 40
0.5316431072
 40
0.6626316637
 40
0.78401083
 40
0.8953103198
 40
1.0
 40
1.0
 40
1.0
 40
1.0
 10
-2.1945508076
 20
-30.5036095662
 30
0.0
 10
-2.1945508076
 20
-30.7838045166
 30
0.0
 10
-2.0549976029
 20
-31.2185440419
 30
0.0
 10
-1.7055992951
 20
-31.6848530811
 30
0.0
 10
-1.3646047152
 20
-31.9756669154
 30
0.0
 10
-0.981186276
 20
-32.1698789519
 30
0.0
 10
-0.5862307178
 20
-32.250228178
 30
0.0
 10
-0.2129618647
 20
-32.2053606575
 30
0.0
 10
0.0000108622
 20
-32.0873787793
 30
0.0
 10
0.0864677435
 20
-32.0125029153
 30
0.0
  0
SPLINE
  5
320
100
AcDbEntity
  8
RACCORDO
100
AcDbSpline
 62
250
  6
CONTINUOUS
 70
0
 71
3
 72
13
 73
9
 74
0
 42
0.0000001
 43
0.0000001
 44
0.0000000001
 40
0.0
 40
0.0
 40
0.0
 40
0.0
 40
0.2376483363
 40
0.3645776848
 40
0.4944049602
 40
0.6250313005
 40
0.7542742171
 40
1.0
 40
1.0
 40
1.0
 40
1.0
 10
-90.0961292917
 20
-9.4587365851
 30
0.0
 10
-90.0961292917
 20
-9.9341900762
 30
0.0
 10
-89.9454592496
 20
-10.6681269807
 30
0.0
 10
-89.5264631724
 20
-11.5660597376
 30
0.0
 10
-89.0957059366
 20
-12.2141942226
 30
0.0
 10
-88.5715853636
 20
-12.7955173579
 30
0.0
 10
-87.7903660995
 20
-13.4410071234
 30
0.0
 10
-87.1043548554
 20
-13.7864890883
 30
0.0
 10
-86.6320276766
 20
-13.9228382003
 30
0.0
  0
SPLINE
  5
321
100
AcDbEntity
  8
RACCORDO
100
AcDbSpline
 62
250
  6
CONTINUOUS
 70
0
 71
3
 72
15
 73
11
 74
0
 42
0.0000001
 43
0.0000001
 44
0.0000000001
 40
0.0
 40
0.0
 40
0.0
 40
0.0
 40
0.1369983469
 40
0.2664266139
 40
0.3892465644
 40
0.5076598355
 40
0.62481087
 40
0.7441339445
 40
0.8685704037
 40
1.0
 40
1.0
 40
1.0
 40
1.0
 10
-86.6320276766
 20
61.8543846309
 30
0.0
 10
-86.8523399569
 20
61.917983308
 30
0.0
 10
-87.2930716794
 20
62.0043003392
 30
0.0
 10
-87.9493801369
 20
61.9986784854
 30
0.0
 10
-88.5584968019
 20
61.8526467896
 30
0.0
 10
-89.0949447805
 20
61.5695324187
 30
0.0
 10
-89.5348384834
 20
61.1600667587
 30
0.0
 10
-89.8589239692
 20
60.6424833646
 30
0.0
 10
-90.0552069072
 20
60.0401885792
 30
0.0
 10
-90.0961292917
 20
59.6102703139
 30
0.0
 10
-90.0961292917
 20
59.3902830157
 30
0.0
  0
SPLINE
  5
322
100
AcDbEntity
  8
0
100
AcDbSpline
 62
7
  6
CONTINUOUS
 70
0
 71
3
 72
8
 73
4
 74
0
 42
0.0000001
 43
0.0000001
 44
0.0000000001
 40
0.0
 40
0.0
 40
0.0
 40
0.0
 40
1.0
 40
1.0
 40
1.0
 40
1.0
 10
2.8135948892
 20
-2.7888158857
 30
0.0
 10
2.7660324607
 20
-2.5999645709
 30
0.0
 10
2.7222556222
 20
-2.4101723293
 30
0.0
 10
2.6745638338
 20
-2.221353641
 30
0.0
  0
SPLINE
  5
323
100
AcDbEntity
  8
0
100
AcDbSpline
 62
7
  6
CONTINUOUS
 70
0
 71
3
 72
10
 73
6
 74
0
 42
0.0000001
 43
0.0000001
 44
0.0000000001
 40
0.0
 40
0.0
 40
0.0
 40
0.0
 40
0.4874074624
 40
0.7420393214
 40
1.0
 40
1.0
 40
1.0
 40
1.0
 10
2.6745638338
 20
-2.221353641
 30
0.0
 10
2.6539629035
 20
-2.1397875278
 30
0.0
 10
2.6224680947
 20
-2.0145837886
 30
0.0
 10
2.5402077899
 20
-1.8614059552
 30
0.0
 10
2.4768338548
 20
-1.796773726
 30
0.0
 10
2.4401425136
 20
-1.7715511758
 30
0.0
  0
SPLINE
  5
324
100
AcDbEntity
  8
0
100
AcDbSpline
 62
7
  6
CONTINUOUS
 70
0
 71
3
 72
10
 73
6
 74
0
 42
0.0000001
 43
0.0000001
 44
0.0000000001
 40
0.0
 40
0.0
 40
0.0
 40
0.0
 40
0.2621551042
 40
0.5141591636
 40
1.0
 40
1.0
 40
1.0
 40
1.0
 10
2.3982111213
 20
-0.7638609585
 30
0.0
 10
2.320747606
 20
-0.7135133713
 30
0.0
 10
2.1566114272
 20
-0.6334377593
 30
0.0
 10
1.820656167
 20
-0.5256798025
 30
0.0
 10
1.5640885235
 20
-0.4776172825
 30
0.0
 10
1.3945606011
 20
-0.4536192308
 30
0.0
  0
SPLINE
  5
325
100
AcDbEntity
  8
RACCORDO
100
AcDbSpline
 62
250
  6
CONTINUOUS
 70
0
 71
3
 72
13
 73
9
 74
0
 42
0.0000001
 43
0.0000001
 44
0.0000000001
 40
0.0
 40
0.0
 40
0.0
 40
0.0
 40
0.2376483363
 40
0.3645776848
 40
0.4944049602
 40
0.6250313005
 40
0.7542742171
 40
1.0
 40
1.0
 40
1.0
 40
1.0
 10
88.3051038879
 20
7.8902830157
 30
0.0
 10
88.3051038879
 20
8.3657365068
 30
0.0
 10
88.1544338458
 20
9.0996734113
 30
0.0
 10
87.7354377686
 20
9.9976061681
 30
0.0
 10
87.3046805328
 20
10.6457406532
 30
0.0
 10
86.7805599598
 20
11.2270637885
 30
0.0
 10
85.9993406957
 20
11.872553554
 30
0.0
 10
85.3133294516
 20
12.2180355189
 30
0.0
 10
84.8410022728
 20
12.3543846309
 30
0.0
  0
SPLINE
  5
326
100
AcDbEntity
  8
RACCORDO
100
AcDbSpline
 62
250
  6
CONTINUOUS
 70
0
 71
3
 72
15
 73
11
 74
0
 42
0.0000001
 43
0.0000001
 44
0.0000000001
 40
0.0
 40
0.0
 40
0.0
 40
0.0
 40
0.1369983469
 40
0.2664266139
 40
0.3892465644
 40
0.5076598355
 40
0.62481087
 40
0.7441339445
 40
0.8685704037
 40
1.0
 40
1.0
 40
1.0
 40
1.0
 10
84.8410022728
 20
-63.4228382003
 30
0.0
 10
85.0613145531
 20
-63.4864368774
 30
0.0
 10
85.5020462757
 20
-63.5727539086
 30
0.0
 10
86.1583547332
 20
-63.5671320549
 30
0.0
 10
86.7674713981
 20
-63.421100359
 30
0.0
 10
87.3039193767
 20
-63.1379859881
 30
0.0
 10
87.7438130796
 20
-62.7285203281
 30
0.0
 10
88.0678985654
 20
-62.210936934
 30
0.0
 10
88.2641815034
 20
-61.6086421486
 30
0.0
 10
88.3051038879
 20
-61.1787238833
 30
0.0
 10
88.3051038879
 20
-60.9587365851
 30
0.0
  0
ENDSEC
  0
SECTION
  2
OBJECTS
  0
DICTIONARY
  5
C
100
AcDbDictionary
280
0
281
1
  3
ACAD_GROUP
350
D
  3
ACAD_MLINESTYLE
350
17
  3
ACAD_LAYOUT
350
1A
  3
ACAD_PLOTSETTINGS
350
19
  3
ACAD_PLOTSTYLENAME
350
E
  0
DICTIONARY
  5
D
102
{ACAD_REACTORS
330
C
102
}
100
AcDbDictionary
280
0
281
1
  0
ACDBDICTIONARYWDFLT
  5
E
102
{ACAD_REACTORS
330
C
102
}
100
AcDbDictionary
281
1
  3
Normal
350
F
100
AcDbDictionaryWithDefault
340
F
  0
DICTIONARY
  5
17
102
{ACAD_REACTORS
330
C
102
}
100
AcDbDictionary
280
0
281
1
  3
Standard
350
18
  0
DICTIONARY
  5
19
102
{ACAD_REACTORS
330
C
102
}
100
AcDbDictionary
281
1
  0
DICTIONARY
  5
1A
102
{ACAD_REACTORS
330
C
102
}
100
AcDbDictionary
281
1
  3
Model
350
327
  3
Layout1
350
328
  0
ACDBPLACEHOLDER
  5
F
102
{ACAD_REACTORS
330
E
102
}
  0
MLINESTYLE
  5
18
102
{ACAD_REACTORS
330
17
102
}
100
AcDbMlineStyle
  2
STANDARD
 70
0
  3

 62
256
 51
90.0
 52
90.0
 71
2
 49
0.5
 62
256
  6
BYLAYER
 49
-0.5
 62
256
  6
BYLAYER
  0
LAYOUT
  5
327
102
{ACAD_REACTORS
330
1A
102
}
100
AcDbPlotSettings
  1

  2
none_device
  4
ANSI_C_(22.00_x_17.00_Inches)
  6

 40
0.0
 41
0.0
 42
0.0
 43
0.0
 44
558.8
 45
431.8
 46
0.0
 47
0.0
 48
0.0
 49
0.0
140
0.0
141
0.0
142
1.0
143
1.0
 70
1024
 72
1
 73
0
 74
0
  7

 75
0
147
1.0
148
0.0
149
0.0
100
AcDbLayout
  1
Model
 70
0
 71
0
 10
0.0
 20
0.0
 11
558.8
 21
431.8
 12
0.0
 22
0.0
 32
0.0
 14
0.0
 24
0.0
 34
0.0
 15
0.0
 25
0.0
 35
0.0
146
0.0
 13
0.0
 23
0.0
 33
0.0
 16
1.0
 26
0.0
 36
0.0
 17
0.0
 27
1.0
 37
0.0
 76
0
330
20B
345
0
346
0
  0
LAYOUT
  5
328
102
{ACAD_REACTORS
330
1A
102
}
100
AcDbPlotSettings
  1

  2
none_device
  4
ANSI_C_(22.00_x_17.00_Inches)
  6

 40
0.0
 41
0.0
 42
0.0
 43
0.0
 44
558.8
 45
431.8
 46
0.0
 47
0.0
 48
0.0
 49
0.0
140
0.0
141
0.0
142
1.0
143
1.0
 70
0
 72
1
 73
0
 74
0
  7

 75
0
147
1.0
148
0.0
149
0.0
100
AcDbLayout
  1
Layout1
 70
0
 71
1
 10
0.0
 20
0.0
 11
558.8
 21
431.8
 12
0.0
 22
0.0
 32
0.0
 14
0.0
 24
0.0
 34
0.0
 15
0.0
 25
0.0
 35
0.0
146
0.0
 13
0.0
 23
0.0
 33
0.0
 16
1.0
 26
0.0
 36
0.0
 17
0.0
 27
1.0
 37
0.0
 76
0
330
20C
345
0
346
0
  0
ENDSEC
  0
EOF
