  0
SECTION
  2
HEADER
  9
$ACADVER
  1
AC1024
  9
$DWGCODEPAGE
  3
ANSI_1252
  9
$EXTMAX
 10
558.8
 20
431.8
 30
0.0
  9
$EXTMIN
 10
0.0
 20
0.0
 30
0.0
  9
$LIMMIN
 10
0.0
 20
0.0
  9
$LIMMAX
 10
558.8
 20
431.8
  9
$VIEWCTR
 10
279.4
 20
215.9
  9
$VIEWSIZE
 40
431.8
  9
$CLAYER
  8
0
  9
$LTSCALE
 40
30.734
  9
$CELTYPE
  6
BYLAYER
  9
$DIMSCALE
 40
1.0
  9
$DIMASZ
 40
3.0
  9
$DIMEXO
 40
0.5
  9
$DIMDLI
 40
21.2344
  9
$DIMEXE
 40
1.5
  9
$DIMCEN
 40
5.0292
  9
$DIMLFAC
 40
1.0
  9
$DIMBLK
  1
_FILLED
  9
$DIMALT
 70
0
  9
$DIMALTF
 40
0.0393700787
  9
$DIMTXT
 40
3.0
  9
$DIMTOL
 70
1
  9
$DIMLIM
 70
0
  9
$DIMTFAC
 40
1.0
  9
$DIMTP
 40
0.01
  9
$DIMTM
 40
0.01
  9
$DIMGAP
 40
0.625
  9
$DIMDSEP
 70
44
  9
$AUNITS
 70
0
  9
$PDMODE
 70
3
  9
$PDSIZE
 40
3.0
  9
$HANDSEED
  5
347
  9
$TILEMODE
 70
1
  9
$MEASUREMENT
 70
1
  9
$INSUNITS
 70
4
  0
ENDSEC
  0
SECTION
  2
CLASSES
  0
CLASS
  1
ACDBDICTIONARYWDFLT
  2
AcDbDictionaryWithDefault
  3
AutoCAD 2000
 90
0
 91
1
280
0
281
0
  0
CLASS
  1
ACDBPLACEHOLDER
  2
AcDbPlaceHolder
  3
AutoCAD 2000
 90
0
 91
1
280
0
281
0
  0
CLASS
  1
LAYOUT
  2
AcDbLayout
  3
AutoCAD 2000
 90
0
 91
0
280
0
281
0
  0
ENDSEC
  0
SECTION
  2
TABLES
  0
TABLE
  2
VPORT
  5
8
100
AcDbSymbolTable
 70
2
  0
VPORT
  5
1F4
100
AcDbSymbolTableRecord
100
AcDbViewportTableRecord
  2
*ACTIVE
 70
0
 10
0.0
 20
0.0
 11
1.0
 21
1.0
 12
279.4
 22
215.9
 13
0.0
 23
0.0
 14
1.0
 24
1.0
 15
0.0
 25
0.0
 16
0.0
 26
0.0
 36
1.0
 17
0.0
 27
0.0
 37
0.0
 40
431.8
 41
1.2941176471
 42
50.0
 43
0.0
 44
0.0
 50
0.0
 51
0.0
 71
0
 72
100
 73
1
 74
1
 75
0
 76
0
 77
0
 78
0
  0
ENDTAB
  0
TABLE
  2
LTYPE
  5
5
100
AcDbSymbolTable
 70
6
  0
LTYPE
  5
14
100
AcDbSymbolTableRecord
100
AcDbLinetypeTableRecord
  2
BYBLOCK
 70
0
  3

 72
65
 73
0
 40
0.0
  0
LTYPE
  5
15
100
AcDbSymbolTableRecord
100
AcDbLinetypeTableRecord
  2
BYLAYER
 70
0
  3

 72
65
 73
0
 40
0.0
  0
LTYPE
  5
16
100
AcDbSymbolTableRecord
100
AcDbLinetypeTableRecord
  2
CONTINUOUS
 70
64
  3
Solid line
 72
65
 73
0
 40
0.0
  0
LTYPE
  5
1F5
100
AcDbSymbolTableRecord
100
AcDbLinetypeTableRecord
  2
CENTER
 70
64
  3
____ _ ____ _ ____ _ ____ _ ____ _ ____ _ ____
 72
65
 73
4
 40
0.6
 49
0.375
 74
0
 49
-0.075
 74
0
 49
0.075
 74
0
 49
-0.075
 74
0
  0
LTYPE
  5
1F6
100
AcDbSymbolTableRecord
100
AcDbLinetypeTableRecord
  2
HIDDEN
 70
64
  3
- - - - - - - - - - - - - - - - - - - -
 72
65
 73
2
 40
0.2
 49
0.1
 74
0
 49
-0.1
 74
0
  0
LTYPE
  5
1F7
100
AcDbSymbolTableRecord
100
AcDbLinetypeTableRecord
  2
PHANTOM
 70
64
  3
_____ _ _ _____ _ _ _____ _ _ _____
 72
65
 73
6
 40
0.8
 49
0.45
 74
0
 49
-0.05
 74
0
 49
0.1
 74
0
 49
-0.05
 74
0
 49
0.1
 74
0
 49
-0.05
 74
0
  0
LTYPE
  5
1F8
100
AcDbSymbolTableRecord
100
AcDbLinetypeTableRecord
  2
DOT
 70
64
  3
. . . . . . . . . . . . . . . . . . . .
 72
65
 73
2
 40
0.2
 49
0.1
 74
0
 49
-0.1
 74
0
  0
LTYPE
  5
1F9
100
AcDbSymbolTableRecord
100
AcDbLinetypeTableRecord
  2
DASHED
 70
64
  3
- - - - - - - - - - - - - - - - - - - -
 72
65
 73
2
 40
0.2
 49
0.1
 74
0
 49
-0.1
 74
0
  0
ENDTAB
  0
TABLE
  2
LAYER
  5
2
100
AcDbSymbolTable
 70
36
  0
LAYER
  5
10
100
AcDbSymbolTableRecord
100
AcDbLayerTableRecord
  2
0
 70
0
 62
7
  6
CONTINUOUS
370
-3
390
F
  0
LAYER
  5
1FA
100
AcDbSymbolTableRecord
100
AcDbLayerTableRecord
  2
DEFAULT_1
 70
0
 62
7
  6
CENTER
370
-3
390
F
  0
LAYER
  5
1FB
100
AcDbSymbolTableRecord
100
AcDbLayerTableRecord
  2
DEFAULT_2
 70
0
 62
7
  6
HIDDEN
370
-3
390
F
  0
LAYER
  5
1FC
100
AcDbSymbolTableRecord
100
AcDbLayerTableRecord
  2
DEFAULT_3
 70
0
 62
7
  6
PHANTOM
370
-3
390
F
  0
LAYER
  5
1FD
100
AcDbSymbolTableRecord
100
AcDbLayerTableRecord
  2
ASSI
 70
0
 62
7
  6
CONTINUOUS
370
-3
390
F
  0
LAYER
  5
1FE
100
AcDbSymbolTableRecord
100
AcDbLayerTableRecord
  2
COORDINATE
 70
0
 62
7
  6
CONTINUOUS
370
-3
390
F
  0
LAYER
  5
1FF
100
AcDbSymbolTableRecord
100
AcDbLayerTableRecord
  2
COPY_PUBLISH
 70
0
 62
7
  6
CONTINUOUS
370
-3
390
F
  0
LAYER
  5
200
100
AcDbSymbolTableRecord
100
AcDbLayerTableRecord
  2
COSMETIC
 70
0
 62
7
  6
CONTINUOUS
370
-3
390
F
  0
LAYER
  5
201
100
AcDbSymbolTableRecord
100
AcDbLayerTableRecord
  2
CURVE
 70
0
 62
7
  6
CONTINUOUS
370
-3
390
F
  0
LAYER
  5
202
100
AcDbSymbolTableRecord
100
AcDbLayerTableRecord
  2
IMPORT_IGES
 70
0
 62
7
  6
CONTINUOUS
370
-3
390
F
  0
LAYER
  5
203
100
AcDbSymbolTableRecord
100
AcDbLayerTableRecord
  2
NOTE
 70
0
 62
7
  6
CONTINUOUS
370
-3
390
F
  0
LAYER
  5
204
100
AcDbSymbolTableRecord
100
AcDbLayerTableRecord
  2
PIANI
 70
0
 62
7
  6
CONTINUOUS
370
-3
390
F
  0
LAYER
  5
205
100
AcDbSymbolTableRecord
100
AcDbLayerTableRecord
  2
PUNTI
 70
0
 62
7
  6
CONTINUOUS
370
-3
390
F
  0
LAYER
  5
206
100
AcDbSymbolTableRecord
100
AcDbLayerTableRecord
  2
RACCORDO
 70
0
 62
7
  6
CONTINUOUS
370
-3
390
F
  0
LAYER
  5
207
100
AcDbSymbolTableRecord
100
AcDbLayerTableRecord
  2
SNAPLINE
 70
0
 62
7
  6
CONTINUOUS
370
-3
390
F
  0
LAYER
  5
208
100
AcDbSymbolTableRecord
100
AcDbLayerTableRecord
  2
TRASH
 70
0
 62
7
  6
CONTINUOUS
370
-3
390
F
  0
ENDTAB
  0
TABLE
  2
STYLE
  5
3
100
AcDbSymbolTable
 70
1
  0
STYLE
  5
11
100
AcDbSymbolTableRecord
100
AcDbTextStyleTableRecord
  2
STANDARD
 70
0
 40
0.0
 41
0.8
 50
0.0
 71
0
 42
0.2
  3
txt
  4

  0
STYLE
  5
209
100
AcDbSymbolTableRecord
100
AcDbTextStyleTableRecord
  2
TEXTSTYLE_1
 70
0
 40
0.0
 41
0.8
 50
0.0
 71
0
 42
0.2
  3
gdt
  4

  0
ENDTAB
  0
TABLE
  2
VIEW
  5
6
100
AcDbSymbolTable
 70
0
  0
ENDTAB
  0
TABLE
  2
UCS
  5
7
100
AcDbSymbolTable
 70
0
  0
ENDTAB
  0
TABLE
  2
APPID
  5
9
100
AcDbSymbolTable
 70
1
  0
APPID
  5
20A
100
AcDbSymbolTableRecord
100
AcDbRegAppTableRecord
  2
ACAD
 70
0
  0
ENDTAB
  0
TABLE
  2
BLOCK_RECORD
  5
1
100
AcDbSymbolTable
 70
0
  0
BLOCK_RECORD
  5
20B
100
AcDbSymbolTableRecord
100
AcDbBlockTableRecord
  2
*Model_Space
  0
BLOCK_RECORD
  5
20C
100
AcDbSymbolTableRecord
100
AcDbBlockTableRecord
  2
*Paper_Space
  0
BLOCK_RECORD
  5
20D
100
AcDbSymbolTableRecord
100
AcDbBlockTableRecord
  2
_FILLED
  0
ENDTAB
  0
TABLE
  2
DIMSTYLE
  5
A
100
AcDbSymbolTable
 70
1
100
AcDbDimStyleTable
 71
0
  0
DIMSTYLE
105
20E
100
AcDbSymbolTableRecord
100
AcDbDimStyleTableRecord
  2
STANDARD
 70
0
  3

  4

 40
1.0
 41
3.0
 42
0.5
 43
0.38
 44
1.5
 45
0.0
 46
0.0
 47
0.01
 48
0.01
140
3.0
141
0.09
142
0.0
143
25.4
144
1.0
145
0.0
146
1.0
147
0.625
 71
1.0
 72
0.0
 73
0
 74
0
 75
0
 76
0
 77
1
 78
8
 79
2
170
0
171
1
172
0
173
0
174
0
175
0
176
0
177
0
178
0
270
2
179
2
271
2
272
2
273
2
274
2
275
0
280
0
281
0
282
0
283
1
284
8
285
0
286
0
287
3
288
0
340
11
278
44
341
20D
342
20D
343
20D
344
20D
  0
ENDTAB
  0
ENDSEC
  0
SECTION
  2
BLOCKS
  0
BLOCK
  5
20
100
AcDbEntity
  8
0
100
AcDbBlockBegin
  2
*Model_Space
 70
0
 10
0.0
 20
0.0
 30
0.0
  3
*Model_Space
  1

  0
ENDBLK
  5
21
100
AcDbEntity
  8
0
100
AcDbBlockEnd
  0
BLOCK
  5
1C
100
AcDbEntity
  8
0
100
AcDbBlockBegin
  2
*Paper_Space
 70
0
 10
0.0
 20
0.0
 30
0.0
  3
*Paper_Space
  1

  0
ENDBLK
  5
1D
100
AcDbEntity
  8
0
100
AcDbBlockEnd
  0
BLOCK
  5
20F
100
AcDbEntity
  8
0
100
AcDbBlockBegin
  2
_FILLED
 70
64
 10
0.0
 20
0.0
  3
_FILLED
  1

  0
SOLID
  5
210
100
AcDbEntity
  8
0
  6
BYBLOCK
 62
0
100
AcDbTrace
 10
0.0
 20
0.0
 11
-1.0
 21
0.3166666667
 12
-1.0
 22
-0.3166666667
 13
-1.0
 23
-0.3166666667
  0
ENDBLK
  5
211
100
AcDbEntity
  8
0
  6
BYBLOCK
 62
0
100
AcDbBlockEnd
  0
ENDSEC
  0
SECTION
  2
ENTITIES
  0
LINE
  5
212
100
AcDbEntity
  8
ASSI
100
AcDbLine
 62
7
  6
CONTINUOUS
 10
-107.5078549133
 20
68.9256645813
 11
-108.4828549133
 21
68.0812898126
  0
LINE
  5
213
100
AcDbEntity
  8
RACCORDO
100
AcDbLine
 62
250
  6
CONTINUOUS
 10
-104.2345865598
 20
69.4761468701
 11
-105.2095865598
 21
68.6317721014
  0
LINE
  5
214
100
AcDbEntity
  8
RACCORDO
100
AcDbLine
 62
7
  6
CONTINUOUS
 10
-109.6736881749
 20
65.3016450825
 11
-109.6736881749
 21
-3.5473745183
  0
LINE
  5
215
100
AcDbEntity
  8
RACCORDO
100
AcDbLine
 62
250
  6
CONTINUOUS
 10
-109.1736881749
 20
64.8686323806
 11
-109.1736881749
 21
-3.9803872202
  0
LINE
  5
216
100
AcDbEntity
  8
RACCORDO
100
AcDbLine
 62
7
  6
CONTINUOUS
 10
-105.4869366579
 20
-8.9722450563
 11
104.0912110579
 21
-69.4722450563
  0
LINE
  5
217
100
AcDbEntity
  8
RACCORDO
100
AcDbLine
 62
250
  6
CONTINUOUS
 10
-105.7095865598
 20
-8.4444888354
 11
103.868561156
 21
-68.9444888354
  0
LINE
  5
218
100
AcDbEntity
  8
0
100
AcDbLine
 62
7
  6
CONTINUOUS
 10
-2.4160032636
 20
-36.8806547566
 11
-2.2668334189
 21
-36.9237163816
  0
LINE
  5
219
100
AcDbEntity
  8
0
100
AcDbLine
 62
7
  6
CONTINUOUS
 10
-1.9962117385
 20
-37.0018381316
 11
-1.84708303
 21
-37.0448878816
  0
LINE
  5
21A
100
AcDbEntity
  8
0
100
AcDbLine
 62
7
  6
CONTINUOUS
 10
-0.5923832599
 20
-37.4070885066
 11
-0.4570724198
 21
-37.4461493816
  0
LINE
  5
21B
100
AcDbEntity
  8
0
100
AcDbLine
 62
7
  6
CONTINUOUS
 10
-1.0644125713
 20
-37.0078797175
 11
-0.5923832599
 21
-37.1441428425
  0
LINE
  5
21C
100
AcDbEntity
  8
0
100
AcDbLine
 62
7
  6
CONTINUOUS
 10
-0.4570724198
 20
-37.1832037175
 11
-0.2986768064
 21
-37.2289285925
  0
LINE
  5
21D
100
AcDbEntity
  8
0
100
AcDbLine
 62
7
  6
CONTINUOUS
 10
-0.2986768064
 20
-37.1120814139
 11
-0.4570724198
 21
-37.0663565389
  0
LINE
  5
21E
100
AcDbEntity
  8
0
100
AcDbLine
 62
7
  6
CONTINUOUS
 10
-0.5923832599
 20
-37.0272956639
 11
-0.9398859125
 21
-36.9269802889
  0
LINE
  5
21F
100
AcDbEntity
  8
0
100
AcDbLine
 62
7
  6
CONTINUOUS
 10
-0.2861768064
 20
-37.1012560963
 11
-0.4445724198
 21
-37.0555312213
  0
LINE
  5
220
100
AcDbEntity
  8
0
100
AcDbLine
 62
7
  6
CONTINUOUS
 10
-0.5923832599
 20
-37.0128619072
 11
-0.9273859125
 21
-36.9161549713
  0
LINE
  5
221
100
AcDbEntity
  8
0
100
AcDbLine
 62
7
  6
CONTINUOUS
 10
-1.84708303
 20
-36.5789761737
 11
-1.4999283997
 21
-36.6791910833
  0
LINE
  5
222
100
AcDbEntity
  8
0
100
AcDbLine
 62
7
  6
CONTINUOUS
 10
-1.5347252696
 20
-36.5415398471
 11
-1.84708303
 21
-36.4513699285
  0
LINE
  5
223
100
AcDbEntity
  8
0
100
AcDbLine
 62
7
  6
CONTINUOUS
 10
-1.5222253301
 20
-36.5307145121
 11
-1.83458303
 21
-36.440544611
  0
LINE
  5
224
100
AcDbEntity
  8
0
100
AcDbLine
 62
7
  6
CONTINUOUS
 10
-1.84708303
 20
-36.0684936023
 11
-1.5347228497
 21
-36.1586642194
  0
LINE
  5
225
100
AcDbEntity
  8
0
100
AcDbLine
 62
7
  6
CONTINUOUS
 10
-0.4570724198
 20
-36.3421488572
 11
-0.5526552106
 21
-36.3145564822
  0
LINE
  5
226
100
AcDbEntity
  8
0
100
AcDbLine
 62
7
  6
CONTINUOUS
 10
-1.4999260132
 20
-36.0411029557
 11
-1.9962117385
 21
-35.8978376072
  0
LINE
  5
227
100
AcDbEntity
  8
0
100
AcDbLine
 62
7
  6
CONTINUOUS
 10
-2.2668334189
 20
-35.8197158572
 11
-2.4160032636
 21
-35.7766542322
  0
LINE
  5
228
100
AcDbEntity
  8
0
100
AcDbLine
 62
7
  6
CONTINUOUS
 10
-0.4445724198
 20
-36.3313235396
 11
-0.5401552106
 21
-36.3037311646
  0
LINE
  5
229
100
AcDbEntity
  8
0
100
AcDbLine
 62
7
  6
CONTINUOUS
 10
-1.4874260149
 20
-36.0302776377
 11
-1.9837117385
 21
-35.8870122896
  0
LINE
  5
22A
100
AcDbEntity
  8
0
100
AcDbLine
 62
7
  6
CONTINUOUS
 10
-2.2543334189
 20
-35.8088905396
 11
-2.4035032636
 21
-35.7658289146
  0
LINE
  5
22B
100
AcDbEntity
  8
0
100
AcDbLine
 62
7
  6
CONTINUOUS
 10
-0.4160591887
 20
-1.8853627896
 11
-0.59824885
 21
0.1155507029
  0
LINE
  5
22C
100
AcDbEntity
  8
0
100
AcDbLine
 62
7
  6
CONTINUOUS
 10
-0.4035591887
 20
-1.8745374721
 11
-0.58574885
 21
0.1263760205
  0
LINE
  5
22D
100
AcDbEntity
  8
0
100
AcDbLine
 62
7
  6
CONTINUOUS
 10
-0.8974666892
 20
-0.4794795213
 11
-0.8139108262
 21
-1.7705129146
  0
LINE
  5
22E
100
AcDbEntity
  8
0
100
AcDbLine
 62
7
  6
CONTINUOUS
 10
-3.0176172552
 20
0.8140791163
 11
-3.0176172552
 21
-1.1343576646
  0
LINE
  5
22F
100
AcDbEntity
  8
0
100
AcDbLine
 62
7
  6
CONTINUOUS
 10
-2.6109265294
 20
-1.2517591646
 11
-2.6109265294
 21
0.6966776163
  0
LINE
  5
230
100
AcDbEntity
  8
0
100
AcDbLine
 62
7
  6
CONTINUOUS
 10
-2.5984265294
 20
-1.2409338471
 11
-2.5984265294
 21
0.7075029339
  0
LINE
  5
231
100
AcDbEntity
  8
0
100
AcDbLine
 62
7
  6
CONTINUOUS
 10
-2.4160032636
 20
-35.7766542322
 11
-2.4160032636
 21
-36.8806547566
  0
LINE
  5
232
100
AcDbEntity
  8
0
100
AcDbLine
 62
7
  6
CONTINUOUS
 10
-2.2668334189
 20
-36.9237163816
 11
-2.2668334189
 21
-35.8197158572
  0
LINE
  5
233
100
AcDbEntity
  8
0
100
AcDbLine
 62
7
  6
CONTINUOUS
 10
-2.2543334189
 20
-36.9128910641
 11
-2.2543334189
 21
-35.8088905396
  0
LINE
  5
234
100
AcDbEntity
  8
0
100
AcDbLine
 62
7
  6
CONTINUOUS
 10
-1.9962117385
 20
-35.8978376072
 11
-1.9962117385
 21
-37.0018381316
  0
LINE
  5
235
100
AcDbEntity
  8
0
100
AcDbLine
 62
7
  6
CONTINUOUS
 10
-1.84708303
 20
-36.4513699285
 11
-1.84708303
 21
-36.0684936023
  0
LINE
  5
236
100
AcDbEntity
  8
0
100
AcDbLine
 62
7
  6
CONTINUOUS
 10
-1.84708303
 20
-37.0448878816
 11
-1.84708303
 21
-36.5789761737
  0
LINE
  5
237
100
AcDbEntity
  8
0
100
AcDbLine
 62
7
  6
CONTINUOUS
 10
-1.83458303
 20
-37.0340625641
 11
-1.83458303
 21
-36.5825846129
  0
LINE
  5
238
100
AcDbEntity
  8
0
100
AcDbLine
 62
7
  6
CONTINUOUS
 10
-1.83458303
 20
-36.440544611
 11
-1.83458303
 21
-36.0721020415
  0
LINE
  5
239
100
AcDbEntity
  8
0
100
AcDbLine
 62
7
  6
CONTINUOUS
 10
-1.0644125713
 20
-36.8756562578
 11
-1.0644125713
 21
-37.0078797175
  0
LINE
  5
23A
100
AcDbEntity
  8
0
100
AcDbLine
 62
7
  6
CONTINUOUS
 10
-0.5923832599
 20
-36.5323980857
 11
-0.5923832599
 21
-37.0272956639
  0
LINE
  5
23B
100
AcDbEntity
  8
0
100
AcDbLine
 62
7
  6
CONTINUOUS
 10
-0.5923832599
 20
-37.1441428425
 11
-0.5923832599
 21
-37.4070885066
  0
LINE
  5
23C
100
AcDbEntity
  8
0
100
AcDbLine
 62
7
  6
CONTINUOUS
 10
-0.4570724198
 20
-37.4461493816
 11
-0.4570724198
 21
-37.1832037175
  0
LINE
  5
23D
100
AcDbEntity
  8
0
100
AcDbLine
 62
7
  6
CONTINUOUS
 10
-0.4570724198
 20
-37.0663565389
 11
-0.4570724198
 21
-36.3421488572
  0
LINE
  5
23E
100
AcDbEntity
  8
0
100
AcDbLine
 62
7
  6
CONTINUOUS
 10
-0.4445724198
 20
-37.4353240641
 11
-0.4445724198
 21
-37.1868121566
  0
LINE
  5
23F
100
AcDbEntity
  8
0
100
AcDbLine
 62
7
  6
CONTINUOUS
 10
-0.4445724198
 20
-37.0555312213
 11
-0.4445724198
 21
-36.3313235396
  0
LINE
  5
240
100
AcDbEntity
  8
0
100
AcDbLine
 62
7
  6
CONTINUOUS
 10
-0.2986768064
 20
-37.2289285925
 11
-0.2986768064
 21
-37.1120814139
  0
LINE
  5
241
100
AcDbEntity
  8
0
100
AcDbLine
 62
7
  6
CONTINUOUS
 10
-0.2861768064
 20
-37.2181032749
 11
-0.2861768064
 21
-37.1012560963
  0
LINE
  5
242
100
AcDbEntity
  8
0
100
AcDbLine
 62
7
  6
CONTINUOUS
 10
-2.0029212703
 20
-1.4272751646
 11
-1.9151578229
 21
-0.1803942898
  0
LINE
  5
243
100
AcDbEntity
  8
0
100
AcDbLine
 62
7
  6
CONTINUOUS
 10
-1.9904212703
 20
-1.4164498471
 11
-1.9054409728
 21
-0.2091099946
  0
LINE
  5
244
100
AcDbEntity
  8
0
100
AcDbLine
 62
7
  6
CONTINUOUS
 10
-2.2160700408
 20
0.5825754529
 11
-2.3919922763
 21
-1.3149600396
  0
LINE
  5
245
100
AcDbEntity
  8
0
100
AcDbLine
 62
7
  6
CONTINUOUS
 10
0.2454924211
 20
-1.3864110895
 11
0.4479903781
 21
-0.7218213059
  0
LINE
  5
246
100
AcDbEntity
  8
0
100
AcDbLine
 62
7
  6
CONTINUOUS
 10
0.2579924211
 20
-1.375585772
 11
0.4520495795
 21
-0.7386983345
  0
LINE
  5
247
100
AcDbEntity
  8
0
100
AcDbLine
 62
7
  6
CONTINUOUS
 10
-3.574953966
 20
0.9748514529
 11
-3.9576839339
 21
-0.2557527573
  0
LINE
  5
248
100
AcDbEntity
  8
0
100
AcDbLine
 62
7
  6
CONTINUOUS
 10
0.0500807169
 20
-2.0199257896
 11
0.1623015878
 21
-1.6633670722
  0
LINE
  5
249
100
AcDbEntity
  8
0
100
AcDbLine
 62
7
  6
CONTINUOUS
 10
0.0625807169
 20
-2.0091004721
 11
0.1705749649
 21
-1.6659709787
  0
LINE
  5
24A
100
AcDbEntity
  8
0
100
AcDbLine
 62
7
  6
CONTINUOUS
 10
0.258919279
 20
-0.1318924221
 11
-0.3521980424
 21
-1.9037979146
  0
LINE
  5
24B
100
AcDbEntity
  8
0
100
AcDbLine
 62
7
  6
CONTINUOUS
 10
-3.7948092372
 20
-0.9100016646
 11
-3.1685412344
 21
0.8575302029
  0
LINE
  5
24C
100
AcDbEntity
  8
0
100
AcDbLine
 62
7
  6
CONTINUOUS
 10
-3.7823092372
 20
-0.8991763471
 11
-3.1560412344
 21
0.8683555205
  0
LINE
  5
24D
100
AcDbEntity
  8
0
100
AcDbLine
 62
7
  6
CONTINUOUS
 10
-1.0006298004
 20
0.2317080779
 11
-1.4073200931
 21
-0.7326039078
  0
LINE
  5
24E
100
AcDbEntity
  8
0
100
AcDbLine
 62
7
  6
CONTINUOUS
 10
-1.3810219327
 20
-1.6068020396
 11
-0.8974666892
 21
-0.4794795213
  0
LINE
  5
24F
100
AcDbEntity
  8
0
100
AcDbLine
 62
7
  6
CONTINUOUS
 10
-1.3685219327
 20
-1.5959767221
 11
-0.8964366746
 21
-0.4953944221
  0
LINE
  5
250
100
AcDbEntity
  8
0
100
AcDbLine
 62
7
  6
CONTINUOUS
 10
-4.7583610034
 20
1.3309053955
 11
-4.7708610034
 21
1.3200800779
  0
LINE
  5
251
100
AcDbEntity
  8
0
100
AcDbLine
 62
7
  6
CONTINUOUS
 10
-4.316568969
 20
1.2033710205
 11
-4.329068969
 21
1.1925457029
  0
LINE
  5
252
100
AcDbEntity
  8
0
100
AcDbLine
 62
7
  6
CONTINUOUS
 10
-3.562453966
 20
0.9856767705
 11
-3.574953966
 21
0.9748514529
  0
LINE
  5
253
100
AcDbEntity
  8
0
100
AcDbLine
 62
7
  6
CONTINUOUS
 10
-3.1560412344
 20
0.8683555205
 11
-3.1685412344
 21
0.8575302029
  0
LINE
  5
254
100
AcDbEntity
  8
0
100
AcDbLine
 62
7
  6
CONTINUOUS
 10
-3.0051172552
 20
0.8249044339
 11
-3.0176172552
 21
0.8140791163
  0
LINE
  5
255
100
AcDbEntity
  8
0
100
AcDbLine
 62
7
  6
CONTINUOUS
 10
-2.5984265294
 20
0.7075029339
 11
-2.6109265294
 21
0.6966776163
  0
LINE
  5
256
100
AcDbEntity
  8
0
100
AcDbLine
 62
7
  6
CONTINUOUS
 10
-2.2035700408
 20
0.5934007705
 11
-2.2160700408
 21
0.5825754529
  0
LINE
  5
257
100
AcDbEntity
  8
0
100
AcDbLine
 62
7
  6
CONTINUOUS
 10
-3.7823092372
 20
-0.8991763471
 11
-3.7948092372
 21
-0.9100016646
  0
LINE
  5
258
100
AcDbEntity
  8
0
100
AcDbLine
 62
7
  6
CONTINUOUS
 10
-1.7972157659
 20
0.4760963955
 11
-1.8097157659
 21
0.4652710779
  0
LINE
  5
259
100
AcDbEntity
  8
0
100
AcDbLine
 62
7
  6
CONTINUOUS
 10
-0.9881298004
 20
0.2425333955
 11
-1.0006298004
 21
0.2317080779
  0
LINE
  5
25A
100
AcDbEntity
  8
0
100
AcDbLine
 62
7
  6
CONTINUOUS
 10
-2.5984265294
 20
-1.2409338471
 11
-2.6109265294
 21
-1.2517591646
  0
LINE
  5
25B
100
AcDbEntity
  8
0
100
AcDbLine
 62
7
  6
CONTINUOUS
 10
-0.58574885
 20
0.1263760205
 11
-0.59824885
 21
0.1155507029
  0
LINE
  5
25C
100
AcDbEntity
  8
0
100
AcDbLine
 62
7
  6
CONTINUOUS
 10
-1.9904212703
 20
-1.4164498471
 11
-2.0029212703
 21
-1.4272751646
  0
LINE
  5
25D
100
AcDbEntity
  8
0
100
AcDbLine
 62
7
  6
CONTINUOUS
 10
0.271419279
 20
-0.1210671045
 11
0.258919279
 21
-0.1318924221
  0
LINE
  5
25E
100
AcDbEntity
  8
0
100
AcDbLine
 62
7
  6
CONTINUOUS
 10
-1.3685219327
 20
-1.5959767221
 11
-1.3810219327
 21
-1.6068020396
  0
LINE
  5
25F
100
AcDbEntity
  8
0
100
AcDbLine
 62
7
  6
CONTINUOUS
 10
0.6648437946
 20
-0.2346389795
 11
0.6523437946
 21
-0.2454642971
  0
LINE
  5
260
100
AcDbEntity
  8
0
100
AcDbLine
 62
7
  6
CONTINUOUS
 10
-0.4035591887
 20
-1.8745374721
 11
-0.4160591887
 21
-1.8853627896
  0
LINE
  5
261
100
AcDbEntity
  8
0
100
AcDbLine
 62
7
  6
CONTINUOUS
 10
-4.1532056233
 20
-0.8065415396
 11
-3.7948092372
 21
-0.9100016646
  0
LINE
  5
262
100
AcDbEntity
  8
0
100
AcDbLine
 62
7
  6
CONTINUOUS
 10
-3.0176172552
 20
-1.1343576646
 11
-2.6109265294
 21
-1.2517591646
  0
LINE
  5
263
100
AcDbEntity
  8
0
100
AcDbLine
 62
7
  6
CONTINUOUS
 10
-2.3919922763
 20
-1.3149600396
 11
-2.0029212703
 21
-1.4272751646
  0
LINE
  5
264
100
AcDbEntity
  8
0
100
AcDbLine
 62
7
  6
CONTINUOUS
 10
-1.4380600978
 20
-1.5903365396
 11
-1.3810219327
 21
-1.6068020396
  0
LINE
  5
265
100
AcDbEntity
  8
0
100
AcDbLine
 62
7
  6
CONTINUOUS
 10
-0.8139108262
 20
-1.7705129146
 11
-0.4160591887
 21
-1.8853627896
  0
LINE
  5
266
100
AcDbEntity
  8
0
100
AcDbLine
 62
7
  6
CONTINUOUS
 10
-0.3521980424
 20
-1.9037979146
 11
0.0500807169
 21
-2.0199257896
  0
LINE
  5
267
100
AcDbEntity
  8
0
100
AcDbLine
 62
7
  6
CONTINUOUS
 10
0.8215010726
 20
-2.2426156646
 11
1.2501364491
 21
-2.3663520396
  0
LINE
  5
268
100
AcDbEntity
  8
0
100
AcDbLine
 62
7
  6
CONTINUOUS
 10
1.3695606011
 20
-2.4008266067
 11
1.7746149285
 21
-2.5177557192
  0
LINE
  5
269
100
AcDbEntity
  8
0
100
AcDbLine
 62
7
  6
CONTINUOUS
 10
2.3974056807
 20
-2.6975399234
 11
2.7885948892
 21
-2.8104665208
  0
LINE
  5
26A
100
AcDbEntity
  8
0
100
AcDbLine
 62
7
  6
CONTINUOUS
 10
0.1623015878
 20
-1.6633670722
 11
0.7161469172
 21
-1.8232484472
  0
LINE
  5
26B
100
AcDbEntity
  8
0
100
AcDbLine
 62
7
  6
CONTINUOUS
 10
0.63487
 20
-1.4988147145
 11
0.2454924211
 21
-1.3864110895
  0
LINE
  5
26C
100
AcDbEntity
  8
0
100
AcDbLine
 62
7
  6
CONTINUOUS
 10
0.6311394278
 20
-1.4833040344
 11
0.2579924211
 21
-1.375585772
  0
LINE
  5
26D
100
AcDbEntity
  8
0
100
AcDbLine
 62
7
  6
CONTINUOUS
 10
1.7746149285
 20
-1.755291061
 11
1.9926727786
 21
-1.8182389402
  0
LINE
  5
26E
100
AcDbEntity
  8
0
100
AcDbLine
 62
7
  6
CONTINUOUS
 10
1.9935493931
 20
-1.4994043289
 11
1.7611296759
 21
-1.4323105357
  0
LINE
  5
26F
100
AcDbEntity
  8
0
100
AcDbLine
 62
7
  6
CONTINUOUS
 10
2.0060493931
 20
-1.4885790113
 11
1.7736296759
 21
-1.4214852182
  0
LINE
  5
270
100
AcDbEntity
  8
0
100
AcDbLine
 62
7
  6
CONTINUOUS
 10
0.6523437946
 20
-0.2454642971
 11
0.258919279
 21
-0.1318924221
  0
LINE
  5
271
100
AcDbEntity
  8
0
100
AcDbLine
 62
7
  6
CONTINUOUS
 10
-0.59824885
 20
0.1155507029
 11
-1.0006298004
 21
0.2317080779
  0
LINE
  5
272
100
AcDbEntity
  8
0
100
AcDbLine
 62
7
  6
CONTINUOUS
 10
-1.8097157659
 20
0.4652710779
 11
-2.2160700408
 21
0.5825754529
  0
LINE
  5
273
100
AcDbEntity
  8
0
100
AcDbLine
 62
7
  6
CONTINUOUS
 10
-3.1685412344
 20
0.8575302029
 11
-3.574953966
 21
0.9748514529
  0
LINE
  5
274
100
AcDbEntity
  8
0
100
AcDbLine
 62
7
  6
CONTINUOUS
 10
-4.329068969
 20
1.1925457029
 11
-4.7708610034
 21
1.3200800779
  0
LINE
  5
275
100
AcDbEntity
  8
0
100
AcDbLine
 62
7
  6
CONTINUOUS
 10
-2.6109265294
 20
0.6966776163
 11
-3.0176172552
 21
0.8140791163
  0
LINE
  5
276
100
AcDbEntity
  8
0
100
AcDbLine
 62
7
  6
CONTINUOUS
 10
0.6648437946
 20
-0.2346389795
 11
0.271419279
 21
-0.1210671045
  0
LINE
  5
277
100
AcDbEntity
  8
0
100
AcDbLine
 62
7
  6
CONTINUOUS
 10
-0.58574885
 20
0.1263760205
 11
-0.9881298004
 21
0.2425333955
  0
LINE
  5
278
100
AcDbEntity
  8
0
100
AcDbLine
 62
7
  6
CONTINUOUS
 10
-1.7972157659
 20
0.4760963955
 11
-2.2035700408
 21
0.5934007705
  0
LINE
  5
279
100
AcDbEntity
  8
0
100
AcDbLine
 62
7
  6
CONTINUOUS
 10
-3.1560412344
 20
0.8683555205
 11
-3.562453966
 21
0.9856767705
  0
LINE
  5
27A
100
AcDbEntity
  8
0
100
AcDbLine
 62
7
  6
CONTINUOUS
 10
-4.316568969
 20
1.2033710205
 11
-4.7583610034
 21
1.3309053955
  0
LINE
  5
27B
100
AcDbEntity
  8
0
100
AcDbLine
 62
7
  6
CONTINUOUS
 10
-2.5984265294
 20
0.7075029339
 11
-3.0051172552
 21
0.8249044339
  0
LINE
  5
27C
100
AcDbEntity
  8
0
100
AcDbLine
 62
7
  6
CONTINUOUS
 10
-1.9151578229
 20
-0.1803942898
 11
-1.4380600978
 21
-1.5903365396
  0
LINE
  5
27D
100
AcDbEntity
  8
0
100
AcDbLine
 62
7
  6
CONTINUOUS
 10
-1.4073200931
 20
-0.7326039078
 11
-1.8097157659
 21
0.4652710779
  0
LINE
  5
27E
100
AcDbEntity
  8
0
100
AcDbLine
 62
7
  6
CONTINUOUS
 10
-1.3983380006
 20
-0.7113062775
 11
-1.7972157659
 21
0.4760963955
  0
LINE
  5
27F
100
AcDbEntity
  8
0
100
AcDbLine
 62
7
  6
CONTINUOUS
 10
-4.7708610034
 20
1.3200800779
 11
-4.1532056233
 21
-0.8065415396
  0
LINE
  5
280
100
AcDbEntity
  8
0
100
AcDbLine
 62
250
  6
CONTINUOUS
 10
-4.7564339027
 20
1.324270281
 11
-4.7583610034
 21
1.3309053955
  0
LINE
  5
281
100
AcDbEntity
  8
0
100
AcDbLine
 62
7
  6
CONTINUOUS
 10
1.2501364491
 20
-2.3663520396
 11
0.6523437946
 21
-0.2454642971
  0
LINE
  5
282
100
AcDbEntity
  8
0
100
AcDbLine
 62
7
  6
CONTINUOUS
 10
1.2626364491
 20
-2.3555267221
 11
0.6648437946
 21
-0.2346389795
  0
LINE
  5
283
100
AcDbEntity
  8
0
100
AcDbLine
 62
7
  6
CONTINUOUS
 10
-3.9576839339
 20
-0.2557527573
 11
-4.329068969
 21
1.1925457029
  0
LINE
  5
284
100
AcDbEntity
  8
0
100
AcDbLine
 62
7
  6
CONTINUOUS
 10
-3.9493112867
 20
-0.2288319104
 11
-4.316568969
 21
1.2033710205
  0
LINE
  5
285
100
AcDbEntity
  8
0
100
AcDbLine
 62
7
  6
CONTINUOUS
 10
0.7161469172
 20
-1.8232484472
 11
0.8215010726
 21
-2.2426156646
  0
LINE
  5
286
100
AcDbEntity
  8
0
100
AcDbLine
 62
7
  6
CONTINUOUS
 10
0.4479903781
 20
-0.7218213059
 11
0.63487
 21
-1.4988147145
  0
LINE
  5
287
100
AcDbEntity
  8
0
100
AcDbLine
 62
7
  6
CONTINUOUS
 10
1.3695606011
 20
-0.4752698659
 11
1.3695606011
 21
-2.4008266067
  0
LINE
  5
288
100
AcDbEntity
  8
0
100
AcDbLine
 62
7
  6
CONTINUOUS
 10
1.7611296759
 20
-1.4323105357
 11
1.7611296759
 21
-0.8974588254
  0
LINE
  5
289
100
AcDbEntity
  8
0
100
AcDbLine
 62
7
  6
CONTINUOUS
 10
1.7736296759
 20
-1.4214852182
 11
1.7736296759
 21
-0.8974588254
  0
LINE
  5
28A
100
AcDbEntity
  8
0
100
AcDbLine
 62
7
  6
CONTINUOUS
 10
1.7746149285
 20
-2.5177557192
 11
1.7746149285
 21
-1.755291061
  0
LINE
  5
28B
100
AcDbEntity
  8
0
100
AcDbLine
 62
7
  6
CONTINUOUS
 10
1.7871149285
 20
-2.5069304016
 11
1.7871149285
 21
-1.7588995001
  0
LINE
  5
28C
100
AcDbEntity
  8
0
100
AcDbLine
 62
7
  6
CONTINUOUS
 10
2.4151425136
 20
-1.7932018109
 11
2.4151425136
 21
-1.7816889408
  0
LINE
  5
28D
100
AcDbEntity
  8
0
100
AcDbLine
 62
7
  6
CONTINUOUS
 10
0.2579924211
 20
-1.375585772
 11
0.2454924211
 21
-1.3864110895
  0
LINE
  5
28E
100
AcDbEntity
  8
0
100
AcDbLine
 62
7
  6
CONTINUOUS
 10
1.3820606011
 20
-0.4644445484
 11
1.3695606011
 21
-0.4752698659
  0
LINE
  5
28F
100
AcDbEntity
  8
0
100
AcDbLine
 62
7
  6
CONTINUOUS
 10
0.0625807169
 20
-2.0091004721
 11
0.0500807169
 21
-2.0199257896
  0
LINE
  5
290
100
AcDbEntity
  8
0
100
AcDbLine
 62
250
  6
CONTINUOUS
 10
2.3857111213
 20
-0.774686276
 11
2.3732111213
 21
-0.7855115936
  0
LINE
  5
291
100
AcDbEntity
  8
0
100
AcDbLine
 62
7
  6
CONTINUOUS
 10
1.7736296759
 20
-1.4214852182
 11
1.7611296759
 21
-1.4323105357
  0
LINE
  5
292
100
AcDbEntity
  8
0
100
AcDbLine
 62
250
  6
CONTINUOUS
 10
2.0060493931
 20
-1.4885790113
 11
1.9935493931
 21
-1.4994043289
  0
LINE
  5
293
100
AcDbEntity
  8
0
100
AcDbLine
 62
7
  6
CONTINUOUS
 10
1.2626364491
 20
-2.3555267221
 11
1.2501364491
 21
-2.3663520396
  0
LINE
  5
294
100
AcDbEntity
  8
0
100
AcDbLine
 62
7
  6
CONTINUOUS
 10
2.4276425136
 20
-1.7823764934
 11
2.4151425136
 21
-1.7932018109
  0
LINE
  5
295
100
AcDbEntity
  8
0
100
AcDbLine
 62
7
  6
CONTINUOUS
 10
1.7871149285
 20
-2.5069304016
 11
1.7746149285
 21
-2.5177557192
  0
LINE
  5
296
100
AcDbEntity
  8
0
100
AcDbLine
 62
250
  6
CONTINUOUS
 10
2.6620638338
 20
-2.2321789585
 11
2.6495638338
 21
-2.2430042761
  0
LINE
  5
297
100
AcDbEntity
  8
0
100
AcDbLine
 62
7
  6
CONTINUOUS
 10
2.8010948892
 20
-2.7996412033
 11
2.7885948892
 21
-2.8104665208
  0
LINE
  5
298
100
AcDbEntity
  8
0
100
AcDbLine
 62
7
  6
CONTINUOUS
 10
-0.9398859125
 20
-36.9269802889
 11
-0.5923832599
 21
-36.5323980857
  0
LINE
  5
299
100
AcDbEntity
  8
0
100
AcDbLine
 62
7
  6
CONTINUOUS
 10
-0.5526552106
 20
-36.3145564822
 11
-1.0644125713
 21
-36.8756562578
  0
LINE
  5
29A
100
AcDbEntity
  8
0
100
AcDbLine
 62
7
  6
CONTINUOUS
 10
-2.4035032636
 20
-35.7658289146
 11
-2.4160032636
 21
-35.7766542322
  0
LINE
  5
29B
100
AcDbEntity
  8
0
100
AcDbLine
 62
7
  6
CONTINUOUS
 10
-2.2543334189
 20
-35.8088905396
 11
-2.2668334189
 21
-35.8197158572
  0
LINE
  5
29C
100
AcDbEntity
  8
0
100
AcDbLine
 62
7
  6
CONTINUOUS
 10
-1.9837117385
 20
-35.8870122896
 11
-1.9962117385
 21
-35.8978376072
  0
LINE
  5
29D
100
AcDbEntity
  8
0
100
AcDbLine
 62
250
  6
CONTINUOUS
 10
-1.4874263546
 20
-36.0302775396
 11
-1.4999263546
 21
-36.0411028572
  0
LINE
  5
29E
100
AcDbEntity
  8
0
100
AcDbLine
 62
7
  6
CONTINUOUS
 10
-1.83458303
 20
-36.440544611
 11
-1.84708303
 21
-36.4513699285
  0
LINE
  5
29F
100
AcDbEntity
  8
0
100
AcDbLine
 62
7
  6
CONTINUOUS
 10
-2.2543334189
 20
-36.9128910641
 11
-2.2668334189
 21
-36.9237163816
  0
LINE
  5
2A0
100
AcDbEntity
  8
0
100
AcDbLine
 62
250
  6
CONTINUOUS
 10
-1.5222232553
 20
-36.530715111
 11
-1.5347232553
 21
-36.5415404285
  0
LINE
  5
2A1
100
AcDbEntity
  8
0
100
AcDbLine
 62
250
  6
CONTINUOUS
 10
-1.1595463403
 20
-36.443972664
 11
-1.1720463403
 21
-36.4547979815
  0
LINE
  5
2A2
100
AcDbEntity
  8
0
100
AcDbLine
 62
7
  6
CONTINUOUS
 10
-1.83458303
 20
-37.0340625641
 11
-1.84708303
 21
-37.0448878816
  0
LINE
  5
2A3
100
AcDbEntity
  8
0
100
AcDbLine
 62
7
  6
CONTINUOUS
 10
-0.5401552106
 20
-36.3037311646
 11
-0.5526552106
 21
-36.3145564822
  0
LINE
  5
2A4
100
AcDbEntity
  8
0
100
AcDbLine
 62
7
  6
CONTINUOUS
 10
-0.4445724198
 20
-36.3313235396
 11
-0.4570724198
 21
-36.3421488572
  0
LINE
  5
2A5
100
AcDbEntity
  8
0
100
AcDbLine
 62
7
  6
CONTINUOUS
 10
-0.4445724198
 20
-37.0555312213
 11
-0.4570724198
 21
-37.0663565389
  0
LINE
  5
2A6
100
AcDbEntity
  8
0
100
AcDbLine
 62
250
  6
CONTINUOUS
 10
0.1920032537
 20
-36.5150908301
 11
0.1795032537
 21
-36.5259161476
  0
LINE
  5
2A7
100
AcDbEntity
  8
0
100
AcDbLine
 62
7
  6
CONTINUOUS
 10
-0.2861768064
 20
-37.1012560963
 11
-0.2986768064
 21
-37.1120814139
  0
LINE
  5
2A8
100
AcDbEntity
  8
0
100
AcDbLine
 62
7
  6
CONTINUOUS
 10
-0.2861768064
 20
-37.2181032749
 11
-0.2986768064
 21
-37.2289285925
  0
LINE
  5
2A9
100
AcDbEntity
  8
0
100
AcDbLine
 62
250
  6
CONTINUOUS
 10
-0.0339371679
 20
-37.0018639885
 11
-0.0464371679
 21
-37.012689306
  0
LINE
  5
2AA
100
AcDbEntity
  8
0
100
AcDbLine
 62
7
  6
CONTINUOUS
 10
-0.4445724198
 20
-37.4353240641
 11
-0.4570724198
 21
-37.4461493816
  0
LINE
  5
2AB
100
AcDbEntity
  8
0
100
AcDbLine
 62
250
  6
CONTINUOUS
 10
0.5624779653
 20
-37.1740342073
 11
0.5499779653
 21
-37.1848595249
  0
LINE
  5
2AC
100
AcDbEntity
  8
0
100
AcDbLine
 62
250
  6
CONTINUOUS
 10
0.1920032537
 20
-37.497598187
 11
0.1795032537
 21
-37.5084235045
  0
LINE
  5
2AD
100
AcDbEntity
  8
RACCORDO
100
AcDbLine
 62
250
  6
CONTINUOUS
 10
103.868561156
 20
6.8327339958
 11
-105.7095865598
 21
67.3327339958
  0
LINE
  5
2AE
100
AcDbEntity
  8
RACCORDO
100
AcDbLine
 62
250
  6
CONTINUOUS
 10
104.368561156
 20
8.1317721014
 11
-105.2095865598
 21
68.6317721014
  0
LINE
  5
2AF
100
AcDbEntity
  8
0
100
AcDbLine
 62
7
  6
CONTINUOUS
 10
105.343561156
 20
8.9761468701
 11
-104.2345865598
 21
69.4761468701
  0
LINE
  5
2B0
100
AcDbEntity
  8
RACCORDO
100
AcDbLine
 62
250
  6
CONTINUOUS
 10
105.343561156
 20
8.9761468701
 11
104.368561156
 21
8.1317721014
  0
LINE
  5
2B1
100
AcDbEntity
  8
RACCORDO
100
AcDbLine
 62
250
  6
CONTINUOUS
 10
109.6736881749
 20
3.3960198512
 11
108.6986881749
 21
2.5516450825
  0
LINE
  5
2B2
100
AcDbEntity
  8
RACCORDO
100
AcDbLine
 62
250
  6
CONTINUOUS
 10
107.3326627712
 20
-66.4803872202
 11
107.3326627712
 21
2.3686323806
  0
LINE
  5
2B3
100
AcDbEntity
  8
RACCORDO
100
AcDbLine
 62
250
  6
CONTINUOUS
 10
108.6986881749
 20
-66.2973745183
 11
108.6986881749
 21
2.5516450825
  0
LINE
  5
2B4
100
AcDbEntity
  8
0
100
AcDbLine
 62
7
  6
CONTINUOUS
 10
109.6736881749
 20
-65.4529997496
 11
109.6736881749
 21
3.3960198512
  0
LINE
  5
2B5
100
AcDbEntity
  8
RACCORDO
100
AcDbLine
 62
250
  6
CONTINUOUS
 10
109.6736881749
 20
-65.4529997496
 11
108.6986881749
 21
-66.2973745183
  0
LINE
  5
2B6
100
AcDbEntity
  8
ASSI
100
AcDbLine
 62
7
  6
CONTINUOUS
 10
108.6168295096
 20
-67.9826444797
 11
107.6418295096
 21
-68.8270192484
  0
ARC
  5
2B7
100
AcDbEntity
  8
0
100
AcDbCircle
 62
250
  6
CONTINUOUS
 10
11.8104068564
 20
-0.5317244204
 40
9.2903793602
100
AcDbArc
 50
193.8914122848
 51
194.1295124726
  0
SPLINE
  5
2B8
100
AcDbEntity
  8
0
100
AcDbSpline
 62
7
  6
CONTINUOUS
 70
0
 71
3
 72
14
 73
10
 74
0
 42
0.0000001
 43
0.0000001
 44
0.0000000001
 40
0.0
 40
0.0
 40
0.0
 40
0.0
 40
0.2564723598
 40
0.3945423494
 40
0.5316430511
 40
0.6626316924
 40
0.7840107805
 40
0.8953103029
 40
1.0
 40
1.0
 40
1.0
 40
1.0
 10
-100.0804214352
 20
57.9135053617
 30
0.0
 10
-100.0804214352
 20
58.1937002976
 30
0.0
 10
-100.2199754757
 20
58.6284391967
 30
0.0
 10
-100.5693721324
 20
59.0947497114
 30
0.0
 10
-100.910368277
 20
59.3855614132
 30
0.0
 10
-101.2937855212
 20
59.5797764441
 30
0.0
 10
-101.6887412631
 20
59.6601222615
 30
0.0
 10
-102.0620116278
 20
59.6152586127
 30
0.0
 10
-102.2749809293
 20
59.4972720924
 30
0.0
 10
-102.3614399441
 20
59.4223986618
 30
0.0
  0
SPLINE
  5
2B9
100
AcDbEntity
  8
0
100
AcDbSpline
 62
7
  6
CONTINUOUS
 70
0
 71
3
 72
10
 73
6
 74
0
 42
0.0000001
 43
0.0000001
 44
0.0000000001
 40
0.0
 40
0.0
 40
0.0
 40
0.0
 40
0.5183205375
 40
0.761978719
 40
1.0
 40
1.0
 40
1.0
 40
1.0
 10
100.8374722428
 20
-0.0864946383
 30
0.0
 10
100.8374722428
 20
-0.2324582969
 30
0.0
 10
100.8000144147
 20
-0.4514894442
 30
0.0
 10
100.6632643628
 20
-0.6998792359
 30
0.0
 10
100.5710842874
 20
-0.8015079822
 30
0.0
 10
100.5204145403
 20
-0.8453879384
 30
0.0
  0
SPLINE
  5
2BA
100
AcDbEntity
  8
0
100
AcDbSpline
 62
7
  6
CONTINUOUS
 70
0
 71
3
 72
10
 73
6
 74
0
 42
0.0000001
 43
0.0000001
 44
0.0000000001
 40
0.0
 40
0.0
 40
0.0
 40
0.0
 40
0.5183205375
 40
0.761978719
 40
1.0
 40
1.0
 40
1.0
 40
1.0
 10
-100.0804214352
 20
-2.2752602013
 30
0.0
 10
-100.0804214352
 20
-2.4212238599
 30
0.0
 10
-100.1178792633
 20
-2.6402550072
 30
0.0
 10
-100.2546293152
 20
-2.8886447989
 30
0.0
 10
-100.3468093906
 20
-2.9902735452
 30
0.0
 10
-100.3974791377
 20
-3.0341535014
 30
0.0
  0
SPLINE
  5
2BB
100
AcDbEntity
  8
0
100
AcDbSpline
 62
7
  6
CONTINUOUS
 70
0
 71
3
 72
14
 73
10
 74
0
 42
0.0000001
 43
0.0000001
 44
0.0000000001
 40
0.0
 40
0.0
 40
0.0
 40
0.0
 40
0.2564723598
 40
0.3945423494
 40
0.5316430511
 40
0.6626316924
 40
0.7840107805
 40
0.8953103029
 40
1.0
 40
1.0
 40
1.0
 40
1.0
 10
100.8374722428
 20
-60.2752602013
 30
0.0
 10
100.8374722428
 20
-59.9950652654
 30
0.0
 10
100.6979182023
 20
-59.5603263663
 30
0.0
 10
100.3485215455
 20
-59.0940158516
 30
0.0
 10
100.007525401
 20
-58.8032041498
 30
0.0
 10
99.6241081568
 20
-58.6089891189
 30
0.0
 10
99.2291524149
 20
-58.5286433016
 30
0.0
 10
98.8558820501
 20
-58.5735069503
 30
0.0
 10
98.6429127486
 20
-58.6914934707
 30
0.0
 10
98.5564537339
 20
-58.7663669012
 30
0.0
  0
SPLINE
  5
2BC
100
AcDbEntity
  8
0
100
AcDbSpline
 62
7
  6
CONTINUOUS
 70
0
 71
3
 72
14
 73
10
 74
0
 42
0.0000001
 43
0.0000001
 44
0.0000000001
 40
0.0
 40
0.0
 40
0.0
 40
0.0
 40
0.2564723598
 40
0.3945423494
 40
0.5316430511
 40
0.6626316924
 40
0.7840107805
 40
0.8953103029
 40
1.0
 40
1.0
 40
1.0
 40
1.0
 10
-34.2624907476
 20
38.9135053617
 30
0.0
 10
-34.2624907476
 20
39.1937002976
 30
0.0
 10
-34.4020447881
 20
39.6284391967
 30
0.0
 10
-34.7514414448
 20
40.0947497114
 30
0.0
 10
-35.0924375894
 20
40.3855614132
 30
0.0
 10
-35.4758548335
 20
40.5797764441
 30
0.0
 10
-35.8708105754
 20
40.6601222615
 30
0.0
 10
-36.2440809402
 20
40.6152586127
 30
0.0
 10
-36.4570502417
 20
40.4972720924
 30
0.0
 10
-36.5435092565
 20
40.4223986618
 30
0.0
  0
SPLINE
  5
2BD
100
AcDbEntity
  8
0
100
AcDbSpline
 62
7
  6
CONTINUOUS
 70
0
 71
3
 72
10
 73
6
 74
0
 42
0.0000001
 43
0.0000001
 44
0.0000000001
 40
0.0
 40
0.0
 40
0.0
 40
0.0
 40
0.5183205375
 40
0.761978719
 40
1.0
 40
1.0
 40
1.0
 40
1.0
 10
35.0195415552
 20
18.9135053617
 30
0.0
 10
35.0195415552
 20
18.7675417031
 30
0.0
 10
34.982083727
 20
18.5485105558
 30
0.0
 10
34.8453336752
 20
18.3001207641
 30
0.0
 10
34.7531535998
 20
18.1984920178
 30
0.0
 10
34.7024838527
 20
18.1546120616
 30
0.0
  0
SPLINE
  5
2BE
100
AcDbEntity
  8
0
100
AcDbSpline
 62
7
  6
CONTINUOUS
 70
0
 71
3
 72
10
 73
6
 74
0
 42
0.0000001
 43
0.0000001
 44
0.0000000001
 40
0.0
 40
0.0
 40
0.0
 40
0.0
 40
0.5183205375
 40
0.761978719
 40
1.0
 40
1.0
 40
1.0
 40
1.0
 10
-34.2624907476
 20
-21.2752602013
 30
0.0
 10
-34.2624907476
 20
-21.4212238599
 30
0.0
 10
-34.2999485757
 20
-21.6402550072
 30
0.0
 10
-34.4366986276
 20
-21.8886447989
 30
0.0
 10
-34.528878703
 20
-21.9902735452
 30
0.0
 10
-34.5795484501
 20
-22.0341535014
 30
0.0
  0
SPLINE
  5
2BF
100
AcDbEntity
  8
0
100
AcDbSpline
 62
7
  6
CONTINUOUS
 70
0
 71
3
 72
14
 73
10
 74
0
 42
0.0000001
 43
0.0000001
 44
0.0000000001
 40
0.0
 40
0.0
 40
0.0
 40
0.0
 40
0.2564723598
 40
0.3945423494
 40
0.5316430511
 40
0.6626316924
 40
0.7840107805
 40
0.8953103029
 40
1.0
 40
1.0
 40
1.0
 40
1.0
 10
35.0195415552
 20
-41.2752602013
 30
0.0
 10
35.0195415552
 20
-40.9950652654
 30
0.0
 10
34.8799875147
 20
-40.5603263663
 30
0.0
 10
34.5305908579
 20
-40.0940158516
 30
0.0
 10
34.1895947134
 20
-39.8032041498
 30
0.0
 10
33.8061774692
 20
-39.6089891189
 30
0.0
 10
33.4112217273
 20
-39.5286433016
 30
0.0
 10
33.0379513625
 20
-39.5735069503
 30
0.0
 10
32.824982061
 20
-39.6914934707
 30
0.0
 10
32.7385230463
 20
-39.7663669012
 30
0.0
  0
SPLINE
  5
2C0
100
AcDbEntity
  8
0
100
AcDbSpline
 62
7
  6
CONTINUOUS
 70
0
 71
3
 72
10
 73
6
 74
0
 42
0.0000001
 43
0.0000001
 44
0.0000000001
 40
0.0
 40
0.0
 40
0.0
 40
0.0
 40
0.4723061887
 40
0.7281056664
 40
1.0
 40
1.0
 40
1.0
 40
1.0
 10
0.0428780548
 20
-36.6727467802
 30
0.0
 10
0.0600680727
 20
-36.6578598051
 30
0.0
 10
0.0931132818
 20
-36.6405148398
 30
0.0
 10
0.1417192423
 20
-36.6393442153
 30
0.0
 10
0.1669258615
 20
-36.6437710903
 30
0.0
 10
0.1795032537
 20
-36.6474018707
 30
0.0
  0
SPLINE
  5
2C1
100
AcDbEntity
  8
0
100
AcDbSpline
 62
7
  6
CONTINUOUS
 70
0
 71
3
 72
11
 73
7
 74
0
 42
0.0000001
 43
0.0000001
 44
0.0000000001
 40
0.0
 40
0.0
 40
0.0
 40
0.0
 40
0.2340396745
 40
0.4799169824
 40
0.7354482476
 40
1.0
 40
1.0
 40
1.0
 40
1.0
 10
-0.0648413949
 20
-36.5641220502
 30
0.0
 10
-0.09062722
 20
-36.5864532417
 30
0.0
 10
-0.1350790832
 20
-36.6431954697
 30
0.0
 10
-0.1670733418
 20
-36.746572584
 30
0.0
 10
-0.187565176
 20
-36.8564042016
 30
0.0
 10
-0.1909714579
 20
-36.9324072454
 30
0.0
 10
-0.1909714579
 20
-36.9709658504
 30
0.0
  0
SPLINE
  5
2C2
100
AcDbEntity
  8
0
100
AcDbSpline
 62
7
  6
CONTINUOUS
 70
0
 71
3
 72
13
 73
9
 74
0
 42
0.0000001
 43
0.0000001
 44
0.0000000001
 40
0.0
 40
0.0
 40
0.0
 40
0.0
 40
0.2376483361
 40
0.3645776951
 40
0.4944049638
 40
0.6250312931
 40
0.7542742162
 40
1.0
 40
1.0
 40
1.0
 40
1.0
 10
109.6736881749
 20
3.3960198512
 30
0.0
 10
109.6736881749
 20
3.990336707
 30
0.0
 10
109.4853511181
 20
4.9077580004
 30
0.0
 10
108.9616052324
 20
6.0301736349
 30
0.0
 10
108.4231582476
 20
6.8403413557
 30
0.0
 10
107.7680080346
 20
7.5669956117
 30
0.0
 10
106.7914844794
 20
8.3738585072
 30
0.0
 10
105.9339701242
 20
8.8057104818
 30
0.0
 10
105.343561156
 20
8.9761468701
 30
0.0
  0
SPLINE
  5
2C3
100
AcDbEntity
  8
0
100
AcDbSpline
 62
7
  6
CONTINUOUS
 70
0
 71
3
 72
11
 73
7
 74
0
 42
0.0000001
 43
0.0000001
 44
0.0000000001
 40
0.0
 40
0.0
 40
0.0
 40
0.0
 40
0.2709658679
 40
0.5256491749
 40
0.7667315416
 40
1.0
 40
1.0
 40
1.0
 40
1.0
 10
-104.2345865598
 20
69.4761468701
 30
0.0
 10
-104.5342516913
 20
69.5626527423
 30
0.0
 10
-105.1339314829
 20
69.6753855458
 30
0.0
 10
-106.024027491
 20
69.6424209623
 30
0.0
 10
-106.8375334919
 20
69.4003551301
 30
0.0
 10
-107.3048822435
 20
69.10144606
 30
0.0
 10
-107.5078545167
 20
68.9256641236
 30
0.0
  0
SPLINE
  5
2C4
100
AcDbEntity
  8
RACCORDO
100
AcDbSpline
 62
7
  6
CONTINUOUS
 70
0
 71
3
 72
14
 73
10
 74
0
 42
0.0000001
 43
0.0000001
 44
0.0000000001
 40
0.0
 40
0.0
 40
0.0
 40
0.0
 40
0.1193646969
 40
0.2424083172
 40
0.3685674931
 40
0.4967430584
 40
0.6254923396
 40
0.7532759071
 40
1.0
 40
1.0
 40
1.0
 40
1.0
 10
-109.6736881749
 20
-3.5473745183
 30
0.0
 10
-109.6736881749
 20
-3.8376221438
 30
0.0
 10
-109.6160022974
 20
-4.4281971795
 30
0.0
 10
-109.3742421818
 20
-5.2952303578
 30
0.0
 10
-108.9878801264
 20
-6.1317663265
 30
0.0
 10
-108.4718946949
 20
-6.9113299085
 30
0.0
 10
-107.8434475156
 20
-7.6094349687
 30
0.0
 10
-106.8977169862
 20
-8.3898331923
 30
0.0
 10
-106.0633357439
 20
-8.8058529726
 30
0.0
 10
-105.4869366579
 20
-8.9722450563
 30
0.0
  0
SPLINE
  5
2C5
100
AcDbEntity
  8
RACCORDO
100
AcDbSpline
 62
7
  6
CONTINUOUS
 70
0
 71
3
 72
11
 73
7
 74
0
 42
0.0000001
 43
0.0000001
 44
0.0000000001
 40
0.0
 40
0.0
 40
0.0
 40
0.0
 40
0.2445013888
 40
0.4912359182
 40
0.742420768
 40
1.0
 40
1.0
 40
1.0
 40
1.0
 10
-108.4828549133
 20
68.0812898126
 30
0.0
 10
-108.6747053387
 20
67.9151424706
 30
0.0
 10
-109.0220012171
 20
67.5343011916
 30
0.0
 10
-109.3999163101
 20
66.8554941108
 30
0.0
 10
-109.6260420673
 20
66.0987243317
 30
0.0
 10
-109.6736881749
 20
65.5690142381
 30
0.0
 10
-109.6736881749
 20
65.3016450825
 30
0.0
  0
SPLINE
  5
2C6
100
AcDbEntity
  8
RACCORDO
100
AcDbSpline
 62
7
  6
CONTINUOUS
 70
0
 71
3
 72
11
 73
7
 74
0
 42
0.0000001
 43
0.0000001
 44
0.0000000001
 40
0.0
 40
0.0
 40
0.0
 40
0.0
 40
0.2603478358
 40
0.5121310679
 40
0.7576592658
 40
1.0
 40
1.0
 40
1.0
 40
1.0
 10
104.0912110579
 20
-69.4722450563
 30
0.0
 10
104.4042729375
 20
-69.5626182365
 30
0.0
 10
105.0402854229
 20
-69.679524922
 30
0.0
 10
105.9965024943
 20
-69.636238565
 30
0.0
 10
106.8914632708
 20
-69.3615908938
 30
0.0
 10
107.4125503059
 20
-69.0255808634
 30
0.0
 10
107.6418295096
 20
-68.8270192484
 30
0.0
  0
SPLINE
  5
2C7
100
AcDbEntity
  8
0
100
AcDbSpline
 62
7
  6
CONTINUOUS
 70
0
 71
3
 72
10
 73
6
 74
0
 42
0.0000001
 43
0.0000001
 44
0.0000000001
 40
0.0
 40
0.0
 40
0.0
 40
0.0
 40
0.238021281
 40
0.4816794625
 40
1.0
 40
1.0
 40
1.0
 40
1.0
 10
34.7024838527
 20
-42.0341535014
 30
0.0
 10
34.7531535998
 20
-41.9902735452
 30
0.0
 10
34.8453336752
 20
-41.8886447989
 30
0.0
 10
34.982083727
 20
-41.6402550072
 30
0.0
 10
35.0195415552
 20
-41.4212238599
 30
0.0
 10
35.0195415552
 20
-41.2752602013
 30
0.0
  0
SPLINE
  5
2C8
100
AcDbEntity
  8
0
100
AcDbSpline
 62
7
  6
CONTINUOUS
 70
0
 71
3
 72
14
 73
10
 74
0
 42
0.0000001
 43
0.0000001
 44
0.0000000001
 40
0.0
 40
0.0
 40
0.0
 40
0.0
 40
0.1046896971
 40
0.2159892195
 40
0.3373683076
 40
0.4683569489
 40
0.6054576506
 40
0.7435276402
 40
1.0
 40
1.0
 40
1.0
 40
1.0
 10
-36.5435092565
 20
-19.7663669012
 30
0.0
 10
-36.4570502417
 20
-19.6914934707
 30
0.0
 10
-36.2440809402
 20
-19.5735069503
 30
0.0
 10
-35.8708105754
 20
-19.5286433016
 30
0.0
 10
-35.4758548335
 20
-19.6089891189
 30
0.0
 10
-35.0924375894
 20
-19.8032041498
 30
0.0
 10
-34.7514414448
 20
-20.0940158516
 30
0.0
 10
-34.4020447881
 20
-20.5603263663
 30
0.0
 10
-34.2624907476
 20
-20.9950652654
 30
0.0
 10
-34.2624907476
 20
-21.2752602013
 30
0.0
  0
SPLINE
  5
2C9
100
AcDbEntity
  8
0
100
AcDbSpline
 62
7
  6
CONTINUOUS
 70
0
 71
3
 72
14
 73
10
 74
0
 42
0.0000001
 43
0.0000001
 44
0.0000000001
 40
0.0
 40
0.0
 40
0.0
 40
0.0
 40
0.1046896971
 40
0.2159892195
 40
0.3373683076
 40
0.4683569489
 40
0.6054576506
 40
0.7435276402
 40
1.0
 40
1.0
 40
1.0
 40
1.0
 10
32.7385230463
 20
20.4223986618
 30
0.0
 10
32.824982061
 20
20.4972720924
 30
0.0
 10
33.0379513625
 20
20.6152586127
 30
0.0
 10
33.4112217273
 20
20.6601222615
 30
0.0
 10
33.8061774692
 20
20.5797764441
 30
0.0
 10
34.1895947134
 20
20.3855614132
 30
0.0
 10
34.5305908579
 20
20.0947497114
 30
0.0
 10
34.8799875147
 20
19.6284391967
 30
0.0
 10
35.0195415552
 20
19.1937002976
 30
0.0
 10
35.0195415552
 20
18.9135053617
 30
0.0
  0
SPLINE
  5
2CA
100
AcDbEntity
  8
0
100
AcDbSpline
 62
7
  6
CONTINUOUS
 70
0
 71
3
 72
10
 73
6
 74
0
 42
0.0000001
 43
0.0000001
 44
0.0000000001
 40
0.0
 40
0.0
 40
0.0
 40
0.0
 40
0.238021281
 40
0.4816794625
 40
1.0
 40
1.0
 40
1.0
 40
1.0
 10
-34.5795484501
 20
38.1546120616
 30
0.0
 10
-34.528878703
 20
38.1984920178
 30
0.0
 10
-34.4366986276
 20
38.3001207641
 30
0.0
 10
-34.2999485757
 20
38.5485105558
 30
0.0
 10
-34.2624907476
 20
38.7675417031
 30
0.0
 10
-34.2624907476
 20
38.9135053617
 30
0.0
  0
SPLINE
  5
2CB
100
AcDbEntity
  8
0
100
AcDbSpline
 62
7
  6
CONTINUOUS
 70
0
 71
3
 72
10
 73
6
 74
0
 42
0.0000001
 43
0.0000001
 44
0.0000000001
 40
0.0
 40
0.0
 40
0.0
 40
0.0
 40
0.238021281
 40
0.4816794625
 40
1.0
 40
1.0
 40
1.0
 40
1.0
 10
100.5204145403
 20
-61.0341535014
 30
0.0
 10
100.5710842874
 20
-60.9902735452
 30
0.0
 10
100.6632643628
 20
-60.8886447989
 30
0.0
 10
100.8000144147
 20
-60.6402550072
 30
0.0
 10
100.8374722428
 20
-60.4212238599
 30
0.0
 10
100.8374722428
 20
-60.2752602013
 30
0.0
  0
SPLINE
  5
2CC
100
AcDbEntity
  8
0
100
AcDbSpline
 62
7
  6
CONTINUOUS
 70
0
 71
3
 72
14
 73
10
 74
0
 42
0.0000001
 43
0.0000001
 44
0.0000000001
 40
0.0
 40
0.0
 40
0.0
 40
0.0
 40
0.1046896971
 40
0.2159892195
 40
0.3373683076
 40
0.4683569489
 40
0.6054576506
 40
0.7435276402
 40
1.0
 40
1.0
 40
1.0
 40
1.0
 10
-102.3614399441
 20
-0.7663669012
 30
0.0
 10
-102.2749809293
 20
-0.6914934707
 30
0.0
 10
-102.0620116278
 20
-0.5735069503
 30
0.0
 10
-101.6887412631
 20
-0.5286433016
 30
0.0
 10
-101.2937855212
 20
-0.6089891189
 30
0.0
 10
-100.910368277
 20
-0.8032041498
 30
0.0
 10
-100.5693721324
 20
-1.0940158516
 30
0.0
 10
-100.2199754757
 20
-1.5603263663
 30
0.0
 10
-100.0804214352
 20
-1.9950652654
 30
0.0
 10
-100.0804214352
 20
-2.2752602013
 30
0.0
  0
SPLINE
  5
2CD
100
AcDbEntity
  8
0
100
AcDbSpline
 62
7
  6
CONTINUOUS
 70
0
 71
3
 72
14
 73
10
 74
0
 42
0.0000001
 43
0.0000001
 44
0.0000000001
 40
0.0
 40
0.0
 40
0.0
 40
0.0
 40
0.1046896971
 40
0.2159892195
 40
0.3373683076
 40
0.4683569489
 40
0.6054576506
 40
0.7435276402
 40
1.0
 40
1.0
 40
1.0
 40
1.0
 10
98.5564537339
 20
1.4223986618
 30
0.0
 10
98.6429127486
 20
1.4972720924
 30
0.0
 10
98.8558820501
 20
1.6152586127
 30
0.0
 10
99.2291524149
 20
1.6601222615
 30
0.0
 10
99.6241081568
 20
1.5797764441
 30
0.0
 10
100.007525401
 20
1.3855614132
 30
0.0
 10
100.3485215455
 20
1.0947497114
 30
0.0
 10
100.6979182023
 20
0.6284391967
 30
0.0
 10
100.8374722428
 20
0.1937002976
 30
0.0
 10
100.8374722428
 20
-0.0864946383
 30
0.0
  0
SPLINE
  5
2CE
100
AcDbEntity
  8
0
100
AcDbSpline
 62
7
  6
CONTINUOUS
 70
0
 71
3
 72
10
 73
6
 74
0
 42
0.0000001
 43
0.0000001
 44
0.0000000001
 40
0.0
 40
0.0
 40
0.0
 40
0.0
 40
0.238021281
 40
0.4816794625
 40
1.0
 40
1.0
 40
1.0
 40
1.0
 10
-100.3974791377
 20
57.1546120616
 30
0.0
 10
-100.3468093906
 20
57.1984920178
 30
0.0
 10
-100.2546293152
 20
57.3001207641
 30
0.0
 10
-100.1178792633
 20
57.5485105558
 30
0.0
 10
-100.0804214352
 20
57.7675417031
 30
0.0
 10
-100.0804214352
 20
57.9135053617
 30
0.0
  0
SPLINE
  5
2CF
100
AcDbEntity
  8
0
100
AcDbSpline
 62
7
  6
CONTINUOUS
 70
0
 71
3
 72
11
 73
7
 74
0
 42
0.0000001
 43
0.0000001
 44
0.0000000001
 40
0.0
 40
0.0
 40
0.0
 40
0.0
 40
0.2374168854
 40
0.4804566163
 40
0.733697414
 40
1.0
 40
1.0
 40
1.0
 40
1.0
 10
108.616829113
 20
-67.9826440221
 30
0.0
 10
108.7857249081
 20
-67.8363736501
 30
0.0
 10
109.09300785
 20
-67.497857097
 30
0.0
 10
109.4282592464
 20
-66.8877215366
 30
0.0
 10
109.6311503839
 20
-66.1940472969
 30
0.0
 10
109.6736881749
 20
-65.7036133282
 30
0.0
 10
109.6736881749
 20
-65.4529997496
 30
0.0
  0
SPLINE
  5
2D0
100
AcDbEntity
  8
0
100
AcDbSpline
 62
7
  6
CONTINUOUS
 70
0
 71
3
 72
12
 73
8
 74
0
 42
0.0000001
 43
0.0000001
 44
0.0000000001
 40
0.0
 40
0.0
 40
0.0
 40
0.0
 40
0.2429627279
 40
0.4987255081
 40
0.7576610452
 40
0.8831247391
 40
1.0
 40
1.0
 40
1.0
 40
1.0
 10
-1.5347228497
 20
-36.1586642014
 30
0.0
 10
-1.507242567
 20
-36.1665970967
 30
0.0
 10
-1.4531333527
 20
-36.1900861636
 30
0.0
 10
-1.3781678587
 20
-36.2418324225
 30
0.0
 10
-1.3409594202
 20
-36.3104554817
 30
0.0
 10
-1.3271338296
 20
-36.3680034557
 30
0.0
 10
-1.325808581
 20
-36.3966516965
 30
0.0
 10
-1.325808581
 20
-36.410410646
 30
0.0
  0
SPLINE
  5
2D1
100
AcDbEntity
  8
0
100
AcDbSpline
 62
7
  6
CONTINUOUS
 70
0
 71
3
 72
9
 73
5
 74
0
 42
0.0000001
 43
0.0000001
 44
0.0000000001
 40
0.0
 40
0.0
 40
0.0
 40
0.0
 40
0.5225936284
 40
1.0
 40
1.0
 40
1.0
 40
1.0
 10
-1.325808581
 20
-36.410410646
 30
0.0
 10
-1.325808581
 20
-36.4329892146
 30
0.0
 10
-1.3296136726
 20
-36.4765718635
 30
0.0
 10
-1.3521817106
 20
-36.516459509
 30
0.0
 10
-1.3677736987
 20
-36.5299625659
 30
0.0
  0
SPLINE
  5
2D2
100
AcDbEntity
  8
0
100
AcDbSpline
 62
7
  6
CONTINUOUS
 70
0
 71
3
 72
11
 73
7
 74
0
 42
0.0000001
 43
0.0000001
 44
0.0000000001
 40
0.0
 40
0.0
 40
0.0
 40
0.0
 40
0.2698021741
 40
0.5263429162
 40
0.7683377035
 40
1.0
 40
1.0
 40
1.0
 40
1.0
 10
-1.4999283997
 20
-36.6791909323
 30
0.0
 10
-1.4767953015
 20
-36.6858689966
 30
0.0
 10
-1.4304795737
 20
-36.6951577001
 30
0.0
 10
-1.3615770889
 20
-36.6969130696
 30
0.0
 10
-1.2968243446
 20
-36.6837506141
 30
0.0
 10
-1.2598772655
 20
-36.6611891554
 30
0.0
 10
-1.2442491608
 20
-36.6476548197
 30
0.0
  0
SPLINE
  5
2D3
100
AcDbEntity
  8
0
100
AcDbSpline
 62
7
  6
CONTINUOUS
 70
0
 71
3
 72
15
 73
11
 74
0
 42
0.0000001
 43
0.0000001
 44
0.0000000001
 40
0.0
 40
0.0
 40
0.0
 40
0.0
 40
0.1257258711
 40
0.2585035536
 40
0.3914435232
 40
0.5192789747
 40
0.6436256855
 40
0.7648036705
 40
0.8836287261
 40
1.0
 40
1.0
 40
1.0
 40
1.0
 10
0.1795032537
 20
-36.6474018707
 30
0.0
 10
0.2029275808
 20
-36.6541638915
 30
0.0
 10
0.2490549527
 20
-36.6765102534
 30
0.0
 10
0.3039573965
 20
-36.7302751765
 30
0.0
 10
0.3452739362
 20
-36.7951591957
 30
0.0
 10
0.3713585293
 20
-36.8655748061
 30
0.0
 10
0.3872838949
 20
-36.9362801485
 30
0.0
 10
0.3988145771
 20
-37.006024043
 30
0.0
 10
0.4050994711
 20
-37.0749326685
 30
0.0
 10
0.4054436754
 20
-37.1205693039
 30
0.0
 10
0.4054436754
 20
-37.1431360693
 30
0.0
  0
SPLINE
  5
2D4
100
AcDbEntity
  8
0
100
AcDbSpline
 62
7
  6
CONTINUOUS
 70
0
 71
3
 72
13
 73
9
 74
0
 42
0.0000001
 43
0.0000001
 44
0.0000000001
 40
0.0
 40
0.0
 40
0.0
 40
0.0
 40
0.2632097421
 40
0.518230379
 40
0.6432023518
 40
0.7660927797
 40
0.8843261347
 40
1.0
 40
1.0
 40
1.0
 40
1.0
 10
0.4054436754
 20
-37.1431360693
 30
0.0
 10
0.4054436754
 20
-37.1747475035
 30
0.0
 10
0.4043581553
 20
-37.2370853379
 30
0.0
 10
0.3928524396
 20
-37.313712624
 30
0.0
 10
0.3788247558
 20
-37.3724744984
 30
0.0
 10
0.3654529995
 20
-37.4144470334
 30
0.0
 10
0.3457494225
 20
-37.452884899
 30
0.0
 10
0.3266301301
 20
-37.473983886
 30
0.0
 10
0.3161284526
 20
-37.4830785951
 30
0.0
  0
SPLINE
  5
2D5
100
AcDbEntity
  8
0
100
AcDbSpline
 62
7
  6
CONTINUOUS
 70
0
 71
3
 72
13
 73
9
 74
0
 42
0.0000001
 43
0.0000001
 44
0.0000000001
 40
0.0
 40
0.0
 40
0.0
 40
0.0
 40
0.1163532659
 40
0.2358010896
 40
0.4840643634
 40
0.614794508
 40
0.7473782828
 40
1.0
 40
1.0
 40
1.0
 40
1.0
 10
-0.1909714579
 20
-36.9709658504
 30
0.0
 10
-0.1909714579
 20
-37.0023701731
 30
0.0
 10
-0.1887269998
 20
-37.0661126961
 30
0.0
 10
-0.1711531342
 20
-37.1955153505
 30
0.0
 10
-0.1382933955
 20
-37.3278218413
 30
0.0
 10
-0.0699694381
 20
-37.4488322833
 30
0.0
 10
0.0195078159
 20
-37.5563640206
 30
0.0
 10
0.1139943271
 20
-37.6109984294
 30
0.0
 10
0.1795032537
 20
-37.6299092276
 30
0.0
  0
SPLINE
  5
2D6
100
AcDbEntity
  8
0
100
AcDbSpline
 62
7
  6
CONTINUOUS
 70
0
 71
3
 72
11
 73
7
 74
0
 42
0.0000001
 43
0.0000001
 44
0.0000000001
 40
0.0
 40
0.0
 40
0.0
 40
0.0
 40
0.2706354721
 40
0.5265813991
 40
0.767717938
 40
1.0
 40
1.0
 40
1.0
 40
1.0
 10
0.1795032537
 20
-37.6299092276
 30
0.0
 10
0.2018239224
 20
-37.6363526497
 30
0.0
 10
0.2465184415
 20
-37.6450138338
 30
0.0
 10
0.3129489582
 20
-37.6441428122
 30
0.0
 10
0.374176717
 20
-37.6273941946
 30
0.0
 10
0.408774889
 20
-37.6047569446
 30
0.0
 10
0.4238479024
 20
-37.5917033251
 30
0.0
  0
SPLINE
  5
2D7
100
AcDbEntity
  8
0
100
AcDbSpline
 62
7
  6
CONTINUOUS
 70
0
 71
3
 72
9
 73
5
 74
0
 42
0.0000001
 43
0.0000001
 44
0.0000000001
 40
0.0
 40
0.0
 40
0.0
 40
0.0
 40
0.4895462082
 40
1.0
 40
1.0
 40
1.0
 40
1.0
 10
1.7611296759
 20
-0.8974588254
 30
0.0
 10
1.8145245128
 20
-0.9037615889
 30
0.0
 10
1.9233179778
 20
-0.9213929479
 30
0.0
 10
2.0277686761
 20
-0.9569299435
 30
0.0
 10
2.079735206
 20
-0.9779632803
 30
0.0
  0
SPLINE
  5
2D8
100
AcDbEntity
  8
0
100
AcDbSpline
 62
7
  6
CONTINUOUS
 70
0
 71
3
 72
11
 73
7
 74
0
 42
0.0000001
 43
0.0000001
 44
0.0000000001
 40
0.0
 40
0.0
 40
0.0
 40
0.0
 40
0.2507593195
 40
0.51157245
 40
0.7646208374
 40
1.0
 40
1.0
 40
1.0
 40
1.0
 10
2.079735206
 20
-0.9779632803
 30
0.0
 10
2.1111962068
 20
-0.990697904
 30
0.0
 10
2.1716333161
 20
-1.0263145122
 30
0.0
 10
2.246361185
 20
-1.099593291
 30
0.0
 10
2.296093334
 20
-1.1897248751
 30
0.0
 10
2.3089706501
 20
-1.2559787268
 30
0.0
 10
2.3094666389
 20
-1.2878337536
 30
0.0
  0
SPLINE
  5
2D9
100
AcDbEntity
  8
0
100
AcDbSpline
 62
7
  6
CONTINUOUS
 70
0
 71
3
 72
10
 73
6
 74
0
 42
0.0000001
 43
0.0000001
 44
0.0000000001
 40
0.0
 40
0.0
 40
0.0
 40
0.0
 40
0.5210814055
 40
0.7643435217
 40
1.0
 40
1.0
 40
1.0
 40
1.0
 10
2.3094666389
 20
-1.2878337536
 30
0.0
 10
2.3100132831
 20
-1.3234182203
 30
0.0
 10
2.3061754944
 20
-1.3767534358
 30
0.0
 10
2.2786745233
 20
-1.4400740002
 30
0.0
 10
2.2570828519
 20
-1.46543963
 30
0.0
 10
2.2449163287
 20
-1.4759761477
 30
0.0
  0
SPLINE
  5
2DA
100
AcDbEntity
  8
0
100
AcDbSpline
 62
7
  6
CONTINUOUS
 70
0
 71
3
 72
13
 73
9
 74
0
 42
0.0000001
 43
0.0000001
 44
0.0000000001
 40
0.0
 40
0.0
 40
0.0
 40
0.0
 40
0.1318867533
 40
0.2595678197
 40
0.3844562449
 40
0.5084473405
 40
0.7551143135
 40
1.0
 40
1.0
 40
1.0
 40
1.0
 10
2.4151425136
 20
-1.7816889408
 30
0.0
 10
2.4221354643
 20
-1.7828053156
 30
0.0
 10
2.4362811175
 20
-1.7796624364
 30
0.0
 10
2.4557851648
 20
-1.7735131221
 30
0.0
 10
2.4747840334
 20
-1.7663969617
 30
0.0
 10
2.4988336895
 20
-1.7549857486
 30
0.0
 10
2.5271343878
 20
-1.7377333693
 30
0.0
 10
2.5480893483
 20
-1.7215946431
 30
0.0
 10
2.5580289392
 20
-1.712986705
 30
0.0
  0
SPLINE
  5
2DB
100
AcDbEntity
  8
0
100
AcDbSpline
 62
7
  6
CONTINUOUS
 70
0
 71
3
 72
9
 73
5
 74
0
 42
0.0000001
 43
0.0000001
 44
0.0000000001
 40
0.0
 40
0.0
 40
0.0
 40
0.0
 40
0.4944561017
 40
1.0
 40
1.0
 40
1.0
 40
1.0
 10
1.9926727786
 20
-1.8182389402
 30
0.0
 10
2.0462236634
 20
-1.833697749
 30
0.0
 10
2.1463697713
 20
-1.8988633545
 30
0.0
 10
2.2012929498
 20
-2.0014317822
 30
0.0
 10
2.2195698247
 20
-2.0554088098
 30
0.0
  0
SPLINE
  5
2DC
100
AcDbEntity
  8
0
100
AcDbSpline
 62
7
  6
CONTINUOUS
 70
0
 71
3
 72
11
 73
7
 74
0
 42
0.0000001
 43
0.0000001
 44
0.0000000001
 40
0.0
 40
0.0
 40
0.0
 40
0.0
 40
0.2509902286
 40
0.5009356852
 40
0.7505820716
 40
1.0
 40
1.0
 40
1.0
 40
1.0
 10
2.2195698247
 20
-2.0554088098
 30
0.0
 10
2.2374643596
 20
-2.1082061239
 30
0.0
 10
2.2662593283
 20
-2.2157893099
 30
0.0
 10
2.3111325031
 20
-2.3763061477
 30
0.0
 10
2.3545367927
 20
-2.5369196837
 30
0.0
 10
2.3831914144
 20
-2.6439963824
 30
0.0
 10
2.3974056807
 20
-2.6975399234
 30
0.0
  0
SPLINE
  5
2DD
100
AcDbEntity
  8
0
100
AcDbSpline
 62
7
  6
CONTINUOUS
 70
0
 71
3
 72
13
 73
9
 74
0
 42
0.0000001
 43
0.0000001
 44
0.0000000001
 40
0.0
 40
0.0
 40
0.0
 40
0.0
 40
0.1163532659
 40
0.2358010896
 40
0.4840643634
 40
0.614794508
 40
0.7473782828
 40
1.0
 40
1.0
 40
1.0
 40
1.0
 10
0.5499779653
 20
-37.1848595249
 30
0.0
 10
0.5499779653
 20
-37.1534552021
 30
0.0
 10
0.5477335073
 20
-37.0897126791
 30
0.0
 10
0.5301596416
 20
-36.9603100247
 30
0.0
 10
0.4972999029
 20
-36.8280035339
 30
0.0
 10
0.4289759456
 20
-36.7069930919
 30
0.0
 10
0.3394986915
 20
-36.5994613546
 30
0.0
 10
0.2450121804
 20
-36.5448269459
 30
0.0
 10
0.1795032537
 20
-36.5259161476
 30
0.0
  0
SPLINE
  5
2DE
100
AcDbEntity
  8
0
100
AcDbSpline
 62
7
  6
CONTINUOUS
 70
0
 71
3
 72
9
 73
5
 74
0
 42
0.0000001
 43
0.0000001
 44
0.0000000001
 40
0.0
 40
0.0
 40
0.0
 40
0.0
 40
0.518715358
 40
1.0
 40
1.0
 40
1.0
 40
1.0
 10
99.586463179
 20
1.1550997321
 30
0.0
 10
99.586463179
 20
1.2238591592
 30
0.0
 10
99.605592936
 20
1.3577305319
 30
0.0
 10
99.6718120213
 20
1.4769500748
 30
0.0
 10
99.7135670577
 20
1.5251855988
 30
0.0
  0
SPLINE
  5
2DF
100
AcDbEntity
  8
0
100
AcDbSpline
 62
7
  6
CONTINUOUS
 70
0
 71
3
 72
9
 73
5
 74
0
 42
0.0000001
 43
0.0000001
 44
0.0000000001
 40
0.0
 40
0.0
 40
0.0
 40
0.0
 40
0.5155990589
 40
1.0
 40
1.0
 40
1.0
 40
1.0
 10
98.6643960314
 20
1.0315661583
 30
0.0
 10
98.6643960314
 20
1.1279556337
 30
0.0
 10
98.6851967691
 20
1.3158222104
 30
0.0
 10
98.7547819394
 20
1.4923874329
 30
0.0
 10
98.8002466877
 20
1.5707043786
 30
0.0
  0
SPLINE
  5
2E0
100
AcDbEntity
  8
0
100
AcDbSpline
 62
7
  6
CONTINUOUS
 70
0
 71
3
 72
14
 73
10
 74
0
 42
0.0000001
 43
0.0000001
 44
0.0000000001
 40
0.0
 40
0.0
 40
0.0
 40
0.0
 40
0.2538696533
 40
0.3905834873
 40
0.527076746
 40
0.6585665008
 40
0.7814751356
 40
0.8945907033
 40
1.0
 40
1.0
 40
1.0
 40
1.0
 10
99.586463179
 20
1.1550997321
 30
0.0
 10
99.586463179
 20
1.0081119857
 30
0.0
 10
99.6563360139
 20
0.7800664258
 30
0.0
 10
99.8335983245
 20
0.5305407461
 30
0.0
 10
100.0080155161
 20
0.3709152848
 30
0.0
 10
100.2064257741
 20
0.2579483672
 30
0.0
 10
100.4140276748
 20
0.2006082212
 30
0.0
 10
100.6148747895
 20
0.2049126376
 30
0.0
 10
100.7359501763
 20
0.2521731968
 30
0.0
 10
100.7873362065
 20
0.2851009629
 30
0.0
  0
SPLINE
  5
2E1
100
AcDbEntity
  8
0
100
AcDbSpline
 62
7
  6
CONTINUOUS
 70
0
 71
3
 72
14
 73
10
 74
0
 42
0.0000001
 43
0.0000001
 44
0.0000000001
 40
0.0
 40
0.0
 40
0.0
 40
0.0
 40
0.2502850554
 40
0.3850458231
 40
0.5204684794
 40
0.6522900921
 40
0.7769938971
 40
0.8927020572
 40
1.0
 40
1.0
 40
1.0
 40
1.0
 10
98.6643960314
 20
1.0315661583
 30
0.0
 10
98.6643960314
 20
0.7815716559
 30
0.0
 10
98.7756286351
 20
0.3938491607
 30
0.0
 10
99.0628390978
 20
-0.0411496852
 30
0.0
 10
99.3483415
 20
-0.3279972394
 30
0.0
 10
99.6779474619
 20
-0.5445160107
 30
0.0
 10
100.0296450505
 20
-0.6758235902
 30
0.0
 10
100.3793721115
 20
-0.7113794479
 30
0.0
 10
100.6021716288
 20
-0.6654151256
 30
0.0
 10
100.7016139917
 20
-0.6254482612
 30
0.0
  0
SPLINE
  5
2E2
100
AcDbEntity
  8
0
100
AcDbSpline
 62
7
  6
CONTINUOUS
 70
0
 71
3
 72
10
 73
6
 74
0
 42
0.0000001
 43
0.0000001
 44
0.0000000001
 40
0.0
 40
0.0
 40
0.0
 40
0.0
 40
0.2328747078
 40
0.4750081353
 40
1.0
 40
1.0
 40
1.0
 40
1.0
 10
-0.0480364719
 20
-36.5496596962
 30
0.0
 10
-0.0329834004
 20
-36.537258589
 30
0.0
 10
0.0014460371
 20
-36.5159781741
 30
0.0
 10
0.0835043603
 20
-36.4950234834
 30
0.0
 10
0.1497598002
 20
-36.5028961954
 30
0.0
 10
0.1920032537
 20
-36.5150908301
 30
0.0
  0
SPLINE
  5
2E3
100
AcDbEntity
  8
0
100
AcDbSpline
 62
7
  6
CONTINUOUS
 70
0
 71
3
 72
14
 73
10
 74
0
 42
0.0000001
 43
0.0000001
 44
0.0000000001
 40
0.0
 40
0.0
 40
0.0
 40
0.0
 40
0.2564723598
 40
0.3945423494
 40
0.5316430511
 40
0.6626316924
 40
0.7840107805
 40
0.8953103029
 40
1.0
 40
1.0
 40
1.0
 40
1.0
 10
-102.6784976466
 20
58.6635053617
 30
0.0
 10
-102.6784976466
 20
58.3833104258
 30
0.0
 10
-102.5389436061
 20
57.9485715267
 30
0.0
 10
-102.1895469493
 20
57.482261012
 30
0.0
 10
-101.8485508048
 20
57.1914493102
 30
0.0
 10
-101.4651335606
 20
56.9972342793
 30
0.0
 10
-101.0701778187
 20
56.916888462
 30
0.0
 10
-100.6969074539
 20
56.9617521107
 30
0.0
 10
-100.4839381524
 20
57.0797386311
 30
0.0
 10
-100.3974791377
 20
57.1546120616
 30
0.0
  0
SPLINE
  5
2E4
100
AcDbEntity
  8
0
100
AcDbSpline
 62
7
  6
CONTINUOUS
 70
0
 71
3
 72
10
 73
6
 74
0
 42
0.0000001
 43
0.0000001
 44
0.0000000001
 40
0.0
 40
0.0
 40
0.0
 40
0.0
 40
0.5183205375
 40
0.761978719
 40
1.0
 40
1.0
 40
1.0
 40
1.0
 10
98.2393960314
 20
0.6635053617
 30
0.0
 10
98.2393960314
 20
0.8094690203
 30
0.0
 10
98.2768538596
 20
1.0285001676
 30
0.0
 10
98.4136039114
 20
1.2768899593
 30
0.0
 10
98.5057839868
 20
1.3785187056
 30
0.0
 10
98.5564537339
 20
1.4223986618
 30
0.0
  0
SPLINE
  5
2E5
100
AcDbEntity
  8
0
100
AcDbSpline
 62
7
  6
CONTINUOUS
 70
0
 71
3
 72
10
 73
6
 74
0
 42
0.0000001
 43
0.0000001
 44
0.0000000001
 40
0.0
 40
0.0
 40
0.0
 40
0.0
 40
0.5183205375
 40
0.761978719
 40
1.0
 40
1.0
 40
1.0
 40
1.0
 10
-102.6784976466
 20
-1.5252602013
 30
0.0
 10
-102.6784976466
 20
-1.3792965427
 30
0.0
 10
-102.6410398184
 20
-1.1602653954
 30
0.0
 10
-102.5042897666
 20
-0.9118756037
 30
0.0
 10
-102.4121096912
 20
-0.8102468574
 30
0.0
 10
-102.3614399441
 20
-0.7663669012
 30
0.0
  0
SPLINE
  5
2E6
100
AcDbEntity
  8
0
100
AcDbSpline
 62
7
  6
CONTINUOUS
 70
0
 71
3
 72
14
 73
10
 74
0
 42
0.0000001
 43
0.0000001
 44
0.0000000001
 40
0.0
 40
0.0
 40
0.0
 40
0.0
 40
0.2564723598
 40
0.3945423494
 40
0.5316430511
 40
0.6626316924
 40
0.7840107805
 40
0.8953103029
 40
1.0
 40
1.0
 40
1.0
 40
1.0
 10
98.2393960314
 20
-59.5252602013
 30
0.0
 10
98.2393960314
 20
-59.8054551372
 30
0.0
 10
98.3789500719
 20
-60.2401940363
 30
0.0
 10
98.7283467287
 20
-60.706504551
 30
0.0
 10
99.0693428732
 20
-60.9973162528
 30
0.0
 10
99.4527601174
 20
-61.1915312837
 30
0.0
 10
99.8477158593
 20
-61.2718771011
 30
0.0
 10
100.2209862241
 20
-61.2270134523
 30
0.0
 10
100.4339555256
 20
-61.1090269319
 30
0.0
 10
100.5204145403
 20
-61.0341535014
 30
0.0
  0
SPLINE
  5
2E7
100
AcDbEntity
  8
0
100
AcDbSpline
 62
7
  6
CONTINUOUS
 70
0
 71
3
 72
14
 73
10
 74
0
 42
0.0000001
 43
0.0000001
 44
0.0000000001
 40
0.0
 40
0.0
 40
0.0
 40
0.0
 40
0.2564723598
 40
0.3945423494
 40
0.5316430511
 40
0.6626316924
 40
0.7840107805
 40
0.8953103029
 40
1.0
 40
1.0
 40
1.0
 40
1.0
 10
-36.8605669589
 20
39.6635053617
 30
0.0
 10
-36.8605669589
 20
39.3833104258
 30
0.0
 10
-36.7210129184
 20
38.9485715267
 30
0.0
 10
-36.3716162617
 20
38.482261012
 30
0.0
 10
-36.0306201172
 20
38.1914493102
 30
0.0
 10
-35.647202873
 20
37.9972342793
 30
0.0
 10
-35.2522471311
 20
37.916888462
 30
0.0
 10
-34.8789767663
 20
37.9617521107
 30
0.0
 10
-34.6660074648
 20
38.0797386311
 30
0.0
 10
-34.5795484501
 20
38.1546120616
 30
0.0
  0
SPLINE
  5
2E8
100
AcDbEntity
  8
0
100
AcDbSpline
 62
7
  6
CONTINUOUS
 70
0
 71
3
 72
14
 73
10
 74
0
 42
0.0000001
 43
0.0000001
 44
0.0000000001
 40
0.0
 40
0.0
 40
0.0
 40
0.0
 40
0.2538696533
 40
0.3905834873
 40
0.527076746
 40
0.6585665008
 40
0.7814751356
 40
0.8945907033
 40
1.0
 40
1.0
 40
1.0
 40
1.0
 10
99.586463179
 20
-59.0336658309
 30
0.0
 10
99.586463179
 20
-59.1806535773
 30
0.0
 10
99.6563360139
 20
-59.4086991372
 30
0.0
 10
99.8335983245
 20
-59.658224817
 30
0.0
 10
100.0080155161
 20
-59.8178502782
 30
0.0
 10
100.2064257741
 20
-59.9308171958
 30
0.0
 10
100.4140276748
 20
-59.9881573418
 30
0.0
 10
100.6148747895
 20
-59.9838529255
 30
0.0
 10
100.7359501763
 20
-59.9365923662
 30
0.0
 10
100.7873362065
 20
-59.9036646001
 30
0.0
  0
SPLINE
  5
2E9
100
AcDbEntity
  8
0
100
AcDbSpline
 62
7
  6
CONTINUOUS
 70
0
 71
3
 72
14
 73
10
 74
0
 42
0.0000001
 43
0.0000001
 44
0.0000000001
 40
0.0
 40
0.0
 40
0.0
 40
0.0
 40
0.2502850554
 40
0.3850458231
 40
0.5204684794
 40
0.6522900921
 40
0.7769938971
 40
0.8927020572
 40
1.0
 40
1.0
 40
1.0
 40
1.0
 10
98.6643960314
 20
-59.1571994047
 30
0.0
 10
98.6643960314
 20
-59.4071939071
 30
0.0
 10
98.7756286351
 20
-59.7949164024
 30
0.0
 10
99.0628390978
 20
-60.2299152482
 30
0.0
 10
99.3483415
 20
-60.5167628025
 30
0.0
 10
99.6779474619
 20
-60.7332815737
 30
0.0
 10
100.0296450505
 20
-60.8645891532
 30
0.0
 10
100.3793721115
 20
-60.9001450109
 30
0.0
 10
100.6021716288
 20
-60.8541806886
 30
0.0
 10
100.7016139917
 20
-60.8142138242
 30
0.0
  0
SPLINE
  5
2EA
100
AcDbEntity
  8
0
100
AcDbSpline
 62
7
  6
CONTINUOUS
 70
0
 71
3
 72
9
 73
5
 74
0
 42
0.0000001
 43
0.0000001
 44
0.0000000001
 40
0.0
 40
0.0
 40
0.0
 40
0.0
 40
0.518715358
 40
1.0
 40
1.0
 40
1.0
 40
1.0
 10
99.586463179
 20
-59.0336658309
 30
0.0
 10
99.586463179
 20
-58.9649064038
 30
0.0
 10
99.605592936
 20
-58.8310350311
 30
0.0
 10
99.6718120213
 20
-58.7118154883
 30
0.0
 10
99.7135670577
 20
-58.6635799642
 30
0.0
  0
SPLINE
  5
2EB
100
AcDbEntity
  8
0
100
AcDbSpline
 62
7
  6
CONTINUOUS
 70
0
 71
3
 72
9
 73
5
 74
0
 42
0.0000001
 43
0.0000001
 44
0.0000000001
 40
0.0
 40
0.0
 40
0.0
 40
0.0
 40
0.5155990589
 40
1.0
 40
1.0
 40
1.0
 40
1.0
 10
98.6643960314
 20
-59.1571994047
 30
0.0
 10
98.6643960314
 20
-59.0608099294
 30
0.0
 10
98.6851967691
 20
-58.8729433526
 30
0.0
 10
98.7547819394
 20
-58.6963781301
 30
0.0
 10
98.8002466877
 20
-58.6180611844
 30
0.0
  0
SPLINE
  5
2EC
100
AcDbEntity
  8
0
100
AcDbSpline
 62
7
  6
CONTINUOUS
 70
0
 71
3
 72
9
 73
5
 74
0
 42
0.0000001
 43
0.0000001
 44
0.0000000001
 40
0.0
 40
0.0
 40
0.0
 40
0.0
 40
0.47484285
 40
1.0
 40
1.0
 40
1.0
 40
1.0
 10
2.222016644
 20
-1.4881680088
 30
0.0
 10
2.1906352026
 20
-1.5028719527
 30
0.0
 10
2.1150137665
 20
-1.5118357219
 30
0.0
 10
2.0430858247
 20
-1.4984432725
 30
0.0
 10
2.0060493931
 20
-1.4885790113
 30
0.0
  0
SPLINE
  5
2ED
100
AcDbEntity
  8
0
100
AcDbSpline
 62
7
  6
CONTINUOUS
 70
0
 71
3
 72
10
 73
6
 74
0
 42
0.0000001
 43
0.0000001
 44
0.0000000001
 40
0.0
 40
0.0
 40
0.0
 40
0.0
 40
0.5183205375
 40
0.761978719
 40
1.0
 40
1.0
 40
1.0
 40
1.0
 10
32.4214653438
 20
19.6635053617
 30
0.0
 10
32.4214653438
 20
19.8094690203
 30
0.0
 10
32.4589231719
 20
20.0285001676
 30
0.0
 10
32.5956732238
 20
20.2768899593
 30
0.0
 10
32.6878532992
 20
20.3785187056
 30
0.0
 10
32.7385230463
 20
20.4223986618
 30
0.0
  0
SPLINE
  5
2EE
100
AcDbEntity
  8
0
100
AcDbSpline
 62
7
  6
CONTINUOUS
 70
0
 71
3
 72
10
 73
6
 74
0
 42
0.0000001
 43
0.0000001
 44
0.0000000001
 40
0.0
 40
0.0
 40
0.0
 40
0.0
 40
0.5183205375
 40
0.761978719
 40
1.0
 40
1.0
 40
1.0
 40
1.0
 10
-36.8605669589
 20
-20.5252602013
 30
0.0
 10
-36.8605669589
 20
-20.3792965427
 30
0.0
 10
-36.8231091308
 20
-20.1602653954
 30
0.0
 10
-36.686359079
 20
-19.9118756037
 30
0.0
 10
-36.5941790035
 20
-19.8102468574
 30
0.0
 10
-36.5435092565
 20
-19.7663669012
 30
0.0
  0
SPLINE
  5
2EF
100
AcDbEntity
  8
0
100
AcDbSpline
 62
7
  6
CONTINUOUS
 70
0
 71
3
 72
11
 73
7
 74
0
 42
0.0000001
 43
0.0000001
 44
0.0000000001
 40
0.0
 40
0.0
 40
0.0
 40
0.0
 40
0.2277506502
 40
0.469592673
 40
0.7301882618
 40
1.0
 40
1.0
 40
1.0
 40
1.0
 10
2.2449163287
 20
-1.4759761477
 30
0.0
 10
2.2298939268
 20
-1.4889859287
 30
0.0
 10
2.1930610654
 20
-1.5095885142
 30
0.0
 10
2.1292590096
 20
-1.5193428838
 30
0.0
 10
2.0617120813
 20
-1.5150709771
 30
0.0
 10
2.0162991998
 20
-1.5054634989
 30
0.0
 10
1.9935493931
 20
-1.4994043289
 30
0.0
  0
SPLINE
  5
2F0
100
AcDbEntity
  8
0
100
AcDbSpline
 62
7
  6
CONTINUOUS
 70
0
 71
3
 72
14
 73
10
 74
0
 42
0.0000001
 43
0.0000001
 44
0.0000000001
 40
0.0
 40
0.0
 40
0.0
 40
0.0
 40
0.2502850554
 40
0.3850458231
 40
0.5204684794
 40
0.6522900921
 40
0.7769938971
 40
0.8927020572
 40
1.0
 40
1.0
 40
1.0
 40
1.0
 10
-36.4355669589
 20
40.0315661583
 30
0.0
 10
-36.4355669589
 20
39.7815716559
 30
0.0
 10
-36.3243343552
 20
39.3938491607
 30
0.0
 10
-36.0371238925
 20
38.9588503148
 30
0.0
 10
-35.7516214904
 20
38.6720027606
 30
0.0
 10
-35.4220155285
 20
38.4554839893
 30
0.0
 10
-35.0703179398
 20
38.3241764098
 30
0.0
 10
-34.7205908789
 20
38.2886205521
 30
0.0
 10
-34.4977913615
 20
38.3345848744
 30
0.0
 10
-34.3983489986
 20
38.3745517388
 30
0.0
  0
SPLINE
  5
2F1
100
AcDbEntity
  8
0
100
AcDbSpline
 62
7
  6
CONTINUOUS
 70
0
 71
3
 72
14
 73
10
 74
0
 42
0.0000001
 43
0.0000001
 44
0.0000000001
 40
0.0
 40
0.0
 40
0.0
 40
0.0
 40
0.2538696533
 40
0.3905834873
 40
0.527076746
 40
0.6585665008
 40
0.7814751356
 40
0.8945907033
 40
1.0
 40
1.0
 40
1.0
 40
1.0
 10
-35.5134998114
 20
40.1550997321
 30
0.0
 10
-35.5134998114
 20
40.0081119857
 30
0.0
 10
-35.4436269764
 20
39.7800664258
 30
0.0
 10
-35.2663646658
 20
39.5305407461
 30
0.0
 10
-35.0919474743
 20
39.3709152848
 30
0.0
 10
-34.8935372162
 20
39.2579483672
 30
0.0
 10
-34.6859353156
 20
39.2006082212
 30
0.0
 10
-34.4850882008
 20
39.2049126376
 30
0.0
 10
-34.3640128141
 20
39.2521731968
 30
0.0
 10
-34.3126267839
 20
39.2851009629
 30
0.0
  0
SPLINE
  5
2F2
100
AcDbEntity
  8
0
100
AcDbSpline
 62
7
  6
CONTINUOUS
 70
0
 71
3
 72
9
 73
5
 74
0
 42
0.0000001
 43
0.0000001
 44
0.0000000001
 40
0.0
 40
0.0
 40
0.0
 40
0.0
 40
0.5155990589
 40
1.0
 40
1.0
 40
1.0
 40
1.0
 10
-36.4355669589
 20
40.0315661583
 30
0.0
 10
-36.4355669589
 20
40.1279556337
 30
0.0
 10
-36.4147662213
 20
40.3158222104
 30
0.0
 10
-36.345181051
 20
40.4923874329
 30
0.0
 10
-36.2997163026
 20
40.5707043786
 30
0.0
  0
SPLINE
  5
2F3
100
AcDbEntity
  8
0
100
AcDbSpline
 62
7
  6
CONTINUOUS
 70
0
 71
3
 72
9
 73
5
 74
0
 42
0.0000001
 43
0.0000001
 44
0.0000000001
 40
0.0
 40
0.0
 40
0.0
 40
0.0
 40
0.518715358
 40
1.0
 40
1.0
 40
1.0
 40
1.0
 10
-35.5134998114
 20
40.1550997321
 30
0.0
 10
-35.5134998114
 20
40.2238591592
 30
0.0
 10
-35.4943700544
 20
40.3577305319
 30
0.0
 10
-35.4281509691
 20
40.4769500748
 30
0.0
 10
-35.3863959326
 20
40.5251855988
 30
0.0
  0
SPLINE
  5
2F4
100
AcDbEntity
  8
0
100
AcDbSpline
 62
7
  6
CONTINUOUS
 70
0
 71
3
 72
14
 73
10
 74
0
 42
0.0000001
 43
0.0000001
 44
0.0000000001
 40
0.0
 40
0.0
 40
0.0
 40
0.0
 40
0.2564723598
 40
0.3945423494
 40
0.5316430511
 40
0.6626316924
 40
0.7840107805
 40
0.8953103029
 40
1.0
 40
1.0
 40
1.0
 40
1.0
 10
32.4214653438
 20
-40.5252602013
 30
0.0
 10
32.4214653438
 20
-40.8054551372
 30
0.0
 10
32.5610193843
 20
-41.2401940363
 30
0.0
 10
32.910416041
 20
-41.706504551
 30
0.0
 10
33.2514121856
 20
-41.9973162528
 30
0.0
 10
33.6348294298
 20
-42.1915312837
 30
0.0
 10
34.0297851717
 20
-42.2718771011
 30
0.0
 10
34.4030555364
 20
-42.2270134523
 30
0.0
 10
34.6160248379
 20
-42.1090269319
 30
0.0
 10
34.7024838527
 20
-42.0341535014
 30
0.0
  0
SPLINE
  5
2F5
100
AcDbEntity
  8
RACCORDO
100
AcDbSpline
 62
250
  6
CONTINUOUS
 70
0
 71
3
 72
13
 73
9
 74
0
 42
0.0000001
 43
0.0000001
 44
0.0000000001
 40
0.0
 40
0.0
 40
0.0
 40
0.0
 40
0.2376483377
 40
0.3645776824
 40
0.4944049631
 40
0.6250313013
 40
0.7542742132
 40
1.0
 40
1.0
 40
1.0
 40
1.0
 10
-109.1736881749
 20
-3.9803872202
 30
0.0
 10
-109.1736881749
 20
-4.4558407251
 30
0.0
 10
-109.0230184186
 20
-5.1897776556
 30
0.0
 10
-108.6040223943
 20
-6.0877105638
 30
0.0
 10
-108.1732642319
 20
-6.7358444011
 30
0.0
 10
-107.6491445204
 20
-7.3171682739
 30
0.0
 10
-106.8679251018
 20
-7.9626580134
 30
0.0
 10
-106.1819137571
 20
-8.3081397181
 30
0.0
 10
-105.7095865598
 20
-8.4444888354
 30
0.0
  0
SPLINE
  5
2F6
100
AcDbEntity
  8
RACCORDO
100
AcDbSpline
 62
250
  6
CONTINUOUS
 70
0
 71
3
 72
15
 73
11
 74
0
 42
0.0000001
 43
0.0000001
 44
0.0000000001
 40
0.0
 40
0.0
 40
0.0
 40
0.0
 40
0.1369983537
 40
0.2664266372
 40
0.3892465764
 40
0.5076598296
 40
0.624810858
 40
0.744133923
 40
0.8685703958
 40
1.0
 40
1.0
 40
1.0
 40
1.0
 10
-105.7095865598
 20
67.3327339958
 30
0.0
 10
-105.9298988573
 20
67.3963326779
 30
0.0
 10
-106.3706306551
 20
67.482649511
 30
0.0
 10
-107.0269391021
 20
67.4770282548
 30
0.0
 10
-107.6360559465
 20
67.3309966055
 30
0.0
 10
-108.1725030938
 20
67.047880985
 30
0.0
 10
-108.6123977054
 20
66.6384165156
 30
0.0
 10
-108.9364832419
 20
66.1208329359
 30
0.0
 10
-109.132765593
 20
65.5185379735
 30
0.0
 10
-109.1736881749
 20
65.0886196982
 30
0.0
 10
-109.1736881749
 20
64.8686323806
 30
0.0
  0
SPLINE
  5
2F7
100
AcDbEntity
  8
RACCORDO
100
AcDbSpline
 62
250
  6
CONTINUOUS
 70
0
 71
3
 72
13
 73
9
 74
0
 42
0.0000001
 43
0.0000001
 44
0.0000000001
 40
0.0
 40
0.0
 40
0.0
 40
0.0
 40
0.2376483377
 40
0.3645776824
 40
0.4944049631
 40
0.6250313013
 40
0.7542742132
 40
1.0
 40
1.0
 40
1.0
 40
1.0
 10
107.3326627712
 20
2.3686323806
 30
0.0
 10
107.3326627712
 20
2.8440858855
 30
0.0
 10
107.1819930148
 20
3.578022816
 30
0.0
 10
106.7629969905
 20
4.4759557242
 30
0.0
 10
106.3322388281
 20
5.1240895615
 30
0.0
 10
105.8081191166
 20
5.7054134343
 30
0.0
 10
105.026899698
 20
6.3509031738
 30
0.0
 10
104.3408883533
 20
6.6963848785
 30
0.0
 10
103.868561156
 20
6.8327339958
 30
0.0
  0
SPLINE
  5
2F8
100
AcDbEntity
  8
RACCORDO
100
AcDbSpline
 62
250
  6
CONTINUOUS
 70
0
 71
3
 72
15
 73
11
 74
0
 42
0.0000001
 43
0.0000001
 44
0.0000000001
 40
0.0
 40
0.0
 40
0.0
 40
0.0
 40
0.1369983537
 40
0.2664266372
 40
0.3892465764
 40
0.5076598296
 40
0.624810858
 40
0.744133923
 40
0.8685703958
 40
1.0
 40
1.0
 40
1.0
 40
1.0
 10
103.868561156
 20
-68.9444888354
 30
0.0
 10
104.0888734536
 20
-69.0080875175
 30
0.0
 10
104.5296052513
 20
-69.0944043506
 30
0.0
 10
105.1859136983
 20
-69.0887830944
 30
0.0
 10
105.7950305427
 20
-68.9427514451
 30
0.0
 10
106.33147769
 20
-68.6596358246
 30
0.0
 10
106.7713723016
 20
-68.2501713552
 30
0.0
 10
107.0954578381
 20
-67.7325877755
 30
0.0
 10
107.2917401892
 20
-67.1302928131
 30
0.0
 10
107.3326627712
 20
-66.7003745378
 30
0.0
 10
107.3326627712
 20
-66.4803872202
 30
0.0
  0
SPLINE
  5
2F9
100
AcDbEntity
  8
0
100
AcDbSpline
 62
7
  6
CONTINUOUS
 70
0
 71
3
 72
8
 73
4
 74
0
 42
0.0000001
 43
0.0000001
 44
0.0000000001
 40
0.0
 40
0.0
 40
0.0
 40
0.0
 40
1.0
 40
1.0
 40
1.0
 40
1.0
 10
2.8010948892
 20
-2.7996412033
 30
0.0
 10
2.7535324607
 20
-2.6107898884
 30
0.0
 10
2.7097556222
 20
-2.4209976468
 30
0.0
 10
2.6620638338
 20
-2.2321789585
 30
0.0
  0
SPLINE
  5
2FA
100
AcDbEntity
  8
0
100
AcDbSpline
 62
7
  6
CONTINUOUS
 70
0
 71
3
 72
10
 73
6
 74
0
 42
0.0000001
 43
0.0000001
 44
0.0000000001
 40
0.0
 40
0.0
 40
0.0
 40
0.0
 40
0.4874074624
 40
0.7420393214
 40
1.0
 40
1.0
 40
1.0
 40
1.0
 10
2.6620638338
 20
-2.2321789585
 30
0.0
 10
2.6414629035
 20
-2.1506128454
 30
0.0
 10
2.6099680947
 20
-2.0254091062
 30
0.0
 10
2.5277077899
 20
-1.8722312727
 30
0.0
 10
2.4643338548
 20
-1.8075990436
 30
0.0
 10
2.4276425136
 20
-1.7823764934
 30
0.0
  0
SPLINE
  5
2FB
100
AcDbEntity
  8
0
100
AcDbSpline
 62
7
  6
CONTINUOUS
 70
0
 71
3
 72
9
 73
5
 74
0
 42
0.0000001
 43
0.0000001
 44
0.0000000001
 40
0.0
 40
0.0
 40
0.0
 40
0.0
 40
0.5155990589
 40
1.0
 40
1.0
 40
1.0
 40
1.0
 10
-36.4355669589
 20
-20.1571994047
 30
0.0
 10
-36.4355669589
 20
-20.0608099294
 30
0.0
 10
-36.4147662213
 20
-19.8729433526
 30
0.0
 10
-36.345181051
 20
-19.6963781301
 30
0.0
 10
-36.2997163026
 20
-19.6180611844
 30
0.0
  0
SPLINE
  5
2FC
100
AcDbEntity
  8
0
100
AcDbSpline
 62
7
  6
CONTINUOUS
 70
0
 71
3
 72
9
 73
5
 74
0
 42
0.0000001
 43
0.0000001
 44
0.0000000001
 40
0.0
 40
0.0
 40
0.0
 40
0.0
 40
0.518715358
 40
1.0
 40
1.0
 40
1.0
 40
1.0
 10
-35.5134998114
 20
-20.0336658309
 30
0.0
 10
-35.5134998114
 20
-19.9649064038
 30
0.0
 10
-35.4943700544
 20
-19.8310350311
 30
0.0
 10
-35.4281509691
 20
-19.7118154883
 30
0.0
 10
-35.3863959326
 20
-19.6635799642
 30
0.0
  0
SPLINE
  5
2FD
100
AcDbEntity
  8
0
100
AcDbSpline
 62
7
  6
CONTINUOUS
 70
0
 71
3
 72
14
 73
10
 74
0
 42
0.0000001
 43
0.0000001
 44
0.0000000001
 40
0.0
 40
0.0
 40
0.0
 40
0.0
 40
0.2502850554
 40
0.3850458231
 40
0.5204684794
 40
0.6522900921
 40
0.7769938971
 40
0.8927020572
 40
1.0
 40
1.0
 40
1.0
 40
1.0
 10
-36.4355669589
 20
-20.1571994047
 30
0.0
 10
-36.4355669589
 20
-20.4071939071
 30
0.0
 10
-36.3243343552
 20
-20.7949164024
 30
0.0
 10
-36.0371238925
 20
-21.2299152482
 30
0.0
 10
-35.7516214904
 20
-21.5167628025
 30
0.0
 10
-35.4220155285
 20
-21.7332815737
 30
0.0
 10
-35.0703179398
 20
-21.8645891532
 30
0.0
 10
-34.7205908789
 20
-21.9001450109
 30
0.0
 10
-34.4977913615
 20
-21.8541806886
 30
0.0
 10
-34.3983489986
 20
-21.8142138242
 30
0.0
  0
SPLINE
  5
2FE
100
AcDbEntity
  8
0
100
AcDbSpline
 62
7
  6
CONTINUOUS
 70
0
 71
3
 72
14
 73
10
 74
0
 42
0.0000001
 43
0.0000001
 44
0.0000000001
 40
0.0
 40
0.0
 40
0.0
 40
0.0
 40
0.2538696533
 40
0.3905834873
 40
0.527076746
 40
0.6585665008
 40
0.7814751356
 40
0.8945907033
 40
1.0
 40
1.0
 40
1.0
 40
1.0
 10
-35.5134998114
 20
-20.0336658309
 30
0.0
 10
-35.5134998114
 20
-20.1806535773
 30
0.0
 10
-35.4436269764
 20
-20.4086991372
 30
0.0
 10
-35.2663646658
 20
-20.658224817
 30
0.0
 10
-35.0919474743
 20
-20.8178502782
 30
0.0
 10
-34.8935372162
 20
-20.9308171958
 30
0.0
 10
-34.6859353156
 20
-20.9881573418
 30
0.0
 10
-34.4850882008
 20
-20.9838529255
 30
0.0
 10
-34.3640128141
 20
-20.9365923662
 30
0.0
 10
-34.3126267839
 20
-20.9036646001
 30
0.0
  0
SPLINE
  5
2FF
100
AcDbEntity
  8
0
100
AcDbSpline
 62
7
  6
CONTINUOUS
 70
0
 71
3
 72
15
 73
11
 74
0
 42
0.0000001
 43
0.0000001
 44
0.0000000001
 40
0.0
 40
0.0
 40
0.0
 40
0.0
 40
0.1052914613
 40
0.2151907847
 40
0.3319551088
 40
0.4555726606
 40
0.5861921737
 40
0.7225672817
 40
0.8618366099
 40
1.0
 40
1.0
 40
1.0
 40
1.0
 10
2.5785632647
 20
-1.6949817286
 30
0.0
 10
2.6058446653
 20
-1.6698270886
 30
0.0
 10
2.653406347
 20
-1.6088311581
 30
0.0
 10
2.6947550511
 20
-1.4977752903
 30
0.0
 10
2.707290271
 20
-1.3739859725
 30
0.0
 10
2.6961339449
 20
-1.2429838442
 30
0.0
 10
2.6576206392
 20
-1.1098524784
 30
0.0
 10
2.5910043552
 20
-0.9819913495
 30
0.0
 10
2.5000553309
 20
-0.867305798
 30
0.0
 10
2.4265485948
 20
-0.801207302
 30
0.0
 10
2.3857111213
 20
-0.774686276
 30
0.0
  0
SPLINE
  5
300
100
AcDbEntity
  8
0
100
AcDbSpline
 62
7
  6
CONTINUOUS
 70
0
 71
3
 72
10
 73
6
 74
0
 42
0.0000001
 43
0.0000001
 44
0.0000000001
 40
0.0
 40
0.0
 40
0.0
 40
0.0
 40
0.2621551042
 40
0.5141591636
 40
1.0
 40
1.0
 40
1.0
 40
1.0
 10
2.3857111213
 20
-0.774686276
 30
0.0
 10
2.308247606
 20
-0.7243386888
 30
0.0
 10
2.1441114272
 20
-0.6442630769
 30
0.0
 10
1.808156167
 20
-0.5365051201
 30
0.0
 10
1.5515885235
 20
-0.4884426001
 30
0.0
 10
1.3820606011
 20
-0.4644445484
 30
0.0
  0
SPLINE
  5
301
100
AcDbEntity
  8
RACCORDO
100
AcDbSpline
 62
250
  6
CONTINUOUS
 70
0
 71
3
 72
11
 73
7
 74
0
 42
0.0000001
 43
0.0000001
 44
0.0000000001
 40
0.0
 40
0.0
 40
0.0
 40
0.0
 40
0.3270120749
 40
0.6004647693
 40
0.8193112579
 40
1.0
 40
1.0
 40
1.0
 40
1.0
 10
-105.7095865598
 20
-8.4444888354
 30
0.0
 10
-105.7095865598
 20
-8.5105597278
 30
0.0
 10
-105.7018525988
 20
-8.6322468602
 30
0.0
 10
-105.6609711768
 20
-8.7938262071
 30
0.0
 10
-105.5927304385
 20
-8.9145763388
 30
0.0
 10
-105.5220113217
 20
-8.9621189914
 30
0.0
 10
-105.4869364336
 20
-8.9722442792
 30
0.0
  0
SPLINE
  5
302
100
AcDbEntity
  8
RACCORDO
100
AcDbSpline
 62
250
  6
CONTINUOUS
 70
0
 71
3
 72
11
 73
7
 74
0
 42
0.0000001
 43
0.0000001
 44
0.0000000001
 40
0.0
 40
0.0
 40
0.0
 40
0.0
 40
0.3270120749
 40
0.6004647693
 40
0.8193112579
 40
1.0
 40
1.0
 40
1.0
 40
1.0
 10
103.868561156
 20
-68.9444888354
 30
0.0
 10
103.868561156
 20
-69.0105597278
 30
0.0
 10
103.876295117
 20
-69.1322468602
 30
0.0
 10
103.917176539
 20
-69.2938262071
 30
0.0
 10
103.9854172774
 20
-69.4145763388
 30
0.0
 10
104.0561363942
 20
-69.4621189914
 30
0.0
 10
104.0912112823
 20
-69.4722442792
 30
0.0
  0
SPLINE
  5
303
100
AcDbEntity
  8
RACCORDO
100
AcDbSpline
 62
250
  6
CONTINUOUS
 70
0
 71
3
 72
11
 73
7
 74
0
 42
0.0000001
 43
0.0000001
 44
0.0000000001
 40
0.0
 40
0.0
 40
0.0
 40
0.0
 40
0.2637513752
 40
0.5379163756
 40
0.7915792861
 40
1.0
 40
1.0
 40
1.0
 40
1.0
 10
107.3326627712
 20
-66.4803872202
 30
0.0
 10
107.4526813188
 20
-66.5150335906
 30
0.0
 10
107.7064763475
 20
-66.555554669
 30
0.0
 10
108.0834627633
 20
-66.5437324819
 30
0.0
 10
108.4250765619
 20
-66.4650669296
 30
0.0
 10
108.624067952
 20
-66.361997527
 30
0.0
 10
108.6986881749
 20
-66.2973745183
 30
0.0
  0
SPLINE
  5
304
100
AcDbEntity
  8
RACCORDO
100
AcDbSpline
 62
250
  6
CONTINUOUS
 70
0
 71
3
 72
11
 73
7
 74
0
 42
0.0000001
 43
0.0000001
 44
0.0000000001
 40
0.0
 40
0.0
 40
0.0
 40
0.0
 40
0.2637513752
 40
0.5379163756
 40
0.7915792861
 40
1.0
 40
1.0
 40
1.0
 40
1.0
 10
107.3326627712
 20
2.3686323806
 30
0.0
 10
107.4526813188
 20
2.3339860103
 30
0.0
 10
107.7064763475
 20
2.2934649319
 30
0.0
 10
108.0834627633
 20
2.305287119
 30
0.0
 10
108.4250765619
 20
2.3839526713
 30
0.0
 10
108.624067952
 20
2.4870220738
 30
0.0
 10
108.6986881749
 20
2.5516450825
 30
0.0
  0
SPLINE
  5
305
100
AcDbEntity
  8
RACCORDO
100
AcDbSpline
 62
250
  6
CONTINUOUS
 70
0
 71
3
 72
12
 73
8
 74
0
 42
0.0000001
 43
0.0000001
 44
0.0000000001
 40
0.0
 40
0.0
 40
0.0
 40
0.0
 40
0.2572978538
 40
0.5313272222
 40
0.7884496257
 40
0.9013240806
 40
1.0
 40
1.0
 40
1.0
 40
1.0
 10
103.868561156
 20
6.8327339958
 30
0.0
 10
103.868561156
 20
6.9548530205
 30
0.0
 10
103.8979510372
 20
7.2072502108
 30
0.0
 10
104.0022855034
 20
7.5679081823
 30
0.0
 10
104.1352720843
 20
7.8456071468
 30
0.0
 10
104.2639476582
 20
8.0275964428
 30
0.0
 10
104.3331582167
 20
8.1011122566
 30
0.0
 10
104.368561156
 20
8.1317721014
 30
0.0
  0
SPLINE
  5
306
100
AcDbEntity
  8
RACCORDO
100
AcDbSpline
 62
250
  6
CONTINUOUS
 70
0
 71
3
 72
12
 73
8
 74
0
 42
0.0000001
 43
0.0000001
 44
0.0000000001
 40
0.0
 40
0.0
 40
0.0
 40
0.0
 40
0.2572978538
 40
0.5313272222
 40
0.7884496257
 40
0.9013240806
 40
1.0
 40
1.0
 40
1.0
 40
1.0
 10
-105.7095865598
 20
67.3327339958
 30
0.0
 10
-105.7095865598
 20
67.4548530205
 30
0.0
 10
-105.6801966786
 20
67.7072502108
 30
0.0
 10
-105.5758622125
 20
68.0679081823
 30
0.0
 10
-105.4428756315
 20
68.3456071468
 30
0.0
 10
-105.3142000577
 20
68.5275964428
 30
0.0
 10
-105.2449894991
 20
68.6011122566
 30
0.0
 10
-105.2095865598
 20
68.6317721014
 30
0.0
  0
SPLINE
  5
307
100
AcDbEntity
  8
RACCORDO
100
AcDbSpline
 62
250
  6
CONTINUOUS
 70
0
 71
3
 72
11
 73
7
 74
0
 42
0.0000001
 43
0.0000001
 44
0.0000000001
 40
0.0
 40
0.0
 40
0.0
 40
0.0
 40
0.3160272249
 40
0.5862563612
 40
0.809351645
 40
1.0
 40
1.0
 40
1.0
 40
1.0
 10
-109.1736881749
 20
64.8686323806
 30
0.0
 10
-109.2447295143
 20
64.8891402488
 30
0.0
 10
-109.3741631197
 20
64.9370360709
 30
0.0
 10
-109.5363211106
 20
65.0379064495
 30
0.0
 10
-109.6453987005
 20
65.1594891878
 30
0.0
 10
-109.6736880127
 20
65.2570383144
 30
0.0
 10
-109.6736881749
 20
65.3016450825
 30
0.0
  0
SPLINE
  5
308
100
AcDbEntity
  8
RACCORDO
100
AcDbSpline
 62
250
  6
CONTINUOUS
 70
0
 71
3
 72
11
 73
7
 74
0
 42
0.0000001
 43
0.0000001
 44
0.0000000001
 40
0.0
 40
0.0
 40
0.0
 40
0.0
 40
0.3160272249
 40
0.5862563612
 40
0.809351645
 40
1.0
 40
1.0
 40
1.0
 40
1.0
 10
-109.1736881749
 20
-3.9803872202
 30
0.0
 10
-109.2447295143
 20
-3.959879352
 30
0.0
 10
-109.3741631197
 20
-3.91198353
 30
0.0
 10
-109.5363211106
 20
-3.8111131514
 30
0.0
 10
-109.6453987005
 20
-3.689530413
 30
0.0
 10
-109.6736880127
 20
-3.5919812864
 30
0.0
 10
-109.6736881749
 20
-3.5473745183
 30
0.0
  0
SPLINE
  5
309
100
AcDbEntity
  8
0
100
AcDbSpline
 62
7
  6
CONTINUOUS
 70
0
 71
3
 72
15
 73
11
 74
0
 42
0.0000001
 43
0.0000001
 44
0.0000000001
 40
0.0
 40
0.0
 40
0.0
 40
0.0
 40
0.1052551838
 40
0.2149008921
 40
0.3314195135
 40
0.4549177125
 40
0.5855058984
 40
0.7220172327
 40
0.8615404568
 40
1.0
 40
1.0
 40
1.0
 40
1.0
 10
2.5580289392
 20
-1.712986705
 30
0.0
 10
2.5863536654
 20
-1.6884567728
 30
0.0
 10
2.6361512202
 20
-1.6283250301
 30
0.0
 10
2.6803887112
 20
-1.5172120183
 30
0.0
 10
2.6948456664
 20
-1.3925248968
 30
0.0
 10
2.6848528816
 20
-1.2602242568
 30
0.0
 10
2.6471324475
 20
-1.125403158
 30
0.0
 10
2.5805150939
 20
-0.9957217936
 30
0.0
 10
2.4888634613
 20
-0.8793786781
 30
0.0
 10
2.4145493024
 20
-0.8123577935
 30
0.0
 10
2.3732111213
 20
-0.7855115936
 30
0.0
  0
SPLINE
  5
30A
100
AcDbEntity
  8
0
100
AcDbSpline
 62
7
  6
CONTINUOUS
 70
0
 71
3
 72
10
 73
6
 74
0
 42
0.0000001
 43
0.0000001
 44
0.0000000001
 40
0.0
 40
0.0
 40
0.0
 40
0.0
 40
0.4874074624
 40
0.7420393214
 40
1.0
 40
1.0
 40
1.0
 40
1.0
 10
2.6495638338
 20
-2.2430042761
 30
0.0
 10
2.6289629035
 20
-2.1614381629
 30
0.0
 10
2.5974680947
 20
-2.0362344237
 30
0.0
 10
2.5152077899
 20
-1.8830565903
 30
0.0
 10
2.4518338548
 20
-1.8184243611
 30
0.0
 10
2.4151425136
 20
-1.7932018109
 30
0.0
  0
SPLINE
  5
30B
100
AcDbEntity
  8
0
100
AcDbSpline
 62
7
  6
CONTINUOUS
 70
0
 71
3
 72
14
 73
10
 74
0
 42
0.0000001
 43
0.0000001
 44
0.0000000001
 40
0.0
 40
0.0
 40
0.0
 40
0.0
 40
0.1054092967
 40
0.2185248644
 40
0.3414334992
 40
0.472923254
 40
0.6094165127
 40
0.7461303467
 40
1.0
 40
1.0
 40
1.0
 40
1.0
 10
34.9694055189
 20
-40.9036646001
 30
0.0
 10
34.9180194887
 20
-40.9365923662
 30
0.0
 10
34.7969441019
 20
-40.9838529255
 30
0.0
 10
34.5960969872
 20
-40.9881573418
 30
0.0
 10
34.3884950865
 20
-40.9308171958
 30
0.0
 10
34.1900848285
 20
-40.8178502782
 30
0.0
 10
34.0156676369
 20
-40.658224817
 30
0.0
 10
33.8384053263
 20
-40.4086991372
 30
0.0
 10
33.7685324914
 20
-40.1806535773
 30
0.0
 10
33.7685324914
 20
-40.0336658309
 30
0.0
  0
SPLINE
  5
30C
100
AcDbEntity
  8
0
100
AcDbSpline
 62
7
  6
CONTINUOUS
 70
0
 71
3
 72
11
 73
7
 74
0
 42
0.0000001
 43
0.0000001
 44
0.0000000001
 40
0.0
 40
0.0
 40
0.0
 40
0.0
 40
0.2340396745
 40
0.4799169824
 40
0.7354482476
 40
1.0
 40
1.0
 40
1.0
 40
1.0
 10
0.4238479024
 20
-37.5917033251
 30
0.0
 10
0.4496337274
 20
-37.5693721335
 30
0.0
 10
0.4940855907
 20
-37.5126299056
 30
0.0
 10
0.5260798492
 20
-37.4092527912
 30
0.0
 10
0.5465716834
 20
-37.2994211736
 30
0.0
 10
0.5499779653
 20
-37.2234181299
 30
0.0
 10
0.5499779653
 20
-37.1848595249
 30
0.0
  0
SPLINE
  5
30D
100
AcDbEntity
  8
0
100
AcDbSpline
 62
7
  6
CONTINUOUS
 70
0
 71
3
 72
14
 73
10
 74
0
 42
0.0000001
 43
0.0000001
 44
0.0000000001
 40
0.0
 40
0.0
 40
0.0
 40
0.0
 40
0.1072979428
 40
0.2230061029
 40
0.3477099079
 40
0.4795315206
 40
0.6149541769
 40
0.7497149446
 40
1.0
 40
1.0
 40
1.0
 40
1.0
 10
34.8836833041
 20
-41.8142138242
 30
0.0
 10
34.7842409412
 20
-41.8541806886
 30
0.0
 10
34.5614414239
 20
-41.9001450109
 30
0.0
 10
34.2117143629
 20
-41.8645891532
 30
0.0
 10
33.8600167743
 20
-41.7332815737
 30
0.0
 10
33.5304108124
 20
-41.5167628025
 30
0.0
 10
33.2449084102
 20
-41.2299152482
 30
0.0
 10
32.9576979475
 20
-40.7949164024
 30
0.0
 10
32.8464653438
 20
-40.4071939071
 30
0.0
 10
32.8464653438
 20
-40.1571994047
 30
0.0
  0
SPLINE
  5
30E
100
AcDbEntity
  8
0
100
AcDbSpline
 62
7
  6
CONTINUOUS
 70
0
 71
3
 72
9
 73
5
 74
0
 42
0.0000001
 43
0.0000001
 44
0.0000000001
 40
0.0
 40
0.0
 40
0.0
 40
0.0
 40
0.481284642
 40
1.0
 40
1.0
 40
1.0
 40
1.0
 10
33.8956363701
 20
-39.6635799642
 30
0.0
 10
33.8538813336
 20
-39.7118154883
 30
0.0
 10
33.7876622484
 20
-39.8310350311
 30
0.0
 10
33.7685324914
 20
-39.9649064038
 30
0.0
 10
33.7685324914
 20
-40.0336658309
 30
0.0
  0
SPLINE
  5
30F
100
AcDbEntity
  8
0
100
AcDbSpline
 62
7
  6
CONTINUOUS
 70
0
 71
3
 72
10
 73
6
 74
0
 42
0.0000001
 43
0.0000001
 44
0.0000000001
 40
0.0
 40
0.0
 40
0.0
 40
0.0
 40
0.2621551042
 40
0.5141591636
 40
1.0
 40
1.0
 40
1.0
 40
1.0
 10
2.3732111213
 20
-0.7855115936
 30
0.0
 10
2.295747606
 20
-0.7351640063
 30
0.0
 10
2.1316114272
 20
-0.6550883944
 30
0.0
 10
1.795656167
 20
-0.5473304376
 30
0.0
 10
1.5390885235
 20
-0.4992679176
 30
0.0
 10
1.3695606011
 20
-0.4752698659
 30
0.0
  0
SPLINE
  5
310
100
AcDbEntity
  8
0
100
AcDbSpline
 62
7
  6
CONTINUOUS
 70
0
 71
3
 72
10
 73
6
 74
0
 42
0.0000001
 43
0.0000001
 44
0.0000000001
 40
0.0
 40
0.0
 40
0.0
 40
0.0
 40
0.238021281
 40
0.4816794625
 40
1.0
 40
1.0
 40
1.0
 40
1.0
 10
32.7385230463
 20
-39.7663669012
 30
0.0
 10
32.6878532992
 20
-39.8102468574
 30
0.0
 10
32.5956732238
 20
-39.9118756037
 30
0.0
 10
32.4589231719
 20
-40.1602653954
 30
0.0
 10
32.4214653438
 20
-40.3792965427
 30
0.0
 10
32.4214653438
 20
-40.5252602013
 30
0.0
  0
SPLINE
  5
311
100
AcDbEntity
  8
0
100
AcDbSpline
 62
7
  6
CONTINUOUS
 70
0
 71
3
 72
9
 73
5
 74
0
 42
0.0000001
 43
0.0000001
 44
0.0000000001
 40
0.0
 40
0.0
 40
0.0
 40
0.0
 40
0.4844009411
 40
1.0
 40
1.0
 40
1.0
 40
1.0
 10
32.9823160001
 20
-39.6180611844
 30
0.0
 10
32.9368512518
 20
-39.6963781301
 30
0.0
 10
32.8672660815
 20
-39.8729433526
 30
0.0
 10
32.8464653438
 20
-40.0608099294
 30
0.0
 10
32.8464653438
 20
-40.1571994047
 30
0.0
  0
SPLINE
  5
312
100
AcDbEntity
  8
0
100
AcDbSpline
 62
7
  6
CONTINUOUS
 70
0
 71
3
 72
14
 73
10
 74
0
 42
0.0000001
 43
0.0000001
 44
0.0000000001
 40
0.0
 40
0.0
 40
0.0
 40
0.0
 40
0.1046896971
 40
0.2159892195
 40
0.3373683076
 40
0.4683569489
 40
0.6054576506
 40
0.7435276402
 40
1.0
 40
1.0
 40
1.0
 40
1.0
 10
-34.5795484501
 20
-22.0341535014
 30
0.0
 10
-34.6660074648
 20
-22.1090269319
 30
0.0
 10
-34.8789767663
 20
-22.2270134523
 30
0.0
 10
-35.2522471311
 20
-22.2718771011
 30
0.0
 10
-35.647202873
 20
-22.1915312837
 30
0.0
 10
-36.0306201172
 20
-21.9973162528
 30
0.0
 10
-36.3716162617
 20
-21.706504551
 30
0.0
 10
-36.7210129184
 20
-21.2401940363
 30
0.0
 10
-36.8605669589
 20
-20.8054551372
 30
0.0
 10
-36.8605669589
 20
-20.5252602013
 30
0.0
  0
SPLINE
  5
313
100
AcDbEntity
  8
0
100
AcDbSpline
 62
7
  6
CONTINUOUS
 70
0
 71
3
 72
9
 73
5
 74
0
 42
0.0000001
 43
0.0000001
 44
0.0000000001
 40
0.0
 40
0.0
 40
0.0
 40
0.0
 40
0.481284642
 40
1.0
 40
1.0
 40
1.0
 40
1.0
 10
33.8956363701
 20
20.5251855988
 30
0.0
 10
33.8538813336
 20
20.4769500748
 30
0.0
 10
33.7876622484
 20
20.3577305319
 30
0.0
 10
33.7685324914
 20
20.2238591592
 30
0.0
 10
33.7685324914
 20
20.1550997321
 30
0.0
  0
SPLINE
  5
314
100
AcDbEntity
  8
0
100
AcDbSpline
 62
7
  6
CONTINUOUS
 70
0
 71
3
 72
9
 73
5
 74
0
 42
0.0000001
 43
0.0000001
 44
0.0000000001
 40
0.0
 40
0.0
 40
0.0
 40
0.0
 40
0.4844009411
 40
1.0
 40
1.0
 40
1.0
 40
1.0
 10
32.9823160001
 20
20.5707043786
 30
0.0
 10
32.9368512518
 20
20.4923874329
 30
0.0
 10
32.8672660815
 20
20.3158222104
 30
0.0
 10
32.8464653438
 20
20.1279556337
 30
0.0
 10
32.8464653438
 20
20.0315661583
 30
0.0
  0
SPLINE
  5
315
100
AcDbEntity
  8
0
100
AcDbSpline
 62
7
  6
CONTINUOUS
 70
0
 71
3
 72
14
 73
10
 74
0
 42
0.0000001
 43
0.0000001
 44
0.0000000001
 40
0.0
 40
0.0
 40
0.0
 40
0.0
 40
0.1054092967
 40
0.2185248644
 40
0.3414334992
 40
0.472923254
 40
0.6094165127
 40
0.7461303467
 40
1.0
 40
1.0
 40
1.0
 40
1.0
 10
34.9694055189
 20
19.2851009629
 30
0.0
 10
34.9180194887
 20
19.2521731968
 30
0.0
 10
34.7969441019
 20
19.2049126376
 30
0.0
 10
34.5960969872
 20
19.2006082212
 30
0.0
 10
34.3884950865
 20
19.2579483672
 30
0.0
 10
34.1900848285
 20
19.3709152848
 30
0.0
 10
34.0156676369
 20
19.5305407461
 30
0.0
 10
33.8384053263
 20
19.7800664258
 30
0.0
 10
33.7685324914
 20
20.0081119857
 30
0.0
 10
33.7685324914
 20
20.1550997321
 30
0.0
  0
SPLINE
  5
316
100
AcDbEntity
  8
0
100
AcDbSpline
 62
7
  6
CONTINUOUS
 70
0
 71
3
 72
14
 73
10
 74
0
 42
0.0000001
 43
0.0000001
 44
0.0000000001
 40
0.0
 40
0.0
 40
0.0
 40
0.0
 40
0.1072979428
 40
0.2230061029
 40
0.3477099079
 40
0.4795315206
 40
0.6149541769
 40
0.7497149446
 40
1.0
 40
1.0
 40
1.0
 40
1.0
 10
34.8836833041
 20
18.3745517388
 30
0.0
 10
34.7842409412
 20
18.3345848744
 30
0.0
 10
34.5614414239
 20
18.2886205521
 30
0.0
 10
34.2117143629
 20
18.3241764098
 30
0.0
 10
33.8600167743
 20
18.4554839893
 30
0.0
 10
33.5304108124
 20
18.6720027606
 30
0.0
 10
33.2449084102
 20
18.9588503148
 30
0.0
 10
32.9576979475
 20
19.3938491607
 30
0.0
 10
32.8464653438
 20
19.7815716559
 30
0.0
 10
32.8464653438
 20
20.0315661583
 30
0.0
  0
SPLINE
  5
317
100
AcDbEntity
  8
0
100
AcDbSpline
 62
7
  6
CONTINUOUS
 70
0
 71
3
 72
14
 73
10
 74
0
 42
0.0000001
 43
0.0000001
 44
0.0000000001
 40
0.0
 40
0.0
 40
0.0
 40
0.0
 40
0.1046896971
 40
0.2159892195
 40
0.3373683076
 40
0.4683569489
 40
0.6054576506
 40
0.7435276402
 40
1.0
 40
1.0
 40
1.0
 40
1.0
 10
34.7024838527
 20
18.1546120616
 30
0.0
 10
34.6160248379
 20
18.0797386311
 30
0.0
 10
34.4030555364
 20
17.9617521107
 30
0.0
 10
34.0297851717
 20
17.916888462
 30
0.0
 10
33.6348294298
 20
17.9972342793
 30
0.0
 10
33.2514121856
 20
18.1914493102
 30
0.0
 10
32.910416041
 20
18.482261012
 30
0.0
 10
32.5610193843
 20
18.9485715267
 30
0.0
 10
32.4214653438
 20
19.3833104258
 30
0.0
 10
32.4214653438
 20
19.6635053617
 30
0.0
  0
SPLINE
  5
318
100
AcDbEntity
  8
0
100
AcDbSpline
 62
7
  6
CONTINUOUS
 70
0
 71
3
 72
10
 73
6
 74
0
 42
0.0000001
 43
0.0000001
 44
0.0000000001
 40
0.0
 40
0.0
 40
0.0
 40
0.0
 40
0.238021281
 40
0.4816794625
 40
1.0
 40
1.0
 40
1.0
 40
1.0
 10
-36.5435092565
 20
40.4223986618
 30
0.0
 10
-36.5941790035
 20
40.3785187056
 30
0.0
 10
-36.686359079
 20
40.2768899593
 30
0.0
 10
-36.8231091308
 20
40.0285001676
 30
0.0
 10
-36.8605669589
 20
39.8094690203
 30
0.0
 10
-36.8605669589
 20
39.6635053617
 30
0.0
  0
SPLINE
  5
319
100
AcDbEntity
  8
0
100
AcDbSpline
 62
7
  6
CONTINUOUS
 70
0
 71
3
 72
8
 73
4
 74
0
 42
0.0000001
 43
0.0000001
 44
0.0000000001
 40
0.0
 40
0.0
 40
0.0
 40
0.0
 40
1.0
 40
1.0
 40
1.0
 40
1.0
 10
2.7885948892
 20
-2.8104665208
 30
0.0
 10
2.7410324607
 20
-2.621615206
 30
0.0
 10
2.6972556222
 20
-2.4318229644
 30
0.0
 10
2.6495638338
 20
-2.2430042761
 30
0.0
  0
SPLINE
  5
31A
100
AcDbEntity
  8
0
100
AcDbSpline
 62
7
  6
CONTINUOUS
 70
0
 71
3
 72
10
 73
6
 74
0
 42
0.0000001
 43
0.0000001
 44
0.0000000001
 40
0.0
 40
0.0
 40
0.0
 40
0.0
 40
0.238021281
 40
0.4816794625
 40
1.0
 40
1.0
 40
1.0
 40
1.0
 10
98.5564537339
 20
-58.7663669012
 30
0.0
 10
98.5057839868
 20
-58.8102468574
 30
0.0
 10
98.4136039114
 20
-58.9118756037
 30
0.0
 10
98.2768538596
 20
-59.1602653954
 30
0.0
 10
98.2393960314
 20
-59.3792965427
 30
0.0
 10
98.2393960314
 20
-59.5252602013
 30
0.0
  0
SPLINE
  5
31B
100
AcDbEntity
  8
0
100
AcDbSpline
 62
7
  6
CONTINUOUS
 70
0
 71
3
 72
10
 73
6
 74
0
 42
0.0000001
 43
0.0000001
 44
0.0000000001
 40
0.0
 40
0.0
 40
0.0
 40
0.0
 40
0.4723061887
 40
0.7281056664
 40
1.0
 40
1.0
 40
1.0
 40
1.0
 10
0.3161284526
 20
-37.4830785951
 30
0.0
 10
0.2989384348
 20
-37.4979655702
 30
0.0
 10
0.2658932256
 20
-37.5153105355
 30
0.0
 10
0.2172872652
 20
-37.51648116
 30
0.0
 10
0.192080646
 20
-37.5120542849
 30
0.0
 10
0.1795032537
 20
-37.5084235045
 30
0.0
  0
SPLINE
  5
31C
100
AcDbEntity
  8
0
100
AcDbSpline
 62
7
  6
CONTINUOUS
 70
0
 71
3
 72
9
 73
5
 74
0
 42
0.0000001
 43
0.0000001
 44
0.0000000001
 40
0.0
 40
0.0
 40
0.0
 40
0.0
 40
0.4844009411
 40
1.0
 40
1.0
 40
1.0
 40
1.0
 10
-102.1176469903
 20
-0.6180611844
 30
0.0
 10
-102.1631117386
 20
-0.6963781301
 30
0.0
 10
-102.2326969089
 20
-0.8729433526
 30
0.0
 10
-102.2534976466
 20
-1.0608099294
 30
0.0
 10
-102.2534976466
 20
-1.1571994047
 30
0.0
  0
SPLINE
  5
31D
100
AcDbEntity
  8
0
100
AcDbSpline
 62
7
  6
CONTINUOUS
 70
0
 71
3
 72
9
 73
5
 74
0
 42
0.0000001
 43
0.0000001
 44
0.0000000001
 40
0.0
 40
0.0
 40
0.0
 40
0.0
 40
0.481284642
 40
1.0
 40
1.0
 40
1.0
 40
1.0
 10
-101.2043266203
 20
-0.6635799642
 30
0.0
 10
-101.2460816567
 20
-0.7118154883
 30
0.0
 10
-101.312300742
 20
-0.8310350311
 30
0.0
 10
-101.331430499
 20
-0.9649064038
 30
0.0
 10
-101.331430499
 20
-1.0336658309
 30
0.0
  0
SPLINE
  5
31E
100
AcDbEntity
  8
0
100
AcDbSpline
 62
7
  6
CONTINUOUS
 70
0
 71
3
 72
14
 73
10
 74
0
 42
0.0000001
 43
0.0000001
 44
0.0000000001
 40
0.0
 40
0.0
 40
0.0
 40
0.0
 40
0.1072979428
 40
0.2230061029
 40
0.3477099079
 40
0.4795315206
 40
0.6149541769
 40
0.7497149446
 40
1.0
 40
1.0
 40
1.0
 40
1.0
 10
-100.2162796863
 20
-2.8142138242
 30
0.0
 10
-100.3157220492
 20
-2.8541806886
 30
0.0
 10
-100.5385215665
 20
-2.9001450109
 30
0.0
 10
-100.8882486274
 20
-2.8645891532
 30
0.0
 10
-101.2399462161
 20
-2.7332815737
 30
0.0
 10
-101.569552178
 20
-2.5167628025
 30
0.0
 10
-101.8550545801
 20
-2.2299152482
 30
0.0
 10
-102.1422650429
 20
-1.7949164024
 30
0.0
 10
-102.2534976466
 20
-1.4071939071
 30
0.0
 10
-102.2534976466
 20
-1.1571994047
 30
0.0
  0
SPLINE
  5
31F
100
AcDbEntity
  8
0
100
AcDbSpline
 62
7
  6
CONTINUOUS
 70
0
 71
3
 72
14
 73
10
 74
0
 42
0.0000001
 43
0.0000001
 44
0.0000000001
 40
0.0
 40
0.0
 40
0.0
 40
0.0
 40
0.1046896971
 40
0.2159892195
 40
0.3373683076
 40
0.4683569489
 40
0.6054576506
 40
0.7435276402
 40
1.0
 40
1.0
 40
1.0
 40
1.0
 10
-100.3974791377
 20
-3.0341535014
 30
0.0
 10
-100.4839381524
 20
-3.1090269319
 30
0.0
 10
-100.6969074539
 20
-3.2270134523
 30
0.0
 10
-101.0701778187
 20
-3.2718771011
 30
0.0
 10
-101.4651335606
 20
-3.1915312837
 30
0.0
 10
-101.8485508048
 20
-2.9973162528
 30
0.0
 10
-102.1895469493
 20
-2.706504551
 30
0.0
 10
-102.5389436061
 20
-2.2401940363
 30
0.0
 10
-102.6784976466
 20
-1.8054551372
 30
0.0
 10
-102.6784976466
 20
-1.5252602013
 30
0.0
  0
SPLINE
  5
320
100
AcDbEntity
  8
0
100
AcDbSpline
 62
7
  6
CONTINUOUS
 70
0
 71
3
 72
14
 73
10
 74
0
 42
0.0000001
 43
0.0000001
 44
0.0000000001
 40
0.0
 40
0.0
 40
0.0
 40
0.0
 40
0.1054092967
 40
0.2185248644
 40
0.3414334992
 40
0.472923254
 40
0.6094165127
 40
0.7461303467
 40
1.0
 40
1.0
 40
1.0
 40
1.0
 10
-100.1305574715
 20
-1.9036646001
 30
0.0
 10
-100.1819435017
 20
-1.9365923662
 30
0.0
 10
-100.3030188885
 20
-1.9838529255
 30
0.0
 10
-100.5038660032
 20
-1.9881573418
 30
0.0
 10
-100.7114679039
 20
-1.9308171958
 30
0.0
 10
-100.9098781619
 20
-1.8178502782
 30
0.0
 10
-101.0842953534
 20
-1.658224817
 30
0.0
 10
-101.261557664
 20
-1.4086991372
 30
0.0
 10
-101.331430499
 20
-1.1806535773
 30
0.0
 10
-101.331430499
 20
-1.0336658309
 30
0.0
  0
SPLINE
  5
321
100
AcDbEntity
  8
0
100
AcDbSpline
 62
7
  6
CONTINUOUS
 70
0
 71
3
 72
14
 73
10
 74
0
 42
0.0000001
 43
0.0000001
 44
0.0000000001
 40
0.0
 40
0.0
 40
0.0
 40
0.0
 40
0.1046896971
 40
0.2159892195
 40
0.3373683076
 40
0.4683569489
 40
0.6054576506
 40
0.7435276402
 40
1.0
 40
1.0
 40
1.0
 40
1.0
 10
100.5204145403
 20
-0.8453879384
 30
0.0
 10
100.4339555256
 20
-0.9202613689
 30
0.0
 10
100.2209862241
 20
-1.0382478893
 30
0.0
 10
99.8477158593
 20
-1.083111538
 30
0.0
 10
99.4527601174
 20
-1.0027657207
 30
0.0
 10
99.0693428732
 20
-0.8085506898
 30
0.0
 10
98.7283467287
 20
-0.517738988
 30
0.0
 10
98.3789500719
 20
-0.0514284733
 30
0.0
 10
98.2393960314
 20
0.3833104258
 30
0.0
 10
98.2393960314
 20
0.6635053617
 30
0.0
  0
SPLINE
  5
322
100
AcDbEntity
  8
0
100
AcDbSpline
 62
7
  6
CONTINUOUS
 70
0
 71
3
 72
13
 73
9
 74
0
 42
0.0000001
 43
0.0000001
 44
0.0000000001
 40
0.0
 40
0.0
 40
0.0
 40
0.0
 40
0.2526217172
 40
0.385205492
 40
0.5159356366
 40
0.7641989104
 40
0.8836467341
 40
1.0
 40
1.0
 40
1.0
 40
1.0
 10
0.1920032537
 20
-36.5150908301
 30
0.0
 10
0.2575121804
 20
-36.5340016283
 30
0.0
 10
0.3519986915
 20
-36.5886360371
 30
0.0
 10
0.4414759456
 20
-36.6961677744
 30
0.0
 10
0.5097999029
 20
-36.8171782164
 30
0.0
 10
0.5426596416
 20
-36.9494847072
 30
0.0
 10
0.5602335073
 20
-37.0788873616
 30
0.0
 10
0.5624779653
 20
-37.1426298846
 30
0.0
 10
0.5624779653
 20
-37.1740342073
 30
0.0
  0
SPLINE
  5
323
100
AcDbEntity
  8
0
100
AcDbSpline
 62
7
  6
CONTINUOUS
 70
0
 71
3
 72
11
 73
7
 74
0
 42
0.0000001
 43
0.0000001
 44
0.0000000001
 40
0.0
 40
0.0
 40
0.0
 40
0.0
 40
0.2645517563
 40
0.5200830231
 40
0.7659603275
 40
1.0
 40
1.0
 40
1.0
 40
1.0
 10
0.5624779653
 20
-37.1740342073
 30
0.0
 10
0.5624779653
 20
-37.2125928214
 30
0.0
 10
0.5590716812
 20
-37.2885958828
 30
0.0
 10
0.5385798388
 20
-37.3984275245
 30
0.0
 10
0.5065855593
 20
-37.501804658
 30
0.0
 10
0.4621336682
 20
-37.5585468862
 30
0.0
 10
0.4363478282
 20
-37.5808780717
 30
0.0
  0
SPLINE
  5
324
100
AcDbEntity
  8
0
100
AcDbSpline
 62
7
  6
CONTINUOUS
 70
0
 71
3
 72
15
 73
11
 74
0
 42
0.0000001
 43
0.0000001
 44
0.0000000001
 40
0.0
 40
0.0
 40
0.0
 40
0.0
 40
0.1257258711
 40
0.2585035536
 40
0.3914435232
 40
0.5192789747
 40
0.6436256855
 40
0.7648036705
 40
0.8836287261
 40
1.0
 40
1.0
 40
1.0
 40
1.0
 10
0.1920032537
 20
-37.497598187
 30
0.0
 10
0.1685789266
 20
-37.4908361662
 30
0.0
 10
0.1224515547
 20
-37.4684898043
 30
0.0
 10
0.0675491109
 20
-37.4147248812
 30
0.0
 10
0.0262325712
 20
-37.349840862
 30
0.0
 10
0.0001479782
 20
-37.2794252516
 30
0.0
 10
-0.0157773874
 20
-37.2087199092
 30
0.0
 10
-0.0273080697
 20
-37.1389760147
 30
0.0
 10
-0.0335929636
 20
-37.0700673892
 30
0.0
 10
-0.0339371679
 20
-37.0244307538
 30
0.0
 10
-0.0339371679
 20
-37.0018639885
 30
0.0
  0
SPLINE
  5
325
100
AcDbEntity
  8
0
100
AcDbSpline
 62
7
  6
CONTINUOUS
 70
0
 71
3
 72
10
 73
6
 74
0
 42
0.0000001
 43
0.0000001
 44
0.0000000001
 40
0.0
 40
0.0
 40
0.0
 40
0.0
 40
0.2648235573
 40
0.5215998233
 40
1.0
 40
1.0
 40
1.0
 40
1.0
 10
-0.0339371679
 20
-37.0018639885
 30
0.0
 10
-0.0339371679
 20
-36.9709061299
 30
0.0
 10
-0.0329574878
 20
-36.9094938803
 30
0.0
 10
-0.0158299795
 20
-36.7954292998
 30
0.0
 10
0.0094596194
 20
-36.704987172
 30
0.0
 10
0.0501624538
 20
-36.6666351233
 30
0.0
  0
SPLINE
  5
326
100
AcDbEntity
  8
0
100
AcDbSpline
 62
7
  6
CONTINUOUS
 70
0
 71
3
 72
14
 73
10
 74
0
 42
0.0000001
 43
0.0000001
 44
0.0000000001
 40
0.0
 40
0.0
 40
0.0
 40
0.0
 40
0.1072979428
 40
0.2230061029
 40
0.3477099079
 40
0.4795315206
 40
0.6149541769
 40
0.7497149446
 40
1.0
 40
1.0
 40
1.0
 40
1.0
 10
-100.2162796863
 20
57.3745517388
 30
0.0
 10
-100.3157220492
 20
57.3345848744
 30
0.0
 10
-100.5385215665
 20
57.2886205521
 30
0.0
 10
-100.8882486274
 20
57.3241764098
 30
0.0
 10
-101.2399462161
 20
57.4554839893
 30
0.0
 10
-101.569552178
 20
57.6720027606
 30
0.0
 10
-101.8550545801
 20
57.9588503148
 30
0.0
 10
-102.1422650429
 20
58.3938491607
 30
0.0
 10
-102.2534976466
 20
58.7815716559
 30
0.0
 10
-102.2534976466
 20
59.0315661583
 30
0.0
  0
SPLINE
  5
327
100
AcDbEntity
  8
0
100
AcDbSpline
 62
7
  6
CONTINUOUS
 70
0
 71
3
 72
14
 73
10
 74
0
 42
0.0000001
 43
0.0000001
 44
0.0000000001
 40
0.0
 40
0.0
 40
0.0
 40
0.0
 40
0.1054092967
 40
0.2185248644
 40
0.3414334992
 40
0.472923254
 40
0.6094165127
 40
0.7461303467
 40
1.0
 40
1.0
 40
1.0
 40
1.0
 10
-100.1305574715
 20
58.2851009629
 30
0.0
 10
-100.1819435017
 20
58.2521731968
 30
0.0
 10
-100.3030188885
 20
58.2049126376
 30
0.0
 10
-100.5038660032
 20
58.2006082212
 30
0.0
 10
-100.7114679039
 20
58.2579483672
 30
0.0
 10
-100.9098781619
 20
58.3709152848
 30
0.0
 10
-101.0842953534
 20
58.5305407461
 30
0.0
 10
-101.261557664
 20
58.7800664258
 30
0.0
 10
-101.331430499
 20
59.0081119857
 30
0.0
 10
-101.331430499
 20
59.1550997321
 30
0.0
  0
SPLINE
  5
328
100
AcDbEntity
  8
0
100
AcDbSpline
 62
7
  6
CONTINUOUS
 70
0
 71
3
 72
10
 73
6
 74
0
 42
0.0000001
 43
0.0000001
 44
0.0000000001
 40
0.0
 40
0.0
 40
0.0
 40
0.0
 40
0.238021281
 40
0.4816794625
 40
1.0
 40
1.0
 40
1.0
 40
1.0
 10
-102.3614399441
 20
59.4223986618
 30
0.0
 10
-102.4121096912
 20
59.3785187056
 30
0.0
 10
-102.5042897666
 20
59.2768899593
 30
0.0
 10
-102.6410398184
 20
59.0285001676
 30
0.0
 10
-102.6784976466
 20
58.8094690203
 30
0.0
 10
-102.6784976466
 20
58.6635053617
 30
0.0
  0
SPLINE
  5
329
100
AcDbEntity
  8
0
100
AcDbSpline
 62
7
  6
CONTINUOUS
 70
0
 71
3
 72
9
 73
5
 74
0
 42
0.0000001
 43
0.0000001
 44
0.0000000001
 40
0.0
 40
0.0
 40
0.0
 40
0.0
 40
0.4844009411
 40
1.0
 40
1.0
 40
1.0
 40
1.0
 10
-102.1176469903
 20
59.5707043786
 30
0.0
 10
-102.1631117386
 20
59.4923874329
 30
0.0
 10
-102.2326969089
 20
59.3158222104
 30
0.0
 10
-102.2534976466
 20
59.1279556337
 30
0.0
 10
-102.2534976466
 20
59.0315661583
 30
0.0
  0
SPLINE
  5
32A
100
AcDbEntity
  8
0
100
AcDbSpline
 62
7
  6
CONTINUOUS
 70
0
 71
3
 72
9
 73
5
 74
0
 42
0.0000001
 43
0.0000001
 44
0.0000000001
 40
0.0
 40
0.0
 40
0.0
 40
0.0
 40
0.481284642
 40
1.0
 40
1.0
 40
1.0
 40
1.0
 10
-101.2043266203
 20
59.5251855988
 30
0.0
 10
-101.2460816567
 20
59.4769500748
 30
0.0
 10
-101.312300742
 20
59.3577305319
 30
0.0
 10
-101.331430499
 20
59.2238591592
 30
0.0
 10
-101.331430499
 20
59.1550997321
 30
0.0
  0
SPLINE
  5
32B
100
AcDbEntity
  8
RACCORDO
100
AcDbSpline
 62
250
  6
CONTINUOUS
 70
0
 71
3
 72
11
 73
7
 74
0
 42
0.0000001
 43
0.0000001
 44
0.0000000001
 40
0.0
 40
0.0
 40
0.0
 40
0.0
 40
0.2374169147
 40
0.4804567164
 40
0.7336979993
 40
1.0
 40
1.0
 40
1.0
 40
1.0
 10
107.641829165
 20
-68.8270188506
 30
0.0
 10
107.8107255501
 20
-68.6807491404
 30
0.0
 10
108.1180073818
 20
-68.3422312817
 30
0.0
 10
108.4532594125
 20
-67.7320957094
 30
0.0
 10
108.6561498502
 20
-67.0384212642
 30
0.0
 10
108.6986881749
 20
-66.5479875295
 30
0.0
 10
108.6986881749
 20
-66.2973745183
 30
0.0
  0
SPLINE
  5
32C
100
AcDbEntity
  8
0
100
AcDbSpline
 62
7
  6
CONTINUOUS
 70
0
 71
3
 72
14
 73
10
 74
0
 42
0.0000001
 43
0.0000001
 44
0.0000000001
 40
0.0
 40
0.0
 40
0.0
 40
0.0
 40
0.116264097
 40
0.2395878239
 40
0.367204576
 40
0.4971440187
 40
0.6277332665
 40
0.7557775317
 40
1.0
 40
1.0
 40
1.0
 40
1.0
 10
-1.1595463403
 20
-36.443972664
 30
0.0
 10
-1.1595463403
 20
-36.4220128442
 30
0.0
 10
-1.1621855581
 20
-36.3766074256
 30
0.0
 10
-1.1793218652
 20
-36.3090133976
 30
0.0
 10
-1.2083158795
 20
-36.2427683126
 30
0.0
 10
-1.2498841229
 20
-36.181937256
 30
0.0
 10
-1.3008436444
 20
-36.1285347806
 30
0.0
 10
-1.3782998058
 20
-36.0730745985
 30
0.0
 10
-1.4431072556
 20
-36.0430713753
 30
0.0
 10
-1.4874260149
 20
-36.0302776063
 30
0.0
  0
SPLINE
  5
32D
100
AcDbEntity
  8
0
100
AcDbSpline
 62
7
  6
CONTINUOUS
 70
0
 71
3
 72
9
 73
5
 74
0
 42
0.0000001
 43
0.0000001
 44
0.0000000001
 40
0.0
 40
0.0
 40
0.0
 40
0.0
 40
0.4825704794
 40
1.0
 40
1.0
 40
1.0
 40
1.0
 10
-1.3887403234
 20
-36.5372610845
 30
0.0
 10
-1.4094522227
 20
-36.5436391799
 30
0.0
 10
-1.4555487931
 20
-36.5445907991
 30
0.0
 10
-1.4998998049
 20
-36.5371593317
 30
0.0
 10
-1.5222253301
 20
-36.5307143478
 30
0.0
  0
SPLINE
  5
32E
100
AcDbEntity
  8
0
100
AcDbSpline
 62
7
  6
CONTINUOUS
 70
0
 71
3
 72
14
 73
10
 74
0
 42
0.0000001
 43
0.0000001
 44
0.0000000001
 40
0.0
 40
0.0
 40
0.0
 40
0.0
 40
0.116264097
 40
0.2395878238
 40
0.3672045759
 40
0.4971440185
 40
0.6277332663
 40
0.7557775315
 40
1.0
 40
1.0
 40
1.0
 40
1.0
 10
-1.1720463403
 20
-36.4547979815
 30
0.0
 10
-1.1720463403
 20
-36.4328381618
 30
0.0
 10
-1.1746855581
 20
-36.3874327433
 30
0.0
 10
-1.191821865
 20
-36.3198387156
 30
0.0
 10
-1.2208158791
 20
-36.2535936308
 30
0.0
 10
-1.2623841223
 20
-36.1927625743
 30
0.0
 10
-1.3133436434
 20
-36.1393600989
 30
0.0
 10
-1.3907998045
 20
-36.0838999168
 30
0.0
 10
-1.455607254
 20
-36.0538966935
 30
0.0
 10
-1.4999260132
 20
-36.0411029244
 30
0.0
  0
SPLINE
  5
32F
100
AcDbEntity
  8
RACCORDO
100
AcDbSpline
 62
250
  6
CONTINUOUS
 70
0
 71
3
 72
13
 73
9
 74
0
 42
0.0000001
 43
0.0000001
 44
0.0000000001
 40
0.0
 40
0.0
 40
0.0
 40
0.0
 40
0.2376483387
 40
0.3645776833
 40
0.4944049632
 40
0.6250313008
 40
0.7542742128
 40
1.0
 40
1.0
 40
1.0
 40
1.0
 10
108.6986881749
 20
2.5516450825
 30
0.0
 10
108.6986881749
 20
3.1459619673
 30
0.0
 10
108.5103510018
 20
4.0633831417
 30
0.0
 10
107.9866059408
 20
5.1857992665
 30
0.0
 10
107.4481582452
 20
5.9959665649
 30
0.0
 10
106.793008611
 20
6.7226214065
 30
0.0
 10
105.8164843722
 20
7.529483632
 30
0.0
 10
104.9589701546
 20
7.9613357043
 30
0.0
 10
104.368561156
 20
8.1317721014
 30
0.0
  0
SPLINE
  5
330
100
AcDbEntity
  8
RACCORDO
100
AcDbSpline
 62
250
  6
CONTINUOUS
 70
0
 71
3
 72
11
 73
7
 74
0
 42
0.0000001
 43
0.0000001
 44
0.0000000001
 40
0.0
 40
0.0
 40
0.0
 40
0.0
 40
0.2709660827
 40
0.525649243
 40
0.7667315483
 40
1.0
 40
1.0
 40
1.0
 40
1.0
 10
-105.2095865598
 20
68.6317721014
 30
0.0
 10
-105.5092519423
 20
68.7182780461
 30
0.0
 10
-106.1089317717
 20
68.8310110063
 30
0.0
 10
-106.9990279021
 20
68.7980470551
 30
0.0
 10
-107.8125335477
 20
68.5559800203
 30
0.0
 10
-108.2798815948
 20
68.2570705486
 30
0.0
 10
-108.4828545688
 20
68.0812894148
 30
0.0
  0
SPLINE
  5
331
100
AcDbEntity
  8
0
100
AcDbSpline
 62
7
  6
CONTINUOUS
 70
0
 71
3
 72
10
 73
6
 74
0
 42
0.0000001
 43
0.0000001
 44
0.0000000001
 40
0.0
 40
0.0
 40
0.0
 40
0.0
 40
0.230668913
 40
0.4756993144
 40
1.0
 40
1.0
 40
1.0
 40
1.0
 10
-1.3677736987
 20
-36.5299625659
 30
0.0
 10
-1.3778161647
 20
-36.538659596
 30
0.0
 10
-1.4032790101
 20
-36.5514566301
 30
0.0
 10
-1.4611504241
 20
-36.5563753511
 30
0.0
 10
-1.5057138567
 20
-36.5499147585
 30
0.0
 10
-1.5347252696
 20
-36.5415396828
 30
0.0
  0
SPLINE
  5
332
100
AcDbEntity
  8
0
100
AcDbSpline
 62
7
  6
CONTINUOUS
 70
0
 71
3
 72
9
 73
5
 74
0
 42
0.0000001
 43
0.0000001
 44
0.0000000001
 40
0.0
 40
0.0
 40
0.0
 40
0.0
 40
0.4777798253
 40
1.0
 40
1.0
 40
1.0
 40
1.0
 10
-1.2272931529
 20
-36.6328391269
 30
0.0
 10
-1.2033282916
 20
-36.6106489084
 30
0.0
 10
-1.166714749
 20
-36.5489033302
 30
0.0
 10
-1.1595463403
 20
-36.4796712597
 30
0.0
 10
-1.1595463403
 20
-36.443972664
 30
0.0
  0
SPLINE
  5
333
100
AcDbEntity
  8
0
100
AcDbSpline
 62
7
  6
CONTINUOUS
 70
0
 71
3
 72
9
 73
5
 74
0
 42
0.0000001
 43
0.0000001
 44
0.0000000001
 40
0.0
 40
0.0
 40
0.0
 40
0.0
 40
0.4771581961
 40
1.0
 40
1.0
 40
1.0
 40
1.0
 10
-1.2442491608
 20
-36.6476548197
 30
0.0
 10
-1.2188947211
 20
-36.6256972309
 30
0.0
 10
-1.17962386
 20
-36.5628550549
 30
0.0
 10
-1.1720463403
 20
-36.4915499797
 30
0.0
 10
-1.1720463403
 20
-36.4547979815
 30
0.0
  0
SPLINE
  5
334
100
AcDbEntity
  8
0
100
AcDbSpline
 62
7
  6
CONTINUOUS
 70
0
 71
3
 72
15
 73
11
 74
0
 42
0.0000001
 43
0.0000001
 44
0.0000000001
 40
0.0
 40
0.0
 40
0.0
 40
0.0
 40
0.1257258711
 40
0.2585035536
 40
0.3914435232
 40
0.5192789747
 40
0.6436256855
 40
0.7648036705
 40
0.8836287261
 40
1.0
 40
1.0
 40
1.0
 40
1.0
 10
0.1795032537
 20
-37.5084235045
 30
0.0
 10
0.1560789266
 20
-37.5016614837
 30
0.0
 10
0.1099515547
 20
-37.4793151218
 30
0.0
 10
0.0550491109
 20
-37.4255501988
 30
0.0
 10
0.0137325712
 20
-37.3606661796
 30
0.0
 10
-0.0123520218
 20
-37.2902505691
 30
0.0
 10
-0.0282773874
 20
-37.2195452267
 30
0.0
 10
-0.0398080697
 20
-37.1498013323
 30
0.0
 10
-0.0460929636
 20
-37.0808927067
 30
0.0
 10
-0.0464371679
 20
-37.0352560713
 30
0.0
 10
-0.0464371679
 20
-37.012689306
 30
0.0
  0
SPLINE
  5
335
100
AcDbEntity
  8
0
100
AcDbSpline
 62
7
  6
CONTINUOUS
 70
0
 71
3
 72
13
 73
9
 74
0
 42
0.0000001
 43
0.0000001
 44
0.0000000001
 40
0.0
 40
0.0
 40
0.0
 40
0.0
 40
0.2632097421
 40
0.518230379
 40
0.6432023518
 40
0.7660927797
 40
0.8843261347
 40
1.0
 40
1.0
 40
1.0
 40
1.0
 10
-0.0464371679
 20
-37.012689306
 30
0.0
 10
-0.0464371679
 20
-36.9810778717
 30
0.0
 10
-0.0453516478
 20
-36.9187400374
 30
0.0
 10
-0.0338459322
 20
-36.8421127513
 30
0.0
 10
-0.0198182484
 20
-36.7833508768
 30
0.0
 10
-0.0064464921
 20
-36.7413783418
 30
0.0
 10
0.0132570849
 20
-36.7029404762
 30
0.0
 10
0.0323763773
 20
-36.6818414893
 30
0.0
 10
0.0428780548
 20
-36.6727467802
 30
0.0
  0
SPLINE
  5
336
100
AcDbEntity
  8
0
100
AcDbSpline
 62
7
  6
CONTINUOUS
 70
0
 71
3
 72
11
 73
7
 74
0
 42
0.0000001
 43
0.0000001
 44
0.0000000001
 40
0.0
 40
0.0
 40
0.0
 40
0.0
 40
0.2706354721
 40
0.5265813991
 40
0.767717938
 40
1.0
 40
1.0
 40
1.0
 40
1.0
 10
0.1795032537
 20
-36.5259161476
 30
0.0
 10
0.157182585
 20
-36.5194727256
 30
0.0
 10
0.1124880659
 20
-36.5108115415
 30
0.0
 10
0.0460575493
 20
-36.5116825631
 30
0.0
 10
-0.0151702096
 20
-36.5284311806
 30
0.0
 10
-0.0497683816
 20
-36.5510684307
 30
0.0
 10
-0.0648413949
 20
-36.5641220502
 30
0.0
  0
SPLINE
  5
337
100
AcDbEntity
  8
0
100
AcDbSpline
 62
7
  6
CONTINUOUS
 70
0
 71
3
 72
9
 73
5
 74
0
 42
0.0000001
 43
0.0000001
 44
0.0000000001
 40
0.0
 40
0.0
 40
0.0
 40
0.0
 40
0.2357109849
 40
1.0
 40
1.0
 40
1.0
 40
1.0
 10
0.2919023928
 20
-37.49547532
 30
0.0
 10
0.2845803827
 20
-37.4985518761
 30
0.0
 10
0.2521017336
 20
-37.5083215754
 30
0.0
 10
0.2167451145
 20
-37.5047405469
 30
0.0
 10
0.1920032537
 20
-37.497598187
 30
0.0
  0
SPLINE
  5
338
100
AcDbEntity
  8
0
100
AcDbSpline
 62
250
  6
CONTINUOUS
 70
0
 71
3
 72
12
 73
8
 74
0
 42
0.0000001
 43
0.0000001
 44
0.0000000001
 40
0.0
 40
0.0
 40
0.0
 40
0.0
 40
0.2020979998
 40
0.4874542407
 40
0.6989210976
 40
0.9861992724
 40
1.0
 40
1.0
 40
1.0
 40
1.0
 10
-1.522223089
 20
-36.5307149947
 30
0.0
 10
-1.5106050681
 20
-36.5340688285
 30
0.0
 10
-1.4825473884
 20
-36.5406073194
 30
0.0
 10
-1.4430411422
 20
-36.5438927734
 30
0.0
 10
-1.4001080211
 20
-36.5422051581
 30
0.0
 10
-1.3747739879
 20
-36.5332367071
 30
0.0
 10
-1.3623553502
 20
-36.5246561715
 30
0.0
 10
-1.3617912725
 20
-36.5242560201
 30
0.0
  0
SPLINE
  5
339
100
AcDbEntity
  8
0
100
AcDbSpline
 62
250
  6
CONTINUOUS
 70
0
 71
3
 72
9
 73
5
 74
0
 42
0.0000001
 43
0.0000001
 44
0.0000000001
 40
0.0
 40
0.0
 40
0.0
 40
0.0
 40
0.940251834
 40
1.0
 40
1.0
 40
1.0
 40
1.0
 10
-1.2107327384
 20
-36.6152768357
 30
0.0
 10
-1.1770176178
 20
-36.574260198
 30
0.0
 10
-1.1589912352
 20
-36.5123824062
 30
0.0
 10
-1.1595463403
 20
-36.447825064
 30
0.0
 10
-1.1595463403
 20
-36.443972664
 30
0.0
  0
SPLINE
  5
33A
100
AcDbEntity
  8
0
100
AcDbSpline
 62
250
  6
CONTINUOUS
 70
0
 71
3
 72
10
 73
6
 74
0
 42
0.0000001
 43
0.0000001
 44
0.0000000001
 40
0.0
 40
0.0
 40
0.0
 40
0.0
 40
0.4197861541
 40
0.6993744108
 40
1.0
 40
1.0
 40
1.0
 40
1.0
 10
0.3222674103
 20
-37.4774810895
 30
0.0
 10
0.3081227345
 20
-37.4884941924
 30
0.0
 10
0.2812219226
 20
-37.5027811246
 30
0.0
 10
0.2349882563
 20
-37.5063068405
 30
0.0
 10
0.2066527897
 20
-37.5018271437
 30
0.0
 10
0.1920032537
 20
-37.497598187
 30
0.0
  0
SPLINE
  5
33B
100
AcDbEntity
  8
0
100
AcDbSpline
 62
250
  6
CONTINUOUS
 70
0
 71
3
 72
16
 73
12
 74
0
 42
0.0000001
 43
0.0000001
 44
0.0000000001
 40
0.0
 40
0.0
 40
0.0
 40
0.0
 40
0.038164233
 40
0.1524042026
 40
0.3040285394
 40
0.4207107553
 40
0.615151006
 40
0.6933712264
 40
0.8425446033
 40
0.918417801
 40
1.0
 40
1.0
 40
1.0
 40
1.0
 10
-0.0339371679
 20
-37.0018639885
 30
0.0
 10
-0.0339371679
 20
-37.0087170558
 30
0.0
 10
-0.0340620168
 20
-37.0360479227
 30
0.0
 10
-0.0323219035
 20
-37.0911437042
 30
0.0
 10
-0.0242180814
 20
-37.1618819744
 30
0.0
 10
-0.0078189229
 20
-37.2478781164
 30
0.0
 10
0.0127593857
 20
-37.3220129027
 30
0.0
 10
0.0554068027
 20
-37.3971216201
 30
0.0
 10
0.0967784184
 20
-37.4473450182
 30
0.0
 10
0.1490182512
 20
-37.4814894377
 30
0.0
 10
0.1773537177
 20
-37.4933692302
 30
0.0
 10
0.1920032537
 20
-37.497598187
 30
0.0
  0
SPLINE
  5
33C
100
AcDbEntity
  8
0
100
AcDbSpline
 62
250
  6
CONTINUOUS
 70
0
 71
3
 72
13
 73
9
 74
0
 42
0.0000001
 43
0.0000001
 44
0.0000000001
 40
0.0
 40
0.0
 40
0.0
 40
0.0
 40
0.0551031388
 40
0.2200476539
 40
0.4389693045
 40
0.6074400385
 40
0.8881811221
 40
1.0
 40
1.0
 40
1.0
 40
1.0
 10
-0.0339371679
 20
-37.0018639885
 30
0.0
 10
-0.0339371679
 20
-36.9950109211
 30
0.0
 10
-0.0340620168
 20
-36.9676079726
 30
0.0
 10
-0.0323219035
 20
-36.9135168461
 30
0.0
 10
-0.0242180814
 20
-36.8474573197
 30
0.0
 10
-0.0078189229
 20
-36.7709292363
 30
0.0
 10
0.0127184306
 20
-36.7087992403
 30
0.0
 10
0.0401687958
 20
-36.6762281633
 30
0.0
 10
0.0489207926
 20
-36.6678167365
 30
0.0
  0
SPLINE
  5
33D
100
AcDbEntity
  8
0
100
AcDbSpline
 62
250
  6
CONTINUOUS
 70
0
 71
3
 72
20
 73
16
 74
0
 42
0.0000001
 43
0.0000001
 44
0.0000000001
 40
0.0
 40
0.0
 40
0.0
 40
0.0
 40
0.015646568
 40
0.0507356058
 40
0.1127269283
 40
0.1748042481
 40
0.2474098512
 40
0.3046523615
 40
0.3830719334
 40
0.4514599011
 40
0.5362946175
 40
0.605871719
 40
0.777548857
 40
0.9289177454
 40
1.0
 40
1.0
 40
1.0
 40
1.0
 10
0.5624779653
 20
-37.1740342073
 30
0.0
 10
0.5624779653
 20
-37.1764859884
 30
0.0
 10
0.5624888414
 20
-37.1844392661
 30
0.0
 10
0.5623562917
 20
-37.2020652246
 30
0.0
 10
0.5615575884
 20
-37.2267657441
 30
0.0
 10
0.5596678849
 20
-37.2569847376
 30
0.0
 10
0.5568514842
 20
-37.2861205053
 30
0.0
 10
0.5527875252
 20
-37.3173319565
 30
0.0
 10
0.5477712648
 20
-37.3474704049
 30
0.0
 10
0.540834373
 20
-37.3811025756
 30
0.0
 10
0.5328459765
 20
-37.4127954183
 30
0.0
 10
0.5196272901
 20
-37.458327867
 30
0.0
 10
0.4979446098
 20
-37.5100482083
 30
0.0
 10
0.4652490981
 20
-37.5533757475
 30
0.0
 10
0.4436428289
 20
-37.5745604158
 30
0.0
 10
0.4363478554
 20
-37.5808780482
 30
0.0
  0
SPLINE
  5
33E
100
AcDbEntity
  8
0
100
AcDbSpline
 62
250
  6
CONTINUOUS
 70
0
 71
3
 72
9
 73
5
 74
0
 42
0.0000001
 43
0.0000001
 44
0.0000000001
 40
0.0
 40
0.0
 40
0.0
 40
0.0
 40
0.1160469011
 40
1.0
 40
1.0
 40
1.0
 40
1.0
 10
2.2510386518
 20
-1.4703865821
 30
0.0
 10
2.2440127906
 20
-1.4758499123
 30
0.0
 10
2.1794343959
 20
-1.5177177046
 30
0.0
 10
2.0835940926
 20
-1.5092322205
 30
0.0
 10
2.0060493931
 20
-1.4885790113
 30
0.0
  0
SPLINE
  5
33F
100
AcDbEntity
  8
0
100
AcDbSpline
 62
250
  6
CONTINUOUS
 70
0
 71
3
 72
10
 73
6
 74
0
 42
0.0000001
 43
0.0000001
 44
0.0000000001
 40
0.0
 40
0.0
 40
0.0
 40
0.0
 40
0.4939032387
 40
0.7479365287
 40
1.0
 40
1.0
 40
1.0
 40
1.0
 10
2.6620638338
 20
-2.2321789585
 30
0.0
 10
2.6419946266
 20
-2.1527181184
 30
0.0
 10
2.6119774095
 20
-2.0311880747
 30
0.0
 10
2.5296554388
 20
-1.8742317053
 30
0.0
 10
2.4638374131
 20
-1.8072577771
 30
0.0
 10
2.4276425136
 20
-1.7823764934
 30
0.0
  0
SPLINE
  5
340
100
AcDbEntity
  8
0
100
AcDbSpline
 62
250
  6
CONTINUOUS
 70
0
 71
3
 72
9
 73
5
 74
0
 42
0.0000001
 43
0.0000001
 44
0.0000000001
 40
0.0
 40
0.0
 40
0.0
 40
0.0
 40
0.1413384539
 40
1.0
 40
1.0
 40
1.0
 40
1.0
 10
2.7917480803
 20
-2.7621823412
 30
0.0
 10
2.7855692067
 20
-2.7372108232
 30
0.0
 10
2.7425061193
 20
-2.5605452178
 30
0.0
 10
2.7003859405
 20
-2.3839017215
 30
0.0
 10
2.6620638338
 20
-2.2321789585
 30
0.0
  0
SPLINE
  5
341
100
AcDbEntity
  8
0
100
AcDbSpline
 62
250
  6
CONTINUOUS
 70
0
 71
3
 72
10
 73
6
 74
0
 42
0.0000001
 43
0.0000001
 44
0.0000000001
 40
0.0
 40
0.0
 40
0.0
 40
0.0
 40
0.2954237646
 40
0.5848737211
 40
1.0
 40
1.0
 40
1.0
 40
1.0
 10
2.3857111213
 20
-0.774686276
 30
0.0
 10
2.2920227728
 20
-0.7137933217
 30
0.0
 10
2.0946883933
 20
-0.6239229065
 30
0.0
 10
1.7573697073
 20
-0.526610699
 30
0.0
 10
1.5205479365
 20
-0.4840485534
 30
0.0
 10
1.3820606011
 20
-0.4644445484
 30
0.0
  0
SPLINE
  5
342
100
AcDbEntity
  8
0
100
AcDbSpline
 62
250
  6
CONTINUOUS
 70
0
 71
3
 72
21
 73
17
 74
0
 42
0.0000001
 43
0.0000001
 44
0.0000000001
 40
0.0
 40
0.0
 40
0.0
 40
0.0
 40
0.0862774964
 40
0.1835586628
 40
0.2367267712
 40
0.2933145561
 40
0.3538035418
 40
0.3857017028
 40
0.4188054017
 40
0.4712286029
 40
0.5207298581
 40
0.6122670382
 40
0.6956975127
 40
0.7721961658
 40
0.9039581226
 40
1.0
 40
1.0
 40
1.0
 40
1.0
 10
2.5854842545
 20
-1.6884209807
 30
0.0
 10
2.6035280913
 20
-1.6708360607
 30
0.0
 10
2.6379648523
 20
-1.6290616683
 30
0.0
 10
2.6702287938
 20
-1.5649323495
 30
0.0
 10
2.6891674181
 20
-1.5031828476
 30
0.0
 10
2.699283699
 20
-1.4495585465
 30
0.0
 10
2.7032233647
 20
-1.4005807405
 30
0.0
 10
2.7034918479
 20
-1.3583733132
 30
0.0
 10
2.7018744489
 20
-1.3183708969
 30
0.0
 10
2.6970804632
 20
-1.2716948158
 30
0.0
 10
2.6846680518
 20
-1.2040716972
 30
0.0
 10
2.6609187883
 20
-1.1250037932
 30
0.0
 10
2.6210660604
 20
-1.0383232325
 30
0.0
 10
2.5618033023
 20
-0.9424008817
 30
0.0
 10
2.4840939422
 20
-0.8515146148
 30
0.0
 10
2.4161436873
 20
-0.7944500568
 30
0.0
 10
2.3857111213
 20
-0.774686276
 30
0.0
  0
SPLINE
  5
343
100
AcDbEntity
  8
0
100
AcDbSpline
 62
250
  6
CONTINUOUS
 70
0
 71
3
 72
23
 73
19
 74
0
 42
0.0000001
 43
0.0000001
 44
0.0000000001
 40
0.0
 40
0.0
 40
0.0
 40
0.0
 40
0.0098690806
 40
0.0320015087
 40
0.0711025664
 40
0.110257867
 40
0.1560538874
 40
0.1921596294
 40
0.2416228136
 40
0.2847585585
 40
0.3382680983
 40
0.3821538899
 40
0.4904393306
 40
0.5859153327
 40
0.6536837292
 40
0.7449631414
 40
0.8824283279
 40
1.0
 40
1.0
 40
1.0
 40
1.0
 10
0.5624779653
 20
-37.1740342073
 30
0.0
 10
0.5624779653
 20
-37.1715824262
 30
0.0
 10
0.5624888414
 20
-37.1636354278
 30
0.0
 10
0.5623562917
 20
-37.1459329418
 30
0.0
 10
0.5615575884
 20
-37.1207712906
 30
0.0
 10
0.5596678849
 20
-37.0894612764
 30
0.0
 10
0.5568514842
 20
-37.0586994589
 30
0.0
 10
0.5527875252
 20
-37.0251416799
 30
0.0
 10
0.5477712648
 20
-36.9921070923
 30
0.0
 10
0.540834373
 20
-36.9544699052
 30
0.0
 10
0.5328459765
 20
-36.9181649597
 30
0.0
 10
0.5196272901
 20
-36.8650006988
 30
0.0
 10
0.4979446098
 20
-36.8007618562
 30
0.0
 10
0.462232912
 20
-36.7328191597
 30
0.0
 10
0.4221045583
 20
-36.6721916623
 30
0.0
 10
0.3653579393
 20
-36.6078020035
 30
0.0
 10
0.284769854
 20
-36.5499422271
 30
0.0
 10
0.2212116483
 20
-36.5235225673
 30
0.0
 10
0.1920032537
 20
-36.5150908301
 30
0.0
  0
SPLINE
  5
344
100
AcDbEntity
  8
0
100
AcDbSpline
 62
250
  6
CONTINUOUS
 70
0
 71
3
 72
10
 73
6
 74
0
 42
0.0000001
 43
0.0000001
 44
0.0000000001
 40
0.0
 40
0.0
 40
0.0
 40
0.0
 40
0.2297356676
 40
0.6449091083
 40
1.0
 40
1.0
 40
1.0
 40
1.0
 10
-0.0328338552
 20
-36.5382229147
 30
0.0
 10
-0.0192637214
 20
-36.5289436602
 30
0.0
 10
0.0221887007
 20
-36.5072178188
 30
0.0
 10
0.0992366535
 20
-36.4963834054
 30
0.0
 10
0.1627948591
 20
-36.5066590928
 30
0.0
 10
0.1920032537
 20
-36.5150908301
 30
0.0
  0
ENDSEC
  0
SECTION
  2
OBJECTS
  0
DICTIONARY
  5
C
100
AcDbDictionary
280
0
281
1
  3
ACAD_GROUP
350
D
  3
ACAD_MLINESTYLE
350
17
  3
ACAD_LAYOUT
350
1A
  3
ACAD_PLOTSETTINGS
350
19
  3
ACAD_PLOTSTYLENAME
350
E
  0
DICTIONARY
  5
D
102
{ACAD_REACTORS
330
C
102
}
100
AcDbDictionary
280
0
281
1
  0
ACDBDICTIONARYWDFLT
  5
E
102
{ACAD_REACTORS
330
C
102
}
100
AcDbDictionary
281
1
  3
Normal
350
F
100
AcDbDictionaryWithDefault
340
F
  0
DICTIONARY
  5
17
102
{ACAD_REACTORS
330
C
102
}
100
AcDbDictionary
280
0
281
1
  3
Standard
350
18
  0
DICTIONARY
  5
19
102
{ACAD_REACTORS
330
C
102
}
100
AcDbDictionary
281
1
  0
DICTIONARY
  5
1A
102
{ACAD_REACTORS
330
C
102
}
100
AcDbDictionary
281
1
  3
Model
350
345
  3
Layout1
350
346
  0
ACDBPLACEHOLDER
  5
F
102
{ACAD_REACTORS
330
E
102
}
  0
MLINESTYLE
  5
18
102
{ACAD_REACTORS
330
17
102
}
100
AcDbMlineStyle
  2
STANDARD
 70
0
  3

 62
256
 51
90.0
 52
90.0
 71
2
 49
0.5
 62
256
  6
BYLAYER
 49
-0.5
 62
256
  6
BYLAYER
  0
LAYOUT
  5
345
102
{ACAD_REACTORS
330
1A
102
}
100
AcDbPlotSettings
  1

  2
none_device
  4
ANSI_C_(22.00_x_17.00_Inches)
  6

 40
0.0
 41
0.0
 42
0.0
 43
0.0
 44
558.8
 45
431.8
 46
0.0
 47
0.0
 48
0.0
 49
0.0
140
0.0
141
0.0
142
1.0
143
1.0
 70
1024
 72
1
 73
0
 74
0
  7

 75
0
147
1.0
148
0.0
149
0.0
100
AcDbLayout
  1
Model
 70
0
 71
0
 10
0.0
 20
0.0
 11
558.8
 21
431.8
 12
0.0
 22
0.0
 32
0.0
 14
0.0
 24
0.0
 34
0.0
 15
0.0
 25
0.0
 35
0.0
146
0.0
 13
0.0
 23
0.0
 33
0.0
 16
1.0
 26
0.0
 36
0.0
 17
0.0
 27
1.0
 37
0.0
 76
0
330
20B
345
0
346
0
  0
LAYOUT
  5
346
102
{ACAD_REACTORS
330
1A
102
}
100
AcDbPlotSettings
  1

  2
none_device
  4
ANSI_C_(22.00_x_17.00_Inches)
  6

 40
0.0
 41
0.0
 42
0.0
 43
0.0
 44
558.8
 45
431.8
 46
0.0
 47
0.0
 48
0.0
 49
0.0
140
0.0
141
0.0
142
1.0
143
1.0
 70
0
 72
1
 73
0
 74
0
  7

 75
0
147
1.0
148
0.0
149
0.0
100
AcDbLayout
  1
Layout1
 70
0
 71
1
 10
0.0
 20
0.0
 11
558.8
 21
431.8
 12
0.0
 22
0.0
 32
0.0
 14
0.0
 24
0.0
 34
0.0
 15
0.0
 25
0.0
 35
0.0
146
0.0
 13
0.0
 23
0.0
 33
0.0
 16
1.0
 26
0.0
 36
0.0
 17
0.0
 27
1.0
 37
0.0
 76
0
330
20C
345
0
346
0
  0
ENDSEC
  0
EOF
