  0
SECTION
  2
HEADER
  9
$ACADVER
  1
AC1024
  9
$DWGCODEPAGE
  3
ANSI_1252
  9
$EXTMAX
 10
558.8
 20
431.8
 30
0.0
  9
$EXTMIN
 10
0.0
 20
0.0
 30
0.0
  9
$LIMMIN
 10
0.0
 20
0.0
  9
$LIMMAX
 10
558.8
 20
431.8
  9
$VIEWCTR
 10
279.4
 20
215.9
  9
$VIEWSIZE
 40
431.8
  9
$CLAYER
  8
0
  9
$LTSCALE
 40
30.734
  9
$CELTYPE
  6
BYLAYER
  9
$DIMSCALE
 40
1.0
  9
$DIMASZ
 40
3.0
  9
$DIMEXO
 40
0.5
  9
$DIMDLI
 40
21.2344
  9
$DIMEXE
 40
1.5
  9
$DIMCEN
 40
5.0292
  9
$DIMLFAC
 40
1.0
  9
$DIMBLK
  1
_FILLED
  9
$DIMALT
 70
0
  9
$DIMALTF
 40
0.0393700787
  9
$DIMTXT
 40
3.0
  9
$DIMTOL
 70
1
  9
$DIMLIM
 70
0
  9
$DIMTFAC
 40
1.0
  9
$DIMTP
 40
0.01
  9
$DIMTM
 40
0.01
  9
$DIMGAP
 40
0.625
  9
$DIMDSEP
 70
44
  9
$AUNITS
 70
0
  9
$PDMODE
 70
3
  9
$PDSIZE
 40
3.0
  9
$HANDSEED
  5
348
  9
$TILEMODE
 70
1
  9
$MEASUREMENT
 70
1
  9
$INSUNITS
 70
4
  0
ENDSEC
  0
SECTION
  2
CLASSES
  0
CLASS
  1
ACDBDICTIONARYWDFLT
  2
AcDbDictionaryWithDefault
  3
AutoCAD 2000
 90
0
 91
1
280
0
281
0
  0
CLASS
  1
ACDBPLACEHOLDER
  2
AcDbPlaceHolder
  3
AutoCAD 2000
 90
0
 91
1
280
0
281
0
  0
CLASS
  1
LAYOUT
  2
AcDbLayout
  3
AutoCAD 2000
 90
0
 91
0
280
0
281
0
  0
ENDSEC
  0
SECTION
  2
TABLES
  0
TABLE
  2
VPORT
  5
8
100
AcDbSymbolTable
 70
2
  0
VPORT
  5
1F4
100
AcDbSymbolTableRecord
100
AcDbViewportTableRecord
  2
*ACTIVE
 70
0
 10
0.0
 20
0.0
 11
1.0
 21
1.0
 12
279.4
 22
215.9
 13
0.0
 23
0.0
 14
1.0
 24
1.0
 15
0.0
 25
0.0
 16
0.0
 26
0.0
 36
1.0
 17
0.0
 27
0.0
 37
0.0
 40
431.8
 41
1.2941176471
 42
50.0
 43
0.0
 44
0.0
 50
0.0
 51
0.0
 71
0
 72
100
 73
1
 74
1
 75
0
 76
0
 77
0
 78
0
  0
ENDTAB
  0
TABLE
  2
LTYPE
  5
5
100
AcDbSymbolTable
 70
6
  0
LTYPE
  5
14
100
AcDbSymbolTableRecord
100
AcDbLinetypeTableRecord
  2
BYBLOCK
 70
0
  3

 72
65
 73
0
 40
0.0
  0
LTYPE
  5
15
100
AcDbSymbolTableRecord
100
AcDbLinetypeTableRecord
  2
BYLAYER
 70
0
  3

 72
65
 73
0
 40
0.0
  0
LTYPE
  5
16
100
AcDbSymbolTableRecord
100
AcDbLinetypeTableRecord
  2
CONTINUOUS
 70
64
  3
Solid line
 72
65
 73
0
 40
0.0
  0
LTYPE
  5
1F5
100
AcDbSymbolTableRecord
100
AcDbLinetypeTableRecord
  2
CENTER
 70
64
  3
____ _ ____ _ ____ _ ____ _ ____ _ ____ _ ____
 72
65
 73
4
 40
0.6
 49
0.375
 74
0
 49
-0.075
 74
0
 49
0.075
 74
0
 49
-0.075
 74
0
  0
LTYPE
  5
1F6
100
AcDbSymbolTableRecord
100
AcDbLinetypeTableRecord
  2
HIDDEN
 70
64
  3
- - - - - - - - - - - - - - - - - - - -
 72
65
 73
2
 40
0.2
 49
0.1
 74
0
 49
-0.1
 74
0
  0
LTYPE
  5
1F7
100
AcDbSymbolTableRecord
100
AcDbLinetypeTableRecord
  2
PHANTOM
 70
64
  3
_____ _ _ _____ _ _ _____ _ _ _____
 72
65
 73
6
 40
0.8
 49
0.45
 74
0
 49
-0.05
 74
0
 49
0.1
 74
0
 49
-0.05
 74
0
 49
0.1
 74
0
 49
-0.05
 74
0
  0
LTYPE
  5
1F8
100
AcDbSymbolTableRecord
100
AcDbLinetypeTableRecord
  2
DOT
 70
64
  3
. . . . . . . . . . . . . . . . . . . .
 72
65
 73
2
 40
0.2
 49
0.1
 74
0
 49
-0.1
 74
0
  0
LTYPE
  5
1F9
100
AcDbSymbolTableRecord
100
AcDbLinetypeTableRecord
  2
DASHED
 70
64
  3
- - - - - - - - - - - - - - - - - - - -
 72
65
 73
2
 40
0.2
 49
0.1
 74
0
 49
-0.1
 74
0
  0
ENDTAB
  0
TABLE
  2
LAYER
  5
2
100
AcDbSymbolTable
 70
36
  0
LAYER
  5
10
100
AcDbSymbolTableRecord
100
AcDbLayerTableRecord
  2
0
 70
0
 62
7
  6
CONTINUOUS
370
-3
390
F
  0
LAYER
  5
1FA
100
AcDbSymbolTableRecord
100
AcDbLayerTableRecord
  2
DEFAULT_1
 70
0
 62
7
  6
CENTER
370
-3
390
F
  0
LAYER
  5
1FB
100
AcDbSymbolTableRecord
100
AcDbLayerTableRecord
  2
DEFAULT_2
 70
0
 62
7
  6
HIDDEN
370
-3
390
F
  0
LAYER
  5
1FC
100
AcDbSymbolTableRecord
100
AcDbLayerTableRecord
  2
DEFAULT_3
 70
0
 62
7
  6
PHANTOM
370
-3
390
F
  0
LAYER
  5
1FD
100
AcDbSymbolTableRecord
100
AcDbLayerTableRecord
  2
ASSI
 70
0
 62
7
  6
CONTINUOUS
370
-3
390
F
  0
LAYER
  5
1FE
100
AcDbSymbolTableRecord
100
AcDbLayerTableRecord
  2
COORDINATE
 70
0
 62
7
  6
CONTINUOUS
370
-3
390
F
  0
LAYER
  5
1FF
100
AcDbSymbolTableRecord
100
AcDbLayerTableRecord
  2
COPY_PUBLISH
 70
0
 62
7
  6
CONTINUOUS
370
-3
390
F
  0
LAYER
  5
200
100
AcDbSymbolTableRecord
100
AcDbLayerTableRecord
  2
COSMETIC
 70
0
 62
7
  6
CONTINUOUS
370
-3
390
F
  0
LAYER
  5
201
100
AcDbSymbolTableRecord
100
AcDbLayerTableRecord
  2
CURVE
 70
0
 62
7
  6
CONTINUOUS
370
-3
390
F
  0
LAYER
  5
202
100
AcDbSymbolTableRecord
100
AcDbLayerTableRecord
  2
IMPORT_IGES
 70
0
 62
7
  6
CONTINUOUS
370
-3
390
F
  0
LAYER
  5
203
100
AcDbSymbolTableRecord
100
AcDbLayerTableRecord
  2
NOTE
 70
0
 62
7
  6
CONTINUOUS
370
-3
390
F
  0
LAYER
  5
204
100
AcDbSymbolTableRecord
100
AcDbLayerTableRecord
  2
PIANI
 70
0
 62
7
  6
CONTINUOUS
370
-3
390
F
  0
LAYER
  5
205
100
AcDbSymbolTableRecord
100
AcDbLayerTableRecord
  2
PUNTI
 70
0
 62
7
  6
CONTINUOUS
370
-3
390
F
  0
LAYER
  5
206
100
AcDbSymbolTableRecord
100
AcDbLayerTableRecord
  2
RACCORDO
 70
0
 62
7
  6
CONTINUOUS
370
-3
390
F
  0
LAYER
  5
207
100
AcDbSymbolTableRecord
100
AcDbLayerTableRecord
  2
SNAPLINE
 70
0
 62
7
  6
CONTINUOUS
370
-3
390
F
  0
LAYER
  5
208
100
AcDbSymbolTableRecord
100
AcDbLayerTableRecord
  2
TRASH
 70
0
 62
7
  6
CONTINUOUS
370
-3
390
F
  0
ENDTAB
  0
TABLE
  2
STYLE
  5
3
100
AcDbSymbolTable
 70
1
  0
STYLE
  5
11
100
AcDbSymbolTableRecord
100
AcDbTextStyleTableRecord
  2
STANDARD
 70
0
 40
0.0
 41
0.8
 50
0.0
 71
0
 42
0.2
  3
txt
  4

  0
STYLE
  5
209
100
AcDbSymbolTableRecord
100
AcDbTextStyleTableRecord
  2
TEXTSTYLE_1
 70
0
 40
0.0
 41
0.8
 50
0.0
 71
0
 42
0.2
  3
gdt
  4

  0
ENDTAB
  0
TABLE
  2
VIEW
  5
6
100
AcDbSymbolTable
 70
0
  0
ENDTAB
  0
TABLE
  2
UCS
  5
7
100
AcDbSymbolTable
 70
0
  0
ENDTAB
  0
TABLE
  2
APPID
  5
9
100
AcDbSymbolTable
 70
1
  0
APPID
  5
20A
100
AcDbSymbolTableRecord
100
AcDbRegAppTableRecord
  2
ACAD
 70
0
  0
ENDTAB
  0
TABLE
  2
BLOCK_RECORD
  5
1
100
AcDbSymbolTable
 70
0
  0
BLOCK_RECORD
  5
20B
100
AcDbSymbolTableRecord
100
AcDbBlockTableRecord
  2
*Model_Space
  0
BLOCK_RECORD
  5
20C
100
AcDbSymbolTableRecord
100
AcDbBlockTableRecord
  2
*Paper_Space
  0
BLOCK_RECORD
  5
20D
100
AcDbSymbolTableRecord
100
AcDbBlockTableRecord
  2
_FILLED
  0
ENDTAB
  0
TABLE
  2
DIMSTYLE
  5
A
100
AcDbSymbolTable
 70
1
100
AcDbDimStyleTable
 71
0
  0
DIMSTYLE
105
20E
100
AcDbSymbolTableRecord
100
AcDbDimStyleTableRecord
  2
STANDARD
 70
0
  3

  4

 40
1.0
 41
3.0
 42
0.5
 43
0.38
 44
1.5
 45
0.0
 46
0.0
 47
0.01
 48
0.01
140
3.0
141
0.09
142
0.0
143
25.4
144
1.0
145
0.0
146
1.0
147
0.625
 71
1.0
 72
0.0
 73
0
 74
0
 75
0
 76
0
 77
1
 78
8
 79
2
170
0
171
1
172
0
173
0
174
0
175
0
176
0
177
0
178
0
270
2
179
2
271
2
272
2
273
2
274
2
275
0
280
0
281
0
282
0
283
1
284
8
285
0
286
0
287
3
288
0
340
11
278
44
341
20D
342
20D
343
20D
344
20D
  0
ENDTAB
  0
ENDSEC
  0
SECTION
  2
BLOCKS
  0
BLOCK
  5
20
100
AcDbEntity
  8
0
100
AcDbBlockBegin
  2
*Model_Space
 70
0
 10
0.0
 20
0.0
 30
0.0
  3
*Model_Space
  1

  0
ENDBLK
  5
21
100
AcDbEntity
  8
0
100
AcDbBlockEnd
  0
BLOCK
  5
1C
100
AcDbEntity
  8
0
100
AcDbBlockBegin
  2
*Paper_Space
 70
0
 10
0.0
 20
0.0
 30
0.0
  3
*Paper_Space
  1

  0
ENDBLK
  5
1D
100
AcDbEntity
  8
0
100
AcDbBlockEnd
  0
BLOCK
  5
20F
100
AcDbEntity
  8
0
100
AcDbBlockBegin
  2
_FILLED
 70
64
 10
0.0
 20
0.0
  3
_FILLED
  1

  0
SOLID
  5
210
100
AcDbEntity
  8
0
  6
BYBLOCK
 62
0
100
AcDbTrace
 10
0.0
 20
0.0
 11
-1.0
 21
0.3166666667
 12
-1.0
 22
-0.3166666667
 13
-1.0
 23
-0.3166666667
  0
ENDBLK
  5
211
100
AcDbEntity
  8
0
  6
BYBLOCK
 62
0
100
AcDbBlockEnd
  0
ENDSEC
  0
SECTION
  2
ENTITIES
  0
LINE
  5
212
100
AcDbEntity
  8
ASSI
100
AcDbLine
 62
7
  6
CONTINUOUS
 10
-113.9659509426
 20
79.7103012315
 11
-115.0159509426
 21
78.8009745575
  0
LINE
  5
213
100
AcDbEntity
  8
RACCORDO
100
AcDbLine
 62
250
  6
CONTINUOUS
 10
-110.6926825891
 20
80.2607835203
 11
-111.7426825891
 21
79.3514568464
  0
LINE
  5
214
100
AcDbEntity
  8
RACCORDO
100
AcDbLine
 62
7
  6
CONTINUOUS
 10
-116.2067842042
 20
76.0213298274
 11
-116.2067842042
 21
-10.581210551
  0
LINE
  5
215
100
AcDbEntity
  8
RACCORDO
100
AcDbLine
 62
250
  6
CONTINUOUS
 10
-115.7067842042
 20
75.5883171255
 11
-115.7067842042
 21
-11.0142232529
  0
LINE
  5
216
100
AcDbEntity
  8
RACCORDO
100
AcDbLine
 62
7
  6
CONTINUOUS
 10
-112.0200326872
 20
-16.006081089
 11
110.5484960854
 21
-80.256081089
  0
LINE
  5
217
100
AcDbEntity
  8
RACCORDO
100
AcDbLine
 62
250
  6
CONTINUOUS
 10
-112.2426825891
 20
-15.478324868
 11
110.3258461835
 21
-79.728324868
  0
LINE
  5
218
100
AcDbEntity
  8
0
100
AcDbLine
 62
7
  6
CONTINUOUS
 10
-2.7446915163
 20
-45.8570857315
 11
-2.5662725296
 21
-45.9085908565
  0
LINE
  5
219
100
AcDbEntity
  8
0
100
AcDbLine
 62
7
  6
CONTINUOUS
 10
-2.2425877407
 20
-46.0020306065
 11
-2.0642181174
 21
-46.0535214815
  0
LINE
  5
21A
100
AcDbEntity
  8
0
100
AcDbLine
 62
7
  6
CONTINUOUS
 10
-0.5634987167
 20
-46.4867418565
 11
-0.4016563222
 21
-46.5334617315
  0
LINE
  5
21B
100
AcDbEntity
  8
0
100
AcDbLine
 62
7
  6
CONTINUOUS
 10
-1.128083194
 20
-46.0092567359
 11
-0.5634987167
 21
-46.1722382359
  0
LINE
  5
21C
100
AcDbEntity
  8
0
100
AcDbLine
 62
7
  6
CONTINUOUS
 10
-0.4016563222
 20
-46.2189581109
 11
-0.2122028728
 21
-46.2736486109
  0
LINE
  5
21D
100
AcDbEntity
  8
0
100
AcDbLine
 62
7
  6
CONTINUOUS
 10
-0.2122028728
 20
-46.1338902972
 11
-0.4016563222
 21
-46.0791997972
  0
LINE
  5
21E
100
AcDbEntity
  8
0
100
AcDbLine
 62
7
  6
CONTINUOUS
 10
-0.5634987167
 20
-46.0324799222
 11
-0.979138949
 21
-45.9124949222
  0
LINE
  5
21F
100
AcDbEntity
  8
0
100
AcDbLine
 62
7
  6
CONTINUOUS
 10
-0.1997028728
 20
-46.1230649797
 11
-0.3891563222
 21
-46.0683744797
  0
LINE
  5
220
100
AcDbEntity
  8
0
100
AcDbLine
 62
7
  6
CONTINUOUS
 10
-0.5634987167
 20
-46.0180461655
 11
-0.966638949
 21
-45.9016696047
  0
LINE
  5
221
100
AcDbEntity
  8
0
100
AcDbLine
 62
7
  6
CONTINUOUS
 10
-2.0642181174
 20
-45.4962544857
 11
-1.6489944499
 21
-45.6161192338
  0
LINE
  5
222
100
AcDbEntity
  8
0
100
AcDbLine
 62
7
  6
CONTINUOUS
 10
-1.6906088395
 20
-45.4514787432
 11
-2.0642181174
 21
-45.3436270346
  0
LINE
  5
223
100
AcDbEntity
  8
0
100
AcDbLine
 62
7
  6
CONTINUOUS
 10
-1.6781087605
 20
-45.4406534484
 11
-2.0517181174
 21
-45.332801717
  0
LINE
  5
224
100
AcDbEntity
  8
0
100
AcDbLine
 62
7
  6
CONTINUOUS
 10
-2.0642181174
 20
-44.8856771312
 11
-1.6906126612
 21
-44.9935277365
  0
LINE
  5
225
100
AcDbEntity
  8
0
100
AcDbLine
 62
7
  6
CONTINUOUS
 10
-0.4016563222
 20
-45.2129903631
 11
-0.5159812018
 21
-45.1799876131
  0
LINE
  5
226
100
AcDbEntity
  8
0
100
AcDbLine
 62
7
  6
CONTINUOUS
 10
-1.6489920391
 20
-44.8529155571
 11
-2.2425877407
 21
-44.6815592381
  0
LINE
  5
227
100
AcDbEntity
  8
0
100
AcDbLine
 62
7
  6
CONTINUOUS
 10
-2.5662725296
 20
-44.5881194881
 11
-2.7446915163
 21
-44.5366143631
  0
LINE
  5
228
100
AcDbEntity
  8
0
100
AcDbLine
 62
7
  6
CONTINUOUS
 10
-0.3891563222
 20
-45.2021650455
 11
-0.5034812018
 21
-45.1691622955
  0
LINE
  5
229
100
AcDbEntity
  8
0
100
AcDbLine
 62
7
  6
CONTINUOUS
 10
-1.6364920324
 20
-44.8420902415
 11
-2.2300877407
 21
-44.6707339205
  0
LINE
  5
22A
100
AcDbEntity
  8
0
100
AcDbLine
 62
7
  6
CONTINUOUS
 10
-2.5537725296
 20
-44.5772941705
 11
-2.7321915163
 21
-44.5257890455
  0
LINE
  5
22B
100
AcDbEntity
  8
0
100
AcDbLine
 62
7
  6
CONTINUOUS
 10
-0.4539646896
 20
-1.9174384335
 11
-0.6361543509
 21
0.083475059
  0
LINE
  5
22C
100
AcDbEntity
  8
0
100
AcDbLine
 62
7
  6
CONTINUOUS
 10
-0.4414646896
 20
-1.906613116
 11
-0.6236543509
 21
0.0943003766
  0
LINE
  5
22D
100
AcDbEntity
  8
0
100
AcDbLine
 62
7
  6
CONTINUOUS
 10
-0.9353721901
 20
-0.5115551652
 11
-0.8518163271
 21
-1.8025885585
  0
LINE
  5
22E
100
AcDbEntity
  8
0
100
AcDbLine
 62
7
  6
CONTINUOUS
 10
-3.0555227561
 20
0.7820034725
 11
-3.0555227561
 21
-1.1664333085
  0
LINE
  5
22F
100
AcDbEntity
  8
0
100
AcDbLine
 62
7
  6
CONTINUOUS
 10
-2.7446915163
 20
-44.5366143631
 11
-2.7446915163
 21
-45.8570857315
  0
LINE
  5
230
100
AcDbEntity
  8
0
100
AcDbLine
 62
7
  6
CONTINUOUS
 10
-2.6488320303
 20
-1.2838348085
 11
-2.6488320303
 21
0.6646019725
  0
LINE
  5
231
100
AcDbEntity
  8
0
100
AcDbLine
 62
7
  6
CONTINUOUS
 10
-2.6363320303
 20
-1.273009491
 11
-2.6363320303
 21
0.67542729
  0
LINE
  5
232
100
AcDbEntity
  8
0
100
AcDbLine
 62
7
  6
CONTINUOUS
 10
-2.5662725296
 20
-45.9085908565
 11
-2.5662725296
 21
-44.5881194881
  0
LINE
  5
233
100
AcDbEntity
  8
0
100
AcDbLine
 62
7
  6
CONTINUOUS
 10
-2.5537725296
 20
-45.8977655389
 11
-2.5537725296
 21
-44.5772941705
  0
LINE
  5
234
100
AcDbEntity
  8
0
100
AcDbLine
 62
7
  6
CONTINUOUS
 10
-2.2425877407
 20
-44.6815592381
 11
-2.2425877407
 21
-46.0020306065
  0
LINE
  5
235
100
AcDbEntity
  8
0
100
AcDbLine
 62
7
  6
CONTINUOUS
 10
-2.0642181174
 20
-46.0535214815
 11
-2.0642181174
 21
-45.4962544857
  0
LINE
  5
236
100
AcDbEntity
  8
0
100
AcDbLine
 62
7
  6
CONTINUOUS
 10
-2.0642181174
 20
-45.3436270346
 11
-2.0642181174
 21
-44.8856771312
  0
LINE
  5
237
100
AcDbEntity
  8
0
100
AcDbLine
 62
7
  6
CONTINUOUS
 10
-2.0517181174
 20
-46.0426961639
 11
-2.0517181174
 21
-45.4998629249
  0
LINE
  5
238
100
AcDbEntity
  8
0
100
AcDbLine
 62
7
  6
CONTINUOUS
 10
-2.0517181174
 20
-45.332801717
 11
-2.0517181174
 21
-44.8892855704
  0
LINE
  5
239
100
AcDbEntity
  8
0
100
AcDbLine
 62
7
  6
CONTINUOUS
 10
-1.128083194
 20
-45.8511070738
 11
-1.128083194
 21
-46.0092567359
  0
LINE
  5
23A
100
AcDbEntity
  8
0
100
AcDbLine
 62
7
  6
CONTINUOUS
 10
-0.5634987167
 20
-45.4405437645
 11
-0.5634987167
 21
-46.0324799222
  0
LINE
  5
23B
100
AcDbEntity
  8
0
100
AcDbLine
 62
7
  6
CONTINUOUS
 10
-0.5634987167
 20
-46.1722382359
 11
-0.5634987167
 21
-46.4867418565
  0
LINE
  5
23C
100
AcDbEntity
  8
0
100
AcDbLine
 62
7
  6
CONTINUOUS
 10
-0.4016563222
 20
-46.5334617315
 11
-0.4016563222
 21
-46.2189581109
  0
LINE
  5
23D
100
AcDbEntity
  8
0
100
AcDbLine
 62
7
  6
CONTINUOUS
 10
-0.4016563222
 20
-46.0791997972
 11
-0.4016563222
 21
-45.2129903631
  0
LINE
  5
23E
100
AcDbEntity
  8
0
100
AcDbLine
 62
7
  6
CONTINUOUS
 10
-0.3891563222
 20
-46.5226364139
 11
-0.3891563222
 21
-46.2225665501
  0
LINE
  5
23F
100
AcDbEntity
  8
0
100
AcDbLine
 62
7
  6
CONTINUOUS
 10
-0.3891563222
 20
-46.0683744797
 11
-0.3891563222
 21
-45.2021650455
  0
LINE
  5
240
100
AcDbEntity
  8
0
100
AcDbLine
 62
7
  6
CONTINUOUS
 10
-0.2122028728
 20
-46.2736486109
 11
-0.2122028728
 21
-46.1338902972
  0
LINE
  5
241
100
AcDbEntity
  8
0
100
AcDbLine
 62
7
  6
CONTINUOUS
 10
-0.1997028728
 20
-46.2628232933
 11
-0.1997028728
 21
-46.1230649797
  0
LINE
  5
242
100
AcDbEntity
  8
0
100
AcDbLine
 62
7
  6
CONTINUOUS
 10
-2.0408267713
 20
-1.4593508085
 11
-1.9530633238
 21
-0.2124699336
  0
LINE
  5
243
100
AcDbEntity
  8
0
100
AcDbLine
 62
7
  6
CONTINUOUS
 10
-2.0283267713
 20
-1.448525491
 11
-1.9433464738
 21
-0.2411856384
  0
LINE
  5
244
100
AcDbEntity
  8
0
100
AcDbLine
 62
7
  6
CONTINUOUS
 10
-2.2539755417
 20
0.550499809
 11
-2.4298977772
 21
-1.3470356835
  0
LINE
  5
245
100
AcDbEntity
  8
0
100
AcDbLine
 62
7
  6
CONTINUOUS
 10
0.2075869202
 20
-1.4184867334
 11
0.4100848772
 21
-0.7538969498
  0
LINE
  5
246
100
AcDbEntity
  8
0
100
AcDbLine
 62
7
  6
CONTINUOUS
 10
0.2200869202
 20
-1.4076614159
 11
0.4141440786
 21
-0.7707739784
  0
LINE
  5
247
100
AcDbEntity
  8
0
100
AcDbLine
 62
7
  6
CONTINUOUS
 10
-3.6128594669
 20
0.942775809
 11
-3.9955894348
 21
-0.2878284012
  0
LINE
  5
248
100
AcDbEntity
  8
0
100
AcDbLine
 62
7
  6
CONTINUOUS
 10
0.012175216
 20
-2.0520014335
 11
0.1243960869
 21
-1.695442716
  0
LINE
  5
249
100
AcDbEntity
  8
0
100
AcDbLine
 62
7
  6
CONTINUOUS
 10
0.024675216
 20
-2.041176116
 11
0.132669464
 21
-1.6980466226
  0
LINE
  5
24A
100
AcDbEntity
  8
0
100
AcDbLine
 62
7
  6
CONTINUOUS
 10
0.221013778
 20
-0.163968066
 11
-0.3901035433
 21
-1.9358735585
  0
LINE
  5
24B
100
AcDbEntity
  8
0
100
AcDbLine
 62
7
  6
CONTINUOUS
 10
-3.8327147381
 20
-0.9420773085
 11
-3.2064467353
 21
0.825454559
  0
LINE
  5
24C
100
AcDbEntity
  8
0
100
AcDbLine
 62
7
  6
CONTINUOUS
 10
-3.8202147381
 20
-0.931251991
 11
-3.1939467353
 21
0.8362798766
  0
LINE
  5
24D
100
AcDbEntity
  8
0
100
AcDbLine
 62
7
  6
CONTINUOUS
 10
-1.0385353013
 20
0.199632434
 11
-1.445225594
 21
-0.7646795517
  0
LINE
  5
24E
100
AcDbEntity
  8
0
100
AcDbLine
 62
7
  6
CONTINUOUS
 10
-1.4189274336
 20
-1.6388776835
 11
-0.9353721901
 21
-0.5115551652
  0
LINE
  5
24F
100
AcDbEntity
  8
0
100
AcDbLine
 62
7
  6
CONTINUOUS
 10
-1.4064274336
 20
-1.628052366
 11
-0.9343421755
 21
-0.527470066
  0
LINE
  5
250
100
AcDbEntity
  8
0
100
AcDbLine
 62
7
  6
CONTINUOUS
 10
-4.7962665043
 20
1.2988297516
 11
-4.8087665043
 21
1.288004434
  0
LINE
  5
251
100
AcDbEntity
  8
0
100
AcDbLine
 62
7
  6
CONTINUOUS
 10
-4.3544744699
 20
1.1712953766
 11
-4.3669744699
 21
1.160470059
  0
LINE
  5
252
100
AcDbEntity
  8
0
100
AcDbLine
 62
7
  6
CONTINUOUS
 10
-3.6003594669
 20
0.9536011266
 11
-3.6128594669
 21
0.942775809
  0
LINE
  5
253
100
AcDbEntity
  8
0
100
AcDbLine
 62
7
  6
CONTINUOUS
 10
-3.1939467353
 20
0.8362798766
 11
-3.2064467353
 21
0.825454559
  0
LINE
  5
254
100
AcDbEntity
  8
0
100
AcDbLine
 62
7
  6
CONTINUOUS
 10
-3.0430227561
 20
0.79282879
 11
-3.0555227561
 21
0.7820034725
  0
LINE
  5
255
100
AcDbEntity
  8
0
100
AcDbLine
 62
7
  6
CONTINUOUS
 10
-2.6363320303
 20
0.67542729
 11
-2.6488320303
 21
0.6646019725
  0
LINE
  5
256
100
AcDbEntity
  8
0
100
AcDbLine
 62
7
  6
CONTINUOUS
 10
-2.2414755417
 20
0.5613251266
 11
-2.2539755417
 21
0.550499809
  0
LINE
  5
257
100
AcDbEntity
  8
0
100
AcDbLine
 62
7
  6
CONTINUOUS
 10
-3.8202147381
 20
-0.931251991
 11
-3.8327147381
 21
-0.9420773085
  0
LINE
  5
258
100
AcDbEntity
  8
0
100
AcDbLine
 62
7
  6
CONTINUOUS
 10
-1.8351212668
 20
0.4440207516
 11
-1.8476212668
 21
0.433195434
  0
LINE
  5
259
100
AcDbEntity
  8
0
100
AcDbLine
 62
7
  6
CONTINUOUS
 10
-1.0260353013
 20
0.2104577516
 11
-1.0385353013
 21
0.199632434
  0
LINE
  5
25A
100
AcDbEntity
  8
0
100
AcDbLine
 62
7
  6
CONTINUOUS
 10
-2.6363320303
 20
-1.273009491
 11
-2.6488320303
 21
-1.2838348085
  0
LINE
  5
25B
100
AcDbEntity
  8
0
100
AcDbLine
 62
7
  6
CONTINUOUS
 10
-0.6236543509
 20
0.0943003766
 11
-0.6361543509
 21
0.083475059
  0
LINE
  5
25C
100
AcDbEntity
  8
0
100
AcDbLine
 62
7
  6
CONTINUOUS
 10
-2.0283267713
 20
-1.448525491
 11
-2.0408267713
 21
-1.4593508085
  0
LINE
  5
25D
100
AcDbEntity
  8
0
100
AcDbLine
 62
7
  6
CONTINUOUS
 10
0.233513778
 20
-0.1531427484
 11
0.221013778
 21
-0.163968066
  0
LINE
  5
25E
100
AcDbEntity
  8
0
100
AcDbLine
 62
7
  6
CONTINUOUS
 10
-1.4064274336
 20
-1.628052366
 11
-1.4189274336
 21
-1.6388776835
  0
LINE
  5
25F
100
AcDbEntity
  8
0
100
AcDbLine
 62
7
  6
CONTINUOUS
 10
0.6269382937
 20
-0.2667146234
 11
0.6144382937
 21
-0.277539941
  0
LINE
  5
260
100
AcDbEntity
  8
0
100
AcDbLine
 62
7
  6
CONTINUOUS
 10
-0.4414646896
 20
-1.906613116
 11
-0.4539646896
 21
-1.9174384335
  0
LINE
  5
261
100
AcDbEntity
  8
0
100
AcDbLine
 62
7
  6
CONTINUOUS
 10
0.2200869202
 20
-1.4076614159
 11
0.2075869202
 21
-1.4184867334
  0
LINE
  5
262
100
AcDbEntity
  8
0
100
AcDbLine
 62
7
  6
CONTINUOUS
 10
1.3441551002
 20
-0.4965201923
 11
1.3316551002
 21
-0.5073455098
  0
LINE
  5
263
100
AcDbEntity
  8
0
100
AcDbLine
 62
7
  6
CONTINUOUS
 10
-4.1911111242
 20
-0.8386171835
 11
-3.8327147381
 21
-0.9420773085
  0
LINE
  5
264
100
AcDbEntity
  8
0
100
AcDbLine
 62
7
  6
CONTINUOUS
 10
-3.0555227561
 20
-1.1664333085
 11
-2.6488320303
 21
-1.2838348085
  0
LINE
  5
265
100
AcDbEntity
  8
0
100
AcDbLine
 62
7
  6
CONTINUOUS
 10
-2.4298977772
 20
-1.3470356835
 11
-2.0408267713
 21
-1.4593508085
  0
LINE
  5
266
100
AcDbEntity
  8
0
100
AcDbLine
 62
7
  6
CONTINUOUS
 10
-1.4759655987
 20
-1.6224121835
 11
-1.4189274336
 21
-1.6388776835
  0
LINE
  5
267
100
AcDbEntity
  8
0
100
AcDbLine
 62
7
  6
CONTINUOUS
 10
-0.8518163271
 20
-1.8025885585
 11
-0.4539646896
 21
-1.9174384335
  0
LINE
  5
268
100
AcDbEntity
  8
0
100
AcDbLine
 62
7
  6
CONTINUOUS
 10
-0.3901035433
 20
-1.9358735585
 11
0.012175216
 21
-2.0520014335
  0
LINE
  5
269
100
AcDbEntity
  8
0
100
AcDbLine
 62
7
  6
CONTINUOUS
 10
0.7835955717
 20
-2.2746913085
 11
1.2122309482
 21
-2.3984276835
  0
LINE
  5
26A
100
AcDbEntity
  8
0
100
AcDbLine
 62
7
  6
CONTINUOUS
 10
1.3316551002
 20
-2.4329022506
 11
1.7367094276
 21
-2.5498313631
  0
LINE
  5
26B
100
AcDbEntity
  8
0
100
AcDbLine
 62
7
  6
CONTINUOUS
 10
2.3595001798
 20
-2.7296155673
 11
2.7506893883
 21
-2.8425421647
  0
LINE
  5
26C
100
AcDbEntity
  8
0
100
AcDbLine
 62
7
  6
CONTINUOUS
 10
0.1243960869
 20
-1.695442716
 11
0.6782414163
 21
-1.855324091
  0
LINE
  5
26D
100
AcDbEntity
  8
0
100
AcDbLine
 62
7
  6
CONTINUOUS
 10
0.5969644991
 20
-1.5308903584
 11
0.2075869202
 21
-1.4184867334
  0
LINE
  5
26E
100
AcDbEntity
  8
0
100
AcDbLine
 62
7
  6
CONTINUOUS
 10
0.5932339268
 20
-1.5153796782
 11
0.2200869202
 21
-1.4076614159
  0
LINE
  5
26F
100
AcDbEntity
  8
0
100
AcDbLine
 62
7
  6
CONTINUOUS
 10
1.7367094276
 20
-1.7873667048
 11
1.9547672777
 21
-1.8503145841
  0
LINE
  5
270
100
AcDbEntity
  8
0
100
AcDbLine
 62
7
  6
CONTINUOUS
 10
1.9556438922
 20
-1.5314799728
 11
1.7232241749
 21
-1.4643861796
  0
LINE
  5
271
100
AcDbEntity
  8
0
100
AcDbLine
 62
7
  6
CONTINUOUS
 10
1.9681438922
 20
-1.5206546552
 11
1.7357241749
 21
-1.4535608621
  0
LINE
  5
272
100
AcDbEntity
  8
0
100
AcDbLine
 62
7
  6
CONTINUOUS
 10
0.6144382937
 20
-0.277539941
 11
0.221013778
 21
-0.163968066
  0
LINE
  5
273
100
AcDbEntity
  8
0
100
AcDbLine
 62
7
  6
CONTINUOUS
 10
-0.6361543509
 20
0.083475059
 11
-1.0385353013
 21
0.199632434
  0
LINE
  5
274
100
AcDbEntity
  8
0
100
AcDbLine
 62
7
  6
CONTINUOUS
 10
-1.8476212668
 20
0.433195434
 11
-2.2539755417
 21
0.550499809
  0
LINE
  5
275
100
AcDbEntity
  8
0
100
AcDbLine
 62
7
  6
CONTINUOUS
 10
-3.2064467353
 20
0.825454559
 11
-3.6128594669
 21
0.942775809
  0
LINE
  5
276
100
AcDbEntity
  8
0
100
AcDbLine
 62
7
  6
CONTINUOUS
 10
-4.3669744699
 20
1.160470059
 11
-4.8087665043
 21
1.288004434
  0
LINE
  5
277
100
AcDbEntity
  8
0
100
AcDbLine
 62
7
  6
CONTINUOUS
 10
-2.6488320303
 20
0.6646019725
 11
-3.0555227561
 21
0.7820034725
  0
LINE
  5
278
100
AcDbEntity
  8
0
100
AcDbLine
 62
7
  6
CONTINUOUS
 10
0.6269382937
 20
-0.2667146234
 11
0.233513778
 21
-0.1531427484
  0
LINE
  5
279
100
AcDbEntity
  8
0
100
AcDbLine
 62
7
  6
CONTINUOUS
 10
-0.6236543509
 20
0.0943003766
 11
-1.0260353013
 21
0.2104577516
  0
LINE
  5
27A
100
AcDbEntity
  8
0
100
AcDbLine
 62
7
  6
CONTINUOUS
 10
-1.8351212668
 20
0.4440207516
 11
-2.2414755417
 21
0.5613251266
  0
LINE
  5
27B
100
AcDbEntity
  8
0
100
AcDbLine
 62
7
  6
CONTINUOUS
 10
-3.1939467353
 20
0.8362798766
 11
-3.6003594669
 21
0.9536011266
  0
LINE
  5
27C
100
AcDbEntity
  8
0
100
AcDbLine
 62
7
  6
CONTINUOUS
 10
-4.3544744699
 20
1.1712953766
 11
-4.7962665043
 21
1.2988297516
  0
LINE
  5
27D
100
AcDbEntity
  8
0
100
AcDbLine
 62
7
  6
CONTINUOUS
 10
-2.6363320303
 20
0.67542729
 11
-3.0430227561
 21
0.79282879
  0
LINE
  5
27E
100
AcDbEntity
  8
0
100
AcDbLine
 62
7
  6
CONTINUOUS
 10
-1.9530633238
 20
-0.2124699336
 11
-1.4759655987
 21
-1.6224121835
  0
LINE
  5
27F
100
AcDbEntity
  8
0
100
AcDbLine
 62
7
  6
CONTINUOUS
 10
-1.445225594
 20
-0.7646795517
 11
-1.8476212668
 21
0.433195434
  0
LINE
  5
280
100
AcDbEntity
  8
0
100
AcDbLine
 62
7
  6
CONTINUOUS
 10
-1.4362435015
 20
-0.7433819214
 11
-1.8351212668
 21
0.4440207516
  0
LINE
  5
281
100
AcDbEntity
  8
0
100
AcDbLine
 62
7
  6
CONTINUOUS
 10
-4.8087665043
 20
1.288004434
 11
-4.1911111242
 21
-0.8386171835
  0
LINE
  5
282
100
AcDbEntity
  8
0
100
AcDbLine
 62
250
  6
CONTINUOUS
 10
-4.7943394036
 20
1.2921946371
 11
-4.7962665043
 21
1.2988297516
  0
LINE
  5
283
100
AcDbEntity
  8
0
100
AcDbLine
 62
7
  6
CONTINUOUS
 10
1.2122309482
 20
-2.3984276835
 11
0.6144382937
 21
-0.277539941
  0
LINE
  5
284
100
AcDbEntity
  8
0
100
AcDbLine
 62
7
  6
CONTINUOUS
 10
1.2247309482
 20
-2.387602366
 11
0.6269382937
 21
-0.2667146234
  0
LINE
  5
285
100
AcDbEntity
  8
0
100
AcDbLine
 62
7
  6
CONTINUOUS
 10
-3.9955894348
 20
-0.2878284012
 11
-4.3669744699
 21
1.160470059
  0
LINE
  5
286
100
AcDbEntity
  8
0
100
AcDbLine
 62
7
  6
CONTINUOUS
 10
-3.9872167876
 20
-0.2609075543
 11
-4.3544744699
 21
1.1712953766
  0
LINE
  5
287
100
AcDbEntity
  8
0
100
AcDbLine
 62
7
  6
CONTINUOUS
 10
0.6782414163
 20
-1.855324091
 11
0.7835955717
 21
-2.2746913085
  0
LINE
  5
288
100
AcDbEntity
  8
0
100
AcDbLine
 62
7
  6
CONTINUOUS
 10
0.4100848772
 20
-0.7538969498
 11
0.5969644991
 21
-1.5308903584
  0
LINE
  5
289
100
AcDbEntity
  8
0
100
AcDbLine
 62
7
  6
CONTINUOUS
 10
1.3316551002
 20
-0.5073455098
 11
1.3316551002
 21
-2.4329022506
  0
LINE
  5
28A
100
AcDbEntity
  8
0
100
AcDbLine
 62
7
  6
CONTINUOUS
 10
1.7232241749
 20
-1.4643861796
 11
1.7232241749
 21
-0.9295344692
  0
LINE
  5
28B
100
AcDbEntity
  8
0
100
AcDbLine
 62
7
  6
CONTINUOUS
 10
1.7357241749
 20
-1.4535608621
 11
1.7357241749
 21
-0.9295344692
  0
LINE
  5
28C
100
AcDbEntity
  8
0
100
AcDbLine
 62
7
  6
CONTINUOUS
 10
1.7367094276
 20
-2.5498313631
 11
1.7367094276
 21
-1.7873667048
  0
LINE
  5
28D
100
AcDbEntity
  8
0
100
AcDbLine
 62
7
  6
CONTINUOUS
 10
1.7492094276
 20
-2.5390060455
 11
1.7492094276
 21
-1.790975144
  0
LINE
  5
28E
100
AcDbEntity
  8
0
100
AcDbLine
 62
7
  6
CONTINUOUS
 10
2.3772370126
 20
-1.8252774548
 11
2.3772370126
 21
-1.8137645847
  0
LINE
  5
28F
100
AcDbEntity
  8
0
100
AcDbLine
 62
7
  6
CONTINUOUS
 10
0.024675216
 20
-2.041176116
 11
0.012175216
 21
-2.0520014335
  0
LINE
  5
290
100
AcDbEntity
  8
0
100
AcDbLine
 62
250
  6
CONTINUOUS
 10
2.3478056204
 20
-0.8067619199
 11
2.3353056204
 21
-0.8175872375
  0
LINE
  5
291
100
AcDbEntity
  8
0
100
AcDbLine
 62
7
  6
CONTINUOUS
 10
1.7357241749
 20
-1.4535608621
 11
1.7232241749
 21
-1.4643861796
  0
LINE
  5
292
100
AcDbEntity
  8
0
100
AcDbLine
 62
250
  6
CONTINUOUS
 10
1.9681438922
 20
-1.5206546552
 11
1.9556438922
 21
-1.5314799728
  0
LINE
  5
293
100
AcDbEntity
  8
0
100
AcDbLine
 62
7
  6
CONTINUOUS
 10
1.2247309482
 20
-2.387602366
 11
1.2122309482
 21
-2.3984276835
  0
LINE
  5
294
100
AcDbEntity
  8
0
100
AcDbLine
 62
7
  6
CONTINUOUS
 10
2.3897370126
 20
-1.8144521373
 11
2.3772370126
 21
-1.8252774548
  0
LINE
  5
295
100
AcDbEntity
  8
0
100
AcDbLine
 62
7
  6
CONTINUOUS
 10
1.7492094276
 20
-2.5390060455
 11
1.7367094276
 21
-2.5498313631
  0
LINE
  5
296
100
AcDbEntity
  8
0
100
AcDbLine
 62
250
  6
CONTINUOUS
 10
2.6241583329
 20
-2.2642546024
 11
2.6116583329
 21
-2.2750799199
  0
LINE
  5
297
100
AcDbEntity
  8
0
100
AcDbLine
 62
7
  6
CONTINUOUS
 10
2.7631893883
 20
-2.8317168471
 11
2.7506893883
 21
-2.8425421647
  0
LINE
  5
298
100
AcDbEntity
  8
0
100
AcDbLine
 62
7
  6
CONTINUOUS
 10
-0.979138949
 20
-45.9124949222
 11
-0.5634987167
 21
-45.4405437645
  0
LINE
  5
299
100
AcDbEntity
  8
0
100
AcDbLine
 62
7
  6
CONTINUOUS
 10
-0.5159812018
 20
-45.1799876131
 11
-1.128083194
 21
-45.8511070738
  0
LINE
  5
29A
100
AcDbEntity
  8
0
100
AcDbLine
 62
7
  6
CONTINUOUS
 10
-2.7321915163
 20
-44.5257890455
 11
-2.7446915163
 21
-44.5366143631
  0
LINE
  5
29B
100
AcDbEntity
  8
0
100
AcDbLine
 62
7
  6
CONTINUOUS
 10
-2.5537725296
 20
-44.5772941705
 11
-2.5662725296
 21
-44.5881194881
  0
LINE
  5
29C
100
AcDbEntity
  8
0
100
AcDbLine
 62
7
  6
CONTINUOUS
 10
-2.2300877407
 20
-44.6707339205
 11
-2.2425877407
 21
-44.6815592381
  0
LINE
  5
29D
100
AcDbEntity
  8
0
100
AcDbLine
 62
250
  6
CONTINUOUS
 10
-1.6364914122
 20
-44.8420904205
 11
-1.6489914122
 21
-44.8529157381
  0
LINE
  5
29E
100
AcDbEntity
  8
0
100
AcDbLine
 62
7
  6
CONTINUOUS
 10
-2.0517181174
 20
-45.332801717
 11
-2.0642181174
 21
-45.3436270346
  0
LINE
  5
29F
100
AcDbEntity
  8
0
100
AcDbLine
 62
7
  6
CONTINUOUS
 10
-2.5537725296
 20
-45.8977655389
 11
-2.5662725296
 21
-45.9085908565
  0
LINE
  5
2A0
100
AcDbEntity
  8
0
100
AcDbLine
 62
250
  6
CONTINUOUS
 10
-1.6781108611
 20
-45.440652842
 11
-1.6906108611
 21
-45.4514781596
  0
LINE
  5
2A1
100
AcDbEntity
  8
0
100
AcDbLine
 62
250
  6
CONTINUOUS
 10
-1.2443211821
 20
-45.3369023173
 11
-1.2568211821
 21
-45.3477276348
  0
LINE
  5
2A2
100
AcDbEntity
  8
0
100
AcDbLine
 62
7
  6
CONTINUOUS
 10
-2.0517181174
 20
-46.0426961639
 11
-2.0642181174
 21
-46.0535214815
  0
LINE
  5
2A3
100
AcDbEntity
  8
0
100
AcDbLine
 62
7
  6
CONTINUOUS
 10
-0.5034812018
 20
-45.1691622955
 11
-0.5159812018
 21
-45.1799876131
  0
LINE
  5
2A4
100
AcDbEntity
  8
0
100
AcDbLine
 62
7
  6
CONTINUOUS
 10
-0.3891563222
 20
-45.2021650455
 11
-0.4016563222
 21
-45.2129903631
  0
LINE
  5
2A5
100
AcDbEntity
  8
0
100
AcDbLine
 62
7
  6
CONTINUOUS
 10
-0.3891563222
 20
-46.0683744797
 11
-0.4016563222
 21
-46.0791997972
  0
LINE
  5
2A6
100
AcDbEntity
  8
0
100
AcDbLine
 62
250
  6
CONTINUOUS
 10
0.3722381363
 20
-45.4219652218
 11
0.3597381363
 21
-45.4327905394
  0
LINE
  5
2A7
100
AcDbEntity
  8
0
100
AcDbLine
 62
7
  6
CONTINUOUS
 10
-0.1997028728
 20
-46.1230649797
 11
-0.2122028728
 21
-46.1338902972
  0
LINE
  5
2A8
100
AcDbEntity
  8
0
100
AcDbLine
 62
7
  6
CONTINUOUS
 10
-0.1997028728
 20
-46.2628232933
 11
-0.2122028728
 21
-46.2736486109
  0
LINE
  5
2A9
100
AcDbEntity
  8
0
100
AcDbLine
 62
250
  6
CONTINUOUS
 10
0.1019956712
 20
-46.0041840975
 11
0.0894956712
 21
-46.0150094151
  0
LINE
  5
2AA
100
AcDbEntity
  8
0
100
AcDbLine
 62
7
  6
CONTINUOUS
 10
-0.3891563222
 20
-46.5226364139
 11
-0.4016563222
 21
-46.5334617315
  0
LINE
  5
2AB
100
AcDbEntity
  8
0
100
AcDbLine
 62
250
  6
CONTINUOUS
 10
0.8153549482
 20
-46.2101131828
 11
0.8028549482
 21
-46.2209385004
  0
LINE
  5
2AC
100
AcDbEntity
  8
0
100
AcDbLine
 62
250
  6
CONTINUOUS
 10
0.3722381363
 20
-46.59712108
 11
0.3597381363
 21
-46.6079463976
  0
LINE
  5
2AD
100
AcDbEntity
  8
RACCORDO
100
AcDbLine
 62
250
  6
CONTINUOUS
 10
110.3258461835
 20
13.8024187407
 11
-112.2426825891
 21
78.0524187407
  0
LINE
  5
2AE
100
AcDbEntity
  8
RACCORDO
100
AcDbLine
 62
250
  6
CONTINUOUS
 10
110.8258461835
 20
15.1014568464
 11
-111.7426825891
 21
79.3514568464
  0
LINE
  5
2AF
100
AcDbEntity
  8
0
100
AcDbLine
 62
7
  6
CONTINUOUS
 10
111.8758461835
 20
16.0107835203
 11
-110.6926825891
 21
80.2607835203
  0
LINE
  5
2B0
100
AcDbEntity
  8
RACCORDO
100
AcDbLine
 62
250
  6
CONTINUOUS
 10
111.8758461835
 20
16.0107835203
 11
110.8258461835
 21
15.1014568464
  0
LINE
  5
2B1
100
AcDbEntity
  8
RACCORDO
100
AcDbLine
 62
250
  6
CONTINUOUS
 10
116.2059732024
 20
10.4306565014
 11
115.1559732024
 21
9.5213298274
  0
LINE
  5
2B2
100
AcDbEntity
  8
RACCORDO
100
AcDbLine
 62
250
  6
CONTINUOUS
 10
113.7899477986
 20
-77.2642232529
 11
113.7899477986
 21
9.3383171255
  0
LINE
  5
2B3
100
AcDbEntity
  8
RACCORDO
100
AcDbLine
 62
250
  6
CONTINUOUS
 10
115.1559732024
 20
-77.081210551
 11
115.1559732024
 21
9.5213298274
  0
LINE
  5
2B4
100
AcDbEntity
  8
0
100
AcDbLine
 62
7
  6
CONTINUOUS
 10
116.2059732024
 20
-76.171883877
 11
116.2059732024
 21
10.4306565014
  0
LINE
  5
2B5
100
AcDbEntity
  8
RACCORDO
100
AcDbLine
 62
250
  6
CONTINUOUS
 10
116.2059732024
 20
-76.171883877
 11
115.1559732024
 21
-77.081210551
  0
LINE
  5
2B6
100
AcDbEntity
  8
ASSI
100
AcDbLine
 62
7
  6
CONTINUOUS
 10
115.149114537
 20
-78.7015286071
 11
114.099114537
 21
-79.6108552811
  0
ARC
  5
2B7
100
AcDbEntity
  8
0
100
AcDbCircle
 62
250
  6
CONTINUOUS
 10
11.7725013556
 20
-0.5638000643
 40
9.2903793603
100
AcDbArc
 50
193.8914122848
 51
194.1295124726
  0
SPLINE
  5
2B8
100
AcDbEntity
  8
0
100
AcDbSpline
 62
7
  6
CONTINUOUS
 70
0
 71
3
 72
14
 73
10
 74
0
 42
0.0000001
 43
0.0000001
 44
0.0000000001
 40
0.0
 40
0.0
 40
0.0
 40
0.0
 40
0.2564723598
 40
0.3945423494
 40
0.5316430511
 40
0.6626316924
 40
0.7840107805
 40
0.8953103029
 40
1.0
 40
1.0
 40
1.0
 40
1.0
 10
-106.6135174645
 20
68.6331901066
 30
0.0
 10
-106.6135174645
 20
68.9133850425
 30
0.0
 10
-106.753071505
 20
69.3481239416
 30
0.0
 10
-107.1024681617
 20
69.8144344563
 30
0.0
 10
-107.4434643063
 20
70.1052461581
 30
0.0
 10
-107.8268815505
 20
70.299461189
 30
0.0
 10
-108.2218372924
 20
70.3798070064
 30
0.0
 10
-108.5951076571
 20
70.3349433576
 30
0.0
 10
-108.8080769586
 20
70.2169568373
 30
0.0
 10
-108.8945359734
 20
70.1420834067
 30
0.0
  0
SPLINE
  5
2B9
100
AcDbEntity
  8
0
100
AcDbSpline
 62
7
  6
CONTINUOUS
 70
0
 71
3
 72
10
 73
6
 74
0
 42
0.0000001
 43
0.0000001
 44
0.0000000001
 40
0.0
 40
0.0
 40
0.0
 40
0.0
 40
0.5183205375
 40
0.761978719
 40
1.0
 40
1.0
 40
1.0
 40
1.0
 10
107.2947572702
 20
6.8831901066
 30
0.0
 10
107.2947572702
 20
6.7372264481
 30
0.0
 10
107.2572994421
 20
6.5181953007
 30
0.0
 10
107.1205493903
 20
6.269805509
 30
0.0
 10
107.0283693149
 20
6.1681767627
 30
0.0
 10
106.9776995678
 20
6.1242968065
 30
0.0
  0
SPLINE
  5
2BA
100
AcDbEntity
  8
0
100
AcDbSpline
 62
7
  6
CONTINUOUS
 70
0
 71
3
 72
10
 73
6
 74
0
 42
0.0000001
 43
0.0000001
 44
0.0000000001
 40
0.0
 40
0.0
 40
0.0
 40
0.0
 40
0.5183205375
 40
0.761978719
 40
1.0
 40
1.0
 40
1.0
 40
1.0
 10
-106.6135174645
 20
-9.309096234
 30
0.0
 10
-106.6135174645
 20
-9.4550598925
 30
0.0
 10
-106.6509752926
 20
-9.6740910399
 30
0.0
 10
-106.7877253445
 20
-9.9224808316
 30
0.0
 10
-106.8799054199
 20
-10.0241095779
 30
0.0
 10
-106.930575167
 20
-10.0679895341
 30
0.0
  0
SPLINE
  5
2BB
100
AcDbEntity
  8
0
100
AcDbSpline
 62
7
  6
CONTINUOUS
 70
0
 71
3
 72
14
 73
10
 74
0
 42
0.0000001
 43
0.0000001
 44
0.0000000001
 40
0.0
 40
0.0
 40
0.0
 40
0.0
 40
0.2564723598
 40
0.3945423494
 40
0.5316430511
 40
0.6626316924
 40
0.7840107805
 40
0.8953103029
 40
1.0
 40
1.0
 40
1.0
 40
1.0
 10
107.2947572702
 20
-71.059096234
 30
0.0
 10
107.2947572702
 20
-70.7789012981
 30
0.0
 10
107.1552032297
 20
-70.344162399
 30
0.0
 10
106.805806573
 20
-69.8778518843
 30
0.0
 10
106.4648104285
 20
-69.5870401825
 30
0.0
 10
106.0813931843
 20
-69.3928251516
 30
0.0
 10
105.6864374424
 20
-69.3124793342
 30
0.0
 10
105.3131670776
 20
-69.357342983
 30
0.0
 10
105.1001977761
 20
-69.4753295033
 30
0.0
 10
105.0137387614
 20
-69.5502029339
 30
0.0
  0
SPLINE
  5
2BC
100
AcDbEntity
  8
0
100
AcDbSpline
 62
7
  6
CONTINUOUS
 70
0
 71
3
 72
14
 73
10
 74
0
 42
0.0000001
 43
0.0000001
 44
0.0000000001
 40
0.0
 40
0.0
 40
0.0
 40
0.0
 40
0.2564723598
 40
0.3945423494
 40
0.5316430511
 40
0.6626316924
 40
0.7840107805
 40
0.8953103029
 40
1.0
 40
1.0
 40
1.0
 40
1.0
 10
-36.465459758
 20
48.3831901066
 30
0.0
 10
-36.465459758
 20
48.6633850425
 30
0.0
 10
-36.6050137985
 20
49.0981239416
 30
0.0
 10
-36.9544104552
 20
49.5644344563
 30
0.0
 10
-37.2954065998
 20
49.8552461581
 30
0.0
 10
-37.6788238439
 20
50.049461189
 30
0.0
 10
-38.0737795858
 20
50.1298070064
 30
0.0
 10
-38.4470499506
 20
50.0849433576
 30
0.0
 10
-38.6600192521
 20
49.9669568373
 30
0.0
 10
-38.7464782669
 20
49.8920834067
 30
0.0
  0
SPLINE
  5
2BD
100
AcDbEntity
  8
0
100
AcDbSpline
 62
7
  6
CONTINUOUS
 70
0
 71
3
 72
10
 73
6
 74
0
 42
0.0000001
 43
0.0000001
 44
0.0000000001
 40
0.0
 40
0.0
 40
0.0
 40
0.0
 40
0.5183205375
 40
0.761978719
 40
1.0
 40
1.0
 40
1.0
 40
1.0
 10
37.1466995637
 20
27.1331901066
 30
0.0
 10
37.1466995637
 20
26.9872264481
 30
0.0
 10
37.1092417356
 20
26.7681953007
 30
0.0
 10
36.9724916837
 20
26.519805509
 30
0.0
 10
36.8803116083
 20
26.4181767627
 30
0.0
 10
36.8296418613
 20
26.3742968065
 30
0.0
  0
SPLINE
  5
2BE
100
AcDbEntity
  8
0
100
AcDbSpline
 62
7
  6
CONTINUOUS
 70
0
 71
3
 72
10
 73
6
 74
0
 42
0.0000001
 43
0.0000001
 44
0.0000000001
 40
0.0
 40
0.0
 40
0.0
 40
0.0
 40
0.5183205375
 40
0.761978719
 40
1.0
 40
1.0
 40
1.0
 40
1.0
 10
-36.465459758
 20
-29.559096234
 30
0.0
 10
-36.465459758
 20
-29.7050598925
 30
0.0
 10
-36.5029175861
 20
-29.9240910399
 30
0.0
 10
-36.6396676379
 20
-30.1724808316
 30
0.0
 10
-36.7318477134
 20
-30.2741095779
 30
0.0
 10
-36.7825174604
 20
-30.3179895341
 30
0.0
  0
SPLINE
  5
2BF
100
AcDbEntity
  8
0
100
AcDbSpline
 62
7
  6
CONTINUOUS
 70
0
 71
3
 72
14
 73
10
 74
0
 42
0.0000001
 43
0.0000001
 44
0.0000000001
 40
0.0
 40
0.0
 40
0.0
 40
0.0
 40
0.2564723598
 40
0.3945423494
 40
0.5316430511
 40
0.6626316924
 40
0.7840107805
 40
0.8953103029
 40
1.0
 40
1.0
 40
1.0
 40
1.0
 10
37.1466995637
 20
-50.809096234
 30
0.0
 10
37.1466995637
 20
-50.5289012981
 30
0.0
 10
37.0071455232
 20
-50.094162399
 30
0.0
 10
36.6577488665
 20
-49.6278518843
 30
0.0
 10
36.3167527219
 20
-49.3370401825
 30
0.0
 10
35.9333354778
 20
-49.1428251516
 30
0.0
 10
35.5383797359
 20
-49.0624793342
 30
0.0
 10
35.1651093711
 20
-49.107342983
 30
0.0
 10
34.9521400696
 20
-49.2253295033
 30
0.0
 10
34.8656810548
 20
-49.3002029339
 30
0.0
  0
SPLINE
  5
2C0
100
AcDbEntity
  8
0
100
AcDbSpline
 62
7
  6
CONTINUOUS
 70
0
 71
3
 72
13
 73
9
 74
0
 42
0.0000001
 43
0.0000001
 44
0.0000000001
 40
0.0
 40
0.0
 40
0.0
 40
0.0
 40
0.2376483392
 40
0.3645776865
 40
0.4944049598
 40
0.6250312983
 40
0.7542742142
 40
1.0
 40
1.0
 40
1.0
 40
1.0
 10
116.2059732024
 20
10.4306565014
 30
0.0
 10
116.2059732024
 20
11.0249733741
 30
0.0
 10
116.0176356828
 20
11.9423945222
 30
0.0
 10
115.49389054
 20
13.0648104506
 30
0.0
 10
114.9554440097
 20
13.874978553
 30
0.0
 10
114.3002933035
 20
14.6016324657
 30
0.0
 10
113.3237692743
 20
15.4084947482
 30
0.0
 10
112.4662551657
 20
15.8403471279
 30
0.0
 10
111.8758461835
 20
16.0107835203
 30
0.0
  0
SPLINE
  5
2C1
100
AcDbEntity
  8
0
100
AcDbSpline
 62
7
  6
CONTINUOUS
 70
0
 71
3
 72
11
 73
7
 74
0
 42
0.0000001
 43
0.0000001
 44
0.0000000001
 40
0.0
 40
0.0
 40
0.0
 40
0.0
 40
0.2709659447
 40
0.5256492481
 40
0.7667315234
 40
1.0
 40
1.0
 40
1.0
 40
1.0
 10
-110.6926825891
 20
80.2607835203
 30
0.0
 10
-110.9923478116
 20
80.3472894188
 30
0.0
 10
-111.5920277269
 20
80.4600219259
 30
0.0
 10
-112.4821236065
 20
80.4270587242
 30
0.0
 10
-113.2956301237
 20
80.1849917332
 30
0.0
 10
-113.7629758705
 20
79.8860799761
 30
0.0
 10
-113.9659507719
 20
79.7103010342
 30
0.0
  0
SPLINE
  5
2C2
100
AcDbEntity
  8
0
100
AcDbSpline
 62
7
  6
CONTINUOUS
 70
0
 71
3
 72
11
 73
7
 74
0
 42
0.0000001
 43
0.0000001
 44
0.0000000001
 40
0.0
 40
0.0
 40
0.0
 40
0.0
 40
0.2348764486
 40
0.4745881015
 40
0.729281415
 40
1.0
 40
1.0
 40
1.0
 40
1.0
 10
0.1963235887
 20
-45.6084115734
 30
0.0
 10
0.2065927267
 20
-45.5995182378
 30
0.0
 10
0.2293173649
 20
-45.5835740356
 30
0.0
 10
0.269840302
 20
-45.5696861419
 30
0.0
 10
0.3145549424
 20
-45.5684122255
 30
0.0
 10
0.3446945775
 20
-45.5737542912
 30
0.0
 10
0.3597381363
 20
-45.5780969925
 30
0.0
  0
SPLINE
  5
2C3
100
AcDbEntity
  8
0
100
AcDbSpline
 62
7
  6
CONTINUOUS
 70
0
 71
3
 72
11
 73
7
 74
0
 42
0.0000001
 43
0.0000001
 44
0.0000000001
 40
0.0
 40
0.0
 40
0.0
 40
0.0
 40
0.2340396747
 40
0.479916983
 40
0.735448248
 40
1.0
 40
1.0
 40
1.0
 40
1.0
 10
0.0674827617
 20
-45.4784878045
 30
0.0
 10
0.0366408946
 20
-45.5051976619
 30
0.0
 10
-0.0165270163
 20
-45.5730658169
 30
0.0
 10
-0.0547946559
 20
-45.6967129509
 30
0.0
 10
-0.0793044957
 20
-45.8280801764
 30
0.0
 10
-0.0833786757
 20
-45.9189857752
 30
0.0
 10
-0.0833786757
 20
-45.9651048897
 30
0.0
  0
SPLINE
  5
2C4
100
AcDbEntity
  8
RACCORDO
100
AcDbSpline
 62
7
  6
CONTINUOUS
 70
0
 71
3
 72
14
 73
10
 74
0
 42
0.0000001
 43
0.0000001
 44
0.0000000001
 40
0.0
 40
0.0
 40
0.0
 40
0.0
 40
0.1193646656
 40
0.2424082753
 40
0.3685674037
 40
0.4967429603
 40
0.6254922598
 40
0.7532758279
 40
1.0
 40
1.0
 40
1.0
 40
1.0
 10
-116.2067842042
 20
-10.581210551
 30
0.0
 10
-116.2067842042
 20
-10.8714581037
 30
0.0
 10
-116.1490981288
 20
-11.4620330232
 30
0.0
 10
-115.9073382307
 20
-12.329066021
 30
0.0
 10
-115.520976573
 20
-13.1656019912
 30
0.0
 10
-115.0049916167
 20
-13.9451658126
 30
0.0
 10
-114.376544188
 20
-14.6432707411
 30
0.0
 10
-113.4308132383
 20
-15.4236687979
 30
0.0
 10
-112.596431965
 20
-15.8396889499
 30
0.0
 10
-112.0200326872
 20
-16.006081089
 30
0.0
  0
SPLINE
  5
2C5
100
AcDbEntity
  8
RACCORDO
100
AcDbSpline
 62
7
  6
CONTINUOUS
 70
0
 71
3
 72
11
 73
7
 74
0
 42
0.0000001
 43
0.0000001
 44
0.0000000001
 40
0.0
 40
0.0
 40
0.0
 40
0.0
 40
0.2445013888
 40
0.4912359182
 40
0.742420768
 40
1.0
 40
1.0
 40
1.0
 40
1.0
 10
-115.0159509426
 20
78.8009745575
 30
0.0
 10
-115.207801368
 20
78.6348272155
 30
0.0
 10
-115.5550972464
 20
78.2539859365
 30
0.0
 10
-115.9330123394
 20
77.5751788557
 30
0.0
 10
-116.1591380966
 20
76.8184090766
 30
0.0
 10
-116.2067842042
 20
76.288698983
 30
0.0
 10
-116.2067842042
 20
76.0213298274
 30
0.0
  0
SPLINE
  5
2C6
100
AcDbEntity
  8
RACCORDO
100
AcDbSpline
 62
7
  6
CONTINUOUS
 70
0
 71
3
 72
11
 73
7
 74
0
 42
0.0000001
 43
0.0000001
 44
0.0000000001
 40
0.0
 40
0.0
 40
0.0
 40
0.0
 40
0.2603478358
 40
0.5121310679
 40
0.7576592658
 40
1.0
 40
1.0
 40
1.0
 40
1.0
 10
110.5484960854
 20
-80.256081089
 30
0.0
 10
110.861557965
 20
-80.3464542692
 30
0.0
 10
111.4975704503
 20
-80.4633609546
 30
0.0
 10
112.4537875218
 20
-80.4200745977
 30
0.0
 10
113.3487482983
 20
-80.1454269265
 30
0.0
 10
113.8698353333
 20
-79.8094168961
 30
0.0
 10
114.099114537
 20
-79.6108552811
 30
0.0
  0
SPLINE
  5
2C7
100
AcDbEntity
  8
0
100
AcDbSpline
 62
7
  6
CONTINUOUS
 70
0
 71
3
 72
10
 73
6
 74
0
 42
0.0000001
 43
0.0000001
 44
0.0000000001
 40
0.0
 40
0.0
 40
0.0
 40
0.0
 40
0.238021281
 40
0.4816794625
 40
1.0
 40
1.0
 40
1.0
 40
1.0
 10
36.8296418613
 20
-51.5679895341
 30
0.0
 10
36.8803116083
 20
-51.5241095779
 30
0.0
 10
36.9724916837
 20
-51.4224808316
 30
0.0
 10
37.1092417356
 20
-51.1740910399
 30
0.0
 10
37.1466995637
 20
-50.9550598925
 30
0.0
 10
37.1466995637
 20
-50.809096234
 30
0.0
  0
SPLINE
  5
2C8
100
AcDbEntity
  8
0
100
AcDbSpline
 62
7
  6
CONTINUOUS
 70
0
 71
3
 72
14
 73
10
 74
0
 42
0.0000001
 43
0.0000001
 44
0.0000000001
 40
0.0
 40
0.0
 40
0.0
 40
0.0
 40
0.1046896971
 40
0.2159892195
 40
0.3373683076
 40
0.4683569489
 40
0.6054576506
 40
0.7435276402
 40
1.0
 40
1.0
 40
1.0
 40
1.0
 10
-38.7464782669
 20
-28.0502029339
 30
0.0
 10
-38.6600192521
 20
-27.9753295033
 30
0.0
 10
-38.4470499506
 20
-27.857342983
 30
0.0
 10
-38.0737795858
 20
-27.8124793342
 30
0.0
 10
-37.6788238439
 20
-27.8928251516
 30
0.0
 10
-37.2954065998
 20
-28.0870401825
 30
0.0
 10
-36.9544104552
 20
-28.3778518843
 30
0.0
 10
-36.6050137985
 20
-28.844162399
 30
0.0
 10
-36.465459758
 20
-29.2789012981
 30
0.0
 10
-36.465459758
 20
-29.559096234
 30
0.0
  0
SPLINE
  5
2C9
100
AcDbEntity
  8
0
100
AcDbSpline
 62
7
  6
CONTINUOUS
 70
0
 71
3
 72
14
 73
10
 74
0
 42
0.0000001
 43
0.0000001
 44
0.0000000001
 40
0.0
 40
0.0
 40
0.0
 40
0.0
 40
0.1046896971
 40
0.2159892195
 40
0.3373683076
 40
0.4683569489
 40
0.6054576506
 40
0.7435276402
 40
1.0
 40
1.0
 40
1.0
 40
1.0
 10
34.8656810548
 20
28.6420834067
 30
0.0
 10
34.9521400696
 20
28.7169568373
 30
0.0
 10
35.1651093711
 20
28.8349433576
 30
0.0
 10
35.5383797359
 20
28.8798070064
 30
0.0
 10
35.9333354778
 20
28.799461189
 30
0.0
 10
36.3167527219
 20
28.6052461581
 30
0.0
 10
36.6577488665
 20
28.3144344563
 30
0.0
 10
37.0071455232
 20
27.8481239416
 30
0.0
 10
37.1466995637
 20
27.4133850425
 30
0.0
 10
37.1466995637
 20
27.1331901066
 30
0.0
  0
SPLINE
  5
2CA
100
AcDbEntity
  8
0
100
AcDbSpline
 62
7
  6
CONTINUOUS
 70
0
 71
3
 72
10
 73
6
 74
0
 42
0.0000001
 43
0.0000001
 44
0.0000000001
 40
0.0
 40
0.0
 40
0.0
 40
0.0
 40
0.238021281
 40
0.4816794625
 40
1.0
 40
1.0
 40
1.0
 40
1.0
 10
-36.7825174604
 20
47.6242968065
 30
0.0
 10
-36.7318477134
 20
47.6681767627
 30
0.0
 10
-36.6396676379
 20
47.769805509
 30
0.0
 10
-36.5029175861
 20
48.0181953007
 30
0.0
 10
-36.465459758
 20
48.2372264481
 30
0.0
 10
-36.465459758
 20
48.3831901066
 30
0.0
  0
SPLINE
  5
2CB
100
AcDbEntity
  8
0
100
AcDbSpline
 62
7
  6
CONTINUOUS
 70
0
 71
3
 72
10
 73
6
 74
0
 42
0.0000001
 43
0.0000001
 44
0.0000000001
 40
0.0
 40
0.0
 40
0.0
 40
0.0
 40
0.238021281
 40
0.4816794625
 40
1.0
 40
1.0
 40
1.0
 40
1.0
 10
106.9776995678
 20
-71.8179895341
 30
0.0
 10
107.0283693149
 20
-71.7741095779
 30
0.0
 10
107.1205493903
 20
-71.6724808316
 30
0.0
 10
107.2572994421
 20
-71.4240910399
 30
0.0
 10
107.2947572702
 20
-71.2050598925
 30
0.0
 10
107.2947572702
 20
-71.059096234
 30
0.0
  0
SPLINE
  5
2CC
100
AcDbEntity
  8
0
100
AcDbSpline
 62
7
  6
CONTINUOUS
 70
0
 71
3
 72
14
 73
10
 74
0
 42
0.0000001
 43
0.0000001
 44
0.0000000001
 40
0.0
 40
0.0
 40
0.0
 40
0.0
 40
0.1046896971
 40
0.2159892195
 40
0.3373683076
 40
0.4683569489
 40
0.6054576506
 40
0.7435276402
 40
1.0
 40
1.0
 40
1.0
 40
1.0
 10
-108.8945359734
 20
-7.8002029339
 30
0.0
 10
-108.8080769586
 20
-7.7253295033
 30
0.0
 10
-108.5951076571
 20
-7.607342983
 30
0.0
 10
-108.2218372924
 20
-7.5624793342
 30
0.0
 10
-107.8268815505
 20
-7.6428251516
 30
0.0
 10
-107.4434643063
 20
-7.8370401825
 30
0.0
 10
-107.1024681617
 20
-8.1278518843
 30
0.0
 10
-106.753071505
 20
-8.594162399
 30
0.0
 10
-106.6135174645
 20
-9.0289012981
 30
0.0
 10
-106.6135174645
 20
-9.309096234
 30
0.0
  0
SPLINE
  5
2CD
100
AcDbEntity
  8
0
100
AcDbSpline
 62
7
  6
CONTINUOUS
 70
0
 71
3
 72
14
 73
10
 74
0
 42
0.0000001
 43
0.0000001
 44
0.0000000001
 40
0.0
 40
0.0
 40
0.0
 40
0.0
 40
0.1046896971
 40
0.2159892195
 40
0.3373683076
 40
0.4683569489
 40
0.6054576506
 40
0.7435276402
 40
1.0
 40
1.0
 40
1.0
 40
1.0
 10
105.0137387614
 20
8.3920834067
 30
0.0
 10
105.1001977761
 20
8.4669568373
 30
0.0
 10
105.3131670776
 20
8.5849433576
 30
0.0
 10
105.6864374424
 20
8.6298070064
 30
0.0
 10
106.0813931843
 20
8.549461189
 30
0.0
 10
106.4648104285
 20
8.3552461581
 30
0.0
 10
106.805806573
 20
8.0644344563
 30
0.0
 10
107.1552032297
 20
7.5981239416
 30
0.0
 10
107.2947572702
 20
7.1633850425
 30
0.0
 10
107.2947572702
 20
6.8831901066
 30
0.0
  0
SPLINE
  5
2CE
100
AcDbEntity
  8
0
100
AcDbSpline
 62
7
  6
CONTINUOUS
 70
0
 71
3
 72
10
 73
6
 74
0
 42
0.0000001
 43
0.0000001
 44
0.0000000001
 40
0.0
 40
0.0
 40
0.0
 40
0.0
 40
0.238021281
 40
0.4816794625
 40
1.0
 40
1.0
 40
1.0
 40
1.0
 10
-106.930575167
 20
67.8742968065
 30
0.0
 10
-106.8799054199
 20
67.9181767627
 30
0.0
 10
-106.7877253445
 20
68.019805509
 30
0.0
 10
-106.6509752926
 20
68.2681953007
 30
0.0
 10
-106.6135174645
 20
68.4872264481
 30
0.0
 10
-106.6135174645
 20
68.6331901066
 30
0.0
  0
SPLINE
  5
2CF
100
AcDbEntity
  8
0
100
AcDbSpline
 62
7
  6
CONTINUOUS
 70
0
 71
3
 72
11
 73
7
 74
0
 42
0.0000001
 43
0.0000001
 44
0.0000000001
 40
0.0
 40
0.0
 40
0.0
 40
0.0
 40
0.2374169018
 40
0.4804566881
 40
0.733697818
 40
1.0
 40
1.0
 40
1.0
 40
1.0
 10
115.1491143663
 20
-78.7015284099
 30
0.0
 10
115.3180123478
 20
-78.5552605301
 30
0.0
 10
115.62529205
 20
-78.2167401353
 30
0.0
 10
115.9605448711
 20
-77.6066056786
 30
0.0
 10
116.1634350601
 20
-76.9129308388
 30
0.0
 10
116.2059732024
 20
-76.4224970819
 30
0.0
 10
116.2059732024
 20
-76.171883877
 30
0.0
  0
SPLINE
  5
2D0
100
AcDbEntity
  8
0
100
AcDbSpline
 62
7
  6
CONTINUOUS
 70
0
 71
3
 72
15
 73
11
 74
0
 42
0.0000001
 43
0.0000001
 44
0.0000000001
 40
0.0
 40
0.0
 40
0.0
 40
0.0
 40
0.1257258711
 40
0.2585035536
 40
0.3914435232
 40
0.5192789747
 40
0.6436256855
 40
0.7648036705
 40
0.8836287261
 40
1.0
 40
1.0
 40
1.0
 40
1.0
 10
0.3597381363
 20
-45.5780969925
 30
0.0
 10
0.3877554687
 20
-45.5861848997
 30
0.0
 10
0.4429274233
 20
-45.6129129012
 30
0.0
 10
0.5085950522
 20
-45.677219966
 30
0.0
 10
0.5580128741
 20
-45.7548263419
 30
0.0
 10
0.5892120933
 20
-45.8390489348
 30
0.0
 10
0.6082600796
 20
-45.9236180698
 30
0.0
 10
0.6220516799
 20
-46.0070372377
 30
0.0
 10
0.629568906
 20
-46.0894573585
 30
0.0
 10
0.6299806014
 20
-46.1440423538
 30
0.0
 10
0.6299806014
 20
-46.171033975
 30
0.0
  0
SPLINE
  5
2D1
100
AcDbEntity
  8
0
100
AcDbSpline
 62
7
  6
CONTINUOUS
 70
0
 71
3
 72
13
 73
9
 74
0
 42
0.0000001
 43
0.0000001
 44
0.0000000001
 40
0.0
 40
0.0
 40
0.0
 40
0.0
 40
0.2632097373
 40
0.5182303723
 40
0.6432023437
 40
0.7660927753
 40
0.8843261371
 40
1.0
 40
1.0
 40
1.0
 40
1.0
 10
0.6299806014
 20
-46.171033975
 30
0.0
 10
0.6299806014
 20
-46.2088437182
 30
0.0
 10
0.6286822355
 20
-46.2834046349
 30
0.0
 10
0.6149205068
 20
-46.3750568522
 30
0.0
 10
0.5981423068
 20
-46.445340644
 30
0.0
 10
0.5821486507
 20
-46.495543077
 30
0.0
 10
0.558581655
 20
-46.541517777
 30
0.0
 10
0.535713503
 20
-46.5667538267
 30
0.0
 10
0.5231526838
 20
-46.5776318167
 30
0.0
  0
SPLINE
  5
2D2
100
AcDbEntity
  8
0
100
AcDbSpline
 62
7
  6
CONTINUOUS
 70
0
 71
3
 72
11
 73
7
 74
0
 42
0.0000001
 43
0.0000001
 44
0.0000000001
 40
0.0
 40
0.0
 40
0.0
 40
0.0
 40
0.2706354728
 40
0.5265813996
 40
0.7677179379
 40
1.0
 40
1.0
 40
1.0
 40
1.0
 10
0.3597381363
 20
-46.7532528507
 30
0.0
 10
0.3864354079
 20
-46.7609596892
 30
0.0
 10
0.4398935607
 20
-46.771319145
 30
0.0
 10
0.5193496725
 20
-46.7702773336
 30
0.0
 10
0.592582877
 20
-46.7502446699
 30
0.0
 10
0.6339650046
 20
-46.7231687399
 30
0.0
 10
0.6519935109
 20
-46.7075555856
 30
0.0
  0
SPLINE
  5
2D3
100
AcDbEntity
  8
0
100
AcDbSpline
 62
7
  6
CONTINUOUS
 70
0
 71
3
 72
13
 73
9
 74
0
 42
0.0000001
 43
0.0000001
 44
0.0000000001
 40
0.0
 40
0.0
 40
0.0
 40
0.0
 40
0.1163532659
 40
0.2358010896
 40
0.4840643634
 40
0.614794508
 40
0.7473782828
 40
1.0
 40
1.0
 40
1.0
 40
1.0
 10
-0.0833786757
 20
-45.9651048897
 30
0.0
 10
-0.0833786757
 20
-46.0026669228
 30
0.0
 10
-0.0806941278
 20
-46.0789079797
 30
0.0
 10
-0.0596744061
 20
-46.2336837036
 30
0.0
 10
-0.0203715814
 20
-46.3919326436
 30
0.0
 10
0.0613492303
 20
-46.5366706232
 30
0.0
 10
0.168371044
 20
-46.6652870149
 30
0.0
 10
0.281384322
 20
-46.7306340528
 30
0.0
 10
0.3597381363
 20
-46.7532528507
 30
0.0
  0
SPLINE
  5
2D4
100
AcDbEntity
  8
0
100
AcDbSpline
 62
7
  6
CONTINUOUS
 70
0
 71
3
 72
9
 73
5
 74
0
 42
0.0000001
 43
0.0000001
 44
0.0000000001
 40
0.0
 40
0.0
 40
0.0
 40
0.0
 40
0.5225936207
 40
1.0
 40
1.0
 40
1.0
 40
1.0
 10
-1.4407328817
 20
-45.2946369002
 30
0.0
 10
-1.4407328817
 20
-45.3216426333
 30
0.0
 10
-1.4452840679
 20
-45.3737708889
 30
0.0
 10
-1.4722771972
 20
-45.421479634
 30
0.0
 10
-1.4909264294
 20
-45.4376303518
 30
0.0
  0
SPLINE
  5
2D5
100
AcDbEntity
  8
0
100
AcDbSpline
 62
7
  6
CONTINUOUS
 70
0
 71
3
 72
12
 73
8
 74
0
 42
0.0000001
 43
0.0000001
 44
0.0000000001
 40
0.0
 40
0.0
 40
0.0
 40
0.0
 40
0.2429625372
 40
0.4987252615
 40
0.7576608953
 40
0.8831246757
 40
1.0
 40
1.0
 40
1.0
 40
1.0
 10
-1.6906126612
 20
-44.9935278508
 30
0.0
 10
-1.6577439138
 20
-45.0030160966
 30
0.0
 10
-1.5930246818
 20
-45.0311107739
 30
0.0
 10
-1.5033594033
 20
-45.0930032391
 30
0.0
 10
-1.4588546659
 20
-45.1750820713
 30
0.0
 10
-1.4423180092
 20
-45.2439143054
 30
0.0
 10
-1.4407328817
 20
-45.2781800311
 30
0.0
 10
-1.4407328817
 20
-45.2946369002
 30
0.0
  0
SPLINE
  5
2D6
100
AcDbEntity
  8
0
100
AcDbSpline
 62
7
  6
CONTINUOUS
 70
0
 71
3
 72
11
 73
7
 74
0
 42
0.0000001
 43
0.0000001
 44
0.0000000001
 40
0.0
 40
0.0
 40
0.0
 40
0.0
 40
0.2698022082
 40
0.5263429614
 40
0.768337742
 40
1.0
 40
1.0
 40
1.0
 40
1.0
 10
-1.6489944499
 20
-45.6161190277
 30
0.0
 10
-1.6213254015
 20
-45.6241065654
 30
0.0
 10
-1.5659280562
 20
-45.6352166704
 30
0.0
 10
-1.483515116
 20
-45.6373162963
 30
0.0
 10
-1.4060655901
 20
-45.6215730095
 30
0.0
 10
-1.3618738909
 20
-45.5945876954
 30
0.0
 10
-1.3431814182
 20
-45.5783995392
 30
0.0
  0
SPLINE
  5
2D7
100
AcDbEntity
  8
0
100
AcDbSpline
 62
7
  6
CONTINUOUS
 70
0
 71
3
 72
9
 73
5
 74
0
 42
0.0000001
 43
0.0000001
 44
0.0000000001
 40
0.0
 40
0.0
 40
0.0
 40
0.0
 40
0.4895462082
 40
1.0
 40
1.0
 40
1.0
 40
1.0
 10
1.7232241749
 20
-0.9295344692
 30
0.0
 10
1.7766190119
 20
-0.9358372328
 30
0.0
 10
1.8854124769
 20
-0.9534685918
 30
0.0
 10
1.9898631751
 20
-0.9890055874
 30
0.0
 10
2.0418297051
 20
-1.0100389242
 30
0.0
  0
SPLINE
  5
2D8
100
AcDbEntity
  8
0
100
AcDbSpline
 62
7
  6
CONTINUOUS
 70
0
 71
3
 72
11
 73
7
 74
0
 42
0.0000001
 43
0.0000001
 44
0.0000000001
 40
0.0
 40
0.0
 40
0.0
 40
0.0
 40
0.2507593195
 40
0.51157245
 40
0.7646208374
 40
1.0
 40
1.0
 40
1.0
 40
1.0
 10
2.0418297051
 20
-1.0100389242
 30
0.0
 10
2.0732907059
 20
-1.0227735479
 30
0.0
 10
2.1337278152
 20
-1.0583901561
 30
0.0
 10
2.2084556841
 20
-1.1316689348
 30
0.0
 10
2.2581878331
 20
-1.221800519
 30
0.0
 10
2.2710651491
 20
-1.2880543707
 30
0.0
 10
2.2715611379
 20
-1.3199093975
 30
0.0
  0
SPLINE
  5
2D9
100
AcDbEntity
  8
0
100
AcDbSpline
 62
7
  6
CONTINUOUS
 70
0
 71
3
 72
10
 73
6
 74
0
 42
0.0000001
 43
0.0000001
 44
0.0000000001
 40
0.0
 40
0.0
 40
0.0
 40
0.0
 40
0.5210814055
 40
0.7643435217
 40
1.0
 40
1.0
 40
1.0
 40
1.0
 10
2.2715611379
 20
-1.3199093975
 30
0.0
 10
2.2721077822
 20
-1.3554938641
 30
0.0
 10
2.2682699935
 20
-1.4088290796
 30
0.0
 10
2.2407690224
 20
-1.472149644
 30
0.0
 10
2.2191773511
 20
-1.4975152737
 30
0.0
 10
2.2070108279
 20
-1.5080517915
 30
0.0
  0
SPLINE
  5
2DA
100
AcDbEntity
  8
0
100
AcDbSpline
 62
7
  6
CONTINUOUS
 70
0
 71
3
 72
13
 73
9
 74
0
 42
0.0000001
 43
0.0000001
 44
0.0000000001
 40
0.0
 40
0.0
 40
0.0
 40
0.0
 40
0.1318867533
 40
0.2595678197
 40
0.3844562449
 40
0.5084473405
 40
0.7551143134
 40
1.0
 40
1.0
 40
1.0
 40
1.0
 10
2.3772370126
 20
-1.8137645847
 30
0.0
 10
2.3842299635
 20
-1.8148809595
 30
0.0
 10
2.3983756167
 20
-1.8117380802
 30
0.0
 10
2.4178796641
 20
-1.8055887659
 30
0.0
 10
2.4368785328
 20
-1.7984726054
 30
0.0
 10
2.460928189
 20
-1.7870613922
 30
0.0
 10
2.4892288875
 20
-1.7698090128
 30
0.0
 10
2.510183848
 20
-1.7536702865
 30
0.0
 10
2.520123439
 20
-1.7450623483
 30
0.0
  0
SPLINE
  5
2DB
100
AcDbEntity
  8
0
100
AcDbSpline
 62
7
  6
CONTINUOUS
 70
0
 71
3
 72
9
 73
5
 74
0
 42
0.0000001
 43
0.0000001
 44
0.0000000001
 40
0.0
 40
0.0
 40
0.0
 40
0.0
 40
0.4944561017
 40
1.0
 40
1.0
 40
1.0
 40
1.0
 10
1.9547672777
 20
-1.8503145841
 30
0.0
 10
2.0083181625
 20
-1.8657733929
 30
0.0
 10
2.1084642704
 20
-1.9309389983
 30
0.0
 10
2.1633874489
 20
-2.0335074261
 30
0.0
 10
2.1816643238
 20
-2.0874844536
 30
0.0
  0
SPLINE
  5
2DC
100
AcDbEntity
  8
0
100
AcDbSpline
 62
7
  6
CONTINUOUS
 70
0
 71
3
 72
11
 73
7
 74
0
 42
0.0000001
 43
0.0000001
 44
0.0000000001
 40
0.0
 40
0.0
 40
0.0
 40
0.0
 40
0.2509902286
 40
0.5009356852
 40
0.7505820716
 40
1.0
 40
1.0
 40
1.0
 40
1.0
 10
2.1816643238
 20
-2.0874844536
 30
0.0
 10
2.1995588587
 20
-2.1402817678
 30
0.0
 10
2.2283538273
 20
-2.2478649537
 30
0.0
 10
2.2732270022
 20
-2.4083817916
 30
0.0
 10
2.3166312918
 20
-2.5689953276
 30
0.0
 10
2.3452859135
 20
-2.6760720262
 30
0.0
 10
2.3595001798
 20
-2.7296155673
 30
0.0
  0
SPLINE
  5
2DD
100
AcDbEntity
  8
RACCORDO
100
AcDbSpline
 62
250
  6
CONTINUOUS
 70
0
 71
3
 72
13
 73
9
 74
0
 42
0.0000001
 43
0.0000001
 44
0.0000000001
 40
0.0
 40
0.0
 40
0.0
 40
0.0
 40
0.2376483387
 40
0.3645776833
 40
0.4944049632
 40
0.6250313008
 40
0.7542742128
 40
1.0
 40
1.0
 40
1.0
 40
1.0
 10
115.1559732024
 20
9.5213298274
 30
0.0
 10
115.1559732024
 20
10.1156467122
 30
0.0
 10
114.9676360293
 20
11.0330678866
 30
0.0
 10
114.4438909682
 20
12.1554840114
 30
0.0
 10
113.9054432726
 20
12.9656513098
 30
0.0
 10
113.2502936384
 20
13.6923061514
 30
0.0
 10
112.2737693996
 20
14.4991683769
 30
0.0
 10
111.4162551821
 20
14.9310204492
 30
0.0
 10
110.8258461835
 20
15.1014568464
 30
0.0
  0
SPLINE
  5
2DE
100
AcDbEntity
  8
0
100
AcDbSpline
 62
7
  6
CONTINUOUS
 70
0
 71
3
 72
9
 73
5
 74
0
 42
0.0000001
 43
0.0000001
 44
0.0000000001
 40
0.0
 40
0.0
 40
0.0
 40
0.0
 40
0.5187148475
 40
1.0
 40
1.0
 40
1.0
 40
1.0
 10
106.0437482064
 20
8.124784477
 30
0.0
 10
106.0437482064
 20
8.1935434222
 30
0.0
 10
106.0628774515
 20
8.3274144197
 30
0.0
 10
106.1290972564
 20
8.4466320072
 30
0.0
 10
106.1708507575
 20
8.4948684414
 30
0.0
  0
SPLINE
  5
2DF
100
AcDbEntity
  8
0
100
AcDbSpline
 62
7
  6
CONTINUOUS
 70
0
 71
3
 72
9
 73
5
 74
0
 42
0.0000001
 43
0.0000001
 44
0.0000000001
 40
0.0
 40
0.0
 40
0.0
 40
0.0
 40
0.5155990589
 40
1.0
 40
1.0
 40
1.0
 40
1.0
 10
105.1216810589
 20
8.0012509032
 30
0.0
 10
105.1216810589
 20
8.0976403786
 30
0.0
 10
105.1424817966
 20
8.2855069553
 30
0.0
 10
105.2120669669
 20
8.4620721778
 30
0.0
 10
105.2575317152
 20
8.5403891235
 30
0.0
  0
SPLINE
  5
2E0
100
AcDbEntity
  8
0
100
AcDbSpline
 62
7
  6
CONTINUOUS
 70
0
 71
3
 72
14
 73
10
 74
0
 42
0.0000001
 43
0.0000001
 44
0.0000000001
 40
0.0
 40
0.0
 40
0.0
 40
0.0
 40
0.2538675985
 40
0.3905803171
 40
0.527072973
 40
0.6585629864
 40
0.7814727556
 40
0.8945898354
 40
1.0
 40
1.0
 40
1.0
 40
1.0
 10
106.0437482064
 20
8.124784477
 30
0.0
 10
106.0437482064
 20
7.977802222
 30
0.0
 10
106.1136161328
 20
7.7497652742
 30
0.0
 10
106.2908671858
 20
7.5002453511
 30
0.0
 10
106.4652742417
 20
7.3406206251
 30
0.0
 10
106.6636747267
 20
7.2276493529
 30
0.0
 10
106.8712685979
 20
7.1702998872
 30
0.0
 10
107.0721124232
 20
7.1745879985
 30
0.0
 10
107.1931883061
 20
7.2218378403
 30
0.0
 10
107.2445780283
 20
7.2547574644
 30
0.0
  0
SPLINE
  5
2E1
100
AcDbEntity
  8
0
100
AcDbSpline
 62
7
  6
CONTINUOUS
 70
0
 71
3
 72
14
 73
10
 74
0
 42
0.0000001
 43
0.0000001
 44
0.0000000001
 40
0.0
 40
0.0
 40
0.0
 40
0.0
 40
0.2502850554
 40
0.3850458231
 40
0.5204684794
 40
0.6522900921
 40
0.7769938971
 40
0.8927020572
 40
1.0
 40
1.0
 40
1.0
 40
1.0
 10
105.1216810589
 20
8.0012509032
 30
0.0
 10
105.1216810589
 20
7.7512564008
 30
0.0
 10
105.2329136626
 20
7.3635339056
 30
0.0
 10
105.5201241253
 20
6.9285350597
 30
0.0
 10
105.8056265275
 20
6.6416875055
 30
0.0
 10
106.1352324894
 20
6.4251687342
 30
0.0
 10
106.486930078
 20
6.2938611547
 30
0.0
 10
106.8366571389
 20
6.258305297
 30
0.0
 10
107.0594566563
 20
6.3042696193
 30
0.0
 10
107.1588990192
 20
6.3442364837
 30
0.0
  0
SPLINE
  5
2E2
100
AcDbEntity
  8
RACCORDO
100
AcDbSpline
 62
250
  6
CONTINUOUS
 70
0
 71
3
 72
11
 73
7
 74
0
 42
0.0000001
 43
0.0000001
 44
0.0000000001
 40
0.0
 40
0.0
 40
0.0
 40
0.0
 40
0.2709660827
 40
0.525649243
 40
0.7667315483
 40
1.0
 40
1.0
 40
1.0
 40
1.0
 10
-111.7426825891
 20
79.3514568464
 30
0.0
 10
-112.0423479716
 20
79.437962791
 30
0.0
 10
-112.642027801
 20
79.5506957512
 30
0.0
 10
-113.5321239314
 20
79.5177318
 30
0.0
 10
-114.345629577
 20
79.2756647653
 30
0.0
 10
-114.8129776241
 20
78.9767552935
 30
0.0
 10
-115.0159505981
 20
78.8009741597
 30
0.0
  0
SPLINE
  5
2E3
100
AcDbEntity
  8
0
100
AcDbSpline
 62
7
  6
CONTINUOUS
 70
0
 71
3
 72
14
 73
10
 74
0
 42
0.0000001
 43
0.0000001
 44
0.0000000001
 40
0.0
 40
0.0
 40
0.0
 40
0.0
 40
0.116264116
 40
0.2395878698
 40
0.3672046481
 40
0.4971441147
 40
0.6277333676
 40
0.7557776164
 40
1.0
 40
1.0
 40
1.0
 40
1.0
 10
-1.2568211821
 20
-45.3477276348
 30
0.0
 10
-1.2568211821
 20
-45.3214619216
 30
0.0
 10
-1.2599779084
 20
-45.2671533818
 30
0.0
 10
-1.2804743477
 20
-45.1863054847
 30
0.0
 10
-1.3151535877
 20
-45.1070710496
 30
0.0
 10
-1.364872631
 20
-45.0343122591
 30
0.0
 10
-1.4258244013
 20
-44.970438685
 30
0.0
 10
-1.5184682801
 20
-44.9041040107
 30
0.0
 10
-1.5959832295
 20
-44.8682178592
 30
0.0
 10
-1.6489920391
 20
-44.852915596
 30
0.0
  0
SPLINE
  5
2E4
100
AcDbEntity
  8
0
100
AcDbSpline
 62
7
  6
CONTINUOUS
 70
0
 71
3
 72
14
 73
10
 74
0
 42
0.0000001
 43
0.0000001
 44
0.0000000001
 40
0.0
 40
0.0
 40
0.0
 40
0.0
 40
0.2538675985
 40
0.3905803171
 40
0.527072973
 40
0.6585629864
 40
0.7814727556
 40
0.8945898354
 40
1.0
 40
1.0
 40
1.0
 40
1.0
 10
106.0437482064
 20
-69.8175018636
 30
0.0
 10
106.0437482064
 20
-69.9644841186
 30
0.0
 10
106.1136161328
 20
-70.1925210664
 30
0.0
 10
106.2908671858
 20
-70.4420409895
 30
0.0
 10
106.4652742417
 20
-70.6016657155
 30
0.0
 10
106.6636747267
 20
-70.7146369877
 30
0.0
 10
106.8712685979
 20
-70.7719864534
 30
0.0
 10
107.0721124232
 20
-70.7676983421
 30
0.0
 10
107.1931883061
 20
-70.7204485003
 30
0.0
 10
107.2445780283
 20
-70.6875288762
 30
0.0
  0
SPLINE
  5
2E5
100
AcDbEntity
  8
0
100
AcDbSpline
 62
7
  6
CONTINUOUS
 70
0
 71
3
 72
14
 73
10
 74
0
 42
0.0000001
 43
0.0000001
 44
0.0000000001
 40
0.0
 40
0.0
 40
0.0
 40
0.0
 40
0.2502850554
 40
0.3850458231
 40
0.5204684794
 40
0.6522900921
 40
0.7769938971
 40
0.8927020572
 40
1.0
 40
1.0
 40
1.0
 40
1.0
 10
105.1216810589
 20
-69.9410354374
 30
0.0
 10
105.1216810589
 20
-70.1910299398
 30
0.0
 10
105.2329136626
 20
-70.578752435
 30
0.0
 10
105.5201241253
 20
-71.0137512809
 30
0.0
 10
105.8056265275
 20
-71.3005988351
 30
0.0
 10
106.1352324894
 20
-71.5171176064
 30
0.0
 10
106.486930078
 20
-71.6484251859
 30
0.0
 10
106.8366571389
 20
-71.6839810436
 30
0.0
 10
107.0594566563
 20
-71.6380167213
 30
0.0
 10
107.1588990192
 20
-71.5980498569
 30
0.0
  0
SPLINE
  5
2E6
100
AcDbEntity
  8
0
100
AcDbSpline
 62
7
  6
CONTINUOUS
 70
0
 71
3
 72
9
 73
5
 74
0
 42
0.0000001
 43
0.0000001
 44
0.0000000001
 40
0.0
 40
0.0
 40
0.0
 40
0.0
 40
0.5187148475
 40
1.0
 40
1.0
 40
1.0
 40
1.0
 10
106.0437482064
 20
-69.8175018636
 30
0.0
 10
106.0437482064
 20
-69.7487429184
 30
0.0
 10
106.0628774515
 20
-69.6148719209
 30
0.0
 10
106.1290972564
 20
-69.4956543334
 30
0.0
 10
106.1708507575
 20
-69.4474178992
 30
0.0
  0
SPLINE
  5
2E7
100
AcDbEntity
  8
0
100
AcDbSpline
 62
7
  6
CONTINUOUS
 70
0
 71
3
 72
9
 73
5
 74
0
 42
0.0000001
 43
0.0000001
 44
0.0000000001
 40
0.0
 40
0.0
 40
0.0
 40
0.0
 40
0.5155990589
 40
1.0
 40
1.0
 40
1.0
 40
1.0
 10
105.1216810589
 20
-69.9410354374
 30
0.0
 10
105.1216810589
 20
-69.844645962
 30
0.0
 10
105.1424817966
 20
-69.6567793853
 30
0.0
 10
105.2120669669
 20
-69.4802141628
 30
0.0
 10
105.2575317152
 20
-69.4018972171
 30
0.0
  0
SPLINE
  5
2E8
100
AcDbEntity
  8
0
100
AcDbSpline
 62
7
  6
CONTINUOUS
 70
0
 71
3
 72
13
 73
9
 74
0
 42
0.0000001
 43
0.0000001
 44
0.0000000001
 40
0.0
 40
0.0
 40
0.0
 40
0.0
 40
0.1163532659
 40
0.2358010896
 40
0.4840643634
 40
0.614794508
 40
0.7473782828
 40
1.0
 40
1.0
 40
1.0
 40
1.0
 10
0.8153549482
 20
-46.2101131828
 30
0.0
 10
0.8153549482
 20
-46.1725511498
 30
0.0
 10
0.8126704003
 20
-46.0963100928
 30
0.0
 10
0.7916506786
 20
-45.9415343689
 30
0.0
 10
0.7523478539
 20
-45.783285429
 30
0.0
 10
0.6706270422
 20
-45.6385474493
 30
0.0
 10
0.5636052285
 20
-45.5099310576
 30
0.0
 10
0.4505919505
 20
-45.4445840197
 30
0.0
 10
0.3722381363
 20
-45.4219652218
 30
0.0
  0
SPLINE
  5
2E9
100
AcDbEntity
  8
0
100
AcDbSpline
 62
7
  6
CONTINUOUS
 70
0
 71
3
 72
14
 73
10
 74
0
 42
0.0000001
 43
0.0000001
 44
0.0000000001
 40
0.0
 40
0.0
 40
0.0
 40
0.0
 40
0.2502850554
 40
0.3850458231
 40
0.5204684794
 40
0.6522900921
 40
0.7769938971
 40
0.8927020572
 40
1.0
 40
1.0
 40
1.0
 40
1.0
 10
-38.6385359693
 20
49.5012509032
 30
0.0
 10
-38.6385359693
 20
49.2512564008
 30
0.0
 10
-38.5273033656
 20
48.8635339056
 30
0.0
 10
-38.2400929029
 20
48.4285350597
 30
0.0
 10
-37.9545905008
 20
48.1416875055
 30
0.0
 10
-37.6249845388
 20
47.9251687342
 30
0.0
 10
-37.2732869502
 20
47.7938611547
 30
0.0
 10
-36.9235598893
 20
47.758305297
 30
0.0
 10
-36.7007603719
 20
47.8042696193
 30
0.0
 10
-36.601318009
 20
47.8442364837
 30
0.0
  0
SPLINE
  5
2EA
100
AcDbEntity
  8
0
100
AcDbSpline
 62
7
  6
CONTINUOUS
 70
0
 71
3
 72
14
 73
10
 74
0
 42
0.0000001
 43
0.0000001
 44
0.0000000001
 40
0.0
 40
0.0
 40
0.0
 40
0.0
 40
0.2538675985
 40
0.3905803171
 40
0.527072973
 40
0.6585629864
 40
0.7814727556
 40
0.8945898354
 40
1.0
 40
1.0
 40
1.0
 40
1.0
 10
-37.7164688218
 20
49.624784477
 30
0.0
 10
-37.7164688218
 20
49.477802222
 30
0.0
 10
-37.6466008954
 20
49.2497652742
 30
0.0
 10
-37.4693498424
 20
49.0002453511
 30
0.0
 10
-37.2949427865
 20
48.8406206251
 30
0.0
 10
-37.0965423015
 20
48.7276493529
 30
0.0
 10
-36.8889484304
 20
48.6702998872
 30
0.0
 10
-36.688104605
 20
48.6745879985
 30
0.0
 10
-36.5670287221
 20
48.7218378403
 30
0.0
 10
-36.5156389999
 20
48.7547574644
 30
0.0
  0
SPLINE
  5
2EB
100
AcDbEntity
  8
0
100
AcDbSpline
 62
7
  6
CONTINUOUS
 70
0
 71
3
 72
9
 73
5
 74
0
 42
0.0000001
 43
0.0000001
 44
0.0000000001
 40
0.0
 40
0.0
 40
0.0
 40
0.0
 40
0.5155990589
 40
1.0
 40
1.0
 40
1.0
 40
1.0
 10
-38.6385359693
 20
49.5012509032
 30
0.0
 10
-38.6385359693
 20
49.5976403786
 30
0.0
 10
-38.6177352316
 20
49.7855069553
 30
0.0
 10
-38.5481500614
 20
49.9620721778
 30
0.0
 10
-38.502685313
 20
50.0403891235
 30
0.0
  0
SPLINE
  5
2EC
100
AcDbEntity
  8
0
100
AcDbSpline
 62
7
  6
CONTINUOUS
 70
0
 71
3
 72
9
 73
5
 74
0
 42
0.0000001
 43
0.0000001
 44
0.0000000001
 40
0.0
 40
0.0
 40
0.0
 40
0.0
 40
0.5187148475
 40
1.0
 40
1.0
 40
1.0
 40
1.0
 10
-37.7164688218
 20
49.624784477
 30
0.0
 10
-37.7164688218
 20
49.6935434222
 30
0.0
 10
-37.6973395767
 20
49.8274144197
 30
0.0
 10
-37.6311197718
 20
49.9466320072
 30
0.0
 10
-37.5893662707
 20
49.9948684414
 30
0.0
  0
SPLINE
  5
2ED
100
AcDbEntity
  8
0
100
AcDbSpline
 62
7
  6
CONTINUOUS
 70
0
 71
3
 72
11
 73
7
 74
0
 42
0.0000001
 43
0.0000001
 44
0.0000000001
 40
0.0
 40
0.0
 40
0.0
 40
0.0
 40
0.2706354683
 40
0.5265813961
 40
0.7677179388
 40
1.0
 40
1.0
 40
1.0
 40
1.0
 10
0.3722381363
 20
-45.4219652218
 30
0.0
 10
0.3455408727
 20
-45.4142583857
 30
0.0
 10
0.292082736
 20
-45.4038989315
 30
0.0
 10
0.2126266474
 20
-45.404940735
 30
0.0
 10
0.13939346
 20
-45.4249733763
 30
0.0
 10
0.0980113349
 20
-45.4520492846
 30
0.0
 10
0.0799828289
 20
-45.4676624287
 30
0.0
  0
SPLINE
  5
2EE
100
AcDbEntity
  8
0
100
AcDbSpline
 62
7
  6
CONTINUOUS
 70
0
 71
3
 72
11
 73
7
 74
0
 42
0.0000001
 43
0.0000001
 44
0.0000000001
 40
0.0
 40
0.0
 40
0.0
 40
0.0
 40
0.2348764486
 40
0.4745881015
 40
0.729281415
 40
1.0
 40
1.0
 40
1.0
 40
1.0
 10
0.5231526838
 20
-46.5776318167
 30
0.0
 10
0.5128835459
 20
-46.5865251523
 30
0.0
 10
0.4901589076
 20
-46.6024693545
 30
0.0
 10
0.4496359705
 20
-46.6163572482
 30
0.0
 10
0.4049213301
 20
-46.6176311646
 30
0.0
 10
0.374781695
 20
-46.6122890989
 30
0.0
 10
0.3597381363
 20
-46.6079463976
 30
0.0
  0
SPLINE
  5
2EF
100
AcDbEntity
  8
0
100
AcDbSpline
 62
7
  6
CONTINUOUS
 70
0
 71
3
 72
11
 73
7
 74
0
 42
0.0000001
 43
0.0000001
 44
0.0000000001
 40
0.0
 40
0.0
 40
0.0
 40
0.0
 40
0.2366767456
 40
0.4844706276
 40
0.7387157565
 40
1.0
 40
1.0
 40
1.0
 40
1.0
 10
0.1774040421
 20
-45.6318765948
 30
0.0
 10
0.1596763527
 20
-45.6564601433
 30
0.0
 10
0.1361314521
 20
-45.7152935293
 30
0.0
 10
0.1154816017
 20
-45.8074202822
 30
0.0
 10
0.1027762514
 20
-45.9046336905
 30
0.0
 10
0.1019956712
 20
-45.9707240917
 30
0.0
 10
0.1019956712
 20
-46.0041840975
 30
0.0
  0
SPLINE
  5
2F0
100
AcDbEntity
  8
0
100
AcDbSpline
 62
7
  6
CONTINUOUS
 70
0
 71
3
 72
9
 73
5
 74
0
 42
0.0000001
 43
0.0000001
 44
0.0000000001
 40
0.0
 40
0.0
 40
0.0
 40
0.0
 40
0.5155990589
 40
1.0
 40
1.0
 40
1.0
 40
1.0
 10
-38.6385359693
 20
-28.4410354374
 30
0.0
 10
-38.6385359693
 20
-28.344645962
 30
0.0
 10
-38.6177352316
 20
-28.1567793853
 30
0.0
 10
-38.5481500614
 20
-27.9802141628
 30
0.0
 10
-38.502685313
 20
-27.9018972171
 30
0.0
  0
SPLINE
  5
2F1
100
AcDbEntity
  8
0
100
AcDbSpline
 62
7
  6
CONTINUOUS
 70
0
 71
3
 72
9
 73
5
 74
0
 42
0.0000001
 43
0.0000001
 44
0.0000000001
 40
0.0
 40
0.0
 40
0.0
 40
0.0
 40
0.5187148475
 40
1.0
 40
1.0
 40
1.0
 40
1.0
 10
-37.7164688218
 20
-28.3175018636
 30
0.0
 10
-37.7164688218
 20
-28.2487429184
 30
0.0
 10
-37.6973395767
 20
-28.1148719209
 30
0.0
 10
-37.6311197718
 20
-27.9956543334
 30
0.0
 10
-37.5893662707
 20
-27.9474178992
 30
0.0
  0
SPLINE
  5
2F2
100
AcDbEntity
  8
0
100
AcDbSpline
 62
7
  6
CONTINUOUS
 70
0
 71
3
 72
14
 73
10
 74
0
 42
0.0000001
 43
0.0000001
 44
0.0000000001
 40
0.0
 40
0.0
 40
0.0
 40
0.0
 40
0.2502850554
 40
0.3850458231
 40
0.5204684794
 40
0.6522900921
 40
0.7769938971
 40
0.8927020572
 40
1.0
 40
1.0
 40
1.0
 40
1.0
 10
-38.6385359693
 20
-28.4410354374
 30
0.0
 10
-38.6385359693
 20
-28.6910299398
 30
0.0
 10
-38.5273033656
 20
-29.078752435
 30
0.0
 10
-38.2400929029
 20
-29.5137512809
 30
0.0
 10
-37.9545905008
 20
-29.8005988351
 30
0.0
 10
-37.6249845388
 20
-30.0171176064
 30
0.0
 10
-37.2732869502
 20
-30.1484251859
 30
0.0
 10
-36.9235598893
 20
-30.1839810436
 30
0.0
 10
-36.7007603719
 20
-30.1380167213
 30
0.0
 10
-36.601318009
 20
-30.0980498569
 30
0.0
  0
SPLINE
  5
2F3
100
AcDbEntity
  8
0
100
AcDbSpline
 62
7
  6
CONTINUOUS
 70
0
 71
3
 72
14
 73
10
 74
0
 42
0.0000001
 43
0.0000001
 44
0.0000000001
 40
0.0
 40
0.0
 40
0.0
 40
0.0
 40
0.2538675985
 40
0.3905803171
 40
0.527072973
 40
0.6585629864
 40
0.7814727556
 40
0.8945898354
 40
1.0
 40
1.0
 40
1.0
 40
1.0
 10
-37.7164688218
 20
-28.3175018636
 30
0.0
 10
-37.7164688218
 20
-28.4644841186
 30
0.0
 10
-37.6466008954
 20
-28.6925210664
 30
0.0
 10
-37.4693498424
 20
-28.9420409895
 30
0.0
 10
-37.2949427865
 20
-29.1016657155
 30
0.0
 10
-37.0965423015
 20
-29.2146369877
 30
0.0
 10
-36.8889484304
 20
-29.2719864534
 30
0.0
 10
-36.688104605
 20
-29.2676983421
 30
0.0
 10
-36.5670287221
 20
-29.2204485003
 30
0.0
 10
-36.5156389999
 20
-29.1875288762
 30
0.0
  0
SPLINE
  5
2F4
100
AcDbEntity
  8
0
100
AcDbSpline
 62
7
  6
CONTINUOUS
 70
0
 71
3
 72
11
 73
7
 74
0
 42
0.0000001
 43
0.0000001
 44
0.0000000001
 40
0.0
 40
0.0
 40
0.0
 40
0.0
 40
0.27015128
 40
0.5253151687
 40
0.7655976107
 40
1.0
 40
1.0
 40
1.0
 40
1.0
 10
0.3722381363
 20
-46.59712108
 30
0.0
 10
0.3864957033
 20
-46.6012368851
 30
0.0
 10
0.415073357
 20
-46.6064553585
 30
0.0
 10
0.4574999506
 20
-46.605976138
 30
0.0
 10
0.4964939932
 20
-46.5944939785
 30
0.0
 10
0.518771512
 20
-46.580370304
 30
0.0
 10
0.5288849431
 20
-46.5724009704
 30
0.0
  0
SPLINE
  5
2F5
100
AcDbEntity
  8
0
100
AcDbSpline
 62
7
  6
CONTINUOUS
 70
0
 71
3
 72
14
 73
10
 74
0
 42
0.0000001
 43
0.0000001
 44
0.0000000001
 40
0.0
 40
0.0
 40
0.0
 40
0.0
 40
0.2564723598
 40
0.3945423494
 40
0.5316430511
 40
0.6626316924
 40
0.7840107805
 40
0.8953103029
 40
1.0
 40
1.0
 40
1.0
 40
1.0
 10
-109.2115936759
 20
69.3831901066
 30
0.0
 10
-109.2115936759
 20
69.1029951707
 30
0.0
 10
-109.0720396354
 20
68.6682562716
 30
0.0
 10
-108.7226429786
 20
68.2019457569
 30
0.0
 10
-108.3816468341
 20
67.9111340551
 30
0.0
 10
-107.9982295899
 20
67.7169190242
 30
0.0
 10
-107.603273848
 20
67.6365732069
 30
0.0
 10
-107.2300034832
 20
67.6814368556
 30
0.0
 10
-107.0170341817
 20
67.799423376
 30
0.0
 10
-106.930575167
 20
67.8742968065
 30
0.0
  0
SPLINE
  5
2F6
100
AcDbEntity
  8
0
100
AcDbSpline
 62
7
  6
CONTINUOUS
 70
0
 71
3
 72
10
 73
6
 74
0
 42
0.0000001
 43
0.0000001
 44
0.0000000001
 40
0.0
 40
0.0
 40
0.0
 40
0.0
 40
0.5183205375
 40
0.761978719
 40
1.0
 40
1.0
 40
1.0
 40
1.0
 10
104.6966810589
 20
7.6331901066
 30
0.0
 10
104.6966810589
 20
7.7791537652
 30
0.0
 10
104.734138887
 20
7.9981849125
 30
0.0
 10
104.8708889389
 20
8.2465747042
 30
0.0
 10
104.9630690143
 20
8.3482034505
 30
0.0
 10
105.0137387614
 20
8.3920834067
 30
0.0
  0
SPLINE
  5
2F7
100
AcDbEntity
  8
0
100
AcDbSpline
 62
7
  6
CONTINUOUS
 70
0
 71
3
 72
11
 73
7
 74
0
 42
0.0000001
 43
0.0000001
 44
0.0000000001
 40
0.0
 40
0.0
 40
0.0
 40
0.0
 40
0.2341002113
 40
0.4800770756
 40
0.7355606212
 40
1.0
 40
1.0
 40
1.0
 40
1.0
 10
0.6670709537
 20
-46.6944705569
 30
0.0
 10
0.6973968499
 20
-46.6675575634
 30
0.0
 10
0.7495908187
 20
-46.5996993181
 30
0.0
 10
0.7871352757
 20
-46.476728001
 30
0.0
 10
0.8113567531
 20
-46.346201196
 30
0.0
 10
0.8153549482
 20
-46.2559137821
 30
0.0
 10
0.8153549482
 20
-46.2101131828
 30
0.0
  0
SPLINE
  5
2F8
100
AcDbEntity
  8
0
100
AcDbSpline
 62
7
  6
CONTINUOUS
 70
0
 71
3
 72
11
 73
7
 74
0
 42
0.0000001
 43
0.0000001
 44
0.0000000001
 40
0.0
 40
0.0
 40
0.0
 40
0.0
 40
0.2340396747
 40
0.479916983
 40
0.735448248
 40
1.0
 40
1.0
 40
1.0
 40
1.0
 10
0.6519935109
 20
-46.7075555856
 30
0.0
 10
0.6828353779
 20
-46.6808457282
 30
0.0
 10
0.7360032888
 20
-46.6129775732
 30
0.0
 10
0.7742709284
 20
-46.4893304391
 30
0.0
 10
0.7987807682
 20
-46.3579632137
 30
0.0
 10
0.8028549482
 20
-46.2670576149
 30
0.0
 10
0.8028549482
 20
-46.2209385004
 30
0.0
  0
SPLINE
  5
2F9
100
AcDbEntity
  8
0
100
AcDbSpline
 62
7
  6
CONTINUOUS
 70
0
 71
3
 72
15
 73
11
 74
0
 42
0.0000001
 43
0.0000001
 44
0.0000000001
 40
0.0
 40
0.0
 40
0.0
 40
0.0
 40
0.1163712739
 40
0.2351963295
 40
0.3563743145
 40
0.4807210253
 40
0.6085564768
 40
0.7414964464
 40
0.8742741289
 40
1.0
 40
1.0
 40
1.0
 40
1.0
 10
0.1019956712
 20
-46.0041840975
 30
0.0
 10
0.1019956712
 20
-46.0311757188
 30
0.0
 10
0.1024073665
 20
-46.085760714
 30
0.0
 10
0.1099245926
 20
-46.1681808348
 30
0.0
 10
0.1237161929
 20
-46.2516000027
 30
0.0
 10
0.1427641792
 20
-46.3361691377
 30
0.0
 10
0.1739633984
 20
-46.4203917306
 30
0.0
 10
0.2233812203
 20
-46.4979981065
 30
0.0
 10
0.2890488492
 20
-46.5623051713
 30
0.0
 10
0.3442208038
 20
-46.5890331728
 30
0.0
 10
0.3722381363
 20
-46.59712108
 30
0.0
  0
SPLINE
  5
2FA
100
AcDbEntity
  8
RACCORDO
100
AcDbSpline
 62
250
  6
CONTINUOUS
 70
0
 71
3
 72
11
 73
7
 74
0
 42
0.0000001
 43
0.0000001
 44
0.0000000001
 40
0.0
 40
0.0
 40
0.0
 40
0.0
 40
0.3270103292
 40
0.600464447
 40
0.8193112485
 40
1.0
 40
1.0
 40
1.0
 40
1.0
 10
-112.2426825891
 20
-15.478324868
 30
0.0
 10
-112.2426825891
 20
-15.5443954589
 30
0.0
 10
-112.2349484152
 20
-15.6660824948
 30
0.0
 10
-112.1940675748
 20
-15.827662399
 30
0.0
 10
-112.1258265803
 20
-15.9484122315
 30
0.0
 10
-112.055107886
 20
-15.9959567688
 30
0.0
 10
-112.0200326516
 20
-16.0060809655
 30
0.0
  0
SPLINE
  5
2FB
100
AcDbEntity
  8
RACCORDO
100
AcDbSpline
 62
250
  6
CONTINUOUS
 70
0
 71
3
 72
11
 73
7
 74
0
 42
0.0000001
 43
0.0000001
 44
0.0000000001
 40
0.0
 40
0.0
 40
0.0
 40
0.0
 40
0.3270103292
 40
0.600464447
 40
0.8193112485
 40
1.0
 40
1.0
 40
1.0
 40
1.0
 10
110.3258461835
 20
-79.728324868
 30
0.0
 10
110.3258461835
 20
-79.7943954589
 30
0.0
 10
110.3335803574
 20
-79.9160824948
 30
0.0
 10
110.3744611978
 20
-80.077662399
 30
0.0
 10
110.4427021923
 20
-80.1984122315
 30
0.0
 10
110.5134208866
 20
-80.2459567688
 30
0.0
 10
110.548496121
 20
-80.2560809655
 30
0.0
  0
SPLINE
  5
2FC
100
AcDbEntity
  8
RACCORDO
100
AcDbSpline
 62
250
  6
CONTINUOUS
 70
0
 71
3
 72
11
 73
7
 74
0
 42
0.0000001
 43
0.0000001
 44
0.0000000001
 40
0.0
 40
0.0
 40
0.0
 40
0.0
 40
0.2637515295
 40
0.5379163091
 40
0.7915791086
 40
1.0
 40
1.0
 40
1.0
 40
1.0
 10
113.7899477986
 20
-77.2642232529
 30
0.0
 10
113.9099664062
 20
-77.2988696406
 30
0.0
 10
114.1637614184
 20
-77.3393906044
 30
0.0
 10
114.5407476879
 20
-77.3275681323
 30
0.0
 10
114.8823614057
 20
-77.2489028624
 30
0.0
 10
115.0813529224
 20
-77.1458336092
 30
0.0
 10
115.1559732024
 20
-77.081210551
 30
0.0
  0
SPLINE
  5
2FD
100
AcDbEntity
  8
RACCORDO
100
AcDbSpline
 62
250
  6
CONTINUOUS
 70
0
 71
3
 72
11
 73
7
 74
0
 42
0.0000001
 43
0.0000001
 44
0.0000000001
 40
0.0
 40
0.0
 40
0.0
 40
0.0
 40
0.2637515295
 40
0.5379163091
 40
0.7915791086
 40
1.0
 40
1.0
 40
1.0
 40
1.0
 10
113.7899477986
 20
9.3383171255
 30
0.0
 10
113.9099664062
 20
9.3036707379
 30
0.0
 10
114.1637614184
 20
9.263149774
 30
0.0
 10
114.5407476879
 20
9.2749722461
 30
0.0
 10
114.8823614057
 20
9.3536375161
 30
0.0
 10
115.0813529224
 20
9.4567067693
 30
0.0
 10
115.1559732024
 20
9.5213298274
 30
0.0
  0
SPLINE
  5
2FE
100
AcDbEntity
  8
RACCORDO
100
AcDbSpline
 62
250
  6
CONTINUOUS
 70
0
 71
3
 72
12
 73
8
 74
0
 42
0.0000001
 43
0.0000001
 44
0.0000000001
 40
0.0
 40
0.0
 40
0.0
 40
0.0
 40
0.2572980101
 40
0.5313271618
 40
0.78844944
 40
0.9013248373
 40
1.0
 40
1.0
 40
1.0
 40
1.0
 10
110.3258461835
 20
13.8024187407
 30
0.0
 10
110.3258461835
 20
13.9245378327
 30
0.0
 10
110.3552361673
 20
14.1769349807
 30
0.0
 10
110.459570817
 20
14.5375927759
 30
0.0
 10
110.5925573749
 20
14.8152920119
 30
0.0
 10
110.7212328336
 20
14.9972814349
 30
0.0
 10
110.7904435176
 20
15.0707972384
 30
0.0
 10
110.8258461835
 20
15.1014568464
 30
0.0
  0
SPLINE
  5
2FF
100
AcDbEntity
  8
RACCORDO
100
AcDbSpline
 62
250
  6
CONTINUOUS
 70
0
 71
3
 72
12
 73
8
 74
0
 42
0.0000001
 43
0.0000001
 44
0.0000000001
 40
0.0
 40
0.0
 40
0.0
 40
0.0
 40
0.2572980101
 40
0.5313271618
 40
0.78844944
 40
0.9013248373
 40
1.0
 40
1.0
 40
1.0
 40
1.0
 10
-112.2426825891
 20
78.0524187407
 30
0.0
 10
-112.2426825891
 20
78.1745378327
 30
0.0
 10
-112.2132926053
 20
78.4269349807
 30
0.0
 10
-112.1089579556
 20
78.7875927759
 30
0.0
 10
-111.9759713977
 20
79.0652920119
 30
0.0
 10
-111.847295939
 20
79.2472814349
 30
0.0
 10
-111.778085255
 20
79.3207972384
 30
0.0
 10
-111.7426825891
 20
79.3514568464
 30
0.0
  0
SPLINE
  5
300
100
AcDbEntity
  8
RACCORDO
100
AcDbSpline
 62
250
  6
CONTINUOUS
 70
0
 71
3
 72
11
 73
7
 74
0
 42
0.0000001
 43
0.0000001
 44
0.0000000001
 40
0.0
 40
0.0
 40
0.0
 40
0.0
 40
0.3160264554
 40
0.5862562135
 40
0.8093515427
 40
1.0
 40
1.0
 40
1.0
 40
1.0
 10
-115.7067842042
 20
75.5883171255
 30
0.0
 10
-115.7778253202
 20
75.6088249292
 30
0.0
 10
-115.907258768
 20
75.6567209141
 30
0.0
 10
-116.0694164616
 20
75.7575911536
 30
0.0
 10
-116.1784945656
 20
75.8791740221
 30
0.0
 10
-116.2067827389
 20
75.9767230671
 30
0.0
 10
-116.2067837321
 20
76.0213298274
 30
0.0
  0
SPLINE
  5
301
100
AcDbEntity
  8
RACCORDO
100
AcDbSpline
 62
250
  6
CONTINUOUS
 70
0
 71
3
 72
11
 73
7
 74
0
 42
0.0000001
 43
0.0000001
 44
0.0000000001
 40
0.0
 40
0.0
 40
0.0
 40
0.0
 40
0.3160264554
 40
0.5862562135
 40
0.8093515427
 40
1.0
 40
1.0
 40
1.0
 40
1.0
 10
-115.7067842042
 20
-11.0142232529
 30
0.0
 10
-115.7778253202
 20
-10.9937154492
 30
0.0
 10
-115.907258768
 20
-10.9458194643
 30
0.0
 10
-116.0694164616
 20
-10.8449492249
 30
0.0
 10
-116.1784945656
 20
-10.7233663564
 30
0.0
 10
-116.2067827389
 20
-10.6258173114
 30
0.0
 10
-116.2067837321
 20
-10.581210551
 30
0.0
  0
SPLINE
  5
302
100
AcDbEntity
  8
0
100
AcDbSpline
 62
7
  6
CONTINUOUS
 70
0
 71
3
 72
10
 73
6
 74
0
 42
0.0000001
 43
0.0000001
 44
0.0000000001
 40
0.0
 40
0.0
 40
0.0
 40
0.0
 40
0.5183205375
 40
0.761978719
 40
1.0
 40
1.0
 40
1.0
 40
1.0
 10
-109.2115936759
 20
-8.559096234
 30
0.0
 10
-109.2115936759
 20
-8.4131325754
 30
0.0
 10
-109.1741358477
 20
-8.1941014281
 30
0.0
 10
-109.0373857959
 20
-7.9457116364
 30
0.0
 10
-108.9452057205
 20
-7.8440828901
 30
0.0
 10
-108.8945359734
 20
-7.8002029339
 30
0.0
  0
SPLINE
  5
303
100
AcDbEntity
  8
0
100
AcDbSpline
 62
7
  6
CONTINUOUS
 70
0
 71
3
 72
9
 73
5
 74
0
 42
0.0000001
 43
0.0000001
 44
0.0000000001
 40
0.0
 40
0.0
 40
0.0
 40
0.0
 40
0.4808858139
 40
1.0
 40
1.0
 40
1.0
 40
1.0
 10
-1.5105935566
 20
-45.4457834865
 30
0.0
 10
-1.5359501851
 20
-45.4554304309
 30
0.0
 10
-1.5942935928
 20
-45.4578681878
 30
0.0
 10
-1.6499712274
 20
-45.4487760364
 30
0.0
 10
-1.6781087605
 20
-45.4406536001
 30
0.0
  0
SPLINE
  5
304
100
AcDbEntity
  8
0
100
AcDbSpline
 62
7
  6
CONTINUOUS
 70
0
 71
3
 72
10
 73
6
 74
0
 42
0.0000001
 43
0.0000001
 44
0.0000000001
 40
0.0
 40
0.0
 40
0.0
 40
0.0
 40
0.2306692754
 40
0.4756996667
 40
1.0
 40
1.0
 40
1.0
 40
1.0
 10
-1.4909264294
 20
-45.4376303518
 30
0.0
 10
-1.5029377374
 20
-45.4480324554
 30
0.0
 10
-1.5333924609
 20
-45.4633385371
 30
0.0
 10
-1.6026095227
 20
-45.4692222394
 30
0.0
 10
-1.6559096419
 20
-45.4614954882
 30
0.0
 10
-1.6906088395
 20
-45.4514788948
 30
0.0
  0
SPLINE
  5
305
100
AcDbEntity
  8
0
100
AcDbSpline
 62
7
  6
CONTINUOUS
 70
0
 71
3
 72
10
 73
6
 74
0
 42
0.0000001
 43
0.0000001
 44
0.0000000001
 40
0.0
 40
0.0
 40
0.0
 40
0.0
 40
0.4772742159
 40
0.7340931432
 40
1.0
 40
1.0
 40
1.0
 40
1.0
 10
-1.3221220579
 20
-45.5597481148
 30
0.0
 10
-1.2944859834
 20
-45.5330717747
 30
0.0
 10
-1.2639434401
 20
-45.4791742031
 30
0.0
 10
-1.2459800331
 20
-45.4005644542
 30
0.0
 10
-1.2443211821
 20
-45.3583023023
 30
0.0
 10
-1.2443211821
 20
-45.3369023173
 30
0.0
  0
SPLINE
  5
306
100
AcDbEntity
  8
0
100
AcDbSpline
 62
7
  6
CONTINUOUS
 70
0
 71
3
 72
10
 73
6
 74
0
 42
0.0000001
 43
0.0000001
 44
0.0000000001
 40
0.0
 40
0.0
 40
0.0
 40
0.0
 40
0.4761230047
 40
0.7331694785
 40
1.0
 40
1.0
 40
1.0
 40
1.0
 10
-1.3431814182
 20
-45.5783995392
 30
0.0
 10
-1.3128555199
 20
-45.5521365409
 30
0.0
 10
-1.2785814955
 20
-45.4966681486
 30
0.0
 10
-1.2587453541
 20
-45.4145691071
 30
0.0
 10
-1.2568211821
 20
-45.3702103645
 30
0.0
 10
-1.2568211821
 20
-45.3477276348
 30
0.0
  0
SPLINE
  5
307
100
AcDbEntity
  8
0
100
AcDbSpline
 62
7
  6
CONTINUOUS
 70
0
 71
3
 72
14
 73
10
 74
0
 42
0.0000001
 43
0.0000001
 44
0.0000000001
 40
0.0
 40
0.0
 40
0.0
 40
0.0
 40
0.2564723598
 40
0.3945423494
 40
0.5316430511
 40
0.6626316924
 40
0.7840107805
 40
0.8953103029
 40
1.0
 40
1.0
 40
1.0
 40
1.0
 10
104.6966810589
 20
-70.309096234
 30
0.0
 10
104.6966810589
 20
-70.5892911699
 30
0.0
 10
104.8362350994
 20
-71.024030069
 30
0.0
 10
105.1856317561
 20
-71.4903405837
 30
0.0
 10
105.5266279007
 20
-71.7811522855
 30
0.0
 10
105.9100451449
 20
-71.9753673164
 30
0.0
 10
106.3050008867
 20
-72.0557131337
 30
0.0
 10
106.6782712515
 20
-72.010849485
 30
0.0
 10
106.891240553
 20
-71.8928629646
 30
0.0
 10
106.9776995678
 20
-71.8179895341
 30
0.0
  0
SPLINE
  5
308
100
AcDbEntity
  8
0
100
AcDbSpline
 62
7
  6
CONTINUOUS
 70
0
 71
3
 72
9
 73
5
 74
0
 42
0.0000001
 43
0.0000001
 44
0.0000000001
 40
0.0
 40
0.0
 40
0.0
 40
0.0
 40
0.4747904724
 40
1.0
 40
1.0
 40
1.0
 40
1.0
 10
2.1843278011
 20
-1.5201419354
 30
0.0
 10
2.1529388976
 20
-1.5349076401
 30
0.0
 10
2.077227839
 20
-1.5439344948
 30
0.0
 10
2.0052233804
 20
-1.5305303841
 30
0.0
 10
1.9681438922
 20
-1.5206546552
 30
0.0
  0
SPLINE
  5
309
100
AcDbEntity
  8
0
100
AcDbSpline
 62
7
  6
CONTINUOUS
 70
0
 71
3
 72
11
 73
7
 74
0
 42
0.0000001
 43
0.0000001
 44
0.0000000001
 40
0.0
 40
0.0
 40
0.0
 40
0.0
 40
0.2277506502
 40
0.469592673
 40
0.7301882618
 40
1.0
 40
1.0
 40
1.0
 40
1.0
 10
2.2070108279
 20
-1.5080517915
 30
0.0
 10
2.191988426
 20
-1.5210615725
 30
0.0
 10
2.1551555646
 20
-1.541664158
 30
0.0
 10
2.0913535087
 20
-1.5514185276
 30
0.0
 10
2.0238065804
 20
-1.547146621
 30
0.0
 10
1.9783936989
 20
-1.5375391428
 30
0.0
 10
1.9556438922
 20
-1.5314799728
 30
0.0
  0
SPLINE
  5
30A
100
AcDbEntity
  8
0
100
AcDbSpline
 62
7
  6
CONTINUOUS
 70
0
 71
3
 72
15
 73
11
 74
0
 42
0.0000001
 43
0.0000001
 44
0.0000000001
 40
0.0
 40
0.0
 40
0.0
 40
0.0
 40
0.1053207941
 40
0.2153485414
 40
0.3322308187
 40
0.4559054869
 40
0.5865375162
 40
0.722842457
 40
0.8619844283
 40
1.0
 40
1.0
 40
1.0
 40
1.0
 10
2.5445338336
 20
-1.7234279
 30
0.0
 10
2.5712985042
 20
-1.6979765316
 30
0.0
 10
2.6177658817
 20
-1.6365867417
 30
0.0
 10
2.6577132283
 20
-1.5255861111
 30
0.0
 10
2.6693290369
 20
-1.4022522279
 30
0.0
 10
2.6576031183
 20
-1.2718971226
 30
0.0
 10
2.6187109636
 20
-1.1396025639
 30
0.0
 10
2.5521032557
 20
-1.0126378812
 30
0.0
 10
2.461504641
 20
-0.8987674775
 30
0.0
 10
2.3883964038
 20
-0.8331227383
 30
0.0
 10
2.3478056204
 20
-0.8067619199
 30
0.0
  0
SPLINE
  5
30B
100
AcDbEntity
  8
0
100
AcDbSpline
 62
7
  6
CONTINUOUS
 70
0
 71
3
 72
15
 73
11
 74
0
 42
0.0000001
 43
0.0000001
 44
0.0000000001
 40
0.0
 40
0.0
 40
0.0
 40
0.0
 40
0.1052551839
 40
0.2149008921
 40
0.3314195135
 40
0.4549177126
 40
0.5855058984
 40
0.7220172327
 40
0.8615404568
 40
1.0
 40
1.0
 40
1.0
 40
1.0
 10
2.520123439
 20
-1.7450623483
 30
0.0
 10
2.548448165
 20
-1.7205324161
 30
0.0
 10
2.5982457197
 20
-1.6604006733
 30
0.0
 10
2.6424832105
 20
-1.5492876615
 30
0.0
 10
2.6569401655
 20
-1.4246005401
 30
0.0
 10
2.6469473806
 20
-1.2922999001
 30
0.0
 10
2.6092269464
 20
-1.1574788015
 30
0.0
 10
2.5426095928
 20
-1.0277974372
 30
0.0
 10
2.4509579603
 20
-0.9114543219
 30
0.0
 10
2.3766438015
 20
-0.8444334373
 30
0.0
 10
2.3353056204
 20
-0.8175872375
 30
0.0
  0
SPLINE
  5
30C
100
AcDbEntity
  8
0
100
AcDbSpline
 62
7
  6
CONTINUOUS
 70
0
 71
3
 72
14
 73
10
 74
0
 42
0.0000001
 43
0.0000001
 44
0.0000000001
 40
0.0
 40
0.0
 40
0.0
 40
0.0
 40
0.2564723598
 40
0.3945423494
 40
0.5316430511
 40
0.6626316924
 40
0.7840107805
 40
0.8953103029
 40
1.0
 40
1.0
 40
1.0
 40
1.0
 10
-39.0635359693
 20
49.1331901066
 30
0.0
 10
-39.0635359693
 20
48.8529951707
 30
0.0
 10
-38.9239819288
 20
48.4182562716
 30
0.0
 10
-38.5745852721
 20
47.9519457569
 30
0.0
 10
-38.2335891275
 20
47.6611340551
 30
0.0
 10
-37.8501718834
 20
47.4669190242
 30
0.0
 10
-37.4552161415
 20
47.3865732069
 30
0.0
 10
-37.0819457767
 20
47.4314368556
 30
0.0
 10
-36.8689764752
 20
47.549423376
 30
0.0
 10
-36.7825174604
 20
47.6242968065
 30
0.0
  0
SPLINE
  5
30D
100
AcDbEntity
  8
0
100
AcDbSpline
 62
7
  6
CONTINUOUS
 70
0
 71
3
 72
10
 73
6
 74
0
 42
0.0000001
 43
0.0000001
 44
0.0000000001
 40
0.0
 40
0.0
 40
0.0
 40
0.0
 40
0.5183205375
 40
0.761978719
 40
1.0
 40
1.0
 40
1.0
 40
1.0
 10
34.5486233524
 20
27.8831901066
 30
0.0
 10
34.5486233524
 20
28.0291537652
 30
0.0
 10
34.5860811805
 20
28.2481849125
 30
0.0
 10
34.7228312323
 20
28.4965747042
 30
0.0
 10
34.8150113078
 20
28.5982034505
 30
0.0
 10
34.8656810548
 20
28.6420834067
 30
0.0
  0
SPLINE
  5
30E
100
AcDbEntity
  8
0
100
AcDbSpline
 62
7
  6
CONTINUOUS
 70
0
 71
3
 72
10
 73
6
 74
0
 42
0.0000001
 43
0.0000001
 44
0.0000000001
 40
0.0
 40
0.0
 40
0.0
 40
0.0
 40
0.5183205375
 40
0.761978719
 40
1.0
 40
1.0
 40
1.0
 40
1.0
 10
-39.0635359693
 20
-28.809096234
 30
0.0
 10
-39.0635359693
 20
-28.6631325754
 30
0.0
 10
-39.0260781412
 20
-28.4441014281
 30
0.0
 10
-38.8893280893
 20
-28.1957116364
 30
0.0
 10
-38.7971480139
 20
-28.0940828901
 30
0.0
 10
-38.7464782669
 20
-28.0502029339
 30
0.0
  0
SPLINE
  5
30F
100
AcDbEntity
  8
0
100
AcDbSpline
 62
7
  6
CONTINUOUS
 70
0
 71
3
 72
14
 73
10
 74
0
 42
0.0000001
 43
0.0000001
 44
0.0000000001
 40
0.0
 40
0.0
 40
0.0
 40
0.0
 40
0.2564723598
 40
0.3945423494
 40
0.5316430511
 40
0.6626316924
 40
0.7840107805
 40
0.8953103029
 40
1.0
 40
1.0
 40
1.0
 40
1.0
 10
34.5486233524
 20
-50.059096234
 30
0.0
 10
34.5486233524
 20
-50.3392911699
 30
0.0
 10
34.6881773929
 20
-50.774030069
 30
0.0
 10
35.0375740496
 20
-51.2403405837
 30
0.0
 10
35.3785701941
 20
-51.5311522855
 30
0.0
 10
35.7619874383
 20
-51.7253673164
 30
0.0
 10
36.1569431802
 20
-51.8057131337
 30
0.0
 10
36.530213545
 20
-51.760849485
 30
0.0
 10
36.7431828465
 20
-51.6428629646
 30
0.0
 10
36.8296418613
 20
-51.5679895341
 30
0.0
  0
SPLINE
  5
310
100
AcDbEntity
  8
RACCORDO
100
AcDbSpline
 62
250
  6
CONTINUOUS
 70
0
 71
3
 72
13
 73
9
 74
0
 42
0.0000001
 43
0.0000001
 44
0.0000000001
 40
0.0
 40
0.0
 40
0.0
 40
0.0
 40
0.2376483377
 40
0.3645776824
 40
0.4944049631
 40
0.6250313013
 40
0.7542742132
 40
1.0
 40
1.0
 40
1.0
 40
1.0
 10
-115.7067842042
 20
-11.0142232529
 30
0.0
 10
-115.7067842042
 20
-11.4896767577
 30
0.0
 10
-115.5561144479
 20
-12.2236136883
 30
0.0
 10
-115.1371184236
 20
-13.1215465965
 30
0.0
 10
-114.7063602612
 20
-13.7696804338
 30
0.0
 10
-114.1822405497
 20
-14.3510043065
 30
0.0
 10
-113.4010211311
 20
-14.9964940461
 30
0.0
 10
-112.7150097864
 20
-15.3419757508
 30
0.0
 10
-112.2426825891
 20
-15.478324868
 30
0.0
  0
SPLINE
  5
311
100
AcDbEntity
  8
RACCORDO
100
AcDbSpline
 62
250
  6
CONTINUOUS
 70
0
 71
3
 72
15
 73
11
 74
0
 42
0.0000001
 43
0.0000001
 44
0.0000000001
 40
0.0
 40
0.0
 40
0.0
 40
0.0
 40
0.1369983537
 40
0.2664266372
 40
0.3892465764
 40
0.5076598296
 40
0.624810858
 40
0.744133923
 40
0.8685703958
 40
1.0
 40
1.0
 40
1.0
 40
1.0
 10
-112.2426825891
 20
78.0524187407
 30
0.0
 10
-112.4629948866
 20
78.1160174228
 30
0.0
 10
-112.9037266844
 20
78.2023342559
 30
0.0
 10
-113.5600351314
 20
78.1967129997
 30
0.0
 10
-114.1691519758
 20
78.0506813504
 30
0.0
 10
-114.7055991231
 20
77.7675657299
 30
0.0
 10
-115.1454937347
 20
77.3581012605
 30
0.0
 10
-115.4695792712
 20
76.8405176808
 30
0.0
 10
-115.6658616223
 20
76.2382227184
 30
0.0
 10
-115.7067842042
 20
75.8083044431
 30
0.0
 10
-115.7067842042
 20
75.5883171255
 30
0.0
  0
SPLINE
  5
312
100
AcDbEntity
  8
RACCORDO
100
AcDbSpline
 62
250
  6
CONTINUOUS
 70
0
 71
3
 72
13
 73
9
 74
0
 42
0.0000001
 43
0.0000001
 44
0.0000000001
 40
0.0
 40
0.0
 40
0.0
 40
0.0
 40
0.2376483377
 40
0.3645776824
 40
0.4944049631
 40
0.6250313013
 40
0.7542742132
 40
1.0
 40
1.0
 40
1.0
 40
1.0
 10
113.7899477986
 20
9.3383171255
 30
0.0
 10
113.7899477986
 20
9.8137706304
 30
0.0
 10
113.6392780423
 20
10.5477075609
 30
0.0
 10
113.2202820179
 20
11.4456404691
 30
0.0
 10
112.7895238555
 20
12.0937743064
 30
0.0
 10
112.2654041441
 20
12.6750981792
 30
0.0
 10
111.4841847255
 20
13.3205879187
 30
0.0
 10
110.7981733808
 20
13.6660696234
 30
0.0
 10
110.3258461835
 20
13.8024187407
 30
0.0
  0
SPLINE
  5
313
100
AcDbEntity
  8
RACCORDO
100
AcDbSpline
 62
250
  6
CONTINUOUS
 70
0
 71
3
 72
15
 73
11
 74
0
 42
0.0000001
 43
0.0000001
 44
0.0000000001
 40
0.0
 40
0.0
 40
0.0
 40
0.0
 40
0.1369983537
 40
0.2664266372
 40
0.3892465764
 40
0.5076598296
 40
0.624810858
 40
0.744133923
 40
0.8685703958
 40
1.0
 40
1.0
 40
1.0
 40
1.0
 10
110.3258461835
 20
-79.728324868
 30
0.0
 10
110.546158481
 20
-79.7919235502
 30
0.0
 10
110.9868902788
 20
-79.8782403833
 30
0.0
 10
111.6431987258
 20
-79.872619127
 30
0.0
 10
112.2523155702
 20
-79.7265874778
 30
0.0
 10
112.7887627175
 20
-79.4434718573
 30
0.0
 10
113.2286573291
 20
-79.0340073879
 30
0.0
 10
113.5527428656
 20
-78.5164238081
 30
0.0
 10
113.7490252167
 20
-77.9141288458
 30
0.0
 10
113.7899477986
 20
-77.4842105705
 30
0.0
 10
113.7899477986
 20
-77.2642232529
 30
0.0
  0
SPLINE
  5
314
100
AcDbEntity
  8
0
100
AcDbSpline
 62
7
  6
CONTINUOUS
 70
0
 71
3
 72
10
 73
6
 74
0
 42
0.0000001
 43
0.0000001
 44
0.0000000001
 40
0.0
 40
0.0
 40
0.0
 40
0.0
 40
0.2621551042
 40
0.5141591636
 40
1.0
 40
1.0
 40
1.0
 40
1.0
 10
2.3478056204
 20
-0.8067619199
 30
0.0
 10
2.2703421051
 20
-0.7564143327
 30
0.0
 10
2.1062059263
 20
-0.6763387208
 30
0.0
 10
1.7702506661
 20
-0.568580764
 30
0.0
 10
1.5136830226
 20
-0.520518244
 30
0.0
 10
1.3441551002
 20
-0.4965201923
 30
0.0
  0
SPLINE
  5
315
100
AcDbEntity
  8
0
100
AcDbSpline
 62
7
  6
CONTINUOUS
 70
0
 71
3
 72
8
 73
4
 74
0
 42
0.0000001
 43
0.0000001
 44
0.0000000001
 40
0.0
 40
0.0
 40
0.0
 40
0.0
 40
1.0
 40
1.0
 40
1.0
 40
1.0
 10
2.7631893883
 20
-2.8317168471
 30
0.0
 10
2.7156269598
 20
-2.6428655323
 30
0.0
 10
2.6718501213
 20
-2.4530732907
 30
0.0
 10
2.6241583329
 20
-2.2642546024
 30
0.0
  0
SPLINE
  5
316
100
AcDbEntity
  8
0
100
AcDbSpline
 62
7
  6
CONTINUOUS
 70
0
 71
3
 72
10
 73
6
 74
0
 42
0.0000001
 43
0.0000001
 44
0.0000000001
 40
0.0
 40
0.0
 40
0.0
 40
0.0
 40
0.4874074624
 40
0.7420393214
 40
1.0
 40
1.0
 40
1.0
 40
1.0
 10
2.6241583329
 20
-2.2642546024
 30
0.0
 10
2.6035574026
 20
-2.1826884893
 30
0.0
 10
2.5720625938
 20
-2.0574847501
 30
0.0
 10
2.489802289
 20
-1.9043069166
 30
0.0
 10
2.4264283539
 20
-1.8396746875
 30
0.0
 10
2.3897370126
 20
-1.8144521373
 30
0.0
  0
SPLINE
  5
317
100
AcDbEntity
  8
0
100
AcDbSpline
 62
7
  6
CONTINUOUS
 70
0
 71
3
 72
14
 73
10
 74
0
 42
0.0000001
 43
0.0000001
 44
0.0000000001
 40
0.0
 40
0.0
 40
0.0
 40
0.0
 40
0.1054101646
 40
0.2185272444
 40
0.3414370136
 40
0.472927027
 40
0.6094196829
 40
0.7461324015
 40
1.0
 40
1.0
 40
1.0
 40
1.0
 10
37.0965203217
 20
-50.4375288762
 30
0.0
 10
37.0451305995
 20
-50.4704485003
 30
0.0
 10
36.9240547166
 20
-50.5176983421
 30
0.0
 10
36.7232108913
 20
-50.5219864534
 30
0.0
 10
36.5156170202
 20
-50.4646369877
 30
0.0
 10
36.3172165352
 20
-50.3516657155
 30
0.0
 10
36.1428094792
 20
-50.1920409895
 30
0.0
 10
35.9655584262
 20
-49.9425210664
 30
0.0
 10
35.8956904999
 20
-49.7144841186
 30
0.0
 10
35.8956904999
 20
-49.5675018636
 30
0.0
  0
SPLINE
  5
318
100
AcDbEntity
  8
0
100
AcDbSpline
 62
7
  6
CONTINUOUS
 70
0
 71
3
 72
14
 73
10
 74
0
 42
0.0000001
 43
0.0000001
 44
0.0000000001
 40
0.0
 40
0.0
 40
0.0
 40
0.0
 40
0.1072979428
 40
0.2230061029
 40
0.3477099079
 40
0.4795315206
 40
0.6149541769
 40
0.7497149446
 40
1.0
 40
1.0
 40
1.0
 40
1.0
 10
37.0108413127
 20
-51.3480498569
 30
0.0
 10
36.9113989498
 20
-51.3880167213
 30
0.0
 10
36.6885994324
 20
-51.4339810436
 30
0.0
 10
36.3388723715
 20
-51.3984251859
 30
0.0
 10
35.9871747828
 20
-51.2671176064
 30
0.0
 10
35.6575688209
 20
-51.0505988351
 30
0.0
 10
35.3720664188
 20
-50.7637512809
 30
0.0
 10
35.0848559561
 20
-50.328752435
 30
0.0
 10
34.9736233524
 20
-49.9410299398
 30
0.0
 10
34.9736233524
 20
-49.6910354374
 30
0.0
  0
SPLINE
  5
319
100
AcDbEntity
  8
0
100
AcDbSpline
 62
7
  6
CONTINUOUS
 70
0
 71
3
 72
9
 73
5
 74
0
 42
0.0000001
 43
0.0000001
 44
0.0000000001
 40
0.0
 40
0.0
 40
0.0
 40
0.0
 40
0.4812851525
 40
1.0
 40
1.0
 40
1.0
 40
1.0
 10
36.022793051
 20
-49.1974178992
 30
0.0
 10
35.9810395499
 20
-49.2456543334
 30
0.0
 10
35.914819745
 20
-49.3648719209
 30
0.0
 10
35.8956904999
 20
-49.4987429184
 30
0.0
 10
35.8956904999
 20
-49.5675018636
 30
0.0
  0
SPLINE
  5
31A
100
AcDbEntity
  8
0
100
AcDbSpline
 62
7
  6
CONTINUOUS
 70
0
 71
3
 72
10
 73
6
 74
0
 42
0.0000001
 43
0.0000001
 44
0.0000000001
 40
0.0
 40
0.0
 40
0.0
 40
0.0
 40
0.238021281
 40
0.4816794625
 40
1.0
 40
1.0
 40
1.0
 40
1.0
 10
34.8656810548
 20
-49.3002029339
 30
0.0
 10
34.8150113078
 20
-49.3440828901
 30
0.0
 10
34.7228312323
 20
-49.4457116364
 30
0.0
 10
34.5860811805
 20
-49.6941014281
 30
0.0
 10
34.5486233524
 20
-49.9131325754
 30
0.0
 10
34.5486233524
 20
-50.059096234
 30
0.0
  0
SPLINE
  5
31B
100
AcDbEntity
  8
0
100
AcDbSpline
 62
7
  6
CONTINUOUS
 70
0
 71
3
 72
9
 73
5
 74
0
 42
0.0000001
 43
0.0000001
 44
0.0000000001
 40
0.0
 40
0.0
 40
0.0
 40
0.0
 40
0.4844009411
 40
1.0
 40
1.0
 40
1.0
 40
1.0
 10
35.1094740087
 20
-49.1518972171
 30
0.0
 10
35.0640092603
 20
-49.2302141628
 30
0.0
 10
34.99442409
 20
-49.4067793853
 30
0.0
 10
34.9736233524
 20
-49.594645962
 30
0.0
 10
34.9736233524
 20
-49.6910354374
 30
0.0
  0
SPLINE
  5
31C
100
AcDbEntity
  8
0
100
AcDbSpline
 62
7
  6
CONTINUOUS
 70
0
 71
3
 72
15
 73
11
 74
0
 42
0.0000001
 43
0.0000001
 44
0.0000000001
 40
0.0
 40
0.0
 40
0.0
 40
0.0
 40
0.1257258711
 40
0.2585035536
 40
0.3914435232
 40
0.5192789747
 40
0.6436256855
 40
0.7648036705
 40
0.8836287261
 40
1.0
 40
1.0
 40
1.0
 40
1.0
 10
0.3597381363
 20
-46.6079463976
 30
0.0
 10
0.3317208038
 20
-46.5998584904
 30
0.0
 10
0.2765488492
 20
-46.5731304889
 30
0.0
 10
0.2108812203
 20
-46.508823424
 30
0.0
 10
0.1614633984
 20
-46.4312170482
 30
0.0
 10
0.1302641792
 20
-46.3469944553
 30
0.0
 10
0.1112161929
 20
-46.2624253202
 30
0.0
 10
0.0974245926
 20
-46.1790061524
 30
0.0
 10
0.0899073665
 20
-46.0965860316
 30
0.0
 10
0.0894956712
 20
-46.0420010363
 30
0.0
 10
0.0894956712
 20
-46.0150094151
 30
0.0
  0
SPLINE
  5
31D
100
AcDbEntity
  8
0
100
AcDbSpline
 62
7
  6
CONTINUOUS
 70
0
 71
3
 72
13
 73
9
 74
0
 42
0.0000001
 43
0.0000001
 44
0.0000000001
 40
0.0
 40
0.0
 40
0.0
 40
0.0
 40
0.2632097373
 40
0.5182303723
 40
0.6432023437
 40
0.7660927753
 40
0.8843261371
 40
1.0
 40
1.0
 40
1.0
 40
1.0
 10
0.0894956712
 20
-46.0150094151
 30
0.0
 10
0.0894956712
 20
-45.9771996719
 30
0.0
 10
0.090794037
 20
-45.9026387552
 30
0.0
 10
0.1045557657
 20
-45.8109865379
 30
0.0
 10
0.1213339657
 20
-45.7407027461
 30
0.0
 10
0.1373276219
 20
-45.6905003131
 30
0.0
 10
0.1608946175
 20
-45.6445256131
 30
0.0
 10
0.1837627695
 20
-45.6192895634
 30
0.0
 10
0.1963235887
 20
-45.6084115734
 30
0.0
  0
SPLINE
  5
31E
100
AcDbEntity
  8
0
100
AcDbSpline
 62
7
  6
CONTINUOUS
 70
0
 71
3
 72
14
 73
10
 74
0
 42
0.0000001
 43
0.0000001
 44
0.0000000001
 40
0.0
 40
0.0
 40
0.0
 40
0.0
 40
0.1046896971
 40
0.2159892195
 40
0.3373683076
 40
0.4683569489
 40
0.6054576506
 40
0.7435276402
 40
1.0
 40
1.0
 40
1.0
 40
1.0
 10
-36.7825174604
 20
-30.3179895341
 30
0.0
 10
-36.8689764752
 20
-30.3928629646
 30
0.0
 10
-37.0819457767
 20
-30.510849485
 30
0.0
 10
-37.4552161415
 20
-30.5557131337
 30
0.0
 10
-37.8501718834
 20
-30.4753673164
 30
0.0
 10
-38.2335891275
 20
-30.2811522855
 30
0.0
 10
-38.5745852721
 20
-29.9903405837
 30
0.0
 10
-38.9239819288
 20
-29.524030069
 30
0.0
 10
-39.0635359693
 20
-29.0892911699
 30
0.0
 10
-39.0635359693
 20
-28.809096234
 30
0.0
  0
SPLINE
  5
31F
100
AcDbEntity
  8
0
100
AcDbSpline
 62
7
  6
CONTINUOUS
 70
0
 71
3
 72
9
 73
5
 74
0
 42
0.0000001
 43
0.0000001
 44
0.0000000001
 40
0.0
 40
0.0
 40
0.0
 40
0.0
 40
0.4812851525
 40
1.0
 40
1.0
 40
1.0
 40
1.0
 10
36.022793051
 20
28.7448684414
 30
0.0
 10
35.9810395499
 20
28.6966320072
 30
0.0
 10
35.914819745
 20
28.5774144197
 30
0.0
 10
35.8956904999
 20
28.4435434222
 30
0.0
 10
35.8956904999
 20
28.374784477
 30
0.0
  0
SPLINE
  5
320
100
AcDbEntity
  8
0
100
AcDbSpline
 62
7
  6
CONTINUOUS
 70
0
 71
3
 72
9
 73
5
 74
0
 42
0.0000001
 43
0.0000001
 44
0.0000000001
 40
0.0
 40
0.0
 40
0.0
 40
0.0
 40
0.4844009411
 40
1.0
 40
1.0
 40
1.0
 40
1.0
 10
35.1094740087
 20
28.7903891235
 30
0.0
 10
35.0640092603
 20
28.7120721778
 30
0.0
 10
34.99442409
 20
28.5355069553
 30
0.0
 10
34.9736233524
 20
28.3476403786
 30
0.0
 10
34.9736233524
 20
28.2512509032
 30
0.0
  0
SPLINE
  5
321
100
AcDbEntity
  8
0
100
AcDbSpline
 62
7
  6
CONTINUOUS
 70
0
 71
3
 72
14
 73
10
 74
0
 42
0.0000001
 43
0.0000001
 44
0.0000000001
 40
0.0
 40
0.0
 40
0.0
 40
0.0
 40
0.1054101646
 40
0.2185272444
 40
0.3414370136
 40
0.472927027
 40
0.6094196829
 40
0.7461324015
 40
1.0
 40
1.0
 40
1.0
 40
1.0
 10
37.0965203217
 20
27.5047574644
 30
0.0
 10
37.0451305995
 20
27.4718378403
 30
0.0
 10
36.9240547166
 20
27.4245879985
 30
0.0
 10
36.7232108913
 20
27.4202998872
 30
0.0
 10
36.5156170202
 20
27.4776493529
 30
0.0
 10
36.3172165352
 20
27.5906206251
 30
0.0
 10
36.1428094792
 20
27.7502453511
 30
0.0
 10
35.9655584262
 20
27.9997652742
 30
0.0
 10
35.8956904999
 20
28.227802222
 30
0.0
 10
35.8956904999
 20
28.374784477
 30
0.0
  0
SPLINE
  5
322
100
AcDbEntity
  8
0
100
AcDbSpline
 62
7
  6
CONTINUOUS
 70
0
 71
3
 72
14
 73
10
 74
0
 42
0.0000001
 43
0.0000001
 44
0.0000000001
 40
0.0
 40
0.0
 40
0.0
 40
0.0
 40
0.1072979428
 40
0.2230061029
 40
0.3477099079
 40
0.4795315206
 40
0.6149541769
 40
0.7497149446
 40
1.0
 40
1.0
 40
1.0
 40
1.0
 10
37.0108413127
 20
26.5942364837
 30
0.0
 10
36.9113989498
 20
26.5542696193
 30
0.0
 10
36.6885994324
 20
26.508305297
 30
0.0
 10
36.3388723715
 20
26.5438611547
 30
0.0
 10
35.9871747828
 20
26.6751687342
 30
0.0
 10
35.6575688209
 20
26.8916875055
 30
0.0
 10
35.3720664188
 20
27.1785350597
 30
0.0
 10
35.0848559561
 20
27.6135339056
 30
0.0
 10
34.9736233524
 20
28.0012564008
 30
0.0
 10
34.9736233524
 20
28.2512509032
 30
0.0
  0
SPLINE
  5
323
100
AcDbEntity
  8
0
100
AcDbSpline
 62
7
  6
CONTINUOUS
 70
0
 71
3
 72
14
 73
10
 74
0
 42
0.0000001
 43
0.0000001
 44
0.0000000001
 40
0.0
 40
0.0
 40
0.0
 40
0.0
 40
0.1046896971
 40
0.2159892195
 40
0.3373683076
 40
0.4683569489
 40
0.6054576506
 40
0.7435276402
 40
1.0
 40
1.0
 40
1.0
 40
1.0
 10
36.8296418613
 20
26.3742968065
 30
0.0
 10
36.7431828465
 20
26.299423376
 30
0.0
 10
36.530213545
 20
26.1814368556
 30
0.0
 10
36.1569431802
 20
26.1365732069
 30
0.0
 10
35.7619874383
 20
26.2169190242
 30
0.0
 10
35.3785701941
 20
26.4111340551
 30
0.0
 10
35.0375740496
 20
26.7019457569
 30
0.0
 10
34.6881773929
 20
27.1682562716
 30
0.0
 10
34.5486233524
 20
27.6029951707
 30
0.0
 10
34.5486233524
 20
27.8831901066
 30
0.0
  0
SPLINE
  5
324
100
AcDbEntity
  8
0
100
AcDbSpline
 62
7
  6
CONTINUOUS
 70
0
 71
3
 72
10
 73
6
 74
0
 42
0.0000001
 43
0.0000001
 44
0.0000000001
 40
0.0
 40
0.0
 40
0.0
 40
0.0
 40
0.238021281
 40
0.4816794625
 40
1.0
 40
1.0
 40
1.0
 40
1.0
 10
-38.7464782669
 20
49.8920834067
 30
0.0
 10
-38.7971480139
 20
49.8482034505
 30
0.0
 10
-38.8893280893
 20
49.7465747042
 30
0.0
 10
-39.0260781412
 20
49.4981849125
 30
0.0
 10
-39.0635359693
 20
49.2791537652
 30
0.0
 10
-39.0635359693
 20
49.1331901066
 30
0.0
  0
SPLINE
  5
325
100
AcDbEntity
  8
0
100
AcDbSpline
 62
7
  6
CONTINUOUS
 70
0
 71
3
 72
13
 73
9
 74
0
 42
0.0000001
 43
0.0000001
 44
0.0000000001
 40
0.0
 40
0.0
 40
0.0
 40
0.0
 40
0.1163532659
 40
0.2358010896
 40
0.4840643634
 40
0.614794508
 40
0.7473782828
 40
1.0
 40
1.0
 40
1.0
 40
1.0
 10
0.8028549482
 20
-46.2209385004
 30
0.0
 10
0.8028549482
 20
-46.1833764673
 30
0.0
 10
0.8001704003
 20
-46.1071354104
 30
0.0
 10
0.7791506786
 20
-45.9523596865
 30
0.0
 10
0.7398478539
 20
-45.7941107465
 30
0.0
 10
0.6581270422
 20
-45.6493727669
 30
0.0
 10
0.5511052285
 20
-45.5207563752
 30
0.0
 10
0.4380919505
 20
-45.4554093372
 30
0.0
 10
0.3597381363
 20
-45.4327905394
 30
0.0
  0
SPLINE
  5
326
100
AcDbEntity
  8
0
100
AcDbSpline
 62
7
  6
CONTINUOUS
 70
0
 71
3
 72
10
 73
6
 74
0
 42
0.0000001
 43
0.0000001
 44
0.0000000001
 40
0.0
 40
0.0
 40
0.0
 40
0.0
 40
0.2621551042
 40
0.5141591636
 40
1.0
 40
1.0
 40
1.0
 40
1.0
 10
2.3353056204
 20
-0.8175872375
 30
0.0
 10
2.2578421051
 20
-0.7672396502
 30
0.0
 10
2.0937059263
 20
-0.6871640383
 30
0.0
 10
1.7577506661
 20
-0.5794060815
 30
0.0
 10
1.5011830226
 20
-0.5313435615
 30
0.0
 10
1.3316551002
 20
-0.5073455098
 30
0.0
  0
SPLINE
  5
327
100
AcDbEntity
  8
0
100
AcDbSpline
 62
7
  6
CONTINUOUS
 70
0
 71
3
 72
11
 73
7
 74
0
 42
0.0000001
 43
0.0000001
 44
0.0000000001
 40
0.0
 40
0.0
 40
0.0
 40
0.0
 40
0.2706354728
 40
0.5265813996
 40
0.7677179379
 40
1.0
 40
1.0
 40
1.0
 40
1.0
 10
0.3597381363
 20
-45.4327905394
 30
0.0
 10
0.3330408646
 20
-45.4250837009
 30
0.0
 10
0.2795827118
 20
-45.4147242451
 30
0.0
 10
0.2001266
 20
-45.4157660565
 30
0.0
 10
0.1268933956
 20
-45.4357987202
 30
0.0
 10
0.0855112679
 20
-45.4628746501
 30
0.0
 10
0.0674827617
 20
-45.4784878045
 30
0.0
  0
SPLINE
  5
328
100
AcDbEntity
  8
0
100
AcDbSpline
 62
7
  6
CONTINUOUS
 70
0
 71
3
 72
10
 73
6
 74
0
 42
0.0000001
 43
0.0000001
 44
0.0000000001
 40
0.0
 40
0.0
 40
0.0
 40
0.0
 40
0.238021281
 40
0.4816794625
 40
1.0
 40
1.0
 40
1.0
 40
1.0
 10
105.0137387614
 20
-69.5502029339
 30
0.0
 10
104.9630690143
 20
-69.5940828901
 30
0.0
 10
104.8708889389
 20
-69.6957116364
 30
0.0
 10
104.734138887
 20
-69.9441014281
 30
0.0
 10
104.6966810589
 20
-70.1631325754
 30
0.0
 10
104.6966810589
 20
-70.309096234
 30
0.0
  0
SPLINE
  5
329
100
AcDbEntity
  8
0
100
AcDbSpline
 62
7
  6
CONTINUOUS
 70
0
 71
3
 72
9
 73
5
 74
0
 42
0.0000001
 43
0.0000001
 44
0.0000000001
 40
0.0
 40
0.0
 40
0.0
 40
0.0
 40
0.4844009411
 40
1.0
 40
1.0
 40
1.0
 40
1.0
 10
-108.6507430196
 20
-7.6518972171
 30
0.0
 10
-108.6962077679
 20
-7.7302141628
 30
0.0
 10
-108.7657929382
 20
-7.9067793853
 30
0.0
 10
-108.7865936759
 20
-8.094645962
 30
0.0
 10
-108.7865936759
 20
-8.1910354374
 30
0.0
  0
SPLINE
  5
32A
100
AcDbEntity
  8
0
100
AcDbSpline
 62
7
  6
CONTINUOUS
 70
0
 71
3
 72
9
 73
5
 74
0
 42
0.0000001
 43
0.0000001
 44
0.0000000001
 40
0.0
 40
0.0
 40
0.0
 40
0.0
 40
0.4812851525
 40
1.0
 40
1.0
 40
1.0
 40
1.0
 10
-107.7374239772
 20
-7.6974178992
 30
0.0
 10
-107.7791774783
 20
-7.7456543334
 30
0.0
 10
-107.8453972832
 20
-7.8648719209
 30
0.0
 10
-107.8645265283
 20
-7.9987429184
 30
0.0
 10
-107.8645265283
 20
-8.0675018636
 30
0.0
  0
SPLINE
  5
32B
100
AcDbEntity
  8
0
100
AcDbSpline
 62
7
  6
CONTINUOUS
 70
0
 71
3
 72
14
 73
10
 74
0
 42
0.0000001
 43
0.0000001
 44
0.0000000001
 40
0.0
 40
0.0
 40
0.0
 40
0.0
 40
0.1072979428
 40
0.2230061029
 40
0.3477099079
 40
0.4795315206
 40
0.6149541769
 40
0.7497149446
 40
1.0
 40
1.0
 40
1.0
 40
1.0
 10
-106.7493757155
 20
-9.8480498569
 30
0.0
 10
-106.8488180785
 20
-9.8880167213
 30
0.0
 10
-107.0716175958
 20
-9.9339810436
 30
0.0
 10
-107.4213446567
 20
-9.8984251859
 30
0.0
 10
-107.7730422454
 20
-9.7671176064
 30
0.0
 10
-108.1026482073
 20
-9.5505988351
 30
0.0
 10
-108.3881506094
 20
-9.2637512809
 30
0.0
 10
-108.6753610722
 20
-8.828752435
 30
0.0
 10
-108.7865936759
 20
-8.4410299398
 30
0.0
 10
-108.7865936759
 20
-8.1910354374
 30
0.0
  0
SPLINE
  5
32C
100
AcDbEntity
  8
0
100
AcDbSpline
 62
7
  6
CONTINUOUS
 70
0
 71
3
 72
14
 73
10
 74
0
 42
0.0000001
 43
0.0000001
 44
0.0000000001
 40
0.0
 40
0.0
 40
0.0
 40
0.0
 40
0.1046896971
 40
0.2159892195
 40
0.3373683076
 40
0.4683569489
 40
0.6054576506
 40
0.7435276402
 40
1.0
 40
1.0
 40
1.0
 40
1.0
 10
-106.930575167
 20
-10.0679895341
 30
0.0
 10
-107.0170341817
 20
-10.1428629646
 30
0.0
 10
-107.2300034832
 20
-10.260849485
 30
0.0
 10
-107.603273848
 20
-10.3057131337
 30
0.0
 10
-107.9982295899
 20
-10.2253673164
 30
0.0
 10
-108.3816468341
 20
-10.0311522855
 30
0.0
 10
-108.7226429786
 20
-9.7403405837
 30
0.0
 10
-109.0720396354
 20
-9.274030069
 30
0.0
 10
-109.2115936759
 20
-8.8392911699
 30
0.0
 10
-109.2115936759
 20
-8.559096234
 30
0.0
  0
SPLINE
  5
32D
100
AcDbEntity
  8
0
100
AcDbSpline
 62
7
  6
CONTINUOUS
 70
0
 71
3
 72
14
 73
10
 74
0
 42
0.0000001
 43
0.0000001
 44
0.0000000001
 40
0.0
 40
0.0
 40
0.0
 40
0.0
 40
0.1054101646
 40
0.2185272444
 40
0.3414370136
 40
0.472927027
 40
0.6094196829
 40
0.7461324015
 40
1.0
 40
1.0
 40
1.0
 40
1.0
 10
-106.6636967065
 20
-8.9375288762
 30
0.0
 10
-106.7150864287
 20
-8.9704485003
 30
0.0
 10
-106.8361623116
 20
-9.0176983421
 30
0.0
 10
-107.0370061369
 20
-9.0219864534
 30
0.0
 10
-107.2446000081
 20
-8.9646369877
 30
0.0
 10
-107.443000493
 20
-8.8516657155
 30
0.0
 10
-107.617407549
 20
-8.6920409895
 30
0.0
 10
-107.794658602
 20
-8.4425210664
 30
0.0
 10
-107.8645265283
 20
-8.2144841186
 30
0.0
 10
-107.8645265283
 20
-8.0675018636
 30
0.0
  0
SPLINE
  5
32E
100
AcDbEntity
  8
0
100
AcDbSpline
 62
7
  6
CONTINUOUS
 70
0
 71
3
 72
14
 73
10
 74
0
 42
0.0000001
 43
0.0000001
 44
0.0000000001
 40
0.0
 40
0.0
 40
0.0
 40
0.0
 40
0.1046896971
 40
0.2159892195
 40
0.3373683076
 40
0.4683569489
 40
0.6054576506
 40
0.7435276402
 40
1.0
 40
1.0
 40
1.0
 40
1.0
 10
106.9776995678
 20
6.1242968065
 30
0.0
 10
106.891240553
 20
6.049423376
 30
0.0
 10
106.6782712515
 20
5.9314368556
 30
0.0
 10
106.3050008867
 20
5.8865732069
 30
0.0
 10
105.9100451449
 20
5.9669190242
 30
0.0
 10
105.5266279007
 20
6.1611340551
 30
0.0
 10
105.1856317561
 20
6.4519457569
 30
0.0
 10
104.8362350994
 20
6.9182562716
 30
0.0
 10
104.6966810589
 20
7.3529951707
 30
0.0
 10
104.6966810589
 20
7.6331901066
 30
0.0
  0
SPLINE
  5
32F
100
AcDbEntity
  8
0
100
AcDbSpline
 62
7
  6
CONTINUOUS
 70
0
 71
3
 72
8
 73
4
 74
0
 42
0.0000001
 43
0.0000001
 44
0.0000000001
 40
0.0
 40
0.0
 40
0.0
 40
0.0
 40
1.0
 40
1.0
 40
1.0
 40
1.0
 10
2.7506893883
 20
-2.8425421647
 30
0.0
 10
2.7031269598
 20
-2.6536908498
 30
0.0
 10
2.6593501213
 20
-2.4638986082
 30
0.0
 10
2.6116583329
 20
-2.2750799199
 30
0.0
  0
SPLINE
  5
330
100
AcDbEntity
  8
0
100
AcDbSpline
 62
7
  6
CONTINUOUS
 70
0
 71
3
 72
10
 73
6
 74
0
 42
0.0000001
 43
0.0000001
 44
0.0000000001
 40
0.0
 40
0.0
 40
0.0
 40
0.0
 40
0.4874074624
 40
0.7420393214
 40
1.0
 40
1.0
 40
1.0
 40
1.0
 10
2.6116583329
 20
-2.2750799199
 30
0.0
 10
2.5910574026
 20
-2.1935138068
 30
0.0
 10
2.5595625938
 20
-2.0683100676
 30
0.0
 10
2.477302289
 20
-1.9151322341
 30
0.0
 10
2.4139283539
 20
-1.850500005
 30
0.0
 10
2.3772370126
 20
-1.8252774548
 30
0.0
  0
SPLINE
  5
331
100
AcDbEntity
  8
0
100
AcDbSpline
 62
7
  6
CONTINUOUS
 70
0
 71
3
 72
14
 73
10
 74
0
 42
0.0000001
 43
0.0000001
 44
0.0000000001
 40
0.0
 40
0.0
 40
0.0
 40
0.0
 40
0.1072979428
 40
0.2230061029
 40
0.3477099079
 40
0.4795315206
 40
0.6149541769
 40
0.7497149446
 40
1.0
 40
1.0
 40
1.0
 40
1.0
 10
-106.7493757155
 20
68.0942364837
 30
0.0
 10
-106.8488180785
 20
68.0542696193
 30
0.0
 10
-107.0716175958
 20
68.008305297
 30
0.0
 10
-107.4213446567
 20
68.0438611547
 30
0.0
 10
-107.7730422454
 20
68.1751687342
 30
0.0
 10
-108.1026482073
 20
68.3916875055
 30
0.0
 10
-108.3881506094
 20
68.6785350597
 30
0.0
 10
-108.6753610722
 20
69.1135339056
 30
0.0
 10
-108.7865936759
 20
69.5012564008
 30
0.0
 10
-108.7865936759
 20
69.7512509032
 30
0.0
  0
SPLINE
  5
332
100
AcDbEntity
  8
0
100
AcDbSpline
 62
7
  6
CONTINUOUS
 70
0
 71
3
 72
14
 73
10
 74
0
 42
0.0000001
 43
0.0000001
 44
0.0000000001
 40
0.0
 40
0.0
 40
0.0
 40
0.0
 40
0.1054101646
 40
0.2185272444
 40
0.3414370136
 40
0.472927027
 40
0.6094196829
 40
0.7461324015
 40
1.0
 40
1.0
 40
1.0
 40
1.0
 10
-106.6636967065
 20
69.0047574644
 30
0.0
 10
-106.7150864287
 20
68.9718378403
 30
0.0
 10
-106.8361623116
 20
68.9245879985
 30
0.0
 10
-107.0370061369
 20
68.9202998872
 30
0.0
 10
-107.2446000081
 20
68.9776493529
 30
0.0
 10
-107.443000493
 20
69.0906206251
 30
0.0
 10
-107.617407549
 20
69.2502453511
 30
0.0
 10
-107.794658602
 20
69.4997652742
 30
0.0
 10
-107.8645265283
 20
69.727802222
 30
0.0
 10
-107.8645265283
 20
69.874784477
 30
0.0
  0
SPLINE
  5
333
100
AcDbEntity
  8
0
100
AcDbSpline
 62
7
  6
CONTINUOUS
 70
0
 71
3
 72
10
 73
6
 74
0
 42
0.0000001
 43
0.0000001
 44
0.0000000001
 40
0.0
 40
0.0
 40
0.0
 40
0.0
 40
0.238021281
 40
0.4816794625
 40
1.0
 40
1.0
 40
1.0
 40
1.0
 10
-108.8945359734
 20
70.1420834067
 30
0.0
 10
-108.9452057205
 20
70.0982034505
 30
0.0
 10
-109.0373857959
 20
69.9965747042
 30
0.0
 10
-109.1741358477
 20
69.7481849125
 30
0.0
 10
-109.2115936759
 20
69.5291537652
 30
0.0
 10
-109.2115936759
 20
69.3831901066
 30
0.0
  0
SPLINE
  5
334
100
AcDbEntity
  8
0
100
AcDbSpline
 62
7
  6
CONTINUOUS
 70
0
 71
3
 72
9
 73
5
 74
0
 42
0.0000001
 43
0.0000001
 44
0.0000000001
 40
0.0
 40
0.0
 40
0.0
 40
0.0
 40
0.4844009411
 40
1.0
 40
1.0
 40
1.0
 40
1.0
 10
-108.6507430196
 20
70.2903891235
 30
0.0
 10
-108.6962077679
 20
70.2120721778
 30
0.0
 10
-108.7657929382
 20
70.0355069553
 30
0.0
 10
-108.7865936759
 20
69.8476403786
 30
0.0
 10
-108.7865936759
 20
69.7512509032
 30
0.0
  0
SPLINE
  5
335
100
AcDbEntity
  8
0
100
AcDbSpline
 62
7
  6
CONTINUOUS
 70
0
 71
3
 72
9
 73
5
 74
0
 42
0.0000001
 43
0.0000001
 44
0.0000000001
 40
0.0
 40
0.0
 40
0.0
 40
0.0
 40
0.4812851525
 40
1.0
 40
1.0
 40
1.0
 40
1.0
 10
-107.7374239772
 20
70.2448684414
 30
0.0
 10
-107.7791774783
 20
70.1966320072
 30
0.0
 10
-107.8453972832
 20
70.0774144197
 30
0.0
 10
-107.8645265283
 20
69.9435434222
 30
0.0
 10
-107.8645265283
 20
69.874784477
 30
0.0
  0
SPLINE
  5
336
100
AcDbEntity
  8
0
100
AcDbSpline
 62
7
  6
CONTINUOUS
 70
0
 71
3
 72
14
 73
10
 74
0
 42
0.0000001
 43
0.0000001
 44
0.0000000001
 40
0.0
 40
0.0
 40
0.0
 40
0.0
 40
0.1162641158
 40
0.2395878695
 40
0.3672046477
 40
0.4971441141
 40
0.627733367
 40
0.7557776158
 40
1.0
 40
1.0
 40
1.0
 40
1.0
 10
-1.2443211821
 20
-45.3369023173
 30
0.0
 10
-1.2443211821
 20
-45.3106366044
 30
0.0
 10
-1.2474779083
 20
-45.2563280652
 30
0.0
 10
-1.2679743471
 20
-45.175480169
 30
0.0
 10
-1.3026535863
 20
-45.0962457347
 30
0.0
 10
-1.3523726286
 20
-45.0234869446
 30
0.0
 10
-1.4133243977
 20
-44.9596133707
 30
0.0
 10
-1.505968275
 20
-44.893278696
 30
0.0
 10
-1.5834832234
 20
-44.8573925442
 30
0.0
 10
-1.6364920324
 20
-44.8420902804
 30
0.0
  0
SPLINE
  5
337
100
AcDbEntity
  8
RACCORDO
100
AcDbSpline
 62
250
  6
CONTINUOUS
 70
0
 71
3
 72
11
 73
7
 74
0
 42
0.0000001
 43
0.0000001
 44
0.0000000001
 40
0.0
 40
0.0
 40
0.0
 40
0.0
 40
0.2374169147
 40
0.4804567164
 40
0.7336979993
 40
1.0
 40
1.0
 40
1.0
 40
1.0
 10
114.0991141925
 20
-79.6108548832
 30
0.0
 10
114.2680105776
 20
-79.4645851731
 30
0.0
 10
114.5752924093
 20
-79.1260673143
 30
0.0
 10
114.91054444
 20
-78.515931742
 30
0.0
 10
115.1134348777
 20
-77.8222572969
 30
0.0
 10
115.1559732024
 20
-77.3318235622
 30
0.0
 10
115.1559732024
 20
-77.081210551
 30
0.0
  0
SPLINE
  5
338
100
AcDbEntity
  8
0
100
AcDbSpline
 62
250
  6
CONTINUOUS
 70
0
 71
3
 72
10
 73
6
 74
0
 42
0.0000001
 43
0.0000001
 44
0.0000000001
 40
0.0
 40
0.0
 40
0.0
 40
0.0
 40
0.4939032387
 40
0.7479365287
 40
1.0
 40
1.0
 40
1.0
 40
1.0
 10
2.6241583329
 20
-2.2642546024
 30
0.0
 10
2.6040891257
 20
-2.1847937623
 30
0.0
 10
2.5740719086
 20
-2.0632637185
 30
0.0
 10
2.4917499379
 20
-1.9063073492
 30
0.0
 10
2.4259319122
 20
-1.839333421
 30
0.0
 10
2.3897370126
 20
-1.8144521373
 30
0.0
  0
SPLINE
  5
339
100
AcDbEntity
  8
0
100
AcDbSpline
 62
250
  6
CONTINUOUS
 70
0
 71
3
 72
9
 73
5
 74
0
 42
0.0000001
 43
0.0000001
 44
0.0000000001
 40
0.0
 40
0.0
 40
0.0
 40
0.0
 40
0.1413384539
 40
1.0
 40
1.0
 40
1.0
 40
1.0
 10
2.7538425794
 20
-2.7942579851
 30
0.0
 10
2.7476637058
 20
-2.7692864671
 30
0.0
 10
2.7046006184
 20
-2.5926208617
 30
0.0
 10
2.6624804395
 20
-2.4159773654
 30
0.0
 10
2.6241583329
 20
-2.2642546024
 30
0.0
  0
SPLINE
  5
33A
100
AcDbEntity
  8
0
100
AcDbSpline
 62
250
  6
CONTINUOUS
 70
0
 71
3
 72
10
 73
6
 74
0
 42
0.0000001
 43
0.0000001
 44
0.0000000001
 40
0.0
 40
0.0
 40
0.0
 40
0.0
 40
0.2954237646
 40
0.5848737211
 40
1.0
 40
1.0
 40
1.0
 40
1.0
 10
2.3478056204
 20
-0.8067619199
 30
0.0
 10
2.2541172719
 20
-0.7458689656
 30
0.0
 10
2.0567828924
 20
-0.6559985504
 30
0.0
 10
1.7194642064
 20
-0.5586863429
 30
0.0
 10
1.4826424356
 20
-0.5161241972
 30
0.0
 10
1.3441551002
 20
-0.4965201923
 30
0.0
  0
SPLINE
  5
33B
100
AcDbEntity
  8
0
100
AcDbSpline
 62
250
  6
CONTINUOUS
 70
0
 71
3
 72
21
 73
17
 74
0
 42
0.0000001
 43
0.0000001
 44
0.0000000001
 40
0.0
 40
0.0
 40
0.0
 40
0.0
 40
0.0862774964
 40
0.1835586628
 40
0.2367267712
 40
0.2933145561
 40
0.3538035418
 40
0.3857017028
 40
0.4188054017
 40
0.4712286029
 40
0.5207298581
 40
0.6122670382
 40
0.6956975127
 40
0.7721961658
 40
0.9039581226
 40
1.0
 40
1.0
 40
1.0
 40
1.0
 10
2.5475787536
 20
-1.7204966246
 30
0.0
 10
2.5656225904
 20
-1.7029117046
 30
0.0
 10
2.6000593514
 20
-1.6611373122
 30
0.0
 10
2.6323232928
 20
-1.5970079934
 30
0.0
 10
2.6512619172
 20
-1.5352584915
 30
0.0
 10
2.6613781981
 20
-1.4816341903
 30
0.0
 10
2.6653178638
 20
-1.4326563844
 30
0.0
 10
2.665586347
 20
-1.3904489571
 30
0.0
 10
2.663968948
 20
-1.3504465407
 30
0.0
 10
2.6591749623
 20
-1.3037704597
 30
0.0
 10
2.6467625509
 20
-1.236147341
 30
0.0
 10
2.6230132874
 20
-1.157079437
 30
0.0
 10
2.5831605595
 20
-1.0703988764
 30
0.0
 10
2.5238978014
 20
-0.9744765256
 30
0.0
 10
2.4461884413
 20
-0.8835902587
 30
0.0
 10
2.3782381864
 20
-0.8265257007
 30
0.0
 10
2.3478056204
 20
-0.8067619199
 30
0.0
  0
SPLINE
  5
33C
100
AcDbEntity
  8
0
100
AcDbSpline
 62
250
  6
CONTINUOUS
 70
0
 71
3
 72
23
 73
19
 74
0
 42
0.0000001
 43
0.0000001
 44
0.0000000001
 40
0.0
 40
0.0
 40
0.0
 40
0.0
 40
0.0098690806
 40
0.0320015087
 40
0.0711025664
 40
0.110257867
 40
0.1560538874
 40
0.1921596294
 40
0.2416228136
 40
0.2847585585
 40
0.3382680983
 40
0.3821538899
 40
0.4904393306
 40
0.5859153327
 40
0.6536837292
 40
0.7449631414
 40
0.8824283279
 40
1.0
 40
1.0
 40
1.0
 40
1.0
 10
0.8153549482
 20
-46.2101131828
 30
0.0
 10
0.8153549482
 20
-46.2071806603
 30
0.0
 10
0.8153679568
 20
-46.1976754269
 30
0.0
 10
0.815209417
 20
-46.1765018652
 30
0.0
 10
0.8142541052
 20
-46.146406557
 30
0.0
 10
0.8119938716
 20
-46.1089573242
 30
0.0
 10
0.8086252354
 20
-46.0721637778
 30
0.0
 10
0.8037644217
 20
-46.0320260422
 30
0.0
 10
0.7977645809
 20
-45.9925140844
 30
0.0
 10
0.7894675143
 20
-45.9474970567
 30
0.0
 10
0.7799127655
 20
-45.9040734945
 30
0.0
 10
0.7641021798
 20
-45.8404848687
 30
0.0
 10
0.7381679935
 20
-45.7636501746
 30
0.0
 10
0.695454002
 20
-45.6823853808
 30
0.0
 10
0.6474573437
 20
-45.6098701388
 30
0.0
 10
0.5795839367
 20
-45.5328550567
 30
0.0
 10
0.483194266
 20
-45.4636502261
 30
0.0
 10
0.4071736671
 20
-45.4320502409
 30
0.0
 10
0.3722381363
 20
-45.4219652218
 30
0.0
  0
SPLINE
  5
33D
100
AcDbEntity
  8
0
100
AcDbSpline
 62
250
  6
CONTINUOUS
 70
0
 71
3
 72
10
 73
6
 74
0
 42
0.0000001
 43
0.0000001
 44
0.0000000001
 40
0.0
 40
0.0
 40
0.0
 40
0.0
 40
0.2297356676
 40
0.6449091083
 40
1.0
 40
1.0
 40
1.0
 40
1.0
 10
0.1033153197
 20
-45.4496330093
 30
0.0
 10
0.119546264
 20
-45.4385342932
 30
0.0
 10
0.1691266121
 20
-45.4125484829
 30
0.0
 10
0.2612820066
 20
-45.3995896747
 30
0.0
 10
0.3373026055
 20
-45.4118802028
 30
0.0
 10
0.3722381363
 20
-45.4219652218
 30
0.0
  0
SPLINE
  5
33E
100
AcDbEntity
  8
0
100
AcDbSpline
 62
250
  6
CONTINUOUS
 70
0
 71
3
 72
12
 73
8
 74
0
 42
0.0000001
 43
0.0000001
 44
0.0000000001
 40
0.0
 40
0.0
 40
0.0
 40
0.0
 40
0.2003465354
 40
0.4832297619
 40
0.6928639601
 40
0.9776524641
 40
1.0
 40
1.0
 40
1.0
 40
1.0
 10
-1.6781110188
 20
-45.4406529481
 30
0.0
 10
-1.6642149545
 20
-45.4446643964
 30
0.0
 10
-1.630655769
 20
-45.4524849444
 30
0.0
 10
-1.5834032
 20
-45.456414605
 30
0.0
 10
-1.5320518199
 20
-45.4543960847
 30
0.0
 10
-1.5012334956
 20
-45.4434861507
 30
0.0
 10
-1.4860365616
 20
-45.4328067845
 30
0.0
 10
-1.4849472672
 20
-45.432008153
 30
0.0
  0
SPLINE
  5
33F
100
AcDbEntity
  8
0
100
AcDbSpline
 62
250
  6
CONTINUOUS
 70
0
 71
3
 72
10
 73
6
 74
0
 42
0.0000001
 43
0.0000001
 44
0.0000000001
 40
0.0
 40
0.0
 40
0.0
 40
0.0
 40
0.047180682
 40
0.9430707933
 40
1.0
 40
1.0
 40
1.0
 40
1.0
 10
-1.3120804332
 20
-45.5493753558
 30
0.0
 10
-1.3098471518
 20
-45.5469058512
 30
0.0
 10
-1.2662858331
 20
-45.4964012084
 30
0.0
 10
-1.2436572328
 20
-45.4187257344
 30
0.0
 10
-1.2443211821
 20
-45.3415100898
 30
0.0
 10
-1.2443211821
 20
-45.3369023173
 30
0.0
  0
SPLINE
  5
340
100
AcDbEntity
  8
0
100
AcDbSpline
 62
250
  6
CONTINUOUS
 70
0
 71
3
 72
14
 73
10
 74
0
 42
0.0000001
 43
0.0000001
 44
0.0000000001
 40
0.0
 40
0.0
 40
0.0
 40
0.0
 40
0.0943146254
 40
0.2454721294
 40
0.3513630927
 40
0.4920089644
 40
0.6227654328
 40
0.9774609265
 40
1.0
 40
1.0
 40
1.0
 40
1.0
 10
-1.6364914775
 20
-44.8420904406
 30
0.0
 10
-1.6172102793
 20
-44.8476564431
 30
0.0
 10
-1.5669805787
 20
-44.8651815921
 30
0.0
 10
-1.4964660433
 20
-44.9013951779
 30
0.0
 10
-1.4206039725
 20
-44.9534743863
 30
0.0
 10
-1.3569227558
 20
-45.017165509
 30
0.0
 10
-1.2726916299
 20
-45.1390350494
 30
0.0
 10
-1.2436572328
 20
-45.2554622314
 30
0.0
 10
-1.2443211821
 20
-45.3322945447
 30
0.0
 10
-1.2443211821
 20
-45.3369023173
 30
0.0
  0
SPLINE
  5
341
100
AcDbEntity
  8
0
100
AcDbSpline
 62
250
  6
CONTINUOUS
 70
0
 71
3
 72
10
 73
6
 74
0
 42
0.0000001
 43
0.0000001
 44
0.0000000001
 40
0.0
 40
0.0
 40
0.0
 40
0.0
 40
0.423412106
 40
0.7012531214
 40
1.0
 40
1.0
 40
1.0
 40
1.0
 10
0.5288030023
 20
-46.5724655017
 30
0.0
 10
0.5117042484
 20
-46.5859235363
 30
0.0
 10
0.4792984177
 20
-46.6032937605
 30
0.0
 10
0.4236515707
 20
-46.6075373127
 30
0.0
 10
0.3897601303
 20
-46.602179244
 30
0.0
 10
0.3722381363
 20
-46.59712108
 30
0.0
  0
SPLINE
  5
342
100
AcDbEntity
  8
0
100
AcDbSpline
 62
250
  6
CONTINUOUS
 70
0
 71
3
 72
16
 73
12
 74
0
 42
0.0000001
 43
0.0000001
 44
0.0000000001
 40
0.0
 40
0.0
 40
0.0
 40
0.0
 40
0.038164233
 40
0.1524042026
 40
0.3040285394
 40
0.4207107553
 40
0.615151006
 40
0.6933712264
 40
0.8425446033
 40
0.918417801
 40
1.0
 40
1.0
 40
1.0
 40
1.0
 10
0.1019956712
 20
-46.0041840975
 30
0.0
 10
0.1019956712
 20
-46.0123809036
 30
0.0
 10
0.1018463421
 20
-46.045070764
 30
0.0
 10
0.1039276541
 20
-46.1109696399
 30
0.0
 10
0.1136204609
 20
-46.1955781591
 30
0.0
 10
0.1332351408
 20
-46.2984362898
 30
0.0
 10
0.1578484118
 20
-46.3871073087
 30
0.0
 10
0.2088580674
 20
-46.4769432256
 30
0.0
 10
0.2583417646
 20
-46.5370143488
 30
0.0
 10
0.3208247019
 20
-46.5778537525
 30
0.0
 10
0.3547161422
 20
-46.592062916
 30
0.0
 10
0.3722381363
 20
-46.59712108
 30
0.0
  0
SPLINE
  5
343
100
AcDbEntity
  8
0
100
AcDbSpline
 62
250
  6
CONTINUOUS
 70
0
 71
3
 72
14
 73
10
 74
0
 42
0.0000001
 43
0.0000001
 44
0.0000000001
 40
0.0
 40
0.0
 40
0.0
 40
0.0
 40
0.0547870281
 40
0.2187853041
 40
0.4364510646
 40
0.6039553308
 40
0.883085884
 40
0.9953756662
 40
1.0
 40
1.0
 40
1.0
 40
1.0
 10
0.1019956712
 20
-46.0041840975
 30
0.0
 10
0.1019956712
 20
-45.9959872914
 30
0.0
 10
0.1018463421
 20
-45.9632112159
 30
0.0
 10
0.1039276541
 20
-45.898513986
 30
0.0
 10
0.1136204609
 20
-45.8195016114
 30
0.0
 10
0.1332351408
 20
-45.7279680214
 30
0.0
 10
0.1578484118
 20
-45.6535074812
 30
0.0
 10
0.1912090181
 20
-45.6140150331
 30
0.0
 10
0.202289444
 20
-45.6035022916
 30
0.0
 10
0.2027296375
 20
-45.60308832
 30
0.0
  0
SPLINE
  5
344
100
AcDbEntity
  8
0
100
AcDbSpline
 62
250
  6
CONTINUOUS
 70
0
 71
3
 72
20
 73
16
 74
0
 42
0.0000001
 43
0.0000001
 44
0.0000000001
 40
0.0
 40
0.0
 40
0.0
 40
0.0
 40
0.015646568
 40
0.0507356058
 40
0.1127269283
 40
0.1748042481
 40
0.2474098512
 40
0.3046523615
 40
0.3830719334
 40
0.4514599011
 40
0.5362946175
 40
0.605871719
 40
0.777548857
 40
0.9289177454
 40
1.0
 40
1.0
 40
1.0
 40
1.0
 10
0.8153549482
 20
-46.2101131828
 30
0.0
 10
0.8153549482
 20
-46.2130457053
 30
0.0
 10
0.8153679568
 20
-46.2225584492
 30
0.0
 10
0.815209417
 20
-46.2436404779
 30
0.0
 10
0.8142541052
 20
-46.2731842367
 30
0.0
 10
0.8119938716
 20
-46.3093285229
 30
0.0
 10
0.8086252354
 20
-46.3441771863
 30
0.0
 10
0.8037644217
 20
-46.3815085299
 30
0.0
 10
0.7977645809
 20
-46.4175564779
 30
0.0
 10
0.7894675143
 20
-46.457783192
 30
0.0
 10
0.7799127655
 20
-46.4956903175
 30
0.0
 10
0.7641021798
 20
-46.5501506973
 30
0.0
 10
0.7381679935
 20
-46.612012282
 30
0.0
 10
0.6990615972
 20
-46.6638354172
 30
0.0
 10
0.6732188046
 20
-46.689173942
 30
0.0
 10
0.6644934442
 20
-46.6967303258
 30
0.0
  0
SPLINE
  5
345
100
AcDbEntity
  8
0
100
AcDbSpline
 62
250
  6
CONTINUOUS
 70
0
 71
3
 72
9
 73
5
 74
0
 42
0.0000001
 43
0.0000001
 44
0.0000000001
 40
0.0
 40
0.0
 40
0.0
 40
0.0
 40
0.1159057319
 40
1.0
 40
1.0
 40
1.0
 40
1.0
 10
2.2131041462
 20
-1.5024847746
 30
0.0
 10
2.2060866655
 20
-1.5079389255
 30
0.0
 10
2.1415135915
 20
-1.5497919935
 30
0.0
 10
2.0456885917
 20
-1.5413078644
 30
0.0
 10
1.9681438922
 20
-1.5206546552
 30
0.0
  0
ENDSEC
  0
SECTION
  2
OBJECTS
  0
DICTIONARY
  5
C
100
AcDbDictionary
280
0
281
1
  3
ACAD_GROUP
350
D
  3
ACAD_MLINESTYLE
350
17
  3
ACAD_LAYOUT
350
1A
  3
ACAD_PLOTSETTINGS
350
19
  3
ACAD_PLOTSTYLENAME
350
E
  0
DICTIONARY
  5
D
102
{ACAD_REACTORS
330
C
102
}
100
AcDbDictionary
280
0
281
1
  0
ACDBDICTIONARYWDFLT
  5
E
102
{ACAD_REACTORS
330
C
102
}
100
AcDbDictionary
281
1
  3
Normal
350
F
100
AcDbDictionaryWithDefault
340
F
  0
DICTIONARY
  5
17
102
{ACAD_REACTORS
330
C
102
}
100
AcDbDictionary
280
0
281
1
  3
Standard
350
18
  0
DICTIONARY
  5
19
102
{ACAD_REACTORS
330
C
102
}
100
AcDbDictionary
281
1
  0
DICTIONARY
  5
1A
102
{ACAD_REACTORS
330
C
102
}
100
AcDbDictionary
281
1
  3
Model
350
346
  3
Layout1
350
347
  0
ACDBPLACEHOLDER
  5
F
102
{ACAD_REACTORS
330
E
102
}
  0
MLINESTYLE
  5
18
102
{ACAD_REACTORS
330
17
102
}
100
AcDbMlineStyle
  2
STANDARD
 70
0
  3

 62
256
 51
90.0
 52
90.0
 71
2
 49
0.5
 62
256
  6
BYLAYER
 49
-0.5
 62
256
  6
BYLAYER
  0
LAYOUT
  5
346
102
{ACAD_REACTORS
330
1A
102
}
100
AcDbPlotSettings
  1

  2
none_device
  4
ANSI_C_(22.00_x_17.00_Inches)
  6

 40
0.0
 41
0.0
 42
0.0
 43
0.0
 44
558.8
 45
431.8
 46
0.0
 47
0.0
 48
0.0
 49
0.0
140
0.0
141
0.0
142
1.0
143
1.0
 70
1024
 72
1
 73
0
 74
0
  7

 75
0
147
1.0
148
0.0
149
0.0
100
AcDbLayout
  1
Model
 70
0
 71
0
 10
0.0
 20
0.0
 11
558.8
 21
431.8
 12
0.0
 22
0.0
 32
0.0
 14
0.0
 24
0.0
 34
0.0
 15
0.0
 25
0.0
 35
0.0
146
0.0
 13
0.0
 23
0.0
 33
0.0
 16
1.0
 26
0.0
 36
0.0
 17
0.0
 27
1.0
 37
0.0
 76
0
330
20B
345
0
346
0
  0
LAYOUT
  5
347
102
{ACAD_REACTORS
330
1A
102
}
100
AcDbPlotSettings
  1

  2
none_device
  4
ANSI_C_(22.00_x_17.00_Inches)
  6

 40
0.0
 41
0.0
 42
0.0
 43
0.0
 44
558.8
 45
431.8
 46
0.0
 47
0.0
 48
0.0
 49
0.0
140
0.0
141
0.0
142
1.0
143
1.0
 70
0
 72
1
 73
0
 74
0
  7

 75
0
147
1.0
148
0.0
149
0.0
100
AcDbLayout
  1
Layout1
 70
0
 71
1
 10
0.0
 20
0.0
 11
558.8
 21
431.8
 12
0.0
 22
0.0
 32
0.0
 14
0.0
 24
0.0
 34
0.0
 15
0.0
 25
0.0
 35
0.0
146
0.0
 13
0.0
 23
0.0
 33
0.0
 16
1.0
 26
0.0
 36
0.0
 17
0.0
 27
1.0
 37
0.0
 76
0
330
20C
345
0
346
0
  0
ENDSEC
  0
EOF
