  0
SECTION
  2
HEADER
  9
$ACADVER
  1
AC1024
  9
$DWGCODEPAGE
  3
ANSI_1252
  9
$EXTMAX
 10
297.0
 20
210.0
 30
0.0
  9
$EXTMIN
 10
0.0
 20
0.0
 30
0.0
  9
$LIMMIN
 10
0.0
 20
0.0
  9
$LIMMAX
 10
297.0
 20
210.0
  9
$VIEWCTR
 10
148.5
 20
105.0
  9
$VIEWSIZE
 40
210.0
  9
$CLAYER
  8
0
  9
$LTSCALE
 40
16.335
  9
$CELTYPE
  6
BYLAYER
  9
$DIMSCALE
 40
1.0
  9
$DIMASZ
 40
3.0
  9
$DIMEXO
 40
0.5
  9
$DIMDLI
 40
11.286
  9
$DIMEXE
 40
1.5
  9
$DIMCEN
 40
2.673
  9
$DIMLFAC
 40
1.0
  9
$DIMBLK
  1
_FILLED
  9
$DIMALT
 70
0
  9
$DIMALTF
 40
0.0393700787
  9
$DIMTXT
 40
3.0
  9
$DIMTOL
 70
1
  9
$DIMLIM
 70
0
  9
$DIMTFAC
 40
1.0
  9
$DIMTP
 40
0.01
  9
$DIMTM
 40
0.01
  9
$DIMGAP
 40
0.625
  9
$DIMDSEP
 70
44
  9
$AUNITS
 70
0
  9
$PDMODE
 70
3
  9
$PDSIZE
 40
3.0
  9
$HANDSEED
  5
348
  9
$TILEMODE
 70
1
  9
$MEASUREMENT
 70
1
  9
$INSUNITS
 70
4
  0
ENDSEC
  0
SECTION
  2
CLASSES
  0
CLASS
  1
ACDBDICTIONARYWDFLT
  2
AcDbDictionaryWithDefault
  3
AutoCAD 2000
 90
0
 91
1
280
0
281
0
  0
CLASS
  1
ACDBPLACEHOLDER
  2
AcDbPlaceHolder
  3
AutoCAD 2000
 90
0
 91
1
280
0
281
0
  0
CLASS
  1
LAYOUT
  2
AcDbLayout
  3
AutoCAD 2000
 90
0
 91
0
280
0
281
0
  0
ENDSEC
  0
SECTION
  2
TABLES
  0
TABLE
  2
VPORT
  5
8
100
AcDbSymbolTable
 70
2
  0
VPORT
  5
1F4
100
AcDbSymbolTableRecord
100
AcDbViewportTableRecord
  2
*ACTIVE
 70
0
 10
0.0
 20
0.0
 11
1.0
 21
1.0
 12
148.5
 22
105.0
 13
0.0
 23
0.0
 14
1.0
 24
1.0
 15
0.0
 25
0.0
 16
0.0
 26
0.0
 36
1.0
 17
0.0
 27
0.0
 37
0.0
 40
210.0
 41
1.4142857143
 42
50.0
 43
0.0
 44
0.0
 50
0.0
 51
0.0
 71
0
 72
100
 73
1
 74
1
 75
0
 76
0
 77
0
 78
0
  0
ENDTAB
  0
TABLE
  2
LTYPE
  5
5
100
AcDbSymbolTable
 70
6
  0
LTYPE
  5
14
100
AcDbSymbolTableRecord
100
AcDbLinetypeTableRecord
  2
BYBLOCK
 70
0
  3

 72
65
 73
0
 40
0.0
  0
LTYPE
  5
15
100
AcDbSymbolTableRecord
100
AcDbLinetypeTableRecord
  2
BYLAYER
 70
0
  3

 72
65
 73
0
 40
0.0
  0
LTYPE
  5
16
100
AcDbSymbolTableRecord
100
AcDbLinetypeTableRecord
  2
CONTINUOUS
 70
64
  3
Solid line
 72
65
 73
0
 40
0.0
  0
LTYPE
  5
1F5
100
AcDbSymbolTableRecord
100
AcDbLinetypeTableRecord
  2
CENTER
 70
64
  3
____ _ ____ _ ____ _ ____ _ ____ _ ____ _ ____
 72
65
 73
4
 40
0.6
 49
0.375
 74
0
 49
-0.075
 74
0
 49
0.075
 74
0
 49
-0.075
 74
0
  0
LTYPE
  5
1F6
100
AcDbSymbolTableRecord
100
AcDbLinetypeTableRecord
  2
HIDDEN
 70
64
  3
- - - - - - - - - - - - - - - - - - - -
 72
65
 73
2
 40
0.2
 49
0.1
 74
0
 49
-0.1
 74
0
  0
LTYPE
  5
1F7
100
AcDbSymbolTableRecord
100
AcDbLinetypeTableRecord
  2
PHANTOM
 70
64
  3
_____ _ _ _____ _ _ _____ _ _ _____
 72
65
 73
6
 40
0.8
 49
0.45
 74
0
 49
-0.05
 74
0
 49
0.1
 74
0
 49
-0.05
 74
0
 49
0.1
 74
0
 49
-0.05
 74
0
  0
LTYPE
  5
1F8
100
AcDbSymbolTableRecord
100
AcDbLinetypeTableRecord
  2
DOT
 70
64
  3
. . . . . . . . . . . . . . . . . . . .
 72
65
 73
2
 40
0.2
 49
0.1
 74
0
 49
-0.1
 74
0
  0
LTYPE
  5
1F9
100
AcDbSymbolTableRecord
100
AcDbLinetypeTableRecord
  2
DASHED
 70
64
  3
- - - - - - - - - - - - - - - - - - - -
 72
65
 73
2
 40
0.2
 49
0.1
 74
0
 49
-0.1
 74
0
  0
ENDTAB
  0
TABLE
  2
LAYER
  5
2
100
AcDbSymbolTable
 70
36
  0
LAYER
  5
10
100
AcDbSymbolTableRecord
100
AcDbLayerTableRecord
  2
0
 70
0
 62
7
  6
CONTINUOUS
370
-3
390
F
  0
LAYER
  5
1FA
100
AcDbSymbolTableRecord
100
AcDbLayerTableRecord
  2
DEFAULT_1
 70
0
 62
7
  6
CENTER
370
-3
390
F
  0
LAYER
  5
1FB
100
AcDbSymbolTableRecord
100
AcDbLayerTableRecord
  2
DEFAULT_2
 70
0
 62
7
  6
HIDDEN
370
-3
390
F
  0
LAYER
  5
1FC
100
AcDbSymbolTableRecord
100
AcDbLayerTableRecord
  2
DEFAULT_3
 70
0
 62
7
  6
PHANTOM
370
-3
390
F
  0
LAYER
  5
1FD
100
AcDbSymbolTableRecord
100
AcDbLayerTableRecord
  2
ASSI
 70
0
 62
7
  6
CONTINUOUS
370
-3
390
F
  0
LAYER
  5
1FE
100
AcDbSymbolTableRecord
100
AcDbLayerTableRecord
  2
COORDINATE
 70
0
 62
7
  6
CONTINUOUS
370
-3
390
F
  0
LAYER
  5
1FF
100
AcDbSymbolTableRecord
100
AcDbLayerTableRecord
  2
COPY_PUBLISH
 70
0
 62
7
  6
CONTINUOUS
370
-3
390
F
  0
LAYER
  5
200
100
AcDbSymbolTableRecord
100
AcDbLayerTableRecord
  2
COSMETIC
 70
0
 62
7
  6
CONTINUOUS
370
-3
390
F
  0
LAYER
  5
201
100
AcDbSymbolTableRecord
100
AcDbLayerTableRecord
  2
CURVE
 70
0
 62
7
  6
CONTINUOUS
370
-3
390
F
  0
LAYER
  5
202
100
AcDbSymbolTableRecord
100
AcDbLayerTableRecord
  2
IMPORT_IGES
 70
0
 62
7
  6
CONTINUOUS
370
-3
390
F
  0
LAYER
  5
203
100
AcDbSymbolTableRecord
100
AcDbLayerTableRecord
  2
NOTE
 70
0
 62
7
  6
CONTINUOUS
370
-3
390
F
  0
LAYER
  5
204
100
AcDbSymbolTableRecord
100
AcDbLayerTableRecord
  2
PIANI
 70
0
 62
7
  6
CONTINUOUS
370
-3
390
F
  0
LAYER
  5
205
100
AcDbSymbolTableRecord
100
AcDbLayerTableRecord
  2
PUNTI
 70
0
 62
7
  6
CONTINUOUS
370
-3
390
F
  0
LAYER
  5
206
100
AcDbSymbolTableRecord
100
AcDbLayerTableRecord
  2
RACCORDO
 70
0
 62
7
  6
CONTINUOUS
370
-3
390
F
  0
LAYER
  5
207
100
AcDbSymbolTableRecord
100
AcDbLayerTableRecord
  2
SNAPLINE
 70
0
 62
7
  6
CONTINUOUS
370
-3
390
F
  0
LAYER
  5
208
100
AcDbSymbolTableRecord
100
AcDbLayerTableRecord
  2
TRASH
 70
0
 62
7
  6
CONTINUOUS
370
-3
390
F
  0
ENDTAB
  0
TABLE
  2
STYLE
  5
3
100
AcDbSymbolTable
 70
1
  0
STYLE
  5
11
100
AcDbSymbolTableRecord
100
AcDbTextStyleTableRecord
  2
STANDARD
 70
0
 40
0.0
 41
0.8
 50
0.0
 71
0
 42
0.2
  3
txt
  4

  0
STYLE
  5
209
100
AcDbSymbolTableRecord
100
AcDbTextStyleTableRecord
  2
TEXTSTYLE_1
 70
0
 40
0.0
 41
0.8
 50
0.0
 71
0
 42
0.2
  3
gdt
  4

  0
ENDTAB
  0
TABLE
  2
VIEW
  5
6
100
AcDbSymbolTable
 70
0
  0
ENDTAB
  0
TABLE
  2
UCS
  5
7
100
AcDbSymbolTable
 70
0
  0
ENDTAB
  0
TABLE
  2
APPID
  5
9
100
AcDbSymbolTable
 70
1
  0
APPID
  5
20A
100
AcDbSymbolTableRecord
100
AcDbRegAppTableRecord
  2
ACAD
 70
0
  0
ENDTAB
  0
TABLE
  2
BLOCK_RECORD
  5
1
100
AcDbSymbolTable
 70
0
  0
BLOCK_RECORD
  5
20B
100
AcDbSymbolTableRecord
100
AcDbBlockTableRecord
  2
*Model_Space
  0
BLOCK_RECORD
  5
20C
100
AcDbSymbolTableRecord
100
AcDbBlockTableRecord
  2
*Paper_Space
  0
BLOCK_RECORD
  5
20D
100
AcDbSymbolTableRecord
100
AcDbBlockTableRecord
  2
_FILLED
  0
ENDTAB
  0
TABLE
  2
DIMSTYLE
  5
A
100
AcDbSymbolTable
 70
1
100
AcDbDimStyleTable
 71
0
  0
DIMSTYLE
105
20E
100
AcDbSymbolTableRecord
100
AcDbDimStyleTableRecord
  2
STANDARD
 70
0
  3

  4

 40
1.0
 41
3.0
 42
0.5
 43
0.38
 44
1.5
 45
0.0
 46
0.0
 47
0.01
 48
0.01
140
3.0
141
0.09
142
0.0
143
25.4
144
1.0
145
0.0
146
1.0
147
0.625
 71
1.0
 72
0.0
 73
0
 74
0
 75
0
 76
0
 77
1
 78
8
 79
2
170
0
171
1
172
0
173
0
174
0
175
0
176
0
177
0
178
0
270
2
179
2
271
2
272
2
273
2
274
2
275
0
280
0
281
0
282
0
283
1
284
8
285
0
286
0
287
3
288
0
340
11
278
44
341
20D
342
20D
343
20D
344
20D
  0
ENDTAB
  0
ENDSEC
  0
SECTION
  2
BLOCKS
  0
BLOCK
  5
20
100
AcDbEntity
  8
0
100
AcDbBlockBegin
  2
*Model_Space
 70
0
 10
0.0
 20
0.0
 30
0.0
  3
*Model_Space
  1

  0
ENDBLK
  5
21
100
AcDbEntity
  8
0
100
AcDbBlockEnd
  0
BLOCK
  5
1C
100
AcDbEntity
  8
0
100
AcDbBlockBegin
  2
*Paper_Space
 70
0
 10
0.0
 20
0.0
 30
0.0
  3
*Paper_Space
  1

  0
ENDBLK
  5
1D
100
AcDbEntity
  8
0
100
AcDbBlockEnd
  0
BLOCK
  5
20F
100
AcDbEntity
  8
0
100
AcDbBlockBegin
  2
_FILLED
 70
64
 10
0.0
 20
0.0
  3
_FILLED
  1

  0
SOLID
  5
210
100
AcDbEntity
  8
0
  6
BYBLOCK
 62
0
100
AcDbTrace
 10
0.0
 20
0.0
 11
-1.0
 21
0.3166666667
 12
-1.0
 22
-0.3166666667
 13
-1.0
 23
-0.3166666667
  0
ENDBLK
  5
211
100
AcDbEntity
  8
0
  6
BYBLOCK
 62
0
100
AcDbBlockEnd
  0
ENDSEC
  0
SECTION
  2
ENTITIES
  0
LINE
  5
212
100
AcDbEntity
  8
ASSI
100
AcDbLine
 62
7
  6
CONTINUOUS
 10
-22.7931901885
 20
19.9257771037
 11
-23.0031901885
 21
19.7439117689
  0
LINE
  5
213
100
AcDbEntity
  8
RACCORDO
100
AcDbLine
 62
250
  6
CONTINUOUS
 10
-22.1385365178
 20
20.0358735615
 11
-22.3485365178
 21
19.8540082267
  0
LINE
  5
214
100
AcDbEntity
  8
RACCORDO
100
AcDbLine
 62
7
  6
CONTINUOUS
 10
-23.2413568408
 20
19.1879828229
 11
-23.2413568408
 21
-6.0999589676
  0
LINE
  5
215
100
AcDbEntity
  8
RACCORDO
100
AcDbLine
 62
250
  6
CONTINUOUS
 10
-23.1413568408
 20
19.1013802825
 11
-23.1413568408
 21
-6.186561508
  0
LINE
  5
216
100
AcDbEntity
  8
RACCORDO
100
AcDbLine
 62
7
  6
CONTINUOUS
 10
-22.4040065374
 20
-7.1849330752
 11
22.1096992171
 21
-20.0349330752
  0
LINE
  5
217
100
AcDbEntity
  8
RACCORDO
100
AcDbLine
 62
250
  6
CONTINUOUS
 10
-22.4485365178
 20
-7.079381831
 11
22.0651692367
 21
-19.929381831
  0
LINE
  5
218
100
AcDbEntity
  8
0
100
AcDbLine
 62
7
  6
CONTINUOUS
 10
-0.4485175481
 20
-13.1841229787
 11
-0.4128436235
 21
-13.1944211537
  0
LINE
  5
219
100
AcDbEntity
  8
0
100
AcDbLine
 62
7
  6
CONTINUOUS
 10
-0.5489383033
 20
-13.1551340037
 11
-0.5132545059
 21
-13.1654350287
  0
LINE
  5
21A
100
AcDbEntity
  8
0
100
AcDbLine
 62
7
  6
CONTINUOUS
 10
-0.1126997433
 20
-13.2810652287
 11
-0.0803312644
 21
-13.2904092037
  0
LINE
  5
21B
100
AcDbEntity
  8
0
100
AcDbLine
 62
7
  6
CONTINUOUS
 10
-0.2256166388
 20
-13.1855682046
 11
-0.1126997433
 21
-13.2181645046
  0
LINE
  5
21C
100
AcDbEntity
  8
0
100
AcDbLine
 62
7
  6
CONTINUOUS
 10
-0.0803312644
 20
-13.2275084796
 11
-0.0424405746
 21
-13.2384465796
  0
LINE
  5
21D
100
AcDbEntity
  8
0
100
AcDbLine
 62
7
  6
CONTINUOUS
 10
-0.0424405746
 20
-13.2104949169
 11
-0.0803312644
 21
-13.1995568169
  0
LINE
  5
21E
100
AcDbEntity
  8
0
100
AcDbLine
 62
7
  6
CONTINUOUS
 10
-0.1126997433
 20
-13.1902128419
 11
-0.1958277898
 21
-13.1662158419
  0
LINE
  5
21F
100
AcDbEntity
  8
0
100
AcDbLine
 62
7
  6
CONTINUOUS
 10
-0.0399405746
 20
-13.2083298533
 11
-0.0778312644
 21
-13.1973917533
  0
LINE
  5
220
100
AcDbEntity
  8
0
100
AcDbLine
 62
7
  6
CONTINUOUS
 10
-0.1126997433
 20
-13.1873260905
 11
-0.1933277898
 21
-13.1640507783
  0
LINE
  5
221
100
AcDbEntity
  8
0
100
AcDbLine
 62
7
  6
CONTINUOUS
 10
-0.4128436235
 20
-13.0829677546
 11
-0.3297988901
 21
-13.1069407041
  0
LINE
  5
222
100
AcDbEntity
  8
0
100
AcDbLine
 62
7
  6
CONTINUOUS
 10
-0.33812177
 20
-13.0740126054
 11
-0.4128436235
 21
-13.0524422643
  0
LINE
  5
223
100
AcDbEntity
  8
0
100
AcDbLine
 62
7
  6
CONTINUOUS
 10
-0.3356217538
 20
-13.0718475466
 11
-0.4103436235
 21
-13.0502772008
  0
LINE
  5
224
100
AcDbEntity
  8
0
100
AcDbLine
 62
7
  6
CONTINUOUS
 10
-0.4128436235
 20
-12.9608522836
 11
-0.3381225306
 21
-12.9824224052
  0
LINE
  5
225
100
AcDbEntity
  8
0
100
AcDbLine
 62
7
  6
CONTINUOUS
 10
-0.0803312644
 20
-13.02631493
 11
-0.1031962404
 21
-13.01971438
  0
LINE
  5
226
100
AcDbEntity
  8
0
100
AcDbLine
 62
7
  6
CONTINUOUS
 10
-0.3297984078
 20
-12.9542999688
 11
-0.4485175481
 21
-12.920028705
  0
LINE
  5
227
100
AcDbEntity
  8
0
100
AcDbLine
 62
7
  6
CONTINUOUS
 10
-0.5132545059
 20
-12.901340755
 11
-0.5489383033
 21
-12.89103973
  0
LINE
  5
228
100
AcDbEntity
  8
0
100
AcDbLine
 62
7
  6
CONTINUOUS
 10
-0.0778312644
 20
-13.0241498665
 11
-0.1006962404
 21
-13.0175493165
  0
LINE
  5
229
100
AcDbEntity
  8
0
100
AcDbLine
 62
7
  6
CONTINUOUS
 10
-0.5107545059
 20
-12.8991756915
 11
-0.5464383033
 21
-12.8888746665
  0
LINE
  5
22A
100
AcDbEntity
  8
0
100
AcDbLine
 62
7
  6
CONTINUOUS
 10
-0.3272984064
 20
-12.9521349057
 11
-0.4460175481
 21
-12.9178636415
  0
LINE
  5
22B
100
AcDbEntity
  8
0
100
AcDbLine
 62
7
  6
CONTINUOUS
 10
-0.0907929379
 20
-0.3834876867
 11
-0.1272308702
 21
0.0166950118
  0
LINE
  5
22C
100
AcDbEntity
  8
0
100
AcDbLine
 62
7
  6
CONTINUOUS
 10
-0.0882929379
 20
-0.3813226232
 11
-0.1247308702
 21
0.0188600753
  0
LINE
  5
22D
100
AcDbEntity
  8
0
100
AcDbLine
 62
7
  6
CONTINUOUS
 10
-0.187074438
 20
-0.102311033
 11
-0.1703632654
 21
-0.3605177117
  0
LINE
  5
22E
100
AcDbEntity
  8
0
100
AcDbLine
 62
7
  6
CONTINUOUS
 10
-0.6111045512
 20
0.1564006945
 11
-0.6111045512
 21
-0.2332866617
  0
LINE
  5
22F
100
AcDbEntity
  8
0
100
AcDbLine
 62
7
  6
CONTINUOUS
 10
-0.5489383033
 20
-12.89103973
 11
-0.5489383033
 21
-13.1551340037
  0
LINE
  5
230
100
AcDbEntity
  8
0
100
AcDbLine
 62
7
  6
CONTINUOUS
 10
-0.5297664061
 20
-0.2567669617
 11
-0.5297664061
 21
0.1329203945
  0
LINE
  5
231
100
AcDbEntity
  8
0
100
AcDbLine
 62
7
  6
CONTINUOUS
 10
-0.5272664061
 20
-0.2546018982
 11
-0.5272664061
 21
0.135085458
  0
LINE
  5
232
100
AcDbEntity
  8
0
100
AcDbLine
 62
7
  6
CONTINUOUS
 10
-0.5132545059
 20
-13.1654350287
 11
-0.5132545059
 21
-12.901340755
  0
LINE
  5
233
100
AcDbEntity
  8
0
100
AcDbLine
 62
7
  6
CONTINUOUS
 10
-0.5107545059
 20
-13.1632699652
 11
-0.5107545059
 21
-12.8991756915
  0
LINE
  5
234
100
AcDbEntity
  8
0
100
AcDbLine
 62
7
  6
CONTINUOUS
 10
-0.4485175481
 20
-12.920028705
 11
-0.4485175481
 21
-13.1841229787
  0
LINE
  5
235
100
AcDbEntity
  8
0
100
AcDbLine
 62
7
  6
CONTINUOUS
 10
-0.4128436235
 20
-13.0524422643
 11
-0.4128436235
 21
-12.9608522836
  0
LINE
  5
236
100
AcDbEntity
  8
0
100
AcDbLine
 62
7
  6
CONTINUOUS
 10
-0.4128436235
 20
-13.1944211537
 11
-0.4128436235
 21
-13.0829677546
  0
LINE
  5
237
100
AcDbEntity
  8
0
100
AcDbLine
 62
7
  6
CONTINUOUS
 10
-0.4103436235
 20
-13.0502772008
 11
-0.4103436235
 21
-12.9615739715
  0
LINE
  5
238
100
AcDbEntity
  8
0
100
AcDbLine
 62
7
  6
CONTINUOUS
 10
-0.4103436235
 20
-13.1922560902
 11
-0.4103436235
 21
-13.0836894424
  0
LINE
  5
239
100
AcDbEntity
  8
0
100
AcDbLine
 62
7
  6
CONTINUOUS
 10
-0.2256166388
 20
-13.1539382722
 11
-0.2256166388
 21
-13.1855682046
  0
LINE
  5
23A
100
AcDbEntity
  8
0
100
AcDbLine
 62
7
  6
CONTINUOUS
 10
-0.1126997433
 20
-13.0718256103
 11
-0.1126997433
 21
-13.1902128419
  0
LINE
  5
23B
100
AcDbEntity
  8
0
100
AcDbLine
 62
7
  6
CONTINUOUS
 10
-0.1126997433
 20
-13.2181645046
 11
-0.1126997433
 21
-13.2810652287
  0
LINE
  5
23C
100
AcDbEntity
  8
0
100
AcDbLine
 62
7
  6
CONTINUOUS
 10
-0.0803312644
 20
-13.2904092037
 11
-0.0803312644
 21
-13.2275084796
  0
LINE
  5
23D
100
AcDbEntity
  8
0
100
AcDbLine
 62
7
  6
CONTINUOUS
 10
-0.0803312644
 20
-13.1995568169
 11
-0.0803312644
 21
-13.02631493
  0
LINE
  5
23E
100
AcDbEntity
  8
0
100
AcDbLine
 62
7
  6
CONTINUOUS
 10
-0.0778312644
 20
-13.2882441402
 11
-0.0778312644
 21
-13.2282301674
  0
LINE
  5
23F
100
AcDbEntity
  8
0
100
AcDbLine
 62
7
  6
CONTINUOUS
 10
-0.0778312644
 20
-13.1973917533
 11
-0.0778312644
 21
-13.0241498665
  0
LINE
  5
240
100
AcDbEntity
  8
0
100
AcDbLine
 62
7
  6
CONTINUOUS
 10
-0.0424405746
 20
-13.2384465796
 11
-0.0424405746
 21
-13.2104949169
  0
LINE
  5
241
100
AcDbEntity
  8
0
100
AcDbLine
 62
7
  6
CONTINUOUS
 10
-0.0399405746
 20
-13.2362815161
 11
-0.0399405746
 21
-13.2083298533
  0
LINE
  5
242
100
AcDbEntity
  8
0
100
AcDbLine
 62
7
  6
CONTINUOUS
 10
0.26633102
 20
-0.101469102
 11
0.26633102
 21
-0.4865804501
  0
LINE
  5
243
100
AcDbEntity
  8
0
100
AcDbLine
 62
7
  6
CONTINUOUS
 10
-0.4081653543
 20
-0.2918701617
 11
-0.3906126648
 21
-0.0424939867
  0
LINE
  5
244
100
AcDbEntity
  8
0
100
AcDbLine
 62
7
  6
CONTINUOUS
 10
-0.4056653543
 20
-0.2897050982
 11
-0.3886692948
 21
-0.0482371277
  0
LINE
  5
245
100
AcDbEntity
  8
0
100
AcDbLine
 62
7
  6
CONTINUOUS
 10
-0.4507951083
 20
0.1100999618
 11
-0.4859795554
 21
-0.2694071367
  0
LINE
  5
246
100
AcDbEntity
  8
0
100
AcDbLine
 62
7
  6
CONTINUOUS
 10
0.041517384
 20
-0.2836973467
 11
0.0820169754
 21
-0.15077939
  0
LINE
  5
247
100
AcDbEntity
  8
0
100
AcDbLine
 62
7
  6
CONTINUOUS
 10
0.044017384
 20
-0.2815322832
 11
0.0828288157
 21
-0.1541547957
  0
LINE
  5
248
100
AcDbEntity
  8
0
100
AcDbLine
 62
7
  6
CONTINUOUS
 10
-0.7225718934
 20
0.1885551618
 11
-0.799117887
 21
-0.0575656802
  0
LINE
  5
249
100
AcDbEntity
  8
0
100
AcDbLine
 62
7
  6
CONTINUOUS
 10
0.0024350432
 20
-0.4104002867
 11
0.0248792174
 21
-0.3390885432
  0
LINE
  5
24A
100
AcDbEntity
  8
0
100
AcDbLine
 62
7
  6
CONTINUOUS
 10
0.0049350432
 20
-0.4082352232
 11
0.0265338928
 21
-0.3396093245
  0
LINE
  5
24B
100
AcDbEntity
  8
0
100
AcDbLine
 62
7
  6
CONTINUOUS
 10
0.0442027556
 20
-0.0327936132
 11
-0.0780207087
 21
-0.3871747117
  0
LINE
  5
24C
100
AcDbEntity
  8
0
100
AcDbLine
 62
7
  6
CONTINUOUS
 10
-0.7665429476
 20
-0.1884154617
 11
-0.6412893471
 21
0.1650909118
  0
LINE
  5
24D
100
AcDbEntity
  8
0
100
AcDbLine
 62
7
  6
CONTINUOUS
 10
-0.7640429476
 20
-0.1862503982
 11
-0.6387893471
 21
0.1672559753
  0
LINE
  5
24E
100
AcDbEntity
  8
0
100
AcDbLine
 62
7
  6
CONTINUOUS
 10
-0.2077070603
 20
0.0399264868
 11
-0.2890451188
 21
-0.1529359103
  0
LINE
  5
24F
100
AcDbEntity
  8
0
100
AcDbLine
 62
7
  6
CONTINUOUS
 10
-0.2837854867
 20
-0.3277755367
 11
-0.187074438
 21
-0.102311033
  0
LINE
  5
250
100
AcDbEntity
  8
0
100
AcDbLine
 62
7
  6
CONTINUOUS
 10
-0.2812854867
 20
-0.3256104732
 11
-0.1868684351
 21
-0.1054940132
  0
LINE
  5
251
100
AcDbEntity
  8
0
100
AcDbLine
 62
7
  6
CONTINUOUS
 10
-0.9592533009
 20
0.2597659503
 11
-0.9617533009
 21
0.2576008868
  0
LINE
  5
252
100
AcDbEntity
  8
0
100
AcDbLine
 62
7
  6
CONTINUOUS
 10
-0.870894894
 20
0.2342590753
 11
-0.873394894
 21
0.2320940118
  0
LINE
  5
253
100
AcDbEntity
  8
0
100
AcDbLine
 62
7
  6
CONTINUOUS
 10
-0.7200718934
 20
0.1907202253
 11
-0.7225718934
 21
0.1885551618
  0
LINE
  5
254
100
AcDbEntity
  8
0
100
AcDbLine
 62
7
  6
CONTINUOUS
 10
-0.6387893471
 20
0.1672559753
 11
-0.6412893471
 21
0.1650909118
  0
LINE
  5
255
100
AcDbEntity
  8
0
100
AcDbLine
 62
7
  6
CONTINUOUS
 10
-0.6086045512
 20
0.158565758
 11
-0.6111045512
 21
0.1564006945
  0
LINE
  5
256
100
AcDbEntity
  8
0
100
AcDbLine
 62
7
  6
CONTINUOUS
 10
-0.5272664061
 20
0.135085458
 11
-0.5297664061
 21
0.1329203945
  0
LINE
  5
257
100
AcDbEntity
  8
0
100
AcDbLine
 62
7
  6
CONTINUOUS
 10
-0.4482951083
 20
0.1122650253
 11
-0.4507951083
 21
0.1100999618
  0
LINE
  5
258
100
AcDbEntity
  8
0
100
AcDbLine
 62
7
  6
CONTINUOUS
 10
-0.7640429476
 20
-0.1862503982
 11
-0.7665429476
 21
-0.1884154617
  0
LINE
  5
259
100
AcDbEntity
  8
0
100
AcDbLine
 62
7
  6
CONTINUOUS
 10
-0.3670242534
 20
0.0888041503
 11
-0.3695242534
 21
0.0866390868
  0
LINE
  5
25A
100
AcDbEntity
  8
0
100
AcDbLine
 62
7
  6
CONTINUOUS
 10
-0.2052070603
 20
0.0420915503
 11
-0.2077070603
 21
0.0399264868
  0
LINE
  5
25B
100
AcDbEntity
  8
0
100
AcDbLine
 62
7
  6
CONTINUOUS
 10
-0.5272664061
 20
-0.2546018982
 11
-0.5297664061
 21
-0.2567669617
  0
LINE
  5
25C
100
AcDbEntity
  8
0
100
AcDbLine
 62
7
  6
CONTINUOUS
 10
-0.1247308702
 20
0.0188600753
 11
-0.1272308702
 21
0.0166950118
  0
LINE
  5
25D
100
AcDbEntity
  8
0
100
AcDbLine
 62
7
  6
CONTINUOUS
 10
-0.4056653543
 20
-0.2897050982
 11
-0.4081653543
 21
-0.2918701617
  0
LINE
  5
25E
100
AcDbEntity
  8
0
100
AcDbLine
 62
7
  6
CONTINUOUS
 10
0.0467027556
 20
-0.0306285497
 11
0.0442027556
 21
-0.0327936132
  0
LINE
  5
25F
100
AcDbEntity
  8
0
100
AcDbLine
 62
7
  6
CONTINUOUS
 10
-0.2812854867
 20
-0.3256104732
 11
-0.2837854867
 21
-0.3277755367
  0
LINE
  5
260
100
AcDbEntity
  8
0
100
AcDbLine
 62
7
  6
CONTINUOUS
 10
0.1253876587
 20
-0.0533429247
 11
0.1228876587
 21
-0.0555079882
  0
LINE
  5
261
100
AcDbEntity
  8
0
100
AcDbLine
 62
7
  6
CONTINUOUS
 10
-0.0882929379
 20
-0.3813226232
 11
-0.0907929379
 21
-0.3834876867
  0
LINE
  5
262
100
AcDbEntity
  8
0
100
AcDbLine
 62
7
  6
CONTINUOUS
 10
0.044017384
 20
-0.2815322832
 11
0.041517384
 21
-0.2836973467
  0
LINE
  5
263
100
AcDbEntity
  8
0
100
AcDbLine
 62
7
  6
CONTINUOUS
 10
0.26883102
 20
-0.0993040385
 11
0.26633102
 21
-0.101469102
  0
LINE
  5
264
100
AcDbEntity
  8
0
100
AcDbLine
 62
7
  6
CONTINUOUS
 10
-0.8382222248
 20
-0.1677234367
 11
-0.7665429476
 21
-0.1884154617
  0
LINE
  5
265
100
AcDbEntity
  8
0
100
AcDbLine
 62
7
  6
CONTINUOUS
 10
-0.6111045512
 20
-0.2332866617
 11
-0.5297664061
 21
-0.2567669617
  0
LINE
  5
266
100
AcDbEntity
  8
0
100
AcDbLine
 62
7
  6
CONTINUOUS
 10
-0.4859795554
 20
-0.2694071367
 11
-0.4081653543
 21
-0.2918701617
  0
LINE
  5
267
100
AcDbEntity
  8
0
100
AcDbLine
 62
7
  6
CONTINUOUS
 10
-0.2951931197
 20
-0.3244824367
 11
-0.2837854867
 21
-0.3277755367
  0
LINE
  5
268
100
AcDbEntity
  8
0
100
AcDbLine
 62
7
  6
CONTINUOUS
 10
-0.1703632654
 20
-0.3605177117
 11
-0.0907929379
 21
-0.3834876867
  0
LINE
  5
269
100
AcDbEntity
  8
0
100
AcDbLine
 62
7
  6
CONTINUOUS
 10
-0.0780207087
 20
-0.3871747117
 11
0.0024350432
 21
-0.4104002867
  0
LINE
  5
26A
100
AcDbEntity
  8
0
100
AcDbLine
 62
7
  6
CONTINUOUS
 10
0.1567191143
 20
-0.4549382617
 11
0.2424461896
 21
-0.4796855367
  0
LINE
  5
26B
100
AcDbEntity
  8
0
100
AcDbLine
 62
7
  6
CONTINUOUS
 10
0.26633102
 20
-0.4865804501
 11
0.3473418855
 21
-0.5099662726
  0
LINE
  5
26C
100
AcDbEntity
  8
0
100
AcDbLine
 62
7
  6
CONTINUOUS
 10
0.471900036
 20
-0.5459231135
 11
0.5501378777
 21
-0.5685084329
  0
LINE
  5
26D
100
AcDbEntity
  8
0
100
AcDbLine
 62
7
  6
CONTINUOUS
 10
0.0248792174
 20
-0.3390885432
 11
0.1356482833
 21
-0.3710648182
  0
LINE
  5
26E
100
AcDbEntity
  8
0
100
AcDbLine
 62
7
  6
CONTINUOUS
 10
0.1193928998
 20
-0.3061780717
 11
0.041517384
 21
-0.2836973467
  0
LINE
  5
26F
100
AcDbEntity
  8
0
100
AcDbLine
 62
7
  6
CONTINUOUS
 10
0.1186467854
 20
-0.3030759356
 11
0.044017384
 21
-0.2815322832
  0
LINE
  5
270
100
AcDbEntity
  8
0
100
AcDbLine
 62
7
  6
CONTINUOUS
 10
0.3473418855
 20
-0.357473341
 11
0.3909534555
 21
-0.3700629168
  0
LINE
  5
271
100
AcDbEntity
  8
0
100
AcDbLine
 62
7
  6
CONTINUOUS
 10
0.3911287784
 20
-0.3062959946
 11
0.344644835
 21
-0.2928772359
  0
LINE
  5
272
100
AcDbEntity
  8
0
100
AcDbLine
 62
7
  6
CONTINUOUS
 10
0.3936287784
 20
-0.304130931
 11
0.347144835
 21
-0.2907121724
  0
LINE
  5
273
100
AcDbEntity
  8
0
100
AcDbLine
 62
7
  6
CONTINUOUS
 10
0.1228876587
 20
-0.0555079882
 11
0.0442027556
 21
-0.0327936132
  0
LINE
  5
274
100
AcDbEntity
  8
0
100
AcDbLine
 62
7
  6
CONTINUOUS
 10
-0.1272308702
 20
0.0166950118
 11
-0.2077070603
 21
0.0399264868
  0
LINE
  5
275
100
AcDbEntity
  8
0
100
AcDbLine
 62
7
  6
CONTINUOUS
 10
-0.3695242534
 20
0.0866390868
 11
-0.4507951083
 21
0.1100999618
  0
LINE
  5
276
100
AcDbEntity
  8
0
100
AcDbLine
 62
7
  6
CONTINUOUS
 10
-0.6412893471
 20
0.1650909118
 11
-0.7225718934
 21
0.1885551618
  0
LINE
  5
277
100
AcDbEntity
  8
0
100
AcDbLine
 62
7
  6
CONTINUOUS
 10
-0.873394894
 20
0.2320940118
 11
-0.9617533009
 21
0.2576008868
  0
LINE
  5
278
100
AcDbEntity
  8
0
100
AcDbLine
 62
7
  6
CONTINUOUS
 10
-0.5297664061
 20
0.1329203945
 11
-0.6111045512
 21
0.1564006945
  0
LINE
  5
279
100
AcDbEntity
  8
0
100
AcDbLine
 62
7
  6
CONTINUOUS
 10
0.1253876587
 20
-0.0533429247
 11
0.0467027556
 21
-0.0306285497
  0
LINE
  5
27A
100
AcDbEntity
  8
0
100
AcDbLine
 62
7
  6
CONTINUOUS
 10
-0.1247308702
 20
0.0188600753
 11
-0.2052070603
 21
0.0420915503
  0
LINE
  5
27B
100
AcDbEntity
  8
0
100
AcDbLine
 62
7
  6
CONTINUOUS
 10
-0.3670242534
 20
0.0888041503
 11
-0.4482951083
 21
0.1122650253
  0
LINE
  5
27C
100
AcDbEntity
  8
0
100
AcDbLine
 62
7
  6
CONTINUOUS
 10
-0.6387893471
 20
0.1672559753
 11
-0.7200718934
 21
0.1907202253
  0
LINE
  5
27D
100
AcDbEntity
  8
0
100
AcDbLine
 62
7
  6
CONTINUOUS
 10
-0.870894894
 20
0.2342590753
 11
-0.9592533009
 21
0.2597659503
  0
LINE
  5
27E
100
AcDbEntity
  8
0
100
AcDbLine
 62
7
  6
CONTINUOUS
 10
-0.5272664061
 20
0.135085458
 11
-0.6086045512
 21
0.158565758
  0
LINE
  5
27F
100
AcDbEntity
  8
0
100
AcDbLine
 62
7
  6
CONTINUOUS
 10
-0.3906126648
 20
-0.0424939867
 11
-0.2951931197
 21
-0.3244824367
  0
LINE
  5
280
100
AcDbEntity
  8
0
100
AcDbLine
 62
7
  6
CONTINUOUS
 10
-0.2890451188
 20
-0.1529359103
 11
-0.3695242534
 21
0.0866390868
  0
LINE
  5
281
100
AcDbEntity
  8
0
100
AcDbLine
 62
7
  6
CONTINUOUS
 10
-0.2872487003
 20
-0.1486763843
 11
-0.3670242534
 21
0.0888041503
  0
LINE
  5
282
100
AcDbEntity
  8
0
100
AcDbLine
 62
7
  6
CONTINUOUS
 10
-0.9617533009
 20
0.2576008868
 11
-0.8382222248
 21
-0.1677234367
  0
LINE
  5
283
100
AcDbEntity
  8
0
100
AcDbLine
 62
250
  6
CONTINUOUS
 10
-0.9588678807
 20
0.2584389274
 11
-0.9592533009
 21
0.2597659503
  0
LINE
  5
284
100
AcDbEntity
  8
0
100
AcDbLine
 62
7
  6
CONTINUOUS
 10
0.2424461896
 20
-0.4796855367
 11
0.1228876587
 21
-0.0555079882
  0
LINE
  5
285
100
AcDbEntity
  8
0
100
AcDbLine
 62
7
  6
CONTINUOUS
 10
0.2449461896
 20
-0.4775204732
 11
0.1253876587
 21
-0.0533429247
  0
LINE
  5
286
100
AcDbEntity
  8
0
100
AcDbLine
 62
7
  6
CONTINUOUS
 10
-0.799117887
 20
-0.0575656802
 11
-0.873394894
 21
0.2320940118
  0
LINE
  5
287
100
AcDbEntity
  8
0
100
AcDbLine
 62
7
  6
CONTINUOUS
 10
-0.7974433575
 20
-0.0521815109
 11
-0.870894894
 21
0.2342590753
  0
LINE
  5
288
100
AcDbEntity
  8
0
100
AcDbLine
 62
7
  6
CONTINUOUS
 10
0.1356482833
 20
-0.3710648182
 11
0.1567191143
 21
-0.4549382617
  0
LINE
  5
289
100
AcDbEntity
  8
0
100
AcDbLine
 62
7
  6
CONTINUOUS
 10
0.0820169754
 20
-0.15077939
 11
0.1193928998
 21
-0.3061780717
  0
LINE
  5
28A
100
AcDbEntity
  8
0
100
AcDbLine
 62
7
  6
CONTINUOUS
 10
0.344644835
 20
-0.2928772359
 11
0.344644835
 21
-0.1859068938
  0
LINE
  5
28B
100
AcDbEntity
  8
0
100
AcDbLine
 62
7
  6
CONTINUOUS
 10
0.347144835
 20
-0.2907121724
 11
0.347144835
 21
-0.1859068938
  0
LINE
  5
28C
100
AcDbEntity
  8
0
100
AcDbLine
 62
7
  6
CONTINUOUS
 10
0.3473418855
 20
-0.5099662726
 11
0.3473418855
 21
-0.357473341
  0
LINE
  5
28D
100
AcDbEntity
  8
0
100
AcDbLine
 62
7
  6
CONTINUOUS
 10
0.3498418855
 20
-0.5078012091
 11
0.3498418855
 21
-0.3581950288
  0
LINE
  5
28E
100
AcDbEntity
  8
0
100
AcDbLine
 62
7
  6
CONTINUOUS
 10
0.4754474025
 20
-0.365055491
 11
0.4754474025
 21
-0.3627529169
  0
LINE
  5
28F
100
AcDbEntity
  8
0
100
AcDbLine
 62
7
  6
CONTINUOUS
 10
0.0049350432
 20
-0.4082352232
 11
0.0024350432
 21
-0.4104002867
  0
LINE
  5
290
100
AcDbEntity
  8
0
100
AcDbLine
 62
250
  6
CONTINUOUS
 10
0.4695611241
 20
-0.161352384
 11
0.4670611241
 21
-0.1635174475
  0
LINE
  5
291
100
AcDbEntity
  8
0
100
AcDbLine
 62
7
  6
CONTINUOUS
 10
0.347144835
 20
-0.2907121724
 11
0.344644835
 21
-0.2928772359
  0
LINE
  5
292
100
AcDbEntity
  8
0
100
AcDbLine
 62
250
  6
CONTINUOUS
 10
0.3936287784
 20
-0.304130931
 11
0.3911287784
 21
-0.3062959946
  0
LINE
  5
293
100
AcDbEntity
  8
0
100
AcDbLine
 62
7
  6
CONTINUOUS
 10
0.2449461896
 20
-0.4775204732
 11
0.2424461896
 21
-0.4796855367
  0
LINE
  5
294
100
AcDbEntity
  8
0
100
AcDbLine
 62
7
  6
CONTINUOUS
 10
0.4779474025
 20
-0.3628904275
 11
0.4754474025
 21
-0.365055491
  0
LINE
  5
295
100
AcDbEntity
  8
0
100
AcDbLine
 62
7
  6
CONTINUOUS
 10
0.3498418855
 20
-0.5078012091
 11
0.3473418855
 21
-0.5099662726
  0
LINE
  5
296
100
AcDbEntity
  8
0
100
AcDbLine
 62
250
  6
CONTINUOUS
 10
0.5248316666
 20
-0.4528509205
 11
0.5223316666
 21
-0.455015984
  0
LINE
  5
297
100
AcDbEntity
  8
0
100
AcDbLine
 62
7
  6
CONTINUOUS
 10
0.5526378777
 20
-0.5663433694
 11
0.5501378777
 21
-0.5685084329
  0
LINE
  5
298
100
AcDbEntity
  8
0
100
AcDbLine
 62
7
  6
CONTINUOUS
 10
-0.1958277898
 20
-13.1662158419
 11
-0.1126997433
 21
-13.0718256103
  0
LINE
  5
299
100
AcDbEntity
  8
0
100
AcDbLine
 62
7
  6
CONTINUOUS
 10
-0.1031962404
 20
-13.01971438
 11
-0.2256166388
 21
-13.1539382722
  0
LINE
  5
29A
100
AcDbEntity
  8
RACCORDO
100
AcDbLine
 62
250
  6
CONTINUOUS
 10
22.3751692367
 20
7.1858735615
 11
22.1651692367
 21
7.0040082267
  0
LINE
  5
29B
100
AcDbEntity
  8
0
100
AcDbLine
 62
7
  6
CONTINUOUS
 10
-0.5464383033
 20
-12.8888746665
 11
-0.5489383033
 21
-12.89103973
  0
LINE
  5
29C
100
AcDbEntity
  8
0
100
AcDbLine
 62
7
  6
CONTINUOUS
 10
-0.5107545059
 20
-12.8991756915
 11
-0.5132545059
 21
-12.901340755
  0
LINE
  5
29D
100
AcDbEntity
  8
0
100
AcDbLine
 62
7
  6
CONTINUOUS
 10
-0.4460175481
 20
-12.9178636415
 11
-0.4485175481
 21
-12.920028705
  0
LINE
  5
29E
100
AcDbEntity
  8
0
100
AcDbLine
 62
250
  6
CONTINUOUS
 10
-0.3272982824
 20
-12.9521349415
 11
-0.3297982824
 21
-12.954300005
  0
LINE
  5
29F
100
AcDbEntity
  8
0
100
AcDbLine
 62
7
  6
CONTINUOUS
 10
-0.4103436235
 20
-13.0502772008
 11
-0.4128436235
 21
-13.0524422643
  0
LINE
  5
2A0
100
AcDbEntity
  8
0
100
AcDbLine
 62
7
  6
CONTINUOUS
 10
-0.5107545059
 20
-13.1632699652
 11
-0.5132545059
 21
-13.1654350287
  0
LINE
  5
2A1
100
AcDbEntity
  8
0
100
AcDbLine
 62
250
  6
CONTINUOUS
 10
-0.3356221722
 20
-13.0718474258
 11
-0.3381221722
 21
-13.0740124893
  0
LINE
  5
2A2
100
AcDbEntity
  8
0
100
AcDbLine
 62
250
  6
CONTINUOUS
 10
-0.2488642364
 20
-13.0510973209
 11
-0.2513642364
 21
-13.0532623844
  0
LINE
  5
2A3
100
AcDbEntity
  8
0
100
AcDbLine
 62
7
  6
CONTINUOUS
 10
-0.4103436235
 20
-13.1922560902
 11
-0.4128436235
 21
-13.1944211537
  0
LINE
  5
2A4
100
AcDbEntity
  8
0
100
AcDbLine
 62
7
  6
CONTINUOUS
 10
-0.1006962404
 20
-13.0175493165
 11
-0.1031962404
 21
-13.01971438
  0
LINE
  5
2A5
100
AcDbEntity
  8
0
100
AcDbLine
 62
7
  6
CONTINUOUS
 10
-0.0778312644
 20
-13.0241498665
 11
-0.0803312644
 21
-13.02631493
  0
LINE
  5
2A6
100
AcDbEntity
  8
0
100
AcDbLine
 62
7
  6
CONTINUOUS
 10
-0.0778312644
 20
-13.1973917533
 11
-0.0803312644
 21
-13.1995568169
  0
LINE
  5
2A7
100
AcDbEntity
  8
0
100
AcDbLine
 62
250
  6
CONTINUOUS
 10
0.0744476273
 20
-13.0681099018
 11
0.0719476273
 21
-13.0702749653
  0
LINE
  5
2A8
100
AcDbEntity
  8
0
100
AcDbLine
 62
7
  6
CONTINUOUS
 10
-0.0399405746
 20
-13.2083298533
 11
-0.0424405746
 21
-13.2104949169
  0
LINE
  5
2A9
100
AcDbEntity
  8
0
100
AcDbLine
 62
7
  6
CONTINUOUS
 10
-0.0399405746
 20
-13.2362815161
 11
-0.0424405746
 21
-13.2384465796
  0
LINE
  5
2AA
100
AcDbEntity
  8
0
100
AcDbLine
 62
250
  6
CONTINUOUS
 10
0.0203991342
 20
-13.1845536769
 11
0.0178991342
 21
-13.1867187404
  0
LINE
  5
2AB
100
AcDbEntity
  8
0
100
AcDbLine
 62
7
  6
CONTINUOUS
 10
-0.0778312644
 20
-13.2882441402
 11
-0.0803312644
 21
-13.2904092037
  0
LINE
  5
2AC
100
AcDbEntity
  8
0
100
AcDbLine
 62
250
  6
CONTINUOUS
 10
0.1630709896
 20
-13.225739494
 11
0.1605709896
 21
-13.2279045575
  0
LINE
  5
2AD
100
AcDbEntity
  8
0
100
AcDbLine
 62
250
  6
CONTINUOUS
 10
0.0744476273
 20
-13.3031410734
 11
0.0719476273
 21
-13.3053061369
  0
LINE
  5
2AE
100
AcDbEntity
  8
RACCORDO
100
AcDbLine
 62
250
  6
CONTINUOUS
 10
23.2411946405
 20
6.0698481577
 11
23.0311946405
 21
5.8879828229
  0
LINE
  5
2AF
100
AcDbEntity
  8
RACCORDO
100
AcDbLine
 62
250
  6
CONTINUOUS
 10
22.0651692367
 20
6.7442006055
 11
-22.4485365178
 21
19.5942006055
  0
LINE
  5
2B0
100
AcDbEntity
  8
RACCORDO
100
AcDbLine
 62
250
  6
CONTINUOUS
 10
22.1651692367
 20
7.0040082267
 11
-22.3485365178
 21
19.8540082267
  0
LINE
  5
2B1
100
AcDbEntity
  8
0
100
AcDbLine
 62
7
  6
CONTINUOUS
 10
22.3751692367
 20
7.1858735615
 11
-22.1385365178
 21
20.0358735615
  0
LINE
  5
2B2
100
AcDbEntity
  8
RACCORDO
100
AcDbLine
 62
250
  6
CONTINUOUS
 10
22.7579895597
 20
-19.436561508
 11
22.7579895597
 21
5.8513802825
  0
LINE
  5
2B3
100
AcDbEntity
  8
RACCORDO
100
AcDbLine
 62
250
  6
CONTINUOUS
 10
23.0311946405
 20
-19.3999589676
 11
23.0311946405
 21
5.8879828229
  0
LINE
  5
2B4
100
AcDbEntity
  8
0
100
AcDbLine
 62
7
  6
CONTINUOUS
 10
23.2411946405
 20
-19.2180936328
 11
23.2411946405
 21
6.0698481577
  0
LINE
  5
2B5
100
AcDbEntity
  8
RACCORDO
100
AcDbLine
 62
250
  6
CONTINUOUS
 10
23.2411946405
 20
-19.2180936328
 11
23.0311946405
 21
-19.3999589676
  0
LINE
  5
2B6
100
AcDbEntity
  8
ASSI
100
AcDbLine
 62
7
  6
CONTINUOUS
 10
23.0298229074
 20
-19.7240225788
 11
22.8198229074
 21
-19.9058879136
  0
ARC
  5
2B7
100
AcDbEntity
  8
0
100
AcDbCircle
 62
250
  6
CONTINUOUS
 10
2.3545002707
 20
-0.112760013
 40
1.8580758717
100
AcDbArc
 50
193.8914122847
 51
194.1295124727
  0
SPLINE
  5
2B8
100
AcDbEntity
  8
0
100
AcDbSpline
 62
7
  6
CONTINUOUS
 70
0
 71
3
 72
13
 73
9
 74
0
 42
0.0000001
 43
0.0000001
 44
0.0000000001
 40
0.0
 40
0.0
 40
0.0
 40
0.0
 40
0.2569339387
 40
0.5308001495
 40
0.6620244593
 40
0.7836220371
 40
0.8951219183
 40
1.0
 40
1.0
 40
1.0
 40
1.0
 10
-21.3227034929
 20
17.7103548787
 30
0.0
 10
-21.3227034929
 20
17.7663938656
 30
0.0
 10
-21.3597858782
 20
17.8823945567
 30
0.0
 10
-21.4619652449
 20
17.9911198995
 30
0.0
 10
-21.5653588625
 20
18.0436182533
 30
0.0
 10
-21.6443716019
 20
18.0596761397
 30
0.0
 10
-21.719020491
 20
18.0507061837
 30
0.0
 10
-21.761615421
 20
18.0271082492
 30
0.0
 10
-21.7789071456
 20
18.012133482
 30
0.0
  0
SPLINE
  5
2B9
100
AcDbEntity
  8
0
100
AcDbSpline
 62
7
  6
CONTINUOUS
 70
0
 71
3
 72
9
 73
5
 74
0
 42
0.0000001
 43
0.0000001
 44
0.0000000001
 40
0.0
 40
0.0
 40
0.0
 40
0.0
 40
0.5200010934
 40
1.0
 40
1.0
 40
1.0
 40
1.0
 10
21.458951454
 20
5.3603548787
 30
0.0
 10
21.458951454
 20
5.3311621459
 30
0.0
 10
21.4494760827
 20
5.2741410333
 30
0.0
 10
21.415910075
 20
5.2262170353
 30
0.0
 10
21.3955398644
 20
5.2085762755
 30
0.0
  0
SPLINE
  5
2BA
100
AcDbEntity
  8
0
100
AcDbSpline
 62
7
  6
CONTINUOUS
 70
0
 71
3
 72
9
 73
5
 74
0
 42
0.0000001
 43
0.0000001
 44
0.0000000001
 40
0.0
 40
0.0
 40
0.0
 40
0.0
 40
0.5200010934
 40
1.0
 40
1.0
 40
1.0
 40
1.0
 10
-21.3227034929
 20
-5.8455361042
 30
0.0
 10
-21.3227034929
 20
-5.874728837
 30
0.0
 10
-21.3321788643
 20
-5.9317499496
 30
0.0
 10
-21.365744872
 20
-5.9796739476
 30
0.0
 10
-21.3861150825
 20
-5.9973147075
 30
0.0
  0
SPLINE
  5
2BB
100
AcDbEntity
  8
0
100
AcDbSpline
 62
7
  6
CONTINUOUS
 70
0
 71
3
 72
13
 73
9
 74
0
 42
0.0000001
 43
0.0000001
 44
0.0000000001
 40
0.0
 40
0.0
 40
0.0
 40
0.0
 40
0.2569339387
 40
0.5308001495
 40
0.6620244593
 40
0.7836220371
 40
0.8951219183
 40
1.0
 40
1.0
 40
1.0
 40
1.0
 10
21.458951454
 20
-18.1955361042
 30
0.0
 10
21.458951454
 20
-18.1394971173
 30
0.0
 10
21.4218690688
 20
-18.0234964262
 30
0.0
 10
21.3196897021
 20
-17.9147710835
 30
0.0
 10
21.2162960844
 20
-17.8622727296
 30
0.0
 10
21.137283345
 20
-17.8462148432
 30
0.0
 10
21.0626344559
 20
-17.8551847993
 30
0.0
 10
21.020039526
 20
-17.8787827338
 30
0.0
 10
21.0027478014
 20
-17.8937575009
 30
0.0
  0
SPLINE
  5
2BC
100
AcDbEntity
  8
0
100
AcDbSpline
 62
7
  6
CONTINUOUS
 70
0
 71
3
 72
13
 73
9
 74
0
 42
0.0000001
 43
0.0000001
 44
0.0000000001
 40
0.0
 40
0.0
 40
0.0
 40
0.0
 40
0.2569339387
 40
0.5308001495
 40
0.6620244593
 40
0.7836220371
 40
0.8951219183
 40
1.0
 40
1.0
 40
1.0
 40
1.0
 10
-6.9466817901
 20
13.5603548787
 30
0.0
 10
-6.9466817901
 20
13.6163938656
 30
0.0
 10
-6.9837641753
 20
13.7323945567
 30
0.0
 10
-7.085943542
 20
13.8411198995
 30
0.0
 10
-7.1893371597
 20
13.8936182533
 30
0.0
 10
-7.2683498991
 20
13.9096761397
 30
0.0
 10
-7.3429987882
 20
13.9007061837
 30
0.0
 10
-7.3855937182
 20
13.8771082492
 30
0.0
 10
-7.4028854427
 20
13.862133482
 30
0.0
  0
SPLINE
  5
2BD
100
AcDbEntity
  8
0
100
AcDbSpline
 62
7
  6
CONTINUOUS
 70
0
 71
3
 72
9
 73
5
 74
0
 42
0.0000001
 43
0.0000001
 44
0.0000000001
 40
0.0
 40
0.0
 40
0.0
 40
0.0
 40
0.5200010934
 40
1.0
 40
1.0
 40
1.0
 40
1.0
 10
7.0829297512
 20
9.5103548787
 30
0.0
 10
7.0829297512
 20
9.4811621459
 30
0.0
 10
7.0734543798
 20
9.4241410333
 30
0.0
 10
7.0398883721
 20
9.3762170353
 30
0.0
 10
7.0195181616
 20
9.3585762755
 30
0.0
  0
SPLINE
  5
2BE
100
AcDbEntity
  8
0
100
AcDbSpline
 62
7
  6
CONTINUOUS
 70
0
 71
3
 72
9
 73
5
 74
0
 42
0.0000001
 43
0.0000001
 44
0.0000000001
 40
0.0
 40
0.0
 40
0.0
 40
0.0
 40
0.5200010934
 40
1.0
 40
1.0
 40
1.0
 40
1.0
 10
-6.9466817901
 20
-9.9955361042
 30
0.0
 10
-6.9466817901
 20
-10.024728837
 30
0.0
 10
-6.9561571615
 20
-10.0817499496
 30
0.0
 10
-6.9897231692
 20
-10.1296739476
 30
0.0
 10
-7.0100933797
 20
-10.1473147075
 30
0.0
  0
SPLINE
  5
2BF
100
AcDbEntity
  8
0
100
AcDbSpline
 62
7
  6
CONTINUOUS
 70
0
 71
3
 72
13
 73
9
 74
0
 42
0.0000001
 43
0.0000001
 44
0.0000000001
 40
0.0
 40
0.0
 40
0.0
 40
0.0
 40
0.2569339387
 40
0.5308001495
 40
0.6620244593
 40
0.7836220371
 40
0.8951219183
 40
1.0
 40
1.0
 40
1.0
 40
1.0
 10
7.0829297512
 20
-14.0455361042
 30
0.0
 10
7.0829297512
 20
-13.9894971173
 30
0.0
 10
7.045847366
 20
-13.8734964262
 30
0.0
 10
6.9436679993
 20
-13.7647710835
 30
0.0
 10
6.8402743816
 20
-13.7122727296
 30
0.0
 10
6.7612616422
 20
-13.6962148432
 30
0.0
 10
6.6866127531
 20
-13.7051847993
 30
0.0
 10
6.6440178231
 20
-13.7287827338
 30
0.0
 10
6.6267260986
 20
-13.7437575009
 30
0.0
  0
SPLINE
  5
2C0
100
AcDbEntity
  8
0
100
AcDbSpline
 62
7
  6
CONTINUOUS
 70
0
 71
3
 72
11
 73
7
 74
0
 42
0.0000001
 43
0.0000001
 44
0.0000000001
 40
0.0
 40
0.0
 40
0.0
 40
0.0
 40
0.2379953739
 40
0.4943834316
 40
0.7539153841
 40
1.0
 40
1.0
 40
1.0
 40
1.0
 10
23.2411946405
 20
6.0698481577
 30
0.0
 10
23.2411946405
 20
6.1887115322
 30
0.0
 10
23.1903398523
 20
6.4365742587
 30
0.0
 10
23.001188349
 20
6.7680903966
 30
0.0
 10
22.7236747055
 20
7.0357978835
 30
0.0
 10
22.4932510331
 20
7.151786283
 30
0.0
 10
22.3751692367
 20
7.1858735615
 30
0.0
  0
SPLINE
  5
2C1
100
AcDbEntity
  8
0
100
AcDbSpline
 62
7
  6
CONTINUOUS
 70
0
 71
3
 72
11
 73
7
 74
0
 42
0.0000001
 43
0.0000001
 44
0.0000000001
 40
0.0
 40
0.0
 40
0.0
 40
0.0
 40
0.2709659447
 40
0.5256492481
 40
0.7667315234
 40
1.0
 40
1.0
 40
1.0
 40
1.0
 10
-22.1385365178
 20
20.0358735615
 30
0.0
 10
-22.1984695623
 20
20.0531747412
 30
0.0
 10
-22.3184055454
 20
20.0757212426
 30
0.0
 10
-22.4964247213
 20
20.0691286022
 30
0.0
 10
-22.6591260247
 20
20.020715204
 30
0.0
 10
-22.7525951741
 20
19.9609328526
 30
0.0
 10
-22.7931901544
 20
19.9257770643
 30
0.0
  0
SPLINE
  5
2C2
100
AcDbEntity
  8
0
100
AcDbSpline
 62
7
  6
CONTINUOUS
 70
0
 71
3
 72
9
 73
5
 74
0
 42
0.0000001
 43
0.0000001
 44
0.0000000001
 40
0.0
 40
0.0
 40
0.0
 40
0.0
 40
0.4738539811
 40
1.0
 40
1.0
 40
1.0
 40
1.0
 10
0.0392647175
 20
-13.1053991723
 30
0.0
 10
0.04337684
 20
-13.1018379691
 30
0.0
 10
0.0541651065
 20
-13.096252721
 30
0.0
 10
0.0661444504
 20
-13.0976610231
 30
0.0
 10
0.0719476273
 20
-13.0993362559
 30
0.0
  0
SPLINE
  5
2C3
100
AcDbEntity
  8
0
100
AcDbSpline
 62
7
  6
CONTINUOUS
 70
0
 71
3
 72
10
 73
6
 74
0
 42
0.0000001
 43
0.0000001
 44
0.0000000001
 40
0.0
 40
0.0
 40
0.0
 40
0.0
 40
0.2342885958
 40
0.4804274154
 40
1.0
 40
1.0
 40
1.0
 40
1.0
 10
0.0134965521
 20
-13.0794144185
 30
0.0
 10
0.0073281787
 20
-13.08475639
 30
0.0
 10
-0.0032931631
 20
-13.09833846
 30
0.0
 10
-0.0137677338
 20
-13.1318732334
 30
0.0
 10
-0.0166757351
 20
-13.15864174
 30
0.0
 10
-0.0166757351
 20
-13.1767378354
 30
0.0
  0
SPLINE
  5
2C4
100
AcDbEntity
  8
RACCORDO
100
AcDbSpline
 62
7
  6
CONTINUOUS
 70
0
 71
3
 72
12
 73
8
 74
0
 42
0.0000001
 43
0.0000001
 44
0.0000000001
 40
0.0
 40
0.0
 40
0.0
 40
0.0
 40
0.2418839663
 40
0.4958988811
 40
0.6248641231
 40
0.752862014
 40
1.0
 40
1.0
 40
1.0
 40
1.0
 10
-23.2413568408
 20
-6.0999589676
 30
0.0
 10
-23.2413568408
 20
-6.2173951852
 30
0.0
 10
-23.1934681339
 20
-6.4592640506
 30
0.0
 10
-23.041856194
 20
-6.7273190715
 30
0.0
 10
-22.8753304608
 20
-6.9123552132
 30
0.0
 10
-22.68615019
 20
-7.0684597154
 30
0.0
 10
-22.519286393
 20
-7.1516546474
 30
0.0
 10
-22.4040065374
 20
-7.1849330752
 30
0.0
  0
SPLINE
  5
2C5
100
AcDbEntity
  8
RACCORDO
100
AcDbSpline
 62
7
  6
CONTINUOUS
 70
0
 71
3
 72
11
 73
7
 74
0
 42
0.0000001
 43
0.0000001
 44
0.0000000001
 40
0.0
 40
0.0
 40
0.0
 40
0.0
 40
0.2445013888
 40
0.4912359182
 40
0.742420768
 40
1.0
 40
1.0
 40
1.0
 40
1.0
 10
-23.0031901885
 20
19.7439117689
 30
0.0
 10
-23.0415602736
 20
19.7106823005
 30
0.0
 10
-23.1110194493
 20
19.6345140447
 30
0.0
 10
-23.1866024679
 20
19.4987526285
 30
0.0
 10
-23.2318276193
 20
19.3473986727
 30
0.0
 10
-23.2413568408
 20
19.241456654
 30
0.0
 10
-23.2413568408
 20
19.1879828229
 30
0.0
  0
SPLINE
  5
2C6
100
AcDbEntity
  8
RACCORDO
100
AcDbSpline
 62
7
  6
CONTINUOUS
 70
0
 71
3
 72
11
 73
7
 74
0
 42
0.0000001
 43
0.0000001
 44
0.0000000001
 40
0.0
 40
0.0
 40
0.0
 40
0.0
 40
0.2603478358
 40
0.5121310679
 40
0.7576592658
 40
1.0
 40
1.0
 40
1.0
 40
1.0
 10
22.1096992171
 20
-20.0349330752
 30
0.0
 10
22.172311593
 20
-20.0530077113
 30
0.0
 10
22.2995140901
 20
-20.0763890483
 30
0.0
 10
22.4907575044
 20
-20.0677317769
 30
0.0
 10
22.6697496597
 20
-20.0128022427
 30
0.0
 10
22.7739670667
 20
-19.9456002366
 30
0.0
 10
22.8198229074
 20
-19.9058879136
 30
0.0
  0
SPLINE
  5
2C7
100
AcDbEntity
  8
0
100
AcDbSpline
 62
7
  6
CONTINUOUS
 70
0
 71
3
 72
9
 73
5
 74
0
 42
0.0000001
 43
0.0000001
 44
0.0000000001
 40
0.0
 40
0.0
 40
0.0
 40
0.0
 40
0.4799989066
 40
1.0
 40
1.0
 40
1.0
 40
1.0
 10
7.0195181616
 20
-14.1973147075
 30
0.0
 10
7.0398883721
 20
-14.1796739476
 30
0.0
 10
7.0734543798
 20
-14.1317499496
 30
0.0
 10
7.0829297512
 20
-14.074728837
 30
0.0
 10
7.0829297512
 20
-14.0455361042
 30
0.0
  0
SPLINE
  5
2C8
100
AcDbEntity
  8
0
100
AcDbSpline
 62
7
  6
CONTINUOUS
 70
0
 71
3
 72
13
 73
9
 74
0
 42
0.0000001
 43
0.0000001
 44
0.0000000001
 40
0.0
 40
0.0
 40
0.0
 40
0.0
 40
0.1048780817
 40
0.2163779629
 40
0.3379755407
 40
0.4691998505
 40
0.7430660613
 40
1.0
 40
1.0
 40
1.0
 40
1.0
 10
-7.4028854427
 20
-9.6937575009
 30
0.0
 10
-7.3855937182
 20
-9.6787827338
 30
0.0
 10
-7.3429987882
 20
-9.6551847993
 30
0.0
 10
-7.2683498991
 20
-9.6462148432
 30
0.0
 10
-7.1893371597
 20
-9.6622727296
 30
0.0
 10
-7.085943542
 20
-9.7147710835
 30
0.0
 10
-6.9837641753
 20
-9.8234964262
 30
0.0
 10
-6.9466817901
 20
-9.9394971173
 30
0.0
 10
-6.9466817901
 20
-9.9955361042
 30
0.0
  0
SPLINE
  5
2C9
100
AcDbEntity
  8
0
100
AcDbSpline
 62
7
  6
CONTINUOUS
 70
0
 71
3
 72
13
 73
9
 74
0
 42
0.0000001
 43
0.0000001
 44
0.0000000001
 40
0.0
 40
0.0
 40
0.0
 40
0.0
 40
0.1048780817
 40
0.2163779629
 40
0.3379755407
 40
0.4691998505
 40
0.7430660613
 40
1.0
 40
1.0
 40
1.0
 40
1.0
 10
6.6267260986
 20
9.812133482
 30
0.0
 10
6.6440178231
 20
9.8271082492
 30
0.0
 10
6.6866127531
 20
9.8507061837
 30
0.0
 10
6.7612616422
 20
9.8596761397
 30
0.0
 10
6.8402743816
 20
9.8436182533
 30
0.0
 10
6.9436679993
 20
9.7911198995
 30
0.0
 10
7.045847366
 20
9.6823945567
 30
0.0
 10
7.0829297512
 20
9.5663938656
 30
0.0
 10
7.0829297512
 20
9.5103548787
 30
0.0
  0
SPLINE
  5
2CA
100
AcDbEntity
  8
0
100
AcDbSpline
 62
7
  6
CONTINUOUS
 70
0
 71
3
 72
9
 73
5
 74
0
 42
0.0000001
 43
0.0000001
 44
0.0000000001
 40
0.0
 40
0.0
 40
0.0
 40
0.0
 40
0.4799989066
 40
1.0
 40
1.0
 40
1.0
 40
1.0
 10
-7.0100933797
 20
13.4085762755
 30
0.0
 10
-6.9897231692
 20
13.4262170353
 30
0.0
 10
-6.9561571615
 20
13.4741410333
 30
0.0
 10
-6.9466817901
 20
13.5311621459
 30
0.0
 10
-6.9466817901
 20
13.5603548787
 30
0.0
  0
SPLINE
  5
2CB
100
AcDbEntity
  8
0
100
AcDbSpline
 62
7
  6
CONTINUOUS
 70
0
 71
3
 72
9
 73
5
 74
0
 42
0.0000001
 43
0.0000001
 44
0.0000000001
 40
0.0
 40
0.0
 40
0.0
 40
0.0
 40
0.4799989066
 40
1.0
 40
1.0
 40
1.0
 40
1.0
 10
21.3955398644
 20
-18.3473147075
 30
0.0
 10
21.415910075
 20
-18.3296739476
 30
0.0
 10
21.4494760827
 20
-18.2817499496
 30
0.0
 10
21.458951454
 20
-18.224728837
 30
0.0
 10
21.458951454
 20
-18.1955361042
 30
0.0
  0
SPLINE
  5
2CC
100
AcDbEntity
  8
0
100
AcDbSpline
 62
7
  6
CONTINUOUS
 70
0
 71
3
 72
13
 73
9
 74
0
 42
0.0000001
 43
0.0000001
 44
0.0000000001
 40
0.0
 40
0.0
 40
0.0
 40
0.0
 40
0.1048780817
 40
0.2163779629
 40
0.3379755407
 40
0.4691998505
 40
0.7430660613
 40
1.0
 40
1.0
 40
1.0
 40
1.0
 10
-21.7789071456
 20
-5.5437575009
 30
0.0
 10
-21.761615421
 20
-5.5287827338
 30
0.0
 10
-21.719020491
 20
-5.5051847993
 30
0.0
 10
-21.6443716019
 20
-5.4962148432
 30
0.0
 10
-21.5653588625
 20
-5.5122727296
 30
0.0
 10
-21.4619652449
 20
-5.5647710835
 30
0.0
 10
-21.3597858782
 20
-5.6734964262
 30
0.0
 10
-21.3227034929
 20
-5.7894971173
 30
0.0
 10
-21.3227034929
 20
-5.8455361042
 30
0.0
  0
SPLINE
  5
2CD
100
AcDbEntity
  8
0
100
AcDbSpline
 62
7
  6
CONTINUOUS
 70
0
 71
3
 72
13
 73
9
 74
0
 42
0.0000001
 43
0.0000001
 44
0.0000000001
 40
0.0
 40
0.0
 40
0.0
 40
0.0
 40
0.1048780817
 40
0.2163779629
 40
0.3379755407
 40
0.4691998505
 40
0.7430660613
 40
1.0
 40
1.0
 40
1.0
 40
1.0
 10
21.0027478014
 20
5.662133482
 30
0.0
 10
21.020039526
 20
5.6771082492
 30
0.0
 10
21.0626344559
 20
5.7007061837
 30
0.0
 10
21.137283345
 20
5.7096761397
 30
0.0
 10
21.2162960844
 20
5.6936182533
 30
0.0
 10
21.3196897021
 20
5.6411198995
 30
0.0
 10
21.4218690688
 20
5.5323945567
 30
0.0
 10
21.458951454
 20
5.4163938656
 30
0.0
 10
21.458951454
 20
5.3603548787
 30
0.0
  0
SPLINE
  5
2CE
100
AcDbEntity
  8
0
100
AcDbSpline
 62
7
  6
CONTINUOUS
 70
0
 71
3
 72
9
 73
5
 74
0
 42
0.0000001
 43
0.0000001
 44
0.0000000001
 40
0.0
 40
0.0
 40
0.0
 40
0.0
 40
0.4799989066
 40
1.0
 40
1.0
 40
1.0
 40
1.0
 10
-21.3861150825
 20
17.5585762755
 30
0.0
 10
-21.365744872
 20
17.5762170353
 30
0.0
 10
-21.3321788643
 20
17.6241410333
 30
0.0
 10
-21.3227034929
 20
17.6811621459
 30
0.0
 10
-21.3227034929
 20
17.7103548787
 30
0.0
  0
SPLINE
  5
2CF
100
AcDbEntity
  8
0
100
AcDbSpline
 62
7
  6
CONTINUOUS
 70
0
 71
3
 72
10
 73
6
 74
0
 42
0.0000001
 43
0.0000001
 44
0.0000000001
 40
0.0
 40
0.0
 40
0.0
 40
0.0
 40
0.2380212395
 40
0.4816796764
 40
1.0
 40
1.0
 40
1.0
 40
1.0
 10
23.0298228733
 20
-19.7240225394
 30
0.0
 10
23.0636024696
 20
-19.6947689634
 30
0.0
 10
23.1250567758
 20
-19.627017266
 30
0.0
 10
23.216222248
 20
-19.4614231657
 30
0.0
 10
23.2411946405
 20
-19.3154027158
 30
0.0
 10
23.2411946405
 20
-19.2180936328
 30
0.0
  0
SPLINE
  5
2D0
100
AcDbEntity
  8
0
100
AcDbSpline
 62
7
  6
CONTINUOUS
 70
0
 71
3
 72
12
 73
8
 74
0
 42
0.0000001
 43
0.0000001
 44
0.0000000001
 40
0.0
 40
0.0
 40
0.0
 40
0.0
 40
0.2565746014
 40
0.5172114668
 40
0.6421305647
 40
0.7638663506
 40
1.0
 40
1.0
 40
1.0
 40
1.0
 10
0.0719476273
 20
-13.0993362559
 30
0.0
 10
0.0833304835
 20
-13.1026222035
 30
0.0
 10
0.1038483462
 20
-13.1180584597
 30
0.0
 10
0.1165403415
 20
-13.1455726442
 30
0.0
 10
0.1216361154
 20
-13.168439708
 30
0.0
 10
0.1253444404
 20
-13.1904435278
 30
0.0
 10
0.1259961203
 20
-13.2070198865
 30
0.0
 10
0.1259961203
 20
-13.2179236524
 30
0.0
  0
SPLINE
  5
2D1
100
AcDbEntity
  8
0
100
AcDbSpline
 62
7
  6
CONTINUOUS
 70
0
 71
3
 72
9
 73
5
 74
0
 42
0.0000001
 43
0.0000001
 44
0.0000000001
 40
0.0
 40
0.0
 40
0.0
 40
0.0
 40
0.5222611821
 40
1.0
 40
1.0
 40
1.0
 40
1.0
 10
0.1259961203
 20
-13.2179236524
 30
0.0
 10
0.1259961203
 20
-13.2327886787
 30
0.0
 10
0.124083849
 20
-13.260552456
 30
0.0
 10
0.1149095026
 20
-13.2903413738
 30
0.0
 10
0.104630537
 20
-13.2992432205
 30
0.0
  0
SPLINE
  5
2D2
100
AcDbEntity
  8
0
100
AcDbSpline
 62
7
  6
CONTINUOUS
 70
0
 71
3
 72
11
 73
7
 74
0
 42
0.0000001
 43
0.0000001
 44
0.0000000001
 40
0.0
 40
0.0
 40
0.0
 40
0.0
 40
0.2359062809
 40
0.4845328276
 40
0.7470086323
 40
1.0
 40
1.0
 40
1.0
 40
1.0
 10
-0.0166757351
 20
-13.1767378354
 30
0.0
 10
-0.0166757351
 20
-13.1919469871
 30
0.0
 10
-0.0138937306
 20
-13.2231812147
 30
0.0
 10
-0.0018774999
 20
-13.2702773053
 30
0.0
 10
0.0262742964
 20
-13.3123736853
 30
0.0
 10
0.0562768644
 20
-13.329843668
 30
0.0
 10
0.0719476273
 20
-13.3343674276
 30
0.0
  0
SPLINE
  5
2D3
100
AcDbEntity
  8
0
100
AcDbSpline
 62
7
  6
CONTINUOUS
 70
0
 71
3
 72
9
 73
5
 74
0
 42
0.0000001
 43
0.0000001
 44
0.0000000001
 40
0.0
 40
0.0
 40
0.0
 40
0.0
 40
0.5279083222
 40
1.0
 40
1.0
 40
1.0
 40
1.0
 10
0.0719476273
 20
-13.3343674276
 30
0.0
 10
0.0822796304
 20
-13.33735002
 30
0.0
 10
0.1032072449
 20
-13.3400661878
 30
0.0
 10
0.1231290395
 20
-13.3315236912
 30
0.0
 10
0.1303987024
 20
-13.3252279743
 30
0.0
  0
SPLINE
  5
2D4
100
AcDbEntity
  8
0
100
AcDbSpline
 62
7
  6
CONTINUOUS
 70
0
 71
3
 72
11
 73
7
 74
0
 42
0.0000001
 43
0.0000001
 44
0.0000000001
 40
0.0
 40
0.0
 40
0.0
 40
0.0
 40
0.2431774764
 40
0.4991664631
 40
0.7583311656
 40
1.0
 40
1.0
 40
1.0
 40
1.0
 10
-0.3381225306
 20
-12.982422428
 30
0.0
 10
-0.3315487813
 20
-12.9843200773
 30
0.0
 10
-0.3185980634
 20
-12.9899345991
 30
0.0
 10
-0.3006974271
 20
-13.0023339145
 30
0.0
 10
-0.2900648781
 20
-13.0216477407
 30
0.0
 10
-0.2881465763
 20
-13.0358445181
 30
0.0
 10
-0.2881465763
 20
-13.0426442374
 30
0.0
  0
SPLINE
  5
2D5
100
AcDbEntity
  8
0
100
AcDbSpline
 62
7
  6
CONTINUOUS
 70
0
 71
3
 72
9
 73
5
 74
0
 42
0.0000001
 43
0.0000001
 44
0.0000000001
 40
0.0
 40
0.0
 40
0.0
 40
0.0
 40
0.2671815277
 40
1.0
 40
1.0
 40
1.0
 40
1.0
 10
-0.2881465763
 20
-13.0426442374
 30
0.0
 10
-0.2881465763
 20
-13.0453842964
 30
0.0
 10
-0.2884121241
 20
-13.055534948
 30
0.0
 10
-0.2925042082
 20
-13.0663229677
 30
0.0
 10
-0.2981852863
 20
-13.0712429281
 30
0.0
  0
SPLINE
  5
2D6
100
AcDbEntity
  8
0
100
AcDbSpline
 62
7
  6
CONTINUOUS
 70
0
 71
3
 72
10
 73
6
 74
0
 42
0.0000001
 43
0.0000001
 44
0.0000000001
 40
0.0
 40
0.0
 40
0.0
 40
0.0
 40
0.5253144399
 40
0.7678346995
 40
1.0
 40
1.0
 40
1.0
 40
1.0
 10
-0.3297988901
 20
-13.1069406629
 30
0.0
 10
-0.3190477126
 20
-13.1100443272
 30
0.0
 10
-0.302352586
 20
-13.1123074747
 30
0.0
 10
-0.2812181778
 20
-13.1080363073
 30
0.0
 10
-0.2723747782
 20
-13.1026343965
 30
0.0
 10
-0.2686362836
 20
-13.0993967652
 30
0.0
  0
SPLINE
  5
2D7
100
AcDbEntity
  8
0
100
AcDbSpline
 62
7
  6
CONTINUOUS
 70
0
 71
3
 72
9
 73
5
 74
0
 42
0.0000001
 43
0.0000001
 44
0.0000000001
 40
0.0
 40
0.0
 40
0.0
 40
0.0
 40
0.4895462082
 40
1.0
 40
1.0
 40
1.0
 40
1.0
 10
0.344644835
 20
-0.1859068938
 30
0.0
 10
0.3553238024
 20
-0.1871674466
 30
0.0
 10
0.3770824954
 20
-0.1906937184
 30
0.0
 10
0.397972635
 20
-0.1978011175
 30
0.0
 10
0.408365941
 20
-0.2020077848
 30
0.0
  0
SPLINE
  5
2D8
100
AcDbEntity
  8
0
100
AcDbSpline
 62
7
  6
CONTINUOUS
 70
0
 71
3
 72
9
 73
5
 74
0
 42
0.0000001
 43
0.0000001
 44
0.0000000001
 40
0.0
 40
0.0
 40
0.0
 40
0.0
 40
0.5125417459
 40
1.0
 40
1.0
 40
1.0
 40
1.0
 10
0.408365941
 20
-0.2020077848
 30
0.0
 10
0.4210941228
 20
-0.2071598334
 30
0.0
 10
0.4435996637
 20
-0.2241176062
 30
0.0
 10
0.4541089156
 20
-0.250924108
 30
0.0
 10
0.4543122276
 20
-0.2639818795
 30
0.0
  0
SPLINE
  5
2D9
100
AcDbEntity
  8
0
100
AcDbSpline
 62
7
  6
CONTINUOUS
 70
0
 71
3
 72
9
 73
5
 74
0
 42
0.0000001
 43
0.0000001
 44
0.0000000001
 40
0.0
 40
0.0
 40
0.0
 40
0.0
 40
0.5235946843
 40
1.0
 40
1.0
 40
1.0
 40
1.0
 10
0.4543122276
 20
-0.2639818795
 30
0.0
 10
0.4544215564
 20
-0.2710987728
 30
0.0
 10
0.4535865998
 20
-0.284895289
 30
0.0
 10
0.4462977444
 20
-0.2973706628
 30
0.0
 10
0.4414021656
 20
-0.3016103583
 30
0.0
  0
SPLINE
  5
2DA
100
AcDbEntity
  8
0
100
AcDbSpline
 62
7
  6
CONTINUOUS
 70
0
 71
3
 72
9
 73
5
 74
0
 42
0.0000001
 43
0.0000001
 44
0.0000000001
 40
0.0
 40
0.0
 40
0.0
 40
0.0
 40
0.4944561017
 40
1.0
 40
1.0
 40
1.0
 40
1.0
 10
0.3909534555
 20
-0.3700629168
 30
0.0
 10
0.4016636325
 20
-0.3731546786
 30
0.0
 10
0.4216928541
 20
-0.3861877997
 30
0.0
 10
0.4326774898
 20
-0.4067014852
 30
0.0
 10
0.4363328648
 20
-0.4174968907
 30
0.0
  0
SPLINE
  5
2DB
100
AcDbEntity
  8
0
100
AcDbSpline
 62
7
  6
CONTINUOUS
 70
0
 71
3
 72
10
 73
6
 74
0
 42
0.0000001
 43
0.0000001
 44
0.0000000001
 40
0.0
 40
0.0
 40
0.0
 40
0.0
 40
0.250990448
 40
0.5009361231
 40
1.0
 40
1.0
 40
1.0
 40
1.0
 10
0.4363328648
 20
-0.4174968907
 30
0.0
 10
0.4399117717
 20
-0.4280563536
 30
0.0
 10
0.44567262
 20
-0.4495723397
 30
0.0
 10
0.4576184342
 20
-0.4923474858
 30
0.0
 10
0.4662117354
 20
-0.5244959258
 30
0.0
 10
0.471900036
 20
-0.5459231135
 30
0.0
  0
SPLINE
  5
2DC
100
AcDbEntity
  8
0
100
AcDbSpline
 62
7
  6
CONTINUOUS
 70
0
 71
3
 72
10
 73
6
 74
0
 42
0.0000001
 43
0.0000001
 44
0.0000000001
 40
0.0
 40
0.0
 40
0.0
 40
0.0
 40
0.2589639395
 40
0.5081973696
 40
1.0
 40
1.0
 40
1.0
 40
1.0
 10
0.4754474025
 20
-0.3627529169
 30
0.0
 10
0.4781876635
 20
-0.3631903801
 30
0.0
 10
0.4836077083
 20
-0.3610700617
 30
0.0
 10
0.4934332637
 20
-0.3572152004
 30
0.0
 10
0.5000409634
 20
-0.3524624762
 30
0.0
 10
0.5040246879
 20
-0.3490124696
 30
0.0
  0
SPLINE
  5
2DD
100
AcDbEntity
  8
0
100
AcDbSpline
 62
7
  6
CONTINUOUS
 70
0
 71
3
 72
9
 73
5
 74
0
 42
0.0000001
 43
0.0000001
 44
0.0000000001
 40
0.0
 40
0.0
 40
0.0
 40
0.0
 40
0.5134504562
 40
1.0
 40
1.0
 40
1.0
 40
1.0
 10
0.4670611241
 20
-0.1635174475
 30
0.0
 10
0.4367617003
 20
-0.1438242684
 30
0.0
 10
0.3692925844
 20
-0.1192684264
 30
0.0
 10
0.3002366045
 20
-0.1062687123
 30
0.0
 10
0.26633102
 20
-0.101469102
 30
0.0
  0
SPLINE
  5
2DE
100
AcDbEntity
  8
0
100
AcDbSpline
 62
7
  6
CONTINUOUS
 70
0
 71
3
 72
13
 73
9
 74
0
 42
0.0000001
 43
0.0000001
 44
0.0000000001
 40
0.0
 40
0.0
 40
0.0
 40
0.0
 40
0.1048780817
 40
0.2163779629
 40
0.3379755407
 40
0.4691998505
 40
0.7430660613
 40
1.0
 40
1.0
 40
1.0
 40
1.0
 10
-21.3861150825
 20
-5.9973147075
 30
0.0
 10
-21.4034068071
 20
-6.0122894747
 30
0.0
 10
-21.446001737
 20
-6.0358874091
 30
0.0
 10
-21.5206506262
 20
-6.0448573652
 30
0.0
 10
-21.5996633656
 20
-6.0287994788
 30
0.0
 10
-21.7030569832
 20
-5.976301125
 30
0.0
 10
-21.8052363499
 20
-5.8675757822
 30
0.0
 10
-21.8423187352
 20
-5.7515750911
 30
0.0
 10
-21.8423187352
 20
-5.6955361042
 30
0.0
  0
SPLINE
  5
2DF
100
AcDbEntity
  8
0
100
AcDbSpline
 62
7
  6
CONTINUOUS
 70
0
 71
3
 72
13
 73
9
 74
0
 42
0.0000001
 43
0.0000001
 44
0.0000000001
 40
0.0
 40
0.0
 40
0.0
 40
0.0
 40
0.1055827335
 40
0.218885872
 40
0.3419971295
 40
0.4737013723
 40
0.7457226498
 40
1.0
 40
1.0
 40
1.0
 40
1.0
 10
-21.3327521773
 20
-5.7712308538
 30
0.0
 10
-21.3430308628
 20
-5.7778129016
 30
0.0
 10
-21.3672471882
 20
-5.787259195
 30
0.0
 10
-21.4074120605
 20
-5.7881113554
 30
0.0
 10
-21.4489396486
 20
-5.7766431821
 30
0.0
 10
-21.5022676784
 20
-5.7462141563
 30
0.0
 10
-21.5542860203
 20
-5.6876019031
 30
0.0
 10
-21.5729053057
 20
-5.6266120687
 30
0.0
 10
-21.5729053057
 20
-5.5972172301
 30
0.0
  0
SPLINE
  5
2E0
100
AcDbEntity
  8
0
100
AcDbSpline
 62
7
  6
CONTINUOUS
 70
0
 71
3
 72
9
 73
5
 74
0
 42
0.0000001
 43
0.0000001
 44
0.0000000001
 40
0.0
 40
0.0
 40
0.0
 40
0.0
 40
0.518709626
 40
1.0
 40
1.0
 40
1.0
 40
1.0
 10
21.2087496413
 20
5.6086737528
 30
0.0
 10
21.2087496413
 20
5.6224186899
 30
0.0
 10
21.2125717114
 20
5.6491794433
 30
0.0
 10
21.2258016171
 20
5.6730144594
 30
0.0
 10
21.2341442808
 20
5.6826606455
 30
0.0
  0
SPLINE
  5
2E1
100
AcDbEntity
  8
0
100
AcDbSpline
 62
7
  6
CONTINUOUS
 70
0
 71
3
 72
9
 73
5
 74
0
 42
0.0000001
 43
0.0000001
 44
0.0000000001
 40
0.0
 40
0.0
 40
0.0
 40
0.0
 40
0.263217527
 40
1.0
 40
1.0
 40
1.0
 40
1.0
 10
21.0243362118
 20
5.5839670381
 30
0.0
 10
21.0243362118
 20
5.5937789872
 30
0.0
 10
21.0263964585
 20
5.6309898186
 30
0.0
 10
21.037690011
 20
5.6679735459
 30
0.0
 10
21.051469706
 20
5.6917316352
 30
0.0
  0
SPLINE
  5
2E2
100
AcDbEntity
  8
0
100
AcDbSpline
 62
7
  6
CONTINUOUS
 70
0
 71
3
 72
13
 73
9
 74
0
 42
0.0000001
 43
0.0000001
 44
0.0000000001
 40
0.0
 40
0.0
 40
0.0
 40
0.0
 40
0.2542773502
 40
0.5262986277
 40
0.6580028705
 40
0.781114128
 40
0.8944172665
 40
1.0
 40
1.0
 40
1.0
 40
1.0
 10
21.2087496413
 20
5.6086737528
 30
0.0
 10
21.2087496413
 20
5.5792789142
 30
0.0
 10
21.2273689267
 20
5.5182890799
 30
0.0
 10
21.2793872686
 20
5.4596768266
 30
0.0
 10
21.3327152984
 20
5.4292478008
 30
0.0
 10
21.3742428864
 20
5.4177796275
 30
0.0
 10
21.4144077587
 20
5.4186317879
 30
0.0
 10
21.4386240841
 20
5.4280780813
 30
0.0
 10
21.4489027697
 20
5.4346601292
 30
0.0
  0
SPLINE
  5
2E3
100
AcDbEntity
  8
0
100
AcDbSpline
 62
7
  6
CONTINUOUS
 70
0
 71
3
 72
13
 73
9
 74
0
 42
0.0000001
 43
0.0000001
 44
0.0000000001
 40
0.0
 40
0.0
 40
0.0
 40
0.0
 40
0.2506371149
 40
0.5197861362
 40
0.6517943617
 40
0.7766756239
 40
0.8925489363
 40
1.0
 40
1.0
 40
1.0
 40
1.0
 10
21.0243362118
 20
5.5839670381
 30
0.0
 10
21.0243362118
 20
5.5339701096
 30
0.0
 10
21.054083078
 20
5.4299787154
 30
0.0
 10
21.1387722682
 20
5.3268161164
 30
0.0
 10
21.2270191858
 20
5.2687538339
 30
0.0
 10
21.2973734461
 20
5.2424938433
 30
0.0
 10
21.3673125427
 20
5.2353770934
 30
0.0
 10
21.4118730099
 20
5.2445662854
 30
0.0
 10
21.4317620577
 20
5.2525571322
 30
0.0
  0
SPLINE
  5
2E4
100
AcDbEntity
  8
0
100
AcDbSpline
 62
7
  6
CONTINUOUS
 70
0
 71
3
 72
13
 73
9
 74
0
 42
0.0000001
 43
0.0000001
 44
0.0000000001
 40
0.0
 40
0.0
 40
0.0
 40
0.0
 40
0.1048780817
 40
0.2163779629
 40
0.3379755407
 40
0.4691998505
 40
0.7430660613
 40
1.0
 40
1.0
 40
1.0
 40
1.0
 10
21.3955398644
 20
5.2085762755
 30
0.0
 10
21.3782481399
 20
5.1936015083
 30
0.0
 10
21.3356532099
 20
5.1700035738
 30
0.0
 10
21.2610043208
 20
5.1610336177
 30
0.0
 10
21.1819915814
 20
5.1770915041
 30
0.0
 10
21.0785979637
 20
5.229589858
 30
0.0
 10
20.976418597
 20
5.3383152008
 30
0.0
 10
20.9393362118
 20
5.4543158919
 30
0.0
 10
20.9393362118
 20
5.5103548787
 30
0.0
  0
SPLINE
  5
2E5
100
AcDbEntity
  8
0
100
AcDbSpline
 62
7
  6
CONTINUOUS
 70
0
 71
3
 72
13
 73
9
 74
0
 42
0.0000001
 43
0.0000001
 44
0.0000000001
 40
0.0
 40
0.0
 40
0.0
 40
0.0
 40
0.2542773502
 40
0.5262986277
 40
0.6580028705
 40
0.781114128
 40
0.8944172665
 40
1.0
 40
1.0
 40
1.0
 40
1.0
 10
21.2087496413
 20
-17.9472172301
 30
0.0
 10
21.2087496413
 20
-17.9766120687
 30
0.0
 10
21.2273689267
 20
-18.0376019031
 30
0.0
 10
21.2793872686
 20
-18.0962141563
 30
0.0
 10
21.3327152984
 20
-18.1266431821
 30
0.0
 10
21.3742428864
 20
-18.1381113554
 30
0.0
 10
21.4144077587
 20
-18.137259195
 30
0.0
 10
21.4386240841
 20
-18.1278129016
 30
0.0
 10
21.4489027697
 20
-18.1212308538
 30
0.0
  0
SPLINE
  5
2E6
100
AcDbEntity
  8
0
100
AcDbSpline
 62
7
  6
CONTINUOUS
 70
0
 71
3
 72
13
 73
9
 74
0
 42
0.0000001
 43
0.0000001
 44
0.0000000001
 40
0.0
 40
0.0
 40
0.0
 40
0.0
 40
0.2506371149
 40
0.5197861362
 40
0.6517943617
 40
0.7766756239
 40
0.8925489363
 40
1.0
 40
1.0
 40
1.0
 40
1.0
 10
21.0243362118
 20
-17.9719239449
 30
0.0
 10
21.0243362118
 20
-18.0219208734
 30
0.0
 10
21.054083078
 20
-18.1259122676
 30
0.0
 10
21.1387722682
 20
-18.2290748666
 30
0.0
 10
21.2270191858
 20
-18.287137149
 30
0.0
 10
21.2973734461
 20
-18.3133971397
 30
0.0
 10
21.3673125427
 20
-18.3205138895
 30
0.0
 10
21.4118730099
 20
-18.3113246975
 30
0.0
 10
21.4317620577
 20
-18.3033338507
 30
0.0
  0
SPLINE
  5
2E7
100
AcDbEntity
  8
0
100
AcDbSpline
 62
7
  6
CONTINUOUS
 70
0
 71
3
 72
9
 73
5
 74
0
 42
0.0000001
 43
0.0000001
 44
0.0000000001
 40
0.0
 40
0.0
 40
0.0
 40
0.0
 40
0.518709626
 40
1.0
 40
1.0
 40
1.0
 40
1.0
 10
21.2087496413
 20
-17.9472172301
 30
0.0
 10
21.2087496413
 20
-17.933472293
 30
0.0
 10
21.2125717114
 20
-17.9067115397
 30
0.0
 10
21.2258016171
 20
-17.8828765236
 30
0.0
 10
21.2341442808
 20
-17.8732303375
 30
0.0
  0
SPLINE
  5
2E8
100
AcDbEntity
  8
0
100
AcDbSpline
 62
7
  6
CONTINUOUS
 70
0
 71
3
 72
9
 73
5
 74
0
 42
0.0000001
 43
0.0000001
 44
0.0000000001
 40
0.0
 40
0.0
 40
0.0
 40
0.0
 40
0.263217527
 40
1.0
 40
1.0
 40
1.0
 40
1.0
 10
21.0243362118
 20
-17.9719239449
 30
0.0
 10
21.0243362118
 20
-17.9621119958
 30
0.0
 10
21.0263964585
 20
-17.9249011643
 30
0.0
 10
21.037690011
 20
-17.887917437
 30
0.0
 10
21.051469706
 20
-17.8641593478
 30
0.0
  0
SPLINE
  5
2E9
100
AcDbEntity
  8
0
100
AcDbSpline
 62
7
  6
CONTINUOUS
 70
0
 71
3
 72
13
 73
9
 74
0
 42
0.0000001
 43
0.0000001
 44
0.0000000001
 40
0.0
 40
0.0
 40
0.0
 40
0.0
 40
0.2506371149
 40
0.5197861362
 40
0.6517943617
 40
0.7766756239
 40
0.8925489363
 40
1.0
 40
1.0
 40
1.0
 40
1.0
 10
-7.3812970324
 20
13.7839670381
 30
0.0
 10
-7.3812970324
 20
13.7339701096
 30
0.0
 10
-7.3515501661
 20
13.6299787154
 30
0.0
 10
-7.266860976
 20
13.5268161164
 30
0.0
 10
-7.1786140584
 20
13.4687538339
 30
0.0
 10
-7.1082597981
 20
13.4424938433
 30
0.0
 10
-7.0383207014
 20
13.4353770934
 30
0.0
 10
-6.9937602342
 20
13.4445662854
 30
0.0
 10
-6.9738711865
 20
13.4525571322
 30
0.0
  0
SPLINE
  5
2EA
100
AcDbEntity
  8
0
100
AcDbSpline
 62
7
  6
CONTINUOUS
 70
0
 71
3
 72
13
 73
9
 74
0
 42
0.0000001
 43
0.0000001
 44
0.0000000001
 40
0.0
 40
0.0
 40
0.0
 40
0.0
 40
0.2542773502
 40
0.5262986277
 40
0.6580028705
 40
0.781114128
 40
0.8944172665
 40
1.0
 40
1.0
 40
1.0
 40
1.0
 10
-7.1968836028
 20
13.8086737528
 30
0.0
 10
-7.1968836028
 20
13.7792789142
 30
0.0
 10
-7.1782643175
 20
13.7182890799
 30
0.0
 10
-7.1262459756
 20
13.6596768266
 30
0.0
 10
-7.0729179457
 20
13.6292478008
 30
0.0
 10
-7.0313903577
 20
13.6177796275
 30
0.0
 10
-6.9912254854
 20
13.6186317879
 30
0.0
 10
-6.96700916
 20
13.6280780813
 30
0.0
 10
-6.9567304745
 20
13.6346601292
 30
0.0
  0
SPLINE
  5
2EB
100
AcDbEntity
  8
0
100
AcDbSpline
 62
7
  6
CONTINUOUS
 70
0
 71
3
 72
9
 73
5
 74
0
 42
0.0000001
 43
0.0000001
 44
0.0000000001
 40
0.0
 40
0.0
 40
0.0
 40
0.0
 40
0.263217527
 40
1.0
 40
1.0
 40
1.0
 40
1.0
 10
-7.3812970324
 20
13.7839670381
 30
0.0
 10
-7.3812970324
 20
13.7937789872
 30
0.0
 10
-7.3792367856
 20
13.8309898186
 30
0.0
 10
-7.3679432331
 20
13.8679735459
 30
0.0
 10
-7.3541635381
 20
13.8917316352
 30
0.0
  0
SPLINE
  5
2EC
100
AcDbEntity
  8
0
100
AcDbSpline
 62
7
  6
CONTINUOUS
 70
0
 71
3
 72
9
 73
5
 74
0
 42
0.0000001
 43
0.0000001
 44
0.0000000001
 40
0.0
 40
0.0
 40
0.0
 40
0.0
 40
0.518709626
 40
1.0
 40
1.0
 40
1.0
 40
1.0
 10
-7.1968836028
 20
13.8086737528
 30
0.0
 10
-7.1968836028
 20
13.8224186899
 30
0.0
 10
-7.1930615327
 20
13.8491794433
 30
0.0
 10
-7.179831627
 20
13.8730144594
 30
0.0
 10
-7.1714889633
 20
13.8826606455
 30
0.0
  0
SPLINE
  5
2ED
100
AcDbEntity
  8
0
100
AcDbSpline
 62
7
  6
CONTINUOUS
 70
0
 71
3
 72
11
 73
7
 74
0
 42
0.0000001
 43
0.0000001
 44
0.0000000001
 40
0.0
 40
0.0
 40
0.0
 40
0.0
 40
0.2529913677
 40
0.5154671724
 40
0.7640937191
 40
1.0
 40
1.0
 40
1.0
 40
1.0
 10
0.0744476273
 20
-13.0681099018
 30
0.0
 10
0.0901183901
 20
-13.0726336613
 30
0.0
 10
0.1201209581
 20
-13.0901036441
 30
0.0
 10
0.1482727544
 20
-13.132200024
 30
0.0
 10
0.1602889851
 20
-13.1792961147
 30
0.0
 10
0.1630709896
 20
-13.2105303422
 30
0.0
 10
0.1630709896
 20
-13.225739494
 30
0.0
  0
SPLINE
  5
2EE
100
AcDbEntity
  8
0
100
AcDbSpline
 62
7
  6
CONTINUOUS
 70
0
 71
3
 72
12
 73
8
 74
0
 42
0.0000001
 43
0.0000001
 44
0.0000000001
 40
0.0
 40
0.0
 40
0.0
 40
0.0
 40
0.2565746014
 40
0.5172114668
 40
0.6421305647
 40
0.7638663506
 40
1.0
 40
1.0
 40
1.0
 40
1.0
 10
0.0719476273
 20
-13.3053061369
 30
0.0
 10
0.060564771
 20
-13.3020201894
 30
0.0
 10
0.0400469083
 20
-13.2865839331
 30
0.0
 10
0.027354913
 20
-13.2590697487
 30
0.0
 10
0.0222591391
 20
-13.2362026849
 30
0.0
 10
0.0185508141
 20
-13.214198865
 30
0.0
 10
0.0178991342
 20
-13.1976225064
 30
0.0
 10
0.0178991342
 20
-13.1867187404
 30
0.0
  0
SPLINE
  5
2EF
100
AcDbEntity
  8
0
100
AcDbSpline
 62
7
  6
CONTINUOUS
 70
0
 71
3
 72
9
 73
5
 74
0
 42
0.0000001
 43
0.0000001
 44
0.0000000001
 40
0.0
 40
0.0
 40
0.0
 40
0.0
 40
0.5222611821
 40
1.0
 40
1.0
 40
1.0
 40
1.0
 10
0.0178991342
 20
-13.1867187404
 30
0.0
 10
0.0178991342
 20
-13.1718537142
 30
0.0
 10
0.0198114055
 20
-13.1440899368
 30
0.0
 10
0.028985752
 20
-13.114301019
 30
0.0
 10
0.0392647175
 20
-13.1053991723
 30
0.0
  0
SPLINE
  5
2F0
100
AcDbEntity
  8
0
100
AcDbSpline
 62
7
  6
CONTINUOUS
 70
0
 71
3
 72
9
 73
5
 74
0
 42
0.0000001
 43
0.0000001
 44
0.0000000001
 40
0.0
 40
0.0
 40
0.0
 40
0.0
 40
0.5279083222
 40
1.0
 40
1.0
 40
1.0
 40
1.0
 10
0.0719476273
 20
-13.0702749653
 30
0.0
 10
0.0616156241
 20
-13.0672923729
 30
0.0
 10
0.0406880097
 20
-13.0645762051
 30
0.0
 10
0.020766215
 20
-13.0731187016
 30
0.0
 10
0.0134965521
 20
-13.0794144185
 30
0.0
  0
SPLINE
  5
2F1
100
AcDbEntity
  8
0
100
AcDbSpline
 62
7
  6
CONTINUOUS
 70
0
 71
3
 72
10
 73
6
 74
0
 42
0.0000001
 43
0.0000001
 44
0.0000000001
 40
0.0
 40
0.0
 40
0.0
 40
0.0
 40
0.5195725886
 40
0.7657114057
 40
1.0
 40
1.0
 40
1.0
 40
1.0
 10
0.1630709896
 20
-13.225739494
 30
0.0
 10
0.1630709896
 20
-13.2438355926
 30
0.0
 10
0.1601629877
 20
-13.2706041039
 30
0.0
 10
0.1496884119
 20
-13.3041388822
 30
0.0
 10
0.1390670649
 20
-13.3177209522
 30
0.0
 10
0.1328986888
 20
-13.3230629226
 30
0.0
  0
SPLINE
  5
2F2
100
AcDbEntity
  8
0
100
AcDbSpline
 62
7
  6
CONTINUOUS
 70
0
 71
3
 72
11
 73
7
 74
0
 42
0.0000001
 43
0.0000001
 44
0.0000000001
 40
0.0
 40
0.0
 40
0.0
 40
0.0
 40
0.2359062809
 40
0.4845328276
 40
0.7470086323
 40
1.0
 40
1.0
 40
1.0
 40
1.0
 10
0.1605709896
 20
-13.2279045575
 30
0.0
 10
0.1605709896
 20
-13.2126954058
 30
0.0
 10
0.1577889851
 20
-13.1814611782
 30
0.0
 10
0.1457727544
 20
-13.1343650875
 30
0.0
 10
0.1176209581
 20
-13.0922687076
 30
0.0
 10
0.0876183901
 20
-13.0747987249
 30
0.0
 10
0.0719476273
 20
-13.0702749653
 30
0.0
  0
SPLINE
  5
2F3
100
AcDbEntity
  8
0
100
AcDbSpline
 62
7
  6
CONTINUOUS
 70
0
 71
3
 72
12
 73
8
 74
0
 42
0.0000001
 43
0.0000001
 44
0.0000000001
 40
0.0
 40
0.0
 40
0.0
 40
0.0
 40
0.2565746014
 40
0.5172114668
 40
0.6421305647
 40
0.7638663506
 40
1.0
 40
1.0
 40
1.0
 40
1.0
 10
0.0744476273
 20
-13.3031410734
 30
0.0
 10
0.063064771
 20
-13.2998551259
 30
0.0
 10
0.0425469083
 20
-13.2844188696
 30
0.0
 10
0.029854913
 20
-13.2569046852
 30
0.0
 10
0.0247591391
 20
-13.2340376214
 30
0.0
 10
0.0210508141
 20
-13.2120338015
 30
0.0
 10
0.0203991342
 20
-13.1954574428
 30
0.0
 10
0.0203991342
 20
-13.1845536769
 30
0.0
  0
SPLINE
  5
2F4
100
AcDbEntity
  8
0
100
AcDbSpline
 62
7
  6
CONTINUOUS
 70
0
 71
3
 72
9
 73
5
 74
0
 42
0.0000001
 43
0.0000001
 44
0.0000000001
 40
0.0
 40
0.0
 40
0.0
 40
0.0
 40
0.263217527
 40
1.0
 40
1.0
 40
1.0
 40
1.0
 10
-7.3812970324
 20
-9.7719239449
 30
0.0
 10
-7.3812970324
 20
-9.7621119958
 30
0.0
 10
-7.3792367856
 20
-9.7249011643
 30
0.0
 10
-7.3679432331
 20
-9.687917437
 30
0.0
 10
-7.3541635381
 20
-9.6641593478
 30
0.0
  0
SPLINE
  5
2F5
100
AcDbEntity
  8
0
100
AcDbSpline
 62
7
  6
CONTINUOUS
 70
0
 71
3
 72
9
 73
5
 74
0
 42
0.0000001
 43
0.0000001
 44
0.0000000001
 40
0.0
 40
0.0
 40
0.0
 40
0.0
 40
0.518709626
 40
1.0
 40
1.0
 40
1.0
 40
1.0
 10
-7.1968836028
 20
-9.7472172301
 30
0.0
 10
-7.1968836028
 20
-9.733472293
 30
0.0
 10
-7.1930615327
 20
-9.7067115397
 30
0.0
 10
-7.179831627
 20
-9.6828765236
 30
0.0
 10
-7.1714889633
 20
-9.6732303375
 30
0.0
  0
SPLINE
  5
2F6
100
AcDbEntity
  8
0
100
AcDbSpline
 62
7
  6
CONTINUOUS
 70
0
 71
3
 72
13
 73
9
 74
0
 42
0.0000001
 43
0.0000001
 44
0.0000000001
 40
0.0
 40
0.0
 40
0.0
 40
0.0
 40
0.2506371149
 40
0.5197861362
 40
0.6517943617
 40
0.7766756239
 40
0.8925489363
 40
1.0
 40
1.0
 40
1.0
 40
1.0
 10
-7.3812970324
 20
-9.7719239449
 30
0.0
 10
-7.3812970324
 20
-9.8219208734
 30
0.0
 10
-7.3515501661
 20
-9.9259122676
 30
0.0
 10
-7.266860976
 20
-10.0290748666
 30
0.0
 10
-7.1786140584
 20
-10.087137149
 30
0.0
 10
-7.1082597981
 20
-10.1133971397
 30
0.0
 10
-7.0383207014
 20
-10.1205138895
 30
0.0
 10
-6.9937602342
 20
-10.1113246975
 30
0.0
 10
-6.9738711865
 20
-10.1033338507
 30
0.0
  0
SPLINE
  5
2F7
100
AcDbEntity
  8
0
100
AcDbSpline
 62
7
  6
CONTINUOUS
 70
0
 71
3
 72
13
 73
9
 74
0
 42
0.0000001
 43
0.0000001
 44
0.0000000001
 40
0.0
 40
0.0
 40
0.0
 40
0.0
 40
0.2542773502
 40
0.5262986277
 40
0.6580028705
 40
0.781114128
 40
0.8944172665
 40
1.0
 40
1.0
 40
1.0
 40
1.0
 10
-7.1968836028
 20
-9.7472172301
 30
0.0
 10
-7.1968836028
 20
-9.7766120687
 30
0.0
 10
-7.1782643175
 20
-9.8376019031
 30
0.0
 10
-7.1262459756
 20
-9.8962141563
 30
0.0
 10
-7.0729179457
 20
-9.9266431821
 30
0.0
 10
-7.0313903577
 20
-9.9381113554
 30
0.0
 10
-6.9912254854
 20
-9.937259195
 30
0.0
 10
-6.96700916
 20
-9.9278129016
 30
0.0
 10
-6.9567304745
 20
-9.9212308538
 30
0.0
  0
SPLINE
  5
2F8
100
AcDbEntity
  8
0
100
AcDbSpline
 62
7
  6
CONTINUOUS
 70
0
 71
3
 72
10
 73
6
 74
0
 42
0.0000001
 43
0.0000001
 44
0.0000000001
 40
0.0
 40
0.0
 40
0.0
 40
0.0
 40
0.264838842
 40
0.5216252726
 40
1.0
 40
1.0
 40
1.0
 40
1.0
 10
0.0203991342
 20
-13.1845536769
 30
0.0
 10
0.0203991342
 20
-13.1771443187
 30
0.0
 10
0.0206342304
 20
-13.162446083
 30
0.0
 10
0.0247340507
 20
-13.1351487677
 30
0.0
 10
0.0307968496
 20
-13.1135025439
 30
0.0
 10
0.0405464393
 20
-13.1043340402
 30
0.0
  0
SPLINE
  5
2F9
100
AcDbEntity
  8
0
100
AcDbSpline
 62
7
  6
CONTINUOUS
 70
0
 71
3
 72
13
 73
9
 74
0
 42
0.0000001
 43
0.0000001
 44
0.0000000001
 40
0.0
 40
0.0
 40
0.0
 40
0.0
 40
0.2569339387
 40
0.5308001495
 40
0.6620244593
 40
0.7836220371
 40
0.8951219183
 40
1.0
 40
1.0
 40
1.0
 40
1.0
 10
-21.8423187352
 20
17.8603548787
 30
0.0
 10
-21.8423187352
 20
17.8043158919
 30
0.0
 10
-21.8052363499
 20
17.6883152008
 30
0.0
 10
-21.7030569832
 20
17.579589858
 30
0.0
 10
-21.5996633656
 20
17.5270915041
 30
0.0
 10
-21.5206506262
 20
17.5110336177
 30
0.0
 10
-21.446001737
 20
17.5200035738
 30
0.0
 10
-21.4034068071
 20
17.5436015083
 30
0.0
 10
-21.3861150825
 20
17.5585762755
 30
0.0
  0
SPLINE
  5
2FA
100
AcDbEntity
  8
RACCORDO
100
AcDbSpline
 62
250
  6
CONTINUOUS
 70
0
 71
3
 72
11
 73
7
 74
0
 42
0.0000001
 43
0.0000001
 44
0.0000000001
 40
0.0
 40
0.0
 40
0.0
 40
0.0
 40
0.3270103292
 40
0.600464447
 40
0.8193112485
 40
1.0
 40
1.0
 40
1.0
 40
1.0
 10
-22.4485365178
 20
-7.079381831
 30
0.0
 10
-22.4485365178
 20
-7.0925959492
 30
0.0
 10
-22.446989683
 20
-7.1169333564
 30
0.0
 10
-22.438813515
 20
-7.1492493372
 30
0.0
 10
-22.4251653161
 20
-7.1733993037
 30
0.0
 10
-22.4110215772
 20
-7.1829082112
 30
0.0
 10
-22.4040065303
 20
-7.1849330505
 30
0.0
  0
SPLINE
  5
2FB
100
AcDbEntity
  8
RACCORDO
100
AcDbSpline
 62
250
  6
CONTINUOUS
 70
0
 71
3
 72
11
 73
7
 74
0
 42
0.0000001
 43
0.0000001
 44
0.0000000001
 40
0.0
 40
0.0
 40
0.0
 40
0.0
 40
0.3270103292
 40
0.600464447
 40
0.8193112485
 40
1.0
 40
1.0
 40
1.0
 40
1.0
 10
22.0651692367
 20
-19.929381831
 30
0.0
 10
22.0651692367
 20
-19.9425959492
 30
0.0
 10
22.0667160715
 20
-19.9669333564
 30
0.0
 10
22.0748922396
 20
-19.9992493372
 30
0.0
 10
22.0885404385
 20
-20.0233993037
 30
0.0
 10
22.1026841773
 20
-20.0329082112
 30
0.0
 10
22.1096992242
 20
-20.0349330505
 30
0.0
  0
SPLINE
  5
2FC
100
AcDbEntity
  8
RACCORDO
100
AcDbSpline
 62
250
  6
CONTINUOUS
 70
0
 71
3
 72
11
 73
7
 74
0
 42
0.0000001
 43
0.0000001
 44
0.0000000001
 40
0.0
 40
0.0
 40
0.0
 40
0.0
 40
0.2637515295
 40
0.5379163091
 40
0.7915791086
 40
1.0
 40
1.0
 40
1.0
 40
1.0
 10
22.7579895597
 20
-19.436561508
 30
0.0
 10
22.7819932812
 20
-19.4434907855
 30
0.0
 10
22.8327522837
 20
-19.4515949783
 30
0.0
 10
22.9081495376
 20
-19.4492304839
 30
0.0
 10
22.9764722811
 20
-19.4334974299
 30
0.0
 10
23.0162705845
 20
-19.4128835792
 30
0.0
 10
23.0311946405
 20
-19.3999589676
 30
0.0
  0
SPLINE
  5
2FD
100
AcDbEntity
  8
RACCORDO
100
AcDbSpline
 62
250
  6
CONTINUOUS
 70
0
 71
3
 72
11
 73
7
 74
0
 42
0.0000001
 43
0.0000001
 44
0.0000000001
 40
0.0
 40
0.0
 40
0.0
 40
0.0
 40
0.2637515295
 40
0.5379163091
 40
0.7915791086
 40
1.0
 40
1.0
 40
1.0
 40
1.0
 10
22.7579895597
 20
5.8513802825
 30
0.0
 10
22.7819932812
 20
5.844451005
 30
0.0
 10
22.8327522837
 20
5.8363468122
 30
0.0
 10
22.9081495376
 20
5.8387113066
 30
0.0
 10
22.9764722811
 20
5.8544443606
 30
0.0
 10
23.0162705845
 20
5.8750582113
 30
0.0
 10
23.0311946405
 20
5.8879828229
 30
0.0
  0
SPLINE
  5
2FE
100
AcDbEntity
  8
RACCORDO
100
AcDbSpline
 62
250
  6
CONTINUOUS
 70
0
 71
3
 72
11
 73
7
 74
0
 42
0.0000001
 43
0.0000001
 44
0.0000000001
 40
0.0
 40
0.0
 40
0.0
 40
0.0
 40
0.2574389975
 40
0.5316183047
 40
0.788881474
 40
1.0
 40
1.0
 40
1.0
 40
1.0
 10
22.0651692367
 20
6.7442006055
 30
0.0
 10
22.0651692367
 20
6.768624424
 30
0.0
 10
22.071043833
 20
6.8190858658
 30
0.0
 10
22.0919265571
 20
6.8913009736
 30
0.0
 10
22.1225244109
 20
6.9550282557
 30
0.0
 10
22.150028516
 20
6.9908959779
 30
0.0
 10
22.1651692367
 20
7.0040082267
 30
0.0
  0
SPLINE
  5
2FF
100
AcDbEntity
  8
RACCORDO
100
AcDbSpline
 62
250
  6
CONTINUOUS
 70
0
 71
3
 72
11
 73
7
 74
0
 42
0.0000001
 43
0.0000001
 44
0.0000000001
 40
0.0
 40
0.0
 40
0.0
 40
0.0
 40
0.2574389975
 40
0.5316183047
 40
0.788881474
 40
1.0
 40
1.0
 40
1.0
 40
1.0
 10
-22.4485365178
 20
19.5942006055
 30
0.0
 10
-22.4485365178
 20
19.618624424
 30
0.0
 10
-22.4426619215
 20
19.6690858658
 30
0.0
 10
-22.4217791974
 20
19.7413009736
 30
0.0
 10
-22.3911813436
 20
19.8050282557
 30
0.0
 10
-22.3636772385
 20
19.8408959779
 30
0.0
 10
-22.3485365178
 20
19.8540082267
 30
0.0
  0
SPLINE
  5
300
100
AcDbEntity
  8
RACCORDO
100
AcDbSpline
 62
250
  6
CONTINUOUS
 70
0
 71
3
 72
11
 73
7
 74
0
 42
0.0000001
 43
0.0000001
 44
0.0000000001
 40
0.0
 40
0.0
 40
0.0
 40
0.0
 40
0.3160264554
 40
0.5862562135
 40
0.8093515427
 40
1.0
 40
1.0
 40
1.0
 40
1.0
 10
-23.1413568408
 20
19.1013802825
 30
0.0
 10
-23.155565064
 20
19.1054818433
 30
0.0
 10
-23.1814517536
 20
19.1150610402
 30
0.0
 10
-23.2138832923
 20
19.1352350881
 30
0.0
 10
-23.2356989131
 20
19.1595516618
 30
0.0
 10
-23.2413565478
 20
19.1790614708
 30
0.0
 10
-23.2413567464
 20
19.1879828229
 30
0.0
  0
SPLINE
  5
301
100
AcDbEntity
  8
RACCORDO
100
AcDbSpline
 62
250
  6
CONTINUOUS
 70
0
 71
3
 72
11
 73
7
 74
0
 42
0.0000001
 43
0.0000001
 44
0.0000000001
 40
0.0
 40
0.0
 40
0.0
 40
0.0
 40
0.3160264554
 40
0.5862562135
 40
0.8093515427
 40
1.0
 40
1.0
 40
1.0
 40
1.0
 10
-23.1413568408
 20
-6.186561508
 30
0.0
 10
-23.155565064
 20
-6.1824599472
 30
0.0
 10
-23.1814517536
 20
-6.1728807503
 30
0.0
 10
-23.2138832923
 20
-6.1527067024
 30
0.0
 10
-23.2356989131
 20
-6.1283901287
 30
0.0
 10
-23.2413565478
 20
-6.1088803197
 30
0.0
 10
-23.2413567464
 20
-6.0999589676
 30
0.0
  0
SPLINE
  5
302
100
AcDbEntity
  8
0
100
AcDbSpline
 62
7
  6
CONTINUOUS
 70
0
 71
3
 72
13
 73
9
 74
0
 42
0.0000001
 43
0.0000001
 44
0.0000000001
 40
0.0
 40
0.0
 40
0.0
 40
0.0
 40
0.1074510637
 40
0.2233243761
 40
0.3482056383
 40
0.4802138638
 40
0.7493628851
 40
1.0
 40
1.0
 40
1.0
 40
1.0
 10
-21.3498928893
 20
17.6025571322
 30
0.0
 10
-21.3697819371
 20
17.5945662854
 30
0.0
 10
-21.4143424042
 20
17.5853770934
 30
0.0
 10
-21.4842815009
 20
17.5924938433
 30
0.0
 10
-21.5546357612
 20
17.6187538339
 30
0.0
 10
-21.6428826788
 20
17.6768161164
 30
0.0
 10
-21.7275718689
 20
17.7799787154
 30
0.0
 10
-21.7573187352
 20
17.8839701096
 30
0.0
 10
-21.7573187352
 20
17.9339670381
 30
0.0
  0
SPLINE
  5
303
100
AcDbEntity
  8
0
100
AcDbSpline
 62
7
  6
CONTINUOUS
 70
0
 71
3
 72
13
 73
9
 74
0
 42
0.0000001
 43
0.0000001
 44
0.0000000001
 40
0.0
 40
0.0
 40
0.0
 40
0.0
 40
0.1055827335
 40
0.218885872
 40
0.3419971295
 40
0.4737013723
 40
0.7457226498
 40
1.0
 40
1.0
 40
1.0
 40
1.0
 10
-21.3327521773
 20
17.7846601292
 30
0.0
 10
-21.3430308628
 20
17.7780780813
 30
0.0
 10
-21.3672471882
 20
17.7686317879
 30
0.0
 10
-21.4074120605
 20
17.7677796275
 30
0.0
 10
-21.4489396486
 20
17.7792478008
 30
0.0
 10
-21.5022676784
 20
17.8096768266
 30
0.0
 10
-21.5542860203
 20
17.8682890799
 30
0.0
 10
-21.5729053057
 20
17.9292789142
 30
0.0
 10
-21.5729053057
 20
17.9586737528
 30
0.0
  0
SPLINE
  5
304
100
AcDbEntity
  8
0
100
AcDbSpline
 62
7
  6
CONTINUOUS
 70
0
 71
3
 72
9
 73
5
 74
0
 42
0.0000001
 43
0.0000001
 44
0.0000000001
 40
0.0
 40
0.0
 40
0.0
 40
0.0
 40
0.4799989066
 40
1.0
 40
1.0
 40
1.0
 40
1.0
 10
-21.7789071456
 20
18.012133482
 30
0.0
 10
-21.7992773561
 20
17.9944927222
 30
0.0
 10
-21.8328433638
 20
17.9465687241
 30
0.0
 10
-21.8423187352
 20
17.8895476116
 30
0.0
 10
-21.8423187352
 20
17.8603548787
 30
0.0
  0
SPLINE
  5
305
100
AcDbEntity
  8
RACCORDO
100
AcDbSpline
 62
250
  6
CONTINUOUS
 70
0
 71
3
 72
11
 73
7
 74
0
 42
0.0000001
 43
0.0000001
 44
0.0000000001
 40
0.0
 40
0.0
 40
0.0
 40
0.0
 40
0.2379953763
 40
0.4943834349
 40
0.7539153798
 40
1.0
 40
1.0
 40
1.0
 40
1.0
 10
23.0311946405
 20
5.8879828229
 30
0.0
 10
23.0311946405
 20
6.0068461999
 30
0.0
 10
22.9803400142
 20
6.2547089908
 30
0.0
 10
22.79118817
 20
6.5862249241
 30
0.0
 10
22.5136748107
 20
6.8539326871
 30
0.0
 10
22.2832510365
 20
6.9699209472
 30
0.0
 10
22.1651692367
 20
7.0040082267
 30
0.0
  0
SPLINE
  5
306
100
AcDbEntity
  8
0
100
AcDbSpline
 62
7
  6
CONTINUOUS
 70
0
 71
3
 72
11
 73
7
 74
0
 42
0.0000001
 43
0.0000001
 44
0.0000000001
 40
0.0
 40
0.0
 40
0.0
 40
0.0
 40
0.2393883654
 40
0.4966561939
 40
0.7550645266
 40
1.0
 40
1.0
 40
1.0
 40
1.0
 10
-0.2513642364
 20
-13.0532623844
 30
0.0
 10
-0.2513642364
 20
-13.0424776285
 30
0.0
 10
-0.2548040846
 20
-13.0199001227
 30
0.0
 10
-0.2717718105
 20
-12.9895101756
 30
0.0
 10
-0.2982544486
 20
-12.9668773294
 30
0.0
 10
-0.3191966459
 20
-12.9573604292
 30
0.0
 10
-0.3297984078
 20
-12.9542999766
 30
0.0
  0
SPLINE
  5
307
100
AcDbEntity
  8
RACCORDO
100
AcDbSpline
 62
250
  6
CONTINUOUS
 70
0
 71
3
 72
11
 73
7
 74
0
 42
0.0000001
 43
0.0000001
 44
0.0000000001
 40
0.0
 40
0.0
 40
0.0
 40
0.0
 40
0.2709660828
 40
0.5256492432
 40
0.7667315482
 40
1.0
 40
1.0
 40
1.0
 40
1.0
 10
-22.3485365178
 20
19.8540082267
 30
0.0
 10
-22.4084695943
 20
19.8713094156
 30
0.0
 10
-22.5284055603
 20
19.8938560077
 30
0.0
 10
-22.7064247863
 20
19.8872632174
 30
0.0
 10
-22.8691259154
 20
19.8388498105
 30
0.0
 10
-22.9625955248
 20
19.7790679161
 30
0.0
 10
-23.0031901196
 20
19.7439116893
 30
0.0
  0
SPLINE
  5
308
100
AcDbEntity
  8
0
100
AcDbSpline
 62
7
  6
CONTINUOUS
 70
0
 71
3
 72
9
 73
5
 74
0
 42
0.0000001
 43
0.0000001
 44
0.0000000001
 40
0.0
 40
0.0
 40
0.0
 40
0.0
 40
0.2399599352
 40
1.0
 40
1.0
 40
1.0
 40
1.0
 10
-21.7301852409
 20
18.0417316352
 30
0.0
 10
-21.7346749199
 20
18.0339908112
 30
0.0
 10
-21.7510097802
 20
18.000355559
 30
0.0
 10
-21.7573187352
 20
17.9623105198
 30
0.0
 10
-21.7573187352
 20
17.9339670381
 30
0.0
  0
SPLINE
  5
309
100
AcDbEntity
  8
0
100
AcDbSpline
 62
7
  6
CONTINUOUS
 70
0
 71
3
 72
9
 73
5
 74
0
 42
0.0000001
 43
0.0000001
 44
0.0000000001
 40
0.0
 40
0.0
 40
0.0
 40
0.0
 40
0.481290374
 40
1.0
 40
1.0
 40
1.0
 40
1.0
 10
-21.5475106661
 20
18.0326606455
 30
0.0
 10
-21.5558533299
 20
18.0230144594
 30
0.0
 10
-21.5690832356
 20
17.9991794433
 30
0.0
 10
-21.5729053057
 20
17.9724186899
 30
0.0
 10
-21.5729053057
 20
17.9586737528
 30
0.0
  0
SPLINE
  5
30A
100
AcDbEntity
  8
0
100
AcDbSpline
 62
7
  6
CONTINUOUS
 70
0
 71
3
 72
9
 73
5
 74
0
 42
0.0000001
 43
0.0000001
 44
0.0000000001
 40
0.0
 40
0.0
 40
0.0
 40
0.0
 40
0.2399599352
 40
1.0
 40
1.0
 40
1.0
 40
1.0
 10
-21.7301852409
 20
-5.5141593478
 30
0.0
 10
-21.7346749199
 20
-5.5219001717
 30
0.0
 10
-21.7510097802
 20
-5.5555354239
 30
0.0
 10
-21.7573187352
 20
-5.5935804631
 30
0.0
 10
-21.7573187352
 20
-5.6219239449
 30
0.0
  0
SPLINE
  5
30B
100
AcDbEntity
  8
0
100
AcDbSpline
 62
7
  6
CONTINUOUS
 70
0
 71
3
 72
9
 73
5
 74
0
 42
0.0000001
 43
0.0000001
 44
0.0000000001
 40
0.0
 40
0.0
 40
0.0
 40
0.0
 40
0.5200010934
 40
1.0
 40
1.0
 40
1.0
 40
1.0
 10
20.9393362118
 20
5.5103548787
 30
0.0
 10
20.9393362118
 20
5.5395476116
 30
0.0
 10
20.9488115832
 20
5.5965687241
 30
0.0
 10
20.9823775909
 20
5.6444927222
 30
0.0
 10
21.0027478014
 20
5.662133482
 30
0.0
  0
SPLINE
  5
30C
100
AcDbEntity
  8
0
100
AcDbSpline
 62
7
  6
CONTINUOUS
 70
0
 71
3
 72
9
 73
5
 74
0
 42
0.0000001
 43
0.0000001
 44
0.0000000001
 40
0.0
 40
0.0
 40
0.0
 40
0.0
 40
0.2355100071
 40
1.0
 40
1.0
 40
1.0
 40
1.0
 10
0.1004140825
 20
-13.3016673437
 30
0.0
 10
0.0985713699
 20
-13.3026151865
 30
0.0
 10
0.0902989165
 20
-13.305820021
 30
0.0
 10
0.0809103002
 20
-13.3050066864
 30
0.0
 10
0.0744476273
 20
-13.3031410734
 30
0.0
  0
SPLINE
  5
30D
100
AcDbEntity
  8
0
100
AcDbSpline
 62
7
  6
CONTINUOUS
 70
0
 71
3
 72
9
 73
5
 74
0
 42
0.0000001
 43
0.0000001
 44
0.0000000001
 40
0.0
 40
0.0
 40
0.0
 40
0.0
 40
0.4738539811
 40
1.0
 40
1.0
 40
1.0
 40
1.0
 10
0.104630537
 20
-13.2992432205
 30
0.0
 10
0.1005184145
 20
-13.3028044237
 30
0.0
 10
0.089730148
 20
-13.3083896718
 30
0.0
 10
0.0777508041
 20
-13.3069813698
 30
0.0
 10
0.0719476273
 20
-13.3053061369
 30
0.0
  0
SPLINE
  5
30E
100
AcDbEntity
  8
0
100
AcDbSpline
 62
7
  6
CONTINUOUS
 70
0
 71
3
 72
10
 73
6
 74
0
 42
0.0000001
 43
0.0000001
 44
0.0000000001
 40
0.0
 40
0.0
 40
0.0
 40
0.0
 40
0.2342885958
 40
0.4804274154
 40
1.0
 40
1.0
 40
1.0
 40
1.0
 10
0.1303987024
 20
-13.3252279743
 30
0.0
 10
0.1365670758
 20
-13.3198860028
 30
0.0
 10
0.1471884176
 20
-13.3063039328
 30
0.0
 10
0.1576629883
 20
-13.2727691594
 30
0.0
 10
0.1605709896
 20
-13.2460006529
 30
0.0
 10
0.1605709896
 20
-13.2279045575
 30
0.0
  0
SPLINE
  5
30F
100
AcDbEntity
  8
0
100
AcDbSpline
 62
7
  6
CONTINUOUS
 70
0
 71
3
 72
9
 73
5
 74
0
 42
0.0000001
 43
0.0000001
 44
0.0000000001
 40
0.0
 40
0.0
 40
0.0
 40
0.0
 40
0.4799989066
 40
1.0
 40
1.0
 40
1.0
 40
1.0
 10
21.0027478014
 20
-17.8937575009
 30
0.0
 10
20.9823775909
 20
-17.9113982608
 30
0.0
 10
20.9488115832
 20
-17.9593222588
 30
0.0
 10
20.9393362118
 20
-18.0163433714
 30
0.0
 10
20.9393362118
 20
-18.0455361042
 30
0.0
  0
SPLINE
  5
310
100
AcDbEntity
  8
0
100
AcDbSpline
 62
7
  6
CONTINUOUS
 70
0
 71
3
 72
9
 73
5
 74
0
 42
0.0000001
 43
0.0000001
 44
0.0000000001
 40
0.0
 40
0.0
 40
0.0
 40
0.0
 40
0.4729290226
 40
1.0
 40
1.0
 40
1.0
 40
1.0
 10
0.0183197188
 20
-13.0753474347
 30
0.0
 10
0.0255832313
 20
-13.0697394486
 30
0.0
 10
0.044822207
 20
-13.0626130998
 30
0.0
 10
0.0646218012
 20
-13.0652734301
 30
0.0
 10
0.0744476273
 20
-13.0681099018
 30
0.0
  0
SPLINE
  5
311
100
AcDbEntity
  8
0
100
AcDbSpline
 62
7
  6
CONTINUOUS
 70
0
 71
3
 72
9
 73
5
 74
0
 42
0.0000001
 43
0.0000001
 44
0.0000000001
 40
0.0
 40
0.0
 40
0.0
 40
0.0
 40
0.5200010934
 40
1.0
 40
1.0
 40
1.0
 40
1.0
 10
-21.8423187352
 20
-5.6955361042
 30
0.0
 10
-21.8423187352
 20
-5.6663433714
 30
0.0
 10
-21.8328433638
 20
-5.6093222588
 30
0.0
 10
-21.7992773561
 20
-5.5613982608
 30
0.0
 10
-21.7789071456
 20
-5.5437575009
 30
0.0
  0
SPLINE
  5
312
100
AcDbEntity
  8
0
100
AcDbSpline
 62
7
  6
CONTINUOUS
 70
0
 71
3
 72
9
 73
5
 74
0
 42
0.0000001
 43
0.0000001
 44
0.0000000001
 40
0.0
 40
0.0
 40
0.0
 40
0.0
 40
0.4808526544
 40
1.0
 40
1.0
 40
1.0
 40
1.0
 10
-0.3020897021
 20
-13.0728624973
 30
0.0
 10
-0.3071627665
 20
-13.0747998594
 30
0.0
 10
-0.318843606
 20
-13.0752929114
 30
0.0
 10
-0.3299888688
 20
-13.0734736169
 30
0.0
 10
-0.3356217538
 20
-13.0718475769
 30
0.0
  0
SPLINE
  5
313
100
AcDbEntity
  8
0
100
AcDbSpline
 62
7
  6
CONTINUOUS
 70
0
 71
3
 72
9
 73
5
 74
0
 42
0.0000001
 43
0.0000001
 44
0.0000000001
 40
0.0
 40
0.0
 40
0.0
 40
0.0
 40
0.4716381414
 40
1.0
 40
1.0
 40
1.0
 40
1.0
 10
-0.2981852863
 20
-13.0712429281
 30
0.0
 10
-0.303059316
 20
-13.0754639637
 30
0.0
 10
-0.3177904658
 20
-13.0782676453
 30
0.0
 10
-0.3311819303
 20
-13.0760159547
 30
0.0
 10
-0.33812177
 20
-13.0740126358
 30
0.0
  0
SPLINE
  5
314
100
AcDbEntity
  8
0
100
AcDbSpline
 62
7
  6
CONTINUOUS
 70
0
 71
3
 72
9
 73
5
 74
0
 42
0.0000001
 43
0.0000001
 44
0.0000000001
 40
0.0
 40
0.0
 40
0.0
 40
0.0
 40
0.4782032695
 40
1.0
 40
1.0
 40
1.0
 40
1.0
 10
-0.2644144148
 20
-13.0956568276
 30
0.0
 10
-0.2588904064
 20
-13.0903211838
 30
0.0
 10
-0.2505174396
 20
-13.0757283592
 30
0.0
 10
-0.2488642364
 20
-13.0594775338
 30
0.0
 10
-0.2488642364
 20
-13.0510973209
 30
0.0
  0
SPLINE
  5
315
100
AcDbEntity
  8
0
100
AcDbSpline
 62
7
  6
CONTINUOUS
 70
0
 71
3
 72
9
 73
5
 74
0
 42
0.0000001
 43
0.0000001
 44
0.0000000001
 40
0.0
 40
0.0
 40
0.0
 40
0.0
 40
0.4771581961
 40
1.0
 40
1.0
 40
1.0
 40
1.0
 10
-0.2686362836
 20
-13.0993967652
 30
0.0
 10
-0.262571104
 20
-13.0941441656
 30
0.0
 10
-0.253176898
 20
-13.0791113313
 30
0.0
 10
-0.2513642364
 20
-13.0620540388
 30
0.0
 10
-0.2513642364
 20
-13.0532623844
 30
0.0
  0
SPLINE
  5
316
100
AcDbEntity
  8
0
100
AcDbSpline
 62
7
  6
CONTINUOUS
 70
0
 71
3
 72
13
 73
9
 74
0
 42
0.0000001
 43
0.0000001
 44
0.0000000001
 40
0.0
 40
0.0
 40
0.0
 40
0.0
 40
0.2569339387
 40
0.5308001495
 40
0.6620244593
 40
0.7836220371
 40
0.8951219183
 40
1.0
 40
1.0
 40
1.0
 40
1.0
 10
20.9393362118
 20
-18.0455361042
 30
0.0
 10
20.9393362118
 20
-18.1015750911
 30
0.0
 10
20.976418597
 20
-18.2175757822
 30
0.0
 10
21.0785979637
 20
-18.326301125
 30
0.0
 10
21.1819915814
 20
-18.3787994788
 30
0.0
 10
21.2610043208
 20
-18.3948573652
 30
0.0
 10
21.3356532099
 20
-18.3858874091
 30
0.0
 10
21.3782481399
 20
-18.3622894747
 30
0.0
 10
21.3955398644
 20
-18.3473147075
 30
0.0
  0
SPLINE
  5
317
100
AcDbEntity
  8
0
100
AcDbSpline
 62
7
  6
CONTINUOUS
 70
0
 71
3
 72
9
 73
5
 74
0
 42
0.0000001
 43
0.0000001
 44
0.0000000001
 40
0.0
 40
0.0
 40
0.0
 40
0.0
 40
0.2313887683
 40
1.0
 40
1.0
 40
1.0
 40
1.0
 10
0.436904448
 20
-0.3040100613
 30
0.0
 10
0.4338468279
 20
-0.3054535123
 30
0.0
 10
0.4195889635
 20
-0.3094888737
 30
0.0
 10
0.4044819058
 20
-0.3070215465
 30
0.0
 10
0.3936287784
 20
-0.304130931
 30
0.0
  0
SPLINE
  5
318
100
AcDbEntity
  8
0
100
AcDbSpline
 62
7
  6
CONTINUOUS
 70
0
 71
3
 72
10
 73
6
 74
0
 42
0.0000001
 43
0.0000001
 44
0.0000000001
 40
0.0
 40
0.0
 40
0.0
 40
0.0
 40
0.2281209022
 40
0.5976549447
 40
1.0
 40
1.0
 40
1.0
 40
1.0
 10
0.4414021656
 20
-0.3016103583
 30
0.0
 10
0.4383976852
 20
-0.3042123145
 30
0.0
 10
0.429028525
 20
-0.3094285189
 30
0.0
 10
0.4111611004
 20
-0.3105852523
 30
0.0
 10
0.3979026987
 20
-0.3081001565
 30
0.0
 10
0.3911287784
 20
-0.3062959946
 30
0.0
  0
SPLINE
  5
319
100
AcDbEntity
  8
0
100
AcDbSpline
 62
7
  6
CONTINUOUS
 70
0
 71
3
 72
15
 73
11
 74
0
 42
0.0000001
 43
0.0000001
 44
0.0000000001
 40
0.0
 40
0.0
 40
0.0
 40
0.0
 40
0.1053179874
 40
0.2153345864
 40
0.3322067857
 40
0.4558765727
 40
0.5865075981
 40
0.7228186574
 40
0.861971652
 40
1.0
 40
1.0
 40
1.0
 40
1.0
 10
0.5088404346
 20
-0.3447485736
 30
0.0
 10
0.514202283
 20
-0.3396633515
 30
0.0
 10
0.5235145652
 20
-0.3273920109
 30
0.0
 10
0.5315280581
 20
-0.3051907939
 30
0.0
 10
0.5338669131
 20
-0.2805161065
 30
0.0
 10
0.5315315243
 20
-0.2544339025
 30
0.0
 10
0.5237595561
 20
-0.2279605557
 30
0.0
 10
0.5104378254
 20
-0.2025521803
 30
0.0
 10
0.4923120448
 20
-0.1797640671
 30
0.0
 10
0.4776835298
 20
-0.1666273071
 30
0.0
 10
0.4695611241
 20
-0.161352384
 30
0.0
  0
SPLINE
  5
31A
100
AcDbEntity
  8
0
100
AcDbSpline
 62
7
  6
CONTINUOUS
 70
0
 71
3
 72
15
 73
11
 74
0
 42
0.0000001
 43
0.0000001
 44
0.0000000001
 40
0.0
 40
0.0
 40
0.0
 40
0.0
 40
0.1052551839
 40
0.2149008921
 40
0.3314195136
 40
0.4549177126
 40
0.5855058985
 40
0.7220172328
 40
0.8615404568
 40
1.0
 40
1.0
 40
1.0
 40
1.0
 10
0.5040246879
 20
-0.3490124696
 30
0.0
 10
0.5096896331
 20
-0.3441064831
 30
0.0
 10
0.519649144
 20
-0.3320801345
 30
0.0
 10
0.5284966421
 20
-0.3098575322
 30
0.0
 10
0.5313880331
 20
-0.2849201079
 30
0.0
 10
0.5293894761
 20
-0.2584599799
 30
0.0
 10
0.5218453893
 20
-0.2314957602
 30
0.0
 10
0.5085219185
 20
-0.2055594874
 30
0.0
 10
0.490191592
 20
-0.1822908644
 30
0.0
 10
0.4753287603
 20
-0.1688866875
 30
0.0
 10
0.4670611241
 20
-0.1635174475
 30
0.0
  0
SPLINE
  5
31B
100
AcDbEntity
  8
RACCORDO
100
AcDbSpline
 62
250
  6
CONTINUOUS
 70
0
 71
3
 72
10
 73
6
 74
0
 42
0.0000001
 43
0.0000001
 44
0.0000000001
 40
0.0
 40
0.0
 40
0.0
 40
0.0
 40
0.2380212515
 40
0.4816797031
 40
1.0
 40
1.0
 40
1.0
 40
1.0
 10
22.8198228385
 20
-19.905887834
 30
0.0
 10
22.8536021155
 20
-19.876633892
 30
0.0
 10
22.9150568467
 20
-19.8088826985
 30
0.0
 10
23.0062220876
 20
-19.6432883563
 30
0.0
 10
23.0311946405
 20
-19.497268037
 30
0.0
 10
23.0311946405
 20
-19.3999589676
 30
0.0
  0
SPLINE
  5
31C
100
AcDbEntity
  8
0
100
AcDbSpline
 62
7
  6
CONTINUOUS
 70
0
 71
3
 72
13
 73
9
 74
0
 42
0.0000001
 43
0.0000001
 44
0.0000000001
 40
0.0
 40
0.0
 40
0.0
 40
0.0
 40
0.2569339387
 40
0.5308001495
 40
0.6620244593
 40
0.7836220371
 40
0.8951219183
 40
1.0
 40
1.0
 40
1.0
 40
1.0
 10
-7.4662970324
 20
13.7103548787
 30
0.0
 10
-7.4662970324
 20
13.6543158919
 30
0.0
 10
-7.4292146471
 20
13.5383152008
 30
0.0
 10
-7.3270352804
 20
13.429589858
 30
0.0
 10
-7.2236416627
 20
13.3770915041
 30
0.0
 10
-7.1446289233
 20
13.3610336177
 30
0.0
 10
-7.0699800342
 20
13.3700035738
 30
0.0
 10
-7.0273851043
 20
13.3936015083
 30
0.0
 10
-7.0100933797
 20
13.4085762755
 30
0.0
  0
SPLINE
  5
31D
100
AcDbEntity
  8
0
100
AcDbSpline
 62
7
  6
CONTINUOUS
 70
0
 71
3
 72
9
 73
5
 74
0
 42
0.0000001
 43
0.0000001
 44
0.0000000001
 40
0.0
 40
0.0
 40
0.0
 40
0.0
 40
0.481290374
 40
1.0
 40
1.0
 40
1.0
 40
1.0
 10
-21.5475106661
 20
-5.5232303375
 30
0.0
 10
-21.5558533299
 20
-5.5328765236
 30
0.0
 10
-21.5690832356
 20
-5.5567115397
 30
0.0
 10
-21.5729053057
 20
-5.583472293
 30
0.0
 10
-21.5729053057
 20
-5.5972172301
 30
0.0
  0
SPLINE
  5
31E
100
AcDbEntity
  8
0
100
AcDbSpline
 62
7
  6
CONTINUOUS
 70
0
 71
3
 72
9
 73
5
 74
0
 42
0.0000001
 43
0.0000001
 44
0.0000000001
 40
0.0
 40
0.0
 40
0.0
 40
0.0
 40
0.5200010934
 40
1.0
 40
1.0
 40
1.0
 40
1.0
 10
6.563314509
 20
9.6603548787
 30
0.0
 10
6.563314509
 20
9.6895476116
 30
0.0
 10
6.5727898804
 20
9.7465687241
 30
0.0
 10
6.606355888
 20
9.7944927222
 30
0.0
 10
6.6267260986
 20
9.812133482
 30
0.0
  0
SPLINE
  5
31F
100
AcDbEntity
  8
0
100
AcDbSpline
 62
7
  6
CONTINUOUS
 70
0
 71
3
 72
9
 73
5
 74
0
 42
0.0000001
 43
0.0000001
 44
0.0000000001
 40
0.0
 40
0.0
 40
0.0
 40
0.0
 40
0.5200010934
 40
1.0
 40
1.0
 40
1.0
 40
1.0
 10
-7.4662970324
 20
-9.8455361042
 30
0.0
 10
-7.4662970324
 20
-9.8163433714
 30
0.0
 10
-7.456821661
 20
-9.7593222588
 30
0.0
 10
-7.4232556533
 20
-9.7113982608
 30
0.0
 10
-7.4028854427
 20
-9.6937575009
 30
0.0
  0
SPLINE
  5
320
100
AcDbEntity
  8
0
100
AcDbSpline
 62
7
  6
CONTINUOUS
 70
0
 71
3
 72
11
 73
7
 74
0
 42
0.0000001
 43
0.0000001
 44
0.0000000001
 40
0.0
 40
0.0
 40
0.0
 40
0.0
 40
0.2393883651
 40
0.4966561932
 40
0.7550645261
 40
1.0
 40
1.0
 40
1.0
 40
1.0
 10
-0.2488642364
 20
-13.0510973209
 30
0.0
 10
-0.2488642364
 20
-13.0403125652
 30
0.0
 10
-0.2523040845
 20
-13.0177350596
 30
0.0
 10
-0.26927181
 20
-12.9873451128
 30
0.0
 10
-0.2957544476
 20
-12.9647122665
 30
0.0
 10
-0.3166966446
 20
-12.9551953663
 30
0.0
 10
-0.3272984064
 20
-12.9521349135
 30
0.0
  0
SPLINE
  5
321
100
AcDbEntity
  8
0
100
AcDbSpline
 62
7
  6
CONTINUOUS
 70
0
 71
3
 72
13
 73
9
 74
0
 42
0.0000001
 43
0.0000001
 44
0.0000000001
 40
0.0
 40
0.0
 40
0.0
 40
0.0
 40
0.2569339387
 40
0.5308001495
 40
0.6620244593
 40
0.7836220371
 40
0.8951219183
 40
1.0
 40
1.0
 40
1.0
 40
1.0
 10
6.563314509
 20
-13.8955361042
 30
0.0
 10
6.563314509
 20
-13.9515750911
 30
0.0
 10
6.6003968942
 20
-14.0675757822
 30
0.0
 10
6.7025762609
 20
-14.176301125
 30
0.0
 10
6.8059698786
 20
-14.2287994788
 30
0.0
 10
6.884982618
 20
-14.2448573652
 30
0.0
 10
6.9596315071
 20
-14.2358874091
 30
0.0
 10
7.0022264371
 20
-14.2122894747
 30
0.0
 10
7.0195181616
 20
-14.1973147075
 30
0.0
  0
SPLINE
  5
322
100
AcDbEntity
  8
RACCORDO
100
AcDbSpline
 62
250
  6
CONTINUOUS
 70
0
 71
3
 72
11
 73
7
 74
0
 42
0.0000001
 43
0.0000001
 44
0.0000000001
 40
0.0
 40
0.0
 40
0.0
 40
0.0
 40
0.2379953753
 40
0.4943834348
 40
0.75391538
 40
1.0
 40
1.0
 40
1.0
 40
1.0
 10
-23.1413568408
 20
-6.186561508
 30
0.0
 10
-23.1413568408
 20
-6.281652209
 30
0.0
 10
-23.1006731361
 20
-6.4799424397
 30
0.0
 10
-22.9493516675
 20
-6.7451551907
 30
0.0
 10
-22.7273409701
 20
-6.9593213891
 30
0.0
 10
-22.5430019573
 20
-7.0521120076
 30
0.0
 10
-22.4485365178
 20
-7.079381831
 30
0.0
  0
SPLINE
  5
323
100
AcDbEntity
  8
RACCORDO
100
AcDbSpline
 62
250
  6
CONTINUOUS
 70
0
 71
3
 72
14
 73
10
 74
0
 42
0.0000001
 43
0.0000001
 44
0.0000000001
 40
0.0
 40
0.0
 40
0.0
 40
0.0
 40
0.2654240656
 40
0.3884118623
 40
0.5069869504
 40
0.6242980885
 40
0.7437842318
 40
0.8683907715
 40
1.0
 40
1.0
 40
1.0
 40
1.0
 10
-22.4485365178
 20
19.5942006055
 30
0.0
 10
-22.5337877256
 20
19.6188105094
 30
0.0
 10
-22.6676494526
 20
19.6337937217
 30
0.0
 10
-22.8337923629
 20
19.5938450168
 30
0.0
 10
-22.9411297314
 20
19.5372321161
 30
0.0
 10
-23.029096053
 20
19.455336535
 30
0.0
 10
-23.0939166186
 20
19.3518205566
 30
0.0
 10
-23.1331720888
 20
19.2313613509
 30
0.0
 10
-23.1413568408
 20
19.1453777461
 30
0.0
 10
-23.1413568408
 20
19.1013802825
 30
0.0
  0
SPLINE
  5
324
100
AcDbEntity
  8
RACCORDO
100
AcDbSpline
 62
250
  6
CONTINUOUS
 70
0
 71
3
 72
11
 73
7
 74
0
 42
0.0000001
 43
0.0000001
 44
0.0000000001
 40
0.0
 40
0.0
 40
0.0
 40
0.0
 40
0.2379953753
 40
0.4943834348
 40
0.75391538
 40
1.0
 40
1.0
 40
1.0
 40
1.0
 10
22.7579895597
 20
5.8513802825
 30
0.0
 10
22.7579895597
 20
5.9464709835
 30
0.0
 10
22.717305855
 20
6.1447612142
 30
0.0
 10
22.5659843864
 20
6.4099739652
 30
0.0
 10
22.343973689
 20
6.6241401636
 30
0.0
 10
22.1596346762
 20
6.7169307821
 30
0.0
 10
22.0651692367
 20
6.7442006055
 30
0.0
  0
SPLINE
  5
325
100
AcDbEntity
  8
RACCORDO
100
AcDbSpline
 62
250
  6
CONTINUOUS
 70
0
 71
3
 72
14
 73
10
 74
0
 42
0.0000001
 43
0.0000001
 44
0.0000000001
 40
0.0
 40
0.0
 40
0.0
 40
0.0
 40
0.2654240656
 40
0.3884118623
 40
0.5069869504
 40
0.6242980885
 40
0.7437842318
 40
0.8683907715
 40
1.0
 40
1.0
 40
1.0
 40
1.0
 10
22.0651692367
 20
-19.929381831
 30
0.0
 10
22.1504204445
 20
-19.9539917349
 30
0.0
 10
22.2842821714
 20
-19.9689749472
 30
0.0
 10
22.4504250817
 20
-19.9290262422
 30
0.0
 10
22.5577624503
 20
-19.8724133416
 30
0.0
 10
22.6457287718
 20
-19.7905177605
 30
0.0
 10
22.7105493375
 20
-19.6870017821
 30
0.0
 10
22.7498048076
 20
-19.5665425764
 30
0.0
 10
22.7579895597
 20
-19.4805589715
 30
0.0
 10
22.7579895597
 20
-19.436561508
 30
0.0
  0
LINE
  5
326
100
AcDbEntity
  8
0
100
AcDbLine
 62
7
  6
CONTINUOUS
 10
0.5526378777
 20
-0.5663433694
 11
0.5248316666
 21
-0.4528509205
  0
SPLINE
  5
327
100
AcDbEntity
  8
0
100
AcDbSpline
 62
7
  6
CONTINUOUS
 70
0
 71
3
 72
9
 73
5
 74
0
 42
0.0000001
 43
0.0000001
 44
0.0000000001
 40
0.0
 40
0.0
 40
0.0
 40
0.0
 40
0.4898709738
 40
1.0
 40
1.0
 40
1.0
 40
1.0
 10
0.5248316666
 20
-0.4528509205
 30
0.0
 10
0.5207114805
 20
-0.4365376979
 30
0.0
 10
0.5126539872
 20
-0.403306718
 30
0.0
 10
0.492386185
 20
-0.3728160095
 30
0.0
 10
0.4779474025
 20
-0.3628904275
 30
0.0
  0
SPLINE
  5
328
100
AcDbEntity
  8
0
100
AcDbSpline
 62
7
  6
CONTINUOUS
 70
0
 71
3
 72
13
 73
9
 74
0
 42
0.0000001
 43
0.0000001
 44
0.0000000001
 40
0.0
 40
0.0
 40
0.0
 40
0.0
 40
0.1055827335
 40
0.218885872
 40
0.3419971295
 40
0.4737013723
 40
0.7457226498
 40
1.0
 40
1.0
 40
1.0
 40
1.0
 10
7.0728810668
 20
-13.9712308538
 30
0.0
 10
7.0626023813
 20
-13.9778129016
 30
0.0
 10
7.0383860559
 20
-13.987259195
 30
0.0
 10
6.9982211836
 20
-13.9881113554
 30
0.0
 10
6.9566935956
 20
-13.9766431821
 30
0.0
 10
6.9033655658
 20
-13.9462141563
 30
0.0
 10
6.8513472238
 20
-13.8876019031
 30
0.0
 10
6.8327279385
 20
-13.8266120687
 30
0.0
 10
6.8327279385
 20
-13.7972172301
 30
0.0
  0
SPLINE
  5
329
100
AcDbEntity
  8
0
100
AcDbSpline
 62
7
  6
CONTINUOUS
 70
0
 71
3
 72
13
 73
9
 74
0
 42
0.0000001
 43
0.0000001
 44
0.0000000001
 40
0.0
 40
0.0
 40
0.0
 40
0.0
 40
0.1074510637
 40
0.2233243761
 40
0.3482056383
 40
0.4802138638
 40
0.7493628851
 40
1.0
 40
1.0
 40
1.0
 40
1.0
 10
7.0557403548
 20
-14.1533338507
 30
0.0
 10
7.0358513071
 20
-14.1613246975
 30
0.0
 10
6.9912908399
 20
-14.1705138895
 30
0.0
 10
6.9213517432
 20
-14.1633971397
 30
0.0
 10
6.8509974829
 20
-14.137137149
 30
0.0
 10
6.7627505653
 20
-14.0790748666
 30
0.0
 10
6.6780613752
 20
-13.9759122676
 30
0.0
 10
6.648314509
 20
-13.8719208734
 30
0.0
 10
6.648314509
 20
-13.8219239449
 30
0.0
  0
SPLINE
  5
32A
100
AcDbEntity
  8
0
100
AcDbSpline
 62
7
  6
CONTINUOUS
 70
0
 71
3
 72
9
 73
5
 74
0
 42
0.0000001
 43
0.0000001
 44
0.0000000001
 40
0.0
 40
0.0
 40
0.0
 40
0.0
 40
0.481290374
 40
1.0
 40
1.0
 40
1.0
 40
1.0
 10
6.858122578
 20
-13.7232303375
 30
0.0
 10
6.8497799143
 20
-13.7328765236
 30
0.0
 10
6.8365500086
 20
-13.7567115397
 30
0.0
 10
6.8327279385
 20
-13.783472293
 30
0.0
 10
6.8327279385
 20
-13.7972172301
 30
0.0
  0
SPLINE
  5
32B
100
AcDbEntity
  8
0
100
AcDbSpline
 62
7
  6
CONTINUOUS
 70
0
 71
3
 72
9
 73
5
 74
0
 42
0.0000001
 43
0.0000001
 44
0.0000000001
 40
0.0
 40
0.0
 40
0.0
 40
0.0
 40
0.5134504562
 40
1.0
 40
1.0
 40
1.0
 40
1.0
 10
0.4695611241
 20
-0.161352384
 30
0.0
 10
0.4392617003
 20
-0.1416592049
 30
0.0
 10
0.3717925844
 20
-0.1171033629
 30
0.0
 10
0.3027366045
 20
-0.1041036488
 30
0.0
 10
0.26883102
 20
-0.0993040385
 30
0.0
  0
SPLINE
  5
32C
100
AcDbEntity
  8
0
100
AcDbSpline
 62
7
  6
CONTINUOUS
 70
0
 71
3
 72
9
 73
5
 74
0
 42
0.0000001
 43
0.0000001
 44
0.0000000001
 40
0.0
 40
0.0
 40
0.0
 40
0.0
 40
0.4799989066
 40
1.0
 40
1.0
 40
1.0
 40
1.0
 10
6.6267260986
 20
-13.7437575009
 30
0.0
 10
6.606355888
 20
-13.7613982608
 30
0.0
 10
6.5727898804
 20
-13.8093222588
 30
0.0
 10
6.563314509
 20
-13.8663433714
 30
0.0
 10
6.563314509
 20
-13.8955361042
 30
0.0
  0
SPLINE
  5
32D
100
AcDbEntity
  8
0
100
AcDbSpline
 62
7
  6
CONTINUOUS
 70
0
 71
3
 72
9
 73
5
 74
0
 42
0.0000001
 43
0.0000001
 44
0.0000000001
 40
0.0
 40
0.0
 40
0.0
 40
0.0
 40
0.2399599352
 40
1.0
 40
1.0
 40
1.0
 40
1.0
 10
6.6754480032
 20
-13.7141593478
 30
0.0
 10
6.6709583243
 20
-13.7219001717
 30
0.0
 10
6.6546234639
 20
-13.7555354239
 30
0.0
 10
6.648314509
 20
-13.7935804631
 30
0.0
 10
6.648314509
 20
-13.8219239449
 30
0.0
  0
SPLINE
  5
32E
100
AcDbEntity
  8
0
100
AcDbSpline
 62
7
  6
CONTINUOUS
 70
0
 71
3
 72
13
 73
9
 74
0
 42
0.0000001
 43
0.0000001
 44
0.0000000001
 40
0.0
 40
0.0
 40
0.0
 40
0.0
 40
0.1048780817
 40
0.2163779629
 40
0.3379755407
 40
0.4691998505
 40
0.7430660613
 40
1.0
 40
1.0
 40
1.0
 40
1.0
 10
-7.0100933797
 20
-10.1473147075
 30
0.0
 10
-7.0273851043
 20
-10.1622894747
 30
0.0
 10
-7.0699800342
 20
-10.1858874091
 30
0.0
 10
-7.1446289233
 20
-10.1948573652
 30
0.0
 10
-7.2236416627
 20
-10.1787994788
 30
0.0
 10
-7.3270352804
 20
-10.126301125
 30
0.0
 10
-7.4292146471
 20
-10.0175757822
 30
0.0
 10
-7.4662970324
 20
-9.9015750911
 30
0.0
 10
-7.4662970324
 20
-9.8455361042
 30
0.0
  0
SPLINE
  5
32F
100
AcDbEntity
  8
0
100
AcDbSpline
 62
7
  6
CONTINUOUS
 70
0
 71
3
 72
9
 73
5
 74
0
 42
0.0000001
 43
0.0000001
 44
0.0000000001
 40
0.0
 40
0.0
 40
0.0
 40
0.0
 40
0.481290374
 40
1.0
 40
1.0
 40
1.0
 40
1.0
 10
6.858122578
 20
9.8326606455
 30
0.0
 10
6.8497799143
 20
9.8230144594
 30
0.0
 10
6.8365500086
 20
9.7991794433
 30
0.0
 10
6.8327279385
 20
9.7724186899
 30
0.0
 10
6.8327279385
 20
9.7586737528
 30
0.0
  0
SPLINE
  5
330
100
AcDbEntity
  8
0
100
AcDbSpline
 62
7
  6
CONTINUOUS
 70
0
 71
3
 72
9
 73
5
 74
0
 42
0.0000001
 43
0.0000001
 44
0.0000000001
 40
0.0
 40
0.0
 40
0.0
 40
0.0
 40
0.2399599352
 40
1.0
 40
1.0
 40
1.0
 40
1.0
 10
6.6754480032
 20
9.8417316352
 30
0.0
 10
6.6709583243
 20
9.8339908112
 30
0.0
 10
6.6546234639
 20
9.800355559
 30
0.0
 10
6.648314509
 20
9.7623105198
 30
0.0
 10
6.648314509
 20
9.7339670381
 30
0.0
  0
SPLINE
  5
331
100
AcDbEntity
  8
0
100
AcDbSpline
 62
7
  6
CONTINUOUS
 70
0
 71
3
 72
13
 73
9
 74
0
 42
0.0000001
 43
0.0000001
 44
0.0000000001
 40
0.0
 40
0.0
 40
0.0
 40
0.0
 40
0.1055827335
 40
0.218885872
 40
0.3419971295
 40
0.4737013723
 40
0.7457226498
 40
1.0
 40
1.0
 40
1.0
 40
1.0
 10
7.0728810668
 20
9.5846601292
 30
0.0
 10
7.0626023813
 20
9.5780780813
 30
0.0
 10
7.0383860559
 20
9.5686317879
 30
0.0
 10
6.9982211836
 20
9.5677796275
 30
0.0
 10
6.9566935956
 20
9.5792478008
 30
0.0
 10
6.9033655658
 20
9.6096768266
 30
0.0
 10
6.8513472238
 20
9.6682890799
 30
0.0
 10
6.8327279385
 20
9.7292789142
 30
0.0
 10
6.8327279385
 20
9.7586737528
 30
0.0
  0
SPLINE
  5
332
100
AcDbEntity
  8
0
100
AcDbSpline
 62
7
  6
CONTINUOUS
 70
0
 71
3
 72
13
 73
9
 74
0
 42
0.0000001
 43
0.0000001
 44
0.0000000001
 40
0.0
 40
0.0
 40
0.0
 40
0.0
 40
0.1074510637
 40
0.2233243761
 40
0.3482056383
 40
0.4802138638
 40
0.7493628851
 40
1.0
 40
1.0
 40
1.0
 40
1.0
 10
7.0557403548
 20
9.4025571322
 30
0.0
 10
7.0358513071
 20
9.3945662854
 30
0.0
 10
6.9912908399
 20
9.3853770934
 30
0.0
 10
6.9213517432
 20
9.3924938433
 30
0.0
 10
6.8509974829
 20
9.4187538339
 30
0.0
 10
6.7627505653
 20
9.4768161164
 30
0.0
 10
6.6780613752
 20
9.5799787154
 30
0.0
 10
6.648314509
 20
9.6839701096
 30
0.0
 10
6.648314509
 20
9.7339670381
 30
0.0
  0
SPLINE
  5
333
100
AcDbEntity
  8
0
100
AcDbSpline
 62
7
  6
CONTINUOUS
 70
0
 71
3
 72
13
 73
9
 74
0
 42
0.0000001
 43
0.0000001
 44
0.0000000001
 40
0.0
 40
0.0
 40
0.0
 40
0.0
 40
0.1048780817
 40
0.2163779629
 40
0.3379755407
 40
0.4691998505
 40
0.7430660613
 40
1.0
 40
1.0
 40
1.0
 40
1.0
 10
7.0195181616
 20
9.3585762755
 30
0.0
 10
7.0022264371
 20
9.3436015083
 30
0.0
 10
6.9596315071
 20
9.3200035738
 30
0.0
 10
6.884982618
 20
9.3110336177
 30
0.0
 10
6.8059698786
 20
9.3270915041
 30
0.0
 10
6.7025762609
 20
9.379589858
 30
0.0
 10
6.6003968942
 20
9.4883152008
 30
0.0
 10
6.563314509
 20
9.6043158919
 30
0.0
 10
6.563314509
 20
9.6603548787
 30
0.0
  0
SPLINE
  5
334
100
AcDbEntity
  8
0
100
AcDbSpline
 62
7
  6
CONTINUOUS
 70
0
 71
3
 72
9
 73
5
 74
0
 42
0.0000001
 43
0.0000001
 44
0.0000000001
 40
0.0
 40
0.0
 40
0.0
 40
0.0
 40
0.4799989066
 40
1.0
 40
1.0
 40
1.0
 40
1.0
 10
-7.4028854427
 20
13.862133482
 30
0.0
 10
-7.4232556533
 20
13.8444927222
 30
0.0
 10
-7.456821661
 20
13.7965687241
 30
0.0
 10
-7.4662970324
 20
13.7395476116
 30
0.0
 10
-7.4662970324
 20
13.7103548787
 30
0.0
  0
SPLINE
  5
335
100
AcDbEntity
  8
0
100
AcDbSpline
 62
7
  6
CONTINUOUS
 70
0
 71
3
 72
13
 73
9
 74
0
 42
0.0000001
 43
0.0000001
 44
0.0000000001
 40
0.0
 40
0.0
 40
0.0
 40
0.0
 40
0.1074510637
 40
0.2233243761
 40
0.3482056383
 40
0.4802138638
 40
0.7493628851
 40
1.0
 40
1.0
 40
1.0
 40
1.0
 10
-21.3498928893
 20
-5.9533338507
 30
0.0
 10
-21.3697819371
 20
-5.9613246975
 30
0.0
 10
-21.4143424042
 20
-5.9705138895
 30
0.0
 10
-21.4842815009
 20
-5.9633971397
 30
0.0
 10
-21.5546357612
 20
-5.937137149
 30
0.0
 10
-21.6428826788
 20
-5.8790748666
 30
0.0
 10
-21.7275718689
 20
-5.7759122676
 30
0.0
 10
-21.7573187352
 20
-5.6719208734
 30
0.0
 10
-21.7573187352
 20
-5.6219239449
 30
0.0
  0
LINE
  5
336
100
AcDbEntity
  8
0
100
AcDbLine
 62
7
  6
CONTINUOUS
 10
0.5501378777
 20
-0.5685084329
 11
0.5223316666
 21
-0.455015984
  0
SPLINE
  5
337
100
AcDbEntity
  8
0
100
AcDbSpline
 62
7
  6
CONTINUOUS
 70
0
 71
3
 72
9
 73
5
 74
0
 42
0.0000001
 43
0.0000001
 44
0.0000000001
 40
0.0
 40
0.0
 40
0.0
 40
0.0
 40
0.4898709738
 40
1.0
 40
1.0
 40
1.0
 40
1.0
 10
0.5223316666
 20
-0.455015984
 30
0.0
 10
0.5182114805
 20
-0.4387027614
 30
0.0
 10
0.5101539872
 20
-0.4054717815
 30
0.0
 10
0.489886185
 20
-0.374981073
 30
0.0
 10
0.4754474025
 20
-0.365055491
 30
0.0
  0
SPLINE
  5
338
100
AcDbEntity
  8
0
100
AcDbSpline
 62
250
  6
CONTINUOUS
 70
0
 71
3
 72
9
 73
5
 74
0
 42
0.0000001
 43
0.0000001
 44
0.0000000001
 40
0.0
 40
0.0
 40
0.0
 40
0.0
 40
0.1157799177
 40
1.0
 40
1.0
 40
1.0
 40
1.0
 10
0.4426156599
 20
-0.3005009718
 30
0.0
 10
0.4412136578
 20
-0.301590167
 30
0.0
 10
0.4282999913
 20
-0.3099581573
 30
0.0
 10
0.4091377183
 20
-0.3082615729
 30
0.0
 10
0.3936287784
 20
-0.304130931
 30
0.0
  0
SPLINE
  5
339
100
AcDbEntity
  8
0
100
AcDbSpline
 62
250
  6
CONTINUOUS
 70
0
 71
3
 72
10
 73
6
 74
0
 42
0.0000001
 43
0.0000001
 44
0.0000000001
 40
0.0
 40
0.0
 40
0.0
 40
0.0
 40
0.4939032387
 40
0.7479365287
 40
1.0
 40
1.0
 40
1.0
 40
1.0
 10
0.5248316666
 20
-0.4528509205
 30
0.0
 10
0.5208178251
 20
-0.4369587525
 30
0.0
 10
0.5148143817
 20
-0.4126527437
 30
0.0
 10
0.4983499876
 20
-0.3812614698
 30
0.0
 10
0.4851863824
 20
-0.3678666842
 30
0.0
 10
0.4779474025
 20
-0.3628904275
 30
0.0
  0
SPLINE
  5
33A
100
AcDbEntity
  8
0
100
AcDbSpline
 62
250
  6
CONTINUOUS
 70
0
 71
3
 72
9
 73
5
 74
0
 42
0.0000001
 43
0.0000001
 44
0.0000000001
 40
0.0
 40
0.0
 40
0.0
 40
0.0
 40
0.1413384539
 40
1.0
 40
1.0
 40
1.0
 40
1.0
 10
0.5507685159
 20
-0.558851597
 30
0.0
 10
0.5495327412
 20
-0.5538572934
 30
0.0
 10
0.5409201237
 20
-0.5185241723
 30
0.0
 10
0.5324960879
 20
-0.4831954731
 30
0.0
 10
0.5248316666
 20
-0.4528509205
 30
0.0
  0
SPLINE
  5
33B
100
AcDbEntity
  8
0
100
AcDbSpline
 62
250
  6
CONTINUOUS
 70
0
 71
3
 72
10
 73
6
 74
0
 42
0.0000001
 43
0.0000001
 44
0.0000000001
 40
0.0
 40
0.0
 40
0.0
 40
0.0
 40
0.2954237646
 40
0.5848737211
 40
1.0
 40
1.0
 40
1.0
 40
1.0
 10
0.4695611241
 20
-0.161352384
 30
0.0
 10
0.4508234544
 20
-0.1491737931
 30
0.0
 10
0.4113565785
 20
-0.1311997101
 30
0.0
 10
0.3438928413
 20
-0.1117372686
 30
0.0
 10
0.2965284871
 20
-0.1032248394
 30
0.0
 10
0.26883102
 20
-0.0993040385
 30
0.0
  0
SPLINE
  5
33C
100
AcDbEntity
  8
0
100
AcDbSpline
 62
250
  6
CONTINUOUS
 70
0
 71
3
 72
21
 73
17
 74
0
 42
0.0000001
 43
0.0000001
 44
0.0000000001
 40
0.0
 40
0.0
 40
0.0
 40
0.0
 40
0.0862774964
 40
0.1835586628
 40
0.2367267712
 40
0.2933145561
 40
0.3538035418
 40
0.3857017028
 40
0.4188054017
 40
0.4712286029
 40
0.5207298581
 40
0.6122670382
 40
0.6956975127
 40
0.7721961658
 40
0.9039581226
 40
1.0
 40
1.0
 40
1.0
 40
1.0
 10
0.5095157507
 20
-0.3440993249
 30
0.0
 10
0.5131245181
 20
-0.3405823409
 30
0.0
 10
0.5200118703
 20
-0.3322274624
 30
0.0
 10
0.5264646586
 20
-0.3194015987
 30
0.0
 10
0.5302523834
 20
-0.3070516983
 30
0.0
 10
0.5322756396
 20
-0.2963268381
 30
0.0
 10
0.5330635728
 20
-0.2865312769
 30
0.0
 10
0.5331172694
 20
-0.2780897914
 30
0.0
 10
0.5327937896
 20
-0.2700893081
 30
0.0
 10
0.5318349925
 20
-0.2607540919
 30
0.0
 10
0.5293525102
 20
-0.2472294682
 30
0.0
 10
0.5246026575
 20
-0.2314158874
 30
0.0
 10
0.5166321119
 20
-0.2140797753
 30
0.0
 10
0.5047795603
 20
-0.1948953051
 30
0.0
 10
0.4892376883
 20
-0.1767180517
 30
0.0
 10
0.4756476373
 20
-0.1653051401
 30
0.0
 10
0.4695611241
 20
-0.161352384
 30
0.0
  0
SPLINE
  5
33D
100
AcDbEntity
  8
0
100
AcDbSpline
 62
250
  6
CONTINUOUS
 70
0
 71
3
 72
23
 73
19
 74
0
 42
0.0000001
 43
0.0000001
 44
0.0000000001
 40
0.0
 40
0.0
 40
0.0
 40
0.0
 40
0.0098690806
 40
0.0320015087
 40
0.0711025664
 40
0.110257867
 40
0.1560538874
 40
0.1921596294
 40
0.2416228136
 40
0.2847585585
 40
0.3382680983
 40
0.3821538899
 40
0.4904393306
 40
0.5859153327
 40
0.6536837292
 40
0.7449631414
 40
0.8824283279
 40
1.0
 40
1.0
 40
1.0
 40
1.0
 10
0.1630709896
 20
-13.225739494
 30
0.0
 10
0.1630709896
 20
-13.2251529895
 30
0.0
 10
0.1630735914
 20
-13.2232519428
 30
0.0
 10
0.1630418834
 20
-13.2190172304
 30
0.0
 10
0.162850821
 20
-13.2129981688
 30
0.0
 10
0.1623987743
 20
-13.2055083223
 30
0.0
 10
0.1617250471
 20
-13.198149613
 30
0.0
 10
0.1607528843
 20
-13.1901220658
 30
0.0
 10
0.1595529162
 20
-13.1822196743
 30
0.0
 10
0.1578935029
 20
-13.1732162688
 30
0.0
 10
0.1559825531
 20
-13.1645315563
 30
0.0
 10
0.152820436
 20
-13.1518138311
 30
0.0
 10
0.1476335987
 20
-13.1364468923
 30
0.0
 10
0.1390908004
 20
-13.1201939336
 30
0.0
 10
0.1294914687
 20
-13.1056908852
 30
0.0
 10
0.1159167873
 20
-13.0902878687
 30
0.0
 10
0.0966388532
 20
-13.0764469026
 30
0.0
 10
0.0814347334
 20
-13.0701269056
 30
0.0
 10
0.0744476273
 20
-13.0681099018
 30
0.0
  0
SPLINE
  5
33E
100
AcDbEntity
  8
0
100
AcDbSpline
 62
250
  6
CONTINUOUS
 70
0
 71
3
 72
10
 73
6
 74
0
 42
0.0000001
 43
0.0000001
 44
0.0000000001
 40
0.0
 40
0.0
 40
0.0
 40
0.0
 40
0.2297356676
 40
0.6449091083
 40
1.0
 40
1.0
 40
1.0
 40
1.0
 10
0.0206630639
 20
-13.0736434593
 30
0.0
 10
0.0239092528
 20
-13.071423716
 30
0.0
 10
0.0338253224
 20
-13.066226554
 30
0.0
 10
0.0522564013
 20
-13.0636347923
 30
0.0
 10
0.0674605211
 20
-13.066092898
 30
0.0
 10
0.0744476273
 20
-13.0681099018
 30
0.0
  0
SPLINE
  5
33F
100
AcDbEntity
  8
0
100
AcDbSpline
 62
250
  6
CONTINUOUS
 70
0
 71
3
 72
12
 73
8
 74
0
 42
0.0000001
 43
0.0000001
 44
0.0000000001
 40
0.0
 40
0.0
 40
0.0
 40
0.0
 40
0.2003311044
 40
0.4831925428
 40
0.6928105946
 40
0.9775771637
 40
1.0
 40
1.0
 40
1.0
 40
1.0
 10
-0.3356222038
 20
-13.071847447
 30
0.0
 10
-0.3328429909
 20
-13.0726497367
 30
0.0
 10
-0.3261311538
 20
-13.0742138463
 30
0.0
 10
-0.31668064
 20
-13.0749997784
 30
0.0
 10
-0.306410364
 20
-13.0745960744
 30
0.0
 10
-0.3002457804
 20
-13.0724137623
 30
0.0
 10
-0.2972057878
 20
-13.0702771429
 30
0.0
 10
-0.2969872008
 20
-13.0701168362
 30
0.0
  0
SPLINE
  5
340
100
AcDbEntity
  8
0
100
AcDbSpline
 62
250
  6
CONTINUOUS
 70
0
 71
3
 72
10
 73
6
 74
0
 42
0.0000001
 43
0.0000001
 44
0.0000000001
 40
0.0
 40
0.0
 40
0.0
 40
0.0
 40
0.047180682
 40
0.9430707933
 40
1.0
 40
1.0
 40
1.0
 40
1.0
 10
-0.2624160866
 20
-13.0935919286
 30
0.0
 10
-0.2619694304
 20
-13.0930980276
 30
0.0
 10
-0.2532571666
 20
-13.0829970991
 30
0.0
 10
-0.2487314466
 20
-13.0674620043
 30
0.0
 10
-0.2488642364
 20
-13.0520188754
 30
0.0
 10
-0.2488642364
 20
-13.0510973209
 30
0.0
  0
SPLINE
  5
341
100
AcDbEntity
  8
0
100
AcDbSpline
 62
250
  6
CONTINUOUS
 70
0
 71
3
 72
14
 73
10
 74
0
 42
0.0000001
 43
0.0000001
 44
0.0000000001
 40
0.0
 40
0.0
 40
0.0
 40
0.0
 40
0.0943146254
 40
0.2454721294
 40
0.3513630927
 40
0.4920089644
 40
0.6227654328
 40
0.9774609265
 40
1.0
 40
1.0
 40
1.0
 40
1.0
 10
-0.3272982955
 20
-12.9521349455
 30
0.0
 10
-0.3234420559
 20
-12.953248146
 30
0.0
 10
-0.3133961157
 20
-12.9567531758
 30
0.0
 10
-0.2992932087
 20
-12.963995893
 30
0.0
 10
-0.2841207945
 20
-12.9744117347
 30
0.0
 10
-0.2713845512
 20
-12.9871499592
 30
0.0
 10
-0.254538326
 20
-13.0115238673
 30
0.0
 10
-0.2487314466
 20
-13.0348093037
 30
0.0
 10
-0.2488642364
 20
-13.0501757663
 30
0.0
 10
-0.2488642364
 20
-13.0510973209
 30
0.0
  0
SPLINE
  5
342
100
AcDbEntity
  8
0
100
AcDbSpline
 62
250
  6
CONTINUOUS
 70
0
 71
3
 72
10
 73
6
 74
0
 42
0.0000001
 43
0.0000001
 44
0.0000000001
 40
0.0
 40
0.0
 40
0.0
 40
0.0
 40
0.4231574396
 40
0.7011211714
 40
1.0
 40
1.0
 40
1.0
 40
1.0
 10
0.1057499017
 20
-13.2982183753
 30
0.0
 10
0.1023326885
 20
-13.3009059378
 30
0.0
 10
0.0958547701
 20
-13.3043759842
 30
0.0
 10
0.0847303141
 20
-13.3052243199
 30
0.0
 10
0.0779520261
 20
-13.3041527062
 30
0.0
 10
0.0744476273
 20
-13.3031410734
 30
0.0
  0
SPLINE
  5
343
100
AcDbEntity
  8
0
100
AcDbSpline
 62
250
  6
CONTINUOUS
 70
0
 71
3
 72
16
 73
12
 74
0
 42
0.0000001
 43
0.0000001
 44
0.0000000001
 40
0.0
 40
0.0
 40
0.0
 40
0.0
 40
0.038164233
 40
0.1524042026
 40
0.3040285394
 40
0.4207107553
 40
0.615151006
 40
0.6933712264
 40
0.8425446033
 40
0.918417801
 40
1.0
 40
1.0
 40
1.0
 40
1.0
 10
0.0203991342
 20
-13.1845536769
 30
0.0
 10
0.0203991342
 20
-13.1861930381
 30
0.0
 10
0.0203692684
 20
-13.1927310102
 30
0.0
 10
0.0207855308
 20
-13.2059107854
 30
0.0
 10
0.0227240922
 20
-13.2228324892
 30
0.0
 10
0.0266470282
 20
-13.2434041154
 30
0.0
 10
0.0315696824
 20
-13.2611383191
 30
0.0
 10
0.0417716135
 20
-13.2791055025
 30
0.0
 10
0.0516683529
 20
-13.2911197272
 30
0.0
 10
0.0641649404
 20
-13.2992876079
 30
0.0
 10
0.0709432284
 20
-13.3021294406
 30
0.0
 10
0.0744476273
 20
-13.3031410734
 30
0.0
  0
SPLINE
  5
344
100
AcDbEntity
  8
0
100
AcDbSpline
 62
250
  6
CONTINUOUS
 70
0
 71
3
 72
14
 73
10
 74
0
 42
0.0000001
 43
0.0000001
 44
0.0000000001
 40
0.0
 40
0.0
 40
0.0
 40
0.0
 40
0.0548108593
 40
0.2188804714
 40
0.4366409121
 40
0.6042180393
 40
0.8834700087
 40
0.9958086347
 40
1.0
 40
1.0
 40
1.0
 40
1.0
 10
0.0203991342
 20
-13.1845536769
 30
0.0
 10
0.0203991342
 20
-13.1829143157
 30
0.0
 10
0.0203692684
 20
-13.1763591006
 30
0.0
 10
0.0207855308
 20
-13.1634196546
 30
0.0
 10
0.0227240922
 20
-13.1476171797
 30
0.0
 10
0.0266470282
 20
-13.1293104617
 30
0.0
 10
0.0315696824
 20
-13.1144183536
 30
0.0
 10
0.0382344787
 20
-13.1065285353
 30
0.0
 10
0.0404414095
 20
-13.1044329572
 30
0.0
 10
0.0405211049
 20
-13.1043578847
 30
0.0
  0
SPLINE
  5
345
100
AcDbEntity
  8
0
100
AcDbSpline
 62
250
  6
CONTINUOUS
 70
0
 71
3
 72
20
 73
16
 74
0
 42
0.0000001
 43
0.0000001
 44
0.0000000001
 40
0.0
 40
0.0
 40
0.0
 40
0.0
 40
0.015646568
 40
0.0507356058
 40
0.1127269283
 40
0.1748042481
 40
0.2474098512
 40
0.3046523615
 40
0.3830719334
 40
0.4514599011
 40
0.5362946175
 40
0.605871719
 40
0.777548857
 40
0.9289177454
 40
1.0
 40
1.0
 40
1.0
 40
1.0
 10
0.1630709896
 20
-13.225739494
 30
0.0
 10
0.1630709896
 20
-13.2263259985
 30
0.0
 10
0.1630735914
 20
-13.2282285473
 30
0.0
 10
0.1630418834
 20
-13.232444953
 30
0.0
 10
0.162850821
 20
-13.2383537047
 30
0.0
 10
0.1623987743
 20
-13.245582562
 30
0.0
 10
0.1617250471
 20
-13.2525522947
 30
0.0
 10
0.1607528843
 20
-13.2600185634
 30
0.0
 10
0.1595529162
 20
-13.267228153
 30
0.0
 10
0.1578935029
 20
-13.2752734958
 30
0.0
 10
0.1559825531
 20
-13.2828549209
 30
0.0
 10
0.152820436
 20
-13.2937469969
 30
0.0
 10
0.1476335987
 20
-13.3061193138
 30
0.0
 10
0.1398123194
 20
-13.3164839408
 30
0.0
 10
0.1346437609
 20
-13.3215516458
 30
0.0
 10
0.1328986888
 20
-13.3230629226
 30
0.0
  0
ENDSEC
  0
SECTION
  2
OBJECTS
  0
DICTIONARY
  5
C
100
AcDbDictionary
280
0
281
1
  3
ACAD_GROUP
350
D
  3
ACAD_MLINESTYLE
350
17
  3
ACAD_LAYOUT
350
1A
  3
ACAD_PLOTSETTINGS
350
19
  3
ACAD_PLOTSTYLENAME
350
E
  0
DICTIONARY
  5
D
102
{ACAD_REACTORS
330
C
102
}
100
AcDbDictionary
280
0
281
1
  0
ACDBDICTIONARYWDFLT
  5
E
102
{ACAD_REACTORS
330
C
102
}
100
AcDbDictionary
281
1
  3
Normal
350
F
100
AcDbDictionaryWithDefault
340
F
  0
DICTIONARY
  5
17
102
{ACAD_REACTORS
330
C
102
}
100
AcDbDictionary
280
0
281
1
  3
Standard
350
18
  0
DICTIONARY
  5
19
102
{ACAD_REACTORS
330
C
102
}
100
AcDbDictionary
281
1
  0
DICTIONARY
  5
1A
102
{ACAD_REACTORS
330
C
102
}
100
AcDbDictionary
281
1
  3
Model
350
346
  3
Layout1
350
347
  0
ACDBPLACEHOLDER
  5
F
102
{ACAD_REACTORS
330
E
102
}
  0
MLINESTYLE
  5
18
102
{ACAD_REACTORS
330
17
102
}
100
AcDbMlineStyle
  2
STANDARD
 70
0
  3

 62
256
 51
90.0
 52
90.0
 71
2
 49
0.5
 62
256
  6
BYLAYER
 49
-0.5
 62
256
  6
BYLAYER
  0
LAYOUT
  5
346
102
{ACAD_REACTORS
330
1A
102
}
100
AcDbPlotSettings
  1

  2
none_device
  4
ISO_A4_(297.00_x_210.00_MM)
  6

 40
0.0
 41
0.0
 42
0.0
 43
0.0
 44
297.0
 45
210.0
 46
0.0
 47
0.0
 48
0.0
 49
0.0
140
0.0
141
0.0
142
1.0
143
1.0
 70
1024
 72
1
 73
0
 74
0
  7

 75
0
147
1.0
148
0.0
149
0.0
100
AcDbLayout
  1
Model
 70
0
 71
0
 10
0.0
 20
0.0
 11
297.0
 21
210.0
 12
0.0
 22
0.0
 32
0.0
 14
0.0
 24
0.0
 34
0.0
 15
0.0
 25
0.0
 35
0.0
146
0.0
 13
0.0
 23
0.0
 33
0.0
 16
1.0
 26
0.0
 36
0.0
 17
0.0
 27
1.0
 37
0.0
 76
0
330
20B
345
0
346
0
  0
LAYOUT
  5
347
102
{ACAD_REACTORS
330
1A
102
}
100
AcDbPlotSettings
  1

  2
none_device
  4
ISO_A4_(297.00_x_210.00_MM)
  6

 40
0.0
 41
0.0
 42
0.0
 43
0.0
 44
297.0
 45
210.0
 46
0.0
 47
0.0
 48
0.0
 49
0.0
140
0.0
141
0.0
142
1.0
143
1.0
 70
0
 72
1
 73
0
 74
0
  7

 75
0
147
1.0
148
0.0
149
0.0
100
AcDbLayout
  1
Layout1
 70
0
 71
1
 10
0.0
 20
0.0
 11
297.0
 21
210.0
 12
0.0
 22
0.0
 32
0.0
 14
0.0
 24
0.0
 34
0.0
 15
0.0
 25
0.0
 35
0.0
146
0.0
 13
0.0
 23
0.0
 33
0.0
 16
1.0
 26
0.0
 36
0.0
 17
0.0
 27
1.0
 37
0.0
 76
0
330
20C
345
0
346
0
  0
ENDSEC
  0
EOF
