0
SECTION
2
HEADER
9
$ACADVER
1
AC1015
9
$DWGCODEPAGE
3
ANSI_1252
9
$EXTMAX
10
431.8000000000
20
558.8000000000
30
0.0000000000
9
$EXTMIN
10
0.0000000000
20
0.0000000000
30
0.0000000000
9
$LIMMIN
10
0.0000000000
20
0.0000000000
9
$LIMMAX
10
431.8000000000
20
558.8000000000
9
$VIEWCTR
10
215.9000000000
20
279.4000000000
9
$VIEWSIZE
40
558.8000000000
9
$CLAYER
8
0
9
$LTSCALE
40
36.4254814815
9
$CELTYPE
6
BYLAYER
9
$DIMSCALE
40
1
9
$DIMASZ
40
3.0000000000
9
$DIMEXO
40
4.1392592593
9
$DIMDLI
40
25.1666962963
9
$DIMEXE
40
11.9210666667
9
$DIMCEN
40
5.9605333333
9
$DIMLFAC
40
1.0000000000
9
$DIMBLK
1
_FILLED
9
$DIMTXT
40
3.0000000000
9
$DIMTOL
70
1
9
$DIMLIM
70
0
9
$DIMTFAC
40
1.0000000000
9
$DIMTP
40
0.0100000000
9
$DIMTM
40
0.0100000000
9
$PDMODE
70
3
9
$PDSIZE
40
3.0000000000
9
$HANDSEED
5
24E
9
$MEASUREMENT
70
1
9
$INSUNITS
70
4
0
ENDSEC
0
SECTION
2
CLASSES
0
CLASS
1
ACDBDICTIONARYWDFLT
2
AcDbDictionaryWithDefault
3
AutoCAD 2000
90
0
280
0
281
0
0
CLASS
1
ACDBPLACEHOLDER
2
AcDbPlaceHolder
3
AutoCAD 2000
90
0
280
0
281
0
0
CLASS
1
LAYOUT
2
AcDbLayout
3
AutoCAD 2000
90
0
280
0
281
0
0
ENDSEC
0
SECTION
2
TABLES
0
TABLE
2
VPORT
5
8
100
AcDbSymbolTable
70
2
0
VPORT
5
1F4
100
AcDbSymbolTableRecord
100
AcDbViewportTableRecord
2
*ACTIVE
70
0
10
0.0
20
0.0
11
1.0
21
1.0
12
215.9000000000
22
279.4000000000
13
0.0
23
0.0
14
1.0
24
1.0
15
0.0
25
0.0
16
0.0
26
0.0
36
1.0
17
0.0
27
0.0
37
0.0
40
558.8000000000
41
0.7727272727
42
50.0
43
0.0
44
0.0
50
0.0
51
0.0
71
0
72
100
73
1
74
1
75
0
76
0
77
0
78
0
0
ENDTAB
0
TABLE
2
LTYPE
5
5
100
AcDbSymbolTable
70
6
0
LTYPE
5
14
100
AcDbSymbolTableRecord
100
AcDbLinetypeTableRecord
2
BYBLOCK
70
0
3

72
65
73
0
40
0.0
0
LTYPE
5
15
100
AcDbSymbolTableRecord
100
AcDbLinetypeTableRecord
2
BYLAYER
70
0
3

72
65
73
0
40
0.0
0
LTYPE
5
16
100
AcDbSymbolTableRecord
100
AcDbLinetypeTableRecord
2
CONTINUOUS
70
64
3
Solid line
72
65
73
0
40
0
0
LTYPE
5
1F5
100
AcDbSymbolTableRecord
100
AcDbLinetypeTableRecord
2
CENTER
70
64
3
____ _ ____ _ ____ _ ____ _ ____ _ ____ _ ____
72
65
73
4
40
0.6
49
0.375
74
0
49
-0.075
74
0
49
0.075
74
0
49
-0.075
74
0
0
LTYPE
5
1F6
100
AcDbSymbolTableRecord
100
AcDbLinetypeTableRecord
2
HIDDEN
70
64
3
- - - - - - - - - - - - - - - - - - - -
72
65
73
2
40
0.2
49
0.1
74
0
49
-0.1
74
0
0
LTYPE
5
1F7
100
AcDbSymbolTableRecord
100
AcDbLinetypeTableRecord
2
PHANTOM
70
64
3
_____ _ _ _____ _ _ _____ _ _ _____
72
65
73
6
40
0.8
49
0.45
74
0
49
-0.05
74
0
49
0.1
74
0
49
-0.05
74
0
49
0.1
74
0
49
-0.05
74
0
0
LTYPE
5
1F8
100
AcDbSymbolTableRecord
100
AcDbLinetypeTableRecord
2
DOT
70
64
3
. . . . . . . . . . . . . . . . . . . .
72
65
73
2
40
0.2
49
0.1
74
0
49
-0.1
74
0
0
LTYPE
5
1F9
100
AcDbSymbolTableRecord
100
AcDbLinetypeTableRecord
2
DASHED
70
64
3
- - - - - - - - - - - - - - - - - - - -
72
65
73
2
40
0.2
49
0.1
74
0
49
-0.1
74
0
0
ENDTAB
0
TABLE
2
LAYER
5
2
100
AcDbSymbolTable
70
36
0
LAYER
5
10
100
AcDbSymbolTableRecord
100
AcDbLayerTableRecord
2
0
70
0
62
7
6
CONTINUOUS
370
-3
390
F
0
LAYER
5
1FA
100
AcDbSymbolTableRecord
100
AcDbLayerTableRecord
2
DEFAULT_1
70
0
62
7
6
CENTER
370
-3
390
F
0
LAYER
5
1FB
100
AcDbSymbolTableRecord
100
AcDbLayerTableRecord
2
DEFAULT_2
70
0
62
9
6
HIDDEN
370
-3
390
F
0
LAYER
5
1FC
100
AcDbSymbolTableRecord
100
AcDbLayerTableRecord
2
DEFAULT_3
70
0
62
7
6
PHANTOM
370
-3
390
F
0
LAYER
5
1FD
100
AcDbSymbolTableRecord
100
AcDbLayerTableRecord
2
_BLACK_HOLE
70
0
62
7
6
CONTINUOUS
370
-3
390
F
0
LAYER
5
1FE
100
AcDbSymbolTableRecord
100
AcDbLayerTableRecord
2
ASSI
70
0
62
7
6
CONTINUOUS
370
-3
390
F
0
LAYER
5
1FF
100
AcDbSymbolTableRecord
100
AcDbLayerTableRecord
2
COORDINATE
70
0
62
7
6
CONTINUOUS
370
-3
390
F
0
LAYER
5
200
100
AcDbSymbolTableRecord
100
AcDbLayerTableRecord
2
COPY_PUBLISH
70
0
62
7
6
CONTINUOUS
370
-3
390
F
0
LAYER
5
201
100
AcDbSymbolTableRecord
100
AcDbLayerTableRecord
2
COSMETIC
70
0
62
7
6
CONTINUOUS
370
-3
390
F
0
LAYER
5
202
100
AcDbSymbolTableRecord
100
AcDbLayerTableRecord
2
CURVE
70
0
62
7
6
CONTINUOUS
370
-3
390
F
0
LAYER
5
203
100
AcDbSymbolTableRecord
100
AcDbLayerTableRecord
2
DRAFT
70
0
62
7
6
CONTINUOUS
370
-3
390
F
0
LAYER
5
204
100
AcDbSymbolTableRecord
100
AcDbLayerTableRecord
2
IMPORT_IGES
70
0
62
7
6
CONTINUOUS
370
-3
390
F
0
LAYER
5
205
100
AcDbSymbolTableRecord
100
AcDbLayerTableRecord
2
NOTE
70
0
62
7
6
CONTINUOUS
370
-3
390
F
0
LAYER
5
206
100
AcDbSymbolTableRecord
100
AcDbLayerTableRecord
2
PIANI
70
0
62
7
6
CONTINUOUS
370
-3
390
F
0
LAYER
5
207
100
AcDbSymbolTableRecord
100
AcDbLayerTableRecord
2
PUNTI
70
0
62
7
6
CONTINUOUS
370
-3
390
F
0
LAYER
5
208
100
AcDbSymbolTableRecord
100
AcDbLayerTableRecord
2
RACCORDO
70
0
62
7
6
CONTINUOUS
370
-3
390
F
0
LAYER
5
209
100
AcDbSymbolTableRecord
100
AcDbLayerTableRecord
2
TRASH
70
0
62
7
6
CONTINUOUS
370
-3
390
F
0
LAYER
5
20A
100
AcDbSymbolTableRecord
100
AcDbLayerTableRecord
2
XSEC_DATUMS
70
0
62
7
6
CONTINUOUS
370
-3
390
F
0
ENDTAB
0
TABLE
2
STYLE
5
3
100
AcDbSymbolTable
70
1
0
STYLE
5
11
100
AcDbSymbolTableRecord
100
AcDbTextStyleTableRecord
2
STANDARD
70
0
40
0.0
41
0.8000000000
50
0.0
71
0
42
0.2
3
txt
4

0
ENDTAB
0
TABLE
2
VIEW
5
6
100
AcDbSymbolTable
70
0
0
ENDTAB
0
TABLE
2
UCS
5
7
100
AcDbSymbolTable
70
0
0
ENDTAB
0
TABLE
2
APPID
5
9
100
AcDbSymbolTable
70
1
0
APPID
5
20B
100
AcDbSymbolTableRecord
100
AcDbRegAppTableRecord
2
ACAD
70
0
0
ENDTAB
0
TABLE
2
BLOCK_RECORD
5
1
100
AcDbSymbolTable
70
0
0
BLOCK_RECORD
5
1F
100
AcDbSymbolTableRecord
100
AcDbBlockTableRecord
2
*MODEL_SPACE
0
BLOCK_RECORD
5
1B
100
AcDbSymbolTableRecord
100
AcDbBlockTableRecord
2
*PAPER_SPACE
0
ENDTAB
0
TABLE
2
DIMSTYLE
5
A
100
AcDbSymbolTable
70
1
100
AcDbDimStyleTable
71
0
0
DIMSTYLE
105
20C
100
AcDbSymbolTableRecord
100
AcDbDimStyleTableRecord
2
STANDARD
70
0
3

4

40
1.0
41
3.0000000000
42
0.0625
43
0.38
44
0.18
45
0.0
46
0.0
47
0.0100000000
48
0.0100000000
140
3.0000000000
141
0.09
142
0.0
143
25.4
144
1.0000000000
145
0.0
146
1.0000000000
147
0.09
71
1
72
0
73
0
74
0
75
0
76
0
77
1
78
8
170
0
171
2
172
0
173
0
174
0
175
0
176
0
177
0
178
0
270
2
271
2
272
2
273
2
274
2
275
0
280
0
281
0
282
0
283
1
284
8
285
0
286
0
287
3
288
0
340
11
0
ENDTAB
0
ENDSEC
0
SECTION
2
BLOCKS
0
BLOCK
5
20
100
AcDbEntity
8
0
100
AcDbBlockBegin
2
*MODEL_SPACE
70
0
10
0.0
20
0.0
30
0.0
3
*MODEL_SPACE
1

0
ENDBLK
5
21
100
AcDbEntity
8
0
100
AcDbBlockEnd
0
BLOCK
5
1C
100
AcDbEntity
8
0
100
AcDbBlockBegin
2
*PAPER_SPACE
70
0
10
0.0
20
0.0
30
0.0
3
*PAPER_SPACE
1

0
ENDBLK
5
1D
100
AcDbEntity
8
0
100
AcDbBlockEnd
0
ENDSEC
0
SECTION
2
ENTITIES
0
LWPOLYLINE
5
20D
100
AcDbEntity
8
0
100
AcDbPolyline
62
0
6
CONTINUOUS
90
23
70
0
10
-96.8860726498
20
170.3482590637
10
-97.0940916956
20
170.2198845165
10
-97.3217244240
20
170.0618759351
10
-97.5431208267
20
169.8887016043
10
-97.7568575000
20
169.7009689061
10
-97.9622570056
20
169.4988744924
10
-98.1587646062
20
169.2825813583
10
-98.3453879160
20
169.0528492387
10
-98.5216561682
20
168.8099962372
10
-98.6871964788
20
168.5543002312
10
-98.8413857587
20
168.2865312682
10
-98.9839418982
20
168.0070201576
10
-99.1146328662
20
167.7160748242
10
-99.2330758897
20
167.4144493286
10
-99.3390929495
20
167.1025124232
10
-99.4325668173
20
166.7805246147
10
-99.5132978177
20
166.4490995857
10
-99.5811661440
20
166.1085847798
10
-99.6360766896
20
165.7592599136
10
-99.6778991197
20
165.4016778369
10
-99.7065270723
20
165.0362638709
10
-99.7218881071
20
164.6633631703
10
-99.7247159691
20
164.4175563179
0
LINE
5
20E
100
AcDbEntity
8
0
100
AcDbLine
62
0
6
CONTINUOUS
10
-96.8874355982
20
170.3474648452
11
-93.8642709217
21
172.1100061379
0
LINE
5
20F
100
AcDbEntity
8
0
100
AcDbLine
62
9
6
CONTINUOUS
10
-92.3526554458
20
170.1088350412
11
-89.3583805162
21
171.8546509374
0
LWPOLYLINE
5
210
100
AcDbEntity
8
0
100
AcDbPolyline
62
0
6
CONTINUOUS
90
17
70
0
10
86.5373012263
20
-171.8325630482
10
86.7426671126
20
-171.9389635365
10
87.0701640643
20
-172.0934397513
10
87.3960646256
20
-172.2287826617
10
87.7197793933
20
-172.3451749983
10
88.0410335168
20
-172.4429547271
10
88.3597689974
20
-172.5224647745
10
88.6755772372
20
-172.5839267017
10
88.9879747894
20
-172.6275735368
10
89.2966884316
20
-172.6536549607
10
89.6012476845
20
-172.6624021185
10
89.9010810273
20
-172.6540931265
10
90.1956440884
20
-172.6290324527
10
90.4843651459
20
-172.5875613078
10
90.7666770531
20
-172.5300897819
10
91.0419660282
20
-172.4570848898
10
91.3060537943
20
-172.3703541286
0
LINE
5
211
100
AcDbEntity
8
0
100
AcDbLine
62
0
6
CONTINUOUS
10
-93.2212949475
20
-75.4488203557
11
86.5372498803
21
-171.8325397722
0
LINE
5
212
100
AcDbEntity
8
0
100
AcDbLine
62
9
6
CONTINUOUS
10
-93.7389157987
20
-74.3682037807
11
86.0196290237
21
-170.7519231943
0
LWPOLYLINE
5
213
100
AcDbEntity
8
0
100
AcDbPolyline
62
0
6
CONTINUOUS
90
37
70
0
10
-99.7247147150
20
-63.8460236725
10
-99.7222202064
20
-64.0791704214
10
-99.7075956248
20
-64.4615255578
10
-99.6800606305
20
-64.8467011499
10
-99.6398229472
20
-65.2340993115
10
-99.5871011729
20
-65.6232283072
10
-99.5220903678
20
-66.0136055163
10
-99.4449994766
20
-66.4046949620
10
-99.3560458149
20
-66.7959347265
10
-99.2554396690
20
-67.1867363370
10
-99.1434086531
20
-67.5765394760
10
-99.0201806409
20
-67.9647814201
10
-98.8860001954
20
-68.3508347610
10
-98.7411198084
20
-68.7341336964
10
-98.5857837524
20
-69.1141117018
10
-98.4202743828
20
-69.4901281880
10
-98.2448658551
20
-69.8616251901
10
-98.0598214424
20
-70.2280414877
10
-97.8654561250
20
-70.5887515835
10
-97.6620604652
20
-70.9432123091
10
-97.4499136005
20
-71.2908780345
10
-97.2293457579
20
-71.6311649748
10
-97.0006518269
20
-71.9635547722
10
-96.7641233056
20
-72.2875202944
10
-96.5200909924
20
-72.6025243623
10
-96.2688484439
20
-72.9080690711
10
-96.0106878034
20
-73.2036553473
10
-95.7459102477
20
-73.4888028241
10
-95.4748031059
20
-73.7630231311
10
-95.1976442115
20
-74.0258465635
10
-94.9146634774
20
-74.2768573987
10
-94.6261301943
20
-74.5155668686
10
-94.3322965172
20
-74.7415083146
10
-94.0332815331
20
-74.9542995669
10
-93.7292626019
20
-75.1534656178
10
-93.4205905219
20
-75.3384371183
10
-93.2211975239
20
-75.4488699415
0
LINE
5
214
100
AcDbEntity
8
0
100
AcDbLine
62
0
6
CONTINUOUS
10
-99.7247180356
20
164.4176046186
11
-99.7247180356
21
-63.8460914322
0
LINE
5
215
100
AcDbEntity
8
0
100
AcDbLine
62
9
6
CONTINUOUS
10
-99.1874254388
20
163.7356062586
11
-99.1874254388
21
-64.5280897850
0
LINE
5
216
100
AcDbEntity
8
0
100
AcDbLine
62
9
6
CONTINUOUS
10
87.4056877756
20
73.7252237229
11
90.7078796413
21
75.3059393754
0
LINE
5
217
100
AcDbEntity
8
0
100
AcDbLine
62
9
6
CONTINUOUS
10
94.2164212864
20
61.4248959968
11
97.5185166914
21
63.0057968808
0
LINE
5
218
100
AcDbEntity
8
0
100
AcDbLine
62
9
6
CONTINUOUS
10
91.4681386638
20
-166.7546204529
11
91.4681386638
21
61.5090755907
0
LINE
5
219
100
AcDbEntity
8
0
100
AcDbLine
62
9
6
CONTINUOUS
10
94.2164212864
20
-166.8385440468
11
94.2164212864
21
61.4248959968
0
LINE
5
21A
100
AcDbEntity
8
0
100
AcDbLine
62
0
6
CONTINUOUS
10
97.5185166914
20
-165.6486468727
11
97.5185166914
21
63.0057968808
0
LINE
5
21B
100
AcDbEntity
8
0
100
AcDbLine
62
9
6
CONTINUOUS
10
86.0196290237
20
71.3491895864
11
-93.7389157987
21
167.7329089999
0
LINE
5
21C
100
AcDbEntity
8
0
100
AcDbLine
62
9
6
CONTINUOUS
10
87.4056877756
20
73.7252237229
11
-92.3526554458
21
170.1088350412
0
LINE
5
21D
100
AcDbEntity
8
0
100
AcDbLine
62
0
6
CONTINUOUS
10
-89.3583805162
20
171.8546509374
11
90.7078796413
21
75.3059393754
0
LINE
5
21E
100
AcDbEntity
8
0
100
AcDbLine
62
0
6
CONTINUOUS
10
91.3047924217
20
-172.3708106815
11
94.6373513576
21
-171.1698124739
0
LINE
5
21F
100
AcDbEntity
8
0
100
AcDbLine
62
9
6
CONTINUOUS
10
94.2164212864
20
-166.8385440468
11
97.5185166914
21
-165.6486468727
0
SPLINE
5
220
100
AcDbEntity
8
0
100
AcDbSpline
62
0
6
CONTINUOUS
70
0
71
3
72
15
73
11
74
9
42
0.0000001000
43
0.0000001000
44
0.0000000001
12
0.0000000000
22
-6.6259915454
32
0.0000000000
13
-6.2463359434
23
-2.2496958516
33
0.0000000000
40
0.0000000000
40
0.0000000000
40
0.0000000000
40
0.0000000000
40
0.1661650530
40
0.3219264234
40
0.4670507074
40
0.6020489013
40
0.7283096645
40
0.8481640494
40
0.9647805518
40
1.0000000000
40
1.0000000000
40
1.0000000000
40
1.0000000000
10
97.5185166914
20
-165.6486468727
30
0.0000000000
10
97.5185166914
20
-166.0156496180
30
0.0000000000
10
97.4831122420
20
-166.7274267066
30
0.0000000000
10
97.3131777908
20
-167.7474396237
30
0.0000000000
10
97.0303288669
20
-168.6710647083
30
0.0000000000
10
96.6381867149
20
-169.4829072199
30
0.0000000000
10
96.1416981204
20
-170.1688173966
30
0.0000000000
10
95.5477538321
20
-170.7152693378
30
0.0000000000
10
95.0241853184
20
-171.0185672950
30
0.0000000000
10
94.7118495733
20
-171.1429296015
30
0.0000000000
10
94.6385187381
20
-171.1693406170
30
0.0000000000
11
97.5185166914
21
-165.6486468727
31
0.0000000000
11
97.4601943689
21
-166.7481093062
31
0.0000000000
11
97.2863217615
21
-167.7654313170
31
0.0000000000
11
96.9999958643
21
-168.6834058223
31
0.0000000000
11
96.6061934268
21
-169.4865523395
31
0.0000000000
11
96.1116733241
21
-170.1613515907
31
0.0000000000
11
95.5248560138
21
-170.6964462026
31
0.0000000000
11
94.8556847700
21
-171.0828075263
31
0.0000000000
11
94.6385187381
21
-171.1693406170
31
0.0000000000
0
SPLINE
5
221
100
AcDbEntity
8
0
100
AcDbSpline
62
0
6
CONTINUOUS
70
0
71
3
72
19
73
15
74
13
42
0.0000001000
43
0.0000001000
44
0.0000000001
12
12.9079452052
22
-6.9210382744
32
0.0000000000
13
0.0000000000
23
-14.6463585992
33
0.0000000000
40
0.0000000000
40
0.0000000000
40
0.0000000000
40
0.0000000000
40
0.0715136263
40
0.1475603541
40
0.2277060957
40
0.3113231147
40
0.3976391661
40
0.4857796355
40
0.5748045815
40
0.6637430365
40
0.7516261173
40
0.8375202775
40
0.9205626657
40
1.0000000000
40
1.0000000000
40
1.0000000000
40
1.0000000000
10
90.7078796413
20
75.3059393754
30
0.0000000000
10
91.0155776310
20
75.1409565272
30
0.0000000000
10
91.6283121864
20
74.7581207940
30
0.0000000000
10
92.5005791998
20
74.0658368430
30
0.0000000000
10
93.3416305561
20
73.2487693758
30
0.0000000000
10
94.1374191373
20
72.3208026907
30
0.0000000000
10
94.8748532949
20
71.2974615539
30
0.0000000000
10
95.5416610837
20
70.1958830414
30
0.0000000000
10
96.1267256995
20
69.0344856782
30
0.0000000000
10
96.6202480960
20
67.8326821633
30
0.0000000000
10
97.0139220995
20
66.6105809112
30
0.0000000000
10
97.3010721101
20
65.3885718895
30
0.0000000000
10
97.4767575880
20
64.1872755397
30
0.0000000000
10
97.5185166914
20
63.3936194420
30
0.0000000000
10
97.5185166914
20
63.0057968808
30
0.0000000000
11
90.7078796413
21
75.3059393754
31
0.0000000000
11
91.5983370071
21
74.7544303392
31
0.0000000000
11
92.4728992628
21
74.0647142138
31
0.0000000000
11
93.3167080661
21
73.2486904822
31
0.0000000000
11
94.1154710582
21
72.3203421350
31
0.0000000000
11
94.8556878391
21
71.2954905313
31
0.0000000000
11
95.5248589180
21
70.1915302948
31
0.0000000000
11
96.1116756788
21
69.0271512461
31
0.0000000000
11
96.6061950127
21
67.8220449309
31
0.0000000000
11
96.9999967043
21
66.5965983145
31
0.0000000000
11
97.2863220667
21
65.3715782921
31
0.0000000000
11
97.4601944172
21
64.1678018563
31
0.0000000000
11
97.5185166914
21
63.0057968808
31
0.0000000000
0
SPLINE
5
222
100
AcDbEntity
8
0
100
AcDbSpline
62
0
6
CONTINUOUS
70
0
71
3
72
22
73
18
74
16
42
0.0000001000
43
0.0000001000
44
0.0000000001
12
5.5457417828
22
-2.9735399809
32
0.0000000000
13
-5.7240055594
23
-2.6646936026
33
0.0000000000
40
0.0000000000
40
0.0000000000
40
0.0000000000
40
0.0000000000
40
0.0672557694
40
0.1400505806
40
0.2174938277
40
0.2983283530
40
0.3810606609
40
0.4640742673
40
0.5457349627
40
0.6244949617
40
0.6990026093
40
0.7682256972
40
0.8315983244
40
0.8891979589
40
0.9419327097
40
0.9916372330
40
1.0000000000
40
1.0000000000
40
1.0000000000
40
1.0000000000
10
72.5241729395
20
57.1276070474
30
0.0000000000
10
72.6485006497
20
57.0609444743
30
0.0000000000
10
72.8952511855
20
56.8988680935
30
0.0000000000
10
73.2378009138
20
56.5957267001
30
0.0000000000
10
73.5589227845
20
56.2311523651
30
0.0000000000
10
73.8490807746
20
55.8159968901
30
0.0000000000
10
74.0997578255
20
55.3625384375
30
0.0000000000
10
74.3034915419
20
54.8842682140
30
0.0000000000
10
74.4542236022
20
54.3954097988
30
0.0000000000
10
74.5474667850
20
53.9104591339
30
0.0000000000
10
74.5804166258
20
53.4436878650
30
0.0000000000
10
74.5519371129
20
53.0086571987
30
0.0000000000
10
74.4623757720
20
52.6178128938
30
0.0000000000
10
74.3131965027
20
52.2823844032
30
0.0000000000
10
74.1067686587
20
52.0129791919
30
0.0000000000
10
73.9174673144
20
51.8724455239
30
0.0000000000
10
73.8079937412
20
51.8180692198
30
0.0000000000
10
73.7920375663
20
51.8106411492
30
0.0000000000
11
72.5241729395
21
57.1276070474
31
0.0000000000
11
72.8794562567
21
56.8976390756
31
0.0000000000
11
73.2239444701
21
56.5957173333
31
0.0000000000
11
73.5471704796
21
56.2310155598
31
0.0000000000
11
73.8393132265
21
55.8146150340
31
0.0000000000
11
74.0914961013
21
55.3591678751
31
0.0000000000
11
74.2960566550
21
54.8785126146
31
0.0000000000
11
74.4467794185
21
54.3872537193
31
0.0000000000
11
74.5390847571
21
53.9003178422
31
0.0000000000
11
74.5701680197
21
53.4325002836
31
0.0000000000
11
74.5390847571
21
52.9980154431
31
0.0000000000
11
74.4467794185
21
52.6100649229
31
0.0000000000
11
74.2960566550
21
52.2804364032
31
0.0000000000
11
74.0914961013
21
52.0191454797
31
0.0000000000
11
73.8393132265
21
51.8341313450
31
0.0000000000
11
73.7920375663
21
51.8106411492
31
0.0000000000
0
SPLINE
5
223
100
AcDbEntity
8
0
100
AcDbSpline
62
0
6
CONTINUOUS
70
0
71
3
72
22
73
18
74
16
42
0.0000001000
43
0.0000001000
44
0.0000000001
12
5.5457417828
22
-2.9735399809
32
0.0000000000
13
-5.7240055594
23
-2.6646936026
33
0.0000000000
40
0.0000000000
40
0.0000000000
40
0.0000000000
40
0.0000000000
40
0.0672557694
40
0.1400505806
40
0.2174938277
40
0.2983283530
40
0.3810606609
40
0.4640742673
40
0.5457349627
40
0.6244949617
40
0.6990026093
40
0.7682256972
40
0.8315983244
40
0.8891979589
40
0.9419327097
40
0.9916372330
40
1.0000000000
40
1.0000000000
40
1.0000000000
40
1.0000000000
10
-80.2434597145
20
139.0392216287
30
0.0000000000
10
-80.1191320043
20
138.9725590556
30
0.0000000000
10
-79.8723814685
20
138.8104826749
30
0.0000000000
10
-79.5298317402
20
138.5073412815
30
0.0000000000
10
-79.2087098695
20
138.1427669465
30
0.0000000000
10
-78.9185518794
20
137.7276114715
30
0.0000000000
10
-78.6678748285
20
137.2741530188
30
0.0000000000
10
-78.4641411121
20
136.7958827953
30
0.0000000000
10
-78.3134090518
20
136.3070243802
30
0.0000000000
10
-78.2201658690
20
135.8220737153
30
0.0000000000
10
-78.1872160282
20
135.3553024464
30
0.0000000000
10
-78.2156955411
20
134.9202717801
30
0.0000000000
10
-78.3052568820
20
134.5294274751
30
0.0000000000
10
-78.4544361513
20
134.1939989846
30
0.0000000000
10
-78.6608639953
20
133.9245937732
30
0.0000000000
10
-78.8501653396
20
133.7840601052
30
0.0000000000
10
-78.9596389128
20
133.7296838011
30
0.0000000000
10
-78.9755950877
20
133.7222557305
30
0.0000000000
11
-80.2434597145
21
139.0392216287
31
0.0000000000
11
-79.8881763973
21
138.8092536569
31
0.0000000000
11
-79.5436881839
21
138.5073319146
31
0.0000000000
11
-79.2204621744
21
138.1426301411
31
0.0000000000
11
-78.9283194275
21
137.7262296153
31
0.0000000000
11
-78.6761365527
21
137.2707824564
31
0.0000000000
11
-78.4715759990
21
136.7901271959
31
0.0000000000
11
-78.3208532355
21
136.2988683006
31
0.0000000000
11
-78.2285478969
21
135.8119324236
31
0.0000000000
11
-78.1974646343
21
135.3441148649
31
0.0000000000
11
-78.2285478969
21
134.9096300245
31
0.0000000000
11
-78.3208532355
21
134.5216795043
31
0.0000000000
11
-78.4715759990
21
134.1920509846
31
0.0000000000
11
-78.6761365527
21
133.9307600611
31
0.0000000000
11
-78.9283194275
21
133.7457459263
31
0.0000000000
11
-78.9755950877
21
133.7222557305
31
0.0000000000
0
SPLINE
5
224
100
AcDbEntity
8
0
100
AcDbSpline
62
0
6
CONTINUOUS
70
0
71
3
72
22
73
18
74
16
42
0.0000001000
43
0.0000001000
44
0.0000000001
12
5.5457417828
22
-2.9735399809
32
0.0000000000
13
-5.7240055594
23
-2.6646936026
33
0.0000000000
40
0.0000000000
40
0.0000000000
40
0.0000000000
40
0.0000000000
40
0.0672557694
40
0.1400505806
40
0.2174938277
40
0.2983283530
40
0.3810606609
40
0.4640742673
40
0.5457349627
40
0.6244949617
40
0.6990026093
40
0.7682256972
40
0.8315983244
40
0.8891979589
40
0.9419327097
40
0.9916372330
40
1.0000000000
40
1.0000000000
40
1.0000000000
40
1.0000000000
10
-80.2434597145
20
-54.9504688190
30
0.0000000000
10
-80.1191320043
20
-55.0171313921
30
0.0000000000
10
-79.8723814685
20
-55.1792077728
30
0.0000000000
10
-79.5298317402
20
-55.4823491662
30
0.0000000000
10
-79.2087098695
20
-55.8469235012
30
0.0000000000
10
-78.9185518794
20
-56.2620789762
30
0.0000000000
10
-78.6678748285
20
-56.7155374289
30
0.0000000000
10
-78.4641411121
20
-57.1938076524
30
0.0000000000
10
-78.3134090518
20
-57.6826660675
30
0.0000000000
10
-78.2201658690
20
-58.1676167324
30
0.0000000000
10
-78.1872160282
20
-58.6343880013
30
0.0000000000
10
-78.2156955411
20
-59.0694186677
30
0.0000000000
10
-78.3052568820
20
-59.4602629726
30
0.0000000000
10
-78.4544361513
20
-59.7956914632
30
0.0000000000
10
-78.6608639953
20
-60.0650966745
30
0.0000000000
10
-78.8501653396
20
-60.2056303425
30
0.0000000000
10
-78.9596389128
20
-60.2600066466
30
0.0000000000
10
-78.9755950877
20
-60.2674347172
30
0.0000000000
11
-80.2434597145
21
-54.9504688190
31
0.0000000000
11
-79.8881763973
21
-55.1804367908
31
0.0000000000
11
-79.5436881839
21
-55.4823585331
31
0.0000000000
11
-79.2204621744
21
-55.8470603066
31
0.0000000000
11
-78.9283194275
21
-56.2634608324
31
0.0000000000
11
-78.6761365527
21
-56.7189079913
31
0.0000000000
11
-78.4715759990
21
-57.1995632518
31
0.0000000000
11
-78.3208532355
21
-57.6908221471
31
0.0000000000
11
-78.2285478969
21
-58.1777580241
31
0.0000000000
11
-78.1974646343
21
-58.6455755828
31
0.0000000000
11
-78.2285478969
21
-59.0800604232
31
0.0000000000
11
-78.3208532355
21
-59.4680109434
31
0.0000000000
11
-78.4715759990
21
-59.7976394632
31
0.0000000000
11
-78.6761365527
21
-60.0589303867
31
0.0000000000
11
-78.9283194275
21
-60.2439445214
31
0.0000000000
11
-78.9755950877
21
-60.2674347172
31
0.0000000000
0
SPLINE
5
225
100
AcDbEntity
8
0
100
AcDbSpline
62
0
6
CONTINUOUS
70
0
71
3
72
22
73
18
74
16
42
0.0000001000
43
0.0000001000
44
0.0000000001
12
5.5457417828
22
-2.9735399809
32
0.0000000000
13
-5.7240055594
23
-2.6646936026
33
0.0000000000
40
0.0000000000
40
0.0000000000
40
0.0000000000
40
0.0000000000
40
0.0672557694
40
0.1400505806
40
0.2174938277
40
0.2983283530
40
0.3810606609
40
0.4640742673
40
0.5457349627
40
0.6244949617
40
0.6990026093
40
0.7682256972
40
0.8315983244
40
0.8891979589
40
0.9419327097
40
0.9916372330
40
1.0000000000
40
1.0000000000
40
1.0000000000
40
1.0000000000
10
72.5241729395
20
-136.8620834004
30
0.0000000000
10
72.6485006497
20
-136.9287459734
30
0.0000000000
10
72.8952511855
20
-137.0908223542
30
0.0000000000
10
73.2378009138
20
-137.3939637476
30
0.0000000000
10
73.5589227845
20
-137.7585380826
30
0.0000000000
10
73.8490807746
20
-138.1736935576
30
0.0000000000
10
74.0997578255
20
-138.6271520103
30
0.0000000000
10
74.3034915419
20
-139.1054222338
30
0.0000000000
10
74.4542236022
20
-139.5942806489
30
0.0000000000
10
74.5474667850
20
-140.0792313138
30
0.0000000000
10
74.5804166258
20
-140.5460025827
30
0.0000000000
10
74.5519371129
20
-140.9810332490
30
0.0000000000
10
74.4623757720
20
-141.3718775539
30
0.0000000000
10
74.3131965027
20
-141.7073060445
30
0.0000000000
10
74.1067686587
20
-141.9767112558
30
0.0000000000
10
73.9174673144
20
-142.1172449239
30
0.0000000000
10
73.8079937412
20
-142.1716212279
30
0.0000000000
10
73.7920375663
20
-142.1790492985
30
0.0000000000
11
72.5241729395
21
-136.8620834004
31
0.0000000000
11
72.8794562567
21
-137.0920513721
31
0.0000000000
11
73.2239444701
21
-137.3939731144
31
0.0000000000
11
73.5471704796
21
-137.7586748879
31
0.0000000000
11
73.8393132265
21
-138.1750754137
31
0.0000000000
11
74.0914961013
21
-138.6305225726
31
0.0000000000
11
74.2960566550
21
-139.1111778332
31
0.0000000000
11
74.4467794185
21
-139.6024367284
31
0.0000000000
11
74.5390847571
21
-140.0893726055
31
0.0000000000
11
74.5701680197
21
-140.5571901641
31
0.0000000000
11
74.5390847571
21
-140.9916750046
31
0.0000000000
11
74.4467794185
21
-141.3796255248
31
0.0000000000
11
74.2960566550
21
-141.7092540445
31
0.0000000000
11
74.0914961013
21
-141.9705449680
31
0.0000000000
11
73.8393132265
21
-142.1555591028
31
0.0000000000
11
73.7920375663
21
-142.1790492985
31
0.0000000000
0
SPLINE
5
226
100
AcDbEntity
8
0
100
AcDbSpline
62
0
6
CONTINUOUS
70
0
71
3
72
11
73
7
74
5
42
0.0000001000
43
0.0000001000
44
0.0000000001
12
1.1989042791
22
0.5581253424
32
0.0000000000
13
1.1615665787
23
-0.6228138268
33
0.0000000000
40
0.0000000000
40
0.0000000000
40
0.0000000000
40
0.0000000000
40
0.1951306960
40
0.4407532969
40
0.7070942262
40
1.0000000000
40
1.0000000000
40
1.0000000000
40
1.0000000000
10
71.2563083127
20
-136.7412699249
30
0.0000000000
10
71.3342893215
20
-136.7049674627
30
0.0000000000
10
71.5206774073
20
-136.6447175109
30
0.0000000000
10
71.8348417674
20
-136.6301120945
30
0.0000000000
10
72.1840118174
20
-136.7024149707
30
0.0000000000
10
72.4107630870
20
-136.8012748117
30
0.0000000000
10
72.5241729395
20
-136.8620834004
30
0.0000000000
11
71.2563083127
21
-136.7412699249
31
0.0000000000
11
71.5011753994
21
-136.6616443355
31
0.0000000000
11
71.8244014089
21
-136.6435600209
31
0.0000000000
11
72.1688896223
21
-136.7110566596
31
0.0000000000
11
72.5241729395
21
-136.8620834004
31
0.0000000000
0
SPLINE
5
227
100
AcDbEntity
8
0
100
AcDbSpline
62
0
6
CONTINUOUS
70
0
71
3
72
11
73
7
74
5
42
0.0000001000
43
0.0000001000
44
0.0000000001
12
1.1989042791
22
0.5581253424
32
0.0000000000
13
1.1615665787
23
-0.6228138268
33
0.0000000000
40
0.0000000000
40
0.0000000000
40
0.0000000000
40
0.0000000000
40
0.1951306960
40
0.4407532969
40
0.7070942262
40
1.0000000000
40
1.0000000000
40
1.0000000000
40
1.0000000000
10
-81.5113243413
20
-54.8296553435
30
0.0000000000
10
-81.4333433325
20
-54.7933528814
30
0.0000000000
10
-81.2469552467
20
-54.7331029296
30
0.0000000000
10
-80.9327908866
20
-54.7184975132
30
0.0000000000
10
-80.5836208366
20
-54.7908003894
30
0.0000000000
10
-80.3568695670
20
-54.8896602304
30
0.0000000000
10
-80.2434597145
20
-54.9504688190
30
0.0000000000
11
-81.5113243413
21
-54.8296553435
31
0.0000000000
11
-81.2664572546
21
-54.7500297541
31
0.0000000000
11
-80.9432312451
21
-54.7319454395
31
0.0000000000
11
-80.5987430317
21
-54.7994420782
31
0.0000000000
11
-80.2434597145
21
-54.9504688190
31
0.0000000000
0
SPLINE
5
228
100
AcDbEntity
8
0
100
AcDbSpline
62
0
6
CONTINUOUS
70
0
71
3
72
11
73
7
74
5
42
0.0000001000
43
0.0000001000
44
0.0000000001
12
1.1989042791
22
0.5581253424
32
0.0000000000
13
1.1615665787
23
-0.6228138268
33
0.0000000000
40
0.0000000000
40
0.0000000000
40
0.0000000000
40
0.0000000000
40
0.1951306960
40
0.4407532969
40
0.7070942262
40
1.0000000000
40
1.0000000000
40
1.0000000000
40
1.0000000000
10
-81.5113243413
20
139.1600351042
30
0.0000000000
10
-81.4333433325
20
139.1963375663
30
0.0000000000
10
-81.2469552467
20
139.2565875181
30
0.0000000000
10
-80.9327908866
20
139.2711929345
30
0.0000000000
10
-80.5836208366
20
139.1988900584
30
0.0000000000
10
-80.3568695670
20
139.1000302173
30
0.0000000000
10
-80.2434597145
20
139.0392216287
30
0.0000000000
11
-81.5113243413
21
139.1600351042
31
0.0000000000
11
-81.2664572546
21
139.2396606936
31
0.0000000000
11
-80.9432312451
21
139.2577450082
31
0.0000000000
11
-80.5987430317
21
139.1902483695
31
0.0000000000
11
-80.2434597145
21
139.0392216287
31
0.0000000000
0
SPLINE
5
229
100
AcDbEntity
8
0
100
AcDbSpline
62
0
6
CONTINUOUS
70
0
71
3
72
11
73
7
74
5
42
0.0000001000
43
0.0000001000
44
0.0000000001
12
1.1989042791
22
0.5581253424
32
0.0000000000
13
1.1615665787
23
-0.6228138268
33
0.0000000000
40
0.0000000000
40
0.0000000000
40
0.0000000000
40
0.0000000000
40
0.1951306960
40
0.4407532969
40
0.7070942262
40
1.0000000000
40
1.0000000000
40
1.0000000000
40
1.0000000000
10
71.2563083127
20
57.2484205228
30
0.0000000000
10
71.3342893215
20
57.2847229850
30
0.0000000000
10
71.5206774073
20
57.3449729368
30
0.0000000000
10
71.8348417674
20
57.3595783532
30
0.0000000000
10
72.1840118174
20
57.2872754770
30
0.0000000000
10
72.4107630870
20
57.1884156360
30
0.0000000000
10
72.5241729395
20
57.1276070474
30
0.0000000000
11
71.2563083127
21
57.2484205228
31
0.0000000000
11
71.5011753994
21
57.3280461122
31
0.0000000000
11
71.8244014089
21
57.3461304268
31
0.0000000000
11
72.1688896223
21
57.2786337881
31
0.0000000000
11
72.5241729395
21
57.1276070474
31
0.0000000000
0
SPLINE
5
22A
100
AcDbEntity
8
0
100
AcDbSpline
62
0
6
CONTINUOUS
70
0
71
3
72
13
73
9
74
7
42
0.0000001000
43
0.0000001000
44
0.0000000001
12
4.0796060314
22
2.3784723590
32
0.0000000000
13
4.1531536239
23
-2.2268559971
33
0.0000000000
40
0.0000000000
40
0.0000000000
40
0.0000000000
40
0.0000000000
40
0.0848693097
40
0.2494198333
40
0.4196017875
40
0.5996494221
40
0.7925583937
40
1.0000000000
40
1.0000000000
40
1.0000000000
40
1.0000000000
10
-93.8631670182
20
172.1105621747
30
0.0000000000
10
-93.7477559024
20
172.1778486104
30
0.0000000000
10
-93.3973672772
20
172.3563377279
30
0.0000000000
10
-92.7625858450
20
172.5529645404
30
0.0000000000
10
-91.9511320891
20
172.6218779246
30
0.0000000000
10
-91.0984145614
20
172.5269104808
30
0.0000000000
10
-90.2192008288
20
172.2719680447
30
0.0000000000
10
-89.6455594693
20
172.0086317991
30
0.0000000000
10
-89.3583805162
20
171.8546509374
30
0.0000000000
11
-93.8631670182
21
172.1105621747
31
0.0000000000
11
-93.5061856449
21
172.2921831643
31
0.0000000000
11
-92.7659691858
21
172.5232486498
31
0.0000000000
11
-91.9672069124
21
172.5950279958
31
0.0000000000
11
-91.1233989983
21
172.5061773671
31
0.0000000000
11
-90.2488375152
21
172.2580403826
31
0.0000000000
11
-89.3583805162
21
171.8546509374
31
0.0000000000
0
SPLINE
5
22B
100
AcDbEntity
8
0
100
AcDbSpline
62
0
6
CONTINUOUS
70
0
71
3
72
19
73
15
74
13
42
0.0000001000
43
0.0000001000
44
0.0000000001
12
-2.7501788357
22
-4.8480868843
32
0.0000000000
13
4.8975756619
23
-2.6260034474
33
0.0000000000
40
0.0000000000
40
0.0000000000
40
0.0000000000
40
0.0000000000
40
0.0155239445
40
0.0871488491
40
0.1662516065
40
0.2525258137
40
0.3448726048
40
0.4416446346
40
0.5408459406
40
0.6403037387
40
0.7378271079
40
0.8313643907
40
0.9191707516
40
1.0000000000
40
1.0000000000
40
1.0000000000
40
1.0000000000
10
71.9765477753
20
-136.6639827478
30
0.0000000000
10
71.9623165674
20
-136.6890698918
30
0.0000000000
10
71.8864318853
20
-136.8321723423
30
0.0000000000
10
71.7833238451
20
-137.1247249370
30
0.0000000000
10
71.7172657566
20
-137.5608937915
30
0.0000000000
10
71.7199667022
20
-138.0399271224
30
0.0000000000
10
71.7909496726
20
-138.5464523996
30
0.0000000000
10
71.9277627150
20
-139.0639220230
30
0.0000000000
10
72.1258450521
20
-139.5752346080
30
0.0000000000
10
72.3786124151
20
-140.0634036640
30
0.0000000000
10
72.6776467703
20
-140.5121875618
30
0.0000000000
10
73.0131290624
20
-140.9067417000
30
0.0000000000
10
73.3739133746
20
-141.2339416544
30
0.0000000000
10
73.6355184457
20
-141.4077845887
30
0.0000000000
10
73.7674742322
20
-141.4785372170
30
0.0000000000
11
71.9765477753
21
-136.6639827478
31
0.0000000000
11
71.9359745422
21
-136.7403773070
31
0.0000000000
11
71.7995836983
21
-137.1143115845
31
0.0000000000
11
71.7302070064
21
-137.5483899624
31
0.0000000000
11
71.7302070064
21
-138.0278304219
31
0.0000000000
11
71.7995836983
21
-138.5363061934
31
0.0000000000
11
71.9359745422
21
-139.0565017443
31
0.0000000000
11
72.1347349113
21
-139.5707024389
31
0.0000000000
11
72.3890962598
21
-140.0613977893
31
0.0000000000
11
72.6903966169
21
-140.5118777540
31
0.0000000000
11
73.0283755605
21
-140.9068017780
31
0.0000000000
11
73.3915236228
21
-141.2327211973
31
0.0000000000
11
73.7674742322
21
-141.4785372170
31
0.0000000000
0
SPLINE
5
22C
100
AcDbEntity
8
0
100
AcDbSpline
62
9
6
CONTINUOUS
70
0
71
3
72
20
73
16
74
14
42
0.0000001000
43
0.0000001000
44
0.0000000001
12
-0.0002981760
22
11.7176696485
32
0.0000000000
13
-10.3267045153
23
5.5374141921
33
0.0000000000
40
0.0000000000
40
0.0000000000
40
0.0000000000
40
0.0000000000
40
0.0731359144
40
0.1494249501
40
0.2282707620
40
0.3089969996
40
0.3908769812
40
0.4731605363
40
0.5550731681
40
0.6358547972
40
0.7147758171
40
0.7911780895
40
0.8644768072
40
0.9341942103
40
1.0000000000
40
1.0000000000
40
1.0000000000
40
1.0000000000
10
91.4681386638
20
61.5090755907
30
0.0000000000
10
91.4681313947
20
61.7947364189
30
0.0000000000
10
91.4398407894
20
62.3786396734
30
0.0000000000
10
91.3200628910
20
63.2631176586
30
0.0000000000
10
91.1237630722
20
64.1641720225
30
0.0000000000
10
90.8538030603
20
65.0686851812
30
0.0000000000
10
90.5141012727
20
65.9637257135
30
0.0000000000
10
90.1095410744
20
66.8364762475
30
0.0000000000
10
89.6459187579
20
67.6744520148
30
0.0000000000
10
89.1298894406
20
68.4656180197
30
0.0000000000
10
88.5688143397
20
69.1986567956
30
0.0000000000
10
87.9706901353
20
69.8630683047
30
0.0000000000
10
87.3439554639
20
70.4493336164
30
0.0000000000
10
86.6976599409
20
70.9489127039
30
0.0000000000
10
86.2461480057
20
71.2277249484
30
0.0000000000
10
86.0196290237
20
71.3491895864
30
0.0000000000
11
91.4681386638
21
61.5090755907
31
0.0000000000
11
91.4284320925
21
62.3651377190
31
0.0000000000
11
91.3098664670
21
63.2511696226
31
0.0000000000
11
91.1141937931
21
64.1541000832
31
0.0000000000
11
90.8443086553
21
65.0607053235
31
0.0000000000
11
90.5041701768
21
65.9578317749
31
0.0000000000
11
90.0986859690
21
66.8325941835
31
0.0000000000
11
89.6337468374
21
67.6722940948
31
0.0000000000
11
89.1160830704
21
68.4647735049
31
0.0000000000
11
88.5532113933
21
69.1985144964
31
0.0000000000
11
87.9532071261
21
69.8629535365
31
0.0000000000
11
87.3247619134
21
70.4484011613
31
0.0000000000
11
86.6770658518
21
70.9462536307
31
0.0000000000
11
86.0196290237
21
71.3491895864
31
0.0000000000
0
SPLINE
5
22D
100
AcDbEntity
8
0
100
AcDbSpline
62
0
6
CONTINUOUS
70
0
71
3
72
13
73
9
74
7
42
0.0000001000
43
0.0000001000
44
0.0000000001
12
0.0563189721
22
-1.9978178544
32
0.0000000000
13
1.4945514682
23
-1.3275894706
33
0.0000000000
40
0.0000000000
40
0.0000000000
40
0.0000000000
40
0.0000000000
40
0.1411118044
40
0.3196862935
40
0.5040718957
40
0.6883245368
40
0.8665140774
40
1.0000000000
40
1.0000000000
40
1.0000000000
40
1.0000000000
10
73.6302519137
20
-137.8693830791
30
0.0000000000
10
73.6329010043
20
-137.9633549732
30
0.0000000000
10
73.6546630393
20
-138.1756943863
30
0.0000000000
10
73.7343371863
20
-138.5026650397
30
0.0000000000
10
73.8677003025
20
-138.8426491614
30
0.0000000000
10
74.0441115580
20
-139.1621155687
30
0.0000000000
10
74.2418141307
20
-139.4277716550
30
0.0000000000
10
74.3872299286
20
-139.5764787728
30
0.0000000000
10
74.4537304558
20
-139.6355502746
30
0.0000000000
11
73.6302519137
21
-137.8693830791
31
0.0000000000
11
73.6577179879
21
-138.1498424640
31
0.0000000000
11
73.7409439003
21
-138.4964920680
31
0.0000000000
11
73.8750088778
21
-138.8393116621
31
0.0000000000
11
74.0531903425
21
-139.1611108404
31
0.0000000000
11
74.2665535318
21
-139.4457532483
31
0.0000000000
11
74.4537304558
21
-139.6355502746
31
0.0000000000
0
SPLINE
5
22E
100
AcDbEntity
8
0
100
AcDbSpline
62
0
6
CONTINUOUS
70
0
71
3
72
9
73
5
74
3
42
0.0000001000
43
0.0000001000
44
0.0000000001
12
-0.5745262260
22
0.1058776178
32
0.0000000000
13
-0.5135911917
23
0.2753795619
33
0.0000000000
40
0.0000000000
40
0.0000000000
40
0.0000000000
40
0.0000000000
40
0.3006597942
40
1.0000000000
40
1.0000000000
40
1.0000000000
40
1.0000000000
10
74.3140990434
20
-141.6772088170
30
0.0000000000
10
74.2565200644
20
-141.6665977694
30
0.0000000000
10
74.0669722176
20
-141.6201753414
30
0.0000000000
10
73.8871992221
20
-141.5427318835
30
0.0000000000
10
73.7674742322
20
-141.4785372170
30
0.0000000000
11
74.3140990434
21
-141.6772088170
31
0.0000000000
11
74.1434248417
21
-141.6358788674
31
0.0000000000
11
73.7674742322
21
-141.4785372170
31
0.0000000000
0
SPLINE
5
22F
100
AcDbEntity
8
0
100
AcDbSpline
62
0
6
CONTINUOUS
70
0
71
3
72
11
73
7
74
5
42
0.0000001000
43
0.0000001000
44
0.0000000001
12
-1.1989042791
22
-0.5581253424
32
0.0000000000
13
-1.1615665787
23
0.6228138268
33
0.0000000000
40
0.0000000000
40
0.0000000000
40
0.0000000000
40
0.0000000000
40
0.1951306960
40
0.4407532969
40
0.7070942262
40
1.0000000000
40
1.0000000000
40
1.0000000000
40
1.0000000000
10
73.7920375663
20
-142.1790492985
30
0.0000000000
10
73.7140565575
20
-142.2153517607
30
0.0000000000
10
73.5276684717
20
-142.2756017125
30
0.0000000000
10
73.2135041116
20
-142.2902071289
30
0.0000000000
10
72.8643340616
20
-142.2179042527
30
0.0000000000
10
72.6375827920
20
-142.1190444117
30
0.0000000000
10
72.5241729395
20
-142.0582358231
30
0.0000000000
11
73.7920375663
21
-142.1790492985
31
0.0000000000
11
73.5471704796
21
-142.2586748879
31
0.0000000000
11
73.2239444701
21
-142.2767592025
31
0.0000000000
11
72.8794562567
21
-142.2092625638
31
0.0000000000
11
72.5241729395
21
-142.0582358231
31
0.0000000000
0
SPLINE
5
230
100
AcDbEntity
8
0
100
AcDbSpline
62
0
6
CONTINUOUS
70
0
71
3
72
22
73
18
74
16
42
0.0000001000
43
0.0000001000
44
0.0000000001
12
-5.5457417828
22
2.9735399809
32
0.0000000000
13
5.7240055594
23
2.6646936026
33
0.0000000000
40
0.0000000000
40
0.0000000000
40
0.0000000000
40
0.0000000000
40
0.0672557694
40
0.1400505806
40
0.2174938277
40
0.2983283530
40
0.3810606609
40
0.4640742673
40
0.5457349627
40
0.6244949617
40
0.6990026093
40
0.7682256972
40
0.8315983244
40
0.8891979589
40
0.9419327097
40
0.9916372330
40
1.0000000000
40
1.0000000000
40
1.0000000000
40
1.0000000000
10
72.5241729395
20
51.9314546247
30
0.0000000000
10
72.3998452293
20
51.9981171977
30
0.0000000000
10
72.1530946935
20
52.1601935785
30
0.0000000000
10
71.8105449652
20
52.4633349719
30
0.0000000000
10
71.4894230945
20
52.8279093069
30
0.0000000000
10
71.1992651044
20
53.2430647819
30
0.0000000000
10
70.9485880535
20
53.6965232346
30
0.0000000000
10
70.7448543370
20
54.1747934581
30
0.0000000000
10
70.5941222768
20
54.6636518732
30
0.0000000000
10
70.5008790940
20
55.1486025381
30
0.0000000000
10
70.4679292532
20
55.6153738070
30
0.0000000000
10
70.4964087661
20
56.0504044733
30
0.0000000000
10
70.5859701070
20
56.4412487782
30
0.0000000000
10
70.7351493763
20
56.7766772688
30
0.0000000000
10
70.9415772203
20
57.0460824801
30
0.0000000000
10
71.1308785646
20
57.1866161482
30
0.0000000000
10
71.2403521378
20
57.2409924523
30
0.0000000000
10
71.2563083127
20
57.2484205228
30
0.0000000000
11
72.5241729395
21
51.9314546247
31
0.0000000000
11
72.1688896223
21
52.1614225964
31
0.0000000000
11
71.8244014089
21
52.4633443387
31
0.0000000000
11
71.5011753994
21
52.8280461122
31
0.0000000000
11
71.2090326525
21
53.2444466381
31
0.0000000000
11
70.9568497777
21
53.6998937970
31
0.0000000000
11
70.7522892240
21
54.1805490575
31
0.0000000000
11
70.6015664605
21
54.6718079527
31
0.0000000000
11
70.5092611219
21
55.1587438298
31
0.0000000000
11
70.4781778593
21
55.6265613884
31
0.0000000000
11
70.5092611219
21
56.0610462289
31
0.0000000000
11
70.6015664605
21
56.4489967491
31
0.0000000000
11
70.7522892240
21
56.7786252688
31
0.0000000000
11
70.9568497777
21
57.0399161923
31
0.0000000000
11
71.2090326525
21
57.2249303271
31
0.0000000000
11
71.2563083127
21
57.2484205228
31
0.0000000000
0
SPLINE
5
231
100
AcDbEntity
8
0
100
AcDbSpline
62
0
6
CONTINUOUS
70
0
71
3
72
22
73
18
74
16
42
0.0000001000
43
0.0000001000
44
0.0000000001
12
-5.5457417828
22
2.9735399809
32
0.0000000000
13
5.7240055594
23
2.6646936026
33
0.0000000000
40
0.0000000000
40
0.0000000000
40
0.0000000000
40
0.0000000000
40
0.0672557694
40
0.1400505806
40
0.2174938277
40
0.2983283530
40
0.3810606609
40
0.4640742673
40
0.5457349627
40
0.6244949617
40
0.6990026093
40
0.7682256972
40
0.8315983244
40
0.8891979589
40
0.9419327097
40
0.9916372330
40
1.0000000000
40
1.0000000000
40
1.0000000000
40
1.0000000000
10
-80.2434597145
20
133.8430692060
30
0.0000000000
10
-80.3677874247
20
133.9097317791
30
0.0000000000
10
-80.6145379605
20
134.0718081598
30
0.0000000000
10
-80.9570876888
20
134.3749495532
30
0.0000000000
10
-81.2782095595
20
134.7395238882
30
0.0000000000
10
-81.5683675496
20
135.1546793632
30
0.0000000000
10
-81.8190446005
20
135.6081378159
30
0.0000000000
10
-82.0227783170
20
136.0864080394
30
0.0000000000
10
-82.1735103772
20
136.5752664545
30
0.0000000000
10
-82.2667535600
20
137.0602171194
30
0.0000000000
10
-82.2997034008
20
137.5269883883
30
0.0000000000
10
-82.2712238879
20
137.9620190547
30
0.0000000000
10
-82.1816625470
20
138.3528633596
30
0.0000000000
10
-82.0324832777
20
138.6882918502
30
0.0000000000
10
-81.8260554337
20
138.9576970615
30
0.0000000000
10
-81.6367540894
20
139.0982307295
30
0.0000000000
10
-81.5272805162
20
139.1526070336
30
0.0000000000
10
-81.5113243413
20
139.1600351042
30
0.0000000000
11
-80.2434597145
21
133.8430692060
31
0.0000000000
11
-80.5987430317
21
134.0730371778
31
0.0000000000
11
-80.9432312451
21
134.3749589201
31
0.0000000000
11
-81.2664572546
21
134.7396606936
31
0.0000000000
11
-81.5586000015
21
135.1560612194
31
0.0000000000
11
-81.8107828763
21
135.6115083783
31
0.0000000000
11
-82.0153434300
21
136.0921636388
31
0.0000000000
11
-82.1660661935
21
136.5834225341
31
0.0000000000
11
-82.2583715321
21
137.0703584111
31
0.0000000000
11
-82.2894547947
21
137.5381759698
31
0.0000000000
11
-82.2583715321
21
137.9726608102
31
0.0000000000
11
-82.1660661935
21
138.3606113304
31
0.0000000000
11
-82.0153434300
21
138.6902398502
31
0.0000000000
11
-81.8107828763
21
138.9515307737
31
0.0000000000
11
-81.5586000015
21
139.1365449084
31
0.0000000000
11
-81.5113243413
21
139.1600351042
31
0.0000000000
0
SPLINE
5
232
100
AcDbEntity
8
0
100
AcDbSpline
62
9
6
CONTINUOUS
70
0
71
3
72
20
73
16
74
14
42
0.0000001000
43
0.0000001000
44
0.0000000001
12
7.5491412640
22
-4.0474216766
32
0.0000000000
13
0.0002041150
23
8.5656964696
33
0.0000000000
40
0.0000000000
40
0.0000000000
40
0.0000000000
40
0.0000000000
40
0.0844603273
40
0.1634855111
40
0.2375761719
40
0.3076655445
40
0.3751103946
40
0.4415938258
40
0.5089145962
40
0.5787630423
40
0.6525177526
40
0.7311598781
40
0.8152386952
40
0.9049100477
40
1.0000000000
40
1.0000000000
40
1.0000000000
40
1.0000000000
10
86.0196290237
20
-170.7519231943
30
0.0000000000
10
86.2321633376
20
-170.8658720474
30
0.0000000000
10
86.6568010174
20
-171.0631775260
30
0.0000000000
10
87.3070785197
20
-171.2641221319
30
0.0000000000
10
87.9405671273
20
-171.3566433530
30
0.0000000000
10
88.5479727306
20
-171.3381447969
30
0.0000000000
10
89.1197080437
20
-171.2076609674
30
0.0000000000
10
89.6458008116
20
-170.9665247413
30
0.0000000000
10
90.1169030022
20
-170.6189978433
30
0.0000000000
10
90.5254403715
20
-170.1717849857
30
0.0000000000
10
90.8659245528
20
-169.6328412723
30
0.0000000000
10
91.1343672653
20
-169.0107038861
30
0.0000000000
10
91.3277396863
20
-168.3144588594
30
0.0000000000
10
91.4438376812
20
-167.5541238083
30
0.0000000000
10
91.4681321940
20
-167.0261243425
30
0.0000000000
10
91.4681386638
20
-166.7546204529
30
0.0000000000
11
86.0196290237
21
-170.7519231943
31
0.0000000000
11
86.6770152749
21
-171.0539826224
31
0.0000000000
11
87.3247048210
21
-171.2507048401
31
0.0000000000
11
87.9531438066
21
-171.3391919777
31
0.0000000000
11
88.5531406860
21
-171.3181913172
31
0.0000000000
11
89.1160087022
21
-171.1880725885
31
0.0000000000
11
89.6336728931
21
-170.9507379801
31
0.0000000000
11
90.0986205531
21
-170.6096396481
31
0.0000000000
11
90.5041190529
21
-170.1697140177
31
0.0000000000
11
90.8442719044
21
-169.6373444856
31
0.0000000000
11
91.1141700665
21
-169.0201532246
31
0.0000000000
11
91.3098530719
21
-168.3270536489
31
0.0000000000
11
91.4284259349
21
-167.5681634192
31
0.0000000000
11
91.4681386638
21
-166.7546204529
31
0.0000000000
0
SPLINE
5
233
100
AcDbEntity
8
0
100
AcDbSpline
62
0
6
CONTINUOUS
70
0
71
3
72
22
73
18
74
16
42
0.0000001000
43
0.0000001000
44
0.0000000001
12
-5.5457417828
22
2.9735399809
32
0.0000000000
13
5.7240055594
23
2.6646936026
33
0.0000000000
40
0.0000000000
40
0.0000000000
40
0.0000000000
40
0.0000000000
40
0.0672557694
40
0.1400505806
40
0.2174938277
40
0.2983283530
40
0.3810606609
40
0.4640742673
40
0.5457349627
40
0.6244949617
40
0.6990026093
40
0.7682256972
40
0.8315983244
40
0.8891979589
40
0.9419327097
40
0.9916372330
40
1.0000000000
40
1.0000000000
40
1.0000000000
40
1.0000000000
10
-80.2434597145
20
-60.1466212417
30
0.0000000000
10
-80.3677874247
20
-60.0799586686
30
0.0000000000
10
-80.6145379605
20
-59.9178822879
30
0.0000000000
10
-80.9570876888
20
-59.6147408945
30
0.0000000000
10
-81.2782095595
20
-59.2501665595
30
0.0000000000
10
-81.5683675496
20
-58.8350110845
30
0.0000000000
10
-81.8190446005
20
-58.3815526318
30
0.0000000000
10
-82.0227783170
20
-57.9032824083
30
0.0000000000
10
-82.1735103772
20
-57.4144239932
30
0.0000000000
10
-82.2667535600
20
-56.9294733283
30
0.0000000000
10
-82.2997034008
20
-56.4627020594
30
0.0000000000
10
-82.2712238879
20
-56.0276713930
30
0.0000000000
10
-82.1816625470
20
-55.6368270881
30
0.0000000000
10
-82.0324832777
20
-55.3013985976
30
0.0000000000
10
-81.8260554337
20
-55.0319933862
30
0.0000000000
10
-81.6367540894
20
-54.8914597182
30
0.0000000000
10
-81.5272805162
20
-54.8370834141
30
0.0000000000
10
-81.5113243413
20
-54.8296553435
30
0.0000000000
11
-80.2434597145
21
-60.1466212417
31
0.0000000000
11
-80.5987430317
21
-59.9166532699
31
0.0000000000
11
-80.9432312451
21
-59.6147315276
31
0.0000000000
11
-81.2664572546
21
-59.2500297541
31
0.0000000000
11
-81.5586000015
21
-58.8336292283
31
0.0000000000
11
-81.8107828763
21
-58.3781820694
31
0.0000000000
11
-82.0153434300
21
-57.8975268089
31
0.0000000000
11
-82.1660661935
21
-57.4062679136
31
0.0000000000
11
-82.2583715321
21
-56.9193320366
31
0.0000000000
11
-82.2894547947
21
-56.4515144779
31
0.0000000000
11
-82.2583715321
21
-56.0170296375
31
0.0000000000
11
-82.1660661935
21
-55.6290791173
31
0.0000000000
11
-82.0153434300
21
-55.2994505975
31
0.0000000000
11
-81.8107828763
21
-55.0381596741
31
0.0000000000
11
-81.5586000015
21
-54.8531455393
31
0.0000000000
11
-81.5113243413
21
-54.8296553435
31
0.0000000000
0
SPLINE
5
234
100
AcDbEntity
8
0
100
AcDbSpline
62
0
6
CONTINUOUS
70
0
71
3
72
19
73
15
74
13
42
0.0000001000
43
0.0000001000
44
0.0000000001
12
-2.7501788357
22
-4.8480868843
32
0.0000000000
13
4.8975756619
23
-2.6260034474
33
0.0000000000
40
0.0000000000
40
0.0000000000
40
0.0000000000
40
0.0000000000
40
0.0155239445
40
0.0871488491
40
0.1662516065
40
0.2525258137
40
0.3448726048
40
0.4416446346
40
0.5408459406
40
0.6403037387
40
0.7378271079
40
0.8313643907
40
0.9191707516
40
1.0000000000
40
1.0000000000
40
1.0000000000
40
1.0000000000
10
-80.7910848787
20
-54.7523681665
30
0.0000000000
10
-80.8053160866
20
-54.7774553105
30
0.0000000000
10
-80.8812007687
20
-54.9205577610
30
0.0000000000
10
-80.9843088089
20
-55.2131103557
30
0.0000000000
10
-81.0503668974
20
-55.6492792102
30
0.0000000000
10
-81.0476659518
20
-56.1283125411
30
0.0000000000
10
-80.9766829814
20
-56.6348378183
30
0.0000000000
10
-80.8398699390
20
-57.1523074417
30
0.0000000000
10
-80.6417876019
20
-57.6636200266
30
0.0000000000
10
-80.3890202389
20
-58.1517890827
30
0.0000000000
10
-80.0899858837
20
-58.6005729804
30
0.0000000000
10
-79.7545035916
20
-58.9951271186
30
0.0000000000
10
-79.3937192794
20
-59.3223270730
30
0.0000000000
10
-79.1321142083
20
-59.4961700073
30
0.0000000000
10
-79.0001584218
20
-59.5669226357
30
0.0000000000
11
-80.7910848787
21
-54.7523681665
31
0.0000000000
11
-80.8316581118
21
-54.8287627256
31
0.0000000000
11
-80.9680489557
21
-55.2026970032
31
0.0000000000
11
-81.0374256476
21
-55.6367753810
31
0.0000000000
11
-81.0374256476
21
-56.1162158406
31
0.0000000000
11
-80.9680489557
21
-56.6246916121
31
0.0000000000
11
-80.8316581118
21
-57.1448871629
31
0.0000000000
11
-80.6328977427
21
-57.6590878575
31
0.0000000000
11
-80.3785363942
21
-58.1497832080
31
0.0000000000
11
-80.0772360371
21
-58.6002631727
31
0.0000000000
11
-79.7392570935
21
-58.9951871966
31
0.0000000000
11
-79.3761090312
21
-59.3211066160
31
0.0000000000
11
-79.0001584218
21
-59.5669226357
31
0.0000000000
0
SPLINE
5
235
100
AcDbEntity
8
0
100
AcDbSpline
62
0
6
CONTINUOUS
70
0
71
3
72
22
73
18
74
16
42
0.0000001000
43
0.0000001000
44
0.0000000001
12
-5.5457417828
22
2.9735399809
32
0.0000000000
13
5.7240055594
23
2.6646936026
33
0.0000000000
40
0.0000000000
40
0.0000000000
40
0.0000000000
40
0.0000000000
40
0.0672557694
40
0.1400505806
40
0.2174938277
40
0.2983283530
40
0.3810606609
40
0.4640742673
40
0.5457349627
40
0.6244949617
40
0.6990026093
40
0.7682256972
40
0.8315983244
40
0.8891979589
40
0.9419327097
40
0.9916372330
40
1.0000000000
40
1.0000000000
40
1.0000000000
40
1.0000000000
10
72.5241729395
20
-142.0582358231
30
0.0000000000
10
72.3998452293
20
-141.9915732500
30
0.0000000000
10
72.1530946935
20
-141.8294968692
30
0.0000000000
10
71.8105449652
20
-141.5263554758
30
0.0000000000
10
71.4894230945
20
-141.1617811408
30
0.0000000000
10
71.1992651044
20
-140.7466256658
30
0.0000000000
10
70.9485880535
20
-140.2931672131
30
0.0000000000
10
70.7448543370
20
-139.8148969897
30
0.0000000000
10
70.5941222768
20
-139.3260385745
30
0.0000000000
10
70.5008790940
20
-138.8410879096
30
0.0000000000
10
70.4679292532
20
-138.3743166407
30
0.0000000000
10
70.4964087661
20
-137.9392859744
30
0.0000000000
10
70.5859701070
20
-137.5484416695
30
0.0000000000
10
70.7351493763
20
-137.2130131789
30
0.0000000000
10
70.9415772203
20
-136.9436079676
30
0.0000000000
10
71.1308785646
20
-136.8030742996
30
0.0000000000
10
71.2403521378
20
-136.7486979955
30
0.0000000000
10
71.2563083127
20
-136.7412699249
30
0.0000000000
11
72.5241729395
21
-142.0582358231
31
0.0000000000
11
72.1688896223
21
-141.8282678513
31
0.0000000000
11
71.8244014089
21
-141.5263461090
31
0.0000000000
11
71.5011753994
21
-141.1616443355
31
0.0000000000
11
71.2090326525
21
-140.7452438097
31
0.0000000000
11
70.9568497777
21
-140.2897966508
31
0.0000000000
11
70.7522892240
21
-139.8091413902
31
0.0000000000
11
70.6015664605
21
-139.3178824950
31
0.0000000000
11
70.5092611219
21
-138.8309466179
31
0.0000000000
11
70.4781778593
21
-138.3631290593
31
0.0000000000
11
70.5092611219
21
-137.9286442188
31
0.0000000000
11
70.6015664605
21
-137.5406936986
31
0.0000000000
11
70.7522892240
21
-137.2110651789
31
0.0000000000
11
70.9568497777
21
-136.9497742554
31
0.0000000000
11
71.2090326525
21
-136.7647601206
31
0.0000000000
11
71.2563083127
21
-136.7412699249
31
0.0000000000
0
SPLINE
5
236
100
AcDbEntity
8
0
100
AcDbSpline
62
0
6
CONTINUOUS
70
0
71
3
72
13
73
9
74
7
42
0.0000001000
43
0.0000001000
44
0.0000000001
12
0.0563189721
22
-1.9978178544
32
0.0000000000
13
1.4945514682
23
-1.3275894706
33
0.0000000000
40
0.0000000000
40
0.0000000000
40
0.0000000000
40
0.0000000000
40
0.1411118044
40
0.3196862935
40
0.5040718957
40
0.6883245368
40
0.8665140774
40
1.0000000000
40
1.0000000000
40
1.0000000000
40
1.0000000000
10
-79.1373807403
20
-55.9577684977
30
0.0000000000
10
-79.1347316497
20
-56.0517403918
30
0.0000000000
10
-79.1129696147
20
-56.2640798049
30
0.0000000000
10
-79.0332954677
20
-56.5910504584
30
0.0000000000
10
-78.8999323515
20
-56.9310345800
30
0.0000000000
10
-78.7235210960
20
-57.2505009874
30
0.0000000000
10
-78.5258185233
20
-57.5161570736
30
0.0000000000
10
-78.3804027254
20
-57.6648641915
30
0.0000000000
10
-78.3139021982
20
-57.7239356933
30
0.0000000000
11
-79.1373807403
21
-55.9577684977
31
0.0000000000
11
-79.1099146661
21
-56.2382278827
31
0.0000000000
11
-79.0266887537
21
-56.5848774867
31
0.0000000000
11
-78.8926237762
21
-56.9276970808
31
0.0000000000
11
-78.7144423115
21
-57.2494962590
31
0.0000000000
11
-78.5010791222
21
-57.5341386669
31
0.0000000000
11
-78.3139021982
21
-57.7239356933
31
0.0000000000
0
SPLINE
5
237
100
AcDbEntity
8
0
100
AcDbSpline
62
0
6
CONTINUOUS
70
0
71
3
72
9
73
5
74
3
42
0.0000001000
43
0.0000001000
44
0.0000000001
12
-0.5745262260
22
0.1058776178
32
0.0000000000
13
-0.5135911917
23
0.2753795619
33
0.0000000000
40
0.0000000000
40
0.0000000000
40
0.0000000000
40
0.0000000000
40
0.3006597942
40
1.0000000000
40
1.0000000000
40
1.0000000000
40
1.0000000000
10
-78.4535336106
20
-59.7655942356
30
0.0000000000
10
-78.5111125896
20
-59.7549831880
30
0.0000000000
10
-78.7006604364
20
-59.7085607600
30
0.0000000000
10
-78.8804334319
20
-59.6311173021
30
0.0000000000
10
-79.0001584218
20
-59.5669226357
30
0.0000000000
11
-78.4535336106
21
-59.7655942356
31
0.0000000000
11
-78.6242078123
21
-59.7242642860
31
0.0000000000
11
-79.0001584218
21
-59.5669226357
31
0.0000000000
0
SPLINE
5
238
100
AcDbEntity
8
0
100
AcDbSpline
62
0
6
CONTINUOUS
70
0
71
3
72
11
73
7
74
5
42
0.0000001000
43
0.0000001000
44
0.0000000001
12
-1.1989042791
22
-0.5581253424
32
0.0000000000
13
-1.1615665787
23
0.6228138268
33
0.0000000000
40
0.0000000000
40
0.0000000000
40
0.0000000000
40
0.0000000000
40
0.1951306960
40
0.4407532969
40
0.7070942262
40
1.0000000000
40
1.0000000000
40
1.0000000000
40
1.0000000000
10
-78.9755950877
20
-60.2674347172
30
0.0000000000
10
-79.0535760965
20
-60.3037371793
30
0.0000000000
10
-79.2399641823
20
-60.3639871311
30
0.0000000000
10
-79.5541285424
20
-60.3785925475
30
0.0000000000
10
-79.9032985924
20
-60.3062896714
30
0.0000000000
10
-80.1300498620
20
-60.2074298303
30
0.0000000000
10
-80.2434597145
20
-60.1466212417
30
0.0000000000
11
-78.9755950877
21
-60.2674347172
31
0.0000000000
11
-79.2204621744
21
-60.3470603066
31
0.0000000000
11
-79.5436881839
21
-60.3651446212
31
0.0000000000
11
-79.8881763973
21
-60.2976479825
31
0.0000000000
11
-80.2434597145
21
-60.1466212417
31
0.0000000000
0
SPLINE
5
239
100
AcDbEntity
8
0
100
AcDbSpline
62
9
6
CONTINUOUS
70
0
71
3
72
20
73
16
74
14
42
0.0000001000
43
0.0000001000
44
0.0000000001
12
0.0002981760
22
-11.7176696485
32
0.0000000000
13
10.3267045153
23
-5.5374141921
33
0.0000000000
40
0.0000000000
40
0.0000000000
40
0.0000000000
40
0.0000000000
40
0.0731359144
40
0.1494249501
40
0.2282707620
40
0.3089969996
40
0.3908769812
40
0.4731605363
40
0.5550731681
40
0.6358547972
40
0.7147758171
40
0.7911780895
40
0.8644768072
40
0.9341942103
40
1.0000000000
40
1.0000000000
40
1.0000000000
40
1.0000000000
10
-99.1874254388
20
-64.5280897850
30
0.0000000000
10
-99.1874181697
20
-64.8137506132
30
0.0000000000
10
-99.1591275645
20
-65.3976538677
30
0.0000000000
10
-99.0393496660
20
-66.2821318530
30
0.0000000000
10
-98.8430498472
20
-67.1831862168
30
0.0000000000
10
-98.5730898354
20
-68.0876993755
30
0.0000000000
10
-98.2333880477
20
-68.9827399078
30
0.0000000000
10
-97.8288278494
20
-69.8554904418
30
0.0000000000
10
-97.3652055329
20
-70.6934662092
30
0.0000000000
10
-96.8491762156
20
-71.4846322140
30
0.0000000000
10
-96.2881011148
20
-72.2176709899
30
0.0000000000
10
-95.6899769103
20
-72.8820824990
30
0.0000000000
10
-95.0632422389
20
-73.4683478108
30
0.0000000000
10
-94.4169467159
20
-73.9679268982
30
0.0000000000
10
-93.9654347807
20
-74.2467391427
30
0.0000000000
10
-93.7389157987
20
-74.3682037807
30
0.0000000000
11
-99.1874254388
21
-64.5280897850
31
0.0000000000
11
-99.1477188675
21
-65.3841519133
31
0.0000000000
11
-99.0291532420
21
-66.2701838169
31
0.0000000000
11
-98.8334805681
21
-67.1731142776
31
0.0000000000
11
-98.5635954303
21
-68.0797195178
31
0.0000000000
11
-98.2234569518
21
-68.9768459692
31
0.0000000000
11
-97.8179727440
21
-69.8516083778
31
0.0000000000
11
-97.3530336124
21
-70.6913082892
31
0.0000000000
11
-96.8353698454
21
-71.4837876993
31
0.0000000000
11
-96.2724981684
21
-72.2175286907
31
0.0000000000
11
-95.6724939011
21
-72.8819677309
31
0.0000000000
11
-95.0440486884
21
-73.4674153557
31
0.0000000000
11
-94.3963526268
21
-73.9652678251
31
0.0000000000
11
-93.7389157987
21
-74.3682037807
31
0.0000000000
0
SPLINE
5
23A
100
AcDbEntity
8
0
100
AcDbSpline
62
9
6
CONTINUOUS
70
0
71
3
72
20
73
16
74
14
42
0.0000001000
43
0.0000001000
44
0.0000000001
12
-7.5491412640
22
4.0474216766
32
0.0000000000
13
-0.0002041150
23
-8.5656964696
33
0.0000000000
40
0.0000000000
40
0.0000000000
40
0.0000000000
40
0.0000000000
40
0.0844603273
40
0.1634855111
40
0.2375761719
40
0.3076655445
40
0.3751103946
40
0.4415938258
40
0.5089145962
40
0.5787630423
40
0.6525177526
40
0.7311598781
40
0.8152386952
40
0.9049100477
40
1.0000000000
40
1.0000000000
40
1.0000000000
40
1.0000000000
10
-93.7389157987
20
167.7329089999
30
0.0000000000
10
-93.9514501126
20
167.8468578531
30
0.0000000000
10
-94.3760877924
20
168.0441633317
30
0.0000000000
10
-95.0263652947
20
168.2451079376
30
0.0000000000
10
-95.6598539023
20
168.3376291587
30
0.0000000000
10
-96.2672595056
20
168.3191306025
30
0.0000000000
10
-96.8389948187
20
168.1886467731
30
0.0000000000
10
-97.3650875866
20
167.9475105469
30
0.0000000000
10
-97.8361897773
20
167.5999836490
30
0.0000000000
10
-98.2447271465
20
167.1527707913
30
0.0000000000
10
-98.5852113278
20
166.6138270779
30
0.0000000000
10
-98.8536540403
20
165.9916896917
30
0.0000000000
10
-99.0470264613
20
165.2954446651
30
0.0000000000
10
-99.1631244562
20
164.5351096139
30
0.0000000000
10
-99.1874189690
20
164.0071101481
30
0.0000000000
10
-99.1874254388
20
163.7356062586
30
0.0000000000
11
-93.7389157987
21
167.7329089999
31
0.0000000000
11
-94.3963020499
21
168.0349684281
31
0.0000000000
11
-95.0439915960
21
168.2316906457
31
0.0000000000
11
-95.6724305816
21
168.3201777834
31
0.0000000000
11
-96.2724274610
21
168.2991771229
31
0.0000000000
11
-96.8352954772
21
168.1690583941
31
0.0000000000
11
-97.3529596681
21
167.9317237857
31
0.0000000000
11
-97.8179073281
21
167.5906254537
31
0.0000000000
11
-98.2234058279
21
167.1506998233
31
0.0000000000
11
-98.5635586794
21
166.6183302912
31
0.0000000000
11
-98.8334568415
21
166.0011390302
31
0.0000000000
11
-99.0291398469
21
165.3080394546
31
0.0000000000
11
-99.1477127099
21
164.5491492249
31
0.0000000000
11
-99.1874254388
21
163.7356062586
31
0.0000000000
0
SPLINE
5
23B
100
AcDbEntity
8
0
100
AcDbSpline
62
0
6
CONTINUOUS
70
0
71
3
72
19
73
15
74
13
42
0.0000001000
43
0.0000001000
44
0.0000000001
12
-2.7501788357
22
-4.8480868843
32
0.0000000000
13
4.8975756619
23
-2.6260034474
33
0.0000000000
40
0.0000000000
40
0.0000000000
40
0.0000000000
40
0.0000000000
40
0.0155239445
40
0.0871488491
40
0.1662516065
40
0.2525258137
40
0.3448726048
40
0.4416446346
40
0.5408459406
40
0.6403037387
40
0.7378271079
40
0.8313643907
40
0.9191707516
40
1.0000000000
40
1.0000000000
40
1.0000000000
40
1.0000000000
10
-80.7910848787
20
139.2373222812
30
0.0000000000
10
-80.8053160866
20
139.2122351372
30
0.0000000000
10
-80.8812007687
20
139.0691326867
30
0.0000000000
10
-80.9843088089
20
138.7765800920
30
0.0000000000
10
-81.0503668974
20
138.3404112375
30
0.0000000000
10
-81.0476659518
20
137.8613779066
30
0.0000000000
10
-80.9766829814
20
137.3548526295
30
0.0000000000
10
-80.8398699390
20
136.8373830060
30
0.0000000000
10
-80.6417876019
20
136.3260704211
30
0.0000000000
10
-80.3890202389
20
135.8379013650
30
0.0000000000
10
-80.0899858837
20
135.3891174673
30
0.0000000000
10
-79.7545035916
20
134.9945633291
30
0.0000000000
10
-79.3937192794
20
134.6673633747
30
0.0000000000
10
-79.1321142083
20
134.4935204404
30
0.0000000000
10
-79.0001584218
20
134.4227678121
30
0.0000000000
11
-80.7910848787
21
139.2373222812
31
0.0000000000
11
-80.8316581118
21
139.1609277221
31
0.0000000000
11
-80.9680489557
21
138.7869934445
31
0.0000000000
11
-81.0374256476
21
138.3529150667
31
0.0000000000
11
-81.0374256476
21
137.8734746071
31
0.0000000000
11
-80.9680489557
21
137.3649988356
31
0.0000000000
11
-80.8316581118
21
136.8448032848
31
0.0000000000
11
-80.6328977427
21
136.3306025902
31
0.0000000000
11
-80.3785363942
21
135.8399072397
31
0.0000000000
11
-80.0772360371
21
135.3894272750
31
0.0000000000
11
-79.7392570935
21
134.9945032511
31
0.0000000000
11
-79.3761090312
21
134.6685838318
31
0.0000000000
11
-79.0001584218
21
134.4227678121
31
0.0000000000
0
SPLINE
5
23C
100
AcDbEntity
8
0
100
AcDbSpline
62
0
6
CONTINUOUS
70
0
71
3
72
13
73
9
74
7
42
0.0000001000
43
0.0000001000
44
0.0000000001
12
0.0563189721
22
-1.9978178544
32
0.0000000000
13
1.4945514682
23
-1.3275894706
33
0.0000000000
40
0.0000000000
40
0.0000000000
40
0.0000000000
40
0.0000000000
40
0.1411118044
40
0.3196862935
40
0.5040718957
40
0.6883245368
40
0.8665140774
40
1.0000000000
40
1.0000000000
40
1.0000000000
40
1.0000000000
10
-79.1373807403
20
138.0319219500
30
0.0000000000
10
-79.1347316497
20
137.9379500559
30
0.0000000000
10
-79.1129696147
20
137.7256106428
30
0.0000000000
10
-79.0332954677
20
137.3986399893
30
0.0000000000
10
-78.8999323515
20
137.0586558677
30
0.0000000000
10
-78.7235210960
20
136.7391894603
30
0.0000000000
10
-78.5258185233
20
136.4735333741
30
0.0000000000
10
-78.3804027254
20
136.3248262562
30
0.0000000000
10
-78.3139021982
20
136.2657547544
30
0.0000000000
11
-79.1373807403
21
138.0319219500
31
0.0000000000
11
-79.1099146661
21
137.7514625650
31
0.0000000000
11
-79.0266887537
21
137.4048129610
31
0.0000000000
11
-78.8926237762
21
137.0619933669
31
0.0000000000
11
-78.7144423115
21
136.7401941887
31
0.0000000000
11
-78.5010791222
21
136.4555517808
31
0.0000000000
11
-78.3139021982
21
136.2657547544
31
0.0000000000
0
SPLINE
5
23D
100
AcDbEntity
8
0
100
AcDbSpline
62
0
6
CONTINUOUS
70
0
71
3
72
9
73
5
74
3
42
0.0000001000
43
0.0000001000
44
0.0000000001
12
-0.5745262260
22
0.1058776178
32
0.0000000000
13
-0.5135911917
23
0.2753795619
33
0.0000000000
40
0.0000000000
40
0.0000000000
40
0.0000000000
40
0.0000000000
40
0.3006597942
40
1.0000000000
40
1.0000000000
40
1.0000000000
40
1.0000000000
10
-78.4535336106
20
134.2240962121
30
0.0000000000
10
-78.5111125896
20
134.2347072597
30
0.0000000000
10
-78.7006604364
20
134.2811296877
30
0.0000000000
10
-78.8804334319
20
134.3585731456
30
0.0000000000
10
-79.0001584218
20
134.4227678121
30
0.0000000000
11
-78.4535336106
21
134.2240962121
31
0.0000000000
11
-78.6242078123
21
134.2654261617
31
0.0000000000
11
-79.0001584218
21
134.4227678121
31
0.0000000000
0
SPLINE
5
23E
100
AcDbEntity
8
0
100
AcDbSpline
62
0
6
CONTINUOUS
70
0
71
3
72
11
73
7
74
5
42
0.0000001000
43
0.0000001000
44
0.0000000001
12
-1.1989042791
22
-0.5581253424
32
0.0000000000
13
-1.1615665787
23
0.6228138268
33
0.0000000000
40
0.0000000000
40
0.0000000000
40
0.0000000000
40
0.0000000000
40
0.1951306960
40
0.4407532969
40
0.7070942262
40
1.0000000000
40
1.0000000000
40
1.0000000000
40
1.0000000000
10
-78.9755950877
20
133.7222557305
30
0.0000000000
10
-79.0535760965
20
133.6859532684
30
0.0000000000
10
-79.2399641823
20
133.6257033166
30
0.0000000000
10
-79.5541285424
20
133.6110979002
30
0.0000000000
10
-79.9032985924
20
133.6834007764
30
0.0000000000
10
-80.1300498620
20
133.7822606174
30
0.0000000000
10
-80.2434597145
20
133.8430692060
30
0.0000000000
11
-78.9755950877
21
133.7222557305
31
0.0000000000
11
-79.2204621744
21
133.6426301411
31
0.0000000000
11
-79.5436881839
21
133.6245458265
31
0.0000000000
11
-79.8881763973
21
133.6920424652
31
0.0000000000
11
-80.2434597145
21
133.8430692060
31
0.0000000000
0
SPLINE
5
23F
100
AcDbEntity
8
0
100
AcDbSpline
62
0
6
CONTINUOUS
70
0
71
3
72
13
73
9
74
7
42
0.0000001000
43
0.0000001000
44
0.0000000001
12
0.0563189721
22
-1.9978178544
32
0.0000000000
13
1.4945514682
23
-1.3275894706
33
0.0000000000
40
0.0000000000
40
0.0000000000
40
0.0000000000
40
0.0000000000
40
0.1411118044
40
0.3196862935
40
0.5040718957
40
0.6883245368
40
0.8665140774
40
1.0000000000
40
1.0000000000
40
1.0000000000
40
1.0000000000
10
73.6302519137
20
56.1203073687
30
0.0000000000
10
73.6329010043
20
56.0263354745
30
0.0000000000
10
73.6546630393
20
55.8139960614
30
0.0000000000
10
73.7343371863
20
55.4870254080
30
0.0000000000
10
73.8677003025
20
55.1470412864
30
0.0000000000
10
74.0441115580
20
54.8275748790
30
0.0000000000
10
74.2418141307
20
54.5619187927
30
0.0000000000
10
74.3872299286
20
54.4132116749
30
0.0000000000
10
74.4537304558
20
54.3541401731
30
0.0000000000
11
73.6302519137
21
56.1203073687
31
0.0000000000
11
73.6577179879
21
55.8398479837
31
0.0000000000
11
73.7409439003
21
55.4931983797
31
0.0000000000
11
73.8750088778
21
55.1503787856
31
0.0000000000
11
74.0531903425
21
54.8285796073
31
0.0000000000
11
74.2665535318
21
54.5439371994
31
0.0000000000
11
74.4537304558
21
54.3541401731
31
0.0000000000
0
SPLINE
5
240
100
AcDbEntity
8
0
100
AcDbSpline
62
0
6
CONTINUOUS
70
0
71
3
72
19
73
15
74
13
42
0.0000001000
43
0.0000001000
44
0.0000000001
12
-2.7501788357
22
-4.8480868843
32
0.0000000000
13
4.8975756619
23
-2.6260034474
33
0.0000000000
40
0.0000000000
40
0.0000000000
40
0.0000000000
40
0.0000000000
40
0.0155239445
40
0.0871488491
40
0.1662516065
40
0.2525258137
40
0.3448726048
40
0.4416446346
40
0.5408459406
40
0.6403037387
40
0.7378271079
40
0.8313643907
40
0.9191707516
40
1.0000000000
40
1.0000000000
40
1.0000000000
40
1.0000000000
10
71.9765477753
20
57.3257076999
30
0.0000000000
10
71.9623165674
20
57.3006205559
30
0.0000000000
10
71.8864318853
20
57.1575181054
30
0.0000000000
10
71.7833238451
20
56.8649655107
30
0.0000000000
10
71.7172657566
20
56.4287966562
30
0.0000000000
10
71.7199667022
20
55.9497633253
30
0.0000000000
10
71.7909496726
20
55.4432380481
30
0.0000000000
10
71.9277627150
20
54.9257684247
30
0.0000000000
10
72.1258450521
20
54.4144558397
30
0.0000000000
10
72.3786124151
20
53.9262867837
30
0.0000000000
10
72.6776467703
20
53.4775028860
30
0.0000000000
10
73.0131290624
20
53.0829487477
30
0.0000000000
10
73.3739133746
20
52.7557487933
30
0.0000000000
10
73.6355184457
20
52.5819058590
30
0.0000000000
10
73.7674742322
20
52.5111532307
30
0.0000000000
11
71.9765477753
21
57.3257076999
31
0.0000000000
11
71.9359745422
21
57.2493131407
31
0.0000000000
11
71.7995836983
21
56.8753788632
31
0.0000000000
11
71.7302070064
21
56.4413004853
31
0.0000000000
11
71.7302070064
21
55.9618600258
31
0.0000000000
11
71.7995836983
21
55.4533842543
31
0.0000000000
11
71.9359745422
21
54.9331887035
31
0.0000000000
11
72.1347349113
21
54.4189880088
31
0.0000000000
11
72.3890962598
21
53.9282926584
31
0.0000000000
11
72.6903966169
21
53.4778126937
31
0.0000000000
11
73.0283755605
21
53.0828886697
31
0.0000000000
11
73.3915236228
21
52.7569692504
31
0.0000000000
11
73.7674742322
21
52.5111532307
31
0.0000000000
0
SPLINE
5
241
100
AcDbEntity
8
0
100
AcDbSpline
62
9
6
CONTINUOUS
70
0
71
3
72
20
73
16
74
14
42
0.0000001000
43
0.0000001000
44
0.0000000001
12
-0.1357334047
22
14.6231384997
32
0.0000000000
13
-12.8231113200
23
7.0301080514
33
0.0000000000
40
0.0000000000
40
0.0000000000
40
0.0000000000
40
0.0000000000
40
0.0730145181
40
0.1492453044
40
0.2281059191
40
0.3089022313
40
0.3908895458
40
0.4732992987
40
0.5553383250
40
0.6362277495
40
0.7152198354
40
0.7916373874
40
0.8648762796
40
0.9344395389
40
1.0000000000
40
1.0000000000
40
1.0000000000
40
1.0000000000
10
94.2164228283
20
61.4248967358
30
0.0000000000
10
94.2131193253
20
61.7807972063
30
0.0000000000
10
94.1715187927
20
62.5082718082
30
0.0000000000
10
94.0140253630
20
63.6101411740
30
0.0000000000
10
93.7623221958
20
64.7332705965
30
0.0000000000
10
93.4200705753
20
65.8614406764
30
0.0000000000
10
92.9922294454
20
66.9785171180
30
0.0000000000
10
92.4849519471
20
68.0685011633
30
0.0000000000
10
91.9055075583
20
69.1157990823
30
0.0000000000
10
91.2622153228
20
70.1053737810
30
0.0000000000
10
90.5642528281
20
71.0230758103
30
0.0000000000
10
89.8215675017
20
71.8557655912
30
0.0000000000
10
89.0446450529
20
72.5915225175
30
0.0000000000
10
88.2446175880
20
73.2196943449
30
0.0000000000
10
87.6859188878
20
73.5715920246
30
0.0000000000
10
87.4056891910
20
73.7252243996
30
0.0000000000
11
94.2164228283
21
61.4248967358
31
0.0000000000
11
94.1577091335
21
62.4910286339
31
0.0000000000
11
94.0017299961
21
63.5948438361
31
0.0000000000
11
93.7507817128
21
64.7204485618
31
0.0000000000
11
93.4085810184
21
65.8513557016
31
0.0000000000
11
92.9801463792
21
66.9711580220
31
0.0000000000
11
92.4716605560
21
68.0637729321
31
0.0000000000
11
91.8905118086
21
69.1133411989
31
0.0000000000
11
91.2451128844
21
70.1046696355
31
0.0000000000
11
90.5448270009
21
71.0233637427
31
0.0000000000
11
89.7996972792
21
71.8561999058
31
0.0000000000
11
89.0205167820
21
72.5910332305
31
0.0000000000
11
88.2186793795
21
73.2170598002
31
0.0000000000
11
87.4056891910
21
73.7252243996
31
0.0000000000
0
SPLINE
5
242
100
AcDbEntity
8
0
100
AcDbSpline
62
0
6
CONTINUOUS
70
0
71
3
72
9
73
5
74
3
42
0.0000001000
43
0.0000001000
44
0.0000000001
12
-0.5745262260
22
0.1058776178
32
0.0000000000
13
-0.5135911917
23
0.2753795619
33
0.0000000000
40
0.0000000000
40
0.0000000000
40
0.0000000000
40
0.0000000000
40
0.3006597942
40
1.0000000000
40
1.0000000000
40
1.0000000000
40
1.0000000000
10
74.3140990434
20
52.3124816308
30
0.0000000000
10
74.2565200644
20
52.3230926783
30
0.0000000000
10
74.0669722176
20
52.3695151063
30
0.0000000000
10
73.8871992221
20
52.4469585642
30
0.0000000000
10
73.7674742322
20
52.5111532307
30
0.0000000000
11
74.3140990434
21
52.3124816308
31
0.0000000000
11
74.1434248417
21
52.3538115803
31
0.0000000000
11
73.7674742322
21
52.5111532307
31
0.0000000000
0
SPLINE
5
243
100
AcDbEntity
8
0
100
AcDbSpline
62
0
6
CONTINUOUS
70
0
71
3
72
11
73
7
74
5
42
0.0000001000
43
0.0000001000
44
0.0000000001
12
-1.1989042791
22
-0.5581253424
32
0.0000000000
13
-1.1615665787
23
0.6228138268
33
0.0000000000
40
0.0000000000
40
0.0000000000
40
0.0000000000
40
0.0000000000
40
0.1951306960
40
0.4407532969
40
0.7070942262
40
1.0000000000
40
1.0000000000
40
1.0000000000
40
1.0000000000
10
73.7920375663
20
51.8106411492
30
0.0000000000
10
73.7140565575
20
51.7743386870
30
0.0000000000
10
73.5276684717
20
51.7140887352
30
0.0000000000
10
73.2135041116
20
51.6994833188
30
0.0000000000
10
72.8643340616
20
51.7717861950
30
0.0000000000
10
72.6375827920
20
51.8706460360
30
0.0000000000
10
72.5241729395
20
51.9314546247
30
0.0000000000
11
73.7920375663
21
51.8106411492
31
0.0000000000
11
73.5471704796
21
51.7310155598
31
0.0000000000
11
73.2239444701
21
51.7129312452
31
0.0000000000
11
72.8794562567
21
51.7804278839
31
0.0000000000
11
72.5241729395
21
51.9314546247
31
0.0000000000
0
SPLINE
5
244
100
AcDbEntity
8
0
100
AcDbSpline
62
9
6
CONTINUOUS
70
0
71
3
72
13
73
9
74
7
42
0.0000001000
43
0.0000001000
44
0.0000000001
12
-4.1958864819
22
2.2003153567
32
0.0000000000
13
-4.1009174527
23
-2.3881434607
33
0.0000000000
40
0.0000000000
40
0.0000000000
40
0.0000000000
40
0.0000000000
40
0.1921027965
40
0.3718620655
40
0.5404013840
40
0.6997375800
40
0.8528429763
40
1.0000000000
40
1.0000000000
40
1.0000000000
40
1.0000000000
10
-92.3526540469
20
170.1088358558
30
0.0000000000
10
-92.6213345559
20
170.2497314336
30
0.0000000000
10
-93.1576674510
20
170.4933169231
30
0.0000000000
10
-93.9775180226
20
170.7402904946
30
0.0000000000
10
-94.7749250349
20
170.8524837598
30
0.0000000000
10
-95.5383325164
20
170.8268110682
30
0.0000000000
10
-96.2504432394
20
170.6633391694
30
0.0000000000
10
-96.6849255771
20
170.4653948240
30
0.0000000000
10
-96.8860851794
20
170.3482507960
30
0.0000000000
11
-92.3526540469
21
170.1088358558
31
0.0000000000
11
-93.1828959318
21
170.4817506318
31
0.0000000000
11
-93.9995232866
21
170.7235226789
31
0.0000000000
11
-94.7907989574
21
170.8307461939
31
0.0000000000
11
-95.5451529030
21
170.8019138665
31
0.0000000000
11
-96.2516646830
21
170.6375252122
31
0.0000000000
11
-96.8860851794
21
170.3482507960
31
0.0000000000
0
SPLINE
5
245
100
AcDbEntity
8
0
100
AcDbSpline
62
9
6
CONTINUOUS
70
0
71
3
72
15
73
11
74
9
42
0.0000001000
43
0.0000001000
44
0.0000000001
12
2.4892825668
22
-1.3347143337
32
0.0000000000
13
2.6045878785
23
1.0927543333
33
0.0000000000
40
0.0000000000
40
0.0000000000
40
0.0000000000
40
0.0000000000
40
0.1098344457
40
0.2302109390
40
0.3584948463
40
0.4914701403
40
0.6256080939
40
0.7573055748
40
0.8831169703
40
1.0000000000
40
1.0000000000
40
1.0000000000
40
1.0000000000
10
91.4681386638
20
61.5090755907
30
0.0000000000
10
91.5592749874
20
61.4602097210
30
0.0000000000
10
91.7588622993
20
61.3734739903
30
0.0000000000
10
92.0835245277
20
61.2787374461
30
0.0000000000
10
92.4379486037
20
61.2158166474
30
0.0000000000
10
92.8096655616
20
61.1869864545
30
0.0000000000
10
93.1856486551
20
61.1932588392
30
0.0000000000
10
93.5526878884
20
61.2344225236
30
0.0000000000
10
93.8978249098
20
61.3089781795
30
0.0000000000
10
94.1149439123
20
61.3824546951
30
0.0000000000
10
94.2164212864
20
61.4250295075
30
0.0000000000
11
91.4681386638
21
61.5090755907
31
0.0000000000
11
91.7517479589
21
61.3833413788
31
0.0000000000
11
92.0777078412
21
61.2866189866
31
0.0000000000
11
92.4343106290
21
61.2223825001
31
0.0000000000
11
92.8087479837
21
61.1929391903
31
0.0000000000
11
93.1875709563
21
61.1993466347
31
0.0000000000
11
93.5571730476
21
61.2413747256
31
0.0000000000
11
93.9042789316
21
61.3175139302
31
0.0000000000
11
94.2164212864
21
61.4250295075
31
0.0000000000
0
SPLINE
5
246
100
AcDbEntity
8
0
100
AcDbSpline
62
9
6
CONTINUOUS
70
0
71
3
72
15
73
11
74
9
42
0.0000001000
43
0.0000001000
44
0.0000000001
12
-0.0000000000
22
2.8690654926
32
0.0000000000
13
2.5367942464
23
1.3402282464
33
0.0000000000
40
0.0000000000
40
0.0000000000
40
0.0000000000
40
0.0000000000
40
0.1185211133
40
0.2439527292
40
0.3740289696
40
0.5060838813
40
0.6372907996
40
0.7648912749
40
0.8864283963
40
1.0000000000
40
1.0000000000
40
1.0000000000
40
1.0000000000
10
86.0196290237
20
71.3491895864
30
0.0000000000
10
86.0196290237
20
71.4625378652
30
0.0000000000
10
86.0388673866
20
71.6960903844
30
0.0000000000
10
86.1175690705
20
72.0460138541
30
0.0000000000
10
86.2442347677
20
72.3953630476
30
0.0000000000
10
86.4144145228
20
72.7318357594
30
0.0000000000
10
86.6221404822
20
73.0436957751
30
0.0000000000
10
86.8602131101
20
73.3200470591
30
0.0000000000
10
87.1202769852
20
73.5511741052
30
0.0000000000
10
87.3097483060
20
73.6744347118
30
0.0000000000
10
87.4057842363
20
73.7251720022
30
0.0000000000
11
86.0196290237
21
71.3491895864
31
0.0000000000
11
86.0458975992
21
71.6882182764
31
0.0000000000
11
86.1237598177
21
72.0395656635
31
0.0000000000
11
86.2504190440
21
72.3906121418
31
0.0000000000
11
86.4213259643
21
72.7287489137
31
0.0000000000
11
86.6303419875
21
73.0418308689
31
0.0000000000
11
86.8699597294
21
73.3186128096
31
0.0000000000
11
87.1315726611
21
73.5491533529
31
0.0000000000
11
87.4057842363
21
73.7251720022
31
0.0000000000
0
SPLINE
5
247
100
AcDbEntity
8
0
100
AcDbSpline
62
9
6
CONTINUOUS
70
0
71
3
72
15
73
11
74
9
42
0.0000001000
43
0.0000001000
44
0.0000000001
12
-0.0000000241
22
2.8690654968
32
0.0000000000
13
2.5367942608
23
1.3402282281
33
0.0000000000
40
0.0000000000
40
0.0000000000
40
0.0000000000
40
0.0000000000
40
0.1185209537
40
0.2439524514
40
0.3740286271
40
0.5060835316
40
0.6372904953
40
0.7648910557
40
0.8864282848
40
1.0000000000
40
1.0000000000
40
1.0000000000
40
1.0000000000
10
-93.7389157987
20
167.7329089999
30
0.0000000000
10
-93.7389157997
20
167.8462571262
30
0.0000000000
10
-93.7196774861
20
168.0798093795
30
0.0000000000
10
-93.6409759584
20
168.4297325471
30
0.0000000000
10
-93.5143104273
20
168.7790816069
30
0.0000000000
10
-93.3441307892
20
169.1155543500
30
0.0000000000
10
-93.1364048574
20
169.4274145273
30
0.0000000000
10
-92.8983321514
20
169.7037660475
30
0.0000000000
10
-92.6382681007
20
169.9348933382
30
0.0000000000
10
-92.4487966111
20
170.0581540762
30
0.0000000000
10
-92.3527605860
20
170.1088914157
30
0.0000000000
11
-93.7389157987
21
167.7329089999
31
0.0000000000
11
-93.7126472942
21
168.0719372366
31
0.0000000000
11
-93.6347852324
21
168.4232843116
31
0.0000000000
11
-93.5081261742
21
168.7743306539
31
0.0000000000
11
-93.3372193703
21
169.1124674621
31
0.0000000000
11
-93.1282033695
21
169.4255495893
31
0.0000000000
11
-92.8885855394
21
169.7023317778
31
0.0000000000
11
-92.6269724186
21
169.9328725742
31
0.0000000000
11
-92.3527605860
21
170.1088914157
31
0.0000000000
0
SPLINE
5
248
100
AcDbEntity
8
0
100
AcDbSpline
62
9
6
CONTINUOUS
70
0
71
3
72
11
73
7
74
5
42
0.0000001000
43
0.0000001000
44
0.0000000001
12
-0.8003766331
22
0.4291494288
32
0.0000000000
13
-0.0008241854
23
0.9121545931
33
0.0000000000
40
0.0000000000
40
0.0000000000
40
0.0000000000
40
0.0000000000
40
0.3034840842
40
0.5678732629
40
0.7986313276
40
1.0000000000
40
1.0000000000
40
1.0000000000
40
1.0000000000
10
-99.1874254388
20
163.7356062586
30
0.0000000000
10
-99.2683926286
20
163.7790195990
30
0.0000000000
10
-99.4144659568
20
163.8715806139
30
0.0000000000
10
-99.5902326719
20
164.0405735018
30
0.0000000000
10
-99.6996119012
20
164.2248463482
30
0.0000000000
10
-99.7246584288
20
164.3563298687
30
0.0000000000
10
-99.7247137505
20
164.4175563218
30
0.0000000000
11
-99.1874254388
21
163.7356062586
31
0.0000000000
11
-99.4184979843
21
163.8858364630
31
0.0000000000
11
-99.5887337741
21
164.0551665803
31
0.0000000000
11
-99.6920183226
21
164.2375146545
31
0.0000000000
11
-99.7247137505
21
164.4175563218
31
0.0000000000
0
SPLINE
5
249
100
AcDbEntity
8
0
100
AcDbSpline
62
9
6
CONTINUOUS
70
0
71
3
72
11
73
7
74
5
42
0.0000001000
43
0.0000001000
44
0.0000000001
12
-0.8004190166
22
0.4291721433
32
0.0000000000
13
-0.0007331710
23
0.9122025350
33
0.0000000000
40
0.0000000000
40
0.0000000000
40
0.0000000000
40
0.0000000000
40
0.3034676438
40
0.5678426604
40
0.7985884731
40
1.0000000000
40
1.0000000000
40
1.0000000000
40
1.0000000000
10
-99.1874254388
20
-64.5280897850
30
0.0000000000
10
-99.2683925298
20
-64.4846764987
30
0.0000000000
10
-99.4144657262
20
-64.3921155864
30
0.0000000000
10
-99.5902323756
20
-64.2231228897
30
0.0000000000
10
-99.6996201091
20
-64.0388360237
30
0.0000000000
10
-99.7246645692
20
-63.9073341320
30
0.0000000000
10
-99.7247137923
20
-63.8460914302
30
0.0000000000
11
-99.1874254388
21
-64.5280897850
31
0.0000000000
11
-99.4184977200
21
-64.3778597941
31
0.0000000000
11
-99.5887334752
21
-64.2085298530
31
0.0000000000
11
-99.6920181443
21
-64.0261818829
31
0.0000000000
11
-99.7247137923
21
-63.8460914302
31
0.0000000000
0
SPLINE
5
24A
100
AcDbEntity
8
0
100
AcDbSpline
62
9
6
CONTINUOUS
70
0
71
3
72
15
73
11
74
9
42
0.0000001000
43
0.0000001000
44
0.0000000001
12
6.2597232393
22
2.2600473171
32
0.0000000000
13
0.0611931352
23
6.6437161680
33
0.0000000000
40
0.0000000000
40
0.0000000000
40
0.0000000000
40
0.0000000000
40
0.0971560223
40
0.2056413182
40
0.3184322766
40
0.4376989953
40
0.5649614157
40
0.7010449548
40
0.8461486603
40
1.0000000000
40
1.0000000000
40
1.0000000000
40
1.0000000000
10
91.3061291772
20
-172.3703207519
30
0.0000000000
10
91.5088524474
20
-172.2971283493
30
0.0000000000
10
91.9235719996
20
-172.1021467884
30
0.0000000000
10
92.4947996019
20
-171.6805451810
30
0.0000000000
10
93.0068986166
20
-171.1210317497
30
0.0000000000
10
93.4356306206
20
-170.4463686225
30
0.0000000000
10
93.7759731385
20
-169.6671699998
30
0.0000000000
10
94.0240497668
20
-168.7947751076
30
0.0000000000
10
94.1769906522
20
-167.8416063827
30
0.0000000000
10
94.2132844858
20
-167.1792584141
30
0.0000000000
10
94.2164227011
20
-166.8385435364
30
0.0000000000
11
91.3061291772
21
-172.3703207519
31
0.0000000000
11
91.8904954330
21
-172.0956376302
31
0.0000000000
11
92.4716460438
21
-171.6692784689
31
0.0000000000
11
92.9801331213
21
-171.1188099217
31
0.0000000000
11
93.4085697679
21
-170.4522124253
31
0.0000000000
11
93.7507737267
21
-169.6790245000
31
0.0000000000
11
94.0017242182
21
-168.8104102328
31
0.0000000000
11
94.1577058060
21
-167.8590437140
31
0.0000000000
11
94.2164227011
21
-166.8385435364
31
0.0000000000
0
SPLINE
5
24B
100
AcDbEntity
8
0
100
AcDbSpline
62
9
6
CONTINUOUS
70
0
71
3
72
12
73
8
74
6
42
0.0000001000
43
0.0000001000
44
0.0000000001
12
0.0000000000
22
-1.2555689033
32
0.0000000000
13
1.1106650212
23
-0.5959518507
33
0.0000000000
40
0.0000000000
40
0.0000000000
40
0.0000000000
40
0.0000000000
40
0.2513823538
40
0.4818837098
40
0.6930578889
40
0.8900337149
40
1.0000000000
40
1.0000000000
40
1.0000000000
40
1.0000000000
10
-93.7389157987
20
-74.3682037807
30
0.0000000000
10
-93.7389157987
20
-74.4734130695
30
0.0000000000
10
-93.7234863569
20
-74.6756586777
30
0.0000000000
10
-93.6475443451
20
-74.9576244629
30
0.0000000000
10
-93.5210669293
20
-75.1961591353
30
0.0000000000
10
-93.3704263431
20
-75.3562380090
30
0.0000000000
10
-93.2619773729
20
-75.4269205500
30
0.0000000000
10
-93.2212654708
20
-75.4487654204
30
0.0000000000
11
-93.7389157987
21
-74.3682037807
31
0.0000000000
11
-93.7126472232
21
-74.6827366278
31
0.0000000000
11
-93.6347850046
21
-74.9614763214
31
0.0000000000
11
-93.5081257784
21
-75.1944111605
31
0.0000000000
11
-93.3372188581
21
-75.3731746508
31
0.0000000000
11
-93.2212654708
21
-75.4487654204
31
0.0000000000
0
SPLINE
5
24C
100
AcDbEntity
8
0
100
AcDbSpline
62
9
6
CONTINUOUS
70
0
71
3
72
12
73
8
74
6
42
0.0000001000
43
0.0000001000
44
0.0000000001
12
0.0000000106
22
-1.2555689004
32
0.0000000000
13
1.1106650069
23
-0.5959518733
33
0.0000000000
40
0.0000000000
40
0.0000000000
40
0.0000000000
40
0.0000000000
40
0.2513820409
40
0.4818832361
40
0.6930573663
40
0.8900332123
40
1.0000000000
40
1.0000000000
40
1.0000000000
40
1.0000000000
10
86.0196290237
20
-170.7519231943
30
0.0000000000
10
86.0196290246
20
-170.8571323518
30
0.0000000000
10
86.0350584336
20
-171.0593777587
30
0.0000000000
10
86.1110002926
20
-171.3413433515
30
0.0000000000
10
86.2374775307
20
-171.5798780210
30
0.0000000000
10
86.3881181316
20
-171.7399571529
30
0.0000000000
10
86.4965672614
20
-171.8106398616
30
0.0000000000
10
86.5372793491
20
-171.8324848327
30
0.0000000000
11
86.0196290237
21
-170.7519231943
31
0.0000000000
11
86.0458975331
21
-171.0664556520
31
0.0000000000
11
86.1237595985
21
-171.3451951780
31
0.0000000000
11
86.2504186589
21
-171.5781300366
31
0.0000000000
11
86.4213254635
21
-171.7568936716
31
0.0000000000
11
86.5372793491
21
-171.8324848327
31
0.0000000000
0
SPLINE
5
24D
100
AcDbEntity
8
0
100
AcDbSpline
62
9
6
CONTINUOUS
70
0
71
3
72
15
73
11
74
9
42
0.0000001000
43
0.0000001000
44
0.0000000001
12
2.4892825559
22
-1.3347143617
32
0.0000000000
13
2.6045878711
23
1.0927543605
33
0.0000000000
40
0.0000000000
40
0.0000000000
40
0.0000000000
40
0.0000000000
40
0.1098345969
40
0.2302112103
40
0.3584951885
40
0.4914704956
40
0.6256084066
40
0.7573058012
40
0.8831170852
40
1.0000000000
40
1.0000000000
40
1.0000000000
40
1.0000000000
10
91.4681386638
20
-166.7546204529
30
0.0000000000
10
91.5592751125
20
-166.8034863909
30
0.0000000000
10
91.7588626705
20
-166.8902222048
30
0.0000000000
10
92.0835252289
20
-166.9849587739
30
0.0000000000
10
92.4379495105
20
-167.0478795204
30
0.0000000000
10
92.8096665149
20
-167.0767096236
30
0.0000000000
10
93.1856494980
20
-167.0704371522
30
0.0000000000
10
93.5526884975
20
-167.0292734180
30
0.0000000000
10
93.8978252188
20
-166.9547177709
30
0.0000000000
10
94.1149440123
20
-166.8812413076
30
0.0000000000
10
94.2164212864
20
-166.8386665360
30
0.0000000000
11
91.4681386638
21
-166.7546204529
31
0.0000000000
11
91.7517483603
21
-166.8803548144
31
0.0000000000
11
92.0777085872
21
-166.9770772383
31
0.0000000000
11
92.4343115883
21
-167.0413136732
31
0.0000000000
11
92.8087489880
21
-167.0707568912
31
0.0000000000
11
93.1875718394
21
-167.0643493585
31
0.0000000000
11
93.5571736800
21
-167.0223212190
31
0.0000000000
11
93.9042792454
21
-166.9461820288
31
0.0000000000
11
94.2164212864
21
-166.8386665360
31
0.0000000000
0
ENDSEC
0
SECTION
2
OBJECTS
0
DICTIONARY
5
C
100
AcDbDictionary
280
0
281
1
3
ACAD_GROUP
350
D
3
ACAD_MLINESTYLE
350
17
3
ACAD_LAYOUT
350
1A
3
ACAD_PLOTSETTINGS
350
19
3
ACAD_PLOTSTYLENAME
350
E
0
DICTIONARY
5
D
102
{ACAD_REACTORS
330
C
102
}
100
AcDbDictionary
280
0
281
1
0
ACDBDICTIONARYWDFLT
5
E
102
{ACAD_REACTORS
330
C
102
}
100
AcDbDictionary
281
1
3
Normal
350
F
100
AcDbDictionaryWithDefault
340
F
0
DICTIONARY
5
17
102
{ACAD_REACTORS
330
C
102
}
100
AcDbDictionary
280
0
281
1
3
Standard
350
18
0
DICTIONARY
5
19
102
{ACAD_REACTORS
330
C
102
}
100
AcDbDictionary
281
1
0
DICTIONARY
5
1A
102
{ACAD_REACTORS
330
C
102
}
100
AcDbDictionary
281
1
3
Layout1
350
1E
3
Model
350
22
0
ACDBPLACEHOLDER
5
F
102
{ACAD_REACTORS
330
E
102
}
0
MLINESTYLE
5
18
102
{ACAD_REACTORS
330
17
102
}
100
AcDbMlineStyle
2
STANDARD
70
0
3

62
256
51
90.0
52
90.0
71
2
49
0.5
62
256
6
BYLAYER
49
-0.5
62
256
6
BYLAYER
0
LAYOUT
5
1E
102
{ACAD_REACTORS
330
1A
102
}
100
AcDbPlotSettings
1

2

4

6

40
0.0
41
0.0
42
0.0
43
0.0
44
0.0
45
0.0
46
0.0
47
0.0
48
0.0
49
0.0
140
0.0
141
0.0
142
1.0
143
1.0
70
0
72
0
73
0
74
0
7

75
0
147
1.0
148
0.0
149
0.0
100
AcDbLayout
1
Layout1
70
0
71
0
10
0.0
20
0.0
11
0.0
21
0.0
12
0.0
22
0.0
32
0.0
14
0.0
24
0.0
34
0.0
15
0.0
25
0.0
35
0.0
146
0.0
13
0.0
23
0.0
33
0.0
16
0.0
26
0.0
36
0.0
17
0.0
27
0.0
37
0.0
76
0
330
1B
331
0
345
0
346
0
0
LAYOUT
5
22
102
{ACAD_REACTORS
330
1A
102
}
100
AcDbPlotSettings
1

2

4

6

40
0.0
41
0.0
42
0.0
43
0.0
44
0.0
45
0.0
46
0.0
47
0.0
48
0.0
49
0.0
140
0.0
141
0.0
142
1.0
143
1.0
70
0
72
0
73
0
74
0
7

75
0
147
1.0
148
0.0
149
0.0
100
AcDbLayout
1
Model
70
0
71
0
10
0.0
20
0.0
11
0.0
21
0.0
12
0.0
22
0.0
32
0.0
14
0.0
24
0.0
34
0.0
15
0.0
25
0.0
35
0.0
146
0.0
13
0.0
23
0.0
33
0.0
16
0.0
26
0.0
36
0.0
17
0.0
27
0.0
37
0.0
76
0
330
1F
331
0
345
0
346
0
0
ENDSEC
0
EOF
