0
SECTION
2
HEADER
9
$ACADVER
1
AC1015
9
$DWGCODEPAGE
3
ANSI_1252
9
$EXTMAX
10
431.8000000000
20
558.8000000000
30
0.0000000000
9
$EXTMIN
10
0.0000000000
20
0.0000000000
30
0.0000000000
9
$LIMMIN
10
0.0000000000
20
0.0000000000
9
$LIMMAX
10
431.8000000000
20
558.8000000000
9
$VIEWCTR
10
215.9000000000
20
279.4000000000
9
$VIEWSIZE
40
558.8000000000
9
$CLAYER
8
0
9
$LTSCALE
40
36.4254814815
9
$CELTYPE
6
BYLAYER
9
$DIMSCALE
40
1
9
$DIMASZ
40
3.0000000000
9
$DIMEXO
40
4.1392592593
9
$DIMDLI
40
25.1666962963
9
$DIMEXE
40
11.9210666667
9
$DIMCEN
40
5.9605333333
9
$DIMLFAC
40
1.0000000000
9
$DIMBLK
1
_FILLED
9
$DIMTXT
40
3.0000000000
9
$DIMTOL
70
1
9
$DIMLIM
70
0
9
$DIMTFAC
40
1.0000000000
9
$DIMTP
40
0.0100000000
9
$DIMTM
40
0.0100000000
9
$PDMODE
70
3
9
$PDSIZE
40
3.0000000000
9
$HANDSEED
5
272
9
$MEASUREMENT
70
1
9
$INSUNITS
70
4
0
ENDSEC
0
SECTION
2
CLASSES
0
CLASS
1
ACDBDICTIONARYWDFLT
2
AcDbDictionaryWithDefault
3
AutoCAD 2000
90
0
280
0
281
0
0
CLASS
1
ACDBPLACEHOLDER
2
AcDbPlaceHolder
3
AutoCAD 2000
90
0
280
0
281
0
0
CLASS
1
LAYOUT
2
AcDbLayout
3
AutoCAD 2000
90
0
280
0
281
0
0
ENDSEC
0
SECTION
2
TABLES
0
TABLE
2
VPORT
5
8
100
AcDbSymbolTable
70
2
0
VPORT
5
1F4
100
AcDbSymbolTableRecord
100
AcDbViewportTableRecord
2
*ACTIVE
70
0
10
0.0
20
0.0
11
1.0
21
1.0
12
215.9000000000
22
279.4000000000
13
0.0
23
0.0
14
1.0
24
1.0
15
0.0
25
0.0
16
0.0
26
0.0
36
1.0
17
0.0
27
0.0
37
0.0
40
558.8000000000
41
0.7727272727
42
50.0
43
0.0
44
0.0
50
0.0
51
0.0
71
0
72
100
73
1
74
1
75
0
76
0
77
0
78
0
0
ENDTAB
0
TABLE
2
LTYPE
5
5
100
AcDbSymbolTable
70
6
0
LTYPE
5
14
100
AcDbSymbolTableRecord
100
AcDbLinetypeTableRecord
2
BYBLOCK
70
0
3

72
65
73
0
40
0.0
0
LTYPE
5
15
100
AcDbSymbolTableRecord
100
AcDbLinetypeTableRecord
2
BYLAYER
70
0
3

72
65
73
0
40
0.0
0
LTYPE
5
16
100
AcDbSymbolTableRecord
100
AcDbLinetypeTableRecord
2
CONTINUOUS
70
64
3
Solid line
72
65
73
0
40
0
0
LTYPE
5
1F5
100
AcDbSymbolTableRecord
100
AcDbLinetypeTableRecord
2
CENTER
70
64
3
____ _ ____ _ ____ _ ____ _ ____ _ ____ _ ____
72
65
73
4
40
0.6
49
0.375
74
0
49
-0.075
74
0
49
0.075
74
0
49
-0.075
74
0
0
LTYPE
5
1F6
100
AcDbSymbolTableRecord
100
AcDbLinetypeTableRecord
2
HIDDEN
70
64
3
- - - - - - - - - - - - - - - - - - - -
72
65
73
2
40
0.2
49
0.1
74
0
49
-0.1
74
0
0
LTYPE
5
1F7
100
AcDbSymbolTableRecord
100
AcDbLinetypeTableRecord
2
PHANTOM
70
64
3
_____ _ _ _____ _ _ _____ _ _ _____
72
65
73
6
40
0.8
49
0.45
74
0
49
-0.05
74
0
49
0.1
74
0
49
-0.05
74
0
49
0.1
74
0
49
-0.05
74
0
0
LTYPE
5
1F8
100
AcDbSymbolTableRecord
100
AcDbLinetypeTableRecord
2
DOT
70
64
3
. . . . . . . . . . . . . . . . . . . .
72
65
73
2
40
0.2
49
0.1
74
0
49
-0.1
74
0
0
LTYPE
5
1F9
100
AcDbSymbolTableRecord
100
AcDbLinetypeTableRecord
2
DASHED
70
64
3
- - - - - - - - - - - - - - - - - - - -
72
65
73
2
40
0.2
49
0.1
74
0
49
-0.1
74
0
0
ENDTAB
0
TABLE
2
LAYER
5
2
100
AcDbSymbolTable
70
36
0
LAYER
5
10
100
AcDbSymbolTableRecord
100
AcDbLayerTableRecord
2
0
70
0
62
7
6
CONTINUOUS
370
-3
390
F
0
LAYER
5
1FA
100
AcDbSymbolTableRecord
100
AcDbLayerTableRecord
2
DEFAULT_1
70
0
62
7
6
CENTER
370
-3
390
F
0
LAYER
5
1FB
100
AcDbSymbolTableRecord
100
AcDbLayerTableRecord
2
DEFAULT_2
70
0
62
9
6
HIDDEN
370
-3
390
F
0
LAYER
5
1FC
100
AcDbSymbolTableRecord
100
AcDbLayerTableRecord
2
DEFAULT_3
70
0
62
7
6
PHANTOM
370
-3
390
F
0
LAYER
5
1FD
100
AcDbSymbolTableRecord
100
AcDbLayerTableRecord
2
_BLACK_HOLE
70
0
62
7
6
CONTINUOUS
370
-3
390
F
0
LAYER
5
1FE
100
AcDbSymbolTableRecord
100
AcDbLayerTableRecord
2
ASSI
70
0
62
7
6
CONTINUOUS
370
-3
390
F
0
LAYER
5
1FF
100
AcDbSymbolTableRecord
100
AcDbLayerTableRecord
2
COORDINATE
70
0
62
7
6
CONTINUOUS
370
-3
390
F
0
LAYER
5
200
100
AcDbSymbolTableRecord
100
AcDbLayerTableRecord
2
COPY_PUBLISH
70
0
62
7
6
CONTINUOUS
370
-3
390
F
0
LAYER
5
201
100
AcDbSymbolTableRecord
100
AcDbLayerTableRecord
2
COSMETIC
70
0
62
7
6
CONTINUOUS
370
-3
390
F
0
LAYER
5
202
100
AcDbSymbolTableRecord
100
AcDbLayerTableRecord
2
CURVE
70
0
62
7
6
CONTINUOUS
370
-3
390
F
0
LAYER
5
203
100
AcDbSymbolTableRecord
100
AcDbLayerTableRecord
2
DRAFT
70
0
62
7
6
CONTINUOUS
370
-3
390
F
0
LAYER
5
204
100
AcDbSymbolTableRecord
100
AcDbLayerTableRecord
2
IMPORT_IGES
70
0
62
7
6
CONTINUOUS
370
-3
390
F
0
LAYER
5
205
100
AcDbSymbolTableRecord
100
AcDbLayerTableRecord
2
NOTE
70
0
62
7
6
CONTINUOUS
370
-3
390
F
0
LAYER
5
206
100
AcDbSymbolTableRecord
100
AcDbLayerTableRecord
2
PIANI
70
0
62
7
6
CONTINUOUS
370
-3
390
F
0
LAYER
5
207
100
AcDbSymbolTableRecord
100
AcDbLayerTableRecord
2
PUNTI
70
0
62
7
6
CONTINUOUS
370
-3
390
F
0
LAYER
5
208
100
AcDbSymbolTableRecord
100
AcDbLayerTableRecord
2
RACCORDO
70
0
62
7
6
CONTINUOUS
370
-3
390
F
0
LAYER
5
209
100
AcDbSymbolTableRecord
100
AcDbLayerTableRecord
2
TRASH
70
0
62
7
6
CONTINUOUS
370
-3
390
F
0
LAYER
5
20A
100
AcDbSymbolTableRecord
100
AcDbLayerTableRecord
2
XSEC_DATUMS
70
0
62
7
6
CONTINUOUS
370
-3
390
F
0
ENDTAB
0
TABLE
2
STYLE
5
3
100
AcDbSymbolTable
70
1
0
STYLE
5
11
100
AcDbSymbolTableRecord
100
AcDbTextStyleTableRecord
2
STANDARD
70
0
40
0.0
41
0.8000000000
50
0.0
71
0
42
0.2
3
txt
4

0
ENDTAB
0
TABLE
2
VIEW
5
6
100
AcDbSymbolTable
70
0
0
ENDTAB
0
TABLE
2
UCS
5
7
100
AcDbSymbolTable
70
0
0
ENDTAB
0
TABLE
2
APPID
5
9
100
AcDbSymbolTable
70
1
0
APPID
5
20B
100
AcDbSymbolTableRecord
100
AcDbRegAppTableRecord
2
ACAD
70
0
0
ENDTAB
0
TABLE
2
BLOCK_RECORD
5
1
100
AcDbSymbolTable
70
0
0
BLOCK_RECORD
5
1F
100
AcDbSymbolTableRecord
100
AcDbBlockTableRecord
2
*MODEL_SPACE
0
BLOCK_RECORD
5
1B
100
AcDbSymbolTableRecord
100
AcDbBlockTableRecord
2
*PAPER_SPACE
0
ENDTAB
0
TABLE
2
DIMSTYLE
5
A
100
AcDbSymbolTable
70
1
100
AcDbDimStyleTable
71
0
0
DIMSTYLE
105
20C
100
AcDbSymbolTableRecord
100
AcDbDimStyleTableRecord
2
STANDARD
70
0
3

4

40
1.0
41
3.0000000000
42
0.0625
43
0.38
44
0.18
45
0.0
46
0.0
47
0.0100000000
48
0.0100000000
140
3.0000000000
141
0.09
142
0.0
143
25.4
144
1.0000000000
145
0.0
146
1.0000000000
147
0.09
71
1
72
0
73
0
74
0
75
0
76
0
77
1
78
8
170
0
171
2
172
0
173
0
174
0
175
0
176
0
177
0
178
0
270
2
271
2
272
2
273
2
274
2
275
0
280
0
281
0
282
0
283
1
284
8
285
0
286
0
287
3
288
0
340
11
0
ENDTAB
0
ENDSEC
0
SECTION
2
BLOCKS
0
BLOCK
5
20
100
AcDbEntity
8
0
100
AcDbBlockBegin
2
*MODEL_SPACE
70
0
10
0.0
20
0.0
30
0.0
3
*MODEL_SPACE
1

0
ENDBLK
5
21
100
AcDbEntity
8
0
100
AcDbBlockEnd
0
BLOCK
5
1C
100
AcDbEntity
8
0
100
AcDbBlockBegin
2
*PAPER_SPACE
70
0
10
0.0
20
0.0
30
0.0
3
*PAPER_SPACE
1

0
ENDBLK
5
1D
100
AcDbEntity
8
0
100
AcDbBlockEnd
0
ENDSEC
0
SECTION
2
ENTITIES
0
LWPOLYLINE
5
20D
100
AcDbEntity
8
0
100
AcDbPolyline
62
0
6
CONTINUOUS
90
23
70
0
10
-203.2970130786
20
209.6238921476
10
-203.4196549977
20
209.5367794130
10
-203.6386399395
20
209.3677043819
10
-203.8509540361
20
209.1855760302
10
-204.0556729379
20
208.9908028319
10
-204.2522394200
20
208.7835654639
10
-204.4401650285
20
208.5640484008
10
-204.6187536797
20
208.3327590719
10
-204.7875785238
20
208.0899594918
10
-204.9462526202
20
207.8359274629
10
-205.0942679710
20
207.5712321634
10
-205.2313101051
20
207.2961931045
10
-205.3571089443
20
207.0111065752
10
-205.4713291313
20
206.7165129396
10
-205.5737446349
20
206.4127455638
10
-205.6641637246
20
206.1001040478
10
-205.7423675535
20
205.7790770540
10
-205.8081836963
20
205.4500032073
10
-205.8614611638
20
205.1131867319
10
-205.9020404332
20
204.7690669965
10
-205.9297736568
20
204.4180147235
10
-205.9445402927
20
204.0603940350
10
-205.9471296090
20
203.8329926171
0
LINE
5
20E
100
AcDbEntity
8
0
100
AcDbLine
62
0
6
CONTINUOUS
10
-203.2977088102
20
209.6234129008
11
-200.5578360065
21
211.5124717766
0
LINE
5
20F
100
AcDbEntity
8
0
100
AcDbLine
62
9
6
CONTINUOUS
10
-198.0800673982
20
209.7696076895
11
-195.3674241603
21
211.6399977811
0
LWPOLYLINE
5
210
100
AcDbEntity
8
0
100
AcDbPolyline
62
0
6
CONTINUOUS
90
40
70
0
10
-205.9471284889
20
-24.4306401186
10
-205.9450457319
20
-24.6362071826
10
-205.9317555605
20
-24.9927545543
10
-205.9063193225
20
-25.3515275584
10
-205.8688902730
20
-25.7120780916
10
-205.8196404796
20
-26.0739645563
10
-205.7587436113
20
-26.4366810953
10
-205.6863715238
20
-26.7998094532
10
-205.6027089039
20
-27.1628899192
10
-205.5079717162
20
-27.5253128889
10
-205.4023659005
20
-27.8866242697
10
-205.2860936721
20
-28.2463910221
10
-205.1594105983
20
-28.6040127982
10
-205.0225708179
20
-28.9589920735
10
-204.8757814644
20
-29.3109451717
10
-204.7192696465
20
-29.6594305531
10
-204.5532966916
20
-30.0039797647
10
-204.3780836601
20
-30.3441920544
10
-204.1938217464
20
-30.6797269756
10
-204.0007591656
20
-31.0101543227
10
-203.7991352672
20
-31.3350413154
10
-203.5891408924
20
-31.6540524520
10
-203.3710249310
20
-31.9667633074
10
-203.1450334980
20
-32.2727397729
10
-202.9113560751
20
-32.5716486708
10
-202.6701840473
20
-32.8631344980
10
-202.4218249177
20
-33.1466909234
10
-202.1666451364
20
-33.4217935151
10
-201.9048155999
20
-33.6881245101
10
-201.6366947375
20
-33.9451720402
10
-201.3629455134
20
-34.1921992305
10
-201.0838590209
20
-34.4288417926
10
-200.7997275132
20
-34.6547472134
10
-200.5112280013
20
-34.8692977144
10
-200.2186673112
20
-35.0721815104
10
-199.9223371819
20
-35.2631109664
10
-199.6228847475
20
-35.4415945201
10
-199.3207250505
20
-35.6073181321
10
-199.0160939047
20
-35.7600984700
10
-198.8311192918
20
-35.8459670007
0
LINE
5
211
100
AcDbEntity
8
0
100
AcDbLine
62
0
6
CONTINUOUS
10
-205.9471314716
20
203.8330113144
11
-205.9471314716
21
-24.4306847347
0
LINE
5
212
100
AcDbEntity
8
0
100
AcDbLine
62
9
6
CONTINUOUS
10
-205.2853926843
20
203.0898664889
11
-205.2853926843
21
-25.1738295547
0
LWPOLYLINE
5
213
100
AcDbEntity
8
0
100
AcDbPolyline
62
0
6
CONTINUOUS
90
20
70
0
10
194.7206895607
20
-213.0237858542
10
194.9001463770
20
-213.1021476115
10
195.2110599268
20
-213.2264957681
10
195.5208576085
20
-213.3360781692
10
195.8290836187
20
-213.4309536210
10
196.1354625444
20
-213.5112709252
10
196.4398394466
20
-213.5771855166
10
196.7418803519
20
-213.6287998045
10
197.0412152396
20
-213.6662330491
10
197.3375960200
20
-213.6896132574
10
197.6306568262
20
-213.6990562557
10
197.9200030011
20
-213.6947124300
10
198.2052875032
20
-213.6767411042
10
198.4861190614
20
-213.6453114152
10
198.7620772255
20
-213.6006359896
10
199.0327211887
20
-213.5429601514
10
199.2976352959
20
-213.4725457137
10
199.5564201816
20
-213.3896896932
10
199.8086427940
20
-213.2947462648
10
199.9371144816
20
-213.2407032255
0
LINE
5
214
100
AcDbEntity
8
0
100
AcDbLine
62
0
6
CONTINUOUS
10
-198.8311562298
20
-35.8459525532
11
194.7206659491
21
-213.0237787186
0
LINE
5
215
100
AcDbEntity
8
0
100
AcDbLine
62
9
6
CONTINUOUS
10
-199.3483817138
20
-34.7653922677
11
194.2034404605
21
-211.9432184309
0
LINE
5
216
100
AcDbEntity
8
0
100
AcDbLine
62
9
6
CONTINUOUS
10
202.8929262062
20
20.6022621387
11
205.9409661391
21
22.3217635024
0
LINE
5
217
100
AcDbEntity
8
0
100
AcDbLine
62
9
6
CONTINUOUS
10
195.4715763165
20
32.5918618691
11
198.5197024259
21
34.3112168936
0
LINE
5
218
100
AcDbEntity
8
0
100
AcDbLine
62
9
6
CONTINUOUS
10
194.2034404605
20
30.1578943497
11
-199.3483817138
21
207.3357205130
0
LINE
5
219
100
AcDbEntity
8
0
100
AcDbLine
62
9
6
CONTINUOUS
10
195.4715763165
20
32.5918618691
11
-198.0800673982
21
209.7696076895
0
LINE
5
21A
100
AcDbEntity
8
0
100
AcDbLine
62
0
6
CONTINUOUS
10
-195.3674241603
20
211.6399977811
11
198.5197024259
21
34.3112168936
0
LINE
5
21B
100
AcDbEntity
8
0
100
AcDbLine
62
9
6
CONTINUOUS
10
200.1404514311
20
-207.6973644069
11
200.1404514311
21
20.5663316367
0
LINE
5
21C
100
AcDbEntity
8
0
100
AcDbLine
62
9
6
CONTINUOUS
10
202.8929262062
20
-207.6612259367
11
202.8929262062
21
20.6022621387
0
LINE
5
21D
100
AcDbEntity
8
0
100
AcDbLine
62
0
6
CONTINUOUS
10
205.9409661391
20
22.3217635024
11
205.9409661391
21
-206.3326802511
0
LINE
5
21E
100
AcDbEntity
8
0
100
AcDbLine
62
9
6
CONTINUOUS
10
202.8929262062
20
-207.6612259367
11
205.9409661391
21
-206.3326802511
0
LINE
5
21F
100
AcDbEntity
8
0
100
AcDbLine
62
0
6
CONTINUOUS
10
199.9361710893
20
-213.2411158341
11
203.0132837556
21
-211.8997968656
0
SPLINE
5
220
100
AcDbEntity
8
0
100
AcDbSpline
62
0
6
CONTINUOUS
70
0
71
3
72
16
73
12
74
10
42
0.0000001000
43
0.0000001000
44
0.0000000001
12
0.0000000000
22
-6.6571531343
32
0.0000000000
13
-6.1102011819
23
-2.6628689976
33
0.0000000000
40
0.0000000000
40
0.0000000000
40
0.0000000000
40
0.0000000000
40
0.1427203782
40
0.2786918793
40
0.4078892466
40
0.5306460844
40
0.6476931118
40
0.7601718571
40
0.8696018886
40
0.9777845747
40
1.0000000000
40
1.0000000000
40
1.0000000000
40
1.0000000000
10
205.9409661391
20
-206.3326802511
30
0.0000000000
10
205.9409661391
20
-206.6493840555
30
0.0000000000
10
205.9119447909
20
-207.2683496673
30
0.0000000000
10
205.7746662238
20
-208.1647933932
30
0.0000000000
10
205.5461176058
20
-208.9969630579
30
0.0000000000
10
205.2287228419
20
-209.7544882532
30
0.0000000000
10
204.8258794835
20
-210.4278144501
30
0.0000000000
10
204.3420776205
20
-211.0080199441
30
0.0000000000
10
203.7831331497
20
-211.4869739769
30
0.0000000000
10
203.3227178006
20
-211.7593108974
30
0.0000000000
10
203.0591923994
20
-211.8797777721
30
0.0000000000
10
203.0139454934
20
-211.8994966946
30
0.0000000000
11
205.9409661391
21
-206.3326802511
31
0.0000000000
11
205.8942545156
21
-207.2816426960
31
0.0000000000
11
205.7547746113
21
-208.1760149949
31
0.0000000000
11
205.5243700577
21
-209.0046661895
31
0.0000000000
11
205.2060041578
21
-209.7573129079
31
0.0000000000
11
204.8037155873
21
-210.4246333127
31
0.0000000000
11
204.3225625210
21
-210.9983715310
31
0.0000000000
11
203.7685586720
21
-211.4714265216
31
0.0000000000
11
203.1486011632
21
-211.8379295394
31
0.0000000000
11
203.0139454934
21
-211.8994966946
31
0.0000000000
0
SPLINE
5
221
100
AcDbEntity
8
0
100
AcDbSpline
62
0
6
CONTINUOUS
70
0
71
3
72
21
73
17
74
15
42
0.0000001000
43
0.0000001000
44
0.0000000001
12
13.4832683778
22
-6.0701946889
32
0.0000000000
13
-0.0000000000
23
-14.7866760873
33
0.0000000000
40
0.0000000000
40
0.0000000000
40
0.0000000000
40
0.0000000000
40
0.0633330837
40
0.1295255836
40
0.1983406753
40
0.2694444929
40
0.3424264228
40
0.4168178111
40
0.4921088465
40
0.5677643523
40
0.6432389255
40
0.7179918393
40
0.7915020967
40
0.8632840498
40
0.9329043418
40
1.0000000000
40
1.0000000000
40
1.0000000000
40
1.0000000000
10
198.5197024259
20
34.3112168936
30
0.0000000000
10
198.8043480808
20
34.1830688442
30
0.0000000000
10
199.3722874991
20
33.8885094213
30
0.0000000000
10
200.1927278548
20
33.3544437473
30
0.0000000000
10
200.9915601098
20
32.7246869587
30
0.0000000000
10
201.7588994696
20
32.0071986080
30
0.0000000000
10
202.4854122816
20
31.2108883590
30
0.0000000000
10
203.1621927504
20
30.3456255653
30
0.0000000000
10
203.7809423001
20
29.4220960408
30
0.0000000000
10
204.3340517164
20
28.4516863786
30
0.0000000000
10
204.8146981369
20
27.4463500258
30
0.0000000000
10
205.2169253350
20
26.4184633392
30
0.0000000000
10
205.5357151258
20
25.3806958800
30
0.0000000000
10
205.7670468818
20
24.3457982657
30
0.0000000000
10
205.9079428766
20
23.3266616058
30
0.0000000000
10
205.9409661391
20
22.6524707572
30
0.0000000000
10
205.9409661391
20
22.3217635024
30
0.0000000000
11
198.5197024259
21
34.3112168936
31
0.0000000000
11
199.3520620955
21
33.8820513973
31
0.0000000000
11
200.1734159257
21
33.3497330388
31
0.0000000000
11
200.9735000961
21
32.7210310905
31
0.0000000000
11
201.7423455539
21
32.0038869319
31
0.0000000000
11
202.4703929074
21
31.2073106994
31
0.0000000000
11
203.1486036239
21
30.3412661137
31
0.0000000000
11
203.7685609968
21
29.4165504864
31
0.0000000000
11
204.3225644832
21
28.4446681943
31
0.0000000000
11
204.8037170396
21
27.4376982125
31
0.0000000000
11
205.2060050722
21
26.4081562746
31
0.0000000000
11
205.5243705205
21
25.3688524871
31
0.0000000000
11
205.7547747746
21
24.3327449431
31
0.0000000000
11
205.8942545411
21
23.3127850067
31
0.0000000000
11
205.9409661391
21
22.3217635024
31
0.0000000000
0
SPLINE
5
222
100
AcDbEntity
8
0
100
AcDbSpline
62
0
6
CONTINUOUS
70
0
71
3
72
13
73
9
74
7
42
0.0000001000
43
0.0000001000
44
0.0000000001
12
0.0000000000
22
-1.8791262475
32
0.0000000000
13
-1.6470707605
23
-0.9145254341
33
0.0000000000
40
0.0000000000
40
0.0000000000
40
0.0000000000
40
0.0000000000
40
0.2102180496
40
0.4064846278
40
0.5893035941
40
0.7607598573
40
0.9245830652
40
1.0000000000
40
1.0000000000
40
1.0000000000
40
1.0000000000
10
181.7274460918
20
-182.2707893713
30
0.0000000000
10
181.7274460918
20
-182.4024647896
30
0.0000000000
10
181.7108918714
20
-182.6575486054
30
0.0000000000
10
181.6309216628
20
-183.0195372414
30
0.0000000000
10
181.4978765986
20
-183.3399290596
30
0.0000000000
10
181.3140288681
20
-183.6104300563
30
0.0000000000
10
181.1230530405
20
-183.7864285869
30
0.0000000000
10
180.9958448811
20
-183.8668086592
30
0.0000000000
10
180.9544392051
20
-183.8897988942
30
0.0000000000
11
181.7274460918
21
-182.2707893713
31
0.0000000000
11
181.6999980538
21
-182.6648608714
31
0.0000000000
11
181.6183298018
21
-183.0245146989
31
0.0000000000
11
181.4844522791
21
-183.3408949830
31
0.0000000000
11
181.3016619946
21
-183.6062113912
31
0.0000000000
11
181.0744598518
21
-183.8139309528
31
0.0000000000
11
180.9544392051
21
-183.8897988942
31
0.0000000000
0
SPLINE
5
223
100
AcDbEntity
8
0
100
AcDbSpline
62
0
6
CONTINUOUS
70
0
71
3
72
13
73
9
74
7
42
0.0000001000
43
0.0000001000
44
0.0000000001
12
0.0000000000
22
-1.8791262475
32
0.0000000000
13
-1.6470707605
23
-0.9145254341
33
0.0000000000
40
0.0000000000
40
0.0000000000
40
0.0000000000
40
0.0000000000
40
0.2102180496
40
0.4064846278
40
0.5893035941
40
0.7607598573
40
0.9245830652
40
1.0000000000
40
1.0000000000
40
1.0000000000
40
1.0000000000
10
-182.4135183921
20
-18.3337908134
30
0.0000000000
10
-182.4135183921
20
-18.4654662317
30
0.0000000000
10
-182.4300726125
20
-18.7205500475
30
0.0000000000
10
-182.5100428211
20
-19.0825386835
30
0.0000000000
10
-182.6430878853
20
-19.4029305017
30
0.0000000000
10
-182.8269356158
20
-19.6734314984
30
0.0000000000
10
-183.0179114434
20
-19.8494300290
30
0.0000000000
10
-183.1451196028
20
-19.9298101013
30
0.0000000000
10
-183.1865252789
20
-19.9528003363
30
0.0000000000
11
-182.4135183921
21
-18.3337908134
31
0.0000000000
11
-182.4409664301
21
-18.7278623135
31
0.0000000000
11
-182.5226346821
21
-19.0875161410
31
0.0000000000
11
-182.6565122048
21
-19.4038964251
31
0.0000000000
11
-182.8393024893
21
-19.6692128332
31
0.0000000000
11
-183.0665046321
21
-19.8769323949
31
0.0000000000
11
-183.1865252789
21
-19.9528003363
31
0.0000000000
0
SPLINE
5
224
100
AcDbEntity
8
0
100
AcDbSpline
62
0
6
CONTINUOUS
70
0
71
3
72
13
73
9
74
7
42
0.0000001000
43
0.0000001000
44
0.0000000001
12
0.0000000000
22
-1.8791262475
32
0.0000000000
13
-1.6470707605
23
-0.9145254341
33
0.0000000000
40
0.0000000000
40
0.0000000000
40
0.0000000000
40
0.0000000000
40
0.2102180496
40
0.4064846278
40
0.5893035941
40
0.7607598573
40
0.9245830652
40
1.0000000000
40
1.0000000000
40
1.0000000000
40
1.0000000000
10
181.7274460918
20
11.7189010764
30
0.0000000000
10
181.7274460918
20
11.5872256581
30
0.0000000000
10
181.7108918714
20
11.3321418423
30
0.0000000000
10
181.6309216628
20
10.9701532063
30
0.0000000000
10
181.4978765986
20
10.6497613881
30
0.0000000000
10
181.3140288681
20
10.3792603914
30
0.0000000000
10
181.1230530405
20
10.2032618608
30
0.0000000000
10
180.9958448811
20
10.1228817885
30
0.0000000000
10
180.9544392051
20
10.0998915535
30
0.0000000000
11
181.7274460918
21
11.7189010764
31
0.0000000000
11
181.6999980538
21
11.3248295763
31
0.0000000000
11
181.6183298018
21
10.9651757488
31
0.0000000000
11
181.4844522791
21
10.6487954647
31
0.0000000000
11
181.3016619946
21
10.3834790566
31
0.0000000000
11
181.0744598518
21
10.1757594949
31
0.0000000000
11
180.9544392051
21
10.0998915535
31
0.0000000000
0
SPLINE
5
225
100
AcDbEntity
8
0
100
AcDbSpline
62
0
6
CONTINUOUS
70
0
71
3
72
13
73
9
74
7
42
0.0000001000
43
0.0000001000
44
0.0000000001
12
0.0000000000
22
-1.8791262475
32
0.0000000000
13
-1.6470707605
23
-0.9145254341
33
0.0000000000
40
0.0000000000
40
0.0000000000
40
0.0000000000
40
0.0000000000
40
0.2102180496
40
0.4064846278
40
0.5893035941
40
0.7607598573
40
0.9245830652
40
1.0000000000
40
1.0000000000
40
1.0000000000
40
1.0000000000
10
-182.4135183921
20
175.6558996343
30
0.0000000000
10
-182.4135183921
20
175.5242242160
30
0.0000000000
10
-182.4300726125
20
175.2691404002
30
0.0000000000
10
-182.5100428211
20
174.9071517642
30
0.0000000000
10
-182.6430878853
20
174.5867599461
30
0.0000000000
10
-182.8269356158
20
174.3162589493
30
0.0000000000
10
-183.0179114434
20
174.1402604187
30
0.0000000000
10
-183.1451196028
20
174.0598803464
30
0.0000000000
10
-183.1865252789
20
174.0368901114
30
0.0000000000
11
-182.4135183921
21
175.6558996343
31
0.0000000000
11
-182.4409664301
21
175.2618281342
31
0.0000000000
11
-182.5226346821
21
174.9021743067
31
0.0000000000
11
-182.6565122048
21
174.5857940226
31
0.0000000000
11
-182.8393024893
21
174.3204776145
31
0.0000000000
11
-183.0665046321
21
174.1127580529
31
0.0000000000
11
-183.1865252789
21
174.0368901114
31
0.0000000000
0
SPLINE
5
226
100
AcDbEntity
8
0
100
AcDbSpline
62
0
6
CONTINUOUS
70
0
71
3
72
13
73
9
74
7
42
0.0000001000
43
0.0000001000
44
0.0000000001
12
0.0000000000
22
-1.8791262475
32
0.0000000000
13
-1.6470707605
23
-0.9145254341
33
0.0000000000
40
0.0000000000
40
0.0000000000
40
0.0000000000
40
0.0000000000
40
0.2102180496
40
0.4064846278
40
0.5893035941
40
0.7607598573
40
0.9245830652
40
1.0000000000
40
1.0000000000
40
1.0000000000
40
1.0000000000
10
56.8791154116
20
-132.5590089656
30
0.0000000000
10
56.8791154116
20
-132.6906843838
30
0.0000000000
10
56.8625611912
20
-132.9457681996
30
0.0000000000
10
56.7825909826
20
-133.3077568356
30
0.0000000000
10
56.6495459184
20
-133.6281486538
30
0.0000000000
10
56.4656981879
20
-133.8986496506
30
0.0000000000
10
56.2747223603
20
-134.0746481811
30
0.0000000000
10
56.1475142009
20
-134.1550282534
30
0.0000000000
10
56.1061085249
20
-134.1780184884
30
0.0000000000
11
56.8791154116
21
-132.5590089656
31
0.0000000000
11
56.8516673736
21
-132.9530804656
31
0.0000000000
11
56.7699991216
21
-133.3127342932
31
0.0000000000
11
56.6361215989
21
-133.6291145773
31
0.0000000000
11
56.4533313144
21
-133.8944309854
31
0.0000000000
11
56.2261291716
21
-134.1021505470
31
0.0000000000
11
56.1061085249
21
-134.1780184884
31
0.0000000000
0
SPLINE
5
227
100
AcDbEntity
8
0
100
AcDbSpline
62
0
6
CONTINUOUS
70
0
71
3
72
13
73
9
74
7
42
0.0000001000
43
0.0000001000
44
0.0000000001
12
0.0000000000
22
-1.8791262475
32
0.0000000000
13
-1.6470707605
23
-0.9145254341
33
0.0000000000
40
0.0000000000
40
0.0000000000
40
0.0000000000
40
0.0000000000
40
0.2102180496
40
0.4064846278
40
0.5893035941
40
0.7607598573
40
0.9245830652
40
1.0000000000
40
1.0000000000
40
1.0000000000
40
1.0000000000
10
56.8791154116
20
74.4210625389
30
0.0000000000
10
56.8791154116
20
74.2893871207
30
0.0000000000
10
56.8625611912
20
74.0343033048
30
0.0000000000
10
56.7825909826
20
73.6723146689
30
0.0000000000
10
56.6495459184
20
73.3519228507
30
0.0000000000
10
56.4656981879
20
73.0814218539
30
0.0000000000
10
56.2747223603
20
72.9054233233
30
0.0000000000
10
56.1475142009
20
72.8250432511
30
0.0000000000
10
56.1061085249
20
72.8020530160
30
0.0000000000
11
56.8791154116
21
74.4210625389
31
0.0000000000
11
56.8516673736
21
74.0269910388
31
0.0000000000
11
56.7699991216
21
73.6673372113
31
0.0000000000
11
56.6361215989
21
73.3509569272
31
0.0000000000
11
56.4533313144
21
73.0856405191
31
0.0000000000
11
56.2261291716
21
72.8779209575
31
0.0000000000
11
56.1061085249
21
72.8020530160
31
0.0000000000
0
SPLINE
5
228
100
AcDbEntity
8
0
100
AcDbSpline
62
0
6
CONTINUOUS
70
0
71
3
72
13
73
9
74
7
42
0.0000001000
43
0.0000001000
44
0.0000000001
12
0.0000000000
22
-1.8791262475
32
0.0000000000
13
-1.6470707605
23
-0.9145254341
33
0.0000000000
40
0.0000000000
40
0.0000000000
40
0.0000000000
40
0.0000000000
40
0.2102180496
40
0.4064846278
40
0.5893035941
40
0.7607598573
40
0.9245830652
40
1.0000000000
40
1.0000000000
40
1.0000000000
40
1.0000000000
10
-57.5651877119
20
-81.0359522759
30
0.0000000000
10
-57.5651877119
20
-81.1676276942
30
0.0000000000
10
-57.5817419323
20
-81.4227115100
30
0.0000000000
10
-57.6617121409
20
-81.7847001460
30
0.0000000000
10
-57.7947572051
20
-82.1050919642
30
0.0000000000
10
-57.9786049356
20
-82.3755929609
30
0.0000000000
10
-58.1695807632
20
-82.5515914915
30
0.0000000000
10
-58.2967889226
20
-82.6319715638
30
0.0000000000
10
-58.3381945987
20
-82.6549617988
30
0.0000000000
11
-57.5651877119
21
-81.0359522759
31
0.0000000000
11
-57.5926357499
21
-81.4300237760
31
0.0000000000
11
-57.6743040019
21
-81.7896776035
31
0.0000000000
11
-57.8081815246
21
-82.1060578877
31
0.0000000000
11
-57.9909718091
21
-82.3713742958
31
0.0000000000
11
-58.2181739519
21
-82.5790938574
31
0.0000000000
11
-58.3381945987
21
-82.6549617988
31
0.0000000000
0
SPLINE
5
229
100
AcDbEntity
8
0
100
AcDbSpline
62
0
6
CONTINUOUS
70
0
71
3
72
13
73
9
74
7
42
0.0000001000
43
0.0000001000
44
0.0000000001
12
0.0000000000
22
-1.8791262475
32
0.0000000000
13
-1.6470707605
23
-0.9145254341
33
0.0000000000
40
0.0000000000
40
0.0000000000
40
0.0000000000
40
0.0000000000
40
0.2102180496
40
0.4064846278
40
0.5893035941
40
0.7607598573
40
0.9245830652
40
1.0000000000
40
1.0000000000
40
1.0000000000
40
1.0000000000
10
-57.5651877119
20
125.9441192285
30
0.0000000000
10
-57.5651877119
20
125.8124438103
30
0.0000000000
10
-57.5817419323
20
125.5573599945
30
0.0000000000
10
-57.6617121409
20
125.1953713585
30
0.0000000000
10
-57.7947572051
20
124.8749795403
30
0.0000000000
10
-57.9786049356
20
124.6044785436
30
0.0000000000
10
-58.1695807632
20
124.4284800130
30
0.0000000000
10
-58.2967889226
20
124.3480999407
30
0.0000000000
10
-58.3381945987
20
124.3251097057
30
0.0000000000
11
-57.5651877119
21
125.9441192285
31
0.0000000000
11
-57.5926357499
21
125.5500477285
31
0.0000000000
11
-57.6743040019
21
125.1903939009
31
0.0000000000
11
-57.8081815246
21
124.8740136168
31
0.0000000000
11
-57.9909718091
21
124.6086972087
31
0.0000000000
11
-58.2181739519
21
124.4009776471
31
0.0000000000
11
-58.3381945987
21
124.3251097057
31
0.0000000000
0
SPLINE
5
22A
100
AcDbEntity
8
0
100
AcDbSpline
62
0
6
CONTINUOUS
70
0
71
3
72
22
73
18
74
16
42
0.0000001000
43
0.0000001000
44
0.0000000001
12
5.2146538962
22
2.8954029982
32
0.0000000000
13
0.0000000000
23
-5.9493454944
33
0.0000000000
40
0.0000000000
40
0.0000000000
40
0.0000000000
40
0.0000000000
40
0.0271049669
40
0.0789595243
40
0.1333150175
40
0.1913176227
40
0.2535922603
40
0.3202683981
40
0.3910601662
40
0.4653572087
40
0.5423094836
40
0.6209031801
40
0.7000297111
40
0.7785506805
40
0.8553616049
40
0.9294570538
40
1.0000000000
40
1.0000000000
40
1.0000000000
40
1.0000000000
10
-61.2510497781
20
129.5705205705
30
0.0000000000
10
-61.2039354376
20
129.5966805047
30
0.0000000000
10
-61.0617637870
20
129.6640294905
30
0.0000000000
10
-60.8034375558
20
129.7310522891
30
0.0000000000
10
-60.4753853157
20
129.7396089423
30
0.0000000000
10
-60.1323878636
20
129.6787948020
30
0.0000000000
10
-59.7825957845
20
129.5510956163
30
0.0000000000
10
-59.4340542430
20
129.3601284535
30
0.0000000000
10
-59.0948254201
20
129.1107095349
30
0.0000000000
10
-58.7728744077
20
128.8089152105
30
0.0000000000
10
-58.4758586976
20
128.4620394630
30
0.0000000000
10
-58.2109043554
20
128.0784632888
30
0.0000000000
10
-57.9844008873
20
127.6674590691
30
0.0000000000
10
-57.8018256334
20
127.2389735741
30
0.0000000000
10
-57.6676026917
20
126.8033196730
30
0.0000000000
10
-57.5850028628
20
126.3710901142
30
0.0000000000
10
-57.5651877119
20
126.0840140150
30
0.0000000000
10
-57.5651877119
20
125.9441192285
30
0.0000000000
11
-61.2510497781
21
129.5705205705
31
0.0000000000
11
-61.1050508946
21
129.6396605992
31
0.0000000000
11
-60.8067642605
21
129.7183864003
31
0.0000000000
11
-60.4835553294
21
129.7288915419
31
0.0000000000
11
-60.1433825780
21
129.6709173527
31
0.0000000000
11
-59.7946221884
21
129.5458913494
31
0.0000000000
11
-59.4458617987
21
129.3568920873
31
0.0000000000
11
-59.1056890473
21
129.1085733555
31
0.0000000000
11
-58.7824801163
21
128.8070495852
31
0.0000000000
11
-58.4841934822
21
128.4597452923
31
0.0000000000
11
-58.2181739519
21
128.0752122613
31
0.0000000000
11
-57.9909718091
21
127.6629189714
31
0.0000000000
11
-57.8081815246
21
127.2330174519
31
0.0000000000
11
-57.6743040019
21
126.7960933049
31
0.0000000000
11
-57.5926357499
21
126.3629050530
31
0.0000000000
11
-57.5651877119
21
125.9441192285
31
0.0000000000
0
SPLINE
5
22B
100
AcDbEntity
8
0
100
AcDbSpline
62
0
6
CONTINUOUS
70
0
71
3
72
22
73
18
74
16
42
0.0000001000
43
0.0000001000
44
0.0000000001
12
5.2146538962
22
2.8954029982
32
0.0000000000
13
0.0000000000
23
-5.9493454944
33
0.0000000000
40
0.0000000000
40
0.0000000000
40
0.0000000000
40
0.0000000000
40
0.0271049669
40
0.0789595243
40
0.1333150175
40
0.1913176227
40
0.2535922603
40
0.3202683981
40
0.3910601662
40
0.4653572087
40
0.5423094836
40
0.6209031801
40
0.7000297111
40
0.7785506805
40
0.8553616049
40
0.9294570538
40
1.0000000000
40
1.0000000000
40
1.0000000000
40
1.0000000000
10
-61.2510497781
20
-77.4095509340
30
0.0000000000
10
-61.2039354376
20
-77.3833909998
30
0.0000000000
10
-61.0617637870
20
-77.3160420140
30
0.0000000000
10
-60.8034375558
20
-77.2490192153
30
0.0000000000
10
-60.4753853157
20
-77.2404625621
30
0.0000000000
10
-60.1323878635
20
-77.3012767025
30
0.0000000000
10
-59.7825957845
20
-77.4289758882
30
0.0000000000
10
-59.4340542430
20
-77.6199430510
30
0.0000000000
10
-59.0948254201
20
-77.8693619695
30
0.0000000000
10
-58.7728744077
20
-78.1711562940
30
0.0000000000
10
-58.4758586976
20
-78.5180320415
30
0.0000000000
10
-58.2109043554
20
-78.9016082157
30
0.0000000000
10
-57.9844008873
20
-79.3126124354
30
0.0000000000
10
-57.8018256334
20
-79.7410979304
30
0.0000000000
10
-57.6676026916
20
-80.1767518315
30
0.0000000000
10
-57.5850028628
20
-80.6089813903
30
0.0000000000
10
-57.5651877119
20
-80.8960574895
30
0.0000000000
10
-57.5651877119
20
-81.0359522759
30
0.0000000000
11
-61.2510497781
21
-77.4095509340
31
0.0000000000
11
-61.1050508946
21
-77.3404109053
31
0.0000000000
11
-60.8067642605
21
-77.2616851042
31
0.0000000000
11
-60.4835553294
21
-77.2511799625
31
0.0000000000
11
-60.1433825780
21
-77.3091541518
31
0.0000000000
11
-59.7946221884
21
-77.4341801551
31
0.0000000000
11
-59.4458617987
21
-77.6231794171
31
0.0000000000
11
-59.1056890473
21
-77.8714981490
31
0.0000000000
11
-58.7824801163
21
-78.1730219193
31
0.0000000000
11
-58.4841934822
21
-78.5203262122
31
0.0000000000
11
-58.2181739519
21
-78.9048592432
31
0.0000000000
11
-57.9909718091
21
-79.3171525330
31
0.0000000000
11
-57.8081815246
21
-79.7470540526
31
0.0000000000
11
-57.6743040019
21
-80.1839781996
31
0.0000000000
11
-57.5926357499
21
-80.6171664515
31
0.0000000000
11
-57.5651877119
21
-81.0359522759
31
0.0000000000
0
SPLINE
5
22C
100
AcDbEntity
8
0
100
AcDbSpline
62
0
6
CONTINUOUS
70
0
71
3
72
22
73
18
74
16
42
0.0000001000
43
0.0000001000
44
0.0000000001
12
5.2146538962
22
2.8954029982
32
0.0000000000
13
0.0000000000
23
-5.9493454944
33
0.0000000000
40
0.0000000000
40
0.0000000000
40
0.0000000000
40
0.0000000000
40
0.0271049669
40
0.0789595243
40
0.1333150175
40
0.1913176227
40
0.2535922603
40
0.3202683981
40
0.3910601662
40
0.4653572087
40
0.5423094836
40
0.6209031801
40
0.7000297111
40
0.7785506805
40
0.8553616049
40
0.9294570538
40
1.0000000000
40
1.0000000000
40
1.0000000000
40
1.0000000000
10
53.1932533454
20
78.0474638809
30
0.0000000000
10
53.2403676859
20
78.0736238150
30
0.0000000000
10
53.3825393365
20
78.1409728009
30
0.0000000000
10
53.6408655677
20
78.2079955995
30
0.0000000000
10
53.9689178078
20
78.2165522527
30
0.0000000000
10
54.3119152600
20
78.1557381123
30
0.0000000000
10
54.6617073390
20
78.0280389267
30
0.0000000000
10
55.0102488805
20
77.8370717639
30
0.0000000000
10
55.3494777034
20
77.5876528453
30
0.0000000000
10
55.6714287158
20
77.2858585209
30
0.0000000000
10
55.9684444259
20
76.9389827733
30
0.0000000000
10
56.2333987681
20
76.5554065992
30
0.0000000000
10
56.4599022363
20
76.1444023795
30
0.0000000000
10
56.6424774901
20
75.7159168845
30
0.0000000000
10
56.7767004319
20
75.2802629834
30
0.0000000000
10
56.8593002607
20
74.8480334245
30
0.0000000000
10
56.8791154116
20
74.5609573254
30
0.0000000000
10
56.8791154116
20
74.4210625389
30
0.0000000000
11
53.1932533454
21
78.0474638809
31
0.0000000000
11
53.3392522289
21
78.1166039095
31
0.0000000000
11
53.6375388630
21
78.1953297107
31
0.0000000000
11
53.9607477941
21
78.2058348523
31
0.0000000000
11
54.3009205455
21
78.1478606630
31
0.0000000000
11
54.6496809351
21
78.0228346598
31
0.0000000000
11
54.9984413248
21
77.8338353977
31
0.0000000000
11
55.3386140762
21
77.5855166659
31
0.0000000000
11
55.6618230072
21
77.2839928955
31
0.0000000000
11
55.9601096413
21
76.9366886027
31
0.0000000000
11
56.2261291716
21
76.5521555716
31
0.0000000000
11
56.4533313144
21
76.1398622818
31
0.0000000000
11
56.6361215989
21
75.7099607623
31
0.0000000000
11
56.7699991216
21
75.2730366153
31
0.0000000000
11
56.8516673736
21
74.8398483633
31
0.0000000000
11
56.8791154116
21
74.4210625389
31
0.0000000000
0
SPLINE
5
22D
100
AcDbEntity
8
0
100
AcDbSpline
62
0
6
CONTINUOUS
70
0
71
3
72
22
73
18
74
16
42
0.0000001000
43
0.0000001000
44
0.0000000001
12
5.2146538962
22
2.8954029982
32
0.0000000000
13
0.0000000000
23
-5.9493454944
33
0.0000000000
40
0.0000000000
40
0.0000000000
40
0.0000000000
40
0.0000000000
40
0.0271049669
40
0.0789595243
40
0.1333150175
40
0.1913176227
40
0.2535922603
40
0.3202683981
40
0.3910601662
40
0.4653572087
40
0.5423094836
40
0.6209031801
40
0.7000297111
40
0.7785506805
40
0.8553616049
40
0.9294570538
40
1.0000000000
40
1.0000000000
40
1.0000000000
40
1.0000000000
10
53.1932533454
20
-128.9326076236
30
0.0000000000
10
53.2403676859
20
-128.9064476895
30
0.0000000000
10
53.3825393365
20
-128.8390987036
30
0.0000000000
10
53.6408655677
20
-128.7720759050
30
0.0000000000
10
53.9689178078
20
-128.7635192518
30
0.0000000000
10
54.3119152600
20
-128.8243333922
30
0.0000000000
10
54.6617073390
20
-128.9520325778
30
0.0000000000
10
55.0102488805
20
-129.1429997406
30
0.0000000000
10
55.3494777034
20
-129.3924186592
30
0.0000000000
10
55.6714287158
20
-129.6942129836
30
0.0000000000
10
55.9684444259
20
-130.0410887311
30
0.0000000000
10
56.2333987681
20
-130.4246649053
30
0.0000000000
10
56.4599022363
20
-130.8356691250
30
0.0000000000
10
56.6424774901
20
-131.2641546200
30
0.0000000000
10
56.7767004319
20
-131.6998085211
30
0.0000000000
10
56.8593002607
20
-132.1320380800
30
0.0000000000
10
56.8791154116
20
-132.4191141791
30
0.0000000000
10
56.8791154116
20
-132.5590089656
30
0.0000000000
11
53.1932533454
21
-128.9326076236
31
0.0000000000
11
53.3392522289
21
-128.8634675950
31
0.0000000000
11
53.6375388630
21
-128.7847417938
31
0.0000000000
11
53.9607477941
21
-128.7742366522
31
0.0000000000
11
54.3009205455
21
-128.8322108414
31
0.0000000000
11
54.6496809351
21
-128.9572368447
31
0.0000000000
11
54.9984413248
21
-129.1462361068
31
0.0000000000
11
55.3386140762
21
-129.3945548386
31
0.0000000000
11
55.6618230072
21
-129.6960786089
31
0.0000000000
11
55.9601096413
21
-130.0433829018
31
0.0000000000
11
56.2261291716
21
-130.4279159328
31
0.0000000000
11
56.4533313144
21
-130.8402092227
31
0.0000000000
11
56.6361215989
21
-131.2701107422
31
0.0000000000
11
56.7699991216
21
-131.7070348892
31
0.0000000000
11
56.8516673736
21
-132.1402231411
31
0.0000000000
11
56.8791154116
21
-132.5590089656
31
0.0000000000
0
SPLINE
5
22E
100
AcDbEntity
8
0
100
AcDbSpline
62
0
6
CONTINUOUS
70
0
71
3
72
22
73
18
74
16
42
0.0000001000
43
0.0000001000
44
0.0000000001
12
5.2146538962
22
2.8954029982
32
0.0000000000
13
0.0000000000
23
-5.9493454944
33
0.0000000000
40
0.0000000000
40
0.0000000000
40
0.0000000000
40
0.0000000000
40
0.0271049669
40
0.0789595243
40
0.1333150175
40
0.1913176227
40
0.2535922603
40
0.3202683981
40
0.3910601662
40
0.4653572087
40
0.5423094836
40
0.6209031801
40
0.7000297111
40
0.7785506805
40
0.8553616049
40
0.9294570538
40
1.0000000000
40
1.0000000000
40
1.0000000000
40
1.0000000000
10
-186.0993804583
20
179.2823009762
30
0.0000000000
10
-186.0522661178
20
179.3084609104
30
0.0000000000
10
-185.9100944673
20
179.3758098963
30
0.0000000000
10
-185.6517682360
20
179.4428326949
30
0.0000000000
10
-185.3237159959
20
179.4513893481
30
0.0000000000
10
-184.9807185438
20
179.3905752077
30
0.0000000000
10
-184.6309264647
20
179.2628760221
30
0.0000000000
10
-184.2823849232
20
179.0719088593
30
0.0000000000
10
-183.9431561003
20
178.8224899407
30
0.0000000000
10
-183.6212050879
20
178.5206956163
30
0.0000000000
10
-183.3241893778
20
178.1738198687
30
0.0000000000
10
-183.0592350356
20
177.7902436946
30
0.0000000000
10
-182.8327315675
20
177.3792394749
30
0.0000000000
10
-182.6501563136
20
176.9507539798
30
0.0000000000
10
-182.5159333719
20
176.5151000787
30
0.0000000000
10
-182.4333335430
20
176.0828705199
30
0.0000000000
10
-182.4135183921
20
175.7957944208
30
0.0000000000
10
-182.4135183921
20
175.6558996343
30
0.0000000000
11
-186.0993804583
21
179.2823009762
31
0.0000000000
11
-185.9533815748
21
179.3514410049
31
0.0000000000
11
-185.6550949407
21
179.4301668060
31
0.0000000000
11
-185.3318860096
21
179.4406719477
31
0.0000000000
11
-184.9917132582
21
179.3826977584
31
0.0000000000
11
-184.6429528686
21
179.2576717552
31
0.0000000000
11
-184.2941924789
21
179.0686724931
31
0.0000000000
11
-183.9540197275
21
178.8203537612
31
0.0000000000
11
-183.6308107965
21
178.5188299909
31
0.0000000000
11
-183.3325241624
21
178.1715256981
31
0.0000000000
11
-183.0665046321
21
177.7869926670
31
0.0000000000
11
-182.8393024893
21
177.3746993772
31
0.0000000000
11
-182.6565122048
21
176.9447978577
31
0.0000000000
11
-182.5226346821
21
176.5078737107
31
0.0000000000
11
-182.4409664301
21
176.0746854587
31
0.0000000000
11
-182.4135183921
21
175.6558996343
31
0.0000000000
0
SPLINE
5
22F
100
AcDbEntity
8
0
100
AcDbSpline
62
0
6
CONTINUOUS
70
0
71
3
72
22
73
18
74
16
42
0.0000001000
43
0.0000001000
44
0.0000000001
12
5.2146538962
22
2.8954029982
32
0.0000000000
13
0.0000000000
23
-5.9493454944
33
0.0000000000
40
0.0000000000
40
0.0000000000
40
0.0000000000
40
0.0000000000
40
0.0271049669
40
0.0789595243
40
0.1333150175
40
0.1913176227
40
0.2535922603
40
0.3202683981
40
0.3910601662
40
0.4653572087
40
0.5423094836
40
0.6209031801
40
0.7000297111
40
0.7785506805
40
0.8553616049
40
0.9294570538
40
1.0000000000
40
1.0000000000
40
1.0000000000
40
1.0000000000
10
178.0415840256
20
15.3453024183
30
0.0000000000
10
178.0886983661
20
15.3714623525
30
0.0000000000
10
178.2308700167
20
15.4388113384
30
0.0000000000
10
178.4891962479
20
15.5058341370
30
0.0000000000
10
178.8172484880
20
15.5143907902
30
0.0000000000
10
179.1602459402
20
15.4535766498
30
0.0000000000
10
179.5100380192
20
15.3258774641
30
0.0000000000
10
179.8585795607
20
15.1349103014
30
0.0000000000
10
180.1978083836
20
14.8854913828
30
0.0000000000
10
180.5197593960
20
14.5836970584
30
0.0000000000
10
180.8167751061
20
14.2368213108
30
0.0000000000
10
181.0817294483
20
13.8532451367
30
0.0000000000
10
181.3082329165
20
13.4422409169
30
0.0000000000
10
181.4908081703
20
13.0137554219
30
0.0000000000
10
181.6250311121
20
12.5781015208
30
0.0000000000
10
181.7076309409
20
12.1458719620
30
0.0000000000
10
181.7274460918
20
11.8587958629
30
0.0000000000
10
181.7274460918
20
11.7189010764
30
0.0000000000
11
178.0415840256
21
15.3453024183
31
0.0000000000
11
178.1875829091
21
15.4144424470
31
0.0000000000
11
178.4858695432
21
15.4931682481
31
0.0000000000
11
178.8090784743
21
15.5036733898
31
0.0000000000
11
179.1492512257
21
15.4456992005
31
0.0000000000
11
179.4980116153
21
15.3206731973
31
0.0000000000
11
179.8467720050
21
15.1316739352
31
0.0000000000
11
180.1869447564
21
14.8833552033
31
0.0000000000
11
180.5101536874
21
14.5818314330
31
0.0000000000
11
180.8084403215
21
14.2345271402
31
0.0000000000
11
181.0744598518
21
13.8499941091
31
0.0000000000
11
181.3016619946
21
13.4377008193
31
0.0000000000
11
181.4844522791
21
13.0077992998
31
0.0000000000
11
181.6183298018
21
12.5708751528
31
0.0000000000
11
181.6999980538
21
12.1376869008
31
0.0000000000
11
181.7274460918
21
11.7189010764
31
0.0000000000
0
SPLINE
5
230
100
AcDbEntity
8
0
100
AcDbSpline
62
0
6
CONTINUOUS
70
0
71
3
72
22
73
18
74
16
42
0.0000001000
43
0.0000001000
44
0.0000000001
12
5.2146538962
22
2.8954029982
32
0.0000000000
13
0.0000000000
23
-5.9493454944
33
0.0000000000
40
0.0000000000
40
0.0000000000
40
0.0000000000
40
0.0000000000
40
0.0271049669
40
0.0789595243
40
0.1333150175
40
0.1913176227
40
0.2535922603
40
0.3202683981
40
0.3910601662
40
0.4653572087
40
0.5423094836
40
0.6209031801
40
0.7000297111
40
0.7785506805
40
0.8553616049
40
0.9294570538
40
1.0000000000
40
1.0000000000
40
1.0000000000
40
1.0000000000
10
-186.0993804583
20
-14.7073894715
30
0.0000000000
10
-186.0522661178
20
-14.6812295373
30
0.0000000000
10
-185.9100944672
20
-14.6138805514
30
0.0000000000
10
-185.6517682360
20
-14.5468577528
30
0.0000000000
10
-185.3237159959
20
-14.5383010996
30
0.0000000000
10
-184.9807185438
20
-14.5991152400
30
0.0000000000
10
-184.6309264647
20
-14.7268144257
30
0.0000000000
10
-184.2823849232
20
-14.9177815884
30
0.0000000000
10
-183.9431561003
20
-15.1672005070
30
0.0000000000
10
-183.6212050879
20
-15.4689948314
30
0.0000000000
10
-183.3241893778
20
-15.8158705790
30
0.0000000000
10
-183.0592350356
20
-16.1994467531
30
0.0000000000
10
-182.8327315675
20
-16.6104509729
30
0.0000000000
10
-182.6501563136
20
-17.0389364679
30
0.0000000000
10
-182.5159333719
20
-17.4745903690
30
0.0000000000
10
-182.4333335430
20
-17.9068199278
30
0.0000000000
10
-182.4135183921
20
-18.1938960269
30
0.0000000000
10
-182.4135183921
20
-18.3337908134
30
0.0000000000
11
-186.0993804583
21
-14.7073894715
31
0.0000000000
11
-185.9533815748
21
-14.6382494428
31
0.0000000000
11
-185.6550949407
21
-14.5595236417
31
0.0000000000
11
-185.3318860096
21
-14.5490185000
31
0.0000000000
11
-184.9917132582
21
-14.6069926893
31
0.0000000000
11
-184.6429528686
21
-14.7320186925
31
0.0000000000
11
-184.2941924789
21
-14.9210179546
31
0.0000000000
11
-183.9540197275
21
-15.1693366865
31
0.0000000000
11
-183.6308107965
21
-15.4708604568
31
0.0000000000
11
-183.3325241624
21
-15.8181647496
31
0.0000000000
11
-183.0665046321
21
-16.2026977807
31
0.0000000000
11
-182.8393024893
21
-16.6149910705
31
0.0000000000
11
-182.6565122048
21
-17.0448925900
31
0.0000000000
11
-182.5226346821
21
-17.4818167370
31
0.0000000000
11
-182.4409664301
21
-17.9150049890
31
0.0000000000
11
-182.4135183921
21
-18.3337908134
31
0.0000000000
0
SPLINE
5
231
100
AcDbEntity
8
0
100
AcDbSpline
62
0
6
CONTINUOUS
70
0
71
3
72
22
73
18
74
16
42
0.0000001000
43
0.0000001000
44
0.0000000001
12
5.2146538962
22
2.8954029982
32
0.0000000000
13
0.0000000000
23
-5.9493454944
33
0.0000000000
40
0.0000000000
40
0.0000000000
40
0.0000000000
40
0.0000000000
40
0.0271049669
40
0.0789595243
40
0.1333150175
40
0.1913176227
40
0.2535922603
40
0.3202683981
40
0.3910601662
40
0.4653572087
40
0.5423094836
40
0.6209031801
40
0.7000297111
40
0.7785506805
40
0.8553616049
40
0.9294570538
40
1.0000000000
40
1.0000000000
40
1.0000000000
40
1.0000000000
10
178.0415840256
20
-178.6443880294
30
0.0000000000
10
178.0886983661
20
-178.6182280952
30
0.0000000000
10
178.2308700167
20
-178.5508791093
30
0.0000000000
10
178.4891962479
20
-178.4838563107
30
0.0000000000
10
178.8172484880
20
-178.4752996575
30
0.0000000000
10
179.1602459402
20
-178.5361137979
30
0.0000000000
10
179.5100380192
20
-178.6638129836
30
0.0000000000
10
179.8585795607
20
-178.8547801463
30
0.0000000000
10
180.1978083836
20
-179.1041990649
30
0.0000000000
10
180.5197593960
20
-179.4059933893
30
0.0000000000
10
180.8167751061
20
-179.7528691369
30
0.0000000000
10
181.0817294483
20
-180.1364453110
30
0.0000000000
10
181.3082329165
20
-180.5474495308
30
0.0000000000
10
181.4908081703
20
-180.9759350258
30
0.0000000000
10
181.6250311121
20
-181.4115889269
30
0.0000000000
10
181.7076309409
20
-181.8438184857
30
0.0000000000
10
181.7274460918
20
-182.1308945849
30
0.0000000000
10
181.7274460918
20
-182.2707893713
30
0.0000000000
11
178.0415840256
21
-178.6443880294
31
0.0000000000
11
178.1875829091
21
-178.5752480007
31
0.0000000000
11
178.4858695433
21
-178.4965221996
31
0.0000000000
11
178.8090784743
21
-178.4860170579
31
0.0000000000
11
179.1492512257
21
-178.5439912472
31
0.0000000000
11
179.4980116153
21
-178.6690172504
31
0.0000000000
11
179.8467720050
21
-178.8580165125
31
0.0000000000
11
180.1869447564
21
-179.1063352444
31
0.0000000000
11
180.5101536874
21
-179.4078590147
31
0.0000000000
11
180.8084403215
21
-179.7551633075
31
0.0000000000
11
181.0744598518
21
-180.1396963386
31
0.0000000000
11
181.3016619946
21
-180.5519896284
31
0.0000000000
11
181.4844522791
21
-180.9818911479
31
0.0000000000
11
181.6183298018
21
-181.4188152950
31
0.0000000000
11
181.6999980538
21
-181.8520035469
31
0.0000000000
11
181.7274460918
21
-182.2707893713
31
0.0000000000
0
SPLINE
5
232
100
AcDbEntity
8
0
100
AcDbSpline
62
0
6
CONTINUOUS
70
0
71
3
72
14
73
10
74
8
42
0.0000001000
43
0.0000001000
44
0.0000000001
12
4.4749321521
22
3.0848247091
32
0.0000000000
13
4.9499465664
23
-2.2284759537
33
0.0000000000
40
0.0000000000
40
0.0000000000
40
0.0000000000
40
0.0000000000
40
0.1194908368
40
0.2529910016
40
0.3896013130
40
0.5313078779
40
0.6796598034
40
0.8357067036
40
1.0000000000
40
1.0000000000
40
1.0000000000
40
1.0000000000
10
-200.5576621674
20
211.5125858959
30
0.0000000000
10
-200.3794243715
20
211.6354553246
30
0.0000000000
10
-199.9816618468
20
211.8661163892
30
0.0000000000
10
-199.3182725923
20
212.1149224125
30
0.0000000000
10
-198.5830024854
20
212.2554201914
30
0.0000000000
10
-197.8082598924
20
212.2779711738
30
0.0000000000
10
-197.0039852979
20
212.1829917804
30
0.0000000000
10
-196.1802426753
20
211.9723135087
30
0.0000000000
10
-195.6385051730
20
211.7620390012
30
0.0000000000
10
-195.3674241603
20
211.6399977811
30
0.0000000000
11
-200.5576621674
21
211.5125858959
31
0.0000000000
11
-199.9963228976
21
211.8379295394
31
0.0000000000
11
-199.3181123301
21
212.0933099259
31
0.0000000000
11
-198.5900653890
21
212.2343489357
31
0.0000000000
11
-197.8212205074
21
212.2592212679
31
0.0000000000
11
-197.0211369443
21
212.1675241177
31
0.0000000000
11
-196.1997836035
21
211.9602922255
31
0.0000000000
11
-195.3674241603
21
211.6399977811
31
0.0000000000
0
SPLINE
5
233
100
AcDbEntity
8
0
100
AcDbSpline
62
9
6
CONTINUOUS
70
0
71
3
72
21
73
17
74
15
42
0.0000001000
43
0.0000001000
44
0.0000000001
12
-0.1265208174
22
14.7621820134
32
0.0000000000
13
-13.4098265666
23
6.1737004111
33
0.0000000000
40
0.0000000000
40
0.0000000000
40
0.0000000000
40
0.0000000000
40
0.0669063999
40
0.1364312014
40
0.2082003996
40
0.2817600751
40
0.3566105904
40
0.4322149931
40
0.5080132108
40
0.5834420243
40
0.6579483667
40
0.7310030529
40
0.8021214664
40
0.8708786738
40
0.9369203939
40
1.0000000000
40
1.0000000000
40
1.0000000000
40
1.0000000000
10
202.8929273357
20
20.6022627764
30
0.0000000000
10
202.8901056515
20
20.9314909276
30
0.0000000000
10
202.8517652686
20
21.6028742396
30
0.0000000000
10
202.7041736515
20
22.6178659166
30
0.0000000000
10
202.4672733802
20
23.6494076344
30
0.0000000000
10
202.1440715310
20
24.6846238727
30
0.0000000000
10
201.7386297733
20
25.7107529659
30
0.0000000000
10
201.2559948267
20
26.7151173304
30
0.0000000000
10
200.7021529214
20
27.6853121829
30
0.0000000000
10
200.0839553529
20
28.6093453576
30
0.0000000000
10
199.4090335506
20
29.4757898724
30
0.0000000000
10
198.6856965573
20
30.2739257182
30
0.0000000000
10
197.9228418021
20
30.9938618200
30
0.0000000000
10
197.1297895712
20
31.6266576266
30
0.0000000000
10
196.3163867572
20
32.1643498396
30
0.0000000000
10
195.7535395646
20
32.4620509336
30
0.0000000000
10
195.4715773718
20
32.5918624637
30
0.0000000000
11
202.8929273357
21
20.6022627764
31
0.0000000000
11
202.8384622373
21
21.5884806987
31
0.0000000000
11
202.6922954392
21
22.6043950011
31
0.0000000000
11
202.4563007850
21
23.6372868565
31
0.0000000000
11
202.1334975139
21
24.6741409154
31
0.0000000000
11
201.7279562502
21
25.7020299093
31
0.0000000000
11
201.2447619052
21
26.7081425175
31
0.0000000000
11
200.6899684591
21
27.6799134698
31
0.0000000000
11
200.0704976482
21
28.6052326563
31
0.0000000000
11
199.3940665550
21
29.4725604282
31
0.0000000000
11
198.6691156399
21
30.2710456294
31
0.0000000000
11
197.9046676957
21
30.9907070418
31
0.0000000000
11
197.1102373141
21
31.6225250997
31
0.0000000000
11
196.2958187410
21
32.1584924501
31
0.0000000000
11
195.4715773718
21
32.5918624637
31
0.0000000000
0
SPLINE
5
234
100
AcDbEntity
8
0
100
AcDbSpline
62
0
6
CONTINUOUS
70
0
71
3
72
11
73
7
74
5
42
0.0000001000
43
0.0000001000
44
0.0000000001
12
-0.6355608443
22
-1.0208267022
32
0.0000000000
13
-0.0000000000
23
-1.1997868154
33
0.0000000000
40
0.0000000000
40
0.0000000000
40
0.0000000000
40
0.0000000000
40
0.0336819421
40
0.3323324025
40
0.6540589898
40
1.0000000000
40
1.0000000000
40
1.0000000000
40
1.0000000000
10
-185.4452029317
20
179.4451932903
30
0.0000000000
10
-185.4523385729
20
179.4337321484
30
0.0000000000
10
-185.5212646329
20
179.3197396679
30
0.0000000000
10
-185.6281833430
20
179.0790329488
30
0.0000000000
10
-185.7166311542
20
178.7008931057
30
0.0000000000
10
-185.7348653142
20
178.4333163760
30
0.0000000000
10
-185.7348653142
20
178.2949645550
30
0.0000000000
11
-185.4452029317
21
179.4451932903
31
0.0000000000
11
-185.4661599398
21
179.4105404518
31
0.0000000000
11
-185.6140684048
21
179.0841755089
31
0.0000000000
11
-185.7044587338
21
178.7089047406
31
0.0000000000
11
-185.7348653142
21
178.2949645550
31
0.0000000000
0
SPLINE
5
235
100
AcDbEntity
8
0
100
AcDbSpline
62
9
6
CONTINUOUS
70
0
71
3
72
12
73
8
74
6
42
0.0000001000
43
0.0000001000
44
0.0000000001
12
0.0000000091
22
-1.2621179961
32
0.0000000000
13
1.1550570088
23
-0.5215635913
33
0.0000000000
40
0.0000000000
40
0.0000000000
40
0.0000000000
40
0.0000000000
40
0.2490690153
40
0.4745204263
40
0.6769092470
40
0.8608629347
40
1.0000000000
40
1.0000000000
40
1.0000000000
40
1.0000000000
10
194.2034404605
20
-211.9432184309
30
0.0000000000
10
194.2034404613
20
-212.0480032598
30
0.0000000000
10
194.2173079547
20
-212.2481202981
30
0.0000000000
10
194.2861545619
20
-212.5261979466
30
0.0000000000
10
194.4009645758
20
-212.7593233316
30
0.0000000000
10
194.5499849730
20
-212.9269929867
30
0.0000000000
10
194.6671106229
20
-212.9995556849
30
0.0000000000
10
194.7206810371
20
-213.0237452941
30
0.0000000000
11
194.2034404605
21
-211.9432184309
31
0.0000000000
11
194.2274740735
21
-212.2566528397
31
0.0000000000
11
194.2987117107
21
-212.5321374785
31
0.0000000000
11
194.4145947285
21
-212.7597775249
31
0.0000000000
11
194.5709609128
21
-212.9313966096
31
0.0000000000
11
194.7206810371
21
-213.0237452941
31
0.0000000000
0
SPLINE
5
236
100
AcDbEntity
8
0
100
AcDbSpline
62
9
6
CONTINUOUS
70
0
71
3
72
15
73
11
74
9
42
0.0000001000
43
0.0000001000
44
0.0000000001
12
2.5781536232
22
-1.1606899746
32
0.0000000000
13
2.5288854973
23
1.2644427483
33
0.0000000000
40
0.0000000000
40
0.0000000000
40
0.0000000000
40
0.0000000000
40
0.1148433891
40
0.2390995240
40
0.3698327525
40
0.5036558417
40
0.6369807281
40
0.7662511637
40
0.8881780671
40
1.0000000000
40
1.0000000000
40
1.0000000000
40
1.0000000000
10
200.1404514311
20
-207.6973644069
30
0.0000000000
10
200.2391460644
20
-207.7417969303
30
0.0000000000
10
200.4515968604
20
-207.8191547663
30
0.0000000000
10
200.7913775188
20
-207.8996001699
30
0.0000000000
10
201.1553494959
20
-207.9470562352
30
0.0000000000
10
201.5306725894
20
-207.9597981239
30
0.0000000000
10
201.9041663645
20
-207.9373837806
30
0.0000000000
10
202.2627289138
20
-207.8805987142
30
0.0000000000
10
202.5937297801
20
-207.7915004252
30
0.0000000000
10
202.7986645847
20
-207.7084571733
30
0.0000000000
10
202.8929262062
20
-207.6613263626
30
0.0000000000
11
200.1404514311
21
-207.6973644069
31
0.0000000000
11
200.4448988505
21
-207.8102612043
31
0.0000000000
11
200.7864785297
21
-207.8924109173
31
0.0000000000
11
201.1529216970
21
-207.9408629135
31
0.0000000000
11
201.5310665404
21
-207.9538769064
31
0.0000000000
11
201.9073309499
21
-207.9309854627
31
0.0000000000
11
202.2682003566
21
-207.8730107915
31
0.0000000000
11
202.6007131451
21
-207.7820352123
31
0.0000000000
11
202.8929262062
21
-207.6613263626
31
0.0000000000
0
SPLINE
5
237
100
AcDbEntity
8
0
100
AcDbSpline
62
0
6
CONTINUOUS
70
0
71
3
72
9
73
5
74
3
42
0.0000001000
43
0.0000001000
44
0.0000000001
12
-0.0774020507
22
-0.3249917343
32
0.0000000000
13
0.0000000000
23
-0.3333616249
33
0.0000000000
40
0.0000000000
40
0.0000000000
40
0.0000000000
40
0.0000000000
40
0.1924726875
40
1.0000000000
40
1.0000000000
40
1.0000000000
40
1.0000000000
10
-183.7914552977
20
178.6759993954
30
0.0000000000
10
-183.7964212246
20
178.6551487179
30
0.0000000000
10
-183.8193601301
20
178.5461241778
30
0.0000000000
10
-183.8282934812
20
178.4346570253
30
0.0000000000
10
-183.8282934812
20
178.3449241529
30
0.0000000000
11
-183.7914552977
21
178.6759993954
31
0.0000000000
11
-183.8047326041
21
178.6130897370
31
0.0000000000
11
-183.8282934812
21
178.3449241529
31
0.0000000000
0
SPLINE
5
238
100
AcDbEntity
8
0
100
AcDbSpline
62
0
6
CONTINUOUS
70
0
71
3
72
19
73
15
74
13
42
0.0000001000
43
0.0000001000
44
0.0000000001
12
-5.2785226904
22
0.0042757060
32
0.0000000000
13
0.0000000000
23
5.2690198186
33
0.0000000000
40
0.0000000000
40
0.0000000000
40
0.0000000000
40
0.0000000000
40
0.0484936189
40
0.1196410455
40
0.1962786098
40
0.2782894980
40
0.3650477060
40
0.4555468566
40
0.5485159720
40
0.6425232068
40
0.7360719825
40
0.8276941092
40
0.9160442233
40
1.0000000000
40
1.0000000000
40
1.0000000000
40
1.0000000000
10
-182.7031827161
20
174.5060536847
30
0.0000000000
10
-182.7885076053
20
174.5061227995
30
0.0000000000
10
-182.9990009219
20
174.5236632338
30
0.0000000000
10
-183.3342688613
20
174.6119360654
30
0.0000000000
10
-183.7028681038
20
174.7804577878
30
0.0000000000
10
-184.0652652874
20
175.0163321815
30
0.0000000000
10
-184.4121540831
20
175.3131285719
30
0.0000000000
10
-184.7344758978
20
175.6629022871
30
0.0000000000
10
-185.0237123603
20
176.0563125030
30
0.0000000000
10
-185.2721643952
20
176.4828473817
30
0.0000000000
10
-185.4731932298
20
176.9310926013
30
0.0000000000
10
-185.6214146108
20
177.3891175333
30
0.0000000000
10
-185.7128372085
20
177.8446070025
30
0.0000000000
10
-185.7348653142
20
178.1475096713
30
0.0000000000
10
-185.7348653142
20
178.2949645550
30
0.0000000000
11
-182.7031827161
21
174.5060536847
31
0.0000000000
11
-182.9581370293
21
174.5263000960
31
0.0000000000
11
-183.3213255979
21
174.6191816303
31
0.0000000000
11
-183.6895360776
21
174.7849507329
31
0.0000000000
11
-184.0527246463
21
175.0190856546
31
0.0000000000
11
-184.4009844665
21
175.3151998051
31
0.0000000000
11
-184.7248159183
21
175.6652159624
31
0.0000000000
11
-185.0153857238
21
176.0595865981
31
0.0000000000
11
-185.2647678962
21
176.4875543093
31
0.0000000000
11
-185.4661599398
21
176.9374452524
31
0.0000000000
11
-185.6140684048
21
177.3969875754
31
0.0000000000
11
-185.7044587338
21
177.8536461615
31
0.0000000000
11
-185.7348653142
21
178.2949645550
31
0.0000000000
0
SPLINE
5
239
100
AcDbEntity
8
0
100
AcDbSpline
62
0
6
CONTINUOUS
70
0
71
3
72
22
73
18
74
16
42
0.0000001000
43
0.0000001000
44
0.0000000001
12
-5.2146538962
22
-2.8954029982
32
0.0000000000
13
0.0000000000
23
5.9493454944
33
0.0000000000
40
0.0000000000
40
0.0000000000
40
0.0000000000
40
0.0000000000
40
0.0271049669
40
0.0789595243
40
0.1333150175
40
0.1913176227
40
0.2535922603
40
0.3202683981
40
0.3910601662
40
0.4653572087
40
0.5423094836
40
0.6209031801
40
0.7000297111
40
0.7785506805
40
0.8553616049
40
0.9294570538
40
1.0000000000
40
1.0000000000
40
1.0000000000
40
1.0000000000
10
-183.1865252789
20
174.0368901114
30
0.0000000000
10
-183.2336396193
20
174.0107301773
30
0.0000000000
10
-183.3758112699
20
173.9433811914
30
0.0000000000
10
-183.6341375011
20
173.8763583928
30
0.0000000000
10
-183.9621897413
20
173.8678017396
30
0.0000000000
10
-184.3051871934
20
173.9286158800
30
0.0000000000
10
-184.6549792725
20
174.0563150656
30
0.0000000000
10
-185.0035208140
20
174.2472822284
30
0.0000000000
10
-185.3427496369
20
174.4967011470
30
0.0000000000
10
-185.6647006492
20
174.7984954714
30
0.0000000000
10
-185.9617163594
20
175.1453712189
30
0.0000000000
10
-186.2266707015
20
175.5289473931
30
0.0000000000
10
-186.4531741697
20
175.9399516128
30
0.0000000000
10
-186.6357494235
20
176.3684371078
30
0.0000000000
10
-186.7699723653
20
176.8040910089
30
0.0000000000
10
-186.8525721942
20
177.2363205678
30
0.0000000000
10
-186.8723873450
20
177.5233966669
30
0.0000000000
10
-186.8723873450
20
177.6632914534
30
0.0000000000
11
-183.1865252789
21
174.0368901114
31
0.0000000000
11
-183.3325241624
21
173.9677500828
31
0.0000000000
11
-183.6308107965
21
173.8890242816
31
0.0000000000
11
-183.9540197275
21
173.8785191400
31
0.0000000000
11
-184.2941924789
21
173.9364933292
31
0.0000000000
11
-184.6429528686
21
174.0615193325
31
0.0000000000
11
-184.9917132582
21
174.2505185946
31
0.0000000000
11
-185.3318860096
21
174.4988373264
31
0.0000000000
11
-185.6550949407
21
174.8003610967
31
0.0000000000
11
-185.9533815748
21
175.1476653896
31
0.0000000000
11
-186.2194011051
21
175.5321984206
31
0.0000000000
11
-186.4466032479
21
175.9444917105
31
0.0000000000
11
-186.6293935323
21
176.3743932300
31
0.0000000000
11
-186.7632710550
21
176.8113173770
31
0.0000000000
11
-186.8449393071
21
177.2445056289
31
0.0000000000
11
-186.8723873450
21
177.6632914534
31
0.0000000000
0
SPLINE
5
23A
100
AcDbEntity
8
0
100
AcDbSpline
62
9
6
CONTINUOUS
70
0
71
3
72
15
73
11
74
9
42
0.0000001000
43
0.0000001000
44
0.0000000001
12
2.5781536299
22
-1.1606899524
32
0.0000000000
13
2.5288855046
23
1.2644427268
33
0.0000000000
40
0.0000000000
40
0.0000000000
40
0.0000000000
40
0.0000000000
40
0.1148432605
40
0.2390992961
40
0.3698324687
40
0.5036555505
40
0.6369804750
40
0.7662509827
40
0.8881779764
40
1.0000000000
40
1.0000000000
40
1.0000000000
40
1.0000000000
10
200.1404514311
20
20.5663316367
30
0.0000000000
10
200.2391459541
20
20.5218991639
30
0.0000000000
10
200.4515965403
20
20.4445413866
30
0.0000000000
10
200.7913769247
20
20.3640959925
30
0.0000000000
10
201.1553487398
20
20.3166398776
30
0.0000000000
10
201.5306718065
20
20.3038979141
30
0.0000000000
10
201.9041656827
20
20.3263121903
30
0.0000000000
10
202.2627284287
20
20.3830972239
30
0.0000000000
10
202.5937295381
20
20.4721955303
30
0.0000000000
10
202.7986645080
20
20.5552388328
30
0.0000000000
10
202.8929262062
20
20.6023696809
30
0.0000000000
11
200.1404514311
21
20.5663316367
31
0.0000000000
11
200.4448985020
21
20.4534349469
31
0.0000000000
11
200.7864778957
21
20.3712852474
31
0.0000000000
11
201.1529208963
21
20.3228332015
31
0.0000000000
11
201.5310657160
21
20.3098191321
31
0.0000000000
11
201.9073302368
21
20.3327105079
31
0.0000000000
11
202.2681998548
21
20.3906851484
31
0.0000000000
11
202.6007129012
21
20.4816607510
31
0.0000000000
11
202.8929262062
21
20.6023696809
31
0.0000000000
0
SPLINE
5
23B
100
AcDbEntity
8
0
100
AcDbSpline
62
0
6
CONTINUOUS
70
0
71
3
72
16
73
12
74
10
42
0.0000001000
43
0.0000001000
44
0.0000000001
12
-2.4425504459
22
0.8176987409
32
0.0000000000
13
0.0000000000
23
2.5713173625
33
0.0000000000
40
0.0000000000
40
0.0000000000
40
0.0000000000
40
0.0000000000
40
0.0504479860
40
0.1573025339
40
0.2720720128
40
0.3930030299
40
0.5177172275
40
0.6434888988
40
0.7674995099
40
0.8870861066
40
1.0000000000
40
1.0000000000
40
1.0000000000
40
1.0000000000
10
-182.4811940892
20
176.3164656083
30
0.0000000000
10
-182.5222680061
20
176.3302160265
30
0.0000000000
10
-182.6480681879
20
176.3799668001
30
0.0000000000
10
-182.8513019331
20
176.4966664124
30
0.0000000000
10
-183.0801404855
20
176.6823688944
30
0.0000000000
10
-183.2907425227
20
176.9096535046
30
0.0000000000
10
-183.4753741468
20
177.1700466200
30
0.0000000000
10
-183.6271746812
20
177.4538147443
30
0.0000000000
10
-183.7404718620
20
177.7503966630
30
0.0000000000
10
-183.8110099338
20
178.0486370178
30
0.0000000000
10
-183.8282934812
20
178.2481450015
30
0.0000000000
10
-183.8282934812
20
178.3449241529
30
0.0000000000
11
-182.4811940892
21
176.3164656083
31
0.0000000000
11
-182.6021045192
21
176.3639494864
31
0.0000000000
11
-182.8413221186
21
176.4991024517
31
0.0000000000
11
-183.0713467199
21
176.6839750008
31
0.0000000000
11
-183.2833386066
21
176.9114625853
31
0.0000000000
11
-183.4691510493
21
177.1728229849
31
0.0000000000
11
-183.6216433801
21
177.4580122661
31
0.0000000000
11
-183.7349554042
21
177.7560707648
31
0.0000000000
11
-183.8047326041
21
178.0555442598
31
0.0000000000
11
-183.8282934812
21
178.3449241529
31
0.0000000000
0
SPLINE
5
23C
100
AcDbEntity
8
0
100
AcDbSpline
62
9
6
CONTINUOUS
70
0
71
3
72
15
73
11
74
9
42
0.0000001000
43
0.0000001000
44
0.0000000001
12
0.0000000000
22
2.8449511097
32
0.0000000000
13
2.4145351195
23
1.5045819929
33
0.0000000000
40
0.0000000000
40
0.0000000000
40
0.0000000000
40
0.0000000000
40
0.1198526305
40
0.2469856339
40
0.3786963615
40
0.5119280752
40
0.6435120635
40
0.7704010392
40
0.8899120096
40
1.0000000000
40
1.0000000000
40
1.0000000000
40
1.0000000000
10
194.2034404605
20
30.1578943497
30
0.0000000000
10
194.2034404605
20
30.2715526411
30
0.0000000000
10
194.2211155906
20
30.5059710413
30
0.0000000000
10
194.2930111364
20
30.8586269762
30
0.0000000000
10
194.4086986196
20
31.2128130201
30
0.0000000000
10
194.5641254776
20
31.5560359777
30
0.0000000000
10
194.7538345034
20
31.8762912096
30
0.0000000000
10
194.9712393941
20
32.1623957630
30
0.0000000000
10
195.2087004500
20
32.4043197042
30
0.0000000000
10
195.3830587200
20
32.5366109363
30
0.0000000000
10
195.4716624930
20
32.5918230723
30
0.0000000000
11
194.2034404605
21
30.1578943497
31
0.0000000000
11
194.2274741228
21
30.4980211613
31
0.0000000000
11
194.2987118746
21
30.8526234710
31
0.0000000000
11
194.4145950167
21
31.2089647636
31
0.0000000000
11
194.5709612878
21
31.5542460636
31
0.0000000000
11
194.7621943642
21
31.8760656453
31
0.0000000000
11
194.9814255852
21
32.1628644752
31
0.0000000000
11
195.2207806595
21
32.4043413862
31
0.0000000000
11
195.4716624930
21
32.5918230723
31
0.0000000000
0
SPLINE
5
23D
100
AcDbEntity
8
0
100
AcDbSpline
62
9
6
CONTINUOUS
70
0
71
3
72
15
73
11
74
9
42
0.0000001000
43
0.0000001000
44
0.0000000001
12
-0.0000000205
22
2.8449511128
32
0.0000000000
13
2.4145351326
23
1.5045819777
33
0.0000000000
40
0.0000000000
40
0.0000000000
40
0.0000000000
40
0.0000000000
40
0.1198524980
40
0.2469854030
40
0.3786960776
40
0.5119277866
40
0.6435118141
40
0.7704008613
40
0.8899119202
40
1.0000000000
40
1.0000000000
40
1.0000000000
40
1.0000000000
10
-199.3483817138
20
207.3357205130
30
0.0000000000
10
-199.3483817146
20
207.4493786788
30
0.0000000000
10
-199.3307066218
20
207.6837968600
30
0.0000000000
10
-199.2588111929
20
208.0364525430
30
0.0000000000
10
-199.1431238341
20
208.3906384716
30
0.0000000000
10
-198.9876970639
20
208.7338614500
30
0.0000000000
10
-198.7979880594
20
209.0541168124
30
0.0000000000
10
-198.5805831109
20
209.3402215609
30
0.0000000000
10
-198.3431219245
20
209.5821457080
30
0.0000000000
10
-198.1687635267
20
209.7144370552
30
0.0000000000
10
-198.0801596812
20
209.7696492355
30
0.0000000000
11
-199.3483817138
21
207.3357205130
31
0.0000000000
11
-199.3243481050
21
207.6758469508
31
0.0000000000
11
-199.2531104708
21
208.0304489993
31
0.0000000000
11
-199.1372274550
21
208.3867901744
31
0.0000000000
11
-198.9808612712
21
208.7320715000
31
0.0000000000
11
-198.7896282117
21
209.0538912218
31
0.0000000000
11
-198.5703969246
21
209.3406902578
31
0.0000000000
11
-198.3310417082
21
209.5821673829
31
0.0000000000
11
-198.0801596812
21
209.7696492355
31
0.0000000000
0
SPLINE
5
23E
100
AcDbEntity
8
0
100
AcDbSpline
62
9
6
CONTINUOUS
70
0
71
3
72
12
73
8
74
6
42
0.0000001000
43
0.0000001000
44
0.0000000001
12
-0.9545216602
22
0.4297275816
32
0.0000000000
13
0.0009843537
23
1.0534437228
33
0.0000000000
40
0.0000000000
40
0.0000000000
40
0.0000000000
40
0.0000000000
40
0.2788681518
40
0.5236362825
40
0.7362220358
40
0.9251847491
40
1.0000000000
40
1.0000000000
40
1.0000000000
40
1.0000000000
10
-205.2853926843
20
203.0898664889
30
0.0000000000
10
-205.3741212481
20
203.1298122677
30
0.0000000000
10
-205.5361826334
20
203.2160531753
30
0.0000000000
10
-205.7394321287
20
203.3759035510
30
0.0000000000
10
-205.8811543578
20
203.5548733260
30
0.0000000000
10
-205.9399801864
20
203.7141295291
30
0.0000000000
10
-205.9470076008
20
203.8067212596
30
0.0000000000
10
-205.9469830526
20
203.8329924784
30
0.0000000000
11
-205.2853926843
21
203.0898664889
31
0.0000000000
11
-205.5417727792
21
203.2294553724
31
0.0000000000
11
-205.7408769547
21
203.3907226242
31
0.0000000000
11
-205.8755538380
21
203.5678758881
31
0.0000000000
11
-205.9409661391
21
203.7545522186
31
0.0000000000
11
-205.9469830526
21
203.8329924784
31
0.0000000000
0
SPLINE
5
23F
100
AcDbEntity
8
0
100
AcDbSpline
62
9
6
CONTINUOUS
70
0
71
3
72
12
73
8
74
6
42
0.0000001000
43
0.0000001000
44
0.0000000001
12
-0.9545385928
22
0.4297351954
32
0.0000000000
13
0.0010227146
23
1.0534625952
33
0.0000000000
40
0.0000000000
40
0.0000000000
40
0.0000000000
40
0.0000000000
40
0.2788629246
40
0.5236265890
40
0.7362085526
40
0.9251679439
40
1.0000000000
40
1.0000000000
40
1.0000000000
40
1.0000000000
10
-205.2853926843
20
-25.1738295547
30
0.0000000000
10
-205.3741211589
20
-25.1338838169
30
0.0000000000
10
-205.5361824226
20
-25.0476429887
30
0.0000000000
10
-205.7394318410
20
-24.8877927633
30
0.0000000000
10
-205.8811541345
20
-24.7088230985
30
0.0000000000
10
-205.9399823259
20
-24.5495608791
30
0.0000000000
10
-205.9470085448
20
-24.4569624757
30
0.0000000000
10
-205.9469830342
20
-24.4306848850
30
0.0000000000
11
-205.2853926843
21
-25.1738295547
31
0.0000000000
11
-205.5417725335
21
-25.0342408359
31
0.0000000000
11
-205.7408766558
21
-24.8729737267
31
0.0000000000
11
-205.8755536228
21
-24.6958205520
31
0.0000000000
11
-205.9409660744
21
-24.5091442417
31
0.0000000000
11
-205.9469830342
21
-24.4306848850
31
0.0000000000
0
SPLINE
5
240
100
AcDbEntity
8
0
100
AcDbSpline
62
0
6
CONTINUOUS
70
0
71
3
72
11
73
7
74
5
42
0.0000001000
43
0.0000001000
44
0.0000000001
12
-0.6355608443
22
-1.0208267022
32
0.0000000000
13
0.0000000000
23
-1.1997868154
33
0.0000000000
40
0.0000000000
40
0.0000000000
40
0.0000000000
40
0.0000000000
40
0.0336819421
40
0.3323324025
40
0.6540589898
40
1.0000000000
40
1.0000000000
40
1.0000000000
40
1.0000000000
10
178.6957615522
20
15.5081947324
30
0.0000000000
10
178.6886259110
20
15.4967335904
30
0.0000000000
10
178.6196998511
20
15.3827411100
30
0.0000000000
10
178.5127811410
20
15.1420343909
30
0.0000000000
10
178.4243333297
20
14.7638945478
30
0.0000000000
10
178.4060991697
20
14.4963178181
30
0.0000000000
10
178.4060991697
20
14.3579659971
30
0.0000000000
11
178.6957615522
21
15.5081947324
31
0.0000000000
11
178.6748045441
21
15.4735418939
31
0.0000000000
11
178.5268960791
21
15.1471769510
31
0.0000000000
11
178.4365057501
21
14.7719061827
31
0.0000000000
11
178.4060991697
21
14.3579659971
31
0.0000000000
0
SPLINE
5
241
100
AcDbEntity
8
0
100
AcDbSpline
62
9
6
CONTINUOUS
70
0
71
3
72
12
73
8
74
6
42
0.0000001000
43
0.0000001000
44
0.0000000001
12
0.0000000000
22
-1.2621179959
32
0.0000000000
13
1.1550570162
23
-0.5215635864
33
0.0000000000
40
0.0000000000
40
0.0000000000
40
0.0000000000
40
0.0000000000
40
0.2490692685
40
0.4745208036
40
0.6769096539
40
0.8608633163
40
1.0000000000
40
1.0000000000
40
1.0000000000
40
1.0000000000
10
-199.3483817138
20
-34.7653922677
30
0.0000000000
10
-199.3483817138
20
-34.8701772030
30
0.0000000000
10
-199.3345141968
20
-35.0702944020
30
0.0000000000
10
-199.2656674767
20
-35.3483722034
30
0.0000000000
10
-199.1508573299
20
-35.5814975885
30
0.0000000000
10
-199.0018369303
20
-35.7491670297
30
0.0000000000
10
-198.8847114052
20
-35.8217295875
30
0.0000000000
10
-198.8311411377
20
-35.8459191301
30
0.0000000000
11
-199.3483817138
21
-34.7653922677
31
0.0000000000
11
-199.3243480515
21
-35.0788269932
31
0.0000000000
11
-199.2531102997
21
-35.3543117642
31
0.0000000000
11
-199.1372271576
21
-35.5819517890
31
0.0000000000
11
-198.9808608865
21
-35.7535707513
31
0.0000000000
11
-198.8311411377
21
-35.8459191301
31
0.0000000000
0
SPLINE
5
242
100
AcDbEntity
8
0
100
AcDbSpline
62
9
6
CONTINUOUS
70
0
71
3
72
21
73
17
74
15
42
0.0000001000
43
0.0000001000
44
0.0000000001
12
8.2352599785
22
-3.7072818924
32
0.0000000000
13
0.0001913933
23
9.0312483028
33
0.0000000000
40
0.0000000000
40
0.0000000000
40
0.0000000000
40
0.0000000000
40
0.0789470342
40
0.1539719600
40
0.2253116043
40
0.2934612413
40
0.3591652824
40
0.4233777758
40
0.4871921529
40
0.5517428923
40
0.6180912069
40
0.6871295282
40
0.7595296513
40
0.8357215995
40
0.9158919537
40
1.0000000000
40
1.0000000000
40
1.0000000000
40
1.0000000000
10
194.2034404605
20
-211.9432184309
30
0.0000000000
10
194.4201569110
20
-212.0407780678
30
0.0000000000
10
194.8533474404
20
-212.2089496889
30
0.0000000000
10
195.5121406459
20
-212.3775039474
30
0.0000000000
10
196.1555501590
20
-212.4535731514
30
0.0000000000
10
196.7754242874
20
-212.4356115982
30
0.0000000000
10
197.3637738269
20
-212.3232624933
30
0.0000000000
10
197.9125992532
20
-212.1174786647
30
0.0000000000
10
198.4141625687
20
-211.8208282611
30
0.0000000000
10
198.8614479906
20
-211.4375410955
30
0.0000000000
10
199.2485678342
20
-210.9732224725
30
0.0000000000
10
199.5708625918
20
-210.4344112878
30
0.0000000000
10
199.8247504111
20
-209.8282791262
30
0.0000000000
10
200.0075206428
20
-209.1625162376
30
0.0000000000
10
200.1172624238
20
-208.4455374694
30
0.0000000000
10
200.1404460652
20
-207.9505646236
30
0.0000000000
10
200.1404514311
20
-207.6973644069
30
0.0000000000
11
194.2034404605
21
-211.9432184309
31
0.0000000000
11
194.8688542787
21
-212.1993035234
31
0.0000000000
11
195.5258180428
21
-212.3651287353
31
0.0000000000
11
196.1659043889
21
-212.4385724090
31
0.0000000000
11
196.7810615011
21
-212.4187533471
31
0.0000000000
11
197.3636339775
21
-212.3059685066
31
0.0000000000
11
197.9063695176
21
-212.1016546597
31
0.0000000000
11
198.4024950614
21
-211.8083831068
31
0.0000000000
11
198.8458291445
21
-211.4298156880
31
0.0000000000
11
199.2308372028
21
-210.9706652258
31
0.0000000000
11
199.5526915734
21
-210.4366569998
31
0.0000000000
11
199.8073575772
21
-209.8344255757
31
0.0000000000
11
199.9916228911
21
-209.1714478473
31
0.0000000000
11
200.1031318876
21
-208.4560477399
31
0.0000000000
11
200.1404514311
21
-207.6973644069
31
0.0000000000
0
SPLINE
5
243
100
AcDbEntity
8
0
100
AcDbSpline
62
0
6
CONTINUOUS
70
0
71
3
72
9
73
5
74
3
42
0.0000001000
43
0.0000001000
44
0.0000000001
12
-0.0774020507
22
-0.3249917343
32
0.0000000000
13
0.0000000000
23
-0.3333616249
33
0.0000000000
40
0.0000000000
40
0.0000000000
40
0.0000000000
40
0.0000000000
40
0.1924726875
40
1.0000000000
40
1.0000000000
40
1.0000000000
40
1.0000000000
10
180.3495091862
20
14.7390008375
30
0.0000000000
10
180.3445432593
20
14.7181501599
30
0.0000000000
10
180.3216043538
20
14.6091256199
30
0.0000000000
10
180.3126710027
20
14.4976584674
30
0.0000000000
10
180.3126710027
20
14.4079255950
30
0.0000000000
11
180.3495091862
21
14.7390008375
31
0.0000000000
11
180.3362318798
21
14.6760911791
31
0.0000000000
11
180.3126710027
21
14.4079255950
31
0.0000000000
0
SPLINE
5
244
100
AcDbEntity
8
0
100
AcDbSpline
62
0
6
CONTINUOUS
70
0
71
3
72
19
73
15
74
13
42
0.0000001000
43
0.0000001000
44
0.0000000001
12
-5.2785226904
22
0.0042757060
32
0.0000000000
13
0.0000000000
23
5.2690198186
33
0.0000000000
40
0.0000000000
40
0.0000000000
40
0.0000000000
40
0.0000000000
40
0.0484936189
40
0.1196410455
40
0.1962786098
40
0.2782894980
40
0.3650477060
40
0.4555468566
40
0.5485159720
40
0.6425232068
40
0.7360719825
40
0.8276941092
40
0.9160442233
40
1.0000000000
40
1.0000000000
40
1.0000000000
40
1.0000000000
10
181.4377817679
20
10.5690551268
30
0.0000000000
10
181.3524568787
20
10.5691242416
30
0.0000000000
10
181.1419635620
20
10.5866646759
30
0.0000000000
10
180.8066956226
20
10.6749375075
30
0.0000000000
10
180.4380963801
20
10.8434592298
30
0.0000000000
10
180.0756991965
20
11.0793336236
30
0.0000000000
10
179.7288104008
20
11.3761300140
30
0.0000000000
10
179.4064885862
20
11.7259037292
30
0.0000000000
10
179.1172521236
20
12.1193139451
30
0.0000000000
10
178.8688000887
20
12.5458488238
30
0.0000000000
10
178.6677712541
20
12.9940940434
30
0.0000000000
10
178.5195498732
20
13.4521189754
30
0.0000000000
10
178.4281272754
20
13.9076084446
30
0.0000000000
10
178.4060991697
20
14.2105111134
30
0.0000000000
10
178.4060991697
20
14.3579659971
30
0.0000000000
11
181.4377817679
21
10.5690551268
31
0.0000000000
11
181.1828274546
21
10.5893015381
31
0.0000000000
11
180.8196388860
21
10.6821830724
31
0.0000000000
11
180.4514284063
21
10.8479521750
31
0.0000000000
11
180.0882398377
21
11.0820870967
31
0.0000000000
11
179.7399800174
21
11.3782012472
31
0.0000000000
11
179.4161485656
21
11.7282174045
31
0.0000000000
11
179.1255787601
21
12.1225880402
31
0.0000000000
11
178.8761965878
21
12.5505557514
31
0.0000000000
11
178.6748045441
21
13.0004466945
31
0.0000000000
11
178.5268960791
21
13.4599890175
31
0.0000000000
11
178.4365057501
21
13.9166476036
31
0.0000000000
11
178.4060991697
21
14.3579659971
31
0.0000000000
0
SPLINE
5
245
100
AcDbEntity
8
0
100
AcDbSpline
62
0
6
CONTINUOUS
70
0
71
3
72
22
73
18
74
16
42
0.0000001000
43
0.0000001000
44
0.0000000001
12
-5.2146538962
22
-2.8954029982
32
0.0000000000
13
0.0000000000
23
5.9493454944
33
0.0000000000
40
0.0000000000
40
0.0000000000
40
0.0000000000
40
0.0000000000
40
0.0271049669
40
0.0789595243
40
0.1333150175
40
0.1913176227
40
0.2535922603
40
0.3202683981
40
0.3910601662
40
0.4653572087
40
0.5423094836
40
0.6209031801
40
0.7000297111
40
0.7785506805
40
0.8553616049
40
0.9294570538
40
1.0000000000
40
1.0000000000
40
1.0000000000
40
1.0000000000
10
180.9544392051
20
10.0998915535
30
0.0000000000
10
180.9073248646
20
10.0737316193
30
0.0000000000
10
180.7651532140
20
10.0063826335
30
0.0000000000
10
180.5068269828
20
9.9393598349
30
0.0000000000
10
180.1787747427
20
9.9308031817
30
0.0000000000
10
179.8357772905
20
9.9916173220
30
0.0000000000
10
179.4859852114
20
10.1193165077
30
0.0000000000
10
179.1374436700
20
10.3102836705
30
0.0000000000
10
178.7982148471
20
10.5597025891
30
0.0000000000
10
178.4762638347
20
10.8614969135
30
0.0000000000
10
178.1792481246
20
11.2083726610
30
0.0000000000
10
177.9142937824
20
11.5919488352
30
0.0000000000
10
177.6877903142
20
12.0029530549
30
0.0000000000
10
177.5052150604
20
12.4314385499
30
0.0000000000
10
177.3709921186
20
12.8670924510
30
0.0000000000
10
177.2883922898
20
13.2993220098
30
0.0000000000
10
177.2685771389
20
13.5863981090
30
0.0000000000
10
177.2685771389
20
13.7262928955
30
0.0000000000
11
180.9544392051
21
10.0998915535
31
0.0000000000
11
180.8084403215
21
10.0307515248
31
0.0000000000
11
180.5101536874
21
9.9520257237
31
0.0000000000
11
180.1869447564
21
9.9415205820
31
0.0000000000
11
179.8467720050
21
9.9994947713
31
0.0000000000
11
179.4980116153
21
10.1245207746
31
0.0000000000
11
179.1492512257
21
10.3135200367
31
0.0000000000
11
178.8090784743
21
10.5618387685
31
0.0000000000
11
178.4858695432
21
10.8633625388
31
0.0000000000
11
178.1875829091
21
11.2106668317
31
0.0000000000
11
177.9215633788
21
11.5951998627
31
0.0000000000
11
177.6943612361
21
12.0074931526
31
0.0000000000
11
177.5115709516
21
12.4373946721
31
0.0000000000
11
177.3776934289
21
12.8743188191
31
0.0000000000
11
177.2960251768
21
13.3075070710
31
0.0000000000
11
177.2685771389
21
13.7262928955
31
0.0000000000
0
SPLINE
5
246
100
AcDbEntity
8
0
100
AcDbSpline
62
0
6
CONTINUOUS
70
0
71
3
72
16
73
12
74
10
42
0.0000001000
43
0.0000001000
44
0.0000000001
12
-2.4425504459
22
0.8176987409
32
0.0000000000
13
0.0000000000
23
2.5713173625
33
0.0000000000
40
0.0000000000
40
0.0000000000
40
0.0000000000
40
0.0000000000
40
0.0504479860
40
0.1573025339
40
0.2720720128
40
0.3930030299
40
0.5177172275
40
0.6434888988
40
0.7674995099
40
0.8870861066
40
1.0000000000
40
1.0000000000
40
1.0000000000
40
1.0000000000
10
181.6597703947
20
12.3794670503
30
0.0000000000
10
181.6186964778
20
12.3932174685
30
0.0000000000
10
181.4928962960
20
12.4429682422
30
0.0000000000
10
181.2896625509
20
12.5596678545
30
0.0000000000
10
181.0608239985
20
12.7453703365
30
0.0000000000
10
180.8502219613
20
12.9726549467
30
0.0000000000
10
180.6655903372
20
13.2330480621
30
0.0000000000
10
180.5137898027
20
13.5168161864
30
0.0000000000
10
180.4004926219
20
13.8133981051
30
0.0000000000
10
180.3299545502
20
14.1116384599
30
0.0000000000
10
180.3126710027
20
14.3111464435
30
0.0000000000
10
180.3126710027
20
14.4079255950
30
0.0000000000
11
181.6597703947
21
12.3794670503
31
0.0000000000
11
181.5388599647
21
12.4269509285
31
0.0000000000
11
181.2996423653
21
12.5621038938
31
0.0000000000
11
181.0696177640
21
12.7469764428
31
0.0000000000
11
180.8576258774
21
12.9744640274
31
0.0000000000
11
180.6718134347
21
13.2358244270
31
0.0000000000
11
180.5193211039
21
13.5210137082
31
0.0000000000
11
180.4060090797
21
13.8190722068
31
0.0000000000
11
180.3362318798
21
14.1185457019
31
0.0000000000
11
180.3126710027
21
14.4079255950
31
0.0000000000
0
SPLINE
5
247
100
AcDbEntity
8
0
100
AcDbSpline
62
9
6
CONTINUOUS
70
0
71
3
72
21
73
17
74
15
42
0.0000001000
43
0.0000001000
44
0.0000000001
12
0.0002631600
22
-11.8293410723
32
0.0000000000
13
10.7864986811
23
-4.8564139523
33
0.0000000000
40
0.0000000000
40
0.0000000000
40
0.0000000000
40
0.0000000000
40
0.0670467756
40
0.1366515276
40
0.2084316788
40
0.2819473675
40
0.3567134772
40
0.4322080496
40
0.5078862714
40
0.5832003411
40
0.6576123446
40
0.7306078521
40
0.8017175580
40
0.8705314544
40
0.9367096011
40
1.0000000000
40
1.0000000000
40
1.0000000000
40
1.0000000000
10
-205.2853926843
20
-25.1738295547
30
0.0000000000
10
-205.2853868030
20
-25.4382026136
30
0.0000000000
10
-205.2590100544
20
-25.9773009008
30
0.0000000000
10
-205.1463786912
20
-26.7923585547
30
0.0000000000
10
-204.9613874132
20
-27.6202448059
30
0.0000000000
10
-204.7063895895
20
-28.4505391041
30
0.0000000000
10
-204.3845966337
20
-29.2730080705
30
0.0000000000
10
-204.0000130138
20
-30.0774904700
30
0.0000000000
10
-203.5574088737
20
-30.8540509505
30
0.0000000000
10
-203.0622585303
20
-31.5930894644
30
0.0000000000
10
-202.5206751652
20
-32.2854627548
30
0.0000000000
10
-201.9393271468
20
-32.9225998792
30
0.0000000000
10
-201.3253668902
20
-33.4966019068
30
0.0000000000
10
-200.6862926637
20
-34.0003347364
30
0.0000000000
10
-200.0301055610
20
-34.4274205282
30
0.0000000000
10
-199.5759423152
20
-34.6629374756
30
0.0000000000
10
-199.3483817138
20
-34.7653922677
30
0.0000000000
11
-205.2853926843
21
-25.1738295547
31
0.0000000000
11
-205.2480773073
21
-25.9660704219
31
0.0000000000
11
-205.1365734965
21
-26.7818637835
31
0.0000000000
11
-204.9523163192
21
-27.6107427228
31
0.0000000000
11
-204.6976602109
21
-28.4422640675
31
0.0000000000
11
-204.3758174490
21
-29.2660604048
31
0.0000000000
11
-203.9908226704
21
-30.0718638492
31
0.0000000000
11
-203.5474989200
21
-30.8496100564
31
0.0000000000
11
-203.0513764986
21
-31.5896056909
31
0.0000000000
11
-202.5086376530
21
-32.2826177767
31
0.0000000000
11
-201.9260603374
21
-32.9199689379
31
0.0000000000
11
-201.3108964254
21
-33.4936925445
31
0.0000000000
11
-200.6708029056
21
-33.9965979172
31
0.0000000000
11
-200.0138326520
21
-34.4223145002
31
0.0000000000
11
-199.3483817138
21
-34.7653922677
31
0.0000000000
0
SPLINE
5
248
100
AcDbEntity
8
0
100
AcDbSpline
62
9
6
CONTINUOUS
70
0
71
3
72
21
73
17
74
15
42
0.0000001000
43
0.0000001000
44
0.0000000001
12
-8.2352599785
22
3.7072818924
32
0.0000000000
13
-0.0001913933
23
-9.0312483028
33
0.0000000000
40
0.0000000000
40
0.0000000000
40
0.0000000000
40
0.0000000000
40
0.0789470342
40
0.1539719600
40
0.2253116043
40
0.2934612413
40
0.3591652824
40
0.4233777758
40
0.4871921529
40
0.5517428923
40
0.6180912069
40
0.6871295282
40
0.7595296513
40
0.8357215995
40
0.9158919537
40
1.0000000000
40
1.0000000000
40
1.0000000000
40
1.0000000000
10
-199.3483817138
20
207.3357205130
30
0.0000000000
10
-199.5650981643
20
207.4332801498
30
0.0000000000
10
-199.9982886937
20
207.6014517710
30
0.0000000000
10
-200.6570818992
20
207.7700060295
30
0.0000000000
10
-201.3004914123
20
207.8460752334
30
0.0000000000
10
-201.9203655407
20
207.8281136802
30
0.0000000000
10
-202.5087150802
20
207.7157645754
30
0.0000000000
10
-203.0575405064
20
207.5099807467
30
0.0000000000
10
-203.5591038219
20
207.2133303432
30
0.0000000000
10
-204.0063892438
20
206.8300431775
30
0.0000000000
10
-204.3935090875
20
206.3657245546
30
0.0000000000
10
-204.7158038450
20
205.8269133699
30
0.0000000000
10
-204.9696916643
20
205.2207812082
30
0.0000000000
10
-205.1524618960
20
204.5550183197
30
0.0000000000
10
-205.2622036770
20
203.8380395515
30
0.0000000000
10
-205.2853873184
20
203.3430667057
30
0.0000000000
10
-205.2853926843
20
203.0898664889
30
0.0000000000
11
-199.3483817138
21
207.3357205130
31
0.0000000000
11
-200.0137955319
21
207.5918056054
31
0.0000000000
11
-200.6707592961
21
207.7576308173
31
0.0000000000
11
-201.3108456421
21
207.8310744911
31
0.0000000000
11
-201.9260027543
21
207.8112554291
31
0.0000000000
11
-202.5085752307
21
207.6984705886
31
0.0000000000
11
-203.0513107708
21
207.4941567418
31
0.0000000000
11
-203.5474363146
21
207.2008851888
31
0.0000000000
11
-203.9907703977
21
206.8223177700
31
0.0000000000
11
-204.3757784560
21
206.3631673078
31
0.0000000000
11
-204.6976328266
21
205.8291590818
31
0.0000000000
11
-204.9522988304
21
205.2269276578
31
0.0000000000
11
-205.1365641444
21
204.5639499293
31
0.0000000000
11
-205.2480731409
21
203.8485498220
31
0.0000000000
11
-205.2853926843
21
203.0898664889
31
0.0000000000
0
SPLINE
5
249
100
AcDbEntity
8
0
100
AcDbSpline
62
0
6
CONTINUOUS
70
0
71
3
72
11
73
7
74
5
42
0.0000001000
43
0.0000001000
44
0.0000000001
12
-0.6355608443
22
-1.0208267022
32
0.0000000000
13
-0.0000000000
23
-1.1997868154
33
0.0000000000
40
0.0000000000
40
0.0000000000
40
0.0000000000
40
0.0000000000
40
0.0336819421
40
0.3323324025
40
0.6540589898
40
1.0000000000
40
1.0000000000
40
1.0000000000
40
1.0000000000
10
-185.4452029317
20
-14.5444971574
30
0.0000000000
10
-185.4523385729
20
-14.5559582994
30
0.0000000000
10
-185.5212646329
20
-14.6699507798
30
0.0000000000
10
-185.6281833430
20
-14.9106574989
30
0.0000000000
10
-185.7166311542
20
-15.2887973420
30
0.0000000000
10
-185.7348653142
20
-15.5563740717
30
0.0000000000
10
-185.7348653142
20
-15.6947258927
30
0.0000000000
11
-185.4452029317
21
-14.5444971574
31
0.0000000000
11
-185.4661599398
21
-14.5791499959
31
0.0000000000
11
-185.6140684048
21
-14.9055149388
31
0.0000000000
11
-185.7044587338
21
-15.2807857071
31
0.0000000000
11
-185.7348653142
21
-15.6947258927
31
0.0000000000
0
SPLINE
5
24A
100
AcDbEntity
8
0
100
AcDbSpline
62
9
6
CONTINUOUS
70
0
71
3
72
21
73
17
74
15
42
0.0000001000
43
0.0000001000
44
0.0000000001
12
-0.0002631600
22
11.8293410723
32
0.0000000000
13
-10.7864986811
23
4.8564139523
33
0.0000000000
40
0.0000000000
40
0.0000000000
40
0.0000000000
40
0.0000000000
40
0.0670467756
40
0.1366515276
40
0.2084316788
40
0.2819473675
40
0.3567134772
40
0.4322080496
40
0.5078862714
40
0.5832003411
40
0.6576123446
40
0.7306078521
40
0.8017175580
40
0.8705314544
40
0.9367096011
40
1.0000000000
40
1.0000000000
40
1.0000000000
40
1.0000000000
10
200.1404514311
20
20.5663316367
30
0.0000000000
10
200.1404455498
20
20.8307046957
30
0.0000000000
10
200.1140688012
20
21.3698029828
30
0.0000000000
10
200.0014374379
20
22.1848606367
30
0.0000000000
10
199.8164461599
20
23.0127468879
30
0.0000000000
10
199.5614483362
20
23.8430411862
30
0.0000000000
10
199.2396553805
20
24.6655101526
30
0.0000000000
10
198.8550717605
20
25.4699925520
30
0.0000000000
10
198.4124676204
20
26.2465530325
30
0.0000000000
10
197.9173172771
20
26.9855915465
30
0.0000000000
10
197.3757339120
20
27.6779648369
30
0.0000000000
10
196.7943858935
20
28.3151019612
30
0.0000000000
10
196.1804256370
20
28.8891039888
30
0.0000000000
10
195.5413514105
20
29.3928368184
30
0.0000000000
10
194.8851643077
20
29.8199226102
30
0.0000000000
10
194.4310010620
20
30.0554395576
30
0.0000000000
10
194.2034404605
20
30.1578943497
30
0.0000000000
11
200.1404514311
21
20.5663316367
31
0.0000000000
11
200.1031360541
21
21.3585725039
31
0.0000000000
11
199.9916322433
21
22.1743658655
31
0.0000000000
11
199.8073750660
21
23.0032448048
31
0.0000000000
11
199.5527189576
21
23.8347661495
31
0.0000000000
11
199.2308761958
21
24.6585624868
31
0.0000000000
11
198.8458814172
21
25.4643659312
31
0.0000000000
11
198.4025576667
21
26.2421121384
31
0.0000000000
11
197.9064352453
21
26.9821077729
31
0.0000000000
11
197.3636963998
21
27.6751198587
31
0.0000000000
11
196.7811190842
21
28.3124710199
31
0.0000000000
11
196.1659551722
21
28.8861946265
31
0.0000000000
11
195.5258616524
21
29.3890999992
31
0.0000000000
11
194.8688913988
21
29.8148165823
31
0.0000000000
11
194.2034404605
21
30.1578943497
31
0.0000000000
0
SPLINE
5
24B
100
AcDbEntity
8
0
100
AcDbSpline
62
0
6
CONTINUOUS
70
0
71
3
72
9
73
5
74
3
42
0.0000001000
43
0.0000001000
44
0.0000000001
12
-0.0774020507
22
-0.3249917343
32
0.0000000000
13
0.0000000000
23
-0.3333616249
33
0.0000000000
40
0.0000000000
40
0.0000000000
40
0.0000000000
40
0.0000000000
40
0.1924726875
40
1.0000000000
40
1.0000000000
40
1.0000000000
40
1.0000000000
10
-183.7914552977
20
-15.3136910523
30
0.0000000000
10
-183.7964212246
20
-15.3345417299
30
0.0000000000
10
-183.8193601301
20
-15.4435662699
30
0.0000000000
10
-183.8282934812
20
-15.5550334224
30
0.0000000000
10
-183.8282934812
20
-15.6447662948
30
0.0000000000
11
-183.7914552977
21
-15.3136910523
31
0.0000000000
11
-183.8047326041
21
-15.3766007107
31
0.0000000000
11
-183.8282934812
21
-15.6447662948
31
0.0000000000
0
SPLINE
5
24C
100
AcDbEntity
8
0
100
AcDbSpline
62
0
6
CONTINUOUS
70
0
71
3
72
19
73
15
74
13
42
0.0000001000
43
0.0000001000
44
0.0000000001
12
-5.2785226904
22
0.0042757060
32
0.0000000000
13
-0.0000000000
23
5.2690198186
33
0.0000000000
40
0.0000000000
40
0.0000000000
40
0.0000000000
40
0.0000000000
40
0.0484936189
40
0.1196410455
40
0.1962786098
40
0.2782894980
40
0.3650477060
40
0.4555468566
40
0.5485159720
40
0.6425232068
40
0.7360719825
40
0.8276941092
40
0.9160442233
40
1.0000000000
40
1.0000000000
40
1.0000000000
40
1.0000000000
10
-182.7031827161
20
-19.4836367630
30
0.0000000000
10
-182.7885076053
20
-19.4835676482
30
0.0000000000
10
-182.9990009219
20
-19.4660272139
30
0.0000000000
10
-183.3342688613
20
-19.3777543823
30
0.0000000000
10
-183.7028681038
20
-19.2092326600
30
0.0000000000
10
-184.0652652874
20
-18.9733582662
30
0.0000000000
10
-184.4121540831
20
-18.6765618758
30
0.0000000000
10
-184.7344758978
20
-18.3267881606
30
0.0000000000
10
-185.0237123603
20
-17.9333779447
30
0.0000000000
10
-185.2721643952
20
-17.5068430660
30
0.0000000000
10
-185.4731932298
20
-17.0585978464
30
0.0000000000
10
-185.6214146108
20
-16.6005729144
30
0.0000000000
10
-185.7128372085
20
-16.1450834452
30
0.0000000000
10
-185.7348653142
20
-15.8421807764
30
0.0000000000
10
-185.7348653142
20
-15.6947258927
30
0.0000000000
11
-182.7031827161
21
-19.4836367630
31
0.0000000000
11
-182.9581370293
21
-19.4633903517
31
0.0000000000
11
-183.3213255979
21
-19.3705088174
31
0.0000000000
11
-183.6895360776
21
-19.2047397148
31
0.0000000000
11
-184.0527246463
21
-18.9706047931
31
0.0000000000
11
-184.4009844665
21
-18.6744906426
31
0.0000000000
11
-184.7248159183
21
-18.3244744853
31
0.0000000000
11
-185.0153857238
21
-17.9301038496
31
0.0000000000
11
-185.2647678962
21
-17.5021361384
31
0.0000000000
11
-185.4661599398
21
-17.0522451953
31
0.0000000000
11
-185.6140684048
21
-16.5927028723
31
0.0000000000
11
-185.7044587338
21
-16.1360442862
31
0.0000000000
11
-185.7348653142
21
-15.6947258927
31
0.0000000000
0
SPLINE
5
24D
100
AcDbEntity
8
0
100
AcDbSpline
62
0
6
CONTINUOUS
70
0
71
3
72
22
73
18
74
16
42
0.0000001000
43
0.0000001000
44
0.0000000001
12
-5.2146538962
22
-2.8954029982
32
0.0000000000
13
0.0000000000
23
5.9493454944
33
0.0000000000
40
0.0000000000
40
0.0000000000
40
0.0000000000
40
0.0000000000
40
0.0271049669
40
0.0789595243
40
0.1333150175
40
0.1913176227
40
0.2535922603
40
0.3202683981
40
0.3910601662
40
0.4653572087
40
0.5423094836
40
0.6209031801
40
0.7000297111
40
0.7785506805
40
0.8553616049
40
0.9294570538
40
1.0000000000
40
1.0000000000
40
1.0000000000
40
1.0000000000
10
-183.1865252789
20
-19.9528003363
30
0.0000000000
10
-183.2336396193
20
-19.9789602705
30
0.0000000000
10
-183.3758112699
20
-20.0463092563
30
0.0000000000
10
-183.6341375011
20
-20.1133320549
30
0.0000000000
10
-183.9621897413
20
-20.1218887081
30
0.0000000000
10
-184.3051871934
20
-20.0610745678
30
0.0000000000
10
-184.6549792725
20
-19.9333753821
30
0.0000000000
10
-185.0035208140
20
-19.7424082193
30
0.0000000000
10
-185.3427496369
20
-19.4929893007
30
0.0000000000
10
-185.6647006492
20
-19.1911949763
30
0.0000000000
10
-185.9617163594
20
-18.8443192288
30
0.0000000000
10
-186.2266707015
20
-18.4607430546
30
0.0000000000
10
-186.4531741697
20
-18.0497388349
30
0.0000000000
10
-186.6357494235
20
-17.6212533399
30
0.0000000000
10
-186.7699723653
20
-17.1855994388
30
0.0000000000
10
-186.8525721942
20
-16.7533698800
30
0.0000000000
10
-186.8723873450
20
-16.4662937808
30
0.0000000000
10
-186.8723873450
20
-16.3263989943
30
0.0000000000
11
-183.1865252789
21
-19.9528003363
31
0.0000000000
11
-183.3325241624
21
-20.0219403650
31
0.0000000000
11
-183.6308107965
21
-20.1006661661
31
0.0000000000
11
-183.9540197275
21
-20.1111713078
31
0.0000000000
11
-184.2941924789
21
-20.0531971185
31
0.0000000000
11
-184.6429528686
21
-19.9281711152
31
0.0000000000
11
-184.9917132582
21
-19.7391718531
31
0.0000000000
11
-185.3318860096
21
-19.4908531213
31
0.0000000000
11
-185.6550949407
21
-19.1893293510
31
0.0000000000
11
-185.9533815748
21
-18.8420250581
31
0.0000000000
11
-186.2194011051
21
-18.4574920271
31
0.0000000000
11
-186.4466032479
21
-18.0451987372
31
0.0000000000
11
-186.6293935323
21
-17.6152972177
31
0.0000000000
11
-186.7632710550
21
-17.1783730707
31
0.0000000000
11
-186.8449393071
21
-16.7451848188
31
0.0000000000
11
-186.8723873450
21
-16.3263989943
31
0.0000000000
0
SPLINE
5
24E
100
AcDbEntity
8
0
100
AcDbSpline
62
0
6
CONTINUOUS
70
0
71
3
72
16
73
12
74
10
42
0.0000001000
43
0.0000001000
44
0.0000000001
12
-2.4425504459
22
0.8176987409
32
0.0000000000
13
0.0000000000
23
2.5713173625
33
0.0000000000
40
0.0000000000
40
0.0000000000
40
0.0000000000
40
0.0000000000
40
0.0504479860
40
0.1573025339
40
0.2720720128
40
0.3930030299
40
0.5177172275
40
0.6434888988
40
0.7674995099
40
0.8870861066
40
1.0000000000
40
1.0000000000
40
1.0000000000
40
1.0000000000
10
-182.4811940892
20
-17.6732248395
30
0.0000000000
10
-182.5222680061
20
-17.6594744213
30
0.0000000000
10
-182.6480681879
20
-17.6097236476
30
0.0000000000
10
-182.8513019331
20
-17.4930240353
30
0.0000000000
10
-183.0801404855
20
-17.3073215533
30
0.0000000000
10
-183.2907425227
20
-17.0800369431
30
0.0000000000
10
-183.4753741468
20
-16.8196438277
30
0.0000000000
10
-183.6271746812
20
-16.5358757034
30
0.0000000000
10
-183.7404718620
20
-16.2392937847
30
0.0000000000
10
-183.8110099338
20
-15.9410534299
30
0.0000000000
10
-183.8282934812
20
-15.7415454463
30
0.0000000000
10
-183.8282934812
20
-15.6447662948
30
0.0000000000
11
-182.4811940892
21
-17.6732248395
31
0.0000000000
11
-182.6021045192
21
-17.6257409613
31
0.0000000000
11
-182.8413221186
21
-17.4905879960
31
0.0000000000
11
-183.0713467199
21
-17.3057154470
31
0.0000000000
11
-183.2833386066
21
-17.0782278624
31
0.0000000000
11
-183.4691510493
21
-16.8168674628
31
0.0000000000
11
-183.6216433801
21
-16.5316781816
31
0.0000000000
11
-183.7349554042
21
-16.2336196830
31
0.0000000000
11
-183.8047326041
21
-15.9341461879
31
0.0000000000
11
-183.8282934812
21
-15.6447662948
31
0.0000000000
0
SPLINE
5
24F
100
AcDbEntity
8
0
100
AcDbSpline
62
0
6
CONTINUOUS
70
0
71
3
72
13
73
9
74
7
42
0.0000001000
43
0.0000001000
44
0.0000000001
12
0.0000000000
22
1.8791262475
32
0.0000000000
13
1.6470707605
23
0.9145254341
33
0.0000000000
40
0.0000000000
40
0.0000000000
40
0.0000000000
40
0.0000000000
40
0.2102180496
40
0.4064846278
40
0.5893035941
40
0.7607598573
40
0.9245830652
40
1.0000000000
40
1.0000000000
40
1.0000000000
40
1.0000000000
10
177.2685771389
20
-180.2633975523
30
0.0000000000
10
177.2685771389
20
-180.1317221340
30
0.0000000000
10
177.2851313593
20
-179.8766383182
30
0.0000000000
10
177.3651015679
20
-179.5146496822
30
0.0000000000
10
177.4981466321
20
-179.1942578640
30
0.0000000000
10
177.6819943626
20
-178.9237568673
30
0.0000000000
10
177.8729701901
20
-178.7477583367
30
0.0000000000
10
178.0001783496
20
-178.6673782644
30
0.0000000000
10
178.0415840256
20
-178.6443880294
30
0.0000000000
11
177.2685771389
21
-180.2633975523
31
0.0000000000
11
177.2960251768
21
-179.8693260522
31
0.0000000000
11
177.3776934289
21
-179.5096722247
31
0.0000000000
11
177.5115709516
21
-179.1932919405
31
0.0000000000
11
177.6943612361
21
-178.9279755324
31
0.0000000000
11
177.9215633788
21
-178.7202559708
31
0.0000000000
11
178.0415840256
21
-178.6443880294
31
0.0000000000
0
SPLINE
5
250
100
AcDbEntity
8
0
100
AcDbSpline
62
0
6
CONTINUOUS
70
0
71
3
72
13
73
9
74
7
42
0.0000001000
43
0.0000001000
44
0.0000000001
12
0.0000000000
22
1.8791262475
32
0.0000000000
13
1.6470707605
23
0.9145254341
33
0.0000000000
40
0.0000000000
40
0.0000000000
40
0.0000000000
40
0.0000000000
40
0.2102180496
40
0.4064846278
40
0.5893035941
40
0.7607598573
40
0.9245830652
40
1.0000000000
40
1.0000000000
40
1.0000000000
40
1.0000000000
10
-186.8723873450
20
-16.3263989943
30
0.0000000000
10
-186.8723873450
20
-16.1947235761
30
0.0000000000
10
-186.8558331246
20
-15.9396397603
30
0.0000000000
10
-186.7758629161
20
-15.5776511243
30
0.0000000000
10
-186.6428178519
20
-15.2572593061
30
0.0000000000
10
-186.4589701213
20
-14.9867583094
30
0.0000000000
10
-186.2679942938
20
-14.8107597788
30
0.0000000000
10
-186.1407861343
20
-14.7303797065
30
0.0000000000
10
-186.0993804583
20
-14.7073894715
30
0.0000000000
11
-186.8723873450
21
-16.3263989943
31
0.0000000000
11
-186.8449393071
21
-15.9323274943
31
0.0000000000
11
-186.7632710550
21
-15.5726736667
31
0.0000000000
11
-186.6293935323
21
-15.2562933826
31
0.0000000000
11
-186.4466032479
21
-14.9909769745
31
0.0000000000
11
-186.2194011051
21
-14.7832574129
31
0.0000000000
11
-186.0993804583
21
-14.7073894715
31
0.0000000000
0
SPLINE
5
251
100
AcDbEntity
8
0
100
AcDbSpline
62
0
6
CONTINUOUS
70
0
71
3
72
11
73
7
74
5
42
0.0000001000
43
0.0000001000
44
0.0000000001
12
-0.6355608443
22
-1.0208267022
32
0.0000000000
13
-0.0000000000
23
-1.1997868154
33
0.0000000000
40
0.0000000000
40
0.0000000000
40
0.0000000000
40
0.0000000000
40
0.0336819421
40
0.3323324025
40
0.6540589898
40
1.0000000000
40
1.0000000000
40
1.0000000000
40
1.0000000000
10
-60.5968722515
20
129.7334128845
30
0.0000000000
10
-60.6040078927
20
129.7219517426
30
0.0000000000
10
-60.6729339527
20
129.6079592622
30
0.0000000000
10
-60.7798526628
20
129.3672525431
30
0.0000000000
10
-60.8683004740
20
128.9891127000
30
0.0000000000
10
-60.8865346340
20
128.7215359703
30
0.0000000000
10
-60.8865346340
20
128.5831841493
30
0.0000000000
11
-60.5968722515
21
129.7334128845
31
0.0000000000
11
-60.6178292596
21
129.6987600461
31
0.0000000000
11
-60.7657377246
21
129.3723951032
31
0.0000000000
11
-60.8561280536
21
128.9971243348
31
0.0000000000
11
-60.8865346340
21
128.5831841493
31
0.0000000000
0
SPLINE
5
252
100
AcDbEntity
8
0
100
AcDbSpline
62
0
6
CONTINUOUS
70
0
71
3
72
11
73
7
74
5
42
0.0000001000
43
0.0000001000
44
0.0000000001
12
-0.6355608443
22
-1.0208267022
32
0.0000000000
13
-0.0000000000
23
-1.1997868154
33
0.0000000000
40
0.0000000000
40
0.0000000000
40
0.0000000000
40
0.0000000000
40
0.0336819421
40
0.3323324025
40
0.6540589898
40
1.0000000000
40
1.0000000000
40
1.0000000000
40
1.0000000000
10
178.6957615522
20
-178.4814957153
30
0.0000000000
10
178.6886259110
20
-178.4929568573
30
0.0000000000
10
178.6196998511
20
-178.6069493377
30
0.0000000000
10
178.5127811410
20
-178.8476560568
30
0.0000000000
10
178.4243333298
20
-179.2257958999
30
0.0000000000
10
178.4060991697
20
-179.4933726296
30
0.0000000000
10
178.4060991697
20
-179.6317244506
30
0.0000000000
11
178.6957615522
21
-178.4814957153
31
0.0000000000
11
178.6748045441
21
-178.5161485538
31
0.0000000000
11
178.5268960791
21
-178.8425134967
31
0.0000000000
11
178.4365057501
21
-179.2177842651
31
0.0000000000
11
178.4060991697
21
-179.6317244506
31
0.0000000000
0
SPLINE
5
253
100
AcDbEntity
8
0
100
AcDbSpline
62
0
6
CONTINUOUS
70
0
71
3
72
13
73
9
74
7
42
0.0000001000
43
0.0000001000
44
0.0000000001
12
0.0000000000
22
1.8791262475
32
0.0000000000
13
1.6470707605
23
0.9145254341
33
0.0000000000
40
0.0000000000
40
0.0000000000
40
0.0000000000
40
0.0000000000
40
0.2102180496
40
0.4064846278
40
0.5893035941
40
0.7607598573
40
0.9245830652
40
1.0000000000
40
1.0000000000
40
1.0000000000
40
1.0000000000
10
177.2685771389
20
13.7262928955
30
0.0000000000
10
177.2685771389
20
13.8579683137
30
0.0000000000
10
177.2851313593
20
14.1130521295
30
0.0000000000
10
177.3651015679
20
14.4750407655
30
0.0000000000
10
177.4981466320
20
14.7954325837
30
0.0000000000
10
177.6819943626
20
15.0659335804
30
0.0000000000
10
177.8729701901
20
15.2419321110
30
0.0000000000
10
178.0001783496
20
15.3223121833
30
0.0000000000
10
178.0415840256
20
15.3453024183
30
0.0000000000
11
177.2685771389
21
13.7262928955
31
0.0000000000
11
177.2960251768
21
14.1203643955
31
0.0000000000
11
177.3776934289
21
14.4800182231
31
0.0000000000
11
177.5115709516
21
14.7963985072
31
0.0000000000
11
177.6943612361
21
15.0617149153
31
0.0000000000
11
177.9215633788
21
15.2694344769
31
0.0000000000
11
178.0415840256
21
15.3453024183
31
0.0000000000
0
SPLINE
5
254
100
AcDbEntity
8
0
100
AcDbSpline
62
0
6
CONTINUOUS
70
0
71
3
72
9
73
5
74
3
42
0.0000001000
43
0.0000001000
44
0.0000000001
12
-0.0774020507
22
-0.3249917343
32
0.0000000000
13
0.0000000000
23
-0.3333616249
33
0.0000000000
40
0.0000000000
40
0.0000000000
40
0.0000000000
40
0.0000000000
40
0.1924726875
40
1.0000000000
40
1.0000000000
40
1.0000000000
40
1.0000000000
10
180.3495091862
20
-179.2506896103
30
0.0000000000
10
180.3445432593
20
-179.2715402878
30
0.0000000000
10
180.3216043538
20
-179.3805648279
30
0.0000000000
10
180.3126710027
20
-179.4920319804
30
0.0000000000
10
180.3126710027
20
-179.5817648527
30
0.0000000000
11
180.3495091862
21
-179.2506896103
31
0.0000000000
11
180.3362318798
21
-179.3135992686
31
0.0000000000
11
180.3126710027
21
-179.5817648527
31
0.0000000000
0
SPLINE
5
255
100
AcDbEntity
8
0
100
AcDbSpline
62
0
6
CONTINUOUS
70
0
71
3
72
19
73
15
74
13
42
0.0000001000
43
0.0000001000
44
0.0000000001
12
-5.2785226904
22
0.0042757060
32
0.0000000000
13
0.0000000000
23
5.2690198186
33
0.0000000000
40
0.0000000000
40
0.0000000000
40
0.0000000000
40
0.0000000000
40
0.0484936189
40
0.1196410455
40
0.1962786098
40
0.2782894980
40
0.3650477060
40
0.4555468566
40
0.5485159720
40
0.6425232068
40
0.7360719825
40
0.8276941092
40
0.9160442233
40
1.0000000000
40
1.0000000000
40
1.0000000000
40
1.0000000000
10
181.4377817679
20
-183.4206353209
30
0.0000000000
10
181.3524568787
20
-183.4205662061
30
0.0000000000
10
181.1419635620
20
-183.4030257718
30
0.0000000000
10
180.8066956226
20
-183.3147529403
30
0.0000000000
10
180.4380963801
20
-183.1462312179
30
0.0000000000
10
180.0756991965
20
-182.9103568241
30
0.0000000000
10
179.7288104008
20
-182.6135604337
30
0.0000000000
10
179.4064885862
20
-182.2637867185
30
0.0000000000
10
179.1172521236
20
-181.8703765026
30
0.0000000000
10
178.8688000887
20
-181.4438416239
30
0.0000000000
10
178.6677712541
20
-180.9955964043
30
0.0000000000
10
178.5195498732
20
-180.5375714723
30
0.0000000000
10
178.4281272754
20
-180.0820820032
30
0.0000000000
10
178.4060991697
20
-179.7791793343
30
0.0000000000
10
178.4060991697
20
-179.6317244506
30
0.0000000000
11
181.4377817679
21
-183.4206353209
31
0.0000000000
11
181.1828274546
21
-183.4003889097
31
0.0000000000
11
180.8196388860
21
-183.3075073753
31
0.0000000000
11
180.4514284063
21
-183.1417382728
31
0.0000000000
11
180.0882398377
21
-182.9076033511
31
0.0000000000
11
179.7399800174
21
-182.6114892005
31
0.0000000000
11
179.4161485656
21
-182.2614730432
31
0.0000000000
11
179.1255787601
21
-181.8671024075
31
0.0000000000
11
178.8761965878
21
-181.4391346964
31
0.0000000000
11
178.6748045441
21
-180.9892437532
31
0.0000000000
11
178.5268960791
21
-180.5297014303
31
0.0000000000
11
178.4365057501
21
-180.0730428441
31
0.0000000000
11
178.4060991697
21
-179.6317244506
31
0.0000000000
0
SPLINE
5
256
100
AcDbEntity
8
0
100
AcDbSpline
62
0
6
CONTINUOUS
70
0
71
3
72
22
73
18
74
16
42
0.0000001000
43
0.0000001000
44
0.0000000001
12
-5.2146538962
22
-2.8954029982
32
0.0000000000
13
-0.0000000000
23
5.9493454944
33
0.0000000000
40
0.0000000000
40
0.0000000000
40
0.0000000000
40
0.0000000000
40
0.0271049669
40
0.0789595243
40
0.1333150175
40
0.1913176227
40
0.2535922603
40
0.3202683981
40
0.3910601662
40
0.4653572087
40
0.5423094836
40
0.6209031801
40
0.7000297111
40
0.7785506805
40
0.8553616049
40
0.9294570538
40
1.0000000000
40
1.0000000000
40
1.0000000000
40
1.0000000000
10
180.9544392051
20
-183.8897988942
30
0.0000000000
10
180.9073248646
20
-183.9159588284
30
0.0000000000
10
180.7651532140
20
-183.9833078142
30
0.0000000000
10
180.5068269828
20
-184.0503306129
30
0.0000000000
10
180.1787747427
20
-184.0588872661
30
0.0000000000
10
179.8357772905
20
-183.9980731257
30
0.0000000000
10
179.4859852114
20
-183.8703739400
30
0.0000000000
10
179.1374436700
20
-183.6794067772
30
0.0000000000
10
178.7982148471
20
-183.4299878587
30
0.0000000000
10
178.4762638347
20
-183.1281935342
30
0.0000000000
10
178.1792481246
20
-182.7813177867
30
0.0000000000
10
177.9142937824
20
-182.3977416125
30
0.0000000000
10
177.6877903142
20
-181.9867373928
30
0.0000000000
10
177.5052150604
20
-181.5582518978
30
0.0000000000
10
177.3709921186
20
-181.1225979967
30
0.0000000000
10
177.2883922898
20
-180.6903684379
30
0.0000000000
10
177.2685771389
20
-180.4032923387
30
0.0000000000
10
177.2685771389
20
-180.2633975523
30
0.0000000000
11
180.9544392051
21
-183.8897988942
31
0.0000000000
11
180.8084403215
21
-183.9589389229
31
0.0000000000
11
180.5101536874
21
-184.0376647240
31
0.0000000000
11
180.1869447564
21
-184.0481698657
31
0.0000000000
11
179.8467720050
21
-183.9901956764
31
0.0000000000
11
179.4980116153
21
-183.8651696731
31
0.0000000000
11
179.1492512257
21
-183.6761704111
31
0.0000000000
11
178.8090784743
21
-183.4278516792
31
0.0000000000
11
178.4858695433
21
-183.1263279089
31
0.0000000000
11
178.1875829091
21
-182.7790236160
31
0.0000000000
11
177.9215633788
21
-182.3944905850
31
0.0000000000
11
177.6943612361
21
-181.9821972952
31
0.0000000000
11
177.5115709516
21
-181.5522957756
31
0.0000000000
11
177.3776934289
21
-181.1153716286
31
0.0000000000
11
177.2960251768
21
-180.6821833767
31
0.0000000000
11
177.2685771389
21
-180.2633975523
31
0.0000000000
0
SPLINE
5
257
100
AcDbEntity
8
0
100
AcDbSpline
62
0
6
CONTINUOUS
70
0
71
3
72
9
73
5
74
3
42
0.0000001000
43
0.0000001000
44
0.0000000001
12
-0.0774020507
22
-0.3249917343
32
0.0000000000
13
0.0000000000
23
-0.3333616249
33
0.0000000000
40
0.0000000000
40
0.0000000000
40
0.0000000000
40
0.0000000000
40
0.1924726875
40
1.0000000000
40
1.0000000000
40
1.0000000000
40
1.0000000000
10
-58.9431246175
20
128.9642189896
30
0.0000000000
10
-58.9480905444
20
128.9433683121
30
0.0000000000
10
-58.9710294499
20
128.8343437720
30
0.0000000000
10
-58.9799628010
20
128.7228766195
30
0.0000000000
10
-58.9799628010
20
128.6331437472
30
0.0000000000
11
-58.9431246175
21
128.9642189896
31
0.0000000000
11
-58.9564019239
21
128.9013093313
31
0.0000000000
11
-58.9799628010
21
128.6331437472
31
0.0000000000
0
SPLINE
5
258
100
AcDbEntity
8
0
100
AcDbSpline
62
0
6
CONTINUOUS
70
0
71
3
72
16
73
12
74
10
42
0.0000001000
43
0.0000001000
44
0.0000000001
12
-2.4425504459
22
0.8176987409
32
0.0000000000
13
0.0000000000
23
2.5713173625
33
0.0000000000
40
0.0000000000
40
0.0000000000
40
0.0000000000
40
0.0000000000
40
0.0504479860
40
0.1573025339
40
0.2720720128
40
0.3930030299
40
0.5177172275
40
0.6434888988
40
0.7674995099
40
0.8870861066
40
1.0000000000
40
1.0000000000
40
1.0000000000
40
1.0000000000
10
181.6597703947
20
-181.6102233974
30
0.0000000000
10
181.6186964778
20
-181.5964729792
30
0.0000000000
10
181.4928962960
20
-181.5467222055
30
0.0000000000
10
181.2896625509
20
-181.4300225932
30
0.0000000000
10
181.0608239985
20
-181.2443201112
30
0.0000000000
10
180.8502219613
20
-181.0170355011
30
0.0000000000
10
180.6655903372
20
-180.7566423857
30
0.0000000000
10
180.5137898027
20
-180.4728742613
30
0.0000000000
10
180.4004926219
20
-180.1762923426
30
0.0000000000
10
180.3299545502
20
-179.8780519878
30
0.0000000000
10
180.3126710027
20
-179.6785440042
30
0.0000000000
10
180.3126710027
20
-179.5817648527
30
0.0000000000
11
181.6597703947
21
-181.6102233974
31
0.0000000000
11
181.5388599647
21
-181.5627395192
31
0.0000000000
11
181.2996423653
21
-181.4275865539
31
0.0000000000
11
181.0696177640
21
-181.2427140049
31
0.0000000000
11
180.8576258774
21
-181.0152264204
31
0.0000000000
11
180.6718134347
21
-180.7538660207
31
0.0000000000
11
180.5193211039
21
-180.4686767395
31
0.0000000000
11
180.4060090797
21
-180.1706182409
31
0.0000000000
11
180.3362318798
21
-179.8711447458
31
0.0000000000
11
180.3126710027
21
-179.5817648527
31
0.0000000000
0
SPLINE
5
259
100
AcDbEntity
8
0
100
AcDbSpline
62
0
6
CONTINUOUS
70
0
71
3
72
19
73
15
74
13
42
0.0000001000
43
0.0000001000
44
0.0000000001
12
-5.2785226904
22
0.0042757060
32
0.0000000000
13
-0.0000000000
23
5.2690198186
33
0.0000000000
40
0.0000000000
40
0.0000000000
40
0.0000000000
40
0.0000000000
40
0.0484936189
40
0.1196410455
40
0.1962786098
40
0.2782894980
40
0.3650477060
40
0.4555468566
40
0.5485159720
40
0.6425232068
40
0.7360719825
40
0.8276941092
40
0.9160442233
40
1.0000000000
40
1.0000000000
40
1.0000000000
40
1.0000000000
10
-57.8548520359
20
124.7942732790
30
0.0000000000
10
-57.9401769251
20
124.7943423938
30
0.0000000000
10
-58.1506702417
20
124.8118828281
30
0.0000000000
10
-58.4859381811
20
124.9001556596
30
0.0000000000
10
-58.8545374236
20
125.0686773820
30
0.0000000000
10
-59.2169346072
20
125.3045517758
30
0.0000000000
10
-59.5638234029
20
125.6013481661
30
0.0000000000
10
-59.8861452176
20
125.9511218814
30
0.0000000000
10
-60.1753816801
20
126.3445320973
30
0.0000000000
10
-60.4238337150
20
126.7710669760
30
0.0000000000
10
-60.6248625496
20
127.2193121956
30
0.0000000000
10
-60.7730839306
20
127.6773371275
30
0.0000000000
10
-60.8645065283
20
128.1328265967
30
0.0000000000
10
-60.8865346340
20
128.4357292656
30
0.0000000000
10
-60.8865346340
20
128.5831841493
30
0.0000000000
11
-57.8548520359
21
124.7942732790
31
0.0000000000
11
-58.1098063491
21
124.8145196902
31
0.0000000000
11
-58.4729949177
21
124.9074012246
31
0.0000000000
11
-58.8412053974
21
125.0731703271
31
0.0000000000
11
-59.2043939661
21
125.3073052488
31
0.0000000000
11
-59.5526537863
21
125.6034193994
31
0.0000000000
11
-59.8764852381
21
125.9534355567
31
0.0000000000
11
-60.1670550436
21
126.3478061923
31
0.0000000000
11
-60.4164372160
21
126.7757739035
31
0.0000000000
11
-60.6178292596
21
127.2256648467
31
0.0000000000
11
-60.7657377246
21
127.6852071696
31
0.0000000000
11
-60.8561280536
21
128.1418657558
31
0.0000000000
11
-60.8865346340
21
128.5831841493
31
0.0000000000
0
SPLINE
5
25A
100
AcDbEntity
8
0
100
AcDbSpline
62
0
6
CONTINUOUS
70
0
71
3
72
22
73
18
74
16
42
0.0000001000
43
0.0000001000
44
0.0000000001
12
-5.2146538962
22
-2.8954029982
32
0.0000000000
13
0.0000000000
23
5.9493454944
33
0.0000000000
40
0.0000000000
40
0.0000000000
40
0.0000000000
40
0.0000000000
40
0.0271049669
40
0.0789595243
40
0.1333150175
40
0.1913176227
40
0.2535922603
40
0.3202683981
40
0.3910601662
40
0.4653572087
40
0.5423094836
40
0.6209031801
40
0.7000297111
40
0.7785506805
40
0.8553616049
40
0.9294570538
40
1.0000000000
40
1.0000000000
40
1.0000000000
40
1.0000000000
10
-58.3381945987
20
124.3251097057
30
0.0000000000
10
-58.3853089391
20
124.2989497715
30
0.0000000000
10
-58.5274805897
20
124.2316007856
30
0.0000000000
10
-58.7858068209
20
124.1645779870
30
0.0000000000
10
-59.1138590611
20
124.1560213338
30
0.0000000000
10
-59.4568565132
20
124.2168354742
30
0.0000000000
10
-59.8066485923
20
124.3445346599
30
0.0000000000
10
-60.1551901338
20
124.5355018226
30
0.0000000000
10
-60.4944189567
20
124.7849207412
30
0.0000000000
10
-60.8163699690
20
125.0867150656
30
0.0000000000
10
-61.1133856792
20
125.4335908132
30
0.0000000000
10
-61.3783400213
20
125.8171669873
30
0.0000000000
10
-61.6048434895
20
126.2281712071
30
0.0000000000
10
-61.7874187433
20
126.6566567021
30
0.0000000000
10
-61.9216416851
20
127.0923106032
30
0.0000000000
10
-62.0042415140
20
127.5245401620
30
0.0000000000
10
-62.0240566648
20
127.8116162611
30
0.0000000000
10
-62.0240566648
20
127.9515110476
30
0.0000000000
11
-58.3381945987
21
124.3251097057
31
0.0000000000
11
-58.4841934822
21
124.2559696770
31
0.0000000000
11
-58.7824801163
21
124.1772438759
31
0.0000000000
11
-59.1056890473
21
124.1667387342
31
0.0000000000
11
-59.4458617987
21
124.2247129235
31
0.0000000000
11
-59.7946221884
21
124.3497389267
31
0.0000000000
11
-60.1433825780
21
124.5387381888
31
0.0000000000
11
-60.4835553294
21
124.7870569207
31
0.0000000000
11
-60.8067642605
21
125.0885806910
31
0.0000000000
11
-61.1050508946
21
125.4358849838
31
0.0000000000
11
-61.3710704249
21
125.8204180149
31
0.0000000000
11
-61.5982725677
21
126.2327113047
31
0.0000000000
11
-61.7810628521
21
126.6626128242
31
0.0000000000
11
-61.9149403748
21
127.0995369712
31
0.0000000000
11
-61.9966086269
21
127.5327252232
31
0.0000000000
11
-62.0240566648
21
127.9515110476
31
0.0000000000
0
SPLINE
5
25B
100
AcDbEntity
8
0
100
AcDbSpline
62
0
6
CONTINUOUS
70
0
71
3
72
16
73
12
74
10
42
0.0000001000
43
0.0000001000
44
0.0000000001
12
-2.4425504459
22
0.8176987409
32
0.0000000000
13
0.0000000000
23
2.5713173625
33
0.0000000000
40
0.0000000000
40
0.0000000000
40
0.0000000000
40
0.0000000000
40
0.0504479860
40
0.1573025339
40
0.2720720128
40
0.3930030299
40
0.5177172275
40
0.6434888988
40
0.7674995099
40
0.8870861066
40
1.0000000000
40
1.0000000000
40
1.0000000000
40
1.0000000000
10
-57.6328634090
20
126.6046852025
30
0.0000000000
10
-57.6739373259
20
126.6184356207
30
0.0000000000
10
-57.7997375077
20
126.6681863944
30
0.0000000000
10
-58.0029712529
20
126.7848860066
30
0.0000000000
10
-58.2318098053
20
126.9705884887
30
0.0000000000
10
-58.4424118425
20
127.1978730988
30
0.0000000000
10
-58.6270434666
20
127.4582662142
30
0.0000000000
10
-58.7788440010
20
127.7420343385
30
0.0000000000
10
-58.8921411818
20
128.0386162572
30
0.0000000000
10
-58.9626792536
20
128.3368566121
30
0.0000000000
10
-58.9799628010
20
128.5363645957
30
0.0000000000
10
-58.9799628010
20
128.6331437472
30
0.0000000000
11
-57.6328634090
21
126.6046852025
31
0.0000000000
11
-57.7537738390
21
126.6521690807
31
0.0000000000
11
-57.9929914384
21
126.7873220459
31
0.0000000000
11
-58.2230160397
21
126.9721945950
31
0.0000000000
11
-58.4350079264
21
127.1996821795
31
0.0000000000
11
-58.6208203691
21
127.4610425792
31
0.0000000000
11
-58.7733126999
21
127.7462318604
31
0.0000000000
11
-58.8866247240
21
128.0442903590
31
0.0000000000
11
-58.9564019239
21
128.3437638541
31
0.0000000000
11
-58.9799628010
21
128.6331437472
31
0.0000000000
0
SPLINE
5
25C
100
AcDbEntity
8
0
100
AcDbSpline
62
0
6
CONTINUOUS
70
0
71
3
72
13
73
9
74
7
42
0.0000001000
43
0.0000001000
44
0.0000000001
12
0.0000000000
22
1.8791262475
32
0.0000000000
13
1.6470707605
23
0.9145254341
33
0.0000000000
40
0.0000000000
40
0.0000000000
40
0.0000000000
40
0.0000000000
40
0.2102180496
40
0.4064846278
40
0.5893035941
40
0.7607598573
40
0.9245830652
40
1.0000000000
40
1.0000000000
40
1.0000000000
40
1.0000000000
10
-186.8723873450
20
177.6632914534
30
0.0000000000
10
-186.8723873450
20
177.7949668716
30
0.0000000000
10
-186.8558331246
20
178.0500506874
30
0.0000000000
10
-186.7758629161
20
178.4120393234
30
0.0000000000
10
-186.6428178519
20
178.7324311416
30
0.0000000000
10
-186.4589701213
20
179.0029321384
30
0.0000000000
10
-186.2679942938
20
179.1789306689
30
0.0000000000
10
-186.1407861343
20
179.2593107412
30
0.0000000000
10
-186.0993804583
20
179.2823009762
30
0.0000000000
11
-186.8723873450
21
177.6632914534
31
0.0000000000
11
-186.8449393071
21
178.0573629534
31
0.0000000000
11
-186.7632710550
21
178.4170167810
31
0.0000000000
11
-186.6293935323
21
178.7333970651
31
0.0000000000
11
-186.4466032479
21
178.9987134732
31
0.0000000000
11
-186.2194011051
21
179.2064330348
31
0.0000000000
11
-186.0993804583
21
179.2823009762
31
0.0000000000
0
SPLINE
5
25D
100
AcDbEntity
8
0
100
AcDbSpline
62
0
6
CONTINUOUS
70
0
71
3
72
13
73
9
74
7
42
0.0000001000
43
0.0000001000
44
0.0000000001
12
0.0000000000
22
1.8791262475
32
0.0000000000
13
1.6470707605
23
0.9145254341
33
0.0000000000
40
0.0000000000
40
0.0000000000
40
0.0000000000
40
0.0000000000
40
0.2102180496
40
0.4064846278
40
0.5893035941
40
0.7607598573
40
0.9245830652
40
1.0000000000
40
1.0000000000
40
1.0000000000
40
1.0000000000
10
52.4202464587
20
-130.5516171465
30
0.0000000000
10
52.4202464587
20
-130.4199417282
30
0.0000000000
10
52.4368006791
20
-130.1648579124
30
0.0000000000
10
52.5167708877
20
-129.8028692764
30
0.0000000000
10
52.6498159518
20
-129.4824774583
30
0.0000000000
10
52.8336636824
20
-129.2119764615
30
0.0000000000
10
53.0246395099
20
-129.0359779309
30
0.0000000000
10
53.1518476694
20
-128.9555978586
30
0.0000000000
10
53.1932533454
20
-128.9326076236
30
0.0000000000
11
52.4202464587
21
-130.5516171465
31
0.0000000000
11
52.4476944966
21
-130.1575456464
31
0.0000000000
11
52.5293627487
21
-129.7978918189
31
0.0000000000
11
52.6632402714
21
-129.4815115348
31
0.0000000000
11
52.8460305559
21
-129.2161951267
31
0.0000000000
11
53.0732326986
21
-129.0084755651
31
0.0000000000
11
53.1932533454
21
-128.9326076236
31
0.0000000000
0
SPLINE
5
25E
100
AcDbEntity
8
0
100
AcDbSpline
62
0
6
CONTINUOUS
70
0
71
3
72
11
73
7
74
5
42
0.0000001000
43
0.0000001000
44
0.0000000001
12
-0.6355608443
22
-1.0208267022
32
0.0000000000
13
-0.0000000000
23
-1.1997868154
33
0.0000000000
40
0.0000000000
40
0.0000000000
40
0.0000000000
40
0.0000000000
40
0.0336819421
40
0.3323324025
40
0.6540589898
40
1.0000000000
40
1.0000000000
40
1.0000000000
40
1.0000000000
10
-60.5968722515
20
-77.2466586199
30
0.0000000000
10
-60.6040078927
20
-77.2581197619
30
0.0000000000
10
-60.6729339527
20
-77.3721122423
30
0.0000000000
10
-60.7798526628
20
-77.6128189614
30
0.0000000000
10
-60.8683004740
20
-77.9909588045
30
0.0000000000
10
-60.8865346340
20
-78.2585355342
30
0.0000000000
10
-60.8865346340
20
-78.3968873552
30
0.0000000000
11
-60.5968722515
21
-77.2466586199
31
0.0000000000
11
-60.6178292596
21
-77.2813114584
31
0.0000000000
11
-60.7657377246
21
-77.6076764013
31
0.0000000000
11
-60.8561280536
21
-77.9829471697
31
0.0000000000
11
-60.8865346340
21
-78.3968873552
31
0.0000000000
0
SPLINE
5
25F
100
AcDbEntity
8
0
100
AcDbSpline
62
0
6
CONTINUOUS
70
0
71
3
72
13
73
9
74
7
42
0.0000001000
43
0.0000001000
44
0.0000000001
12
0.0000000000
22
1.8791262475
32
0.0000000000
13
1.6470707605
23
0.9145254341
33
0.0000000000
40
0.0000000000
40
0.0000000000
40
0.0000000000
40
0.0000000000
40
0.2102180496
40
0.4064846278
40
0.5893035941
40
0.7607598573
40
0.9245830652
40
1.0000000000
40
1.0000000000
40
1.0000000000
40
1.0000000000
10
52.4202464587
20
76.4284543580
30
0.0000000000
10
52.4202464587
20
76.5601297762
30
0.0000000000
10
52.4368006791
20
76.8152135920
30
0.0000000000
10
52.5167708877
20
77.1772022280
30
0.0000000000
10
52.6498159518
20
77.4975940462
30
0.0000000000
10
52.8336636824
20
77.7680950430
30
0.0000000000
10
53.0246395099
20
77.9440935736
30
0.0000000000
10
53.1518476694
20
78.0244736458
30
0.0000000000
10
53.1932533454
20
78.0474638809
30
0.0000000000
11
52.4202464587
21
76.4284543580
31
0.0000000000
11
52.4476944966
21
76.8225258581
31
0.0000000000
11
52.5293627487
21
77.1821796856
31
0.0000000000
11
52.6632402714
21
77.4985599697
31
0.0000000000
11
52.8460305559
21
77.7638763778
31
0.0000000000
11
53.0732326986
21
77.9715959394
31
0.0000000000
11
53.1932533454
21
78.0474638809
31
0.0000000000
0
SPLINE
5
260
100
AcDbEntity
8
0
100
AcDbSpline
62
0
6
CONTINUOUS
70
0
71
3
72
9
73
5
74
3
42
0.0000001000
43
0.0000001000
44
0.0000000001
12
-0.0774020507
22
-0.3249917343
32
0.0000000000
13
0.0000000000
23
-0.3333616249
33
0.0000000000
40
0.0000000000
40
0.0000000000
40
0.0000000000
40
0.0000000000
40
0.1924726875
40
1.0000000000
40
1.0000000000
40
1.0000000000
40
1.0000000000
10
-58.9431246175
20
-78.0158525149
30
0.0000000000
10
-58.9480905444
20
-78.0367031924
30
0.0000000000
10
-58.9710294499
20
-78.1457277325
30
0.0000000000
10
-58.9799628010
20
-78.2571948850
30
0.0000000000
10
-58.9799628010
20
-78.3469277573
30
0.0000000000
11
-58.9431246175
21
-78.0158525149
31
0.0000000000
11
-58.9564019239
21
-78.0787621732
31
0.0000000000
11
-58.9799628010
21
-78.3469277573
31
0.0000000000
0
SPLINE
5
261
100
AcDbEntity
8
0
100
AcDbSpline
62
0
6
CONTINUOUS
70
0
71
3
72
19
73
15
74
13
42
0.0000001000
43
0.0000001000
44
0.0000000001
12
-5.2785226904
22
0.0042757060
32
0.0000000000
13
0.0000000000
23
5.2690198186
33
0.0000000000
40
0.0000000000
40
0.0000000000
40
0.0000000000
40
0.0000000000
40
0.0484936189
40
0.1196410455
40
0.1962786098
40
0.2782894980
40
0.3650477060
40
0.4555468566
40
0.5485159720
40
0.6425232068
40
0.7360719825
40
0.8276941092
40
0.9160442233
40
1.0000000000
40
1.0000000000
40
1.0000000000
40
1.0000000000
10
-57.8548520359
20
-82.1857982255
30
0.0000000000
10
-57.9401769251
20
-82.1857291107
30
0.0000000000
10
-58.1506702417
20
-82.1681886764
30
0.0000000000
10
-58.4859381811
20
-82.0799158449
30
0.0000000000
10
-58.8545374236
20
-81.9113941225
30
0.0000000000
10
-59.2169346072
20
-81.6755197287
30
0.0000000000
10
-59.5638234029
20
-81.3787233384
30
0.0000000000
10
-59.8861452176
20
-81.0289496231
30
0.0000000000
10
-60.1753816801
20
-80.6355394072
30
0.0000000000
10
-60.4238337150
20
-80.2090045285
30
0.0000000000
10
-60.6248625496
20
-79.7607593089
30
0.0000000000
10
-60.7730839306
20
-79.3027343769
30
0.0000000000
10
-60.8645065283
20
-78.8472449078
30
0.0000000000
10
-60.8865346340
20
-78.5443422389
30
0.0000000000
10
-60.8865346340
20
-78.3968873552
30
0.0000000000
11
-57.8548520359
21
-82.1857982255
31
0.0000000000
11
-58.1098063491
21
-82.1655518143
31
0.0000000000
11
-58.4729949177
21
-82.0726702799
31
0.0000000000
11
-58.8412053974
21
-81.9069011774
31
0.0000000000
11
-59.2043939661
21
-81.6727662557
31
0.0000000000
11
-59.5526537863
21
-81.3766521051
31
0.0000000000
11
-59.8764852381
21
-81.0266359478
31
0.0000000000
11
-60.1670550436
21
-80.6322653121
31
0.0000000000
11
-60.4164372160
21
-80.2042976010
31
0.0000000000
11
-60.6178292596
21
-79.7544066578
31
0.0000000000
11
-60.7657377246
21
-79.2948643349
31
0.0000000000
11
-60.8561280536
21
-78.8382057487
31
0.0000000000
11
-60.8865346340
21
-78.3968873552
31
0.0000000000
0
SPLINE
5
262
100
AcDbEntity
8
0
100
AcDbSpline
62
0
6
CONTINUOUS
70
0
71
3
72
22
73
18
74
16
42
0.0000001000
43
0.0000001000
44
0.0000000001
12
-5.2146538962
22
-2.8954029982
32
0.0000000000
13
0.0000000000
23
5.9493454944
33
0.0000000000
40
0.0000000000
40
0.0000000000
40
0.0000000000
40
0.0000000000
40
0.0271049669
40
0.0789595243
40
0.1333150175
40
0.1913176227
40
0.2535922603
40
0.3202683981
40
0.3910601662
40
0.4653572087
40
0.5423094836
40
0.6209031801
40
0.7000297111
40
0.7785506805
40
0.8553616049
40
0.9294570538
40
1.0000000000
40
1.0000000000
40
1.0000000000
40
1.0000000000
10
-58.3381945987
20
-82.6549617988
30
0.0000000000
10
-58.3853089391
20
-82.6811217330
30
0.0000000000
10
-58.5274805897
20
-82.7484707189
30
0.0000000000
10
-58.7858068209
20
-82.8154935175
30
0.0000000000
10
-59.1138590610
20
-82.8240501707
30
0.0000000000
10
-59.4568565132
20
-82.7632360303
30
0.0000000000
10
-59.8066485923
20
-82.6355368446
30
0.0000000000
10
-60.1551901338
20
-82.4445696819
30
0.0000000000
10
-60.4944189567
20
-82.1951507633
30
0.0000000000
10
-60.8163699690
20
-81.8933564389
30
0.0000000000
10
-61.1133856792
20
-81.5464806913
30
0.0000000000
10
-61.3783400213
20
-81.1629045172
30
0.0000000000
10
-61.6048434895
20
-80.7519002974
30
0.0000000000
10
-61.7874187433
20
-80.3234148024
30
0.0000000000
10
-61.9216416851
20
-79.8877609013
30
0.0000000000
10
-62.0042415140
20
-79.4555313425
30
0.0000000000
10
-62.0240566648
20
-79.1684552433
30
0.0000000000
10
-62.0240566648
20
-79.0285604569
30
0.0000000000
11
-58.3381945987
21
-82.6549617988
31
0.0000000000
11
-58.4841934822
21
-82.7241018275
31
0.0000000000
11
-58.7824801163
21
-82.8028276286
31
0.0000000000
11
-59.1056890473
21
-82.8133327703
31
0.0000000000
11
-59.4458617987
21
-82.7553585810
31
0.0000000000
11
-59.7946221884
21
-82.6303325778
31
0.0000000000
11
-60.1433825780
21
-82.4413333157
31
0.0000000000
11
-60.4835553294
21
-82.1930145838
31
0.0000000000
11
-60.8067642605
21
-81.8914908135
31
0.0000000000
11
-61.1050508946
21
-81.5441865207
31
0.0000000000
11
-61.3710704249
21
-81.1596534896
31
0.0000000000
11
-61.5982725677
21
-80.7473601998
31
0.0000000000
11
-61.7810628521
21
-80.3174586803
31
0.0000000000
11
-61.9149403748
21
-79.8805345332
31
0.0000000000
11
-61.9966086269
21
-79.4473462813
31
0.0000000000
11
-62.0240566648
21
-79.0285604569
31
0.0000000000
0
SPLINE
5
263
100
AcDbEntity
8
0
100
AcDbSpline
62
9
6
CONTINUOUS
70
0
71
3
72
16
73
12
74
10
42
0.0000001000
43
0.0000001000
44
0.0000000001
12
6.1271702436
22
2.6716698927
32
0.0000000000
13
0.0567325223
23
6.6758898330
33
0.0000000000
40
0.0000000000
40
0.0000000000
40
0.0000000000
40
0.0000000000
40
0.0219535932
40
0.1297504833
40
0.2390005321
40
0.3514737012
40
0.4686409912
40
0.5915928216
40
0.7210104154
40
0.8571672533
40
1.0000000000
40
1.0000000000
40
1.0000000000
40
1.0000000000
10
199.9370441201
20
-213.2407230142
30
0.0000000000
10
199.9818819210
20
-213.2211720962
30
0.0000000000
10
200.2448339856
20
-213.1009298662
30
0.0000000000
10
200.7048925595
20
-212.8286326642
30
0.0000000000
10
201.2644921746
20
-212.3492285664
30
0.0000000000
10
201.7501964689
20
-211.7680608106
30
0.0000000000
10
202.1561988641
20
-211.0932819966
30
0.0000000000
10
202.4779908278
20
-210.3338324755
30
0.0000000000
10
202.7121217485
20
-209.4993208561
30
0.0000000000
10
202.8561196557
20
-208.6001845408
30
0.0000000000
10
202.8902261736
20
-207.9790707037
30
0.0000000000
10
202.8929272609
20
-207.6612254765
30
0.0000000000
11
199.9370441201
21
-213.2407230142
31
0.0000000000
11
200.0704864769
21
-213.1796927788
31
0.0000000000
11
200.6899583110
21
-212.8133950712
31
0.0000000000
11
201.2447530041
21
-212.3399185858
31
0.0000000000
11
201.7279485113
21
-211.7651566492
31
0.0000000000
11
202.1334909555
21
-211.0962695376
31
0.0000000000
11
202.4562959020
21
-210.3415646964
31
0.0000000000
11
202.6922920994
21
-209.5104106832
31
0.0000000000
11
202.8384602831
21
-208.6132387681
31
0.0000000000
11
202.8929272609
21
-207.6612254765
31
0.0000000000
0
SPLINE
5
264
100
AcDbEntity
8
0
100
AcDbSpline
62
0
6
CONTINUOUS
70
0
71
3
72
13
73
9
74
7
42
0.0000001000
43
0.0000001000
44
0.0000000001
12
0.0000000000
22
1.8791262475
32
0.0000000000
13
1.6470707605
23
0.9145254341
33
0.0000000000
40
0.0000000000
40
0.0000000000
40
0.0000000000
40
0.0000000000
40
0.2102180496
40
0.4064846278
40
0.5893035941
40
0.7607598573
40
0.9245830652
40
1.0000000000
40
1.0000000000
40
1.0000000000
40
1.0000000000
10
-62.0240566648
20
-79.0285604569
30
0.0000000000
10
-62.0240566648
20
-78.8968850386
30
0.0000000000
10
-62.0075024444
20
-78.6418012228
30
0.0000000000
10
-61.9275322359
20
-78.2798125868
30
0.0000000000
10
-61.7944871717
20
-77.9594207686
30
0.0000000000
10
-61.6106394411
20
-77.6889197719
30
0.0000000000
10
-61.4196636136
20
-77.5129212413
30
0.0000000000
10
-61.2924554541
20
-77.4325411690
30
0.0000000000
10
-61.2510497781
20
-77.4095509340
30
0.0000000000
11
-62.0240566648
21
-79.0285604569
31
0.0000000000
11
-61.9966086269
21
-78.6344889568
31
0.0000000000
11
-61.9149403748
21
-78.2748351293
31
0.0000000000
11
-61.7810628521
21
-77.9584548452
31
0.0000000000
11
-61.5982725677
21
-77.6931384370
31
0.0000000000
11
-61.3710704249
21
-77.4854188754
31
0.0000000000
11
-61.2510497781
21
-77.4095509340
31
0.0000000000
0
SPLINE
5
265
100
AcDbEntity
8
0
100
AcDbSpline
62
0
6
CONTINUOUS
70
0
71
3
72
16
73
12
74
10
42
0.0000001000
43
0.0000001000
44
0.0000000001
12
-2.4425504459
22
0.8176987409
32
0.0000000000
13
0.0000000000
23
2.5713173625
33
0.0000000000
40
0.0000000000
40
0.0000000000
40
0.0000000000
40
0.0000000000
40
0.0504479860
40
0.1573025339
40
0.2720720128
40
0.3930030299
40
0.5177172275
40
0.6434888988
40
0.7674995099
40
0.8870861066
40
1.0000000000
40
1.0000000000
40
1.0000000000
40
1.0000000000
10
-57.6328634090
20
-80.3753863020
30
0.0000000000
10
-57.6739373259
20
-80.3616358838
30
0.0000000000
10
-57.7997375077
20
-80.3118851101
30
0.0000000000
10
-58.0029712528
20
-80.1951854978
30
0.0000000000
10
-58.2318098053
20
-80.0094830158
30
0.0000000000
10
-58.4424118425
20
-79.7821984057
30
0.0000000000
10
-58.6270434666
20
-79.5218052903
30
0.0000000000
10
-58.7788440010
20
-79.2380371659
30
0.0000000000
10
-58.8921411818
20
-78.9414552472
30
0.0000000000
10
-58.9626792536
20
-78.6432148924
30
0.0000000000
10
-58.9799628010
20
-78.4437069088
30
0.0000000000
10
-58.9799628010
20
-78.3469277573
30
0.0000000000
11
-57.6328634090
21
-80.3753863020
31
0.0000000000
11
-57.7537738390
21
-80.3279024238
31
0.0000000000
11
-57.9929914384
21
-80.1927494585
31
0.0000000000
11
-58.2230160397
21
-80.0078769095
31
0.0000000000
11
-58.4350079263
21
-79.7803893250
31
0.0000000000
11
-58.6208203691
21
-79.5190289253
31
0.0000000000
11
-58.7733126999
21
-79.2338396441
31
0.0000000000
11
-58.8866247240
21
-78.9357811455
31
0.0000000000
11
-58.9564019239
21
-78.6363076504
31
0.0000000000
11
-58.9799628010
21
-78.3469277573
31
0.0000000000
0
SPLINE
5
266
100
AcDbEntity
8
0
100
AcDbSpline
62
0
6
CONTINUOUS
70
0
71
3
72
13
73
9
74
7
42
0.0000001000
43
0.0000001000
44
0.0000000001
12
0.0000000000
22
1.8791262475
32
0.0000000000
13
1.6470707605
23
0.9145254341
33
0.0000000000
40
0.0000000000
40
0.0000000000
40
0.0000000000
40
0.0000000000
40
0.2102180496
40
0.4064846278
40
0.5893035941
40
0.7607598573
40
0.9245830652
40
1.0000000000
40
1.0000000000
40
1.0000000000
40
1.0000000000
10
-62.0240566648
20
127.9515110476
30
0.0000000000
10
-62.0240566648
20
128.0831864659
30
0.0000000000
10
-62.0075024444
20
128.3382702817
30
0.0000000000
10
-61.9275322359
20
128.7002589177
30
0.0000000000
10
-61.7944871717
20
129.0206507359
30
0.0000000000
10
-61.6106394411
20
129.2911517326
30
0.0000000000
10
-61.4196636136
20
129.4671502632
30
0.0000000000
10
-61.2924554541
20
129.5475303355
30
0.0000000000
10
-61.2510497781
20
129.5705205705
30
0.0000000000
11
-62.0240566648
21
127.9515110476
31
0.0000000000
11
-61.9966086269
21
128.3455825477
31
0.0000000000
11
-61.9149403748
21
128.7052363752
31
0.0000000000
11
-61.7810628521
21
129.0216166593
31
0.0000000000
11
-61.5982725677
21
129.2869330674
31
0.0000000000
11
-61.3710704249
21
129.4946526290
31
0.0000000000
11
-61.2510497781
21
129.5705205705
31
0.0000000000
0
SPLINE
5
267
100
AcDbEntity
8
0
100
AcDbSpline
62
0
6
CONTINUOUS
70
0
71
3
72
11
73
7
74
5
42
0.0000001000
43
0.0000001000
44
0.0000000001
12
-0.6355608443
22
-1.0208267022
32
0.0000000000
13
0.0000000000
23
-1.1997868154
33
0.0000000000
40
0.0000000000
40
0.0000000000
40
0.0000000000
40
0.0000000000
40
0.0336819421
40
0.3323324025
40
0.6540589898
40
1.0000000000
40
1.0000000000
40
1.0000000000
40
1.0000000000
10
53.8474308720
20
78.2103561949
30
0.0000000000
10
53.8402952308
20
78.1988950530
30
0.0000000000
10
53.7713691709
20
78.0849025725
30
0.0000000000
10
53.6644504608
20
77.8441958535
30
0.0000000000
10
53.5760026495
20
77.4660560104
30
0.0000000000
10
53.5577684895
20
77.1984792806
30
0.0000000000
10
53.5577684895
20
77.0601274596
30
0.0000000000
11
53.8474308720
21
78.2103561949
31
0.0000000000
11
53.8264738639
21
78.1757033564
31
0.0000000000
11
53.6785653989
21
77.8493384135
31
0.0000000000
11
53.5881750699
21
77.4740676452
31
0.0000000000
11
53.5577684895
21
77.0601274596
31
0.0000000000
0
SPLINE
5
268
100
AcDbEntity
8
0
100
AcDbSpline
62
0
6
CONTINUOUS
70
0
71
3
72
9
73
5
74
3
42
0.0000001000
43
0.0000001000
44
0.0000000001
12
-0.0774020507
22
-0.3249917343
32
0.0000000000
13
0.0000000000
23
-0.3333616249
33
0.0000000000
40
0.0000000000
40
0.0000000000
40
0.0000000000
40
0.0000000000
40
0.1924726875
40
1.0000000000
40
1.0000000000
40
1.0000000000
40
1.0000000000
10
55.5011785060
20
77.4411623000
30
0.0000000000
10
55.4962125791
20
77.4203116225
30
0.0000000000
10
55.4732736736
20
77.3112870824
30
0.0000000000
10
55.4643403225
20
77.1998199299
30
0.0000000000
10
55.4643403225
20
77.1100870575
30
0.0000000000
11
55.5011785060
21
77.4411623000
31
0.0000000000
11
55.4879011996
21
77.3782526416
31
0.0000000000
11
55.4643403225
21
77.1100870575
31
0.0000000000
0
SPLINE
5
269
100
AcDbEntity
8
0
100
AcDbSpline
62
0
6
CONTINUOUS
70
0
71
3
72
19
73
15
74
13
42
0.0000001000
43
0.0000001000
44
0.0000000001
12
-5.2785226904
22
0.0042757060
32
0.0000000000
13
0.0000000000
23
5.2690198186
33
0.0000000000
40
0.0000000000
40
0.0000000000
40
0.0000000000
40
0.0000000000
40
0.0484936189
40
0.1196410455
40
0.1962786098
40
0.2782894980
40
0.3650477060
40
0.4555468566
40
0.5485159720
40
0.6425232068
40
0.7360719825
40
0.8276941092
40
0.9160442233
40
1.0000000000
40
1.0000000000
40
1.0000000000
40
1.0000000000
10
56.5894510877
20
73.2712165893
30
0.0000000000
10
56.5041261985
20
73.2712857041
30
0.0000000000
10
56.2936328818
20
73.2888261385
30
0.0000000000
10
55.9583649424
20
73.3770989700
30
0.0000000000
10
55.5897656999
20
73.5456206924
30
0.0000000000
10
55.2273685163
20
73.7814950862
30
0.0000000000
10
54.8804797206
20
74.0782914765
30
0.0000000000
10
54.5581579060
20
74.4280651917
30
0.0000000000
10
54.2689214434
20
74.8214754076
30
0.0000000000
10
54.0204694085
20
75.2480102863
30
0.0000000000
10
53.8194405739
20
75.6962555059
30
0.0000000000
10
53.6712191930
20
76.1542804379
30
0.0000000000
10
53.5797965952
20
76.6097699071
30
0.0000000000
10
53.5577684895
20
76.9126725759
30
0.0000000000
10
53.5577684895
20
77.0601274596
30
0.0000000000
11
56.5894510877
21
73.2712165893
31
0.0000000000
11
56.3344967744
21
73.2914630006
31
0.0000000000
11
55.9713082058
21
73.3843445350
31
0.0000000000
11
55.6030977261
21
73.5501136375
31
0.0000000000
11
55.2399091575
21
73.7842485592
31
0.0000000000
11
54.8916493372
21
74.0803627097
31
0.0000000000
11
54.5678178854
21
74.4303788670
31
0.0000000000
11
54.2772480799
21
74.8247495027
31
0.0000000000
11
54.0278659076
21
75.2527172139
31
0.0000000000
11
53.8264738639
21
75.7026081570
31
0.0000000000
11
53.6785653989
21
76.1621504800
31
0.0000000000
11
53.5881750699
21
76.6188090661
31
0.0000000000
11
53.5577684895
21
77.0601274596
31
0.0000000000
0
SPLINE
5
26A
100
AcDbEntity
8
0
100
AcDbSpline
62
0
6
CONTINUOUS
70
0
71
3
72
22
73
18
74
16
42
0.0000001000
43
0.0000001000
44
0.0000000001
12
-5.2146538962
22
-2.8954029982
32
0.0000000000
13
0.0000000000
23
5.9493454944
33
0.0000000000
40
0.0000000000
40
0.0000000000
40
0.0000000000
40
0.0000000000
40
0.0271049669
40
0.0789595243
40
0.1333150175
40
0.1913176227
40
0.2535922603
40
0.3202683981
40
0.3910601662
40
0.4653572087
40
0.5423094836
40
0.6209031801
40
0.7000297111
40
0.7785506805
40
0.8553616049
40
0.9294570538
40
1.0000000000
40
1.0000000000
40
1.0000000000
40
1.0000000000
10
56.1061085249
20
72.8020530160
30
0.0000000000
10
56.0589941844
20
72.7758930819
30
0.0000000000
10
55.9168225338
20
72.7085440960
30
0.0000000000
10
55.6584963026
20
72.6415212974
30
0.0000000000
10
55.3304440625
20
72.6329646442
30
0.0000000000
10
54.9874466103
20
72.6937787846
30
0.0000000000
10
54.6376545312
20
72.8214779702
30
0.0000000000
10
54.2891129898
20
73.0124451330
30
0.0000000000
10
53.9498841669
20
73.2618640516
30
0.0000000000
10
53.6279331545
20
73.5636583760
30
0.0000000000
10
53.3309174444
20
73.9105341236
30
0.0000000000
10
53.0659631022
20
74.2941102977
30
0.0000000000
10
52.8394596340
20
74.7051145174
30
0.0000000000
10
52.6568843802
20
75.1336000124
30
0.0000000000
10
52.5226614384
20
75.5692539135
30
0.0000000000
10
52.4400616096
20
76.0014834724
30
0.0000000000
10
52.4202464587
20
76.2885595715
30
0.0000000000
10
52.4202464587
20
76.4284543580
30
0.0000000000
11
56.1061085249
21
72.8020530160
31
0.0000000000
11
55.9601096413
21
72.7329129874
31
0.0000000000
11
55.6618230072
21
72.6541871862
31
0.0000000000
11
55.3386140762
21
72.6436820446
31
0.0000000000
11
54.9984413248
21
72.7016562338
31
0.0000000000
11
54.6496809351
21
72.8266822371
31
0.0000000000
11
54.3009205455
21
73.0156814992
31
0.0000000000
11
53.9607477941
21
73.2640002310
31
0.0000000000
11
53.6375388630
21
73.5655240013
31
0.0000000000
11
53.3392522289
21
73.9128282942
31
0.0000000000
11
53.0732326986
21
74.2973613252
31
0.0000000000
11
52.8460305559
21
74.7096546151
31
0.0000000000
11
52.6632402714
21
75.1395561346
31
0.0000000000
11
52.5293627487
21
75.5764802816
31
0.0000000000
11
52.4476944966
21
76.0096685335
31
0.0000000000
11
52.4202464587
21
76.4284543580
31
0.0000000000
0
SPLINE
5
26B
100
AcDbEntity
8
0
100
AcDbSpline
62
0
6
CONTINUOUS
70
0
71
3
72
16
73
12
74
10
42
0.0000001000
43
0.0000001000
44
0.0000000001
12
-2.4425504459
22
0.8176987409
32
0.0000000000
13
-0.0000000000
23
2.5713173625
33
0.0000000000
40
0.0000000000
40
0.0000000000
40
0.0000000000
40
0.0000000000
40
0.0504479860
40
0.1573025339
40
0.2720720128
40
0.3930030299
40
0.5177172275
40
0.6434888988
40
0.7674995099
40
0.8870861066
40
1.0000000000
40
1.0000000000
40
1.0000000000
40
1.0000000000
10
56.8114397145
20
75.0816285129
30
0.0000000000
10
56.7703657976
20
75.0953789311
30
0.0000000000
10
56.6445656158
20
75.1451297047
30
0.0000000000
10
56.4413318707
20
75.2618293170
30
0.0000000000
10
56.2124933183
20
75.4475317990
30
0.0000000000
10
56.0018912811
20
75.6748164092
30
0.0000000000
10
55.8172596570
20
75.9352095246
30
0.0000000000
10
55.6654591225
20
76.2189776489
30
0.0000000000
10
55.5521619417
20
76.5155595676
30
0.0000000000
10
55.4816238700
20
76.8137999224
30
0.0000000000
10
55.4643403225
20
77.0133079061
30
0.0000000000
10
55.4643403225
20
77.1100870575
30
0.0000000000
11
56.8114397145
21
75.0816285129
31
0.0000000000
11
56.6905292845
21
75.1291123911
31
0.0000000000
11
56.4513116851
21
75.2642653563
31
0.0000000000
11
56.2212870838
21
75.4491379054
31
0.0000000000
11
56.0092951972
21
75.6766254899
31
0.0000000000
11
55.8234827545
21
75.9379858895
31
0.0000000000
11
55.6709904237
21
76.2231751707
31
0.0000000000
11
55.5576783995
21
76.5212336694
31
0.0000000000
11
55.4879011996
21
76.8207071645
31
0.0000000000
11
55.4643403225
21
77.1100870575
31
0.0000000000
0
SPLINE
5
26C
100
AcDbEntity
8
0
100
AcDbSpline
62
0
6
CONTINUOUS
70
0
71
3
72
11
73
7
74
5
42
0.0000001000
43
0.0000001000
44
0.0000000001
12
-0.6355608443
22
-1.0208267022
32
0.0000000000
13
-0.0000000000
23
-1.1997868154
33
0.0000000000
40
0.0000000000
40
0.0000000000
40
0.0000000000
40
0.0000000000
40
0.0336819421
40
0.3323324025
40
0.6540589898
40
1.0000000000
40
1.0000000000
40
1.0000000000
40
1.0000000000
10
53.8474308720
20
-128.7697153096
30
0.0000000000
10
53.8402952308
20
-128.7811764515
30
0.0000000000
10
53.7713691709
20
-128.8951689319
30
0.0000000000
10
53.6644504608
20
-129.1358756510
30
0.0000000000
10
53.5760026495
20
-129.5140154941
30
0.0000000000
10
53.5577684895
20
-129.7815922239
30
0.0000000000
10
53.5577684895
20
-129.9199440448
30
0.0000000000
11
53.8474308720
21
-128.7697153096
31
0.0000000000
11
53.8264738639
21
-128.8043681480
31
0.0000000000
11
53.6785653989
21
-129.1307330909
31
0.0000000000
11
53.5881750699
21
-129.5060038593
31
0.0000000000
11
53.5577684895
21
-129.9199440448
31
0.0000000000
0
SPLINE
5
26D
100
AcDbEntity
8
0
100
AcDbSpline
62
0
6
CONTINUOUS
70
0
71
3
72
9
73
5
74
3
42
0.0000001000
43
0.0000001000
44
0.0000000001
12
-0.0774020507
22
-0.3249917343
32
0.0000000000
13
0.0000000000
23
-0.3333616249
33
0.0000000000
40
0.0000000000
40
0.0000000000
40
0.0000000000
40
0.0000000000
40
0.1924726875
40
1.0000000000
40
1.0000000000
40
1.0000000000
40
1.0000000000
10
55.5011785060
20
-129.5389092045
30
0.0000000000
10
55.4962125791
20
-129.5597598820
30
0.0000000000
10
55.4732736736
20
-129.6687844221
30
0.0000000000
10
55.4643403225
20
-129.7802515746
30
0.0000000000
10
55.4643403225
20
-129.8699844469
30
0.0000000000
11
55.5011785060
21
-129.5389092045
31
0.0000000000
11
55.4879011996
21
-129.6018188629
31
0.0000000000
11
55.4643403225
21
-129.8699844469
31
0.0000000000
0
SPLINE
5
26E
100
AcDbEntity
8
0
100
AcDbSpline
62
0
6
CONTINUOUS
70
0
71
3
72
19
73
15
74
13
42
0.0000001000
43
0.0000001000
44
0.0000000001
12
-5.2785226904
22
0.0042757060
32
0.0000000000
13
0.0000000000
23
5.2690198186
33
0.0000000000
40
0.0000000000
40
0.0000000000
40
0.0000000000
40
0.0000000000
40
0.0484936189
40
0.1196410455
40
0.1962786098
40
0.2782894980
40
0.3650477060
40
0.4555468566
40
0.5485159720
40
0.6425232068
40
0.7360719825
40
0.8276941092
40
0.9160442233
40
1.0000000000
40
1.0000000000
40
1.0000000000
40
1.0000000000
10
56.5894510877
20
-133.7088549152
30
0.0000000000
10
56.5041261985
20
-133.7087858003
30
0.0000000000
10
56.2936328818
20
-133.6912453660
30
0.0000000000
10
55.9583649424
20
-133.6029725345
30
0.0000000000
10
55.5897656999
20
-133.4344508121
30
0.0000000000
10
55.2273685163
20
-133.1985764183
30
0.0000000000
10
54.8804797206
20
-132.9017800280
30
0.0000000000
10
54.5581579060
20
-132.5520063127
30
0.0000000000
10
54.2689214434
20
-132.1585960969
30
0.0000000000
10
54.0204694085
20
-131.7320612182
30
0.0000000000
10
53.8194405739
20
-131.2838159986
30
0.0000000000
10
53.6712191930
20
-130.8257910666
30
0.0000000000
10
53.5797965952
20
-130.3703015974
30
0.0000000000
10
53.5577684895
20
-130.0673989286
30
0.0000000000
10
53.5577684895
20
-129.9199440448
30
0.0000000000
11
56.5894510877
21
-133.7088549152
31
0.0000000000
11
56.3344967744
21
-133.6886085039
31
0.0000000000
11
55.9713082058
21
-133.5957269695
31
0.0000000000
11
55.6030977261
21
-133.4299578670
31
0.0000000000
11
55.2399091575
21
-133.1958229453
31
0.0000000000
11
54.8916493372
21
-132.8997087948
31
0.0000000000
11
54.5678178854
21
-132.5496926375
31
0.0000000000
11
54.2772480799
21
-132.1553220018
31
0.0000000000
11
54.0278659076
21
-131.7273542906
31
0.0000000000
11
53.8264738639
21
-131.2774633475
31
0.0000000000
11
53.6785653989
21
-130.8179210245
31
0.0000000000
11
53.5881750699
21
-130.3612624384
31
0.0000000000
11
53.5577684895
21
-129.9199440448
31
0.0000000000
0
SPLINE
5
26F
100
AcDbEntity
8
0
100
AcDbSpline
62
0
6
CONTINUOUS
70
0
71
3
72
22
73
18
74
16
42
0.0000001000
43
0.0000001000
44
0.0000000001
12
-5.2146538962
22
-2.8954029982
32
0.0000000000
13
0.0000000000
23
5.9493454944
33
0.0000000000
40
0.0000000000
40
0.0000000000
40
0.0000000000
40
0.0000000000
40
0.0271049669
40
0.0789595243
40
0.1333150175
40
0.1913176227
40
0.2535922603
40
0.3202683981
40
0.3910601662
40
0.4653572087
40
0.5423094836
40
0.6209031801
40
0.7000297111
40
0.7785506805
40
0.8553616049
40
0.9294570538
40
1.0000000000
40
1.0000000000
40
1.0000000000
40
1.0000000000
10
56.1061085249
20
-134.1780184884
30
0.0000000000
10
56.0589941844
20
-134.2041784226
30
0.0000000000
10
55.9168225338
20
-134.2715274085
30
0.0000000000
10
55.6584963026
20
-134.3385502071
30
0.0000000000
10
55.3304440625
20
-134.3471068603
30
0.0000000000
10
54.9874466103
20
-134.2862927199
30
0.0000000000
10
54.6376545312
20
-134.1585935343
30
0.0000000000
10
54.2891129898
20
-133.9676263715
30
0.0000000000
10
53.9498841669
20
-133.7182074529
30
0.0000000000
10
53.6279331545
20
-133.4164131285
30
0.0000000000
10
53.3309174444
20
-133.0695373809
30
0.0000000000
10
53.0659631022
20
-132.6859612068
30
0.0000000000
10
52.8394596340
20
-132.2749569871
30
0.0000000000
10
52.6568843802
20
-131.8464714920
30
0.0000000000
10
52.5226614384
20
-131.4108175909
30
0.0000000000
10
52.4400616096
20
-130.9785880321
30
0.0000000000
10
52.4202464587
20
-130.6915119330
30
0.0000000000
10
52.4202464587
20
-130.5516171465
30
0.0000000000
11
56.1061085249
21
-134.1780184884
31
0.0000000000
11
55.9601096413
21
-134.2471585171
31
0.0000000000
11
55.6618230072
21
-134.3258843182
31
0.0000000000
11
55.3386140762
21
-134.3363894599
31
0.0000000000
11
54.9984413248
21
-134.2784152706
31
0.0000000000
11
54.6496809351
21
-134.1533892674
31
0.0000000000
11
54.3009205455
21
-133.9643900053
31
0.0000000000
11
53.9607477941
21
-133.7160712734
31
0.0000000000
11
53.6375388630
21
-133.4145475031
31
0.0000000000
11
53.3392522289
21
-133.0672432103
31
0.0000000000
11
53.0732326986
21
-132.6827101792
31
0.0000000000
11
52.8460305559
21
-132.2704168894
31
0.0000000000
11
52.6632402714
21
-131.8405153699
31
0.0000000000
11
52.5293627487
21
-131.4035912229
31
0.0000000000
11
52.4476944966
21
-130.9704029709
31
0.0000000000
11
52.4202464587
21
-130.5516171465
31
0.0000000000
0
SPLINE
5
270
100
AcDbEntity
8
0
100
AcDbSpline
62
0
6
CONTINUOUS
70
0
71
3
72
16
73
12
74
10
42
0.0000001000
43
0.0000001000
44
0.0000000001
12
-2.4425504459
22
0.8176987409
32
0.0000000000
13
0.0000000000
23
2.5713173625
33
0.0000000000
40
0.0000000000
40
0.0000000000
40
0.0000000000
40
0.0000000000
40
0.0504479860
40
0.1573025339
40
0.2720720128
40
0.3930030299
40
0.5177172275
40
0.6434888988
40
0.7674995099
40
0.8870861066
40
1.0000000000
40
1.0000000000
40
1.0000000000
40
1.0000000000
10
56.8114397145
20
-131.8984429916
30
0.0000000000
10
56.7703657976
20
-131.8846925734
30
0.0000000000
10
56.6445656158
20
-131.8349417997
30
0.0000000000
10
56.4413318707
20
-131.7182421875
30
0.0000000000
10
56.2124933183
20
-131.5325397055
30
0.0000000000
10
56.0018912811
20
-131.3052550953
30
0.0000000000
10
55.8172596570
20
-131.0448619799
30
0.0000000000
10
55.6654591225
20
-130.7610938556
30
0.0000000000
10
55.5521619417
20
-130.4645119369
30
0.0000000000
10
55.4816238700
20
-130.1662715820
30
0.0000000000
10
55.4643403225
20
-129.9667635984
30
0.0000000000
10
55.4643403225
20
-129.8699844469
30
0.0000000000
11
56.8114397145
21
-131.8984429916
31
0.0000000000
11
56.6905292845
21
-131.8509591134
31
0.0000000000
11
56.4513116851
21
-131.7158061482
31
0.0000000000
11
56.2212870838
21
-131.5309335991
31
0.0000000000
11
56.0092951972
21
-131.3034460146
31
0.0000000000
11
55.8234827545
21
-131.0420856149
31
0.0000000000
11
55.6709904237
21
-130.7568963337
31
0.0000000000
11
55.5576783995
21
-130.4588378351
31
0.0000000000
11
55.4879011996
21
-130.1593643400
31
0.0000000000
11
55.4643403225
21
-129.8699844469
31
0.0000000000
0
SPLINE
5
271
100
AcDbEntity
8
0
100
AcDbSpline
62
9
6
CONTINUOUS
70
0
71
3
72
14
73
10
74
8
42
0.0000001000
43
0.0000001000
44
0.0000000001
12
-4.9899982432
22
2.1966348207
32
0.0000000000
13
-4.4949548763
23
-3.0974476368
33
0.0000000000
40
0.0000000000
40
0.0000000000
40
0.0000000000
40
0.0000000000
40
0.1643968062
40
0.3206283716
40
0.4691868996
40
0.6110402629
40
0.7476704837
40
0.8810005834
40
1.0000000000
40
1.0000000000
40
1.0000000000
40
1.0000000000
10
-198.0800663925
20
209.7696083822
30
0.0000000000
10
-198.3535129838
20
209.8899816318
30
0.0000000000
10
-198.8996965499
20
210.0971082946
30
0.0000000000
10
-199.7291983879
20
210.3035776801
30
0.0000000000
10
-200.5383468591
20
210.3951208029
30
0.0000000000
10
-201.3170020908
20
210.3699165373
30
0.0000000000
10
-202.0551690025
20
210.2275601438
30
0.0000000000
10
-202.7201907913
20
209.9777676910
30
0.0000000000
10
-203.1186730797
20
209.7467800023
30
0.0000000000
10
-203.2969720823
20
209.6239151818
30
0.0000000000
11
-198.0800663925
21
209.7696083822
31
0.0000000000
11
-198.9190407809
21
210.0850236534
31
0.0000000000
11
-199.7462607340
21
210.2881269098
31
0.0000000000
11
-200.5513868662
21
210.3764342292
31
0.0000000000
11
-201.3242937258
21
210.3488950133
31
0.0000000000
11
-202.0553633689
21
210.2059145889
31
0.0000000000
11
-202.7354965615
21
209.9493161567
31
0.0000000000
11
-203.2969720823
21
209.6239151818
31
0.0000000000
0
ENDSEC
0
SECTION
2
OBJECTS
0
DICTIONARY
5
C
100
AcDbDictionary
280
0
281
1
3
ACAD_GROUP
350
D
3
ACAD_MLINESTYLE
350
17
3
ACAD_LAYOUT
350
1A
3
ACAD_PLOTSETTINGS
350
19
3
ACAD_PLOTSTYLENAME
350
E
0
DICTIONARY
5
D
102
{ACAD_REACTORS
330
C
102
}
100
AcDbDictionary
280
0
281
1
0
ACDBDICTIONARYWDFLT
5
E
102
{ACAD_REACTORS
330
C
102
}
100
AcDbDictionary
281
1
3
Normal
350
F
100
AcDbDictionaryWithDefault
340
F
0
DICTIONARY
5
17
102
{ACAD_REACTORS
330
C
102
}
100
AcDbDictionary
280
0
281
1
3
Standard
350
18
0
DICTIONARY
5
19
102
{ACAD_REACTORS
330
C
102
}
100
AcDbDictionary
281
1
0
DICTIONARY
5
1A
102
{ACAD_REACTORS
330
C
102
}
100
AcDbDictionary
281
1
3
Layout1
350
1E
3
Model
350
22
0
ACDBPLACEHOLDER
5
F
102
{ACAD_REACTORS
330
E
102
}
0
MLINESTYLE
5
18
102
{ACAD_REACTORS
330
17
102
}
100
AcDbMlineStyle
2
STANDARD
70
0
3

62
256
51
90.0
52
90.0
71
2
49
0.5
62
256
6
BYLAYER
49
-0.5
62
256
6
BYLAYER
0
LAYOUT
5
1E
102
{ACAD_REACTORS
330
1A
102
}
100
AcDbPlotSettings
1

2

4

6

40
0.0
41
0.0
42
0.0
43
0.0
44
0.0
45
0.0
46
0.0
47
0.0
48
0.0
49
0.0
140
0.0
141
0.0
142
1.0
143
1.0
70
0
72
0
73
0
74
0
7

75
0
147
1.0
148
0.0
149
0.0
100
AcDbLayout
1
Layout1
70
0
71
0
10
0.0
20
0.0
11
0.0
21
0.0
12
0.0
22
0.0
32
0.0
14
0.0
24
0.0
34
0.0
15
0.0
25
0.0
35
0.0
146
0.0
13
0.0
23
0.0
33
0.0
16
0.0
26
0.0
36
0.0
17
0.0
27
0.0
37
0.0
76
0
330
1B
331
0
345
0
346
0
0
LAYOUT
5
22
102
{ACAD_REACTORS
330
1A
102
}
100
AcDbPlotSettings
1

2

4

6

40
0.0
41
0.0
42
0.0
43
0.0
44
0.0
45
0.0
46
0.0
47
0.0
48
0.0
49
0.0
140
0.0
141
0.0
142
1.0
143
1.0
70
0
72
0
73
0
74
0
7

75
0
147
1.0
148
0.0
149
0.0
100
AcDbLayout
1
Model
70
0
71
0
10
0.0
20
0.0
11
0.0
21
0.0
12
0.0
22
0.0
32
0.0
14
0.0
24
0.0
34
0.0
15
0.0
25
0.0
35
0.0
146
0.0
13
0.0
23
0.0
33
0.0
16
0.0
26
0.0
36
0.0
17
0.0
27
0.0
37
0.0
76
0
330
1F
331
0
345
0
346
0
0
ENDSEC
0
EOF
