  0
SECTION
  2
HEADER
  9
$ACADVER
  1
AC1024
  9
$DWGCODEPAGE
  3
ANSI_1252
  9
$EXTMAX
 10
420.0
 20
297.0
 30
0.0
  9
$EXTMIN
 10
0.0
 20
-0.0
 30
0.0
  9
$LIMMIN
 10
0.0
 20
-0.0
  9
$LIMMAX
 10
420.0
 20
297.0
  9
$VIEWCTR
 10
210.0
 20
148.5
  9
$VIEWSIZE
 40
297.0
  9
$CLAYER
  8
0
  9
$LTSCALE
 40
23.1
  9
$CELTYPE
  6
BYLAYER
  9
$DIMSCALE
 40
1.0
  9
$DIMASZ
 40
3.0
  9
$DIMEXO
 40
0.5
  9
$DIMDLI
 40
15.96
  9
$DIMEXE
 40
1.5
  9
$DIMCEN
 40
3.78
  9
$DIMLFAC
 40
1.0
  9
$DIMBLK
  1
_FILLED
  9
$DIMALT
 70
0
  9
$DIMALTF
 40
0.0393700787
  9
$DIMTXT
 40
3.0
  9
$DIMTOL
 70
1
  9
$DIMLIM
 70
0
  9
$DIMTFAC
 40
1.0
  9
$DIMTP
 40
0.01
  9
$DIMTM
 40
0.01
  9
$DIMGAP
 40
0.625
  9
$DIMDSEP
 70
44
  9
$AUNITS
 70
0
  9
$PDMODE
 70
3
  9
$PDSIZE
 40
3.0
  9
$HANDSEED
  5
492
  9
$TILEMODE
 70
1
  9
$MEASUREMENT
 70
1
  9
$INSUNITS
 70
4
  0
ENDSEC
  0
SECTION
  2
CLASSES
  0
CLASS
  1
ACDBDICTIONARYWDFLT
  2
AcDbDictionaryWithDefault
  3
AutoCAD 2000
 90
0
 91
1
280
0
281
0
  0
CLASS
  1
ACDBPLACEHOLDER
  2
AcDbPlaceHolder
  3
AutoCAD 2000
 90
0
 91
1
280
0
281
0
  0
CLASS
  1
LAYOUT
  2
AcDbLayout
  3
AutoCAD 2000
 90
0
 91
0
280
0
281
0
  0
ENDSEC
  0
SECTION
  2
TABLES
  0
TABLE
  2
VPORT
  5
8
100
AcDbSymbolTable
 70
2
  0
VPORT
  5
1F4
100
AcDbSymbolTableRecord
100
AcDbViewportTableRecord
  2
*ACTIVE
 70
0
 10
0.0
 20
0.0
 11
1.0
 21
1.0
 12
210.0
 22
148.5
 13
0.0
 23
0.0
 14
1.0
 24
1.0
 15
0.0
 25
0.0
 16
0.0
 26
0.0
 36
1.0
 17
0.0
 27
0.0
 37
0.0
 40
297.0
 41
1.4141414141
 42
50.0
 43
0.0
 44
0.0
 50
0.0
 51
0.0
 71
0
 72
100
 73
1
 74
1
 75
0
 76
0
 77
0
 78
0
  0
ENDTAB
  0
TABLE
  2
LTYPE
  5
5
100
AcDbSymbolTable
 70
6
  0
LTYPE
  5
14
100
AcDbSymbolTableRecord
100
AcDbLinetypeTableRecord
  2
BYBLOCK
 70
0
  3

 72
65
 73
0
 40
0.0
  0
LTYPE
  5
15
100
AcDbSymbolTableRecord
100
AcDbLinetypeTableRecord
  2
BYLAYER
 70
0
  3

 72
65
 73
0
 40
0.0
  0
LTYPE
  5
16
100
AcDbSymbolTableRecord
100
AcDbLinetypeTableRecord
  2
CONTINUOUS
 70
64
  3
Solid line
 72
65
 73
0
 40
0.0
  0
LTYPE
  5
1F5
100
AcDbSymbolTableRecord
100
AcDbLinetypeTableRecord
  2
CENTER
 70
64
  3
____ _ ____ _ ____ _ ____ _ ____ _ ____ _ ____
 72
65
 73
4
 40
0.6
 49
0.375
 74
0
 49
-0.075
 74
0
 49
0.075
 74
0
 49
-0.075
 74
0
  0
LTYPE
  5
1F6
100
AcDbSymbolTableRecord
100
AcDbLinetypeTableRecord
  2
HIDDEN
 70
64
  3
- - - - - - - - - - - - - - - - - - - -
 72
65
 73
2
 40
0.2
 49
0.1
 74
0
 49
-0.1
 74
0
  0
LTYPE
  5
1F7
100
AcDbSymbolTableRecord
100
AcDbLinetypeTableRecord
  2
PHANTOM
 70
64
  3
_____ _ _ _____ _ _ _____ _ _ _____
 72
65
 73
6
 40
0.8
 49
0.45
 74
0
 49
-0.05
 74
0
 49
0.1
 74
0
 49
-0.05
 74
0
 49
0.1
 74
0
 49
-0.05
 74
0
  0
LTYPE
  5
1F8
100
AcDbSymbolTableRecord
100
AcDbLinetypeTableRecord
  2
DOT
 70
64
  3
. . . . . . . . . . . . . . . . . . . .
 72
65
 73
2
 40
0.2
 49
0.1
 74
0
 49
-0.1
 74
0
  0
LTYPE
  5
1F9
100
AcDbSymbolTableRecord
100
AcDbLinetypeTableRecord
  2
DASHED
 70
64
  3
- - - - - - - - - - - - - - - - - - - -
 72
65
 73
2
 40
0.2
 49
0.1
 74
0
 49
-0.1
 74
0
  0
ENDTAB
  0
TABLE
  2
LAYER
  5
2
100
AcDbSymbolTable
 70
36
  0
LAYER
  5
10
100
AcDbSymbolTableRecord
100
AcDbLayerTableRecord
  2
0
 70
0
 62
7
  6
CONTINUOUS
370
-3
390
F
  0
LAYER
  5
1FA
100
AcDbSymbolTableRecord
100
AcDbLayerTableRecord
  2
DEFAULT_1
 70
0
 62
7
  6
CENTER
370
-3
390
F
  0
LAYER
  5
1FB
100
AcDbSymbolTableRecord
100
AcDbLayerTableRecord
  2
DEFAULT_2
 70
0
 62
7
  6
HIDDEN
370
-3
390
F
  0
LAYER
  5
1FC
100
AcDbSymbolTableRecord
100
AcDbLayerTableRecord
  2
DEFAULT_3
 70
0
 62
7
  6
PHANTOM
370
-3
390
F
  0
LAYER
  5
1FD
100
AcDbSymbolTableRecord
100
AcDbLayerTableRecord
  2
ASSI
 70
0
 62
7
  6
CONTINUOUS
370
-3
390
F
  0
LAYER
  5
1FE
100
AcDbSymbolTableRecord
100
AcDbLayerTableRecord
  2
COORDINATE
 70
0
 62
7
  6
CONTINUOUS
370
-3
390
F
  0
LAYER
  5
1FF
100
AcDbSymbolTableRecord
100
AcDbLayerTableRecord
  2
COPY_PUBLISH
 70
0
 62
7
  6
CONTINUOUS
370
-3
390
F
  0
LAYER
  5
200
100
AcDbSymbolTableRecord
100
AcDbLayerTableRecord
  2
COSMETICI
 70
0
 62
7
  6
CONTINUOUS
370
-3
390
F
  0
LAYER
  5
201
100
AcDbSymbolTableRecord
100
AcDbLayerTableRecord
  2
CURVE
 70
0
 62
7
  6
CONTINUOUS
370
-3
390
F
  0
LAYER
  5
202
100
AcDbSymbolTableRecord
100
AcDbLayerTableRecord
  2
DRAFT
 70
0
 62
7
  6
CONTINUOUS
370
-3
390
F
  0
LAYER
  5
203
100
AcDbSymbolTableRecord
100
AcDbLayerTableRecord
  2
IMPORT_IGES
 70
0
 62
7
  6
CONTINUOUS
370
-3
390
F
  0
LAYER
  5
204
100
AcDbSymbolTableRecord
100
AcDbLayerTableRecord
  2
NOTE
 70
0
 62
7
  6
CONTINUOUS
370
-3
390
F
  0
LAYER
  5
205
100
AcDbSymbolTableRecord
100
AcDbLayerTableRecord
  2
PIANI
 70
0
 62
7
  6
CONTINUOUS
370
-3
390
F
  0
LAYER
  5
206
100
AcDbSymbolTableRecord
100
AcDbLayerTableRecord
  2
PUNTI
 70
0
 62
7
  6
CONTINUOUS
370
-3
390
F
  0
LAYER
  5
207
100
AcDbSymbolTableRecord
100
AcDbLayerTableRecord
  2
RACCORDO
 70
0
 62
7
  6
CONTINUOUS
370
-3
390
F
  0
LAYER
  5
208
100
AcDbSymbolTableRecord
100
AcDbLayerTableRecord
  2
SIMBOLI
 70
0
 62
7
  6
CONTINUOUS
370
-3
390
F
  0
LAYER
  5
209
100
AcDbSymbolTableRecord
100
AcDbLayerTableRecord
  2
SMUSSO
 70
0
 62
7
  6
CONTINUOUS
370
-3
390
F
  0
LAYER
  5
20A
100
AcDbSymbolTableRecord
100
AcDbLayerTableRecord
  2
SNAPLINE
 70
0
 62
7
  6
CONTINUOUS
370
-3
390
F
  0
LAYER
  5
20B
100
AcDbSymbolTableRecord
100
AcDbLayerTableRecord
  2
SUPERFICI
 70
0
 62
7
  6
CONTINUOUS
370
-3
390
F
  0
LAYER
  5
20C
100
AcDbSymbolTableRecord
100
AcDbLayerTableRecord
  2
TRASH
 70
0
 62
7
  6
CONTINUOUS
370
-3
390
F
  0
ENDTAB
  0
TABLE
  2
STYLE
  5
3
100
AcDbSymbolTable
 70
1
  0
STYLE
  5
11
100
AcDbSymbolTableRecord
100
AcDbTextStyleTableRecord
  2
STANDARD
 70
0
 40
0.0
 41
0.8
 50
0.0
 71
0
 42
0.2
  3
txt
  4

  0
STYLE
  5
20D
100
AcDbSymbolTableRecord
100
AcDbTextStyleTableRecord
  2
TEXTSTYLE_1
 70
0
 40
0.0
 41
0.8
 50
0.0
 71
0
 42
0.2
  3
gdt
  4

  0
ENDTAB
  0
TABLE
  2
VIEW
  5
6
100
AcDbSymbolTable
 70
0
  0
ENDTAB
  0
TABLE
  2
UCS
  5
7
100
AcDbSymbolTable
 70
0
  0
ENDTAB
  0
TABLE
  2
APPID
  5
9
100
AcDbSymbolTable
 70
1
  0
APPID
  5
20E
100
AcDbSymbolTableRecord
100
AcDbRegAppTableRecord
  2
ACAD
 70
0
  0
ENDTAB
  0
TABLE
  2
BLOCK_RECORD
  5
1
100
AcDbSymbolTable
 70
0
  0
BLOCK_RECORD
  5
20F
100
AcDbSymbolTableRecord
100
AcDbBlockTableRecord
  2
*Model_Space
  0
BLOCK_RECORD
  5
210
100
AcDbSymbolTableRecord
100
AcDbBlockTableRecord
  2
*Paper_Space
  0
BLOCK_RECORD
  5
211
100
AcDbSymbolTableRecord
100
AcDbBlockTableRecord
  2
_FILLED
  0
ENDTAB
  0
TABLE
  2
DIMSTYLE
  5
A
100
AcDbSymbolTable
 70
1
100
AcDbDimStyleTable
 71
0
  0
DIMSTYLE
105
212
100
AcDbSymbolTableRecord
100
AcDbDimStyleTableRecord
  2
STANDARD
 70
0
  3

  4

 40
1.0
 41
3.0
 42
0.5
 43
0.38
 44
1.5
 45
0.0
 46
0.0
 47
0.01
 48
0.01
140
3.0
141
0.09
142
0.0
143
25.4
144
1.0
145
0.0
146
1.0
147
0.625
 71
1
 72
0
 73
0
 74
0
 75
0
 76
0
 77
1
 78
8
 79
2
170
0
171
1
172
0
173
0
174
0
175
0
176
0
177
0
178
0
270
2
179
2
271
2
272
2
273
2
274
2
275
0
280
0
281
0
282
0
283
1
284
8
285
0
286
0
287
3
288
0
340
11
278
44
341
211
342
211
343
211
344
211
  0
ENDTAB
  0
ENDSEC
  0
SECTION
  2
BLOCKS
  0
BLOCK
  5
20
100
AcDbEntity
  8
0
100
AcDbBlockBegin
  2
*Model_Space
 70
0
 10
0.0
 20
0.0
 30
0.0
  3
*Model_Space
  1

  0
ENDBLK
  5
21
100
AcDbEntity
  8
0
100
AcDbBlockEnd
  0
BLOCK
  5
1C
100
AcDbEntity
  8
0
100
AcDbBlockBegin
  2
*Paper_Space
 70
0
 10
0.0
 20
0.0
 30
0.0
  3
*Paper_Space
  1

  0
ENDBLK
  5
1D
100
AcDbEntity
  8
0
100
AcDbBlockEnd
  0
BLOCK
  5
213
100
AcDbEntity
  8
0
100
AcDbBlockBegin
  2
_FILLED
 70
64
 10
0.0
 20
0.0
  3
_FILLED
  1

  0
SOLID
  5
214
100
AcDbEntity
  8
0
  6
BYBLOCK
 62
0
100
AcDbTrace
 10
0.0
 20
0.0
 11
-1.0
 21
0.3166666667
 12
-1.0
 22
-0.3166666667
 13
-1.0
 23
-0.3166666667
  0
ENDBLK
  5
215
100
AcDbEntity
  8
0
  6
BYBLOCK
 62
0
100
AcDbBlockEnd
  0
ENDSEC
  0
SECTION
  2
ENTITIES
  0
LWPOLYLINE
  5
216
100
AcDbEntity
  8
RACCORDO
100
AcDbPolyline
 62
7
  6
CONTINUOUS
 90
18
 70
0
 10
-32.0466489111
 20
-2.5731452733
 10
-32.0398447707
 20
-2.6656888546
 10
-32.0276996258
 20
-2.7597289673
 10
-32.0102134764
 20
-2.8552656114
 10
-31.9872380199
 20
-2.9528481318
 10
-31.9589215588
 20
-3.0519271837
 10
-31.9257090014
 20
-3.1508547326
 10
-31.8875252282
 20
-3.2495931634
 10
-31.8444453585
 20
-3.3481800912
 10
-31.7971396586
 20
-3.4450803273
 10
-31.745541945
 20
-3.5402675769
 10
-31.6897184011
 20
-3.6337681348
 10
-31.630537843
 20
-3.7241256968
 10
-31.5679474432
 20
-3.8112913557
 10
-31.5020000291
 20
-3.8953140187
 10
-31.4337228992
 20
-3.9748841032
 10
-31.3630803669
 20
-4.0499312926
 10
-31.3588842909
 20
-4.0539906488
  0
LWPOLYLINE
  5
217
100
AcDbEntity
  8
RACCORDO
100
AcDbPolyline
 62
7
  6
CONTINUOUS
 90
7
 70
0
 10
-32.0466489111
 20
-2.5731452733
 10
-32.0470215706
 20
-2.5623830192
 10
-32.0471984838
 20
-2.5515782302
 10
-32.0471792915
 20
-2.5407318717
 10
-32.0469636395
 20
-2.5298449131
 10
-32.0465511788
 20
-2.5189183277
 10
-32.0459415655
 20
-2.5079530923
  0
LINE
  5
218
100
AcDbEntity
  8
0
100
AcDbLine
 62
7
  6
CONTINUOUS
 10
-32.0763969617
 20
-4.942423031
 11
-32.0763969617
 21
-5.7588933078
  0
LINE
  5
219
100
AcDbEntity
  8
0
100
AcDbLine
 62
250
  6
CONTINUOUS
 10
-30.9873998998
 20
-3.5940144338
 11
-30.9873998998
 21
-3.5298233196
  0
LWPOLYLINE
  5
21A
100
AcDbEntity
  8
RACCORDO
100
AcDbPolyline
 62
7
  6
CONTINUOUS
 90
7
 70
0
 10
-31.3388347843
 20
-2.9162276856
 10
-31.3393656872
 20
-2.9272320723
 10
-31.3395414408
 20
-2.9382999543
 10
-31.3393621283
 20
-2.9494242073
 10
-31.3388279913
 20
-2.9605976156
 10
-31.3379394305
 20
-2.9718128766
 10
-31.3366970054
 20
-2.9830626059
  0
LWPOLYLINE
  5
21B
100
AcDbEntity
  8
RACCORDO
100
AcDbPolyline
 62
7
  6
CONTINUOUS
 90
16
 70
0
 10
-32.0459415655
 20
-2.5079530923
 10
-32.0409048219
 20
-2.4524483617
 10
-32.0330220456
 20
-2.3961486974
 10
-32.0222932366
 20
-2.3390540995
 10
-32.0086489539
 20
-2.2808990451
 10
-31.9921586384
 20
-2.221949057
 10
-31.9730306133
 20
-2.1630007041
 10
-31.9512328409
 20
-2.1040741492
 10
-31.9267973589
 20
-2.0451492295
 10
-31.9000286028
 20
-1.9869620247
 10
-31.870899144
 20
-1.9295243308
 10
-31.8394364112
 20
-1.8728243519
 10
-31.8060271264
 20
-1.8175627791
 10
-31.7708001967
 20
-1.7639731763
 10
-31.7336267149
 20
-1.7118219796
 10
-31.694506681
 20
-1.6611091891
  0
LWPOLYLINE
  5
21C
100
AcDbEntity
  8
RACCORDO
100
AcDbPolyline
 62
7
  6
CONTINUOUS
 90
7
 70
0
 10
-31.0027561888
 20
-13.8207751147
 10
-30.9936519824
 20
-13.8289179644
 10
-30.9731054506
 20
-13.8424468497
 10
-30.9493885122
 20
-13.8523842618
 10
-30.9226004607
 20
-13.8586648205
 10
-30.8926420026
 20
-13.8613539059
 10
-30.8595131378
 20
-13.860451518
  0
LINE
  5
21D
100
AcDbEntity
  8
RACCORDO
100
AcDbLine
 62
7
  6
CONTINUOUS
 10
-31.0027906998
 20
-13.8207406989
 11
-31.6672537242
 21
-13.1578387952
  0
LINE
  5
21E
100
AcDbEntity
  8
RACCORDO
100
AcDbLine
 62
250
  6
CONTINUOUS
 10
-31.0036228202
 20
-13.5210773687
 11
-31.6680858446
 21
-12.858175465
  0
LWPOLYLINE
  5
21F
100
AcDbEntity
  8
RACCORDO
100
AcDbPolyline
 62
7
  6
CONTINUOUS
 90
11
 70
0
 10
-31.6672192132
 20
-13.1578732111
 10
-31.6751932511
 20
-13.149091842
 10
-31.688752681
 20
-13.1287228257
 10
-31.6988438234
 20
-13.1049584761
 10
-31.7053203783
 20
-13.0781433254
 10
-31.7081296876
 20
-13.0482329287
 10
-31.7073244093
 20
-13.0152717309
 10
-31.7029162184
 20
-12.9797375989
 10
-31.6949090065
 20
-12.9417898218
 10
-31.6832988819
 20
-12.9012691105
 10
-31.6680858446
 20
-12.858175465
  0
LWPOLYLINE
  5
220
100
AcDbEntity
  8
RACCORDO
100
AcDbPolyline
 62
7
  6
CONTINUOUS
 90
22
 70
0
 10
-31.3366970054
 20
-2.9830626059
 10
-31.3321799825
 20
-3.0128256148
 10
-31.3261612678
 20
-3.0428253144
 10
-31.3186408615
 20
-3.073061705
 10
-31.3095704237
 20
-3.103679455
 10
-31.2989982943
 20
-3.134533896
 10
-31.2870694922
 20
-3.1651910214
 10
-31.2737665339
 20
-3.1956421896
 10
-31.259106903
 20
-3.2258960423
 10
-31.2432880693
 20
-3.255544499
 10
-31.2262944061
 20
-3.2845795001
 10
-31.2081415401
 20
-3.3130091053
 10
-31.1890738214
 20
-3.3404494127
 10
-31.169078218
 20
-3.3668877679
 10
-31.1481677618
 20
-3.3923368252
 10
-31.1266258994
 20
-3.4164506461
 10
-31.1044464533
 20
-3.4392094139
 10
-31.0816356009
 20
-3.4606329452
 10
-31.0584953214
 20
-3.4804347504
 10
-31.0351262746
 20
-3.498519333
 10
-31.0114278008
 20
-3.5149821893
 10
-30.9873998998
 20
-3.5298233196
  0
LINE
  5
221
100
AcDbEntity
  8
0
100
AcDbLine
 62
7
  6
CONTINUOUS
 10
-30.0824610766
 20
-6.0936966213
 11
-30.0824610766
 21
-6.910166898
  0
LINE
  5
222
100
AcDbEntity
  8
0
100
AcDbLine
 62
7
  6
CONTINUOUS
 10
-29.6652154568
 20
-4.2932360462
 11
-29.6652154568
 21
-5.109706323
  0
LINE
  5
223
100
AcDbEntity
  8
RACCORDO
100
AcDbLine
 62
250
  6
CONTINUOUS
 10
-30.5386400524
 20
-12.3144359345
 11
-31.2031030768
 21
-11.6515340308
  0
LINE
  5
224
100
AcDbEntity
  8
RACCORDO
100
AcDbLine
 62
250
  6
CONTINUOUS
 10
-29.5896885086
 20
-11.2785683819
 11
-30.254151533
 21
-10.6156664782
  0
LINE
  5
225
100
AcDbEntity
  8
0
100
AcDbLine
 62
7
  6
CONTINUOUS
 10
-27.6712795716
 20
-5.4445096364
 11
-27.6712795716
 21
-6.2609799132
  0
LINE
  5
226
100
AcDbEntity
  8
0
100
AcDbLine
 62
250
  6
CONTINUOUS
 10
-26.3304469672
 20
-7.0351598544
 11
-26.3304469672
 21
-6.2186895776
  0
LWPOLYLINE
  5
227
100
AcDbEntity
  8
RACCORDO
100
AcDbPolyline
 62
7
  6
CONTINUOUS
 90
7
 70
0
 10
-16.860620565
 20
-21.9862669813
 10
-16.8515163587
 20
-21.9944098309
 10
-16.8309698269
 20
-22.0079387163
 10
-16.8072528885
 20
-22.0178761283
 10
-16.780464837
 20
-22.024156687
 10
-16.7505063789
 20
-22.0268457725
 10
-16.7173775141
 20
-22.0259433846
  0
LINE
  5
228
100
AcDbEntity
  8
RACCORDO
100
AcDbLine
 62
7
  6
CONTINUOUS
 10
-16.8606550761
 20
-21.9862325654
 11
-17.5251181005
 21
-21.3233306617
  0
LINE
  5
229
100
AcDbEntity
  8
RACCORDO
100
AcDbLine
 62
250
  6
CONTINUOUS
 10
-16.8614871965
 20
-21.6865692353
 11
-17.5259502209
 21
-21.0236673316
  0
LINE
  5
22A
100
AcDbEntity
  8
RACCORDO
100
AcDbLine
 62
250
  6
CONTINUOUS
 10
-16.3965044287
 20
-20.4799278011
 11
-17.0609674531
 21
-19.8170258974
  0
LWPOLYLINE
  5
22B
100
AcDbEntity
  8
RACCORDO
100
AcDbPolyline
 62
7
  6
CONTINUOUS
 90
11
 70
0
 10
-17.5250835894
 20
-21.3233650776
 10
-17.5330576273
 20
-21.3145837085
 10
-17.5466170572
 20
-21.2942146923
 10
-17.5567081997
 20
-21.2704503426
 10
-17.5631847546
 20
-21.2436351919
 10
-17.5659940638
 20
-21.2137247952
 10
-17.5651887856
 20
-21.1807635974
 10
-17.5607805947
 20
-21.1452294654
 10
-17.5527733827
 20
-21.1072816883
 10
-17.5411632581
 20
-21.066760977
 10
-17.5259502209
 20
-21.0236673316
  0
LWPOLYLINE
  5
22C
100
AcDbEntity
  8
RACCORDO
100
AcDbPolyline
 62
7
  6
CONTINUOUS
 90
11
 70
0
 10
-31.0036228202
 20
-13.5210773687
 10
-31.0188358575
 20
-13.5641710142
 10
-31.0304459821
 20
-13.6046917255
 10
-31.038453194
 20
-13.6426395026
 10
-31.0428613849
 20
-13.6781736345
 10
-31.0436666632
 20
-13.7111348323
 10
-31.040857354
 20
-13.7410452291
 10
-31.034380799
 20
-13.7678603798
 10
-31.0242896566
 20
-13.7916247294
 10
-31.0107302267
 20
-13.8119937457
 10
-31.0027561888
 20
-13.8207751147
  0
LINE
  5
22D
100
AcDbEntity
  8
RACCORDO
100
AcDbLine
 62
7
  6
CONTINUOUS
 10
-31.6680858446
 20
-12.858175465
 11
-31.2031030768
 21
-11.6515340308
  0
LINE
  5
22E
100
AcDbEntity
  8
RACCORDO
100
AcDbLine
 62
7
  6
CONTINUOUS
 10
-31.0036228202
 20
-13.5210773687
 11
-30.5386400524
 21
-12.3144359345
  0
LWPOLYLINE
  5
22F
100
AcDbEntity
  8
RACCORDO
100
AcDbPolyline
 62
7
  6
CONTINUOUS
 90
22
 70
0
 10
-31.2031030768
 20
-11.6515340308
 10
-31.1827961064
 20
-11.6030106903
 10
-31.1589480511
 20
-11.5530477344
 10
-31.131558911
 20
-11.5016451629
 10
-31.1004366266
 20
-11.4485005409
 10
-31.0657732574
 20
-11.3939163034
 10
-31.0281449818
 20
-11.3387997558
 10
-30.9875022423
 20
-11.2831420008
 10
-30.9438945964
 20
-11.2269519357
 10
-30.8980468955
 20
-11.1711635582
 10
-30.8499216975
 20
-11.1157835824
 10
-30.7995564444
 20
-11.0608052943
 10
-30.7477883132
 20
-11.0071425491
 10
-30.6945938551
 20
-10.9548173358
 10
-30.639996519
 20
-10.9038076654
 10
-30.5849038278
 20
-10.8549614266
 10
-30.5293075019
 20
-10.8083147805
 10
-30.473215821
 20
-10.7638315659
 10
-30.4175611474
 20
-10.7222511878
 10
-30.3626542686
 20
-10.6838201147
 10
-30.3081843971
 20
-10.6482918782
 10
-30.254151533
 20
-10.6156664782
  0
LWPOLYLINE
  5
230
100
AcDbEntity
  8
RACCORDO
100
AcDbPolyline
 62
7
  6
CONTINUOUS
 90
16
 70
0
 10
-30.9873998998
 20
-2.0693837824
 10
-31.0265199337
 20
-2.1200965729
 10
-31.0636934155
 20
-2.1722477696
 10
-31.0989203452
 20
-2.2258373724
 10
-31.1323296301
 20
-2.2810989452
 10
-31.1637923628
 20
-2.3377989242
 10
-31.1929218216
 20
-2.395236618
 10
-31.2196905777
 20
-2.4534238229
 10
-31.2441260597
 20
-2.5123487426
 10
-31.2659238321
 20
-2.5712752974
 10
-31.2850518572
 20
-2.6302236503
 10
-31.3015421727
 20
-2.6891736384
 10
-31.3151864554
 20
-2.7473286928
 10
-31.3259152644
 20
-2.8044232907
 10
-31.3337980407
 20
-2.860722955
 10
-31.3388347843
 20
-2.9162276856
  0
LINE
  5
231
100
AcDbEntity
  8
RACCORDO
100
AcDbLine
 62
7
  6
CONTINUOUS
 10
-31.694506681
 20
-1.6611091891
 11
-28.537910157
 21
2.2657999701
  0
LWPOLYLINE
  5
232
100
AcDbEntity
  8
RACCORDO
100
AcDbPolyline
 62
7
  6
CONTINUOUS
 90
10
 70
0
 10
-28.537910157
 20
2.2657999701
 10
-28.5014904289
 20
2.3094675099
 10
-28.4642542196
 20
2.3510162615
 10
-28.4262015291
 20
2.3904462249
 10
-28.3871983765
 20
2.4278762113
 10
-28.3473787426
 20
2.4631874095
 10
-28.3071445704
 20
2.4960233852
 10
-28.2666298408
 20
2.5262653268
 10
-28.2257005728
 20
2.5540320459
 10
-28.1843567665
 20
2.5793235424
  0
LINE
  5
233
100
AcDbEntity
  8
RACCORDO
100
AcDbLine
 62
250
  6
CONTINUOUS
 10
-15.4475528848
 20
-19.4440602485
 11
-16.1120159092
 21
-18.7811583448
  0
LINE
  5
234
100
AcDbEntity
  8
0
100
AcDbLine
 62
7
  6
CONTINUOUS
 10
-26.1882875411
 20
-8.2680875666
 11
-25.5238245168
 21
-8.9309894703
  0
LINE
  5
235
100
AcDbEntity
  8
0
100
AcDbLine
 62
250
  6
CONTINUOUS
 10
-25.998215455
 20
-7.7748459446
 11
-25.3337524306
 21
-8.4377478483
  0
LWPOLYLINE
  5
236
100
AcDbEntity
  8
0
100
AcDbPolyline
 62
7
  6
CONTINUOUS
 90
19
 70
0
 10
-25.998215455
 20
-7.7748459446
 10
-25.9871718317
 20
-7.7387725739
 10
-25.9801143958
 20
-7.7002637035
 10
-25.9770431474
 20
-7.6593193333
 10
-25.9780133683
 20
-7.615422693
 10
-25.9829697766
 20
-7.569090553
 10
-25.991746527
 20
-7.5218732246
 10
-26.004472893
 20
-7.4737407547
 10
-26.021019601
 20
-7.4247230964
 10
-26.0408329846
 20
-7.3764604208
 10
-26.0640235823
 20
-7.328978275
 10
-26.0904808556
 20
-7.282251112
 10
-26.1193195224
 20
-7.2378424607
 10
-26.150620165
 20
-7.1958307756
 10
-26.1843022011
 20
-7.1561376024
 10
-26.2192386022
 20
-7.120091107
 10
-26.2550536922
 20
-7.0881340115
 10
-26.2921231472
 20
-7.059823594
 10
-26.3304469672
 20
-7.0351598544
  0
LWPOLYLINE
  5
237
100
AcDbEntity
  8
0
100
AcDbPolyline
 62
7
  6
CONTINUOUS
 90
22
 70
0
 10
-25.3337524306
 20
-8.4377478483
 10
-25.304634243
 20
-8.3462032937
 10
-25.2843009716
 20
-8.2488262793
 10
-25.2727526164
 20
-8.1456168052
 10
-25.2700391901
 20
-8.0356207564
 10
-25.27611068
 20
-7.9197922477
 10
-25.2908170479
 20
-7.800993624
 10
-25.3143734505
 20
-7.6791508782
 10
-25.3465647312
 20
-7.5543380173
 10
-25.3865953816
 20
-7.4296394065
 10
-25.4346607367
 20
-7.3050578926
 10
-25.4905654614
 20
-7.1805906287
 10
-25.5529280429
 20
-7.0593134398
 10
-25.6219093927
 20
-6.9413058135
 10
-25.6973485991
 20
-6.8264882622
 10
-25.7773814148
 20
-6.7176981477
 10
-25.8621222995
 20
-6.6150856568
 10
-25.9514567934
 20
-6.5185006028
 10
-26.0431772698
 20
-6.4303297877
 10
-26.1365478531
 20
-6.3513688121
 10
-26.2323044189
 20
-6.2808220754
 10
-26.3304469672
 20
-6.2186895776
  0
LINE
  5
238
100
AcDbEntity
  8
0
100
AcDbLine
 62
7
  6
CONTINUOUS
 10
-26.1882875411
 20
-8.2680875666
 11
-25.998215455
 21
-7.7748459446
  0
LINE
  5
239
100
AcDbEntity
  8
0
100
AcDbLine
 62
7
  6
CONTINUOUS
 10
-25.5238245168
 20
-8.9309894703
 11
-25.3337524306
 21
-8.4377478483
  0
LINE
  5
23A
100
AcDbEntity
  8
RACCORDO
100
AcDbLine
 62
7
  6
CONTINUOUS
 10
-27.8308033759
 20
1.8575253767
 11
-30.9873998998
 21
-2.0693837824
  0
LINE
  5
23B
100
AcDbEntity
  8
0
100
AcDbLine
 62
7
  6
CONTINUOUS
 10
-32.0763969617
 20
-4.942423031
 11
-30.9520445608
 21
-3.5502370493
  0
LINE
  5
23C
100
AcDbEntity
  8
RACCORDO
100
AcDbLine
 62
7
  6
CONTINUOUS
 10
-15.6584498174
 20
-21.9402300653
 11
-16.7173775141
 21
-22.0259433846
  0
LWPOLYLINE
  5
23D
100
AcDbEntity
  8
RACCORDO
100
AcDbPolyline
 62
7
  6
CONTINUOUS
 90
18
 70
0
 10
-17.9045132874
 20
-10.7386371398
 10
-17.897709147
 20
-10.8311807211
 10
-17.8855640021
 20
-10.9252208338
 10
-17.8680778527
 20
-11.020757478
 10
-17.8451023961
 20
-11.1183399984
 10
-17.8167859351
 20
-11.2174190502
 10
-17.7835733777
 20
-11.3163465991
 10
-17.7453896044
 20
-11.4150850299
 10
-17.7023097348
 20
-11.5136719578
 10
-17.6550040349
 20
-11.6105721939
 10
-17.6034063213
 20
-11.7057594435
 10
-17.5475827774
 20
-11.7992600014
 10
-17.4884022193
 20
-11.8896175633
 10
-17.4258118195
 20
-11.9767832223
 10
-17.3598644054
 20
-12.0608058853
 10
-17.2915872755
 20
-12.1403759698
 10
-17.2209447432
 20
-12.2154231591
 10
-17.2167486672
 20
-12.2194825154
  0
LWPOLYLINE
  5
23E
100
AcDbEntity
  8
RACCORDO
100
AcDbPolyline
 62
7
  6
CONTINUOUS
 90
7
 70
0
 10
-17.9045132874
 20
-10.7386371398
 10
-17.9048859468
 20
-10.7278748858
 10
-17.9050628601
 20
-10.7170700968
 10
-17.9050436678
 20
-10.7062237383
 10
-17.9048280158
 20
-10.6953367797
 10
-17.9044155551
 20
-10.6844101943
 10
-17.9038059417
 20
-10.6734449589
  0
LINE
  5
23F
100
AcDbEntity
  8
0
100
AcDbLine
 62
7
  6
CONTINUOUS
 10
-17.934261338
 20
-13.1079148976
 11
-17.934261338
 21
-13.9243851744
  0
LINE
  5
240
100
AcDbEntity
  8
0
100
AcDbLine
 62
7
  6
CONTINUOUS
 10
-30.0824610766
 20
-6.0936966213
 11
-28.9581086756
 21
-4.7015106395
  0
LWPOLYLINE
  5
241
100
AcDbEntity
  8
RACCORDO
100
AcDbPolyline
 62
7
  6
CONTINUOUS
 90
10
 70
0
 10
-15.6584498174
 20
-21.9402300653
 10
-15.6287360075
 20
-21.9366037893
 10
-15.597438475
 20
-21.9305150777
 10
-15.56455722
 20
-21.9219639303
 10
-15.5299705401
 20
-21.9109048514
 10
-15.4938001376
 20
-21.8973833368
 10
-15.4564111198
 20
-21.8815358738
 10
-15.417925189
 20
-21.8634079582
 10
-15.3782206428
 20
-21.8429540943
 10
-15.3372974812
 20
-21.8201742819
  0
LINE
  5
242
100
AcDbEntity
  8
0
100
AcDbLine
 62
7
  6
CONTINUOUS
 10
-12.1883113435
 20
-15.2006517209
 11
-13.5291439479
 21
-14.4264717797
  0
LINE
  5
243
100
AcDbEntity
  8
0
100
AcDbLine
 62
7
  6
CONTINUOUS
 10
-15.2656705501
 20
-13.4238230834
 11
-15.523079833
 21
-13.2751981895
  0
LINE
  5
244
100
AcDbEntity
  8
0
100
AcDbLine
 62
7
  6
CONTINUOUS
 10
-26.3304469672
 20
-7.0351598544
 11
-27.6712795716
 21
-6.2609799132
  0
LINE
  5
245
100
AcDbEntity
  8
0
100
AcDbLine
 62
7
  6
CONTINUOUS
 10
-29.4078061738
 20
-5.2583312168
 11
-29.6652154568
 21
-5.109706323
  0
LINE
  5
246
100
AcDbEntity
  8
0
100
AcDbLine
 62
7
  6
CONTINUOUS
 10
-27.6712795716
 20
-5.4445096364
 11
-26.3304469672
 21
-6.2186895776
  0
LINE
  5
247
100
AcDbEntity
  8
0
100
AcDbLine
 62
7
  6
CONTINUOUS
 10
-13.5291439479
 20
-13.6100015029
 11
-12.1883113435
 21
-14.3841814441
  0
LINE
  5
248
100
AcDbEntity
  8
0
100
AcDbLine
 62
7
  6
CONTINUOUS
 10
-14.8159730519
 20
-12.867002506
 11
-15.523079833
 21
-12.4587279127
  0
LINE
  5
249
100
AcDbEntity
  8
0
100
AcDbLine
 62
7
  6
CONTINUOUS
 10
-16.809908937
 20
-11.7157289158
 11
-16.8452642761
 21
-11.6953151862
  0
LINE
  5
24A
100
AcDbEntity
  8
0
100
AcDbLine
 62
7
  6
CONTINUOUS
 10
-28.9581086756
 20
-4.7015106395
 11
-29.6652154568
 21
-4.2932360462
  0
LINE
  5
24B
100
AcDbEntity
  8
0
100
AcDbLine
 62
7
  6
CONTINUOUS
 10
-30.9520445608
 20
-3.5502370493
 11
-30.9873998998
 21
-3.5298233196
  0
LINE
  5
24C
100
AcDbEntity
  8
RACCORDO
100
AcDbLine
 62
250
  6
CONTINUOUS
 10
-17.1945613816
 20
-11.1485544724
 11
-17.9045132874
 21
-10.7386371398
  0
LINE
  5
24D
100
AcDbEntity
  8
RACCORDO
100
AcDbLine
 62
250
  6
CONTINUOUS
 10
-31.3366970054
 20
-2.9830626059
 11
-32.0466489111
 21
-2.5731452733
  0
LINE
  5
24E
100
AcDbEntity
  8
0
100
AcDbLine
 62
7
  6
CONTINUOUS
 10
-12.0461519174
 20
-16.4335794331
 11
-11.381688893
 21
-17.0964813368
  0
LINE
  5
24F
100
AcDbEntity
  8
0
100
AcDbLine
 62
250
  6
CONTINUOUS
 10
-11.8560798313
 20
-15.9403378112
 11
-11.1916168069
 21
-16.6032397148
  0
LWPOLYLINE
  5
250
100
AcDbEntity
  8
RACCORDO
100
AcDbPolyline
 62
7
  6
CONTINUOUS
 90
22
 70
0
 10
-17.1945613816
 20
-11.1485544724
 10
-17.1900443587
 20
-11.1783174813
 10
-17.1840256441
 20
-11.208317181
 10
-17.1765052378
 20
-11.2385535715
 10
-17.1674348
 20
-11.2691713216
 10
-17.1568626705
 20
-11.3000257625
 10
-17.1449338684
 20
-11.330682888
 10
-17.1316309102
 20
-11.3611340561
 10
-17.1169712793
 20
-11.3913879088
 10
-17.1011524456
 20
-11.4210363655
 10
-17.0841587824
 20
-11.4500713667
 10
-17.0660059164
 20
-11.4785009719
 10
-17.0469381977
 20
-11.5059412793
 10
-17.0269425942
 20
-11.5323796344
 10
-17.0060321381
 20
-11.5578286918
 10
-16.9844902757
 20
-11.5819425126
 10
-16.9623108295
 20
-11.6047012805
 10
-16.9394999772
 20
-11.6261248118
 10
-16.9163596977
 20
-11.645926617
 10
-16.8929906509
 20
-11.6640111995
 10
-16.869292177
 20
-11.6804740559
 10
-16.8452642761
 20
-11.6953151862
  0
LINE
  5
251
100
AcDbEntity
  8
0
100
AcDbLine
 62
250
  6
CONTINUOUS
 10
-16.8452642761
 20
-11.7595063004
 11
-16.8452642761
 21
-11.6953151862
  0
LINE
  5
252
100
AcDbEntity
  8
0
100
AcDbLine
 62
7
  6
CONTINUOUS
 10
-15.9403254528
 20
-14.2591884878
 11
-15.9403254528
 21
-15.0756587646
  0
LINE
  5
253
100
AcDbEntity
  8
0
100
AcDbLine
 62
7
  6
CONTINUOUS
 10
-15.523079833
 20
-12.4587279127
 11
-15.523079833
 21
-13.2751981895
  0
LWPOLYLINE
  5
254
100
AcDbEntity
  8
RACCORDO
100
AcDbPolyline
 62
7
  6
CONTINUOUS
 90
7
 70
0
 10
-17.1966991605
 20
-11.0817195522
 10
-17.1972300634
 20
-11.0927239389
 10
-17.1974058171
 20
-11.1037918209
 10
-17.1972265046
 20
-11.1149160739
 10
-17.1966923676
 20
-11.1260894821
 10
-17.1958038068
 20
-11.1373047432
 10
-17.1945613816
 20
-11.1485544724
  0
LWPOLYLINE
  5
255
100
AcDbEntity
  8
RACCORDO
100
AcDbPolyline
 62
7
  6
CONTINUOUS
 90
16
 70
0
 10
-17.9038059417
 20
-10.6734449589
 10
-17.8987691982
 20
-10.6179402282
 10
-17.8908864219
 20
-10.5616405639
 10
-17.8801576129
 20
-10.504545966
 10
-17.8665133301
 20
-10.4463909116
 10
-17.8500230147
 20
-10.3874409236
 10
-17.8308949896
 20
-10.3284925706
 10
-17.8090972172
 20
-10.2695660158
 10
-17.7846617351
 20
-10.2106410961
 10
-17.7578929791
 20
-10.1524538912
 10
-17.7287635203
 20
-10.0950161974
 10
-17.6973007875
 20
-10.0383162184
 10
-17.6638915026
 20
-9.9830546457
 10
-17.628664573
 20
-9.9294650428
 10
-17.5914910912
 20
-9.8773138462
 10
-17.5523710573
 20
-9.8266010557
  0
LWPOLYLINE
  5
256
100
AcDbEntity
  8
RACCORDO
100
AcDbPolyline
 62
7
  6
CONTINUOUS
 90
10
 70
0
 10
-27.4772499853
 20
2.1710489491
 10
-27.5185937916
 20
2.1457574525
 10
-27.5595230596
 20
2.1179907335
 10
-27.6000377892
 20
2.0877487918
 10
-27.6402719614
 20
2.0549128162
 10
-27.6800915953
 20
2.019601618
 10
-27.7190947479
 20
1.9821716315
 10
-27.7571474384
 20
1.9427416682
 10
-27.7943836477
 20
1.9011929166
 10
-27.8308033759
 20
1.8575253767
  0
LINE
  5
257
100
AcDbEntity
  8
RACCORDO
100
AcDbLine
 62
7
  6
CONTINUOUS
 10
-4.445511614
 20
16.2858352158
 11
-28.1843567665
 21
2.5793235424
  0
LINE
  5
258
100
AcDbEntity
  8
RACCORDO
100
AcDbLine
 62
7
  6
CONTINUOUS
 10
-3.7384048328
 20
15.8775606225
 11
-27.4772499853
 21
2.1710489491
  0
LWPOLYLINE
  5
259
100
AcDbEntity
  8
RACCORDO
100
AcDbPolyline
 62
7
  6
CONTINUOUS
 90
10
 70
0
 10
-4.445511614
 20
16.2858352158
 10
-4.4041678076
 20
16.3082865106
 10
-4.3632385396
 20
16.3277838842
 10
-4.32272381
 20
16.3443273368
 10
-4.2824896378
 20
16.3579527748
 10
-4.242670004
 20
16.3686242916
 10
-4.2036668513
 20
16.3762341681
 10
-4.1656141608
 20
16.380746498
 10
-4.1283779515
 20
16.3821971876
 10
-4.0919582234
 20
16.3805862368
  0
LINE
  5
25A
100
AcDbEntity
  8
RACCORDO
100
AcDbLine
 62
250
  6
CONTINUOUS
 10
-16.8452642761
 20
-10.234875649
 11
-17.5523710573
 21
-9.8266010557
  0
LINE
  5
25B
100
AcDbEntity
  8
RACCORDO
100
AcDbLine
 62
250
  6
CONTINUOUS
 10
-30.9873998998
 20
-2.0693837824
 11
-31.694506681
 21
-1.6611091891
  0
LINE
  5
25C
100
AcDbEntity
  8
0
100
AcDbLine
 62
7
  6
CONTINUOUS
 10
-13.5291439479
 20
-13.6100015029
 11
-13.5291439479
 21
-14.4264717797
  0
LINE
  5
25D
100
AcDbEntity
  8
RACCORDO
100
AcDbLine
 62
250
  6
CONTINUOUS
 10
-31.3388347843
 20
-2.9162276856
 11
0.1231799662
 21
15.2495453196
  0
LINE
  5
25E
100
AcDbEntity
  8
ASSI
100
AcDbLine
 62
7
  6
CONTINUOUS
 10
7.2380671615
 20
19.9532244999
 11
7.4792089967
 21
20.0675697865
  0
LINE
  5
25F
100
AcDbEntity
  8
0
100
AcDbLine
 62
7
  6
CONTINUOUS
 10
-10.967445231
 20
5.4570897446
 11
-10.9674029547
 21
5.4565198227
  0
LWPOLYLINE
  5
260
100
AcDbEntity
  8
ASSI
100
AcDbPolyline
 62
7
  6
CONTINUOUS
 90
11
 70
0
 10
-10.8158133339
 20
5.8812631224
 10
-10.8177631676
 20
5.9387015631
 10
-10.8242848657
 20
5.9972392468
 10
-10.8353092902
 20
6.0569532002
 10
-10.8508205385
 20
6.1186038739
 10
-10.8705243792
 20
6.1817437309
 10
-10.893856648
 20
6.2446948603
 10
-10.9207950807
 20
6.3077323155
 10
-10.950624177
 20
6.3711149945
 10
-10.9817561141
 20
6.4330652157
 10
-11.013746223
 20
6.493338443
  0
LINE
  5
261
100
AcDbEntity
  8
0
100
AcDbLine
 62
250
  6
CONTINUOUS
 10
-12.1883113435
 20
-15.2006517209
 11
-12.1883113435
 21
-14.3841814441
  0
LINE
  5
262
100
AcDbEntity
  8
SUPERFICI
100
AcDbLine
 62
7
  6
CONTINUOUS
 10
-10.595496566
 20
5.7102188843
 11
-10.595496566
 21
5.122015506
  0
LWPOLYLINE
  5
263
100
AcDbEntity
  8
ASSI
100
AcDbPolyline
 62
7
  6
CONTINUOUS
 90
11
 70
0
 10
-11.2313032453
 20
7.0437909521
 10
-11.2311900551
 20
7.0532439732
 10
-11.2276640474
 20
7.0961529118
 10
-11.2190459831
 20
7.1376592275
 10
-11.2051568578
 20
7.178057826
 10
-11.1857683012
 20
7.2172614841
 10
-11.1608309157
 20
7.254770848
 10
-11.1306895393
 20
7.290281141
 10
-11.0956765963
 20
7.3235374003
 10
-11.0559038874
 20
7.3542868198
 10
-11.0116333313
 20
7.3822845045
  0
LINE
  5
264
100
AcDbEntity
  8
ASSI
100
AcDbLine
 62
250
  6
CONTINUOUS
 10
-10.9648865824
 20
5.5051108045
 11
-10.967089683
 21
5.4522966435
  0
LWPOLYLINE
  5
265
100
AcDbEntity
  8
SUPERFICI
100
AcDbPolyline
 62
7
  6
CONTINUOUS
 90
6
 70
0
 10
-10.7370751846
 20
5.3216613933
 10
-10.7345461892
 20
5.3739062297
 10
-10.7236288061
 20
5.4434366861
 10
-10.7042477148
 20
5.5119485288
 10
-10.6764610399
 20
5.579057261
 10
-10.640210657
 20
5.6451473796
  0
LINE
  5
266
100
AcDbEntity
  8
0
100
AcDbLine
 62
7
  6
CONTINUOUS
 10
-10.9674760346
 20
5.4567639782
 11
-10.967445231
 21
5.4570897446
  0
LWPOLYLINE
  5
267
100
AcDbEntity
  8
ASSI
100
AcDbPolyline
 62
250
  6
CONTINUOUS
 90
6
 70
0
 10
-10.8158133339
 20
5.8812631224
 10
-10.8639371422
 20
5.8088488128
 10
-10.9030790175
 20
5.7346521996
 10
-10.9330433004
 20
5.6590441707
 10
-10.9536802081
 20
5.5824026693
 10
-10.9648865824
 20
5.5051108045
  0
LWPOLYLINE
  5
268
100
AcDbEntity
  8
ASSI
100
AcDbPolyline
 62
250
  6
CONTINUOUS
 90
8
 70
0
 10
-10.6656303709
 20
5.7184520771
 10
-10.7117314328
 20
5.6497661834
 10
-10.7487551303
 20
5.5798163669
 10
-10.7767014634
 20
5.5086026276
 10
-10.7956819322
 20
5.4356328119
 10
-10.8055850367
 20
5.3613990734
 10
-10.8060762769
 20
5.2873778725
 10
-10.8027708122
 20
5.2606999794
  0
LINE
  5
269
100
AcDbEntity
  8
SUPERFICI
100
AcDbLine
 62
7
  6
CONTINUOUS
 10
-10.640210657
 20
5.6451473796
 11
-10.595496566
 21
5.7102188843
  0
LINE
  5
26A
100
AcDbEntity
  8
0
100
AcDbLine
 62
250
  6
CONTINUOUS
 10
4.1417792222
 20
18.4726348653
 11
4.1625733959
 21
18.4906982425
  0
LWPOLYLINE
  5
26B
100
AcDbEntity
  8
0
100
AcDbPolyline
 62
250
  6
CONTINUOUS
 90
19
 70
0
 10
4.1417792222
 20
18.4726348653
 10
4.0913390434
 20
18.4315421109
 10
4.0381759163
 20
18.3906160529
 10
3.9825593431
 20
18.3500317112
 10
3.9248366148
 20
18.3100499844
 10
3.8652557064
 20
18.2707478593
 10
3.803945485
 20
18.2320285416
 10
3.7411885045
 20
18.1940300385
 10
3.6773479672
 20
18.1569397754
 10
3.6126711083
 20
18.1207432604
 10
3.5474742458
 20
18.0855506651
 10
3.4821321773
 20
18.051532387
 10
3.4169797525
 20
18.0187561535
 10
3.3523412174
 20
17.9872605978
 10
3.2885808616
 20
17.9571965
 10
3.2260913067
 20
17.9287634539
 10
3.1652227061
 20
17.9020342691
 10
3.1062710309
 20
17.8769654678
 10
3.049531524
 20
17.8535346748
  0
LINE
  5
26C
100
AcDbEntity
  8
0
100
AcDbLine
 62
7
  6
CONTINUOUS
 10
-9.7485276554
 20
6.1097631534
 11
-9.7400476313
 21
6.1155081292
  0
LWPOLYLINE
  5
26D
100
AcDbEntity
  8
0
100
AcDbPolyline
 62
250
  6
CONTINUOUS
 90
28
 70
0
 10
-11.1176993485
 20
7.4527632409
 10
-11.2566883859
 20
7.3665118368
 10
-11.3838667131
 20
7.275831891
 10
-11.4992343301
 20
7.1807234036
 10
-11.6032367646
 20
7.0806815086
 10
-11.6954284888
 20
6.9762110721
 10
-11.7744729199
 20
6.868826692
 10
-11.8401785245
 20
6.7584859173
 10
-11.8927368358
 20
6.6452311991
 10
-11.9313858708
 20
6.5307044889
 10
-11.9559229953
 20
6.4148872559
 10
-11.9665508433
 20
6.2977980308
 10
-11.9631153338
 20
6.1811343572
 10
-11.9454115881
 20
6.0649024346
 10
-11.9136444849
 20
5.9490960635
 10
-11.8682745793
 20
5.8353941889
 10
-11.809103702
 20
5.7238274696
 10
-11.7363300224
 20
5.6143652467
 10
-11.6510086032
 20
5.5085944886
 10
-11.5529566457
 20
5.4065689735
 10
-11.4423569486
 20
5.3082349232
 10
-11.3208129713
 20
5.2150179713
 10
-11.1881652745
 20
5.126992665
 10
-11.0445732975
 20
5.0440844571
 10
-10.8921188171
 20
4.9674953394
 10
-10.730672722
 20
4.8973173702
 10
-10.5603641234
 20
4.8334584913
 10
-10.3836621323
 20
4.7768445199
  0
LINE
  5
26E
100
AcDbEntity
  8
0
100
AcDbLine
 62
7
  6
CONTINUOUS
 10
1.9611658911
 20
15.4942656256
 11
0.478851863
 21
14.6383960835
  0
LINE
  5
26F
100
AcDbEntity
  8
0
100
AcDbLine
 62
250
  6
CONTINUOUS
 10
-30.9873998998
 20
-3.5298233196
 11
0.478851863
 21
14.6383960835
  0
LWPOLYLINE
  5
270
100
AcDbEntity
  8
0
100
AcDbPolyline
 62
250
  6
CONTINUOUS
 90
46
 70
0
 10
-11.1176993485
 20
7.4527632409
 10
-10.9683171587
 20
7.5330137692
 10
-10.8112650041
 20
7.6064449414
 10
-10.6465428846
 20
7.6730567575
 10
-10.4732764029
 20
7.7331064597
 10
-10.2923399563
 20
7.7863368059
 10
-10.1063567367
 20
7.8319760697
 10
-9.9152532214
 20
7.8699136623
 10
-9.719102933
 20
7.9002601726
 10
-9.5207496317
 20
7.922575641
 10
-9.3201612233
 20
7.9367430691
 10
-9.1173698019
 20
7.9428794554
 10
-8.9153154099
 20
7.9408958353
 10
-8.7140087845
 20
7.9306739144
 10
-8.5134391884
 20
7.9123319871
 10
-8.3165144523
 20
7.8861359723
 10
-8.1232876753
 20
7.8519714493
 10
-7.9337057582
 20
7.8099528388
 10
-7.7505172338
 20
7.7606893206
 10
-7.5738152427
 20
7.7040753492
 10
-7.4035066441
 20
7.6402164703
 10
-7.242060549
 20
7.5700385011
 10
-7.0896060686
 20
7.4934493835
 10
-6.9460140916
 20
7.4105411756
 10
-6.8133663948
 20
7.3225158693
 10
-6.6918224175
 20
7.2292989173
 10
-6.5812227204
 20
7.130964867
 10
-6.4831707629
 20
7.0289393519
 10
-6.3978493437
 20
6.9231685938
 10
-6.3250756641
 20
6.8137063709
 10
-6.2659047868
 20
6.7021396516
 10
-6.2205348812
 20
6.588437777
 10
-6.188767778
 20
6.4726314059
 10
-6.1710640323
 20
6.3563994834
 10
-6.1676285228
 20
6.2397358098
 10
-6.1782563708
 20
6.1226465847
 10
-6.2027934953
 20
6.0068293516
 10
-6.2414425303
 20
5.8923026414
 10
-6.2940008416
 20
5.7790479232
 10
-6.3597064462
 20
5.6687071485
 10
-6.4387508773
 20
5.5613227685
 10
-6.5309426015
 20
5.4568523319
 10
-6.634945036
 20
5.3568104369
 10
-6.750312653
 20
5.2617019495
 10
-6.8774909802
 20
5.1710220038
 10
-7.0164800176
 20
5.0847705996
  0
LWPOLYLINE
  5
271
100
AcDbEntity
  8
ASSI
100
AcDbPolyline
 62
7
  6
CONTINUOUS
 90
34
 70
0
 10
-11.0116333313
 20
7.3822845045
 10
-10.9683256141
 20
7.4052806055
 10
-10.9222940049
 20
7.4255861335
 10
-10.8738711618
 20
7.4431107488
 10
-10.8234196743
 20
7.4578767739
 10
-10.7712580827
 20
7.4697344256
 10
-10.7176495793
 20
7.4783505032
 10
-10.6628400258
 20
7.483751283
 10
-10.6072482234
 20
7.4858502199
 10
-10.5513960949
 20
7.484182535
 10
-10.4954967656
 20
7.4787750341
 10
-10.4399816739
 20
7.4696763657
 10
-10.3856871704
 20
7.4565686004
 10
-10.3331473482
 20
7.4397003668
 10
-10.2823206195
 20
7.419132755
 10
-10.233142384
 20
7.3943131339
 10
-10.1855322856
 20
7.3652313412
 10
-10.1399390279
 20
7.3321289071
 10
-10.0970185719
 20
7.2948666513
 10
-10.0568421446
 20
7.2536321131
 10
-10.0194231281
 20
7.2086106702
 10
-9.9851729027
 20
7.1597602145
 10
-9.9538098006
 20
7.1068209257
 10
-9.9254284509
 20
7.0504358947
 10
-9.9007476964
 20
6.9920283198
 10
-9.8795681301
 20
6.9317496323
 10
-9.8614655566
 20
6.8698718483
 10
-9.8465793557
 20
6.8080713466
 10
-9.8346648284
 20
6.7465201398
 10
-9.825303523
 20
6.6853292317
 10
-9.8183357271
 20
6.6260722079
 10
-9.8135777266
 20
6.5693142091
 10
-9.8108408732
 20
6.5146103168
 10
-9.8100335524
 20
6.4619877628
  0
LINE
  5
272
100
AcDbEntity
  8
0
100
AcDbLine
 62
7
  6
CONTINUOUS
 10
-13.5291439479
 20
-14.4264717797
 11
-15.9403254528
 21
-15.0756587646
  0
LWPOLYLINE
  5
273
100
AcDbEntity
  8
RACCORDO
100
AcDbPolyline
 62
7
  6
CONTINUOUS
 90
10
 70
0
 10
-29.8005854411
 20
-13.7747381987
 10
-29.7708716312
 20
-13.7711119228
 10
-29.7395740988
 20
-13.7650232111
 10
-29.7066928438
 20
-13.7564720637
 10
-29.6721061638
 20
-13.7454129848
 10
-29.6359357614
 20
-13.7318914702
 10
-29.5985467435
 20
-13.7160440073
 10
-29.5600608127
 20
-13.6979160917
 10
-29.5203562665
 20
-13.6774622277
 10
-29.4794331049
 20
-13.6546824154
  0
LINE
  5
274
100
AcDbEntity
  8
RACCORDO
100
AcDbLine
 62
7
  6
CONTINUOUS
 10
-29.8005854411
 20
-13.7747381987
 11
-30.8595131378
 21
-13.860451518
  0
LINE
  5
275
100
AcDbEntity
  8
RACCORDO
100
AcDbLine
 62
250
  6
CONTINUOUS
 10
-28.537910157
 20
2.2657999701
 11
-27.8308033759
 21
1.8575253767
  0
LINE
  5
276
100
AcDbEntity
  8
RACCORDO
100
AcDbLine
 62
250
  6
CONTINUOUS
 10
-14.3957745333
 20
-5.8996918965
 11
-13.6886677521
 21
-6.3079664898
  0
LINE
  5
277
100
AcDbEntity
  8
RACCORDO
100
AcDbLine
 62
250
  6
CONTINUOUS
 10
-28.1843567665
 20
2.5793235424
 11
-27.4772499853
 21
2.1710489491
  0
LINE
  5
278
100
AcDbEntity
  8
RACCORDO
100
AcDbLine
 62
250
  6
CONTINUOUS
 10
-14.0422211427
 20
-5.5861683242
 11
-13.3351143615
 21
-5.9944429175
  0
LWPOLYLINE
  5
279
100
AcDbEntity
  8
RACCORDO
100
AcDbPolyline
 62
7
  6
CONTINUOUS
 90
3
 70
0
 10
-9.734258995
 20
6.1616113104
 10
-9.7360216446
 20
6.1791586036
 10
-9.7381848858
 20
6.1967381509
  0
LWPOLYLINE
  5
27A
100
AcDbEntity
  8
RACCORDO
100
AcDbPolyline
 62
7
  6
CONTINUOUS
 90
5
 70
0
 10
-9.7313153401
 20
6.0918523202
 10
-9.7304689551
 20
6.0751799505
 10
-9.7277423036
 20
6.0583452887
 10
-9.7231582973
 20
6.041470412
 10
-9.7167117345
 20
6.024461631
  0
LWPOLYLINE
  5
27B
100
AcDbEntity
  8
ASSI
100
AcDbPolyline
 62
7
  6
CONTINUOUS
 90
16
 70
0
 10
-9.8100335524
 20
6.4619877628
 10
-9.8096235864
 20
6.4477300961
 10
-9.8084777966
 20
6.4330122057
 10
-9.8066116224
 20
6.4178297143
 10
-9.8040076329
 20
6.4019681462
 10
-9.800746216
 20
6.3856247658
 10
-9.7969965665
 20
6.369411299
 10
-9.792814385
 20
6.3534102852
 10
-9.7882414687
 20
6.3375161424
 10
-9.7834193066
 20
6.3220614776
 10
-9.7783542199
 20
6.3069348915
 10
-9.7731629796
 20
6.2922254331
 10
-9.7681143634
 20
6.2785766198
 10
-9.7633026712
 20
6.2662052511
 10
-9.758689022
 20
6.2548928814
 10
-9.7543070207
 20
6.244638758
  0
LWPOLYLINE
  5
27C
100
AcDbEntity
  8
RACCORDO
100
AcDbPolyline
 62
7
  6
CONTINUOUS
 90
5
 70
0
 10
-9.7313153401
 20
6.0918523202
 10
-9.7314256106
 20
6.1092164652
 10
-9.7319560736
 20
6.1266347651
 10
-9.7329021362
 20
6.1441015596
 10
-9.734258995
 20
6.1616113104
  0
LINE
  5
27D
100
AcDbEntity
  8
RACCORDO
100
AcDbLine
 62
7
  6
CONTINUOUS
 10
-9.7313153401
 20
6.0471150545
 11
-9.7313153401
 21
5.9975744534
  0
LINE
  5
27E
100
AcDbEntity
  8
RACCORDO
100
AcDbLine
 62
250
  6
CONTINUOUS
 10
-9.5298949514
 20
5.9011132824
 11
-9.5298949514
 21
5.8068354156
  0
LWPOLYLINE
  5
27F
100
AcDbEntity
  8
SUPERFICI
100
AcDbPolyline
 62
7
  6
CONTINUOUS
 90
4
 70
0
 10
-7.3972157224
 20
5.3216614149
 10
-7.3977784712
 20
5.2965344421
 10
-7.4051476856
 20
5.2270529838
 10
-7.4112658185
 20
5.2008440883
  0
LWPOLYLINE
  5
280
100
AcDbEntity
  8
ASSI
100
AcDbPolyline
 62
250
  6
CONTINUOUS
 90
29
 70
0
 10
-7.3313752397
 20
5.2608581428
 10
-7.3272016614
 20
5.3102637034
 10
-7.3305354923
 20
5.3841483002
 10
-7.3432863724
 20
5.4580946489
 10
-7.3652483013
 20
5.530908331
 10
-7.3965706617
 20
5.6025707253
 10
-7.4371040709
 20
5.6731004531
 10
-7.4861943795
 20
5.7413589593
 10
-7.5439811912
 20
5.8073098988
 10
-7.6103249023
 20
5.8709896167
 10
-7.6841525528
 20
5.9313685926
 10
-7.7655839501
 20
5.9883922644
 10
-7.8544992867
 20
6.0421151943
 10
-7.9494661806
 20
6.0916715483
 10
-8.0505852338
 20
6.1369948421
 10
-8.1577558443
 20
6.1781515601
 10
-8.2692438238
 20
6.2144753211
 10
-8.3851250125
 20
6.2458870561
 10
-8.5053235704
 20
6.272465834
 10
-8.6278777888
 20
6.2937824812
 10
-8.7527962843
 20
6.3097513268
 10
-8.8800704403
 20
6.3204580415
 10
-9.0077126986
 20
6.3257304639
 10
-9.1359129196
 20
6.3254468279
 10
-9.2644812429
 20
6.3197288995
 10
-9.3908605286
 20
6.3087698147
 10
-9.5141983969
 20
6.2926339522
 10
-9.6353472275
 20
6.2712569333
 10
-9.7543070207
 20
6.244638758
  0
LWPOLYLINE
  5
281
100
AcDbEntity
  8
0
100
AcDbPolyline
 62
7
  6
CONTINUOUS
 90
11
 70
0
 10
-7.1669741832
 20
5.4556285457
 10
-7.1676868963
 20
5.4531455725
 10
-7.1708133954
 20
5.4447783718
 10
-7.176992548
 20
5.4317721437
 10
-7.1871369242
 20
5.4141385347
 10
-7.2019639413
 20
5.39223345
 10
-7.2218032765
 20
5.3668134259
 10
-7.2468573211
 20
5.3385496402
 10
-7.2772799334
 20
5.3079982945
 10
-7.3132135737
 20
5.2756202028
 10
-7.354979528
 20
5.2416722421
  0
LWPOLYLINE
  5
282
100
AcDbEntity
  8
RACCORDO
100
AcDbPolyline
 62
7
  6
CONTINUOUS
 90
11
 70
0
 10
-16.8614871965
 20
-21.6865692353
 10
-16.8767002337
 20
-21.7296628807
 10
-16.8883103583
 20
-21.770183592
 10
-16.8963175703
 20
-21.8081313691
 10
-16.9007257612
 20
-21.8436655011
 10
-16.9015310394
 20
-21.8766266989
 10
-16.8987217302
 20
-21.9065370956
 10
-16.8922451753
 20
-21.9333522463
 10
-16.8821540328
 20
-21.957116596
 10
-16.8685946029
 20
-21.9774856122
 10
-16.860620565
 20
-21.9862669813
  0
LINE
  5
283
100
AcDbEntity
  8
RACCORDO
100
AcDbLine
 62
7
  6
CONTINUOUS
 10
-17.5259502209
 20
-21.0236673316
 11
-17.0609674531
 21
-19.8170258974
  0
LINE
  5
284
100
AcDbEntity
  8
RACCORDO
100
AcDbLine
 62
7
  6
CONTINUOUS
 10
-16.8614871965
 20
-21.6865692353
 11
-16.3965044287
 21
-20.4799278011
  0
LWPOLYLINE
  5
285
100
AcDbEntity
  8
RACCORDO
100
AcDbPolyline
 62
7
  6
CONTINUOUS
 90
22
 70
0
 10
-17.0609674531
 20
-19.8170258974
 10
-17.0406604826
 20
-19.7685025569
 10
-17.0168124274
 20
-19.7185396009
 10
-16.9894232873
 20
-19.6671370295
 10
-16.9583010029
 20
-19.6139924074
 10
-16.9236376337
 20
-19.5594081699
 10
-16.8860093581
 20
-19.5042916224
 10
-16.8453666186
 20
-19.4486338673
 10
-16.8017589727
 20
-19.3924438023
 10
-16.7559112717
 20
-19.3366554248
 10
-16.7077860738
 20
-19.281275449
 10
-16.6574208207
 20
-19.2262971608
 10
-16.6056526895
 20
-19.1726344156
 10
-16.5524582314
 20
-19.1203092023
 10
-16.4978608952
 20
-19.069299532
 10
-16.442768204
 20
-19.0204532932
 10
-16.3871718782
 20
-18.973806647
 10
-16.3310801973
 20
-18.9293234324
 10
-16.2754255237
 20
-18.8877430544
 10
-16.2205186449
 20
-18.8493119813
 10
-16.1660487734
 20
-18.8137837447
 10
-16.1120159092
 20
-18.7811583448
  0
LWPOLYLINE
  5
286
100
AcDbEntity
  8
0
100
AcDbPolyline
 62
250
  6
CONTINUOUS
 90
16
 70
0
 10
1.4039993196
 20
18.7895466961
 10
1.4089092374
 20
18.7983528179
 10
1.4145987306
 20
18.807014764
 10
1.4209544527
 20
18.8153578208
 10
1.4277800901
 20
18.8231465955
 10
1.4350027377
 20
18.8303684969
 10
1.4427497518
 20
18.8371882067
 10
1.4509607594
 20
18.843518336
 10
1.4594718972
 20
18.8491866985
 10
1.4683188419
 20
18.8541802584
 10
1.4773452678
 20
18.858390468
 10
1.486386848
 20
18.8617263825
 10
1.4954310473
 20
18.8641546865
 10
1.5043518109
 20
18.8656019126
 10
1.5129347898
 20
18.866029146
 10
1.5210002582
 20
18.8654320995
  0
LWPOLYLINE
  5
287
100
AcDbEntity
  8
0
100
AcDbPolyline
 62
250
  6
CONTINUOUS
 90
3
 70
0
 10
2.7217514761
 20
19.8524663759
 10
2.7615131644
 20
19.916252046
 10
2.8029681472
 20
19.9819675686
  0
LWPOLYLINE
  5
288
100
AcDbEntity
  8
0
100
AcDbPolyline
 62
250
  6
CONTINUOUS
 90
4
 70
0
 10
2.8029681472
 20
19.9819675686
 10
2.8909339089
 20
20.1194554256
 10
2.9374001283
 20
20.1913495655
 10
2.9857179356
 20
20.2651861517
  0
LWPOLYLINE
  5
289
100
AcDbEntity
  8
0
100
AcDbPolyline
 62
250
  6
CONTINUOUS
 90
3
 70
0
 10
3.0176599121
 20
20.0540021887
 10
2.9727037928
 20
19.9840222132
 10
2.8448693901
 20
19.781988478
  0
LWPOLYLINE
  5
28A
100
AcDbEntity
  8
0
100
AcDbPolyline
 62
250
  6
CONTINUOUS
 90
15
 70
0
 10
2.8448694663
 20
19.7819884538
 10
2.8232256997
 20
19.7493293952
 10
2.7996336165
 20
19.7185056013
 10
2.7743002859
 20
19.6898729196
 10
2.7475705395
 20
19.6638346463
 10
2.7196472492
 20
19.6405393385
 10
2.6905220221
 20
19.6199635221
 10
2.6604764535
 20
19.6023236066
 10
2.6298192072
 20
19.5877862884
 10
2.5985377589
 20
19.5763456537
 10
2.5669571106
 20
19.5681355381
 10
2.5353893218
 20
19.5632210894
 10
2.5038006621
 20
19.5616058584
 10
2.4724132336
 20
19.563342852
 10
2.4575623935
 20
19.5654145144
  0
LINE
  5
28B
100
AcDbEntity
  8
0
100
AcDbLine
 62
250
  6
CONTINUOUS
 10
2.9857179356
 20
20.2651861517
 11
3.1412357007
 21
20.498736259
  0
LWPOLYLINE
  5
28C
100
AcDbEntity
  8
0
100
AcDbPolyline
 62
250
  6
CONTINUOUS
 90
5
 70
0
 10
3.261669024
 20
20.4231019025
 10
3.2101637229
 20
20.3467701172
 10
3.1601481866
 20
20.2716516505
 10
3.1115048278
 20
20.1977833602
 10
3.0176599121
 20
20.0540021887
  0
LINE
  5
28D
100
AcDbEntity
  8
RACCORDO
100
AcDbLine
 62
7
  6
CONTINUOUS
 10
-17.5523710573
 20
-9.8266010557
 11
-14.3957745333
 21
-5.8996918965
  0
LWPOLYLINE
  5
28E
100
AcDbEntity
  8
0
100
AcDbPolyline
 62
250
  6
CONTINUOUS
 90
16
 70
0
 10
3.049531524
 20
17.8535346748
 10
2.9844868091
 20
17.7767358756
 10
2.9176263424
 20
17.7031933226
 10
2.8491635863
 20
17.6331418117
 10
2.7793171189
 20
17.5668049934
 10
2.708309936
 20
17.5043946582
 10
2.6363687389
 20
17.446110061
 10
2.5637232113
 20
17.3921372844
 10
2.4906052853
 20
17.3426486449
 10
2.4172484012
 20
17.2978021426
 10
2.3438867623
 20
17.2577409571
 10
2.2707545872
 20
17.2225929899
 10
2.1980853616
 20
17.1924704564
 10
2.1261110935
 20
17.1674695274
 10
2.0550615718
 20
17.1476700223
 10
1.9851636333
 20
17.1331351542
  0
LWPOLYLINE
  5
28F
100
AcDbEntity
  8
0
100
AcDbPolyline
 62
7
  6
CONTINUOUS
 90
4
 70
0
 10
-7.354979528
 20
5.2416722421
 10
-7.4028203386
 20
5.2064784814
 10
-7.4566760085
 20
5.1705487277
 10
-7.5165041777
 20
5.1343117773
  0
LINE
  5
290
100
AcDbEntity
  8
0
100
AcDbLine
 62
250
  6
CONTINUOUS
 10
8.6713387015
 20
13.9909027922
 11
-26.3304469672
 21
-6.2186895776
  0
LWPOLYLINE
  5
291
100
AcDbEntity
  8
0
100
AcDbPolyline
 62
7
  6
CONTINUOUS
 90
4
 70
0
 10
-7.5165041777
 20
5.1343117773
 10
-7.5955088769
 20
5.0912727127
 10
-7.682584031
 20
5.0490499276
 10
-7.7775200718
 20
5.0081984972
  0
LWPOLYLINE
  5
292
100
AcDbEntity
  8
0
100
AcDbPolyline
 62
7
  6
CONTINUOUS
 90
7
 70
0
 10
-10.1044401107
 20
5.9826549149
 10
-10.1298743817
 20
5.9712408857
 10
-10.1555178085
 20
5.9607986101
 10
-10.1813703909
 20
5.9513280881
 10
-10.207432129
 20
5.9428293197
 10
-10.2337030228
 20
5.9353023049
 10
-10.2601830723
 20
5.9287470437
  0
LWPOLYLINE
  5
293
100
AcDbEntity
  8
0
100
AcDbPolyline
 62
7
  6
CONTINUOUS
 90
3
 70
0
 10
-9.7765072073
 20
6.0964447517
 10
-9.760532242
 20
6.1034721112
 10
-9.7485276554
 20
6.1097631534
  0
LWPOLYLINE
  5
294
100
AcDbEntity
  8
0
100
AcDbPolyline
 62
7
  6
CONTINUOUS
 90
26
 70
0
 10
-7.7775200718
 20
5.0081984972
 10
-7.8800553884
 20
4.9692433605
 10
-7.9897452846
 20
4.9327231105
 10
-8.1060195319
 20
4.8991479687
 10
-8.2284439949
 20
4.8689289433
 10
-8.3563801091
 20
4.8424815064
 10
-8.4889062346
 20
4.8202069135
 10
-8.6254019379
 20
4.8023835325
 10
-8.7650812392
 20
4.7892664823
 10
-8.9067142238
 20
4.781074399
 10
-9.0494962947
 20
4.7779114628
 10
-9.1926314974
 20
4.7798336732
 10
-9.3348766172
 20
4.7868211343
 10
-9.4754157602
 20
4.7987875191
 10
-9.613472025
 20
4.8156005784
 10
-9.7478812879
 20
4.8370100766
 10
-9.8779175926
 20
4.8627468974
 10
-10.0029085306
 20
4.892500731
 10
-10.1218310774
 20
4.9258007161
 10
-10.2341286738
 20
4.9622091157
 10
-10.3393260615
 20
5.0012577944
 10
-10.4366217237
 20
5.0422703989
 10
-10.5255957913
 20
5.0846089464
 10
-10.6061806124
 20
5.1277329451
 10
-10.6781626793
 20
5.1709682926
 10
-10.7413189081
 20
5.2135259791
  0
LINE
  5
295
100
AcDbEntity
  8
0
100
AcDbLine
 62
7
  6
CONTINUOUS
 10
-10.1044401107
 20
5.9826549149
 11
-9.9695472066
 21
6.031835282
  0
LWPOLYLINE
  5
296
100
AcDbEntity
  8
SUPERFICI
100
AcDbPolyline
 62
7
  6
CONTINUOUS
 90
7
 70
0
 10
-9.7381848858
 20
6.1967381509
 10
-9.7262369003
 20
6.2010738725
 10
-9.7142267272
 20
6.2053497124
 10
-9.7021543665
 20
6.2095656704
 10
-9.6900198182
 20
6.2137217468
 10
-9.6778230823
 20
6.2178179414
 10
-9.6655641588
 20
6.2218542542
  0
LWPOLYLINE
  5
297
100
AcDbEntity
  8
0
100
AcDbPolyline
 62
7
  6
CONTINUOUS
 90
6
 70
0
 10
-9.9695472066
 20
6.031835282
 10
-9.8869126009
 20
6.057533355
 10
-9.8525253113
 20
6.0684075353
 10
-9.8225157046
 20
6.0786334486
 10
-9.7970682659
 20
6.0881692307
 10
-9.7765072073
 20
6.0964447517
  0
LINE
  5
298
100
AcDbEntity
  8
0
100
AcDbLine
 62
7
  6
CONTINUOUS
 10
-13.5291439479
 20
-13.6100015029
 11
-15.9403254528
 21
-14.2591884878
  0
LINE
  5
299
100
AcDbEntity
  8
0
100
AcDbLine
 62
7
  6
CONTINUOUS
 10
-15.523079833
 20
-13.2751981895
 11
-17.934261338
 21
-13.9243851744
  0
LINE
  5
29A
100
AcDbEntity
  8
0
100
AcDbLine
 62
7
  6
CONTINUOUS
 10
-15.523079833
 20
-12.4587279127
 11
-17.934261338
 21
-13.1079148976
  0
LWPOLYLINE
  5
29B
100
AcDbEntity
  8
SUPERFICI
100
AcDbPolyline
 62
7
  6
CONTINUOUS
 90
7
 70
0
 10
-9.7381848858
 20
6.1967381509
 10
-9.7402029502
 20
6.204737256
 10
-9.7424885979
 20
6.2127300928
 10
-9.7450418287
 20
6.2207166614
 10
-9.7478626428
 20
6.2286969618
 10
-9.7509510401
 20
6.236670994
 10
-9.7543070207
 20
6.244638758
  0
LWPOLYLINE
  5
29C
100
AcDbEntity
  8
SUPERFICI
100
AcDbPolyline
 62
7
  6
CONTINUOUS
 90
4
 70
0
 10
-10.7228413454
 20
5.2010749139
 10
-10.7303387958
 20
5.2353108479
 10
-10.7368254912
 20
5.3045106495
 10
-10.7370751846
 20
5.3216613933
  0
LWPOLYLINE
  5
29D
100
AcDbEntity
  8
0
100
AcDbPolyline
 62
7
  6
CONTINUOUS
 90
19
 70
0
 10
-11.8560798313
 20
-15.9403378112
 10
-11.8450362079
 20
-15.9042644404
 10
-11.837978772
 20
-15.86575557
 10
-11.8349075236
 20
-15.8248111999
 10
-11.8358777445
 20
-15.7809145596
 10
-11.8408341529
 20
-15.7345824196
 10
-11.8496109033
 20
-15.6873650912
 10
-11.8623372693
 20
-15.6392326212
 10
-11.8788839772
 20
-15.590214963
 10
-11.8986973608
 20
-15.5419522873
 10
-11.9218879585
 20
-15.4944701416
 10
-11.9483452318
 20
-15.4477429785
 10
-11.9771838987
 20
-15.4033343273
 10
-12.0084845412
 20
-15.3613226422
 10
-12.0421665773
 20
-15.3216294689
 10
-12.0771029785
 20
-15.2855829735
 10
-12.1129180684
 20
-15.2536258781
 10
-12.1499875235
 20
-15.2253154605
 10
-12.1883113435
 20
-15.2006517209
  0
LWPOLYLINE
  5
29E
100
AcDbEntity
  8
0
100
AcDbPolyline
 62
7
  6
CONTINUOUS
 90
22
 70
0
 10
-11.1916168069
 20
-16.6032397148
 10
-11.1624986193
 20
-16.5116951603
 10
-11.1421653479
 20
-16.4143181459
 10
-11.1306169927
 20
-16.3111086717
 10
-11.1279035664
 20
-16.2011126229
 10
-11.1339750562
 20
-16.0852841143
 10
-11.1486814242
 20
-15.9664854905
 10
-11.1722378268
 20
-15.8446427448
 10
-11.2044291075
 20
-15.7198298839
 10
-11.2444597579
 20
-15.5951312731
 10
-11.2925251129
 20
-15.4705497591
 10
-11.3484298377
 20
-15.3460824953
 10
-11.4107924192
 20
-15.2248053064
 10
-11.4797737689
 20
-15.1067976801
 10
-11.5552129754
 20
-14.9919801287
 10
-11.6352457911
 20
-14.8831900142
 10
-11.7199866758
 20
-14.7805775234
 10
-11.8093211696
 20
-14.6839924694
 10
-11.901041646
 20
-14.5958216543
 10
-11.9944122293
 20
-14.5168606787
 10
-12.0901687952
 20
-14.446313942
 10
-12.1883113435
 20
-14.3841814441
  0
LWPOLYLINE
  5
29F
100
AcDbEntity
  8
0
100
AcDbPolyline
 62
250
  6
CONTINUOUS
 90
19
 70
0
 10
1.4364792374
 20
19.4789068695
 10
1.4237397438
 20
19.4430713467
 10
1.4129349425
 20
19.4061991973
 10
1.4041381074
 20
19.3685081281
 10
1.397405993
 20
19.3302020443
 10
1.3927947291
 20
19.2915309469
 10
1.3903483222
 20
19.2527905136
 10
1.3900800329
 20
19.2142167109
 10
1.3919898798
 20
19.1760429844
 10
1.3960623735
 20
19.1385579581
 10
1.4022557356
 20
19.1020132104
 10
1.410524288
 20
19.0665940784
 10
1.4208227047
 20
19.0324792974
 10
1.43308242
 20
18.9998719645
 10
1.4472255679
 20
18.9689603561
 10
1.4631857431
 20
18.939894574
 10
1.4808765088
 20
18.9128397948
 10
1.5001864148
 20
18.8879690759
 10
1.521001998
 20
18.8654318507
  0
LWPOLYLINE
  5
2A0
100
AcDbEntity
  8
0
100
AcDbPolyline
 62
250
  6
CONTINUOUS
 90
19
 70
0
 10
1.3046249505
 20
19.530816856
 10
1.289286513
 20
19.4877492373
 10
1.27628708
 20
19.4435806967
 10
1.2656753667
 20
19.3984773016
 10
1.2574687563
 20
19.3524756183
 10
1.251739774
 20
19.3058730633
 10
1.2485939546
 20
19.2592262814
 10
1.2480626959
 20
19.2126738471
 10
1.25013728
 20
19.1664004129
 10
1.2548133194
 20
19.1210117273
 10
1.2620897311
 20
19.0766144045
 10
1.2719236493
 20
19.033363062
 10
1.284193565
 20
18.9918846814
 10
1.2988679011
 20
18.9522293571
 10
1.3158759945
 20
18.9144972212
 10
1.3349833201
 20
18.8793090414
 10
1.3560518392
 20
18.8468531132
 10
1.3790721726
 20
18.8169281874
 10
1.4039818348
 20
18.7895123947
  0
LWPOLYLINE
  5
2A1
100
AcDbEntity
  8
0
100
AcDbPolyline
 62
250
  6
CONTINUOUS
 90
31
 70
0
 10
0.9877235234
 20
19.7468736336
 10
0.9372925432
 20
19.6081041165
 10
0.8925740518
 20
19.4664964485
 10
0.8536906197
 20
19.3224387663
 10
0.8207488235
 20
19.1763259221
 10
0.7938389545
 20
19.0285584011
 10
0.7730347707
 20
18.8795412236
 10
0.7583932949
 20
18.7296828355
 10
0.7499546585
 20
18.5793939882
 10
0.7477419911
 20
18.429086613
 10
0.7517613575
 20
18.2791726918
 10
0.7620017409
 20
18.1300631285
 10
0.7784350731
 20
17.9821666218
 10
0.8010163116
 20
17.8358885459
 10
0.8296835626
 20
17.6916298388
 10
0.8643582512
 20
17.5497859036
 10
0.9049453366
 20
17.4107455246
 10
0.9513335724
 20
17.2748898019
 10
1.0033958116
 20
17.1425911066
 10
1.0609893552
 20
17.0142120601
 10
1.1239563434
 20
16.8901045406
 10
1.192124188
 20
16.7706087181
 10
1.2653060457
 20
16.6560521223
 10
1.3433013301
 20
16.546748745
 10
1.4258962616
 20
16.4429981791
 10
1.5128644531
 20
16.3450847976
 10
1.603967531
 20
16.2532769744
 10
1.6989557879
 20
16.1678263482
 10
1.7975688678
 20
16.0889671335
 10
1.899536479
 20
16.0169154776
 10
2.0045791353
 20
15.9518688693
  0
LINE
  5
2A2
100
AcDbEntity
  8
0
100
AcDbLine
 62
7
  6
CONTINUOUS
 10
-12.0461519174
 20
-16.4335794331
 11
-11.8560798313
 21
-15.9403378112
  0
LWPOLYLINE
  5
2A3
100
AcDbEntity
  8
0
100
AcDbPolyline
 62
7
  6
CONTINUOUS
 90
13
 70
0
 10
2.6565581578
 20
16.7175950257
 10
2.6526137612
 20
16.7093910265
 10
2.636252423
 20
16.6789795499
 10
2.6180031335
 20
16.6504137804
 10
2.5978789284
 20
16.6238122188
 10
2.5760602824
 20
16.5995155585
 10
2.5529627081
 20
16.5779938487
 10
2.5288125649
 20
16.5594039215
 10
2.503666523
 20
16.5437678167
 10
2.4777708471
 20
16.531236683
 10
2.451421287
 20
16.5219330098
 10
2.4246426254
 20
16.5157661432
 10
2.4192102967
 20
16.5148975356
  0
LINE
  5
2A4
100
AcDbEntity
  8
0
100
AcDbLine
 62
7
  6
CONTINUOUS
 10
2.7948031598
 20
17.0059909929
 11
2.719548961
 21
16.8504725965
  0
LINE
  5
2A5
100
AcDbEntity
  8
0
100
AcDbLine
 62
7
  6
CONTINUOUS
 10
2.8717382353
 20
17.1616501487
 11
2.7948031598
 21
17.0059909929
  0
LWPOLYLINE
  5
2A6
100
AcDbEntity
  8
0
100
AcDbPolyline
 62
250
  6
CONTINUOUS
 90
4
 70
0
 10
2.9057718378
 20
17.1215781395
 10
2.8705964447
 20
17.0509247813
 10
2.8347651639
 20
16.9780813945
 10
2.7607616436
 20
16.8263024577
  0
LINE
  5
2A7
100
AcDbEntity
  8
0
100
AcDbLine
 62
250
  6
CONTINUOUS
 10
3.0066869632
 20
17.3208676454
 11
2.9057718378
 21
17.1215781395
  0
LWPOLYLINE
  5
2A8
100
AcDbEntity
  8
0
100
AcDbPolyline
 62
7
  6
CONTINUOUS
 90
3
 70
0
 10
2.9775574323
 20
17.3707607386
 10
2.9503157276
 20
17.3174491373
 10
2.8717382353
 20
17.1616501487
  0
LWPOLYLINE
  5
2A9
100
AcDbEntity
  8
0
100
AcDbPolyline
 62
250
  6
CONTINUOUS
 90
16
 70
0
 10
1.855092602
 20
18.3528431128
 10
1.8599533637
 20
18.3616226684
 10
1.8655528645
 20
18.3702964114
 10
1.8717869414
 20
18.378702244
 10
1.8784394125
 20
18.3865932657
 10
1.8854368675
 20
18.3939451867
 10
1.8929298487
 20
18.4009242788
 10
1.9008661482
 20
18.4074463585
 10
1.9090736201
 20
18.4133484546
 10
1.9175752917
 20
18.4186243674
 10
1.9262290258
 20
18.4231547023
 10
1.9348846017
 20
18.4268444917
 10
1.9435377276
 20
18.4296683025
 10
1.9520614458
 20
18.4315479401
 10
1.9602317923
 20
18.4324172991
 10
1.9678931053
 20
18.4322730543
  0
LWPOLYLINE
  5
2AA
100
AcDbEntity
  8
0
100
AcDbPolyline
 62
250
  6
CONTINUOUS
 90
13
 70
0
 10
3.9816185263
 20
17.6929489922
 10
4.0118994373
 20
17.7458922464
 10
4.0392263993
 20
17.801887296
 10
4.0635351963
 20
17.8607294494
 10
4.0847288661
 20
17.9221155209
 10
4.1027540425
 20
17.9857571576
 10
4.1176390217
 20
18.0514462444
 10
4.1293418762
 20
18.1187740094
 10
4.1378772962
 20
18.1874634385
 10
4.1433634402
 20
18.2575071807
 10
4.1458397931
 20
18.3286761613
 10
4.145295992
 20
18.4005040242
 10
4.1417792222
 20
18.4726348653
  0
LWPOLYLINE
  5
2AB
100
AcDbEntity
  8
0
100
AcDbPolyline
 62
250
  6
CONTINUOUS
 90
18
 70
0
 10
3.7144652817
 20
19.5672837655
 10
3.6945729899
 20
19.5356389195
 10
3.6731524487
 20
19.5055859952
 10
3.6504512933
 20
19.4774120638
 10
3.6268806571
 20
19.4515403946
 10
3.6024966556
 20
19.4279428803
 10
3.5769632427
 20
19.4062439146
 10
3.5503954707
 20
19.3865536191
 10
3.5231246725
 20
19.3691512939
 10
3.4950731754
 20
19.3540698956
 10
3.4664089238
 20
19.3415299033
 10
3.4374091454
 20
19.3316574534
 10
3.4081496064
 20
19.3244693657
 10
3.3789551298
 20
19.3200755799
 10
3.3500599684
 20
19.318565251
 10
3.3214181754
 20
19.3200093928
 10
3.2931789855
 20
19.3244272348
 10
3.265720136
 20
19.3317762546
  0
LINE
  5
2AC
100
AcDbEntity
  8
0
100
AcDbLine
 62
250
  6
CONTINUOUS
 10
3.976734702
 20
17.6852655697
 11
3.9816185263
 21
17.6929489922
  0
LWPOLYLINE
  5
2AD
100
AcDbEntity
  8
RACCORDO
100
AcDbPolyline
 62
7
  6
CONTINUOUS
 90
16
 70
0
 10
-16.8452642761
 20
-10.234875649
 10
-16.88438431
 20
-10.2855884395
 10
-16.9215577918
 20
-10.3377396362
 10
-16.9567847214
 20
-10.391329239
 10
-16.9901940063
 20
-10.4465908118
 10
-17.0216567391
 20
-10.5032907907
 10
-17.0507861979
 20
-10.5607284846
 10
-17.077554954
 20
-10.6189156894
 10
-17.101990436
 20
-10.6778406091
 10
-17.1237882084
 20
-10.736767164
 10
-17.1429162335
 20
-10.7957155169
 10
-17.159406549
 20
-10.8546655049
 10
-17.1730508317
 20
-10.9128205594
 10
-17.1837796407
 20
-10.9699151573
 10
-17.191662417
 20
-11.0262148215
 10
-17.1966991605
 20
-11.0817195522
  0
LINE
  5
2AE
100
AcDbEntity
  8
RACCORDO
100
AcDbLine
 62
7
  6
CONTINUOUS
 10
-13.6886677521
 20
-6.3079664898
 11
-16.8452642761
 21
-10.234875649
  0
LINE
  5
2AF
100
AcDbEntity
  8
0
100
AcDbLine
 62
7
  6
CONTINUOUS
 10
-17.934261338
 20
-13.1079148976
 11
-16.809908937
 21
-11.7157289158
  0
LWPOLYLINE
  5
2B0
100
AcDbEntity
  8
RACCORDO
100
AcDbPolyline
 62
7
  6
CONTINUOUS
 90
10
 70
0
 10
-14.3957745333
 20
-5.8996918965
 10
-14.3593548052
 20
-5.8560243566
 10
-14.3221185959
 20
-5.814475605
 10
-14.2840659054
 20
-5.7750456417
 10
-14.2450627527
 20
-5.7376156552
 10
-14.2052431189
 20
-5.702304457
 10
-14.1650089467
 20
-5.6694684814
 10
-14.1244942171
 20
-5.6392265398
 10
-14.0835649491
 20
-5.6114598207
 10
-14.0422211427
 20
-5.5861683242
  0
LINE
  5
2B1
100
AcDbEntity
  8
0
100
AcDbLine
 62
7
  6
CONTINUOUS
 10
-8.7876118474
 20
-1.7074841507
 11
-7.7810967399
 21
-0.6087806944
  0
LWPOLYLINE
  5
2B2
100
AcDbEntity
  8
0
100
AcDbPolyline
 62
7
  6
CONTINUOUS
 90
19
 70
0
 10
-7.7810967399
 20
-0.6087806944
 10
-7.690293423
 20
-0.5127797404
 10
-7.5978533
 20
-0.4206334177
 10
-7.5037763709
 20
-0.3323417262
 10
-7.4073254936
 20
-0.2472944926
 10
-7.3092378102
 20
-0.1661018903
 10
-7.2117247469
 20
-0.0905944391
 10
-7.1147993568
 20
-0.0209012834
 10
-7.0184485867
 20
0.0431067213
 10
-6.9248447034
 20
0.0999864888
 10
-6.8340501055
 20
0.1495760933
 10
-6.7460023945
 20
0.1920374605
 10
-6.6626866412
 20
0.2264132821
 10
-6.5842103375
 20
0.2525198857
 10
-6.5104659915
 20
0.2705409436
 10
-6.4431161991
 20
0.2800701638
 10
-6.3827151591
 20
0.2809721157
 10
-6.3287086726
 20
0.2733822298
 10
-6.2810967399
 20
0.2573005062
  0
LWPOLYLINE
  5
2B3
100
AcDbEntity
  8
RACCORDO
100
AcDbPolyline
 62
7
  6
CONTINUOUS
 90
22
 70
0
 10
-29.5896885086
 20
-11.2785683819
 10
-29.6437213728
 20
-11.3111937819
 10
-29.6981912442
 20
-11.3467220184
 10
-29.7530981231
 20
-11.3851530915
 10
-29.8087527966
 20
-11.4267334696
 10
-29.8648444775
 20
-11.4712166842
 10
-29.9204408034
 20
-11.5178633303
 10
-29.9755334946
 20
-11.5667095691
 10
-30.0301308308
 20
-11.6177192395
 10
-30.0833252888
 20
-11.6700444528
 10
-30.13509342
 20
-11.723707198
 10
-30.1854586731
 20
-11.7786854861
 10
-30.2335838711
 20
-11.8340654619
 10
-30.2794315721
 20
-11.8898538394
 10
-30.3230392179
 20
-11.9460439045
 10
-30.3636819575
 20
-12.0017016595
 10
-30.401310233
 20
-12.0568182071
 10
-30.4359736022
 20
-12.1114024446
 10
-30.4670958866
 20
-12.1645470666
 10
-30.4944850267
 20
-12.215949638
 10
-30.518333082
 20
-12.265912594
 10
-30.5386400524
 20
-12.3144359345
  0
LINE
  5
2B4
100
AcDbEntity
  8
RACCORDO
100
AcDbLine
 62
7
  6
CONTINUOUS
 10
-30.254151533
 20
-10.6156664782
 11
-26.1882875411
 21
-8.2680875666
  0
LINE
  5
2B5
100
AcDbEntity
  8
RACCORDO
100
AcDbLine
 62
7
  6
CONTINUOUS
 10
9.7020823063
 20
12.4545621714
 11
16.7684494159
 21
16.5345939781
  0
LINE
  5
2B6
100
AcDbEntity
  8
0
100
AcDbLine
 62
250
  6
CONTINUOUS
 10
9.6680332381
 20
11.7718445214
 11
-25.3337524306
 21
-8.4377478483
  0
LINE
  5
2B7
100
AcDbEntity
  8
RACCORDO
100
AcDbLine
 62
7
  6
CONTINUOUS
 10
-29.5896885086
 20
-11.2785683819
 11
-25.5238245168
 21
-8.9309894703
  0
LINE
  5
2B8
100
AcDbEntity
  8
RACCORDO
100
AcDbLine
 62
7
  6
CONTINUOUS
 10
9.477961152
 20
11.2786028994
 11
17.4329124403
 21
15.8716920744
  0
LWPOLYLINE
  5
2B9
100
AcDbEntity
  8
RACCORDO
100
AcDbPolyline
 62
7
  6
CONTINUOUS
 90
14
 70
0
 10
16.7684494159
 20
16.5345939781
 10
16.8210672568
 20
16.5635473585
 10
16.8714947595
 20
16.5885855512
 10
16.9197319242
 20
16.6097085561
 10
16.9660231004
 20
16.6269904341
 10
17.0101239386
 20
16.6403571242
 10
17.0513013895
 20
16.649586444
 10
17.0895065895
 20
16.6546092382
 10
17.1247884023
 20
16.6554946621
 10
17.1565603695
 20
16.6522279978
 10
17.184763825
 20
16.6447398445
 10
17.209457435
 20
16.6330996032
 10
17.2302307394
 20
16.6175007592
 10
17.2328982705
 20
16.6149200261
  0
LWPOLYLINE
  5
2BA
100
AcDbEntity
  8
0
100
AcDbPolyline
 62
250
  6
CONTINUOUS
 90
6
 70
0
 10
-7.8418394098
 20
4.7511970346
 10
-7.6609029632
 20
4.8044273808
 10
-7.4876364815
 20
4.864477083
 10
-7.322914362
 20
4.9310888992
 10
-7.1658622074
 20
5.0045200714
 10
-7.0164800176
 20
5.0847705996
  0
LWPOLYLINE
  5
2BB
100
AcDbEntity
  8
ASSI
100
AcDbPolyline
 62
7
  6
CONTINUOUS
 90
11
 70
0
 10
-11.013746223
 20
6.493338443
 10
-11.0772963894
 20
6.6100161858
 10
-11.1068462359
 20
6.6653793312
 10
-11.1344304191
 20
6.7190320243
 10
-11.1592447837
 20
6.7711765448
 10
-11.1808695929
 20
6.8215527111
 10
-11.199076007
 20
6.8702321798
 10
-11.2135066735
 20
6.9178288269
 10
-11.2238544898
 20
6.9642197891
 10
-11.2298390812
 20
7.0092049035
 10
-11.2313032453
 20
7.0437909521
  0
LWPOLYLINE
  5
2BC
100
AcDbEntity
  8
RACCORDO
100
AcDbPolyline
 62
7
  6
CONTINUOUS
 90
4
 70
0
 10
-9.7167117345
 20
6.024461631
 10
-9.708501071
 20
6.007658257
 10
-9.6988481395
 20
5.9917929819
 10
-9.6881094199
 20
5.977117914
  0
LINE
  5
2BD
100
AcDbEntity
  8
SUPERFICI
100
AcDbLine
 62
7
  6
CONTINUOUS
 10
-7.4500819067
 20
5.3656076122
 11
-7.4238743972
 21
5.2880679683
  0
LINE
  5
2BE
100
AcDbEntity
  8
SUPERFICI
100
AcDbLine
 62
7
  6
CONTINUOUS
 10
-7.4238743972
 20
5.2880679683
 11
-7.4078146246
 21
5.2156283341
  0
LWPOLYLINE
  5
2BF
100
AcDbEntity
  8
RACCORDO
100
AcDbPolyline
 62
7
  6
CONTINUOUS
 90
28
 70
0
 10
-7.7239472122
 20
5.0312511538
 10
-7.7252235467
 20
5.0425271488
 10
-7.7388353396
 20
5.1046069893
 10
-7.7589258467
 20
5.1659835637
 10
-7.7853779532
 20
5.2263740967
 10
-7.8180624704
 20
5.2855500547
 10
-7.8566437023
 20
5.3430330346
 10
-7.9006866448
 20
5.3984084541
 10
-7.950033853
 20
5.451684141
 10
-8.0047669071
 20
5.5030125927
 10
-8.0647179633
 20
5.5522178309
 10
-8.1295876101
 20
5.5990407532
 10
-8.1993839042
 20
5.6434504723
 10
-8.2741504435
 20
5.6853772207
 10
-8.3533268344
 20
5.7244179064
 10
-8.4359341235
 20
5.7600966678
 10
-8.5214371026
 20
5.7922556708
 10
-8.6094976696
 20
5.8208393215
 10
-8.6992980618
 20
5.8456705085
 10
-8.7900056473
 20
5.8666546595
 10
-8.8815051115
 20
5.8838965266
 10
-8.9740596516
 20
5.8975066404
 10
-9.067401446
 20
5.9074521906
 10
-9.1609184627
 20
5.9136752107
 10
-9.2543707504
 20
5.9161649345
 10
-9.3473664499
 20
5.9148997204
 10
-9.4393657287
 20
5.9098760485
 10
-9.5298949514
 20
5.9011132824
  0
LWPOLYLINE
  5
2C0
100
AcDbEntity
  8
0
100
AcDbPolyline
 62
250
  6
CONTINUOUS
 90
14
 70
0
 10
1.8250018009
 20
19.8746238749
 10
1.8224898739
 20
19.8643191056
 10
1.8207834928
 20
19.8539158052
 10
1.8199155841
 20
19.8436109242
 10
1.8198794683
 20
19.8337203838
 10
1.8206231221
 20
19.8242899073
 10
1.8221559624
 20
19.8151054679
 10
1.8244968425
 20
19.8062686761
 10
1.8276123031
 20
19.7979958679
 10
1.8315302976
 20
19.7902870237
 10
1.8362105093
 20
19.7833052932
 10
1.8415842636
 20
19.7771905357
 10
1.8476685512
 20
19.7719705459
 10
1.8544033532
 20
19.7677615846
  0
LWPOLYLINE
  5
2C1
100
AcDbEntity
  8
0
100
AcDbPolyline
 62
7
  6
CONTINUOUS
 90
3
 70
0
 10
3.940353243
 20
20.0264534269
 10
3.9209997981
 20
19.9651781652
 10
3.865407081
 20
19.7856715607
  0
LWPOLYLINE
  5
2C2
100
AcDbEntity
  8
0
100
AcDbPolyline
 62
250
  6
CONTINUOUS
 90
5
 70
0
 10
3.9832626953
 20
20.0125609968
 10
3.9535091846
 20
19.9189008122
 10
3.9252117767
 20
19.8274652725
 10
3.8981718638
 20
19.7383467122
 10
3.8470009894
 20
19.5674355773
  0
LINE
  5
2C3
100
AcDbEntity
  8
0
100
AcDbLine
 62
7
  6
CONTINUOUS
 10
-11.381688893
 20
-17.0964813368
 11
-11.1916168069
 21
-16.6032397148
  0
LINE
  5
2C4
100
AcDbEntity
  8
0
100
AcDbLine
 62
7
  6
CONTINUOUS
 10
2.719548961
 20
16.8504725965
 11
2.6565718254
 21
16.7176244056
  0
LWPOLYLINE
  5
2C5
100
AcDbEntity
  8
0
100
AcDbPolyline
 62
250
  6
CONTINUOUS
 90
3
 70
0
 10
2.7607616436
 20
16.8263024577
 10
2.7229014875
 20
16.7472307121
 10
2.6847537651
 20
16.6658904824
  0
LINE
  5
2C6
100
AcDbEntity
  8
0
100
AcDbLine
 62
7
  6
CONTINUOUS
 10
-15.9403254528
 20
-14.2591884878
 11
-14.8159730519
 21
-12.867002506
  0
LWPOLYLINE
  5
2C7
100
AcDbEntity
  8
RACCORDO
100
AcDbPolyline
 62
7
  6
CONTINUOUS
 90
8
 70
0
 10
14.9042094102
 20
11.9718765152
 10
14.9459738613
 20
11.9968394941
 10
14.9881278511
 20
12.0236497229
 10
15.0306713795
 20
12.0523072015
 10
15.0737507061
 20
12.0829211521
 10
15.1172195713
 20
12.1153823525
 10
15.1606391967
 20
12.1493631367
 10
15.1677981856
 20
12.1552247896
  0
LINE
  5
2C8
100
AcDbEntity
  8
RACCORDO
100
AcDbLine
 62
7
  6
CONTINUOUS
 10
14.9042094102
 20
11.9718765152
 11
-5.7876118474
 21
0.0246782505
  0
LINE
  5
2C9
100
AcDbEntity
  8
RACCORDO
100
AcDbLine
 62
7
  6
CONTINUOUS
 10
-29.4794331049
 20
-13.6546824154
 11
-8.7876118474
 21
-1.7074841507
  0
LWPOLYLINE
  5
2CA
100
AcDbEntity
  8
RACCORDO
100
AcDbPolyline
 62
7
  6
CONTINUOUS
 90
10
 70
0
 10
9.6966240098
 20
8.1203433493
 10
9.7379678161
 20
8.142794644
 10
9.7788970841
 20
8.1622920177
 10
9.8194118137
 20
8.1788354703
 10
9.8596459859
 20
8.1924609082
 10
9.8994656198
 20
8.203132425
 10
9.9384687724
 20
8.2107423016
 10
9.9765214629
 20
8.2152546314
 10
10.0137576722
 20
8.216705321
 10
10.0501774004
 20
8.2150943703
  0
LWPOLYLINE
  5
2CB
100
AcDbEntity
  8
ASSI
100
AcDbPolyline
 62
250
  6
CONTINUOUS
 90
29
 70
0
 10
4.3321020713
 20
-1.7035041038
 10
4.4575192542
 20
-1.6757180199
 10
4.5860232787
 20
-1.6531179917
 10
4.7169717894
 20
-1.6358169903
 10
4.8497102117
 20
-1.6239014984
 10
4.9835750237
 20
-1.6174310784
 10
5.1178970729
 20
-1.6164380738
 10
5.2520049215
 20
-1.6209274486
 10
5.385228202
 20
-1.6308767616
 10
5.5169009691
 20
-1.646236279
 10
5.6463650275
 20
-1.6669292229
 10
5.7729732232
 20
-1.6928521551
 10
5.8960926775
 20
-1.7238754942
 10
6.0151079509
 20
-1.7598441633
 10
6.1294241198
 20
-1.8005783652
 10
6.2384697499
 20
-1.8458744811
 10
6.3416997529
 20
-1.8955060884
 10
6.4385981111
 20
-1.9492250929
 10
6.5286804569
 20
-2.0067629683
 10
6.6114964943
 20
-2.0678320991
 10
6.6866322492
 20
-2.132127218
 10
6.7537121392
 20
-2.1993269317
 10
6.8124008508
 20
-2.269095328
 10
6.8624050157
 20
-2.3410836542
 10
6.9034746773
 20
-2.4149320611
 10
6.93540454
 20
-2.4902714013
 10
6.9580349952
 20
-2.5667250748
 10
6.9712529199
 20
-2.6439109112
 10
6.9750459407
 20
-2.7131952231
  0
LWPOLYLINE
  5
2CC
100
AcDbEntity
  8
SUPERFICI
100
AcDbPolyline
 62
7
  6
CONTINUOUS
 90
39
 70
0
 10
4.4765714649
 20
-1.9436376123
 10
4.5383460085
 20
-1.9307258506
 10
4.6009651443
 20
-1.9192449259
 10
4.6644288723
 20
-1.9091948382
 10
4.7289066828
 20
-1.9005496776
 10
4.7942290856
 20
-1.8933353541
 10
4.8598876091
 20
-1.8876295979
 10
4.92591862
 20
-1.8834607221
 10
4.9922857516
 20
-1.8808004137
 10
5.0583714332
 20
-1.8796414634
 10
5.1239479849
 20
-1.8799893199
 10
5.1892430865
 20
-1.8818385345
 10
5.2543222072
 20
-1.885165552
 10
5.3189506872
 20
-1.8898936114
 10
5.3833631862
 20
-1.8960994737
 10
5.4483291527
 20
-1.9039898657
 10
5.513926458
 20
-1.9134694712
 10
5.5800772308
 20
-1.9246336065
 10
5.6473173053
 20
-1.9379749481
 10
5.7157697277
 20
-1.9533856024
 10
5.7853114519
 20
-1.970973463
 10
5.8561091738
 20
-1.9915548871
 10
5.9285891758
 20
-2.0151272432
 10
6.0023251756
 20
-2.0416931627
 10
6.0762050217
 20
-2.0720768979
 10
6.1507183642
 20
-2.1064781585
 10
6.225375553
 20
-2.1446972347
 10
6.297595486
 20
-2.1869592494
 10
6.3674146386
 20
-2.2334179471
 10
6.4347965355
 20
-2.2839195833
 10
6.4970506483
 20
-2.3382280469
 10
6.5541819919
 20
-2.3968036647
 10
6.6061855515
 20
-2.4591861099
 10
6.6503557529
 20
-2.5237582909
 10
6.6861047146
 20
-2.5905553535
 10
6.7140203183
 20
-2.6595421519
 10
6.7331606353
 20
-2.7289961569
 10
6.7431465373
 20
-2.7987431874
 10
6.7449199014
 20
-2.8438304516
  0
LINE
  5
2CD
100
AcDbEntity
  8
0
100
AcDbLine
 62
7
  6
CONTINUOUS
 10
4.037695513
 20
-2.1828369516
 11
3.8570504123
 21
-2.2149386296
  0
LWPOLYLINE
  5
2CE
100
AcDbEntity
  8
SUPERFICI
100
AcDbPolyline
 62
7
  6
CONTINUOUS
 90
24
 70
0
 10
4.4765714649
 20
-1.9436376123
 10
4.5922750042
 20
-1.9293293458
 10
4.7105676444
 20
-1.9199714919
 10
4.8308149821
 20
-1.9156601789
 10
4.9523721306
 20
-1.9164644707
 10
5.0745871789
 20
-1.922425996
 10
5.1968046875
 20
-1.9335587255
 10
5.3183692038
 20
-1.9498488964
 10
5.4386287773
 20
-1.9712550868
 10
5.5569384556
 20
-1.9977084375
 10
5.672663744
 20
-2.0291130213
 10
5.7851840075
 20
-2.0653463577
 10
5.8938958
 20
-2.1062600695
 10
5.9982160998
 20
-2.1516806786
 10
6.0975854373
 20
-2.2014105363
 10
6.1914708945
 20
-2.2552288838
 10
6.2793689636
 20
-2.3128930353
 10
6.3608082473
 20
-2.3741396802
 10
6.4353519865
 20
-2.4386862949
 10
6.5026004031
 20
-2.506232658
 10
6.5621928439
 20
-2.5764624605
 10
6.6138097144
 20
-2.6490450022
 10
6.6571741934
 20
-2.723636965
 10
6.6920537171
 20
-2.7998842543
  0
LWPOLYLINE
  5
2CF
100
AcDbEntity
  8
0
100
AcDbPolyline
 62
7
  6
CONTINUOUS
 90
4
 70
0
 10
4.4108202836
 20
-2.1210913223
 10
4.3404980222
 20
-2.1292277751
 10
4.1874292595
 20
-2.1531427842
 10
4.037695513
 20
-2.1828369516
  0
LWPOLYLINE
  5
2D0
100
AcDbEntity
  8
RACCORDO
100
AcDbPolyline
 62
7
  6
CONTINUOUS
 90
26
 70
0
 10
4.6122406723
 20
-2.358656451
 10
4.702769895
 20
-2.3498936849
 10
4.7947691739
 20
-2.3448700129
 10
4.8877648733
 20
-2.3436047989
 10
4.9812171611
 20
-2.3460945226
 10
5.0747341777
 20
-2.3523175428
 10
5.1680759722
 20
-2.362263093
 10
5.2606305123
 20
-2.3758732068
 10
5.3521299764
 20
-2.3931150739
 10
5.442837562
 20
-2.4140992249
 10
5.5326379541
 20
-2.4389304118
 10
5.6206985211
 20
-2.4675140625
 10
5.7062015002
 20
-2.4996730656
 10
5.7888087894
 20
-2.535351827
 10
5.8679851802
 20
-2.5743925126
 10
5.9427517195
 20
-2.6163192611
 10
6.0125480137
 20
-2.6607289802
 10
6.0774176605
 20
-2.7075519025
 10
6.1373687166
 20
-2.7567571407
 10
6.1921017707
 20
-2.8080855924
 10
6.2414489789
 20
-2.8613612793
 10
6.2854919214
 20
-2.9167366988
 10
6.3240731533
 20
-2.9742196787
 10
6.3567576706
 20
-3.0333956367
 10
6.3832097771
 20
-3.0937861697
 10
6.399135488
 20
-3.1424392765
  0
LWPOLYLINE
  5
2D1
100
AcDbEntity
  8
RACCORDO
100
AcDbPolyline
 62
7
  6
CONTINUOUS
 90
19
 70
0
 10
4.6122406723
 20
-2.358656451
 10
4.5978839435
 20
-2.3594835282
 10
4.5830169844
 20
-2.3587350913
 10
4.567783447
 20
-2.3563695132
 10
4.5523117223
 20
-2.3522933811
 10
4.5367925082
 20
-2.3465391592
 10
4.521474315
 20
-2.3392816646
 10
4.506553824
 20
-2.3305183458
 10
4.4921737539
 20
-2.3202855419
 10
4.4784981691
 20
-2.3088455894
 10
4.4657568278
 20
-2.2963020052
 10
4.4540262039
 20
-2.2826518194
 10
4.4432874842
 20
-2.2679767515
 10
4.4336345527
 20
-2.2521114763
 10
4.4254238892
 20
-2.2353081024
 10
4.4189773264
 20
-2.2182993214
 10
4.4143933202
 20
-2.2014244447
 10
4.4116666687
 20
-2.1845897829
 10
4.4108202836
 20
-2.1679174132
  0
LWPOLYLINE
  5
2D2
100
AcDbEntity
  8
0
100
AcDbPolyline
 62
250
  6
CONTINUOUS
 90
14
 70
0
 10
3.7584734914
 20
-3.3886473467
 10
3.9416620159
 20
-3.4379108648
 10
4.1312439329
 20
-3.4799294753
 10
4.3244707099
 20
-3.5140939983
 10
4.5213954461
 20
-3.5402900132
 10
4.7219650421
 20
-3.5586319404
 10
4.9232716676
 20
-3.5688538613
 10
5.1253260596
 20
-3.5708374814
 10
5.3281174809
 20
-3.5647010952
 10
5.5287058893
 20
-3.550533667
 10
5.7270591906
 20
-3.5282181986
 10
5.923209479
 20
-3.4978716884
 10
6.1143129944
 20
-3.4599340958
 10
6.300296214
 20
-3.4142948319
  0
LINE
  5
2D3
100
AcDbEntity
  8
0
100
AcDbLine
 62
7
  6
CONTINUOUS
 10
7.8610388839
 20
-7.9081913604
 11
8.3545237764
 21
-8.1408136161
  0
LINE
  5
2D4
100
AcDbEntity
  8
0
100
AcDbLine
 62
7
  6
CONTINUOUS
 10
-6.2810967399
 20
0.2573005062
 11
-5.7876118474
 21
0.0246782505
  0
LWPOLYLINE
  5
2D5
100
AcDbEntity
  8
0
100
AcDbPolyline
 62
7
  6
CONTINUOUS
 90
10
 70
0
 10
-10.7413189081
 20
5.2135259791
 10
-10.7959259677
 20
5.254859136
 10
-10.8423489618
 20
5.2944728107
 10
-10.8807299508
 20
5.3316291236
 10
-10.9113015431
 20
5.3655258805
 10
-10.9343701228
 20
5.3952240907
 10
-10.9503790099
 20
5.4196114269
 10
-10.9603518642
 20
5.4380909957
 10
-10.9655981704
 20
5.4504901487
 10
-10.9674760346
 20
5.4567639782
  0
LWPOLYLINE
  5
2D6
100
AcDbEntity
  8
RACCORDO
100
AcDbPolyline
 62
7
  6
CONTINUOUS
 90
5
 70
0
 10
-9.6881094199
 20
5.977117914
 10
-9.6763787959
 20
5.9634677282
 10
-9.6636374547
 20
5.9509241439
 10
-9.6499618698
 20
5.9394841915
 10
-9.6355817997
 20
5.9292513876
  0
LWPOLYLINE
  5
2D7
100
AcDbEntity
  8
0
100
AcDbPolyline
 62
250
  6
CONTINUOUS
 90
37
 70
0
 10
1.8427270102
 20
17.1520657214
 10
1.8374916024
 20
17.1063902697
 10
1.8348570455
 20
17.0604690728
 10
1.8348777415
 20
17.0143469077
 10
1.8376531552
 20
16.9678885137
 10
1.8431951016
 20
16.9213586212
 10
1.8513857341
 20
16.8754293441
 10
1.8622252071
 20
16.8302420313
 10
1.8757201696
 20
16.7858707895
 10
1.8916876146
 20
16.7429061278
 10
1.9100847052
 20
16.7015079118
 10
1.9308696889
 20
16.6617695992
 10
1.9537988177
 20
16.6241800669
 10
1.9787924932
 20
16.5888918078
 10
2.0057673579
 20
16.5560024026
 10
2.0344260217
 20
16.525898474
 10
2.0646611715
 20
16.4987129512
 10
2.0963571296
 20
16.4745255818
 10
2.1291711681
 20
16.453608892
 10
2.1629808764
 20
16.4360650635
 10
2.197649785
 20
16.421941319
 10
2.2327979128
 20
16.4113820006
 10
2.2683015809
 20
16.4044456409
 10
2.3040186472
 20
16.4011431892
 10
2.339542698
 20
16.4014935631
 10
2.3747622828
 20
16.4055108012
 10
2.4095467018
 20
16.4131644128
 10
2.4434796293
 20
16.4243481397
 10
2.4764849271
 20
16.4390380004
 10
2.5084511234
 20
16.4571621582
 10
2.5389466104
 20
16.478482825
 10
2.5679374015
 20
16.5029406289
 10
2.59535594
 20
16.5304340924
 10
2.6207770954
 20
16.5606054034
 10
2.6440745545
 20
16.5932562731
 10
2.6653926724
 20
16.6283809761
 10
2.6847537651
 20
16.6658904824
  0
LWPOLYLINE
  5
2D8
100
AcDbEntity
  8
0
100
AcDbPolyline
 62
250
  6
CONTINUOUS
 90
19
 70
0
 10
1.9851636333
 20
17.1331351542
 10
1.9805342803
 20
17.0954458996
 10
1.978149451
 20
17.0571754817
 10
1.9780369521
 20
17.0185488772
 10
1.9802152006
 20
16.9797726366
 10
1.9846850191
 20
16.9411035569
 10
1.9914159624
 20
16.9028454832
 10
2.0003692332
 20
16.8652395045
 10
2.0114946364
 20
16.8285049516
 10
2.0247058131
 20
16.7929031285
 10
2.0399110534
 20
16.7586647648
 10
2.0570226189
 20
16.7259745619
 10
2.0759380061
 20
16.6950106655
 10
2.0965562082
 20
16.665940641
 10
2.1187418031
 20
16.6389590675
 10
2.1423218182
 20
16.6142602576
 10
2.1671353533
 20
16.5919912583
 10
2.1930413025
 20
16.5722614148
 10
2.2198806768
 20
16.5551759482
  0
LWPOLYLINE
  5
2D9
100
AcDbEntity
  8
0
100
AcDbPolyline
 62
250
  6
CONTINUOUS
 90
4
 70
0
 10
1.8427270102
 20
17.1520657214
 10
1.8714511495
 20
17.3397790877
 10
1.8856830396
 20
17.4300408631
 10
1.9000536113
 20
17.5177715163
  0
LWPOLYLINE
  5
2DA
100
AcDbEntity
  8
0
100
AcDbPolyline
 62
250
  6
CONTINUOUS
 90
3
 70
0
 10
2.0123943983
 20
17.3135193724
 10
1.9985790493
 20
17.2241250283
 10
1.9851636333
 20
17.1331351542
  0
LWPOLYLINE
  5
2DB
100
AcDbEntity
  8
0
100
AcDbPolyline
 62
250
  6
CONTINUOUS
 90
19
 70
0
 10
1.9714230349
 20
17.9186321901
 10
1.975873593
 20
17.9457607725
 10
1.9789309831
 20
17.9728651717
 10
1.9806223061
 20
18.0000073
 10
1.9809812348
 20
18.0275068148
 10
1.9800380646
 20
18.0552040143
 10
1.9777739123
 20
18.0824789591
 10
1.9741082734
 20
18.1094962905
 10
1.9691067874
 20
18.1363647368
 10
1.962885617
 20
18.1624059378
 10
1.9553403711
 20
18.1877365697
 10
1.9464951454
 20
18.2125394308
 10
1.9365812155
 20
18.2361978149
 10
1.9254979647
 20
18.2587340687
 10
1.9132288402
 20
18.2803448962
 10
1.9000783561
 20
18.3005840386
 10
1.886098046
 20
18.3193059356
 10
1.8711129439
 20
18.3367183923
 10
1.8550739409
 20
18.352841724
  0
LWPOLYLINE
  5
2DC
100
AcDbEntity
  8
0
100
AcDbPolyline
 62
250
  6
CONTINUOUS
 90
4
 70
0
 10
2.0689944055
 20
17.6548711912
 10
2.0546342606
 20
17.5719739926
 10
2.0405429298
 20
17.4874562523
 10
2.0123943983
 20
17.3135193724
  0
LWPOLYLINE
  5
2DD
100
AcDbEntity
  8
0
100
AcDbPolyline
 62
250
  6
CONTINUOUS
 90
5
 70
0
 10
1.9000536113
 20
17.5177715163
 10
1.9288892318
 20
17.6856178912
 10
1.9430968779
 20
17.7658035343
 10
1.9572722394
 20
17.8434671529
 10
1.9714230349
 20
17.9186321901
  0
LINE
  5
2DE
100
AcDbEntity
  8
0
100
AcDbLine
 62
250
  6
CONTINUOUS
 10
2.112210775
 20
17.8936905524
 11
2.0689944055
 21
17.6548711912
  0
LWPOLYLINE
  5
2DF
100
AcDbEntity
  8
0
100
AcDbPolyline
 62
250
  6
CONTINUOUS
 90
16
 70
0
 10
3.3557128862
 20
17.4863847368
 10
3.358028514
 20
17.4966566925
 10
3.3609686426
 20
17.5068807432
 10
3.3644733657
 20
17.5168535076
 10
3.3684286109
 20
17.5262918742
 10
3.3727811711
 20
17.53517387
 10
3.3776040277
 20
17.5436995596
 10
3.3828668461
 20
17.5517651785
 10
3.3884709785
 20
17.5591552012
 10
3.3944463754
 20
17.5658665311
 10
3.40069476
 20
17.5717839325
 10
3.4071068897
 20
17.5767914028
 10
3.4136764432
 20
17.5808271904
 10
3.4203185175
 20
17.5837811307
 10
3.4268769769
 20
17.5855853423
 10
3.4332167005
 20
17.5862166444
  0
LWPOLYLINE
  5
2E0
100
AcDbEntity
  8
0
100
AcDbPolyline
 62
250
  6
CONTINUOUS
 90
19
 70
0
 10
3.7570139817
 20
19.2547019132
 10
3.7502781506
 20
19.2277772849
 10
3.7452076938
 20
19.2008525499
 10
3.7417658405
 20
19.1738666588
 10
3.7398968247
 20
19.1465019281
 10
3.739576803
 20
19.1189174814
 10
3.740858444
 20
19.0917302364
 10
3.7438248152
 20
19.0647753212
 10
3.7483976836
 20
19.0379451334
 10
3.7544730945
 20
19.0119169437
 10
3.7621643946
 20
18.9865732764
 10
3.7714385345
 20
18.9617321323
 10
3.7820519628
 20
18.9380113134
 10
3.7941178584
 20
18.915387353
 10
3.8076502418
 20
18.8936637719
 10
3.8223108367
 20
18.8732898384
 10
3.8380416647
 20
18.8544116861
 10
3.8550397748
 20
18.8368195395
 10
3.8733639437
 20
18.82049222
  0
LWPOLYLINE
  5
2E1
100
AcDbEntity
  8
0
100
AcDbPolyline
 62
7
  6
CONTINUOUS
 90
19
 70
0
 10
3.7148587453
 20
19.2711299159
 10
3.7132628485
 20
19.2653181463
 10
3.7049183185
 20
19.2296662933
 10
3.6988740498
 20
19.1933796866
 10
3.6951645438
 20
19.1565516881
 10
3.6938491806
 20
19.1194162964
 10
3.6949680748
 20
19.0823450377
 10
3.6985382237
 20
19.0455233448
 10
3.7045825738
 20
19.0091158959
 10
3.7130838978
 20
18.9734755012
 10
3.7240155524
 20
18.9388033694
 10
3.7372920514
 20
18.9052809519
 10
3.7527536449
 20
18.8732122593
 10
3.7702893283
 20
18.8427330575
 10
3.7897891546
 20
18.8139792616
 10
3.8110469523
 20
18.7872005768
 10
3.8338965545
 20
18.7625427015
 10
3.8582380168
 20
18.7400686511
 10
3.8628009724
 20
18.7362353484
  0
LWPOLYLINE
  5
2E2
100
AcDbEntity
  8
0
100
AcDbPolyline
 62
250
  6
CONTINUOUS
 90
37
 70
0
 10
3.9832626953
 20
20.0125609968
 10
3.99591981
 20
20.0575740039
 10
4.0057950957
 20
20.1028489101
 10
4.0128149784
 20
20.1483426496
 10
4.0168847277
 20
20.1941900602
 10
4.0179528432
 20
20.2401299542
 10
4.0160493984
 20
20.2854980516
 10
4.0111500168
 20
20.3301551658
 10
4.0032361793
 20
20.3740282495
 10
3.9924182027
 20
20.4165332817
 10
3.978716444
 20
20.4575124034
 10
3.962163615
 20
20.4968729638
 10
3.9429502566
 20
20.5341308353
 10
3.9211382715
 20
20.5691351042
 10
3.8968055748
 20
20.6017886758
 10
3.870216092
 20
20.6317079143
 10
3.8414646747
 20
20.6587610026
 10
3.8106672236
 20
20.6828681735
 10
3.7781546204
 20
20.703757958
 10
3.7440423607
 20
20.7213287917
 10
3.7084738329
 20
20.7355328343
 10
3.6718409407
 20
20.7462246795
 10
3.6342671257
 20
20.7533458157
 10
3.5959070115
 20
20.7568841799
 10
3.5572006003
 20
20.7568178562
 10
3.5182648808
 20
20.7531323117
 10
3.4792481472
 20
20.7458564669
 10
3.4406197615
 20
20.7350918457
 10
3.4024647532
 20
20.7208616363
 10
3.3649172268
 20
20.7032356551
 10
3.3284817573
 20
20.6824451774
 10
3.2932042976
 20
20.6585485071
 10
3.2591765007
 20
20.6316449707
 10
3.2269112046
 20
20.6020845518
 10
3.1965743768
 20
20.5700619995
 10
3.1680169291
 20
20.5355834619
 10
3.1412357007
 20
20.498736259
  0
LINE
  5
2E3
100
AcDbEntity
  8
0
100
AcDbLine
 62
7
  6
CONTINUOUS
 10
3.7586785898
 20
19.4255129232
 11
3.7148303319
 21
19.271142709
  0
LWPOLYLINE
  5
2E4
100
AcDbEntity
  8
0
100
AcDbPolyline
 62
250
  6
CONTINUOUS
 90
3
 70
0
 10
3.8470009894
 20
19.5674355773
 10
3.823019295
 20
19.4856211449
 10
3.7570139817
 20
19.2547019132
  0
LINE
  5
2E5
100
AcDbEntity
  8
0
100
AcDbLine
 62
7
  6
CONTINUOUS
 10
3.8113097811
 20
19.6057775807
 11
3.7586785898
 21
19.4255129232
  0
LINE
  5
2E6
100
AcDbEntity
  8
0
100
AcDbLine
 62
7
  6
CONTINUOUS
 10
3.865407081
 20
19.7856715607
 11
3.8113097811
 21
19.6057775807
  0
LWPOLYLINE
  5
2E7
100
AcDbEntity
  8
0
100
AcDbPolyline
 62
250
  6
CONTINUOUS
 90
19
 70
0
 10
4.6026991085
 20
17.6265501679
 10
4.6177503897
 20
17.6696434123
 10
4.6298801799
 20
17.7138895698
 10
4.6390427069
 20
17.7591223104
 10
4.6452213597
 20
17.8053049989
 10
4.6483546893
 20
17.8521392302
 10
4.6483583306
 20
17.8990664699
 10
4.6452038906
 20
17.9459478756
 10
4.6389202697
 20
17.992596993
 10
4.6295605394
 20
18.0384037286
 10
4.6171331453
 20
18.0832608109
 10
4.6017057742
 20
18.127011407
 10
4.5834743131
 20
18.1690218965
 10
4.5624806928
 20
18.2092412596
 10
4.538822277
 20
18.2475669824
 10
4.5128287246
 20
18.2833698096
 10
4.4846801877
 20
18.3164576878
 10
4.4543791953
 20
18.3470324763
 10
4.4220076149
 20
18.3751143141
  0
LWPOLYLINE
  5
2E8
100
AcDbEntity
  8
0
100
AcDbPolyline
 62
250
  6
CONTINUOUS
 90
31
 70
0
 10
5.0551459709
 20
17.3983948892
 10
5.1055769511
 20
17.5371644064
 10
5.1502954425
 20
17.6787720744
 10
5.1891788746
 20
17.8228297565
 10
5.2221206708
 20
17.9689426007
 10
5.2490305398
 20
18.1167101218
 10
5.2698347236
 20
18.2657272992
 10
5.2844761994
 20
18.4155856873
 10
5.2929148358
 20
18.5658745346
 10
5.2951275032
 20
18.7161819099
 10
5.2911081368
 20
18.866095831
 10
5.2808677534
 20
19.0152053944
 10
5.2644344212
 20
19.163101901
 10
5.2418531827
 20
19.3093799769
 10
5.2131859317
 20
19.453638684
 10
5.1785112431
 20
19.5954826192
 10
5.1379241577
 20
19.7345229982
 10
5.0915359219
 20
19.8703787209
 10
5.0394736827
 20
20.0026774162
 10
4.9818801391
 20
20.1310564627
 10
4.9189131509
 20
20.2551639822
 10
4.8507453063
 20
20.3746598047
 10
4.7775634486
 20
20.4892164005
 10
4.6995681642
 20
20.5985197778
 10
4.6169732327
 20
20.7022703438
 10
4.5300050412
 20
20.8001837252
 10
4.4389019634
 20
20.8919915485
 10
4.3439137064
 20
20.9774421746
 10
4.2453006265
 20
21.0563013894
 10
4.1433330154
 20
21.1283530452
 10
4.038290359
 20
21.1933996535
  0
LWPOLYLINE
  5
2E9
100
AcDbEntity
  8
RACCORDO
100
AcDbPolyline
 62
7
  6
CONTINUOUS
 90
10
 70
0
 10
-13.3351143615
 20
-5.9944429175
 10
-13.3764581679
 20
-6.019734414
 10
-13.4173874359
 20
-6.0475011331
 10
-13.4579021655
 20
-6.0777430747
 10
-13.4981363377
 20
-6.1105790504
 10
-13.5379559715
 20
-6.1458902486
 10
-13.5769591242
 20
-6.183320235
 10
-13.6150118147
 20
-6.2227501983
 10
-13.652248024
 20
-6.2642989499
 10
-13.6886677521
 20
-6.3079664898
  0
LINE
  5
2EA
100
AcDbEntity
  8
RACCORDO
100
AcDbLine
 62
7
  6
CONTINUOUS
 10
9.6966240098
 20
8.1203433493
 11
-14.0422211427
 21
-5.5861683242
  0
LINE
  5
2EB
100
AcDbEntity
  8
RACCORDO
100
AcDbLine
 62
7
  6
CONTINUOUS
 10
10.403730791
 20
7.7120687559
 11
-13.3351143615
 21
-5.9944429175
  0
LINE
  5
2EC
100
AcDbEntity
  8
ASSI
100
AcDbLine
 62
7
  6
CONTINUOUS
 10
21.3802027853
 20
11.7877326333
 11
21.6213446204
 21
11.9020779199
  0
LWPOLYLINE
  5
2ED
100
AcDbEntity
  8
SUPERFICI
100
AcDbPolyline
 62
7
  6
CONTINUOUS
 90
7
 70
0
 10
3.4765052528
 20
-2.4470397895
 10
3.4881741703
 20
-2.4486892279
 10
3.4998511078
 20
-2.4502277705
 10
3.5115360653
 20
-2.4516554172
 10
3.5232290428
 20
-2.4529721681
 10
3.5349300403
 20
-2.4541780231
 10
3.5466390577
 20
-2.4552729822
  0
LWPOLYLINE
  5
2EE
100
AcDbEntity
  8
ASSI
100
AcDbPolyline
 62
7
  6
CONTINUOUS
 90
13
 70
0
 10
3.4765052528
 20
-2.4470397895
 10
3.4547954792
 20
-2.4421807493
 10
3.434521739
 20
-2.4351282821
 10
3.4156682518
 20
-2.4259466455
 10
3.3979970258
 20
-2.4144493318
 10
3.3817082914
 20
-2.4009318333
 10
3.3674218704
 20
-2.386200763
 10
3.3551804762
 20
-2.3703147438
 10
3.3448598466
 20
-2.3533427979
 10
3.3368070254
 20
-2.3361290316
 10
3.3311132108
 20
-2.31898487
 10
3.3276238338
 20
-2.3016782153
 10
3.3263222899
 20
-2.2842287442
  0
LWPOLYLINE
  5
2EF
100
AcDbEntity
  8
RACCORDO
100
AcDbPolyline
 62
7
  6
CONTINUOUS
 90
8
 70
0
 10
-9.6355817997
 20
5.9292513876
 10
-9.6206613087
 20
5.9204880687
 10
-9.6053431156
 20
5.9132305742
 10
-9.5898239014
 20
5.9074763523
 10
-9.5743521768
 20
5.9034002202
 10
-9.5591186393
 20
5.9010346421
 10
-9.5442516803
 20
5.9002862051
 10
-9.5298949514
 20
5.9011132824
  0
LWPOLYLINE
  5
2F0
100
AcDbEntity
  8
0
100
AcDbPolyline
 62
7
  6
CONTINUOUS
 90
13
 70
0
 10
-10.2601830723
 20
5.9287470437
 10
-10.3202455313
 20
5.9669600589
 10
-10.3805030647
 20
6.0017533235
 10
-10.4405151512
 20
6.0332131805
 10
-10.5001191735
 20
6.0619268787
 10
-10.5586913563
 20
6.0875131125
 10
-10.6151601326
 20
6.1087301693
 10
-10.6688546228
 20
6.1256211566
 10
-10.7199717979
 20
6.1386618804
 10
-10.7688075051
 20
6.1473037761
 10
-10.8152088153
 20
6.1516512134
 10
-10.8590612477
 20
6.151963311
 10
-10.8611654517
 20
6.1517535705
  0
LWPOLYLINE
  5
2F1
100
AcDbEntity
  8
0
100
AcDbPolyline
 62
7
  6
CONTINUOUS
 90
13
 70
0
 10
3.8819525514
 20
-2.2367448228
 10
3.8218900925
 20
-2.1985318077
 10
3.761632559
 20
-2.163738543
 10
3.7016204725
 20
-2.132278686
 10
3.6420164503
 20
-2.1035649879
 10
3.5834442674
 20
-2.0779787541
 10
3.5269754911
 20
-2.0567616973
 10
3.4732810009
 20
-2.03987071
 10
3.4221638258
 20
-2.0268299862
 10
3.3733281186
 20
-2.0181880904
 10
3.3269268084
 20
-2.0138406531
 10
3.283074376
 20
-2.0135285555
 10
3.280970172
 20
-2.013738296
  0
LWPOLYLINE
  5
2F2
100
AcDbEntity
  8
0
100
AcDbPolyline
 62
7
  6
CONTINUOUS
 90
10
 70
0
 10
3.4008167156
 20
-2.9519658875
 10
3.346209656
 20
-2.9106327306
 10
3.299786662
 20
-2.8710190559
 10
3.2614056729
 20
-2.8338627429
 10
3.2308340807
 20
-2.799965986
 10
3.2077655009
 20
-2.7702677758
 10
3.1917566138
 20
-2.7458804397
 10
3.1817837595
 20
-2.7274008709
 10
3.1765374533
 20
-2.7150017179
 10
3.1746595891
 20
-2.7087278883
  0
LWPOLYLINE
  5
2F3
100
AcDbEntity
  8
RACCORDO
100
AcDbPolyline
 62
7
  6
CONTINUOUS
 90
12
 70
0
 10
0.1231799662
 20
15.2495453196
 10
0.1181432226
 20
15.2992337451
 10
0.1102604464
 20
15.3464305769
 10
0.0995316374
 20
15.3911358151
 10
0.0858873546
 20
15.4335347938
 10
0.0693970392
 20
15.4734421789
 10
0.0502690141
 20
15.5103019679
 10
0.0284712417
 20
15.5440570016
 10
0.0040357596
 20
15.5747644391
 10
-0.0227329964
 20
15.6020397555
 10
-0.0518624552
 20
15.6258394804
 10
-0.0817420963
 20
15.6453268994
  0
LWPOLYLINE
  5
2F4
100
AcDbEntity
  8
ASSI
100
AcDbPolyline
 62
7
  6
CONTINUOUS
 90
11
 70
0
 10
2.9108323784
 20
-1.1217009145
 10
2.9109455687
 20
-1.1122478934
 10
2.9144715763
 20
-1.0693389548
 10
2.9230896406
 20
-1.0278326391
 10
2.936978766
 20
-0.9874340406
 10
2.9563673225
 20
-0.9482303825
 10
2.981304708
 20
-0.9107210186
 10
3.0114460844
 20
-0.8752107255
 10
3.0464590275
 20
-0.8419544663
 10
3.0862317363
 20
-0.8112050467
 10
3.1305022924
 20
-0.7832073621
  0
LWPOLYLINE
  5
2F5
100
AcDbEntity
  8
0
100
AcDbPolyline
 62
250
  6
CONTINUOUS
 90
11
 70
0
 10
3.7148293211
 20
19.2711390157
 10
3.7148199357
 20
19.2710473323
 10
3.7153725911
 20
19.2703163828
 10
3.7169737531
 20
19.2692972267
 10
3.7196557169
 20
19.2679798963
 10
3.7234117989
 20
19.2663766528
 10
3.7281967091
 20
19.2645102449
 10
3.7340366731
 20
19.2623743105
 10
3.74089075
 20
19.2599887526
 10
3.7485992852
 20
19.2574110138
 10
3.7569992345
 20
19.2546943357
  0
LINE
  5
2F6
100
AcDbEntity
  8
RACCORDO
100
AcDbLine
 62
7
  6
CONTINUOUS
 10
8.7753447082
 20
14.4885447661
 11
10.060148748
 21
17.7998998139
  0
LWPOLYLINE
  5
2F7
100
AcDbEntity
  8
0
100
AcDbPolyline
 62
7
  6
CONTINUOUS
 90
16
 70
0
 10
8.7753447082
 20
14.4885447661
 10
8.7621389886
 20
14.4565784283
 10
8.7476573736
 20
14.4252019065
 10
8.7318998631
 20
14.3944152006
 10
8.7147775457
 20
14.364074536
 10
8.6963793328
 20
14.3343236873
 10
8.6769719593
 20
14.3055939783
 10
8.6565407234
 20
14.2779002852
 10
8.6351003269
 20
14.2512277317
 10
8.6129616096
 20
14.225963013
 10
8.5901143984
 20
14.2021266386
 10
8.5665688664
 20
14.179698099
 10
8.5426663736
 20
14.1590025599
 10
8.5185207067
 20
14.1401484101
 10
8.4940180789
 20
14.1230272608
 10
8.4691584904
 20
14.1076391122
  0
LWPOLYLINE
  5
2F8
100
AcDbEntity
  8
RACCORDO
100
AcDbPolyline
 62
7
  6
CONTINUOUS
 90
16
 70
0
 10
16.8872413465
 20
13.7139948442
 10
16.9213899455
 20
13.7458688904
 10
16.9711604198
 20
13.7945924621
 10
17.0195060152
 20
13.8442542469
 10
17.0666476635
 20
13.8951045189
 10
17.1123644329
 20
13.9468930038
 10
17.1559935279
 20
13.9988688794
 10
17.1975045347
 20
14.0510348756
 10
17.2369278671
 20
14.1033882624
 10
17.273691971
 20
14.1551700277
 10
17.3077581061
 20
14.2063718438
 10
17.3391650127
 20
14.2570020383
 10
17.3674573578
 20
14.3063265815
 10
17.3924833638
 20
14.354100797
 10
17.4143948082
 20
14.4005693612
 10
17.4331916911
 20
14.4457322742
  0
LWPOLYLINE
  5
2F9
100
AcDbEntity
  8
0
100
AcDbPolyline
 62
250
  6
CONTINUOUS
 90
28
 70
0
 10
3.0244362752
 20
-0.7127286256
 10
2.8854472378
 20
-0.7989800298
 10
2.7582689106
 20
-0.8896599756
 10
2.6429012936
 20
-0.9847684629
 10
2.5388988592
 20
-1.0848103579
 10
2.4467071349
 20
-1.1892807945
 10
2.3676627038
 20
-1.2966651746
 10
2.3019570993
 20
-1.4070059492
 10
2.2493987879
 20
-1.5202606674
 10
2.210749753
 20
-1.6347873777
 10
2.1862126285
 20
-1.7506046107
 10
2.1755847804
 20
-1.8676938358
 10
2.1790202899
 20
-1.9843575094
 10
2.1967240356
 20
-2.100589432
 10
2.2284911388
 20
-2.216395803
 10
2.2738610444
 20
-2.3300976776
 10
2.3330319217
 20
-2.441664397
 10
2.4058056013
 20
-2.5511266198
 10
2.4911270205
 20
-2.656897378
 10
2.5891789781
 20
-2.7589228931
 10
2.6997786751
 20
-2.8572569434
 10
2.8213226525
 20
-2.9504738953
 10
2.9539703492
 20
-3.0384992016
 10
3.0975623262
 20
-3.1214074095
 10
3.2500168066
 20
-3.1979965271
 10
3.4114629018
 20
-3.2681744963
 10
3.5817715003
 20
-3.3320333753
 10
3.7584734914
 20
-3.3886473467
  0
LINE
  5
2FA
100
AcDbEntity
  8
RACCORDO
100
AcDbLine
 62
250
  6
CONTINUOUS
 10
-17.1966991605
 20
-11.0817195522
 11
14.2653155899
 21
7.0840534531
  0
LINE
  5
2FB
100
AcDbEntity
  8
0
100
AcDbLine
 62
7
  6
CONTINUOUS
 10
16.1033015148
 20
7.328773759
 11
14.6209874867
 21
6.4729042169
  0
LINE
  5
2FC
100
AcDbEntity
  8
0
100
AcDbLine
 62
250
  6
CONTINUOUS
 10
-16.8452642761
 20
-11.6953151862
 11
14.6209874867
 21
6.4729042169
  0
LWPOLYLINE
  5
2FD
100
AcDbEntity
  8
0
100
AcDbPolyline
 62
250
  6
CONTINUOUS
 90
46
 70
0
 10
3.0244362752
 20
-0.7127286256
 10
3.173818465
 20
-0.6324780974
 10
3.3308706196
 20
-0.5590469252
 10
3.4955927391
 20
-0.492435109
 10
3.6688592208
 20
-0.4323854068
 10
3.8497956674
 20
-0.3791550607
 10
4.035778887
 20
-0.3335157968
 10
4.2268824024
 20
-0.2955782042
 10
4.4230326907
 20
-0.2652316939
 10
4.6213859921
 20
-0.2429162256
 10
4.8219744004
 20
-0.2287487974
 10
5.0247658218
 20
-0.2226124111
 10
5.2268202138
 20
-0.2245960313
 10
5.4281268392
 20
-0.2348179521
 10
5.6286964353
 20
-0.2531598794
 10
5.8256211715
 20
-0.2793558943
 10
6.0188479484
 20
-0.3135204172
 10
6.2084298655
 20
-0.3555390278
 10
6.3916183899
 20
-0.4048025459
 10
6.5683203811
 20
-0.4614165173
 10
6.7386289796
 20
-0.5252753963
 10
6.9000750747
 20
-0.5954533655
 10
7.0525295551
 20
-0.6720424831
 10
7.1961215321
 20
-0.754950691
 10
7.3287692289
 20
-0.8429759973
 10
7.4503132062
 20
-0.9361929492
 10
7.5609129033
 20
-1.0345269995
 10
7.6589648608
 20
-1.1365525146
 10
7.74428628
 20
-1.2423232727
 10
7.8170599597
 20
-1.3517854956
 10
7.8762308369
 20
-1.4633522149
 10
7.9216007425
 20
-1.5770540896
 10
7.9533678458
 20
-1.6928604606
 10
7.9710715915
 20
-1.8090923832
 10
7.9745071009
 20
-1.9257560568
 10
7.9638792529
 20
-2.0428452819
 10
7.9393421284
 20
-2.1586625149
 10
7.9006930935
 20
-2.2731892252
 10
7.8481347821
 20
-2.3864439433
 10
7.7824291775
 20
-2.496784718
 10
7.7033847465
 20
-2.6041690981
 10
7.6111930222
 20
-2.7086395347
 10
7.5071905877
 20
-2.8086814297
 10
7.3918229707
 20
-2.903789917
 10
7.2646446435
 20
-2.9944698628
 10
7.1256556061
 20
-3.0807212669
  0
LWPOLYLINE
  5
2FE
100
AcDbEntity
  8
ASSI
100
AcDbPolyline
 62
7
  6
CONTINUOUS
 90
34
 70
0
 10
3.1305022924
 20
-0.7832073621
 10
3.1738100097
 20
-0.7602112611
 10
3.2198416188
 20
-0.739905733
 10
3.2682644619
 20
-0.7223811178
 10
3.3187159495
 20
-0.7076150926
 10
3.370877541
 20
-0.695757441
 10
3.4244860444
 20
-0.6871413633
 10
3.479295598
 20
-0.6817405836
 10
3.5348874004
 20
-0.6796416467
 10
3.5907395288
 20
-0.6813093315
 10
3.6466388581
 20
-0.6867168324
 10
3.7021539498
 20
-0.6958155008
 10
3.7564484533
 20
-0.7089232662
 10
3.8089882755
 20
-0.7257914997
 10
3.8598150043
 20
-0.7463591116
 10
3.9089932397
 20
-0.7711787327
 10
3.9566033382
 20
-0.8002605253
 10
4.0021965958
 20
-0.8333629594
 10
4.0451170518
 20
-0.8706252152
 10
4.0852934792
 20
-0.9118597534
 10
4.1227124956
 20
-0.9568811964
 10
4.156962721
 20
-1.0057316521
 10
4.1883258232
 20
-1.0586709409
 10
4.2167071728
 20
-1.1150559718
 10
4.2413879273
 20
-1.1734635467
 10
4.2625674936
 20
-1.2337422343
 10
4.2806700671
 20
-1.2956200183
 10
4.295556268
 20
-1.35742052
 10
4.3074707953
 20
-1.4189717267
 10
4.3168321007
 20
-1.4801626349
 10
4.3237998966
 20
-1.5394196587
 10
4.3285578971
 20
-1.5961776574
 10
4.3312947505
 20
-1.6508815497
 10
4.3321020713
 20
-1.7035041038
  0
LINE
  5
2FF
100
AcDbEntity
  8
ASSI
100
AcDbLine
 62
7
  6
CONTINUOUS
 10
22.5213446204
 20
8.5431897474
 11
21.6213446204
 21
8.116425317
  0
LINE
  5
300
100
AcDbEntity
  8
0
100
AcDbLine
 62
7
  6
CONTINUOUS
 10
-27.6712795716
 20
-6.2609799132
 11
-30.0824610766
 21
-6.910166898
  0
LINE
  5
301
100
AcDbEntity
  8
0
100
AcDbLine
 62
7
  6
CONTINUOUS
 10
-27.6712795716
 20
-5.4445096364
 11
-30.0824610766
 21
-6.0936966213
  0
LINE
  5
302
100
AcDbEntity
  8
0
100
AcDbLine
 62
7
  6
CONTINUOUS
 10
-29.6652154568
 20
-5.109706323
 11
-32.0763969617
 21
-5.7588933078
  0
LWPOLYLINE
  5
303
100
AcDbEntity
  8
0
100
AcDbPolyline
 62
250
  6
CONTINUOUS
 90
14
 70
0
 10
-10.3836621323
 20
4.7768445199
 10
-10.2004736079
 20
4.7275810018
 10
-10.0108916908
 20
4.6855623912
 10
-9.8176649138
 20
4.6513978683
 10
-9.6207401777
 20
4.6252018534
 10
-9.4201705816
 20
4.6068599261
 10
-9.2188639562
 20
4.5966380052
 10
-9.0168095642
 20
4.5946543851
 10
-8.8140181428
 20
4.6007907714
 10
-8.6134297344
 20
4.6149581995
 10
-8.4150764331
 20
4.6372736679
 10
-8.2189261447
 20
4.6676201782
 10
-8.0278226294
 20
4.7055577708
 10
-7.8418394098
 20
4.7511970346
  0
LWPOLYLINE
  5
304
100
AcDbEntity
  8
RACCORDO
100
AcDbPolyline
 62
7
  6
CONTINUOUS
 90
8
 70
0
 10
4.506553824
 20
-2.236240479
 10
4.521474315
 20
-2.2450037978
 10
4.5367925082
 20
-2.2522612924
 10
4.5523117223
 20
-2.2580155143
 10
4.567783447
 20
-2.2620916464
 10
4.5830169844
 20
-2.2644572245
 10
4.5978839435
 20
-2.2652056614
 10
4.6122406723
 20
-2.2643785841
  0
LWPOLYLINE
  5
305
100
AcDbEntity
  8
RACCORDO
100
AcDbPolyline
 62
7
  6
CONTINUOUS
 90
5
 70
0
 10
4.4540262039
 20
-2.1883739525
 10
4.4657568278
 20
-2.2020241384
 10
4.4784981691
 20
-2.2145677226
 10
4.4921737539
 20
-2.2260076751
 10
4.506553824
 20
-2.236240479
  0
LWPOLYLINE
  5
306
100
AcDbEntity
  8
ASSI
100
AcDbPolyline
 62
7
  6
CONTINUOUS
 90
11
 70
0
 10
3.1283894008
 20
-1.6721534236
 10
3.0648392343
 20
-1.5554756807
 10
3.0352893878
 20
-1.5001125354
 10
3.0077052046
 20
-1.4464598422
 10
2.98289084
 20
-1.3943153218
 10
2.9612660309
 20
-1.3439391555
 10
2.9430596168
 20
-1.2952596867
 10
2.9286289503
 20
-1.2476630396
 10
2.918281134
 20
-1.2012720775
 10
2.9122965425
 20
-1.1562869631
 10
2.9108323784
 20
-1.1217009145
  0
LWPOLYLINE
  5
307
100
AcDbEntity
  8
SUPERFICI
100
AcDbPolyline
 62
7
  6
CONTINUOUS
 90
4
 70
0
 10
3.4192942783
 20
-2.9644169527
 10
3.4117968279
 20
-2.9301810187
 10
3.4053101325
 20
-2.8609812171
 10
3.4050604391
 20
-2.8438304733
  0
LWPOLYLINE
  5
308
100
AcDbEntity
  8
RACCORDO
100
AcDbPolyline
 62
7
  6
CONTINUOUS
 90
22
 70
0
 10
0.1295547574
 20
15.1851567972
 10
0.1340717803
 20
15.1553937883
 10
0.140090495
 20
15.1253940886
 10
0.1476109013
 20
15.0951576981
 10
0.1566813391
 20
15.064539948
 10
0.1672534685
 20
15.0336855071
 10
0.1791822706
 20
15.0030283816
 10
0.1924852289
 20
14.9725772135
 10
0.2071448598
 20
14.9423233608
 10
0.2229636935
 20
14.9126749041
 10
0.2399573567
 20
14.8836399029
 10
0.2581102227
 20
14.8552102978
 10
0.2771779414
 20
14.8277699904
 10
0.2971735448
 20
14.8013316352
 10
0.318084001
 20
14.7758825778
 10
0.3396258634
 20
14.751768757
 10
0.3618053095
 20
14.7290099892
 10
0.3846161619
 20
14.7075864578
 10
0.4077564414
 20
14.6877846527
 10
0.4311254882
 20
14.6697000701
 10
0.454823962
 20
14.6532372137
 10
0.478851863
 20
14.6383960835
  0
LWPOLYLINE
  5
309
100
AcDbEntity
  8
RACCORDO
100
AcDbPolyline
 62
7
  6
CONTINUOUS
 90
7
 70
0
 10
0.1295547574
 20
15.1851567972
 10
0.1281984525
 20
15.1963408738
 10
0.1269590995
 20
15.2073536486
 10
0.1258372555
 20
15.2181877381
 10
0.1248333189
 20
15.2288358408
 10
0.1239475289
 20
15.2392907423
 10
0.1231799662
 20
15.2495453196
  0
LWPOLYLINE
  5
30A
100
AcDbEntity
  8
RACCORDO
100
AcDbPolyline
 62
7
  6
CONTINUOUS
 90
3
 70
0
 10
4.4078766287
 20
-2.0038805561
 10
4.4061139791
 20
-1.9863332629
 10
4.4039507379
 20
-1.9687537156
  0
LINE
  5
30B
100
AcDbEntity
  8
0
100
AcDbLine
 62
7
  6
CONTINUOUS
 10
3.1746903928
 20
-2.7084021219
 11
3.1747326691
 21
-2.7089720439
  0
LWPOLYLINE
  5
30C
100
AcDbEntity
  8
RACCORDO
100
AcDbPolyline
 62
7
  6
CONTINUOUS
 90
5
 70
0
 10
4.4108202836
 20
-2.0736395463
 10
4.4116666687
 20
-2.0903119161
 10
4.4143933202
 20
-2.1071465778
 10
4.4189773264
 20
-2.1240214546
 10
4.4254238892
 20
-2.1410302356
  0
LWPOLYLINE
  5
30D
100
AcDbEntity
  8
ASSI
100
AcDbPolyline
 62
7
  6
CONTINUOUS
 90
11
 70
0
 10
3.3263222899
 20
-2.2842287442
 10
3.3243724561
 20
-2.2267903035
 10
3.317850758
 20
-2.1682526197
 10
3.3068263335
 20
-2.1085386663
 10
3.2913150852
 20
-2.0468879927
 10
3.2716112446
 20
-1.9837481356
 10
3.2482789757
 20
-1.9207970062
 10
3.2213405431
 20
-1.857759551
 10
3.1915114468
 20
-1.7943768721
 10
3.1603795096
 20
-1.7324266509
 10
3.1283894008
 20
-1.6721534236
  0
LWPOLYLINE
  5
30E
100
AcDbEntity
  8
ASSI
100
AcDbPolyline
 62
7
  6
CONTINUOUS
 90
16
 70
0
 10
4.3321020713
 20
-1.7035041038
 10
4.3325120374
 20
-1.7177617705
 10
4.3336578272
 20
-1.7324796608
 10
4.3355240013
 20
-1.7476621523
 10
4.3381279909
 20
-1.7635237204
 10
4.3413894078
 20
-1.7798671008
 10
4.3451390572
 20
-1.7960805676
 10
4.3493212388
 20
-1.8120815814
 10
4.3538941551
 20
-1.8279757242
 10
4.3587163171
 20
-1.8434303889
 10
4.3637814039
 20
-1.8585569751
 10
4.3689726441
 20
-1.8732664334
 10
4.3740212603
 20
-1.8869152468
 10
4.3788329525
 20
-1.8992866155
 10
4.3834466017
 20
-1.9105989851
 10
4.3878286031
 20
-1.9208531086
  0
LWPOLYLINE
  5
30F
100
AcDbEntity
  8
RACCORDO
100
AcDbPolyline
 62
7
  6
CONTINUOUS
 90
5
 70
0
 10
4.4108202836
 20
-2.0736395463
 10
4.4107100132
 20
-2.0562754013
 10
4.4101795501
 20
-2.0388571014
 10
4.4092334875
 20
-2.021390307
 10
4.4078766287
 20
-2.0038805561
  0
LINE
  5
310
100
AcDbEntity
  8
SUPERFICI
100
AcDbLine
 62
7
  6
CONTINUOUS
 10
3.5466390577
 20
-2.4552729822
 11
3.5466390577
 21
-3.0434763605
  0
LINE
  5
311
100
AcDbEntity
  8
RACCORDO
100
AcDbLine
 62
7
  6
CONTINUOUS
 10
4.4108202836
 20
-2.1183768121
 11
4.4108202836
 21
-2.1679174132
  0
LINE
  5
312
100
AcDbEntity
  8
RACCORDO
100
AcDbLine
 62
250
  6
CONTINUOUS
 10
4.6122406723
 20
-2.2643785841
 11
4.6122406723
 21
-2.358656451
  0
LINE
  5
313
100
AcDbEntity
  8
ASSI
100
AcDbLine
 62
250
  6
CONTINUOUS
 10
3.1772490413
 20
-2.660381062
 11
3.1750459407
 21
-2.7131952231
  0
LWPOLYLINE
  5
314
100
AcDbEntity
  8
SUPERFICI
100
AcDbPolyline
 62
7
  6
CONTINUOUS
 90
6
 70
0
 10
3.4050604391
 20
-2.8438304733
 10
3.4075894345
 20
-2.7915856369
 10
3.4185068177
 20
-2.7220551804
 10
3.4378879089
 20
-2.6535433378
 10
3.4656745838
 20
-2.5864346055
 10
3.5019249667
 20
-2.520344487
  0
LINE
  5
315
100
AcDbEntity
  8
0
100
AcDbLine
 62
7
  6
CONTINUOUS
 10
3.1746595891
 20
-2.7087278883
 11
3.1746903928
 21
-2.7084021219
  0
LWPOLYLINE
  5
316
100
AcDbEntity
  8
RACCORDO
100
AcDbPolyline
 62
7
  6
CONTINUOUS
 90
25
 70
0
 10
10.060148748
 20
17.7998998139
 10
10.1035856825
 20
17.9217418904
 10
10.1405110067
 20
18.0454854492
 10
10.1709247206
 20
18.1711304904
 10
10.1949010806
 20
18.2992297487
 10
10.2123658302
 20
18.4292304893
 10
10.2230962006
 20
18.5594745075
 10
10.2270059256
 20
18.6899649195
 10
10.2241812714
 20
18.820698609
 10
10.2146582673
 20
18.9500080224
 10
10.1983511088
 20
19.0778749147
 10
10.1753456005
 20
19.2043175309
 10
10.1459351857
 20
19.3277230511
 10
10.1100378187
 20
19.4480525709
 10
10.0677355451
 20
19.5653449948
 10
10.0195679453
 20
19.678104217
 10
9.9654598854
 20
19.7862721682
 10
9.9054864993
 20
19.8899069178
 10
9.8404127683
 20
19.9876865683
 10
9.7701733579
 20
20.0795361172
 10
9.6948336028
 20
20.1655305671
 10
9.6153544876
 20
20.2445730289
 10
9.5320563407
 20
20.3162978728
 10
9.4446188338
 20
20.3810707285
 10
9.3530419669
 20
20.4388915961
  0
LINE
  5
317
100
AcDbEntity
  8
0
100
AcDbLine
 62
7
  6
CONTINUOUS
 10
9.6680332381
 20
11.7718445214
 11
9.477961152
 21
11.2786028994
  0
LINE
  5
318
100
AcDbEntity
  8
RACCORDO
100
AcDbLine
 62
7
  6
CONTINUOUS
 10
9.3877171439
 20
14.4338857973
 11
10.6725211837
 21
17.745240845
  0
LWPOLYLINE
  5
319
100
AcDbEntity
  8
0
100
AcDbPolyline
 62
7
  6
CONTINUOUS
 90
9
 70
0
 10
9.3877171439
 20
14.4338857973
 10
9.3480999851
 20
14.3379867839
 10
9.30465514
 20
14.2438572184
 10
9.2573826086
 20
14.1514971006
 10
9.2060156562
 20
14.0604751068
 10
9.1508210176
 20
13.9712225608
 10
9.092598897
 20
13.8850334338
 10
9.0313051894
 20
13.8019523545
 10
8.9893282249
 20
13.7497316398
  0
LWPOLYLINE
  5
31A
100
AcDbEntity
  8
ASSI
100
AcDbPolyline
 62
250
  6
CONTINUOUS
 90
6
 70
0
 10
3.3263222899
 20
-2.2842287442
 10
3.2781984815
 20
-2.3566430538
 10
3.2390566063
 20
-2.430839667
 10
3.2090923233
 20
-2.5064476959
 10
3.1884554156
 20
-2.5830891973
 10
3.1772490413
 20
-2.660381062
  0
LWPOLYLINE
  5
31B
100
AcDbEntity
  8
ASSI
100
AcDbPolyline
 62
250
  6
CONTINUOUS
 90
8
 70
0
 10
3.4765052528
 20
-2.4470397895
 10
3.430404191
 20
-2.5157256831
 10
3.3933804935
 20
-2.5856754996
 10
3.3654341603
 20
-2.6568892389
 10
3.3464536915
 20
-2.7298590546
 10
3.3365505871
 20
-2.8040927931
 10
3.3360593468
 20
-2.878113994
 10
3.3393648116
 20
-2.9047918871
  0
LINE
  5
31C
100
AcDbEntity
  8
SUPERFICI
100
AcDbLine
 62
7
  6
CONTINUOUS
 10
3.5019249667
 20
-2.520344487
 11
3.5466390577
 21
-2.4552729822
  0
LINE
  5
31D
100
AcDbEntity
  8
0
100
AcDbLine
 62
250
  6
CONTINUOUS
 10
18.2839148459
 20
10.3071429988
 11
18.3047090196
 21
10.3252063759
  0
LWPOLYLINE
  5
31E
100
AcDbEntity
  8
0
100
AcDbPolyline
 62
250
  6
CONTINUOUS
 90
19
 70
0
 10
18.2839148459
 20
10.3071429988
 10
18.2334746671
 20
10.2660502444
 10
18.18031154
 20
10.2251241864
 10
18.1246949669
 20
10.1845398447
 10
18.0669722386
 20
10.1445581179
 10
18.0073913302
 20
10.1052559927
 10
17.9460811088
 20
10.0665366751
 10
17.8833241282
 20
10.0285381719
 10
17.8194835909
 20
9.9914479088
 10
17.754806732
 20
9.9552513938
 10
17.6896098695
 20
9.9200587985
 10
17.6242678011
 20
9.8860405204
 10
17.5591153763
 20
9.8532642869
 10
17.4944768411
 20
9.8217687313
 10
17.4307164853
 20
9.7917046334
 10
17.3682269305
 20
9.7632715874
 10
17.3073583299
 20
9.7365424025
 10
17.2484066547
 20
9.7114736012
 10
17.1916671477
 20
9.6880428083
  0
LINE
  5
31F
100
AcDbEntity
  8
0
100
AcDbLine
 62
7
  6
CONTINUOUS
 10
4.3936079683
 20
-2.0557287131
 11
4.4020879925
 21
-2.0499837374
  0
LWPOLYLINE
  5
320
100
AcDbEntity
  8
0
100
AcDbPolyline
 62
7
  6
CONTINUOUS
 90
7
 70
0
 10
4.037695513
 20
-2.1828369516
 10
4.012261242
 20
-2.1942509808
 10
3.9866178153
 20
-2.2046932564
 10
3.9607652329
 20
-2.2141637784
 10
3.9347034947
 20
-2.2226625468
 10
3.9084326009
 20
-2.2301895616
 10
3.8819525514
 20
-2.2367448228
  0
LWPOLYLINE
  5
321
100
AcDbEntity
  8
0
100
AcDbPolyline
 62
7
  6
CONTINUOUS
 90
3
 70
0
 10
4.3656284164
 20
-2.0690471149
 10
4.3816033817
 20
-2.0620197553
 10
4.3936079683
 20
-2.0557287131
  0
LWPOLYLINE
  5
322
100
AcDbEntity
  8
0
100
AcDbPolyline
 62
7
  6
CONTINUOUS
 90
26
 70
0
 10
6.3646155519
 20
-3.1572933694
 10
6.2620802353
 20
-3.196248506
 10
6.1523903391
 20
-3.232768756
 10
6.0361160918
 20
-3.2663438978
 10
5.9136916289
 20
-3.2965629233
 10
5.7857555146
 20
-3.3230103601
 10
5.6532293892
 20
-3.3452849531
 10
5.5167336858
 20
-3.363108334
 10
5.3770543845
 20
-3.3762253843
 10
5.2354214
 20
-3.3844174675
 10
5.092639329
 20
-3.3875804038
 10
4.9495041263
 20
-3.3856581934
 10
4.8072590066
 20
-3.3786707323
 10
4.6667198636
 20
-3.3667043474
 10
4.5286635987
 20
-3.3498912882
 10
4.3942543358
 20
-3.32848179
 10
4.2642180312
 20
-3.3027449692
 10
4.1392270932
 20
-3.2729911356
 10
4.0203045464
 20
-3.2396911505
 10
3.9080069499
 20
-3.2032827508
 10
3.8028095623
 20
-3.1642340721
 10
3.7055139
 20
-3.1232214677
 10
3.6165398324
 20
-3.0808829202
 10
3.5359550113
 20
-3.0377589215
 10
3.4639729445
 20
-2.994523574
 10
3.4008167156
 20
-2.9519658875
  0
LINE
  5
323
100
AcDbEntity
  8
0
100
AcDbLine
 62
7
  6
CONTINUOUS
 10
4.037695513
 20
-2.1828369516
 11
4.1725884172
 21
-2.1336565845
  0
LWPOLYLINE
  5
324
100
AcDbEntity
  8
SUPERFICI
100
AcDbPolyline
 62
7
  6
CONTINUOUS
 90
7
 70
0
 10
4.4039507379
 20
-1.9687537156
 10
4.4158987235
 20
-1.964417994
 10
4.4279088966
 20
-1.9601421542
 10
4.4399812573
 20
-1.9559261961
 10
4.4521158056
 20
-1.9517701198
 10
4.4643125415
 20
-1.9476739252
 10
4.4765714649
 20
-1.9436376123
  0
LWPOLYLINE
  5
325
100
AcDbEntity
  8
0
100
AcDbPolyline
 62
7
  6
CONTINUOUS
 90
6
 70
0
 10
4.1725884172
 20
-2.1336565845
 10
4.2552230228
 20
-2.1079585115
 10
4.2896103125
 20
-2.0970843313
 10
4.3196199191
 20
-2.086858418
 10
4.3450673579
 20
-2.0773226358
 10
4.3656284164
 20
-2.0690471149
  0
LWPOLYLINE
  5
326
100
AcDbEntity
  8
0
100
AcDbPolyline
 62
250
  6
CONTINUOUS
 90
6
 70
0
 10
6.300296214
 20
-3.4142948319
 10
6.4812326605
 20
-3.3610644858
 10
6.6544991422
 20
-3.3010147836
 10
6.8192212617
 20
-3.2344029674
 10
6.9762734164
 20
-3.1609717952
 10
7.1256556061
 20
-3.0807212669
  0
LINE
  5
327
100
AcDbEntity
  8
0
100
AcDbLine
 62
7
  6
CONTINUOUS
 10
-29.6652154568
 20
-4.2932360462
 11
-32.0763969617
 21
-4.942423031
  0
LWPOLYLINE
  5
328
100
AcDbEntity
  8
0
100
AcDbPolyline
 62
250
  6
CONTINUOUS
 90
4
 70
0
 10
18.3409345552
 20
9.2434064923
 10
18.3043147627
 20
9.2351700441
 10
18.262675065
 20
9.2293161687
 10
18.2161484032
 20
9.2258635557
  0
LINE
  5
329
100
AcDbEntity
  8
0
100
AcDbLine
 62
7
  6
CONTINUOUS
 10
18.0783453397
 20
9.5107288203
 11
18.1600212803
 21
9.5288634346
  0
LWPOLYLINE
  5
32A
100
AcDbEntity
  8
SUPERFICI
100
AcDbPolyline
 62
7
  6
CONTINUOUS
 90
7
 70
0
 10
-10.6656303709
 20
5.7184520771
 10
-10.6539614534
 20
5.7168026386
 10
-10.6422845159
 20
5.7152640961
 10
-10.6305995584
 20
5.7138364493
 10
-10.6189065809
 20
5.7125196985
 10
-10.6072055835
 20
5.7113138435
 10
-10.595496566
 20
5.7102188843
  0
LWPOLYLINE
  5
32B
100
AcDbEntity
  8
ASSI
100
AcDbPolyline
 62
7
  6
CONTINUOUS
 90
13
 70
0
 10
-10.6656303709
 20
5.7184520771
 10
-10.6873401445
 20
5.7233111173
 10
-10.7076138848
 20
5.7303635845
 10
-10.7264673719
 20
5.7395452211
 10
-10.7441385979
 20
5.7510425347
 10
-10.7604273323
 20
5.7645600332
 10
-10.7747137533
 20
5.7792911035
 10
-10.7869551475
 20
5.7951771227
 10
-10.7972757771
 20
5.8121490686
 10
-10.8053285983
 20
5.829362835
 10
-10.811022413
 20
5.8465069965
 10
-10.8145117899
 20
5.8638136513
 10
-10.8158133339
 20
5.8812631224
  0
LWPOLYLINE
  5
32C
100
AcDbEntity
  8
RACCORDO
100
AcDbPolyline
 62
7
  6
CONTINUOUS
 90
4
 70
0
 10
4.4254238892
 20
-2.1410302356
 10
4.4336345527
 20
-2.1578336095
 10
4.4432874842
 20
-2.1736988846
 10
4.4540262039
 20
-2.1883739525
  0
LINE
  5
32D
100
AcDbEntity
  8
SUPERFICI
100
AcDbLine
 62
7
  6
CONTINUOUS
 10
6.6920537171
 20
-2.7998842543
 11
6.7182612266
 21
-2.8774238982
  0
LWPOLYLINE
  5
32E
100
AcDbEntity
  8
SUPERFICI
100
AcDbPolyline
 62
7
  6
CONTINUOUS
 90
7
 70
0
 10
4.4039507379
 20
-1.9687537156
 10
4.4019326735
 20
-1.9607546106
 10
4.3996470259
 20
-1.9527617737
 10
4.397093795
 20
-1.9447752051
 10
4.3942729809
 20
-1.9367949047
 10
4.3911845836
 20
-1.9288208726
 10
4.3878286031
 20
-1.9208531086
  0
LINE
  5
32F
100
AcDbEntity
  8
0
100
AcDbLine
 62
250
  6
CONTINUOUS
 10
4.1384774003
 20
18.5102642452
 11
4.1417792222
 21
18.4726348653
  0
LWPOLYLINE
  5
330
100
AcDbEntity
  8
SUPERFICI
100
AcDbPolyline
 62
7
  6
CONTINUOUS
 90
4
 70
0
 10
6.7449199014
 20
-2.8438304516
 10
6.7443571526
 20
-2.8689574245
 10
6.7369879382
 20
-2.9384388828
 10
6.7308698052
 20
-2.9646477782
  0
LWPOLYLINE
  5
331
100
AcDbEntity
  8
ASSI
100
AcDbPolyline
 62
250
  6
CONTINUOUS
 90
29
 70
0
 10
6.8107603841
 20
-2.9046337237
 10
6.8149339623
 20
-2.8552281631
 10
6.8116001315
 20
-2.7813435663
 10
6.7988492513
 20
-2.7073972177
 10
6.7768873225
 20
-2.6345835356
 10
6.745564962
 20
-2.5629211412
 10
6.7050315528
 20
-2.4923914134
 10
6.6559412442
 20
-2.4241329073
 10
6.5981544325
 20
-2.3581819677
 10
6.5318107214
 20
-2.2945022499
 10
6.4579830709
 20
-2.2341232739
 10
6.3765516736
 20
-2.1770996021
 10
6.287636337
 20
-2.1233766723
 10
6.1926694431
 20
-2.0738203183
 10
6.0915503899
 20
-2.0284970244
 10
5.9843797795
 20
-1.9873403064
 10
5.8728917999
 20
-1.9510165454
 10
5.7570106112
 20
-1.9196048105
 10
5.6368120533
 20
-1.8930260325
 10
5.514257835
 20
-1.8717093854
 10
5.3893393394
 20
-1.8557405398
 10
5.2620651834
 20
-1.845033825
 10
5.1344229251
 20
-1.8397614027
 10
5.0062227041
 20
-1.8400450387
 10
4.8776543808
 20
-1.8457629671
 10
4.7512750951
 20
-1.8567220519
 10
4.6279372269
 20
-1.8728579144
 10
4.5067883962
 20
-1.8942349333
 10
4.3878286031
 20
-1.9208531086
  0
LWPOLYLINE
  5
332
100
AcDbEntity
  8
0
100
AcDbPolyline
 62
7
  6
CONTINUOUS
 90
11
 70
0
 10
6.9751614405
 20
-2.7098633209
 10
6.9744487275
 20
-2.7123462941
 10
6.9713222283
 20
-2.7207134948
 10
6.9651430757
 20
-2.7337197228
 10
6.9549986996
 20
-2.7513533319
 10
6.9401716824
 20
-2.7732584166
 10
6.9203323472
 20
-2.7986784407
 10
6.8952783027
 20
-2.8269422264
 10
6.8648556904
 20
-2.857493572
 10
6.82892205
 20
-2.8898716637
 10
6.7871560958
 20
-2.9238196245
  0
LWPOLYLINE
  5
333
100
AcDbEntity
  8
0
100
AcDbPolyline
 62
7
  6
CONTINUOUS
 90
22
 70
0
 10
9.6680332381
 20
11.7718445214
 10
9.6971514257
 20
11.863389076
 10
9.7174846971
 20
11.9607660904
 10
9.7290330523
 20
12.0639755645
 10
9.7317464786
 20
12.1739716134
 10
9.7256749888
 20
12.289800122
 10
9.7109686208
 20
12.4085987457
 10
9.6874122182
 20
12.5304414915
 10
9.6552209375
 20
12.6552543524
 10
9.6151902871
 20
12.7799529632
 10
9.5671249321
 20
12.9045344771
 10
9.5112202073
 20
13.029001741
 10
9.4488576258
 20
13.1502789299
 10
9.3798762761
 20
13.2682865562
 10
9.3044370696
 20
13.3831041076
 10
9.2244042539
 20
13.491894222
 10
9.1396633692
 20
13.5945067129
 10
9.0503288754
 20
13.6910917669
 10
8.958608399
 20
13.779262582
 10
8.8652378157
 20
13.8582235576
 10
8.7694812498
 20
13.9287702943
 10
8.6713387015
 20
13.9909027922
  0
LWPOLYLINE
  5
334
100
AcDbEntity
  8
0
100
AcDbPolyline
 62
250
  6
CONTINUOUS
 90
3
 70
0
 10
16.8638870999
 20
11.6869745093
 10
16.9036487881
 20
11.7507601795
 10
16.9451037709
 20
11.816475702
  0
LWPOLYLINE
  5
335
100
AcDbEntity
  8
0
100
AcDbPolyline
 62
250
  6
CONTINUOUS
 90
4
 70
0
 10
16.9451037709
 20
11.816475702
 10
17.0330695326
 20
11.953963559
 10
17.079535752
 20
12.0258576989
 10
17.1278535593
 20
12.0996942852
  0
LWPOLYLINE
  5
336
100
AcDbEntity
  8
0
100
AcDbPolyline
 62
250
  6
CONTINUOUS
 90
4
 70
0
 10
17.1597955358
 20
11.8885103222
 10
17.1148394165
 20
11.8185303466
 10
17.0712102259
 20
11.7498204571
 10
16.9870050138
 20
11.6164966114
  0
LWPOLYLINE
  5
337
100
AcDbEntity
  8
0
100
AcDbPolyline
 62
250
  6
CONTINUOUS
 90
15
 70
0
 10
16.98700509
 20
11.6164965873
 10
16.9653613235
 20
11.5838375287
 10
16.9417692402
 20
11.5530137348
 10
16.9164359096
 20
11.524381053
 10
16.8897061632
 20
11.4983427797
 10
16.8617828729
 20
11.4750474719
 10
16.8326576458
 20
11.4544716555
 10
16.8026120772
 20
11.4368317401
 10
16.7719548309
 20
11.4222944219
 10
16.7406733827
 20
11.4108537872
 10
16.7090927344
 20
11.4026436715
 10
16.6775249455
 20
11.3977292228
 10
16.6459362858
 20
11.3961139919
 10
16.6145488573
 20
11.3978509854
 10
16.5996980172
 20
11.3999226479
  0
LINE
  5
338
100
AcDbEntity
  8
0
100
AcDbLine
 62
250
  6
CONTINUOUS
 10
17.1278535593
 20
12.0996942852
 11
17.2833713244
 21
12.3332443925
  0
LWPOLYLINE
  5
339
100
AcDbEntity
  8
0
100
AcDbPolyline
 62
250
  6
CONTINUOUS
 90
5
 70
0
 10
17.4038046477
 20
12.2576100359
 10
17.3522993467
 20
12.1812782507
 10
17.3022838103
 20
12.1061597839
 10
17.2536404515
 20
12.0322914937
 10
17.1597955358
 20
11.8885103222
  0
LWPOLYLINE
  5
33A
100
AcDbEntity
  8
0
100
AcDbPolyline
 62
250
  6
CONTINUOUS
 90
16
 70
0
 10
17.1916671477
 20
9.6880428083
 10
17.1266224328
 20
9.6112440091
 10
17.0597619661
 20
9.537701456
 10
16.99129921
 20
9.4676499451
 10
16.9214527427
 20
9.4013131268
 10
16.8504455597
 20
9.3389027917
 10
16.7785043627
 20
9.2806181945
 10
16.705858835
 20
9.2266454178
 10
16.632740909
 20
9.1771567783
 10
16.5593840249
 20
9.1323102761
 10
16.486022386
 20
9.0922490905
 10
16.4128902109
 20
9.0571011233
 10
16.3402209853
 20
9.0269785898
 10
16.2682467172
 20
9.0019776608
 10
16.1971971955
 20
8.9821781558
 10
16.127299257
 20
8.9676432877
  0
LWPOLYLINE
  5
33B
100
AcDbEntity
  8
0
100
AcDbPolyline
 62
7
  6
CONTINUOUS
 90
4
 70
0
 10
6.7871560958
 20
-2.9238196245
 10
6.7393152852
 20
-2.9590133851
 10
6.6854596152
 20
-2.9949431388
 10
6.625631446
 20
-3.0311800893
  0
LINE
  5
33C
100
AcDbEntity
  8
0
100
AcDbLine
 62
250
  6
CONTINUOUS
 10
22.8134743252
 20
5.8254109256
 11
-12.1883113435
 21
-14.3841814441
  0
LWPOLYLINE
  5
33D
100
AcDbEntity
  8
RACCORDO
100
AcDbPolyline
 62
7
  6
CONTINUOUS
 90
14
 70
0
 10
30.9105850397
 20
8.3691021115
 10
30.9632028805
 20
8.398055492
 10
31.0136303833
 20
8.4230936847
 10
31.0618675479
 20
8.4442166895
 10
31.1081587242
 20
8.4614985675
 10
31.1522595623
 20
8.4748652577
 10
31.1934370132
 20
8.4840945774
 10
31.2316422132
 20
8.4891173717
 10
31.266924026
 20
8.4900027955
 10
31.2986959932
 20
8.4867361313
 10
31.3268994488
 20
8.479247978
 10
31.3515930587
 20
8.4676077366
 10
31.3723663632
 20
8.4520088926
 10
31.3750338943
 20
8.4494281596
  0
LWPOLYLINE
  5
33E
100
AcDbEntity
  8
0
100
AcDbPolyline
 62
7
  6
CONTINUOUS
 90
4
 70
0
 10
6.625631446
 20
-3.0311800893
 10
6.5466267469
 20
-3.0742191538
 10
6.4595515928
 20
-3.1164419389
 10
6.3646155519
 20
-3.1572933694
  0
LWPOLYLINE
  5
33F
100
AcDbEntity
  8
SUPERFICI
100
AcDbPolyline
 62
7
  6
CONTINUOUS
 90
39
 70
0
 10
-9.6655641588
 20
6.2218542542
 10
-9.6037896152
 20
6.234766016
 10
-9.5411704794
 20
6.2462469407
 10
-9.4777067515
 20
6.2562970283
 10
-9.4132289409
 20
6.2649421889
 10
-9.3479065381
 20
6.2721565124
 10
-9.2822480146
 20
6.2778622687
 10
-9.2162170038
 20
6.2820311444
 10
-9.1498498721
 20
6.2846914529
 10
-9.0837641905
 20
6.2858504032
 10
-9.0181876388
 20
6.2855025467
 10
-8.9528925372
 20
6.283653332
 10
-8.8878134165
 20
6.2803263146
 10
-8.8231849365
 20
6.2755982551
 10
-8.7587724375
 20
6.2693923929
 10
-8.6938064711
 20
6.2615020008
 10
-8.6282091657
 20
6.2520223954
 10
-8.562058393
 20
6.24085826
 10
-8.4948183184
 20
6.2275169184
 10
-8.426365896
 20
6.2121062641
 10
-8.3568241718
 20
6.1945184036
 10
-8.2860264499
 20
6.1739369795
 10
-8.2135464479
 20
6.1503646234
 10
-8.1398104481
 20
6.1237987038
 10
-8.0659306021
 20
6.0934149686
 10
-7.9914172596
 20
6.059013708
 10
-7.9167600708
 20
6.0207946318
 10
-7.8445401378
 20
5.9785326172
 10
-7.7747209851
 20
5.9320739194
 10
-7.7073390882
 20
5.8815722833
 10
-7.6450849755
 20
5.8272638197
 10
-7.5879536318
 20
5.7686882019
 10
-7.5359500723
 20
5.7063057566
 10
-7.4917798708
 20
5.6417335756
 10
-7.4560309091
 20
5.574936513
 10
-7.4281153054
 20
5.5059497147
 10
-7.4089749884
 20
5.4364957096
 10
-7.3989890865
 20
5.3667486792
 10
-7.3972157224
 20
5.3216614149
  0
LWPOLYLINE
  5
340
100
AcDbEntity
  8
0
100
AcDbPolyline
 62
7
  6
CONTINUOUS
 90
8
 70
0
 10
18.0783453397
 20
9.5107288203
 10
17.9891516958
 20
9.4921775519
 10
17.9034952857
 20
9.476115088
 10
17.8214248887
 20
9.4627125767
 10
17.7429157765
 20
9.4520627187
 10
17.6679152899
 20
9.4441943342
 10
17.5963766859
 20
9.43907849
 10
17.5282461036
 20
9.4366295952
  0
LWPOLYLINE
  5
341
100
AcDbEntity
  8
0
100
AcDbPolyline
 62
250
  6
CONTINUOUS
 90
16
 70
0
 10
18.3631588443
 20
9.5112680437
 10
18.3056841344
 20
9.4997435087
 10
18.2492724882
 20
9.4887096072
 10
18.1936870219
 20
9.4783049987
 10
18.1385319504
 20
9.4687243031
 10
18.0838333582
 20
9.4599964335
 10
18.0299670293
 20
9.4520087429
 10
17.9767200335
 20
9.4448250041
 10
17.9239277452
 20
9.4385674999
 10
17.872001576
 20
9.4331906761
 10
17.8207745841
 20
9.4286804696
 10
17.7700424622
 20
9.4251434526
 10
17.7202471184
 20
9.4226069535
 10
17.6714633575
 20
9.4210283392
 10
17.6232651675
 20
9.42039443
 10
17.5753528675
 20
9.4207247814
  0
LINE
  5
342
100
AcDbEntity
  8
0
100
AcDbLine
 62
250
  6
CONTINUOUS
 10
18.1600212803
 20
9.5288634346
 11
18.1704831431
 21
9.5309152624
  0
LINE
  5
343
100
AcDbEntity
  8
0
100
AcDbLine
 62
7
  6
CONTINUOUS
 10
-10.1044401107
 20
5.9826549149
 11
-10.2850852114
 21
5.950553237
  0
LINE
  5
344
100
AcDbEntity
  8
0
100
AcDbLine
 62
250
  6
CONTINUOUS
 10
18.3196200286
 20
10.3131501135
 11
18.2839148459
 21
10.3071429988
  0
LINE
  5
345
100
AcDbEntity
  8
0
100
AcDbLine
 62
250
  6
CONTINUOUS
 10
16.5608407352
 20
8.3492339308
 11
16.563369717
 21
8.3496250715
  0
LWPOLYLINE
  5
346
100
AcDbEntity
  8
0
100
AcDbPolyline
 62
250
  6
CONTINUOUS
 90
7
 70
0
 10
18.1704831431
 20
9.5309152624
 10
18.2019889818
 20
9.5351027412
 10
18.2338660708
 20
9.5363469101
 10
18.2661830554
 20
9.5345747291
 10
18.2987780956
 20
9.5297680938
 10
18.3312192424
 20
9.5219743655
 10
18.3631588443
 20
9.5112680437
  0
LWPOLYLINE
  5
347
100
AcDbEntity
  8
SUPERFICI
100
AcDbPolyline
 62
7
  6
CONTINUOUS
 90
24
 70
0
 10
-9.6655641588
 20
6.2218542542
 10
-9.5498606195
 20
6.2361625207
 10
-9.4315679793
 20
6.2455203747
 10
-9.3113206417
 20
6.2498316876
 10
-9.1897634932
 20
6.2490273959
 10
-9.0675484449
 20
6.2430658705
 10
-8.9453309363
 20
6.2319331411
 10
-8.8237664199
 20
6.2156429702
 10
-8.7035068465
 20
6.1942367798
 10
-8.5851971681
 20
6.1677834291
 10
-8.4694718797
 20
6.1363788452
 10
-8.3569516162
 20
6.1001455088
 10
-8.2482398238
 20
6.0592317971
 10
-8.1439195239
 20
6.013811188
 10
-8.0445501864
 20
5.9640813302
 10
-7.9506647292
 20
5.9102629827
 10
-7.8627666601
 20
5.8525988312
 10
-7.7813273765
 20
5.7913521863
 10
-7.7067836372
 20
5.7268055717
 10
-7.6395352206
 20
5.6592592086
 10
-7.5799427799
 20
5.5890294061
 10
-7.5283259093
 20
5.5164468644
 10
-7.4849614304
 20
5.4418549016
 10
-7.4500819067
 20
5.3656076122
  0
LWPOLYLINE
  5
348
100
AcDbEntity
  8
0
100
AcDbPolyline
 62
250
  6
CONTINUOUS
 90
16
 70
0
 10
18.216146483
 20
9.2258635226
 10
18.2105380173
 20
9.2252074559
 10
18.204737195
 20
9.2234527074
 10
18.1988624864
 20
9.2206453465
 10
18.193088284
 20
9.2168975335
 10
18.18744243
 20
9.2122869283
 10
18.1818025511
 20
9.2067295451
 10
18.1762280201
 20
9.2002392304
 10
18.1708576889
 20
9.1929396368
 10
18.1656845348
 20
9.1847893813
 10
18.1607950051
 20
9.1759163488
 10
18.1562823902
 20
9.166471219
 10
18.1521810386
 20
9.1564487469
 10
18.1485729181
 20
9.1459626648
 10
18.145540283
 20
9.1352609644
 10
18.1431375435
 20
9.1245718737
  0
LWPOLYLINE
  5
349
100
AcDbEntity
  8
0
100
AcDbPolyline
 62
7
  6
CONTINUOUS
 90
4
 70
0
 10
-9.7313153401
 20
6.0444005443
 10
-9.8016376016
 20
6.0362640915
 10
-9.9547063642
 20
6.0123490824
 10
-10.1044401107
 20
5.9826549149
  0
LWPOLYLINE
  5
34A
100
AcDbEntity
  8
RACCORDO
100
AcDbPolyline
 62
7
  6
CONTINUOUS
 90
26
 70
0
 10
-9.5298949514
 20
5.8068354156
 10
-9.4393657287
 20
5.8155981817
 10
-9.3473664499
 20
5.8206218536
 10
-9.2543707504
 20
5.8218870676
 10
-9.1609184627
 20
5.8193973439
 10
-9.067401446
 20
5.8131743238
 10
-8.9740596516
 20
5.8032287736
 10
-8.8815051115
 20
5.7896186598
 10
-8.7900056473
 20
5.7723767927
 10
-8.6992980618
 20
5.7513926417
 10
-8.6094976696
 20
5.7265614547
 10
-8.5214371026
 20
5.697977804
 10
-8.4359341235
 20
5.665818801
 10
-8.3533268344
 20
5.6301400396
 10
-8.2741504435
 20
5.5910993539
 10
-8.1993839042
 20
5.5491726054
 10
-8.1295876101
 20
5.5047628864
 10
-8.0647179633
 20
5.4579399641
 10
-8.0047669071
 20
5.4087347259
 10
-7.950033853
 20
5.3574062742
 10
-7.9006866448
 20
5.3041305872
 10
-7.8566437023
 20
5.2487551678
 10
-7.8180624704
 20
5.1912721879
 10
-7.7853779532
 20
5.1320962299
 10
-7.7589258467
 20
5.0717056969
 10
-7.7430001357
 20
5.0230525901
  0
LWPOLYLINE
  5
34B
100
AcDbEntity
  8
RACCORDO
100
AcDbPolyline
 62
7
  6
CONTINUOUS
 90
19
 70
0
 10
-9.5298949514
 20
5.8068354156
 10
-9.5442516803
 20
5.8060083383
 10
-9.5591186393
 20
5.8067567753
 10
-9.5743521768
 20
5.8091223533
 10
-9.5898239014
 20
5.8131984855
 10
-9.6053431156
 20
5.8189527074
 10
-9.6206613087
 20
5.8262102019
 10
-9.6355817997
 20
5.8349735208
 10
-9.6499618698
 20
5.8452063247
 10
-9.6636374547
 20
5.8566462771
 10
-9.6763787959
 20
5.8691898614
 10
-9.6881094199
 20
5.8828400472
 10
-9.6988481395
 20
5.8975151151
 10
-9.708501071
 20
5.9133803902
 10
-9.7167117345
 20
5.9301837642
 10
-9.7231582973
 20
5.9471925451
 10
-9.7277423036
 20
5.9640674219
 10
-9.7304689551
 20
5.9809020836
 10
-9.7313153401
 20
5.9975744534
  0
LINE
  5
34C
100
AcDbEntity
  8
0
100
AcDbLine
 62
250
  6
CONTINUOUS
 10
18.3223114188
 20
6.7939589181
 11
18.3193036364
 21
6.7941135311
  0
LWPOLYLINE
  5
34D
100
AcDbEntity
  8
0
100
AcDbPolyline
 62
250
  6
CONTINUOUS
 90
57
 70
0
 10
17.3302866958
 20
6.8783471877
 10
17.4625101047
 20
6.8705889703
 10
17.600367043
 20
6.87104775
 10
17.7383261242
 20
6.8801917722
 10
17.8760443603
 20
6.8979983032
 10
18.0131793619
 20
6.9244230734
 10
18.1493901899
 20
6.9594003864
 10
18.2843382027
 20
7.0028432833
 10
18.4176878983
 20
7.0546437582
 10
18.5491077484
 20
7.1146730268
 10
18.6782710223
 20
7.1827818469
 10
18.8048566001
 20
7.2588008894
 10
18.9285497698
 20
7.3425411589
 10
19.0490430108
 20
7.4337944639
 10
19.166036758
 20
7.5323339343
 10
19.2792401465
 20
7.6379145854
 10
19.3883717347
 20
7.7502739272
 10
19.4931602044
 20
7.8691326165
 10
19.5933450348
 20
7.994195152
 10
19.6886771509
 20
8.1251506084
 10
19.7789195418
 20
8.26167341
 10
19.8638478508
 20
8.4034241395
 10
19.9432509327
 20
8.5500503822
 10
20.016931379
 20
8.7011876022
 10
20.0847060084
 20
8.8564600485
 10
20.1464063226
 20
9.0154816895
 10
20.2018789248
 20
9.1778571722
 10
20.2509859014
 20
9.3431828056
 10
20.2936051647
 20
9.5110475642
 10
20.3296307566
 20
9.6810341096
 10
20.3589731116
 20
9.8527198286
 10
20.3815592802
 20
10.0256778834
 10
20.3973331096
 20
10.199478273
 10
20.4062553834
 20
10.3736889023
 10
20.4083039196
 20
10.5478766563
 10
20.4034736251
 20
10.7216084766
 10
20.3917765088
 20
10.8944524387
 10
20.3732416517
 20
11.0659788251
 10
20.3479151342
 20
11.2357611944
 10
20.3158599221
 20
11.4033774407
 10
20.2771557097
 20
11.5684108436
 10
20.2318987217
 20
11.7304511042
 10
20.1802014742
 20
11.8890953648
 10
20.1221924947
 20
12.0439492107
 10
20.0580160026
 20
12.194627651
 10
19.9878315508
 20
12.3407560752
 10
19.9118136289
 20
12.4819711851
 10
19.8301512295
 20
12.6179218977
 10
19.7430473781
 20
12.748270218
 10
19.6507186286
 20
12.8726920797
 10
19.5533945248
 20
12.9908781503
 10
19.4513170299
 20
13.1025346007
 10
19.3447399245
 20
13.2073838353
 10
19.2339281761
 20
13.3051651824
 10
19.1191572802
 20
13.3956355423
 10
19.0007125754
 20
13.4785699912
 10
18.8788885337
 20
13.5537623411
  0
LINE
  5
34E
100
AcDbEntity
  8
SUPERFICI
100
AcDbLine
 62
7
  6
CONTINUOUS
 10
6.7182612266
 20
-2.8774238982
 11
6.7343209992
 21
-2.9498635324
  0
LWPOLYLINE
  5
34F
100
AcDbEntity
  8
RACCORDO
100
AcDbPolyline
 62
7
  6
CONTINUOUS
 90
28
 70
0
 10
6.4181884115
 20
-3.1342407128
 10
6.416912077
 20
-3.1229647178
 10
6.4033002841
 20
-3.0608848772
 10
6.3832097771
 20
-2.9995083028
 10
6.3567576706
 20
-2.9391177698
 10
6.3240731533
 20
-2.8799418118
 10
6.2854919214
 20
-2.822458832
 10
6.2414489789
 20
-2.7670834125
 10
6.1921017707
 20
-2.7138077255
 10
6.1373687166
 20
-2.6624792739
 10
6.0774176605
 20
-2.6132740357
 10
6.0125480137
 20
-2.5664511134
 10
5.9427517195
 20
-2.5220413943
 10
5.8679851802
 20
-2.4801146458
 10
5.7888087894
 20
-2.4410739602
 10
5.7062015002
 20
-2.4053951987
 10
5.6206985211
 20
-2.3732361957
 10
5.5326379541
 20
-2.344652545
 10
5.442837562
 20
-2.3198213581
 10
5.3521299764
 20
-2.298837207
 10
5.2606305123
 20
-2.2815953399
 10
5.1680759722
 20
-2.2679852262
 10
5.0747341777
 20
-2.258039676
 10
4.9812171611
 20
-2.2518166558
 10
4.8877648733
 20
-2.2493269321
 10
4.7947691739
 20
-2.2505921461
 10
4.702769895
 20
-2.2556158181
 10
4.6122406723
 20
-2.2643785841
  0
LWPOLYLINE
  5
350
100
AcDbEntity
  8
0
100
AcDbPolyline
 62
250
  6
CONTINUOUS
 90
31
 70
0
 10
15.1298591472
 20
11.5813817671
 10
15.0794281669
 20
11.4426122499
 10
15.0347096756
 20
11.3010045819
 10
14.9958262434
 20
11.1569468997
 10
14.9628844472
 20
11.0108340556
 10
14.9359745782
 20
10.8630665345
 10
14.9151703944
 20
10.7140493571
 10
14.9005289187
 20
10.564190969
 10
14.8920902822
 20
10.4139021217
 10
14.8898776148
 20
10.2635947464
 10
14.8938969812
 20
10.1136808253
 10
14.9041373646
 20
9.9645712619
 10
14.9205706969
 20
9.8166747552
 10
14.9431519353
 20
9.6703966794
 10
14.9718191863
 20
9.5261379723
 10
15.006493875
 20
9.384294037
 10
15.0470809604
 20
9.2452536581
 10
15.0934691961
 20
9.1093979354
 10
15.1455314353
 20
8.97709924
 10
15.203124979
 20
8.8487201936
 10
15.2660919672
 20
8.7246126741
 10
15.3342598118
 20
8.6051168515
 10
15.4074416695
 20
8.4905602558
 10
15.4854369539
 20
8.3812568785
 10
15.5680318853
 20
8.2775063125
 10
15.6550000768
 20
8.179592931
 10
15.7461031547
 20
8.0877851078
 10
15.8410914116
 20
8.0023344817
 10
15.9397044915
 20
7.9234752669
 10
16.0416721027
 20
7.8514236111
 10
16.146714759
 20
7.7863770028
  0
LWPOLYLINE
  5
351
100
AcDbEntity
  8
0
100
AcDbPolyline
 62
250
  6
CONTINUOUS
 90
16
 70
0
 10
15.9972282257
 20
10.1873512463
 10
16.0020889874
 20
10.1961308018
 10
16.0076884882
 20
10.2048045448
 10
16.0139225651
 20
10.2132103774
 10
16.0205750362
 20
10.2211013991
 10
16.0275724913
 20
10.2284533202
 10
16.0350654724
 20
10.2354324123
 10
16.043001772
 20
10.2419544919
 10
16.0512092439
 20
10.247856588
 10
16.0597109154
 20
10.2531325009
 10
16.0683646495
 20
10.2576628357
 10
16.0770202254
 20
10.2613526252
 10
16.0856733513
 20
10.2641764359
 10
16.0941970696
 20
10.2660560735
 10
16.102367416
 20
10.2669254325
 10
16.110028729
 20
10.2667811877
  0
LWPOLYLINE
  5
352
100
AcDbEntity
  8
0
100
AcDbPolyline
 62
250
  6
CONTINUOUS
 90
16
 70
0
 10
15.5461349433
 20
10.6240548296
 10
15.5510448612
 20
10.6328609514
 10
15.5567343543
 20
10.6415228975
 10
15.5630900764
 20
10.6498659542
 10
15.5699157138
 20
10.6576547289
 10
15.5771383614
 20
10.6648766304
 10
15.5848853755
 20
10.6716963401
 10
15.5930963831
 20
10.6780264694
 10
15.6016075209
 20
10.683694832
 10
15.6104544657
 20
10.6886883918
 10
15.6194808915
 20
10.6928986015
 10
15.6285224717
 20
10.696234516
 10
15.6375666711
 20
10.69866282
 10
15.6464874346
 20
10.700110046
 10
15.6550704135
 20
10.7005372795
 10
15.6631358819
 20
10.699940233
  0
LWPOLYLINE
  5
353
100
AcDbEntity
  8
0
100
AcDbPolyline
 62
250
  6
CONTINUOUS
 90
18
 70
0
 10
17.8566009054
 20
11.4017918989
 10
17.8367086137
 20
11.3701470529
 10
17.8152880724
 20
11.3400941287
 10
17.792586917
 20
11.3119201973
 10
17.7690162808
 20
11.2860485281
 10
17.7446322793
 20
11.2624510138
 10
17.7190988664
 20
11.240752048
 10
17.6925310944
 20
11.2210617525
 10
17.6652602962
 20
11.2036594274
 10
17.6372087991
 20
11.1885780291
 10
17.6085445476
 20
11.1760380367
 10
17.5795447691
 20
11.1661655868
 10
17.5502852301
 20
11.1589774991
 10
17.5210907535
 20
11.1545837133
 10
17.4921955921
 20
11.1530733845
 10
17.4635537991
 20
11.1545175263
 10
17.4353146092
 20
11.1589353682
 10
17.4078557597
 20
11.166284388
  0
LINE
  5
354
100
AcDbEntity
  8
0
100
AcDbLine
 62
250
  6
CONTINUOUS
 10
18.1188703258
 20
9.5197737031
 11
18.12375415
 21
9.5274571257
  0
LINE
  5
355
100
AcDbEntity
  8
0
100
AcDbLine
 62
7
  6
CONTINUOUS
 10
5.3545237764
 20
-9.8729760172
 11
6.3610388839
 21
-8.774272561
  0
LWPOLYLINE
  5
356
100
AcDbEntity
  8
0
100
AcDbPolyline
 62
7
  6
CONTINUOUS
 90
19
 70
0
 10
6.3610388839
 20
-8.774272561
 10
6.4518422007
 20
-8.678271607
 10
6.5442823237
 20
-8.5861252842
 10
6.6383592528
 20
-8.4978335927
 10
6.7348101301
 20
-8.4127863592
 10
6.8328978135
 20
-8.3315937569
 10
6.9304108768
 20
-8.2560863056
 10
7.027336267
 20
-8.1863931499
 10
7.1236870371
 20
-8.1223851453
 10
7.2172909203
 20
-8.0655053778
 10
7.3080855182
 20
-8.0159157733
 10
7.3961332292
 20
-7.973454406
 10
7.4794489825
 20
-7.9390785845
 10
7.5579252863
 20
-7.9129719808
 10
7.6316696323
 20
-7.8949509229
 10
7.6990194246
 20
-7.8854217027
 10
7.7594204647
 20
-7.8845197509
 10
7.8134269511
 20
-7.8921096368
 10
7.8610388839
 20
-7.9081913604
  0
LWPOLYLINE
  5
357
100
AcDbEntity
  8
RACCORDO
100
AcDbPolyline
 62
7
  6
CONTINUOUS
 90
22
 70
0
 10
-15.4475528848
 20
-19.4440602485
 10
-15.501585749
 20
-19.4766856484
 10
-15.5560556205
 20
-19.512213885
 10
-15.6109624993
 20
-19.5506449581
 10
-15.6666171729
 20
-19.5922253361
 10
-15.7227088538
 20
-19.6367085507
 10
-15.7783051797
 20
-19.6833551969
 10
-15.8333978708
 20
-19.7322014357
 10
-15.887995207
 20
-19.783211106
 10
-15.9411896651
 20
-19.8355363193
 10
-15.9929577963
 20
-19.8891990645
 10
-16.0433230494
 20
-19.9441773527
 10
-16.0914482473
 20
-19.9995573285
 10
-16.1372959483
 20
-20.055345706
 10
-16.1809035942
 20
-20.111535771
 10
-16.2215463337
 20
-20.1671935261
 10
-16.2591746093
 20
-20.2223100736
 10
-16.2938379785
 20
-20.2768943111
 10
-16.3249602629
 20
-20.3300389332
 10
-16.352349403
 20
-20.3814415046
 10
-16.3761974582
 20
-20.4314044606
 10
-16.3965044287
 20
-20.4799278011
  0
LINE
  5
358
100
AcDbEntity
  8
RACCORDO
100
AcDbLine
 62
7
  6
CONTINUOUS
 10
-16.1120159092
 20
-18.7811583448
 11
-12.0461519174
 21
-16.4335794331
  0
LINE
  5
359
100
AcDbEntity
  8
RACCORDO
100
AcDbLine
 62
7
  6
CONTINUOUS
 10
23.8442179301
 20
4.2890703048
 11
30.9105850397
 21
8.3691021115
  0
LINE
  5
35A
100
AcDbEntity
  8
0
100
AcDbLine
 62
250
  6
CONTINUOUS
 10
23.8101688618
 20
3.6063526549
 11
-11.1916168069
 21
-16.6032397148
  0
LINE
  5
35B
100
AcDbEntity
  8
RACCORDO
100
AcDbLine
 62
7
  6
CONTINUOUS
 10
-15.4475528848
 20
-19.4440602485
 11
-11.381688893
 21
-17.0964813368
  0
LINE
  5
35C
100
AcDbEntity
  8
RACCORDO
100
AcDbLine
 62
7
  6
CONTINUOUS
 10
23.6200967757
 20
3.1131110329
 11
31.5750480641
 21
7.7062002078
  0
LWPOLYLINE
  5
35D
100
AcDbEntity
  8
ASSI
100
AcDbPolyline
 62
250
  6
CONTINUOUS
 90
29
 70
0
 10
-9.8100335524
 20
6.4619877628
 10
-9.6846163695
 20
6.4897738466
 10
-9.556112345
 20
6.5123738748
 10
-9.4251638343
 20
6.5296748763
 10
-9.292425412
 20
6.5415903681
 10
-9.1585606
 20
6.5480607882
 10
-9.0242385508
 20
6.5490537927
 10
-8.8901307023
 20
6.5445644179
 10
-8.7569074217
 20
6.5346151049
 10
-8.6252346547
 20
6.5192555875
 10
-8.4957705962
 20
6.4985626436
 10
-8.3691624005
 20
6.4726397114
 10
-8.2460429462
 20
6.4416163723
 10
-8.1270276728
 20
6.4056477032
 10
-8.0127115039
 20
6.3649135014
 10
-7.9036658738
 20
6.3196173855
 10
-7.8004358709
 20
6.2699857781
 10
-7.7035375127
 20
6.2162667737
 10
-7.6134551668
 20
6.1587288982
 10
-7.5306391294
 20
6.0976597674
 10
-7.4555033745
 20
6.0333646486
 10
-7.3884234846
 20
5.9661649348
 10
-7.329734773
 20
5.8963965386
 10
-7.279730608
 20
5.8244082123
 10
-7.2386609464
 20
5.7505598054
 10
-7.2067310838
 20
5.6752204652
 10
-7.1841006285
 20
5.5987667918
 10
-7.1708827039
 20
5.5215809554
 10
-7.167089683
 20
5.4522966435
  0
LINE
  5
35E
100
AcDbEntity
  8
0
100
AcDbLine
 62
250
  6
CONTINUOUS
 10
16.9596287848
 20
10.2763199652
 11
17.033291329
 21
10.2791168799
  0
LINE
  5
35F
100
AcDbEntity
  8
0
100
AcDbLine
 62
250
  6
CONTINUOUS
 10
16.81656391
 20
10.2718613701
 11
16.9596287848
 21
10.2763199652
  0
LINE
  5
360
100
AcDbEntity
  8
0
100
AcDbLine
 62
250
  6
CONTINUOUS
 10
16.6808096747
 20
10.2679048602
 11
16.81656391
 21
10.2718613701
  0
LWPOLYLINE
  5
361
100
AcDbEntity
  8
0
100
AcDbPolyline
 62
7
  6
CONTINUOUS
 90
17
 70
0
 10
17.5282461036
 20
9.4366295952
 10
17.4697613341
 20
9.4363761624
 10
17.4401008536
 20
9.4348812865
 10
17.4105371753
 20
9.4309806255
 10
17.3812623365
 20
9.4246693225
 10
17.3524509158
 20
9.4159551727
 10
17.324268586
 20
9.4048537055
 10
17.2968923533
 20
9.3913940803
 10
17.2704857922
 20
9.3756592307
 10
17.2451785851
 20
9.3577531257
 10
17.2210701941
 20
9.3377626565
 10
17.1982327698
 20
9.3157513656
 10
17.1768139389
 20
9.291854504
 10
17.1569964285
 20
9.2662825931
 10
17.1388868575
 20
9.2391924956
 10
17.1225371996
 20
9.2106621452
 10
17.1197267418
 20
9.2052639303
  0
LINE
  5
362
100
AcDbEntity
  8
0
100
AcDbLine
 62
7
  6
CONTINUOUS
 10
17.4774126183
 20
9.436373637
 11
17.4776980041
 21
9.4363704718
  0
LINE
  5
363
100
AcDbEntity
  8
0
100
AcDbLine
 62
250
  6
CONTINUOUS
 10
17.1916671477
 20
9.6880428083
 11
16.974752908
 21
9.6912463004
  0
LINE
  5
364
100
AcDbEntity
  8
0
100
AcDbLine
 62
250
  6
CONTINUOUS
 10
16.974752908
 20
9.6912463004
 11
16.9055235331
 21
9.6928212905
  0
LWPOLYLINE
  5
365
100
AcDbEntity
  8
0
100
AcDbPolyline
 62
250
  6
CONTINUOUS
 90
3
 70
0
 10
16.9055235331
 20
9.6928212905
 10
16.772047979
 20
9.6971714279
 10
16.7076502
 20
9.6996264351
  0
LWPOLYLINE
  5
366
100
AcDbEntity
  8
RACCORDO
100
AcDbPolyline
 62
7
  6
CONTINUOUS
 90
10
 70
0
 10
10.7572841815
 20
7.8068197769
 10
10.7208644534
 20
7.8084307277
 10
10.6836282441
 20
7.8069800381
 10
10.6455755536
 20
7.8024677083
 10
10.606572401
 20
7.7948578317
 10
10.5667527671
 20
7.7841863149
 10
10.5265185949
 20
7.770560877
 10
10.4860038653
 20
7.7540174244
 10
10.4450745973
 20
7.7345200507
 10
10.403730791
 20
7.7120687559
  0
LWPOLYLINE
  5
367
100
AcDbEntity
  8
0
100
AcDbPolyline
 62
250
  6
CONTINUOUS
 90
4
 70
0
 10
16.7076502
 20
9.6996264351
 10
16.5840601377
 20
9.7057061354
 10
16.5247244267
 20
9.7089283925
 10
16.4670197734
 20
9.7124990394
  0
LWPOLYLINE
  5
368
100
AcDbEntity
  8
0
100
AcDbPolyline
 62
250
  6
CONTINUOUS
 90
4
 70
0
 10
17.4776980041
 20
9.4363704718
 10
17.5093938217
 20
9.4345708006
 10
17.5426642004
 20
9.429277541
 10
17.5753514215
 20
9.420724836
  0
LINE
  5
369
100
AcDbEntity
  8
0
100
AcDbLine
 62
250
  6
CONTINUOUS
 10
23.5298527677
 20
6.2683939307
 11
22.917480332
 21
6.3230528996
  0
LINE
  5
36A
100
AcDbEntity
  8
0
100
AcDbLine
 62
7
  6
CONTINUOUS
 10
18.1870802276
 20
6.8018717485
 11
17.3302866958
 21
6.8783471877
  0
LINE
  5
36B
100
AcDbEntity
  8
RACCORDO
100
AcDbLine
 62
7
  6
CONTINUOUS
 10
13.9138807055
 20
7.5250691608
 11
10.7572841815
 21
7.8068197769
  0
LINE
  5
36C
100
AcDbEntity
  8
RACCORDO
100
AcDbLine
 62
7
  6
CONTINUOUS
 10
10.0501774004
 20
8.2150943703
 11
13.2067739243
 21
7.9333437541
  0
LINE
  5
36D
100
AcDbEntity
  8
0
100
AcDbLine
 62
7
  6
CONTINUOUS
 10
21.8624864556
 20
8.2307706036
 11
20.7415259414
 21
8.330824986
  0
LWPOLYLINE
  5
36E
100
AcDbEntity
  8
0
100
AcDbPolyline
 62
7
  6
CONTINUOUS
 90
10
 70
0
 10
17.3302866958
 20
6.8783471877
 10
17.2102249189
 20
6.8920194708
 10
17.0906894668
 20
6.9115720046
 10
16.9719167827
 20
6.9369960908
 10
16.8541973966
 20
6.9682523976
 10
16.7377078627
 20
7.0053140191
 10
16.6225139044
 20
7.0481949347
 10
16.5087920381
 20
7.0968801789
 10
16.3968253451
 20
7.1512976641
 10
16.2868381839
 20
7.2113811312
  0
LWPOLYLINE
  5
36F
100
AcDbEntity
  8
RACCORDO
100
AcDbPolyline
 62
7
  6
CONTINUOUS
 90
5
 70
0
 10
13.2067739243
 20
7.9333437541
 10
13.2458939582
 20
7.9278057981
 10
13.28306744
 20
7.9185816065
 10
13.3182943697
 20
7.905671179
 10
13.3532867463
 20
7.8881096262
  0
LWPOLYLINE
  5
370
100
AcDbEntity
  8
0
100
AcDbPolyline
 62
250
  6
CONTINUOUS
 90
14
 70
0
 10
15.9671374246
 20
11.7091320083
 10
15.9646254976
 20
11.6988272391
 10
15.9629191165
 20
11.6884239386
 10
15.9620512078
 20
11.6781190576
 10
15.962015092
 20
11.6682285172
 10
15.9627587459
 20
11.6587980407
 10
15.9642915861
 20
11.6496136013
 10
15.9666324662
 20
11.6407768096
 10
15.9697479268
 20
11.6325040014
 10
15.9736659214
 20
11.6247951571
 10
15.978346133
 20
11.6178134267
 10
15.9837198873
 20
11.6116986692
 10
15.9898041749
 20
11.6064786793
 10
15.9965389769
 20
11.6022697181
  0
LWPOLYLINE
  5
371
100
AcDbEntity
  8
RACCORDO
100
AcDbPolyline
 62
7
  6
CONTINUOUS
 90
10
 70
0
 10
17.8981744589
 20
15.6523737084
 10
17.9143441779
 20
15.6985082518
 10
17.9263731376
 20
15.7416470101
 10
17.934261338
 20
15.7817899834
 10
17.9380065878
 20
15.8191274488
 10
17.9376110783
 20
15.8534691291
 10
17.9330813837
 20
15.8842441931
 10
17.9243484023
 20
15.9113930257
 10
17.9114812359
 20
15.9349752419
 10
17.8973612949
 20
15.9520181224
  0
LWPOLYLINE
  5
372
100
AcDbEntity
  8
0
100
AcDbPolyline
 62
250
  6
CONTINUOUS
 90
19
 70
0
 10
15.5786148611
 20
11.3134150029
 10
15.5658753675
 20
11.2775794801
 10
15.5550705663
 20
11.2407073307
 10
15.5462737311
 20
11.2030162616
 10
15.5395416167
 20
11.1647101778
 10
15.5349303529
 20
11.1260390803
 10
15.5324839459
 20
11.087298647
 10
15.5322156566
 20
11.0487248443
 10
15.5341255036
 20
11.0105511179
 10
15.5381979973
 20
10.9730660915
 10
15.5443913593
 20
10.9365213439
 10
15.5526599117
 20
10.9011022118
 10
15.5629583285
 20
10.8669874309
 10
15.5752180437
 20
10.8343800979
 10
15.5893611917
 20
10.8034684896
 10
15.6053213668
 20
10.7744027075
 10
15.6230121326
 20
10.7473479283
 10
15.6423220385
 20
10.7224772094
 10
15.6631376218
 20
10.6999399842
  0
LWPOLYLINE
  5
373
100
AcDbEntity
  8
0
100
AcDbPolyline
 62
250
  6
CONTINUOUS
 90
19
 70
0
 10
15.4467605742
 20
11.3653249895
 10
15.4314221367
 20
11.3222573707
 10
15.4184227037
 20
11.2780888302
 10
15.4078109904
 20
11.2329854351
 10
15.3996043801
 20
11.1869837517
 10
15.3938753977
 20
11.1403811967
 10
15.3907295783
 20
11.0937344149
 10
15.3901983196
 20
11.0471819805
 10
15.3922729037
 20
11.0009085463
 10
15.3969489431
 20
10.9555198608
 10
15.4042253549
 20
10.9111225379
 10
15.4140592731
 20
10.8678711954
 10
15.4263291888
 20
10.8263928148
 10
15.4410035248
 20
10.7867374906
 10
15.4580116182
 20
10.7490053547
 10
15.4771189438
 20
10.7138171748
 10
15.4981874629
 20
10.6813612466
 10
15.5212077963
 20
10.6514363208
 10
15.5461174586
 20
10.6240205281
  0
LINE
  5
374
100
AcDbEntity
  8
RACCORDO
100
AcDbLine
 62
7
  6
CONTINUOUS
 10
17.8981744589
 20
15.6523737084
 11
17.4331916911
 21
14.4457322742
  0
LINE
  5
375
100
AcDbEntity
  8
0
100
AcDbLine
 62
7
  6
CONTINUOUS
 10
16.8616845848
 20
8.6849807299
 11
16.7987074491
 21
8.5521325391
  0
LWPOLYLINE
  5
376
100
AcDbEntity
  8
0
100
AcDbPolyline
 62
250
  6
CONTINUOUS
 90
3
 70
0
 10
16.9028972674
 20
8.6608105912
 10
16.8650371113
 20
8.5817388455
 10
16.8268893888
 20
8.5003986159
  0
LWPOLYLINE
  5
377
100
AcDbEntity
  8
0
100
AcDbPolyline
 62
7
  6
CONTINUOUS
 90
13
 70
0
 10
16.7986937815
 20
8.5521031591
 10
16.7947493849
 20
8.5438991599
 10
16.7783880468
 20
8.5134876834
 10
16.7601387572
 20
8.4849219138
 10
16.7400145522
 20
8.4583203522
 10
16.7181959061
 20
8.4340236919
 10
16.6950983319
 20
8.4125019822
 10
16.6709481887
 20
8.3939120549
 10
16.6458021467
 20
8.3782759501
 10
16.6199064709
 20
8.3657448165
 10
16.5935569107
 20
8.3564411432
 10
16.5667782492
 20
8.3502742767
 10
16.5613459204
 20
8.349405669
  0
LINE
  5
378
100
AcDbEntity
  8
0
100
AcDbLine
 62
7
  6
CONTINUOUS
 10
16.9369387835
 20
8.8404991263
 11
16.8616845848
 21
8.6849807299
  0
LINE
  5
379
100
AcDbEntity
  8
0
100
AcDbLine
 62
7
  6
CONTINUOUS
 10
17.0138738591
 20
8.9961582821
 11
16.9369387835
 21
8.8404991263
  0
LWPOLYLINE
  5
37A
100
AcDbEntity
  8
0
100
AcDbPolyline
 62
250
  6
CONTINUOUS
 90
4
 70
0
 10
17.0479074615
 20
8.956086273
 10
17.0127320685
 20
8.8854329148
 10
16.9769007877
 20
8.8125895279
 10
16.9028972674
 20
8.6608105912
  0
LINE
  5
37B
100
AcDbEntity
  8
0
100
AcDbLine
 62
250
  6
CONTINUOUS
 10
17.1488225869
 20
9.1553757788
 11
17.0479074615
 21
8.956086273
  0
LWPOLYLINE
  5
37C
100
AcDbEntity
  8
0
100
AcDbPolyline
 62
7
  6
CONTINUOUS
 90
3
 70
0
 10
17.1196930561
 20
9.205268872
 10
17.0924513513
 20
9.1519572707
 10
17.0138738591
 20
8.9961582821
  0
LWPOLYLINE
  5
37D
100
AcDbEntity
  8
0
100
AcDbPolyline
 62
250
  6
CONTINUOUS
 90
13
 70
0
 10
18.12375415
 20
9.5274571257
 10
18.1540350611
 20
9.5804003798
 10
18.181362023
 20
9.6363954295
 10
18.2056708201
 20
9.6952375828
 10
18.2268644899
 20
9.7566236543
 10
18.2448896662
 20
9.8202652911
 10
18.2597746454
 20
9.8859543779
 10
18.2714774999
 20
9.9532821428
 10
18.2800129199
 20
10.021971572
 10
18.285499064
 20
10.0920153141
 10
18.2879754168
 20
10.1631842948
 10
18.2874316157
 20
10.2350121577
 10
18.2839148459
 20
10.3071429988
  0
LWPOLYLINE
  5
37E
100
AcDbEntity
  8
ASSI
100
AcDbPolyline
 62
7
  6
CONTINUOUS
 90
13
 70
0
 10
22.4150377976
 20
8.9399372252
 10
22.4686657627
 20
9.0078044369
 10
22.5186403414
 20
9.0789849309
 10
22.5649615337
 20
9.153478707
 10
22.6077803911
 20
9.2315998376
 10
22.6469458621
 20
9.3130342504
 10
22.6820047922
 20
9.3968397285
 10
22.7129094837
 20
9.4830438119
 10
22.7397076343
 20
9.5716189605
 10
22.7620891826
 20
9.6615403373
 10
22.7799507747
 20
9.7524663299
 10
22.7933957644
 20
9.8447385507
 10
22.8024241518
 20
9.9383569996
  0
LWPOLYLINE
  5
37F
100
AcDbEntity
  8
RACCORDO
100
AcDbPolyline
 62
7
  6
CONTINUOUS
 90
10
 70
0
 10
29.0463450339
 20
3.8063846486
 10
29.0881094851
 20
3.8313476275
 10
29.1302634749
 20
3.8581578563
 10
29.1728070033
 20
3.886815335
 10
29.2158863298
 20
3.9174292856
 10
29.259355195
 20
3.949890486
 10
29.3027748204
 20
3.9838712701
 10
29.3459989464
 20
4.0192624159
 10
29.3891738326
 20
4.0561731454
 10
29.432299479
 20
4.0946034586
  0
LINE
  5
380
100
AcDbEntity
  8
RACCORDO
100
AcDbLine
 62
7
  6
CONTINUOUS
 10
29.0463450339
 20
3.8063846486
 11
8.3545237764
 21
-8.1408136161
  0
LINE
  5
381
100
AcDbEntity
  8
RACCORDO
100
AcDbLine
 62
7
  6
CONTINUOUS
 10
-15.3372974812
 20
-21.8201742819
 11
5.3545237764
 21
-9.8729760172
  0
LWPOLYLINE
  5
382
100
AcDbEntity
  8
0
100
AcDbPolyline
 62
250
  6
CONTINUOUS
 90
10
 70
0
 10
16.1100356374
 20
10.2667805853
 10
16.1596701755
 20
10.2649155235
 10
16.2103431105
 20
10.2636435174
 10
16.2624242188
 20
10.2629063187
 10
16.3165205661
 20
10.2626122399
 10
16.3728172038
 20
10.2626563519
 10
16.4308550379
 20
10.2630318383
 10
16.4905043444
 20
10.2638346291
 10
16.5521183058
 20
10.2649710897
 10
16.6808096747
 20
10.2679048602
  0
LINE
  5
383
100
AcDbEntity
  8
0
100
AcDbLine
 62
250
  6
CONTINUOUS
 10
16.4670197734
 20
9.7124990394
 11
16.3576970266
 21
9.7202102213
  0
LINE
  5
384
100
AcDbEntity
  8
0
100
AcDbLine
 62
250
  6
CONTINUOUS
 10
16.3576970266
 20
9.7202102213
 11
16.2543463988
 21
9.7281986858
  0
LINE
  5
385
100
AcDbEntity
  8
RACCORDO
100
AcDbLine
 62
250
  6
CONTINUOUS
 10
24.2022843718
 20
9.6344079473
 11
24.8146568075
 21
9.5797489785
  0
LWPOLYLINE
  5
386
100
AcDbEntity
  8
0
100
AcDbPolyline
 62
250
  6
CONTINUOUS
 90
19
 70
0
 10
17.033291329
 20
10.2791168799
 10
17.0988579672
 20
10.2696985625
 10
17.1666477229
 20
10.2618568885
 10
17.2363845253
 20
10.2555378051
 10
17.3078006729
 20
10.2506601067
 10
17.3805381802
 20
10.2471908278
 10
17.4541557716
 20
10.2451568828
 10
17.5282580063
 20
10.2445479212
 10
17.6025282821
 20
10.2452753611
 10
17.6766313031
 20
10.2472522168
 10
17.7501580721
 20
10.250432645
 10
17.8227844322
 20
10.254738
 10
17.8943026792
 20
10.2600218984
 10
17.964314342
 20
10.2662141896
 10
18.0325250868
 20
10.2732376994
 10
18.0988842774
 20
10.2809300366
 10
18.1631544988
 20
10.2891847527
 10
18.2249295052
 20
10.2979500031
 10
18.2839148459
 20
10.3071429988
  0
LWPOLYLINE
  5
387
100
AcDbEntity
  8
0
100
AcDbPolyline
 62
250
  6
CONTINUOUS
 90
19
 70
0
 10
18.1431303183
 20
9.1245347522
 10
18.1825890194
 20
9.1147761465
 10
18.2222868618
 20
9.1084756132
 10
18.2621817796
 20
9.1057152753
 10
18.3024001673
 20
9.1066279622
 10
18.3427007658
 20
9.1112449907
 10
18.3824644952
 20
9.1194409318
 10
18.4215611956
 20
9.1312311675
 10
18.4599300977
 20
9.1466200604
 10
18.4970359685
 20
9.1653652838
 10
18.532733227
 20
9.1874219674
 10
18.5669469068
 20
9.2127276164
 10
18.5992493259
 20
9.2409305262
 10
18.6295013844
 20
9.2719317184
 10
18.6576316103
 20
9.3056163047
 10
18.6833336239
 20
9.3415481764
 10
18.7064541267
 20
9.379477876
 10
18.7269803548
 20
9.419364501
 10
18.7448347323
 20
9.4610583014
  0
LWPOLYLINE
  5
388
100
AcDbEntity
  8
RACCORDO
100
AcDbPolyline
 62
7
  6
CONTINUOUS
 90
5
 70
0
 10
14.0603935274
 20
7.4798350328
 10
14.0254011509
 20
7.4973965857
 10
13.9901742212
 20
7.5103070131
 10
13.9530007394
 20
7.5195312048
 10
13.9138807055
 20
7.5250691608
  0
LINE
  5
389
100
AcDbEntity
  8
RACCORDO
100
AcDbLine
 62
250
  6
CONTINUOUS
 10
10.403730791
 20
7.7120687559
 11
9.6966240098
 21
8.1203433493
  0
LINE
  5
38A
100
AcDbEntity
  8
RACCORDO
100
AcDbLine
 62
250
  6
CONTINUOUS
 10
-3.7384048328
 20
15.8775606225
 11
-4.445511614
 21
16.2858352158
  0
LINE
  5
38B
100
AcDbEntity
  8
RACCORDO
100
AcDbLine
 62
250
  6
CONTINUOUS
 10
10.7572841815
 20
7.8068197769
 11
10.0501774004
 21
8.2150943703
  0
LINE
  5
38C
100
AcDbEntity
  8
RACCORDO
100
AcDbLine
 62
250
  6
CONTINUOUS
 10
-3.3848514422
 20
15.9723116435
 11
-4.0919582234
 21
16.3805862368
  0
LWPOLYLINE
  5
38D
100
AcDbEntity
  8
0
100
AcDbPolyline
 62
250
  6
CONTINUOUS
 90
3
 70
0
 10
4.1417792222
 20
18.4726348653
 10
4.1098264534
 20
18.5328794341
 10
4.1091194101
 20
18.5341029995
  0
LWPOLYLINE
  5
38E
100
AcDbEntity
  8
0
100
AcDbPolyline
 62
250
  6
CONTINUOUS
 90
19
 70
0
 10
4.1417792222
 20
18.4726348653
 10
4.1708973447
 20
18.4126433106
 10
4.197255075
 20
18.3530556591
 10
4.2207314335
 20
18.2941928188
 10
4.2411634787
 20
18.2364389961
 10
4.2585413518
 20
18.1800372638
 10
4.2729715776
 20
18.1251014034
 10
4.2844030556
 20
18.0718911216
 10
4.2927684488
 20
18.0207634318
 10
4.2981442354
 20
17.9719761709
 10
4.3005478666
 20
17.9258006604
 10
4.2999876185
 20
17.8824980185
 10
4.2965527241
 20
17.8422848043
 10
4.2903623816
 20
17.8053566609
 10
4.2814702899
 20
17.7719305985
 10
4.2699156618
 20
17.7422232328
 10
4.2558396963
 20
17.7163948597
 10
4.2394691267
 20
17.6945453385
 10
4.2210232206
 20
17.6767599102
  0
LINE
  5
38F
100
AcDbEntity
  8
ASSI
100
AcDbLine
 62
7
  6
CONTINUOUS
 10
7.4792089967
 20
20.0675697865
 11
7.5165065581
 21
19.9283716336
  0
LWPOLYLINE
  5
390
100
AcDbEntity
  8
RACCORDO
100
AcDbPolyline
 62
7
  6
CONTINUOUS
 90
12
 70
0
 10
14.2653155899
 20
7.0840534531
 10
14.2602788464
 20
7.1337418785
 10
14.2523960701
 20
7.1809387103
 10
14.2416672611
 20
7.2256439485
 10
14.2280229784
 20
7.2680429273
 10
14.2115326629
 20
7.3079503124
 10
14.1924046378
 20
7.3448101014
 10
14.1706068654
 20
7.378565135
 10
14.1461713834
 20
7.4092725726
 10
14.1194026273
 20
7.4365478889
 10
14.0902731685
 20
7.4603476139
 10
14.0603935274
 20
7.4798350328
  0
LWPOLYLINE
  5
391
100
AcDbEntity
  8
0
100
AcDbPolyline
 62
250
  6
CONTINUOUS
 90
37
 70
0
 10
15.984862634
 20
8.9865738549
 10
15.9796272262
 20
8.9408984032
 10
15.9769926693
 20
8.8949772062
 10
15.9770133652
 20
8.8488550411
 10
15.9797887789
 20
8.8023966472
 10
15.9853307253
 20
8.7558667546
 10
15.9935213578
 20
8.7099374776
 10
16.0043608309
 20
8.6647501647
 10
16.0178557933
 20
8.6203789229
 10
16.0338232383
 20
8.5774142613
 10
16.0522203289
 20
8.5360160453
 10
16.0730053126
 20
8.4962777327
 10
16.0959344414
 20
8.4586882003
 10
16.120928117
 20
8.4233999412
 10
16.1479029817
 20
8.390510536
 10
16.1765616454
 20
8.3604066074
 10
16.2067967952
 20
8.3332210846
 10
16.2384927534
 20
8.3090337152
 10
16.2713067918
 20
8.2881170255
 10
16.3051165001
 20
8.270573197
 10
16.3397854088
 20
8.2564494524
 10
16.3749335366
 20
8.245890134
 10
16.4104372047
 20
8.2389537744
 10
16.4461542709
 20
8.2356513226
 10
16.4816783217
 20
8.2360016965
 10
16.5168979066
 20
8.2400189347
 10
16.5516823256
 20
8.2476725462
 10
16.5856152531
 20
8.2588562732
 10
16.6186205508
 20
8.2735461339
 10
16.6505867471
 20
8.2916702917
 10
16.6810822342
 20
8.3129909585
 10
16.7100730252
 20
8.3374487623
 10
16.7374915638
 20
8.3649422258
 10
16.7629127191
 20
8.3951135368
 10
16.7862101782
 20
8.4277644065
 10
16.8075282961
 20
8.4628891095
 10
16.8268893888
 20
8.5003986159
  0
LWPOLYLINE
  5
392
100
AcDbEntity
  8
0
100
AcDbPolyline
 62
250
  6
CONTINUOUS
 90
19
 70
0
 10
16.127299257
 20
8.9676432877
 10
16.122669904
 20
8.9299540331
 10
16.1202850747
 20
8.8916836151
 10
16.1201725758
 20
8.8530570107
 10
16.1223508243
 20
8.8142807701
 10
16.1268206428
 20
8.7756116903
 10
16.1335515861
 20
8.7373536167
 10
16.1425048569
 20
8.6997476379
 10
16.1536302601
 20
8.663013085
 10
16.1668414369
 20
8.6274112619
 10
16.1820466771
 20
8.5931728982
 10
16.1991582426
 20
8.5604826953
 10
16.2180736298
 20
8.5295187989
 10
16.238691832
 20
8.5004487745
 10
16.2608774268
 20
8.4734672009
 10
16.284457442
 20
8.4487683911
 10
16.309270977
 20
8.4264993918
 10
16.3351769263
 20
8.4067695482
 10
16.3620163006
 20
8.3896840816
  0
LWPOLYLINE
  5
393
100
AcDbEntity
  8
0
100
AcDbPolyline
 62
250
  6
CONTINUOUS
 90
4
 70
0
 10
15.984862634
 20
8.9865738549
 10
16.0135867732
 20
9.1742872212
 10
16.0278186633
 20
9.2645489965
 10
16.0421892351
 20
9.3522796498
  0
LWPOLYLINE
  5
394
100
AcDbEntity
  8
0
100
AcDbPolyline
 62
250
  6
CONTINUOUS
 90
3
 70
0
 10
16.1545300221
 20
9.1480275058
 10
16.1407146731
 20
9.0586331618
 10
16.127299257
 20
8.9676432877
  0
LWPOLYLINE
  5
395
100
AcDbEntity
  8
0
100
AcDbPolyline
 62
250
  6
CONTINUOUS
 90
19
 70
0
 10
16.1135586586
 20
9.7531403235
 10
16.1180092167
 20
9.7802689059
 10
16.1210666069
 20
9.8073733051
 10
16.1227579298
 20
9.8345154335
 10
16.1231168585
 20
9.8620149483
 10
16.1221736883
 20
9.8897121478
 10
16.119909536
 20
9.9169870925
 10
16.1162438971
 20
9.944004424
 10
16.1112424111
 20
9.9708728703
 10
16.1050212408
 20
9.9969140712
 10
16.0974759949
 20
10.0222447031
 10
16.0886307691
 20
10.0470475643
 10
16.0787168392
 20
10.0707059483
 10
16.0676335885
 20
10.0932422022
 10
16.0553644639
 20
10.1148530297
 10
16.0422139798
 20
10.1350921721
 10
16.0282336697
 20
10.1538140691
 10
16.0132485676
 20
10.1712265258
 10
15.9972095646
 20
10.1873498575
  0
LWPOLYLINE
  5
396
100
AcDbEntity
  8
0
100
AcDbPolyline
 62
250
  6
CONTINUOUS
 90
4
 70
0
 10
16.2111300292
 20
9.4893793246
 10
16.1967698843
 20
9.406482126
 10
16.1826785535
 20
9.3219643857
 10
16.1545300221
 20
9.1480275058
  0
LWPOLYLINE
  5
397
100
AcDbEntity
  8
0
100
AcDbPolyline
 62
250
  6
CONTINUOUS
 90
5
 70
0
 10
16.0421892351
 20
9.3522796498
 10
16.0710248556
 20
9.5201260246
 10
16.0852325017
 20
9.6003116678
 10
16.0994078631
 20
9.6779752863
 10
16.1135586586
 20
9.7531403235
  0
LINE
  5
398
100
AcDbEntity
  8
0
100
AcDbLine
 62
250
  6
CONTINUOUS
 10
16.2543463988
 20
9.7281986858
 11
16.2111300292
 21
9.4893793246
  0
LWPOLYLINE
  5
399
100
AcDbEntity
  8
0
100
AcDbPolyline
 62
250
  6
CONTINUOUS
 90
16
 70
0
 10
17.4978485099
 20
9.3208928702
 10
17.5001641377
 20
9.331164826
 10
17.5031042664
 20
9.3413888767
 10
17.5066089894
 20
9.3513616411
 10
17.5105642347
 20
9.3608000077
 10
17.5149167948
 20
9.3696820035
 10
17.5197396514
 20
9.3782076931
 10
17.5250024698
 20
9.3862733119
 10
17.5306066022
 20
9.3936633346
 10
17.5365819991
 20
9.4003746645
 10
17.5428303837
 20
9.4062920659
 10
17.5492425134
 20
9.4112995363
 10
17.5558120669
 20
9.4153353238
 10
17.5624541413
 20
9.4182892641
 10
17.5690126006
 20
9.4200934757
 10
17.5753523243
 20
9.4207247778
  0
LWPOLYLINE
  5
39A
100
AcDbEntity
  8
0
100
AcDbPolyline
 62
250
  6
CONTINUOUS
 90
19
 70
0
 10
17.8991496054
 20
11.0892100466
 10
17.8924137743
 20
11.0622854183
 10
17.8873433175
 20
11.0353606833
 10
17.8839014643
 20
11.0083747922
 10
17.8820324484
 20
10.9810100615
 10
17.8817124267
 20
10.9534256148
 10
17.8829940677
 20
10.9262383699
 10
17.8859604389
 20
10.8992834546
 10
17.8905333073
 20
10.8724532669
 10
17.8966087182
 20
10.8464250772
 10
17.9043000183
 20
10.8210814098
 10
17.9135741583
 20
10.7962402657
 10
17.9241875866
 20
10.7725194469
 10
17.9362534822
 20
10.7498954864
 10
17.9497858656
 20
10.7281719053
 10
17.9644464605
 20
10.7077979719
 10
17.9801772884
 20
10.6889198195
 10
17.9971753985
 20
10.671327673
 10
18.0154995675
 20
10.6550003534
  0
LWPOLYLINE
  5
39B
100
AcDbEntity
  8
0
100
AcDbPolyline
 62
7
  6
CONTINUOUS
 90
19
 70
0
 10
17.856994369
 20
11.1056380493
 10
17.8553984723
 20
11.0998262798
 10
17.8470539423
 20
11.0641744268
 10
17.8410096735
 20
11.02788782
 10
17.8373001675
 20
10.9910598215
 10
17.8359848043
 20
10.9539244298
 10
17.8371036985
 20
10.9168531711
 10
17.8406738474
 20
10.8800314783
 10
17.8467181975
 20
10.8436240294
 10
17.8552195215
 20
10.8079836346
 10
17.8661511762
 20
10.7733115029
 10
17.8794276752
 20
10.7397890853
 10
17.8948892686
 20
10.7077203927
 10
17.912424952
 20
10.6772411909
 10
17.9319247783
 20
10.6484873951
 10
17.953182576
 20
10.6217087102
 10
17.9760321783
 20
10.597050835
 10
18.0003736405
 20
10.5745767846
 10
18.0049365961
 20
10.5707434819
  0
LWPOLYLINE
  5
39C
100
AcDbEntity
  8
0
100
AcDbPolyline
 62
250
  6
CONTINUOUS
 90
37
 70
0
 10
18.125398319
 20
11.8470691302
 10
18.1380554337
 20
11.8920821374
 10
18.1479307195
 20
11.9373570436
 10
18.1549506021
 20
11.982850783
 10
18.1590203514
 20
12.0286981937
 10
18.1600884669
 20
12.0746380876
 10
18.1581850221
 20
12.120006185
 10
18.1532856405
 20
12.1646632992
 10
18.1453718031
 20
12.2085363829
 10
18.1345538264
 20
12.2510414151
 10
18.1208520678
 20
12.2920205368
 10
18.1042992388
 20
12.3313810973
 10
18.0850858803
 20
12.3686389687
 10
18.0632738952
 20
12.4036432377
 10
18.0389411985
 20
12.4362968092
 10
18.0123517157
 20
12.4662160477
 10
17.9836002984
 20
12.4932691361
 10
17.9528028473
 20
12.517376307
 10
17.9202902442
 20
12.5382660915
 10
17.8861779844
 20
12.5558369251
 10
17.8506094566
 20
12.5700409678
 10
17.8139765644
 20
12.5807328129
 10
17.7764027495
 20
12.5878539492
 10
17.7380426352
 20
12.5913923134
 10
17.699336224
 20
12.5913259897
 10
17.6604005046
 20
12.5876404452
 10
17.6213837709
 20
12.5803646003
 10
17.5827553852
 20
12.5695999792
 10
17.5446003769
 20
12.5553697697
 10
17.5070528505
 20
12.5377437886
 10
17.470617381
 20
12.5169533108
 10
17.4353399213
 20
12.4930566406
 10
17.4013121245
 20
12.4661531042
 10
17.3690468283
 20
12.4365926852
 10
17.3387100005
 20
12.4045701329
 10
17.3101525528
 20
12.3700915953
 10
17.2833713244
 20
12.3332443925
  0
LINE
  5
39D
100
AcDbEntity
  8
0
100
AcDbLine
 62
7
  6
CONTINUOUS
 10
17.9008142135
 20
11.2600210567
 11
17.8569659556
 21
11.1056508425
  0
LWPOLYLINE
  5
39E
100
AcDbEntity
  8
0
100
AcDbPolyline
 62
250
  6
CONTINUOUS
 90
3
 70
0
 10
17.9891366132
 20
11.4019437107
 10
17.9651549187
 20
11.3201292783
 10
17.8991496054
 20
11.0892100466
  0
LINE
  5
39F
100
AcDbEntity
  8
0
100
AcDbLine
 62
7
  6
CONTINUOUS
 10
17.9534454048
 20
11.4402857141
 11
17.9008142135
 21
11.2600210567
  0
LINE
  5
3A0
100
AcDbEntity
  8
0
100
AcDbLine
 62
7
  6
CONTINUOUS
 10
18.0075427048
 20
11.6201796942
 11
17.9534454048
 21
11.4402857141
  0
LWPOLYLINE
  5
3A1
100
AcDbEntity
  8
0
100
AcDbPolyline
 62
7
  6
CONTINUOUS
 90
3
 70
0
 10
18.0824888667
 20
11.8609615604
 10
18.0631354218
 20
11.7996862987
 10
18.0075427048
 20
11.6201796942
  0
LWPOLYLINE
  5
3A2
100
AcDbEntity
  8
0
100
AcDbPolyline
 62
250
  6
CONTINUOUS
 90
5
 70
0
 10
18.125398319
 20
11.8470691302
 10
18.0956448084
 20
11.7534089456
 10
18.0673474004
 20
11.6619734059
 10
18.0403074875
 20
11.5728548456
 10
17.9891366132
 20
11.4019437107
  0
LWPOLYLINE
  5
3A3
100
AcDbEntity
  8
0
100
AcDbPolyline
 62
250
  6
CONTINUOUS
 90
19
 70
0
 10
18.7448347323
 20
9.4610583014
 10
18.7598860135
 20
9.5041515458
 10
18.7720158036
 20
9.5483977032
 10
18.7811783306
 20
9.5936304439
 10
18.7873569834
 20
9.6398131324
 10
18.7904903131
 20
9.6866473636
 10
18.7904939543
 20
9.7335746033
 10
18.7873395143
 20
9.780456009
 10
18.7810558935
 20
9.8271051265
 10
18.7716961631
 20
9.872911862
 10
18.759268769
 20
9.9177689443
 10
18.743841398
 20
9.9615195404
 10
18.7256099368
 20
10.00353003
 10
18.7046163165
 20
10.043749393
 10
18.6809579007
 20
10.0820751158
 10
18.6549643483
 20
10.1178779431
 10
18.6268158115
 20
10.1509658212
 10
18.596514819
 20
10.1815406097
 10
18.5641432386
 20
10.2096224476
  0
LWPOLYLINE
  5
3A4
100
AcDbEntity
  8
0
100
AcDbPolyline
 62
250
  6
CONTINUOUS
 90
31
 70
0
 10
19.1972815946
 20
9.2329030227
 10
19.2477125749
 20
9.3716725398
 10
19.2924310662
 20
9.5132802078
 10
19.3313144984
 20
9.65733789
 10
19.3642562945
 20
9.8034507342
 10
19.3911661636
 20
9.9512182552
 10
19.4119703474
 20
10.1002354327
 10
19.4266118231
 20
10.2500938208
 10
19.4350504595
 20
10.4003826681
 10
19.4372631269
 20
10.5506900433
 10
19.4332437605
 20
10.7006039645
 10
19.4230033771
 20
10.8497135278
 10
19.4065700449
 20
10.9976100345
 10
19.3839888065
 20
11.1438881104
 10
19.3553215555
 20
11.2881468175
 10
19.3206468668
 20
11.4299907527
 10
19.2800597814
 20
11.5690311317
 10
19.2336715456
 20
11.7048868544
 10
19.1816093064
 20
11.8371855497
 10
19.1240157628
 20
11.9655645961
 10
19.0610487746
 20
12.0896721157
 10
18.99288093
 20
12.2091679382
 10
18.9196990723
 20
12.3237245339
 10
18.8417037879
 20
12.4330279113
 10
18.7591088565
 20
12.5367784772
 10
18.6721406649
 20
12.6346918587
 10
18.5810375871
 20
12.7264996819
 10
18.4860493301
 20
12.811950308
 10
18.3874362503
 20
12.8908095228
 10
18.2854686391
 20
12.9628611787
 10
18.1804259828
 20
13.0279077869
  0
LINE
  5
3A5
100
AcDbEntity
  8
0
100
AcDbLine
 62
250
  6
CONTINUOUS
 10
4.1801757951
 20
14.9594507847
 11
4.1771680127
 21
14.9596053977
  0
LWPOLYLINE
  5
3A6
100
AcDbEntity
  8
RACCORDO
100
AcDbPolyline
 62
7
  6
CONTINUOUS
 90
10
 70
0
 10
-3.3848514422
 20
15.9723116435
 10
-3.4212711703
 20
15.9739225942
 10
-3.4585073796
 20
15.9724719047
 10
-3.4965600701
 20
15.9679595748
 10
-3.5355632228
 20
15.9603496983
 10
-3.5753828566
 20
15.9496781814
 10
-3.6156170288
 20
15.9360527435
 10
-3.6561317584
 20
15.9195092909
 10
-3.6970610264
 20
15.9000119172
 10
-3.7384048328
 20
15.8775606225
  0
LWPOLYLINE
  5
3A7
100
AcDbEntity
  8
0
100
AcDbPolyline
 62
250
  6
CONTINUOUS
 90
57
 70
0
 10
3.1881510721
 20
15.0438390542
 10
3.3203744809
 20
15.0360808368
 10
3.4582314193
 20
15.0365396166
 10
3.5961905005
 20
15.0456836387
 10
3.7339087365
 20
15.0634901698
 10
3.8710437382
 20
15.0899149399
 10
4.0072545662
 20
15.124892253
 10
4.142202579
 20
15.1683351499
 10
4.2755522746
 20
15.2201356247
 10
4.4069721246
 20
15.2801648933
 10
4.5361353986
 20
15.3482737135
 10
4.6627209763
 20
15.424292756
 10
4.7864141461
 20
15.5080330255
 10
4.9069073871
 20
15.5992863305
 10
5.0239011343
 20
15.6978258008
 10
5.1371045227
 20
15.803406452
 10
5.2462361109
 20
15.9157657937
 10
5.3510245806
 20
16.034624483
 10
5.4512094111
 20
16.1596870185
 10
5.5465415272
 20
16.290642475
 10
5.6367839181
 20
16.4271652766
 10
5.7217122271
 20
16.568916006
 10
5.801115309
 20
16.7155422487
 10
5.8747957553
 20
16.8666794687
 10
5.9425703847
 20
17.0219519151
 10
6.0042706988
 20
17.1809735561
 10
6.059743301
 20
17.3433490388
 10
6.1088502776
 20
17.5086746722
 10
6.151469541
 20
17.6765394307
 10
6.1874951328
 20
17.8465259761
 10
6.2168374879
 20
18.0182116951
 10
6.2394236565
 20
18.1911697499
 10
6.2551974858
 20
18.3649701396
 10
6.2641197597
 20
18.5391807689
 10
6.2661682958
 20
18.7133685228
 10
6.2613380014
 20
18.8871003432
 10
6.2496408851
 20
19.0599443052
 10
6.2311060279
 20
19.2314706917
 10
6.2057795105
 20
19.4012530609
 10
6.1737242983
 20
19.5688693072
 10
6.1350200859
 20
19.7339027102
 10
6.089763098
 20
19.8959429707
 10
6.0380658505
 20
20.0545872313
 10
5.980056871
 20
20.2094410773
 10
5.9158803789
 20
20.3601195175
 10
5.8456959271
 20
20.5062479417
 10
5.7696780052
 20
20.6474630516
 10
5.6880156057
 20
20.7834137642
 10
5.6009117543
 20
20.9137620846
 10
5.5085830048
 20
21.0381839462
 10
5.4112589011
 20
21.1563700168
 10
5.3091814062
 20
21.2680264672
 10
5.2026043008
 20
21.3728757018
 10
5.0917925524
 20
21.470657049
 10
4.9770216565
 20
21.5611274088
 10
4.8585769516
 20
21.6440618578
 10
4.73675291
 20
21.7192542077
  0
LWPOLYLINE
  5
3A8
100
AcDbEntity
  8
RACCORDO
100
AcDbPolyline
 62
7
  6
CONTINUOUS
 90
12
 70
0
 10
21.3397248493
 20
13.3820519775
 10
21.273810595
 20
13.3861859573
 10
21.1705673433
 20
13.385590423
 10
21.066845494
 20
13.3764712508
 10
20.9639680555
 20
13.3589447589
 10
20.8619458444
 20
13.3329032512
 10
20.7607680441
 20
13.2984544237
 10
20.6617252127
 20
13.2560376834
 10
20.5648446986
 20
13.2055509626
 10
20.4700991534
 20
13.147096329
 10
20.3786970894
 20
13.0814193918
 10
20.3163086624
 20
13.0296804614
  0
LINE
  5
3A9
100
AcDbEntity
  8
0
100
AcDbLine
 62
7
  6
CONTINUOUS
 10
22.9416128088
 20
11.648364731
 11
21.0531045422
 21
11.8169286775
  0
LINE
  5
3AA
100
AcDbEntity
  8
RACCORDO
100
AcDbLine
 62
250
  6
CONTINUOUS
 10
23.4951775906
 20
12.2733997296
 11
24.1075500263
 21
12.2187407607
  0
LINE
  5
3AB
100
AcDbEntity
  8
RACCORDO
100
AcDbLine
 62
250
  6
CONTINUOUS
 10
21.8688319939
 20
13.2124312942
 11
22.4812044296
 21
13.1577723254
  0
LINE
  5
3AC
100
AcDbEntity
  8
0
100
AcDbLine
 62
250
  6
CONTINUOUS
 10
9.3877171439
 20
14.4338857973
 11
8.7753447082
 21
14.4885447661
  0
LINE
  5
3AD
100
AcDbEntity
  8
RACCORDO
100
AcDbLine
 62
7
  6
CONTINUOUS
 10
21.3395337674
 20
13.3820690479
 11
21.9519062031
 21
13.327410079
  0
LINE
  5
3AE
100
AcDbEntity
  8
0
100
AcDbLine
 62
7
  6
CONTINUOUS
 10
4.0449446038
 20
14.967363615
 11
3.1881510721
 21
15.0438390542
  0
LINE
  5
3AF
100
AcDbEntity
  8
0
100
AcDbLine
 62
7
  6
CONTINUOUS
 10
18.8094101692
 20
13.7741529708
 11
17.9526166375
 21
13.85062841
  0
LINE
  5
3B0
100
AcDbEntity
  8
RACCORDO
100
AcDbLine
 62
7
  6
CONTINUOUS
 10
-0.2282549182
 20
15.6905610273
 11
-3.3848514422
 21
15.9723116435
  0
LWPOLYLINE
  5
3B1
100
AcDbEntity
  8
RACCORDO
100
AcDbPolyline
 62
7
  6
CONTINUOUS
 90
7
 70
0
 10
21.952097285
 20
13.3273930086
 10
21.988941554
 20
13.3234896986
 10
22.0912214797
 20
13.3069287709
 10
22.1917181917
 20
13.2820554457
 10
22.289996818
 20
13.2489401364
 10
22.3864922307
 20
13.2075124296
 10
22.4812044296
 20
13.1577723254
  0
LWPOLYLINE
  5
3B2
100
AcDbEntity
  8
0
100
AcDbPolyline
 62
7
  6
CONTINUOUS
 90
10
 70
0
 10
3.1881510721
 20
15.0438390542
 10
3.0680892952
 20
15.0575113373
 10
2.9485538431
 20
15.0770638712
 10
2.829781159
 20
15.1024879573
 10
2.7120617729
 20
15.1337442642
 10
2.595572239
 20
15.1708058856
 10
2.4803782807
 20
15.2136868012
 10
2.3666564144
 20
15.2623720454
 10
2.2546897213
 20
15.3167895306
 10
2.1447025602
 20
15.3768729978
  0
LWPOLYLINE
  5
3B3
100
AcDbEntity
  8
0
100
AcDbPolyline
 62
7
  6
CONTINUOUS
 90
10
 70
0
 10
18.8094101692
 20
13.7741529708
 10
18.9179540084
 20
13.7617600738
 10
19.0258863518
 20
13.7440132828
 10
19.133036046
 20
13.7209354251
 10
19.2392247813
 20
13.6925605967
 10
19.3442927354
 20
13.6589275447
 10
19.4480983968
 20
13.6200752384
 10
19.550485175
 20
13.5760534445
 10
19.6512821078
 20
13.5269269628
 10
19.7503291424
 20
13.4727659176
  0
LWPOLYLINE
  5
3B4
100
AcDbEntity
  8
RACCORDO
100
AcDbPolyline
 62
7
  6
CONTINUOUS
 90
5
 70
0
 10
-0.9353616994
 20
16.0988356206
 10
-0.8962416655
 20
16.0932976647
 10
-0.8590681837
 20
16.084073473
 10
-0.8238412541
 20
16.0711630456
 10
-0.7888488775
 20
16.0536014927
  0
LWPOLYLINE
  5
3B5
100
AcDbEntity
  8
0
100
AcDbPolyline
 62
250
  6
CONTINUOUS
 90
18
 70
0
 10
15.9698164043
 20
11.6078979211
 10
15.9577124824
 20
11.609621776
 10
15.9301641986
 20
11.611361799
 10
15.9023180521
 20
11.6101127158
 10
15.8743550348
 20
11.6058605864
 10
15.84648996
 20
11.5986279231
 10
15.8188998717
 20
11.5884574251
 10
15.7917455936
 20
11.5754058466
 10
15.7652147608
 20
11.5595689843
 10
15.7394810914
 20
11.541058781
 10
15.7146857861
 20
11.5199845743
 10
15.6909594028
 20
11.4964676577
 10
15.668430729
 20
11.4706340544
 10
15.6472519441
 20
11.4426549952
 10
15.6275729058
 20
11.4127452464
 10
15.6095122156
 20
11.3811094154
 10
15.5931629155
 20
11.3479309474
 10
15.5786148611
 20
11.3134150029
  0
LWPOLYLINE
  5
3B6
100
AcDbEntity
  8
0
100
AcDbPolyline
 62
250
  6
CONTINUOUS
 90
14
 70
0
 10
16.9870050138
 20
11.6164966114
 10
17.0358260957
 20
11.6091614082
 10
17.0855871451
 20
11.6010829925
 10
17.136580368
 20
11.5921663336
 10
17.1892408807
 20
11.5822050535
 10
17.2435387561
 20
11.5710254389
 10
17.2990381531
 20
11.5587311649
 10
17.3558496535
 20
11.5455210593
 10
17.4141544789
 20
11.5312309976
 10
17.47362826
 20
11.5157182568
 10
17.534334997
 20
11.4992442843
 10
17.5964214322
 20
11.4818713186
 10
17.6596417108
 20
11.4632594965
 10
17.7239546235
 20
11.4434424431
  0
LINE
  5
3B7
100
AcDbEntity
  8
0
100
AcDbLine
 62
7
  6
CONTINUOUS
 10
16.5996980172
 20
11.3999226479
 11
16.5988963936
 21
11.4000529862
  0
LINE
  5
3B8
100
AcDbEntity
  8
0
100
AcDbLine
 62
250
  6
CONTINUOUS
 10
15.9718118405
 20
11.6075562858
 11
15.9698164043
 21
11.6078979211
  0
LWPOLYLINE
  5
3B9
100
AcDbEntity
  8
0
100
AcDbPolyline
 62
7
  6
CONTINUOUS
 90
4
 70
0
 10
15.9702981083
 20
11.6077609309
 10
15.9747232558
 20
11.6069806404
 10
15.988940754
 20
11.6037638759
 10
16.0033689408
 20
11.5993451171
  0
LWPOLYLINE
  5
3BA
100
AcDbEntity
  8
0
100
AcDbPolyline
 62
7
  6
CONTINUOUS
 90
10
 70
0
 10
16.59945497
 20
11.3999116307
 10
16.6576686781
 20
11.3895494919
 10
16.7368346552
 20
11.3730774295
 10
16.82079441
 20
11.3530306149
 10
16.9096215865
 20
11.3293739115
 10
17.0031554741
 20
11.302173554
 10
17.1010255897
 20
11.2716217049
 10
17.2031065255
 20
11.2379021186
 10
17.3095025107
 20
11.201174092
 10
17.4004747477
 20
11.1688008321
  0
LWPOLYLINE
  5
3BB
100
AcDbEntity
  8
0
100
AcDbPolyline
 62
250
  6
CONTINUOUS
 90
16
 70
0
 10
15.6631376217
 20
10.6999399842
 10
15.7408259858
 20
10.6854002209
 10
15.8216787821
 20
10.6686129445
 10
15.9054378755
 20
10.6496317511
 10
15.991835852
 20
10.6285172412
 10
16.0805968726
 20
10.6053368259
 10
16.171437554
 20
10.5801645125
 10
16.2640678729
 20
10.5530806675
 10
16.3581920929
 20
10.5241717603
 10
16.4535097075
 20
10.493530087
 10
16.5497164005
 20
10.461253476
 10
16.646505017
 20
10.4274449754
 10
16.7435665442
 20
10.3922125242
 10
16.8405910981
 20
10.3556686073
 10
16.9372689127
 20
10.3179298969
 10
17.033291329
 20
10.2791168799
  0
LWPOLYLINE
  5
3BC
100
AcDbEntity
  8
0
100
AcDbPolyline
 62
250
  6
CONTINUOUS
 90
5
 70
0
 10
18.2161484032
 20
9.2258635557
 10
18.2483430083
 20
9.2177486867
 10
18.2810575723
 20
9.21255078
 10
18.3140986232
 20
9.2103204851
 10
18.3375060365
 20
9.2105514225
  0
LWPOLYLINE
  5
3BD
100
AcDbEntity
  8
0
100
AcDbPolyline
 62
250
  6
CONTINUOUS
 90
16
 70
0
 10
16.987004435
 20
11.6164967421
 10
16.9802593559
 20
11.6182559606
 10
16.9728807342
 20
11.6206231588
 10
16.9650166938
 20
11.6235499642
 10
16.9569054527
 20
11.626939322
 10
16.9486119423
 20
11.6307407447
 10
16.9399760804
 20
11.6350153468
 10
16.9310734943
 20
11.6397384987
 10
16.9220979588
 20
11.6448247966
 10
16.9130194311
 20
11.6503034562
 10
16.9039895093
 20
11.6560844409
 10
16.8951710617
 20
11.6620674354
 10
16.8865960049
 20
11.6682497378
 10
16.8783995739
 20
11.6745543164
 10
16.8707742075
 20
11.6808326711
 10
16.8638713274
 20
11.6869546884
  0
LWPOLYLINE
  5
3BE
100
AcDbEntity
  8
0
100
AcDbPolyline
 62
250
  6
CONTINUOUS
 90
19
 70
0
 10
17.4978636381
 20
9.3208907484
 10
17.4755382973
 20
9.3269170943
 10
17.4532943375
 20
9.3309985207
 10
17.431079533
 20
9.3331731774
 10
17.4086323635
 20
9.3334849646
 10
17.3860833191
 20
9.3319745702
 10
17.3639372887
 20
9.3286216354
 10
17.3420613295
 20
9.3233157267
 10
17.3203666705
 20
9.3161437035
 10
17.2994012515
 20
9.3072729234
 10
17.2790721496
 20
9.2965603856
 10
17.2592315522
 20
9.2840348715
 10
17.240372567
 20
9.2700232656
 10
17.2224788814
 20
9.2543890683
 10
17.2053926977
 20
9.2371045471
 10
17.1894653171
 20
9.2185960176
 10
17.1748112849
 20
9.1989390333
 10
17.1612683513
 20
9.1778887841
 10
17.1488225869
 20
9.1553757788
  0
LWPOLYLINE
  5
3BF
100
AcDbEntity
  8
0
100
AcDbPolyline
 62
250
  6
CONTINUOUS
 90
19
 70
0
 10
15.9671306489
 20
11.7091082636
 10
15.9351300842
 20
11.7182011877
 10
15.902709228
 20
11.7238522048
 10
15.8698907885
 20
11.7259809198
 10
15.8365550569
 20
11.7244539049
 10
15.8029013818
 20
11.7192435853
 10
15.7694543118
 20
11.7104838314
 10
15.7363175638
 20
11.6981616226
 10
15.7035413844
 20
11.6822735342
 10
15.6715866104
 20
11.6630685335
 10
15.6405741251
 20
11.6405936953
 10
15.6105714574
 20
11.614912178
 10
15.5819572724
 20
11.5863800616
 10
15.5548507087
 20
11.5550981063
 10
15.5293200151
 20
11.5211814879
 10
15.505649379
 20
11.485068296
 10
15.4839806648
 20
11.4470090089
 10
15.4643261888
 20
11.4070445688
 10
15.4467605742
 20
11.3653249895
  0
LWPOLYLINE
  5
3C0
100
AcDbEntity
  8
0
100
AcDbPolyline
 62
250
  6
CONTINUOUS
 90
19
 70
0
 10
16.5148451758
 20
11.5214595424
 10
16.5348850087
 20
11.5156371957
 10
16.5551157238
 20
11.5117354658
 10
16.5755798736
 20
11.5097170672
 10
16.5965168968
 20
11.5095400714
 10
16.6178027383
 20
11.5111632168
 10
16.6389662515
 20
11.5146038494
 10
16.6601429278
 20
11.5199721743
 10
16.6814089588
 20
11.5271824555
 10
16.7022286135
 20
11.5360662458
 10
16.7227037705
 20
11.5467657465
 10
16.7429732886
 20
11.5592529756
 10
16.7625317837
 20
11.5732021441
 10
16.7814081152
 20
11.5887486286
 10
16.7997575636
 20
11.6059203894
 10
16.8171951129
 20
11.6242941304
 10
16.8335997916
 20
11.6437948745
 10
16.8491559203
 20
11.6646654583
 10
16.8638870999
 20
11.6869745093
  0
LWPOLYLINE
  5
3C1
100
AcDbEntity
  8
0
100
AcDbPolyline
 62
7
  6
CONTINUOUS
 90
4
 70
0
 10
16.5475608817
 20
11.4128561223
 10
16.568809677
 20
11.4064672485
 10
16.5933021811
 20
11.4010210915
 10
16.5988963936
 20
11.4000529862
  0
LINE
  5
3C2
100
AcDbEntity
  8
0
100
AcDbLine
 62
250
  6
CONTINUOUS
 10
17.9872177394
 20
9.2945091912
 11
18.2161484032
 21
9.2258635557
  0
LINE
  5
3C3
100
AcDbEntity
  8
0
100
AcDbLine
 62
250
  6
CONTINUOUS
 10
18.0616495059
 20
9.1491503789
 11
17.8318873256
 21
9.2180093498
  0
LINE
  5
3C4
100
AcDbEntity
  8
0
100
AcDbLine
 62
250
  6
CONTINUOUS
 10
18.1431303183
 20
9.1245347522
 11
18.0616495059
 21
9.1491503789
  0
LINE
  5
3C5
100
AcDbEntity
  8
0
100
AcDbLine
 62
250
  6
CONTINUOUS
 10
17.7737408124
 20
9.3594457892
 11
17.9872177394
 21
9.2945091912
  0
LWPOLYLINE
  5
3C6
100
AcDbEntity
  8
0
100
AcDbPolyline
 62
250
  6
CONTINUOUS
 90
3
 70
0
 10
17.8318873256
 20
9.2180093498
 10
17.5599291757
 20
9.3014449279
 10
17.4978636381
 20
9.3208907484
  0
LINE
  5
3C7
100
AcDbEntity
  8
0
100
AcDbLine
 62
250
  6
CONTINUOUS
 10
17.5753528675
 20
9.4207247814
 11
17.7737408124
 21
9.3594457892
  0
LWPOLYLINE
  5
3C8
100
AcDbEntity
  8
0
100
AcDbPolyline
 62
250
  6
CONTINUOUS
 90
16
 70
0
 10
15.984844935
 20
8.9865800325
 10
15.9928122993
 20
8.9839830106
 10
16.0015061635
 20
8.981468487
 10
16.0107624266
 20
8.979084146
 10
16.0202712206
 20
8.9768987787
 10
16.0299476738
 20
8.9749157353
 10
16.0400055468
 20
8.973089045
 10
16.0503616397
 20
8.9714435506
 10
16.0607811176
 20
8.9700226212
 10
16.071285913
 20
8.9688298692
 10
16.0816871005
 20
8.9678960502
 10
16.0917959831
 20
8.9672431155
 10
16.1015990787
 20
8.9668793916
 10
16.1109372304
 20
8.9668227467
 10
16.1195555812
 20
8.9670803284
 10
16.1272924617
 20
8.9676426239
  0
LWPOLYLINE
  5
3C9
100
AcDbEntity
  8
0
100
AcDbPolyline
 62
250
  6
CONTINUOUS
 90
16
 70
0
 10
16.1135596503
 20
9.7531520257
 10
16.1214883908
 20
9.7505414181
 10
16.1301162701
 20
9.7479478068
 10
16.1392700635
 20
9.7454227675
 10
16.1486731166
 20
9.7430378549
 10
16.1582525526
 20
9.7407983002
 10
16.1681949397
 20
9.7386535118
 10
16.1784120656
 20
9.7366298227
 10
16.1886796183
 20
9.7347816153
 10
16.199030718
 20
9.7331099119
 10
16.2092926426
 20
9.7316434491
 10
16.2192795728
 20
9.7304110754
 10
16.2289526473
 20
9.7294285437
 10
16.2381572262
 20
9.7287233955
 10
16.2466777321
 20
9.7283118087
 10
16.2543457673
 20
9.7281986826
  0
LWPOLYLINE
  5
3CA
100
AcDbEntity
  8
RACCORDO
100
AcDbPolyline
 62
7
  6
CONTINUOUS
 90
5
 70
0
 10
-0.0817420963
 20
15.6453268994
 10
-0.1167344729
 20
15.6628884522
 10
-0.1519614026
 20
15.6757988797
 10
-0.1891348843
 20
15.6850230714
 10
-0.2282549182
 20
15.6905610273
  0
LWPOLYLINE
  5
3CB
100
AcDbEntity
  8
0
100
AcDbPolyline
 62
250
  6
CONTINUOUS
 90
8
 70
0
 10
16.3620163006
 20
8.3896840816
 10
16.389769274
 20
8.3752605897
 10
16.41822138
 20
8.3636397652
 10
16.4472035275
 20
8.3549045014
 10
16.4765562977
 20
8.3491182585
 10
16.5060878806
 20
8.346335376
 10
16.5355753388
 20
8.3465843831
 10
16.5608407352
 20
8.3492339308
  0
LWPOLYLINE
  5
3CC
100
AcDbEntity
  8
0
100
AcDbPolyline
 62
250
  6
CONTINUOUS
 90
8
 70
0
 10
2.2198806768
 20
16.5551759482
 10
2.2476336503
 20
16.5407524563
 10
2.2760857562
 20
16.5291316317
 10
2.3050679038
 20
16.5203963679
 10
2.3344206739
 20
16.5146101251
 10
2.3639522569
 20
16.5118272425
 10
2.393439715
 20
16.5120762496
 10
2.4187051115
 20
16.5147257973
  0
LWPOLYLINE
  5
3CD
100
AcDbEntity
  8
0
100
AcDbPolyline
 62
250
  6
CONTINUOUS
 90
31
 70
0
 10
16.146714759
 20
7.7863770028
 10
16.2545445459
 20
7.7285137303
 10
16.3648659094
 20
7.6779923927
 10
16.4773764663
 20
7.6349514657
 10
16.591767833
 20
7.5995089212
 10
16.7077264707
 20
7.571761905
 10
16.8249345449
 20
7.5517864696
 10
16.9430707963
 20
7.5396373663
 10
17.0618114217
 20
7.535347895
 10
17.1808309613
 20
7.5389298128
 10
17.2998031909
 20
7.5503733019
 10
17.4184020158
 20
7.5696469965
 10
17.5363023648
 20
7.5966980688
 10
17.6531810813
 20
7.6314523736
 10
17.768717809
 20
7.6738146518
 10
17.8825958695
 20
7.7236687914
 10
17.9945031312
 20
7.7808781456
 10
18.1041328639
 20
7.8452859076
 10
18.2111845802
 20
7.9167155401
 10
18.3153648587
 20
7.9949712595
 10
18.4163881487
 20
8.0798385724
 10
18.5139775522
 20
8.1710848632
 10
18.6078655834
 20
8.2684600323
 10
18.6977949019
 20
8.3716971812
 10
18.7835190176
 20
8.4805133438
 10
18.8648029666
 20
8.5946102628
 10
18.9414239554
 20
8.7136752064
 10
19.013171971
 20
8.8373818258
 10
19.0798503573
 20
8.9653910498
 10
19.1412763533
 20
9.097352014
 10
19.1972815946
 20
9.2329030227
  0
LWPOLYLINE
  5
3CE
100
AcDbEntity
  8
0
100
AcDbPolyline
 62
250
  6
CONTINUOUS
 90
31
 70
0
 10
2.0045791353
 20
15.9518688693
 10
2.1124089222
 20
15.8940055968
 10
2.2227302857
 20
15.8434842593
 10
2.3352408426
 20
15.8004433322
 10
2.4496322093
 20
15.7650007878
 10
2.565590847
 20
15.7372537715
 10
2.6827989211
 20
15.7172783361
 10
2.8009351726
 20
15.7051292328
 10
2.919675798
 20
15.7008397615
 10
3.0386953376
 20
15.7044216793
 10
3.1576675672
 20
15.7158651684
 10
3.276266392
 20
15.735138863
 10
3.3941667411
 20
15.7621899353
 10
3.5110454576
 20
15.7969442401
 10
3.6265821852
 20
15.8393065184
 10
3.7404602458
 20
15.889160658
 10
3.8523675074
 20
15.9463700122
 10
3.9619972401
 20
16.0107777741
 10
4.0690489564
 20
16.0822074067
 10
4.173229235
 20
16.1604631261
 10
4.2742525249
 20
16.2453304389
 10
4.3718419284
 20
16.3365767298
 10
4.4657299597
 20
16.4339518989
 10
4.5556592782
 20
16.5371890477
 10
4.6413833939
 20
16.6460052104
 10
4.7226673429
 20
16.7601021294
 10
4.7992883317
 20
16.8791670729
 10
4.8710363473
 20
17.0028736923
 10
4.9377147335
 20
17.1308829163
 10
4.9991407295
 20
17.2628438806
 10
5.0551459709
 20
17.3983948892
  0
LINE
  5
3CF
100
AcDbEntity
  8
RACCORDO
100
AcDbLine
 62
250
  6
CONTINUOUS
 10
-0.9353616994
 20
16.0988356206
 11
-0.2282549182
 21
15.6905610273
  0
LINE
  5
3D0
100
AcDbEntity
  8
RACCORDO
100
AcDbLine
 62
250
  6
CONTINUOUS
 10
13.2067739243
 20
7.9333437541
 11
13.9138807055
 21
7.5250691608
  0
LINE
  5
3D1
100
AcDbEntity
  8
RACCORDO
100
AcDbLine
 62
7
  6
CONTINUOUS
 10
-0.7888909299
 20
16.0536257773
 11
-0.0817841487
 21
15.645351184
  0
LINE
  5
3D2
100
AcDbEntity
  8
RACCORDO
100
AcDbLine
 62
7
  6
CONTINUOUS
 10
13.3532446939
 20
7.8881339108
 11
14.0603514751
 21
7.4798593174
  0
LWPOLYLINE
  5
3D3
100
AcDbEntity
  8
0
100
AcDbPolyline
 62
7
  6
CONTINUOUS
 90
55
 70
0
 10
2.1447025602
 20
15.3768729978
 10
2.0143755797
 20
15.4571691852
 10
1.8875051684
 20
15.5456200062
 10
1.7644589016
 20
15.642077713
 10
1.6456644708
 20
15.746309128
 10
1.5313960456
 20
15.858179877
 10
1.4217974643
 20
15.9777049212
 10
1.3169869336
 20
16.1050019974
 10
1.2175767284
 20
16.2395935999
 10
1.1243644482
 20
16.3805276216
 10
1.0376596944
 20
16.5273417099
 10
0.957594509
 20
16.6798321274
 10
0.8845368817
 20
16.837299416
 10
0.8186606802
 20
16.9993125964
 10
0.7600846905
 20
17.1655408047
 10
0.7090047637
 20
17.335376547
 10
0.6655026834
 20
17.5084831288
 10
0.629688138
 20
17.6843879717
 10
0.6017011109
 20
17.8622353234
 10
0.5815698061
 20
18.0414346121
 10
0.5692702093
 20
18.2217209871
 10
0.5647986243
 20
18.4027056796
 10
0.5681517369
 20
18.5840677391
 10
0.579318561
 20
18.7652825405
 10
0.5982405599
 20
18.9456542223
 10
0.624846635
 20
19.1247431004
 10
0.6590635148
 20
19.302157775
 10
0.7007561147
 20
19.4772880274
 10
0.7497767719
 20
19.6496333583
 10
0.8060250716
 20
19.818907093
 10
0.8694154856
 20
19.9848321763
 10
0.9399674925
 20
20.1473290631
 10
1.0174337703
 20
20.3056858747
 10
1.101228449
 20
20.4587459555
 10
1.1908419954
 20
20.6057966114
 10
1.286249265
 20
20.7469827375
 10
1.3875441081
 20
20.8824698855
 10
1.4949126773
 20
21.012378361
 10
1.6077917293
 20
21.1358918973
 10
1.7250762456
 20
21.2518634815
 10
1.8459305496
 20
21.3597167959
 10
1.9704557238
 20
21.4597754927
 10
2.0988827157
 20
21.5523101335
 10
2.2311623527
 20
21.6372650783
 10
2.3667319204
 20
21.7142564967
 10
2.505064592
 20
21.7830101086
 10
2.6457613774
 20
21.8433752419
 10
2.7884816324
 20
21.8952537663
 10
2.9327339656
 20
21.9385230472
 10
3.0779612124
 20
21.9730986794
 10
3.2239077689
 20
21.9990059166
 10
3.3705127868
 20
22.0162789249
 10
3.517478754
 20
22.0248916313
 10
3.6642736816
 20
22.0248280826
 10
3.8104810137
 20
22.0161202766
  0
LWPOLYLINE
  5
3D4
100
AcDbEntity
  8
0
100
AcDbPolyline
 62
7
  6
CONTINUOUS
 90
55
 70
0
 10
16.2868381839
 20
7.2113811312
 10
16.1565112035
 20
7.2916773186
 10
16.0296407922
 20
7.3801281397
 10
15.9065945253
 20
7.4765858465
 10
15.7878000945
 20
7.5808172615
 10
15.6735316694
 20
7.6926880104
 10
15.563933088
 20
7.8122130546
 10
15.4591225574
 20
7.9395101308
 10
15.3597123522
 20
8.0741017334
 10
15.2665000719
 20
8.2150357551
 10
15.1797953182
 20
8.3618498433
 10
15.0997301327
 20
8.5143402608
 10
15.0266725054
 20
8.6718075494
 10
14.9607963039
 20
8.8338207298
 10
14.9022203142
 20
9.0000489382
 10
14.8511403874
 20
9.1698846805
 10
14.8076383071
 20
9.3429912622
 10
14.7718237617
 20
9.5188961052
 10
14.7438367346
 20
9.6967434568
 10
14.7237054298
 20
9.8759427455
 10
14.711405833
 20
10.0562291205
 10
14.7069342481
 20
10.237213813
 10
14.7102873606
 20
10.4185758725
 10
14.7214541847
 20
10.5997906739
 10
14.7403761836
 20
10.7801623558
 10
14.7669822587
 20
10.9592512338
 10
14.8011991385
 20
11.1366659085
 10
14.8428917384
 20
11.3117961609
 10
14.8919123956
 20
11.4841414918
 10
14.9481606954
 20
11.6534152265
 10
15.0115511093
 20
11.8193403097
 10
15.0821031162
 20
11.9818371965
 10
15.1595693941
 20
12.1401940081
 10
15.2433640727
 20
12.2932540889
 10
15.3329776191
 20
12.4403047448
 10
15.4283848887
 20
12.5814908709
 10
15.5296797318
 20
12.716978019
 10
15.637048301
 20
12.8468864945
 10
15.749927353
 20
12.9704000307
 10
15.8672118693
 20
13.086371615
 10
15.9880661734
 20
13.1942249294
 10
16.1125913475
 20
13.2942836261
 10
16.2410183395
 20
13.3868182669
 10
16.3732979764
 20
13.4717732118
 10
16.5088675441
 20
13.5487646302
 10
16.6472002157
 20
13.6175182421
 10
16.7878970011
 20
13.6778833753
 10
16.9306172562
 20
13.7297618998
 10
17.0748695894
 20
13.7730311806
 10
17.2200968361
 20
13.8076068128
 10
17.3660433926
 20
13.8335140501
 10
17.5126484105
 20
13.8507870583
 10
17.6596143777
 20
13.8593997648
 10
17.8064093053
 20
13.859336216
 10
17.9526166375
 20
13.85062841
  0
LWPOLYLINE
  5
3D5
100
AcDbEntity
  8
0
100
AcDbPolyline
 62
250
  6
CONTINUOUS
 90
11
 70
0
 10
3.006687431
 20
17.320898441
 10
2.9998439987
 20
17.3268117458
 10
2.9937260593
 20
17.3327294361
 10
2.988448336
 20
17.3385409659
 10
2.9841391779
 20
17.3440724978
 10
2.9807691603
 20
17.3493019825
 10
2.9782558466
 20
17.3543469587
 10
2.9766603393
 20
17.3591501948
 10
2.976043606
 20
17.3635941518
 10
2.9764318182
 20
17.3676771648
 10
2.9775574323
 20
17.3707607386
  0
LWPOLYLINE
  5
3D6
100
AcDbEntity
  8
0
100
AcDbPolyline
 62
250
  6
CONTINUOUS
 90
11
 70
0
 10
2.6847257946
 20
16.6659134625
 10
2.6778699967
 20
16.6718776897
 10
2.6717698139
 20
16.6779026301
 10
2.6665493451
 20
16.6838670152
 10
2.6623431704
 20
16.6895994337
 10
2.65911181
 20
16.6950792273
 10
2.6567536409
 20
16.7004244744
 10
2.6553279784
 20
16.7055738427
 10
2.6549181015
 20
16.7103982183
 10
2.6555662945
 20
16.7148966781
 10
2.6565581578
 20
16.7175950257
  0
LWPOLYLINE
  5
3D7
100
AcDbEntity
  8
0
100
AcDbPolyline
 62
250
  6
CONTINUOUS
 90
19
 70
0
 10
2.8911557052
 20
18.4446087464
 10
2.9129798557
 20
18.4244916358
 10
2.9337288537
 20
18.4019905016
 10
2.9532041143
 20
18.3773780521
 10
2.9711124222
 20
18.351118164
 10
2.9874724986
 20
18.3232920511
 10
3.002544282
 20
18.2935267344
 10
3.0162514142
 20
18.2619537615
 10
3.0283998732
 20
18.2289598545
 10
3.0389678148
 20
18.1944338408
 10
3.0478029197
 20
18.1585552939
 10
3.0548164177
 20
18.1216702026
 10
3.0599961228
 20
18.0838768053
 10
3.0632639159
 20
18.0455883807
 10
3.0645567086
 20
18.0071009164
 10
3.0638263398
 20
17.9683379112
 10
3.0610583151
 20
17.9294957591
 10
3.0562783249
 20
17.8910905722
 10
3.049531524
 20
17.8535346748
  0
LWPOLYLINE
  5
3D8
100
AcDbEntity
  8
0
100
AcDbPolyline
 62
250
  6
CONTINUOUS
 90
3
 70
0
 10
1.8550739409
 20
18.352841724
 10
1.8093140673
 20
18.3956529195
 10
1.7624542722
 20
18.4399762691
  0
LWPOLYLINE
  5
3D9
100
AcDbEntity
  8
0
100
AcDbPolyline
 62
250
  6
CONTINUOUS
 90
4
 70
0
 10
1.7624542722
 20
18.4399762691
 10
1.6653437932
 20
18.5329307541
 10
1.6150579837
 20
18.5814031212
 10
1.5637790769
 20
18.6314180201
  0
LWPOLYLINE
  5
3DA
100
AcDbEntity
  8
0
100
AcDbPolyline
 62
250
  6
CONTINUOUS
 90
3
 70
0
 10
1.7749511341
 20
18.6157788236
 10
1.8241864133
 20
18.5685186041
 10
1.9679000137
 20
18.4322724518
  0
LINE
  5
3DB
100
AcDbEntity
  8
0
100
AcDbLine
 62
250
  6
CONTINUOUS
 10
1.5637790769
 20
18.6314180201
 11
1.4039818348
 21
18.7895123947
  0
LWPOLYLINE
  5
3DC
100
AcDbEntity
  8
0
100
AcDbPolyline
 62
250
  6
CONTINUOUS
 90
5
 70
0
 10
1.521001998
 20
18.8654318507
 10
1.5726437977
 20
18.813757117
 10
1.6240312472
 20
18.762928702
 10
1.6750171004
 20
18.7129693999
 10
1.7749511341
 20
18.6157788236
  0
LWPOLYLINE
  5
3DD
100
AcDbEntity
  8
0
100
AcDbPolyline
 62
250
  6
CONTINUOUS
 90
16
 70
0
 10
1.9679000611
 20
18.4322724308
 10
1.9915596422
 20
18.4082915462
 10
2.0138580357
 20
18.3815006218
 10
2.0345263786
 20
18.352139672
 10
2.0532604278
 20
18.3206263994
 10
2.0699539783
 20
18.2872065039
 10
2.0846335017
 20
18.2518577819
 10
2.0971440301
 20
18.2149200223
 10
2.1073631498
 20
18.1767815728
 10
2.1152950203
 20
18.1374268464
 10
2.1208507878
 20
18.0972557938
 10
2.1239874913
 20
18.056667149
 10
2.1246926684
 20
18.0156306996
 10
2.1229308313
 20
17.9744294214
 10
2.1187387574
 20
17.9336437191
 10
2.1122092284
 20
17.8936906869
  0
LWPOLYLINE
  5
3DE
100
AcDbEntity
  8
0
100
AcDbPolyline
 62
250
  6
CONTINUOUS
 90
13
 70
0
 10
4.4087916453
 20
18.2930679059
 10
4.4055782555
 20
18.296376568
 10
4.4032454724
 20
18.3003060101
 10
4.4016022975
 20
18.3050434587
 10
4.4006947483
 20
18.3105769103
 10
4.4005636147
 20
18.3167976956
 10
4.4012306273
 20
18.3237372991
 10
4.4027148228
 20
18.3312969285
 10
4.4050059676
 20
18.3393532987
 10
4.4081257221
 20
18.3479161029
 10
4.4120631805
 20
18.3568795252
 10
4.4167295333
 20
18.366014665
 10
4.4220216245
 20
18.375137177
  0
LWPOLYLINE
  5
3DF
100
AcDbEntity
  8
0
100
AcDbPolyline
 62
250
  6
CONTINUOUS
 90
13
 70
0
 10
3.8627872353
 20
18.7362466991
 10
3.8592382841
 20
18.7399459486
 10
3.8565995317
 20
18.7442350464
 10
3.8546476734
 20
18.7492918997
 10
3.8534320248
 20
18.7550961419
 10
3.8530228333
 20
18.7615539396
 10
3.8534494019
 20
18.7687096754
 10
3.8547082631
 20
18.7764466077
 10
3.8567866617
 20
18.7846325343
 10
3.8597247163
 20
18.7932730908
 10
3.863527539
 20
18.8022701963
 10
3.8681046302
 20
18.8114117719
 10
3.8733514002
 20
18.8205061492
  0
LWPOLYLINE
  5
3E0
100
AcDbEntity
  8
0
100
AcDbPolyline
 62
250
  6
CONTINUOUS
 90
3
 70
0
 10
3.7144652817
 20
19.5672837655
 10
3.7476646915
 20
19.5300077875
 10
3.7780552077
 20
19.4923732371
  0
LWPOLYLINE
  5
3E1
100
AcDbEntity
  8
0
100
AcDbPolyline
 62
250
  6
CONTINUOUS
 90
13
 70
0
 10
4.2210232206
 20
17.6767599102
 10
4.2489116097
 20
17.6440283812
 10
4.2715031866
 20
17.6129024397
 10
4.2887258241
 20
17.5834814602
 10
4.3005245362
 20
17.5558593736
 10
4.3068616539
 20
17.5301243677
 10
4.3077169447
 20
17.5063586057
 10
4.3030876781
 20
17.4846379634
 10
4.2929886337
 20
17.4650317874
 10
4.2774520543
 20
17.4476026734
 10
4.2565275429
 20
17.4324062665
 10
4.2302819042
 20
17.4194910838
 10
4.1987989314
 20
17.4088983588
  0
LWPOLYLINE
  5
3E2
100
AcDbEntity
  8
RACCORDO
100
AcDbPolyline
 62
7
  6
CONTINUOUS
 90
22
 70
0
 10
14.2716903812
 20
7.0196649306
 10
14.2762074041
 20
6.9899019218
 10
14.2822261187
 20
6.9599022221
 10
14.289746525
 20
6.9296658316
 10
14.2988169628
 20
6.8990480815
 10
14.3093890923
 20
6.8681936406
 10
14.3213178944
 20
6.8375365151
 10
14.3346208526
 20
6.807085347
 10
14.3492804835
 20
6.7768314943
 10
14.3650993172
 20
6.7471830375
 10
14.3820929804
 20
6.7181480364
 10
14.4002458464
 20
6.6897184312
 10
14.4193135651
 20
6.6622781238
 10
14.4393091686
 20
6.6358397686
 10
14.4602196247
 20
6.6103907113
 10
14.4817614871
 20
6.5862768905
 10
14.5039409333
 20
6.5635181226
 10
14.5267517856
 20
6.5420945913
 10
14.5498920651
 20
6.5222927861
 10
14.5732611119
 20
6.5042082036
 10
14.5969595858
 20
6.4877453472
 10
14.6209874867
 20
6.4729042169
  0
LWPOLYLINE
  5
3E3
100
AcDbEntity
  8
RACCORDO
100
AcDbPolyline
 62
7
  6
CONTINUOUS
 90
7
 70
0
 10
14.2716903812
 20
7.0196649306
 10
14.2703340762
 20
7.0308490072
 10
14.2690947232
 20
7.041861782
 10
14.2679728793
 20
7.0526958715
 10
14.2669689426
 20
7.0633439742
 10
14.2660831527
 20
7.0737988757
 10
14.2653155899
 20
7.0840534531
  0
LWPOLYLINE
  5
3E4
100
AcDbEntity
  8
0
100
AcDbPolyline
 62
250
  6
CONTINUOUS
 90
11
 70
0
 10
17.8569649449
 20
11.1056471491
 10
17.8569555594
 20
11.1055554657
 10
17.8575082148
 20
11.1048245163
 10
17.8591093768
 20
11.1038053601
 10
17.8617913406
 20
11.1024880298
 10
17.8655474226
 20
11.1008847863
 10
17.8703323328
 20
11.0990183784
 10
17.8761722968
 20
11.0968824439
 10
17.8830263737
 20
11.094496886
 10
17.890734909
 20
11.0919191473
 10
17.8991348582
 20
11.0892024692
  0
LWPOLYLINE
  5
3E5
100
AcDbEntity
  8
RACCORDO
100
AcDbPolyline
 62
7
  6
CONTINUOUS
 90
16
 70
0
 10
31.012330216
 20
5.5325916651
 10
31.0635255692
 20
5.5803770238
 10
31.1132960435
 20
5.6291005956
 10
31.1616416389
 20
5.6787623804
 10
31.2087832872
 20
5.7296126523
 10
31.2545000566
 20
5.7814011372
 10
31.2981291516
 20
5.8333770128
 10
31.3396401584
 20
5.885543009
 10
31.3790634908
 20
5.9378963959
 10
31.4158275947
 20
5.9896781611
 10
31.4498937298
 20
6.0408799772
 10
31.4813006365
 20
6.0915101717
 10
31.5095929816
 20
6.140834715
 10
31.5346189875
 20
6.1886089304
 10
31.5565304319
 20
6.2350774947
 10
31.5753273148
 20
6.2802404077
  0
LINE
  5
3E6
100
AcDbEntity
  8
RACCORDO
100
AcDbLine
 62
7
  6
CONTINUOUS
 10
31.012330216
 20
5.5325916651
 11
29.432299479
 21
4.0946034586
  0
LWPOLYLINE
  5
3E7
100
AcDbEntity
  8
0
100
AcDbPolyline
 62
250
  6
CONTINUOUS
 90
4
 70
0
 10
4.1987989314
 20
17.4088983588
 10
4.162179139
 20
17.4006619106
 10
4.1205394413
 20
17.3948080353
 10
4.0740127794
 20
17.3913554223
  0
LINE
  5
3E8
100
AcDbEntity
  8
0
100
AcDbLine
 62
7
  6
CONTINUOUS
 10
3.9362097159
 20
17.6762206868
 11
4.0178856566
 21
17.6943553012
  0
LWPOLYLINE
  5
3E9
100
AcDbEntity
  8
0
100
AcDbPolyline
 62
7
  6
CONTINUOUS
 90
8
 70
0
 10
3.9362097159
 20
17.6762206868
 10
3.8470160721
 20
17.6576694185
 10
3.7613596619
 20
17.6416069546
 10
3.679289265
 20
17.6282044432
 10
3.6007801528
 20
17.6175545852
 10
3.5257796661
 20
17.6096862008
 10
3.4542410622
 20
17.6045703566
 10
3.3861104799
 20
17.6021214618
  0
LWPOLYLINE
  5
3EA
100
AcDbEntity
  8
0
100
AcDbPolyline
 62
250
  6
CONTINUOUS
 90
16
 70
0
 10
4.2210232206
 20
17.6767599102
 10
4.1635485107
 20
17.6652353753
 10
4.1071368645
 20
17.6542014738
 10
4.0515513981
 20
17.6437968652
 10
3.9963963267
 20
17.6342161697
 10
3.9416977345
 20
17.6254883
 10
3.8878314056
 20
17.6175006095
 10
3.8345844098
 20
17.6103168706
 10
3.7817921214
 20
17.6040593664
 10
3.7298659522
 20
17.5986825426
 10
3.6786389604
 20
17.5941723362
 10
3.6279068385
 20
17.5906353191
 10
3.5781114947
 20
17.58809882
 10
3.5293277338
 20
17.5865202057
 10
3.4811295437
 20
17.5858862966
 10
3.4332172437
 20
17.5862166479
  0
LINE
  5
3EB
100
AcDbEntity
  8
0
100
AcDbLine
 62
250
  6
CONTINUOUS
 10
4.0178856566
 20
17.6943553012
 11
4.0283475193
 21
17.6964071289
  0
LINE
  5
3EC
100
AcDbEntity
  8
0
100
AcDbLine
 62
250
  6
CONTINUOUS
 10
4.1774844048
 20
18.4786419801
 11
4.1417792222
 21
18.4726348653
  0
LINE
  5
3ED
100
AcDbEntity
  8
0
100
AcDbLine
 62
250
  6
CONTINUOUS
 10
2.4187051115
 20
16.5147257973
 11
2.4212340933
 21
16.515116938
  0
LWPOLYLINE
  5
3EE
100
AcDbEntity
  8
0
100
AcDbPolyline
 62
250
  6
CONTINUOUS
 90
7
 70
0
 10
4.0283475193
 20
17.6964071289
 10
4.0598533581
 20
17.7005946078
 10
4.091730447
 20
17.7018387766
 10
4.1240474316
 20
17.7000665956
 10
4.1566424719
 20
17.6952599603
 10
4.1890836187
 20
17.687466232
 10
4.2210232206
 20
17.6767599102
  0
LWPOLYLINE
  5
3EF
100
AcDbEntity
  8
0
100
AcDbPolyline
 62
250
  6
CONTINUOUS
 90
16
 70
0
 10
4.0740108592
 20
17.3913553892
 10
4.0684023935
 20
17.3906993224
 10
4.0626015713
 20
17.3889445739
 10
4.0567268627
 20
17.3861372131
 10
4.0509526603
 20
17.3823894
 10
4.0453068062
 20
17.3777787949
 10
4.0396669273
 20
17.3722214117
 10
4.0340923964
 20
17.3657310969
 10
4.0287220652
 20
17.3584315034
 10
4.0235489111
 20
17.3502812478
 10
4.0186593814
 20
17.3414082153
 10
4.0141467665
 20
17.3319630855
 10
4.0100454148
 20
17.3219406135
 10
4.0064372943
 20
17.3114545314
 10
4.0034046593
 20
17.3007528309
 10
4.0010019197
 20
17.2900637403
  0
LINE
  5
3F0
100
AcDbEntity
  8
0
100
AcDbLine
 62
250
  6
CONTINUOUS
 10
2.817493161
 20
18.4418118317
 11
2.8911557052
 21
18.4446087464
  0
LINE
  5
3F1
100
AcDbEntity
  8
0
100
AcDbLine
 62
250
  6
CONTINUOUS
 10
2.5386740509
 20
18.4333967268
 11
2.817493161
 21
18.4418118317
  0
LWPOLYLINE
  5
3F2
100
AcDbEntity
  8
0
100
AcDbPolyline
 62
7
  6
CONTINUOUS
 90
17
 70
0
 10
3.3861104799
 20
17.6021214618
 10
3.3276257103
 20
17.6018680289
 10
3.2979652299
 20
17.6003731531
 10
3.2684015516
 20
17.596472492
 10
3.2391267127
 20
17.590161189
 10
3.2103152921
 20
17.5814470393
 10
3.1821329623
 20
17.5703455721
 10
3.1547567296
 20
17.5568859468
 10
3.1283501684
 20
17.5411510973
 10
3.1030429614
 20
17.5232449922
 10
3.0789345704
 20
17.503254523
 10
3.0560971461
 20
17.4812432321
 10
3.0346783151
 20
17.4573463706
 10
3.0148608048
 20
17.4317744596
 10
2.9967512338
 20
17.4046843622
 10
2.9804015759
 20
17.3761540117
 10
2.9775911181
 20
17.3707557969
  0
LINE
  5
3F3
100
AcDbEntity
  8
0
100
AcDbLine
 62
7
  6
CONTINUOUS
 10
3.3352769945
 20
17.6018655035
 11
3.3355623803
 21
17.6018623384
  0
LINE
  5
3F4
100
AcDbEntity
  8
0
100
AcDbLine
 62
250
  6
CONTINUOUS
 10
3.049531524
 20
17.8535346748
 11
2.8326172843
 21
17.856738167
  0
LINE
  5
3F5
100
AcDbEntity
  8
0
100
AcDbLine
 62
250
  6
CONTINUOUS
 10
2.8326172843
 20
17.856738167
 11
2.7633879093
 21
17.8583131571
  0
LWPOLYLINE
  5
3F6
100
AcDbEntity
  8
0
100
AcDbPolyline
 62
250
  6
CONTINUOUS
 90
3
 70
0
 10
2.7633879093
 20
17.8583131571
 10
2.6299123552
 20
17.8626632945
 10
2.5655145763
 20
17.8651183017
  0
LWPOLYLINE
  5
3F7
100
AcDbEntity
  8
0
100
AcDbPolyline
 62
250
  6
CONTINUOUS
 90
10
 70
0
 10
1.9679000137
 20
18.4322724518
 10
2.0175345517
 20
18.43040739
 10
2.0682074868
 20
18.429135384
 10
2.1202885951
 20
18.4283981852
 10
2.1743849424
 20
18.4281041064
 10
2.2306815801
 20
18.4281482184
 10
2.2887194142
 20
18.4285237049
 10
2.3483687207
 20
18.4293264957
 10
2.4099826821
 20
18.4304629563
 10
2.5386740509
 20
18.4333967268
  0
LWPOLYLINE
  5
3F8
100
AcDbEntity
  8
0
100
AcDbPolyline
 62
250
  6
CONTINUOUS
 90
4
 70
0
 10
2.5655145763
 20
17.8651183017
 10
2.4419245139
 20
17.871198002
 10
2.3825888029
 20
17.874420259
 10
2.3248841497
 20
17.8779909059
  0
LWPOLYLINE
  5
3F9
100
AcDbEntity
  8
0
100
AcDbPolyline
 62
250
  6
CONTINUOUS
 90
4
 70
0
 10
3.3355623803
 20
17.6018623384
 10
3.367258198
 20
17.6000626672
 10
3.4005285766
 20
17.5947694076
 10
3.4332157978
 20
17.5862167025
  0
LINE
  5
3FA
100
AcDbEntity
  8
0
100
AcDbLine
 62
250
  6
CONTINUOUS
 10
2.3248841497
 20
17.8779909059
 11
2.2155614029
 21
17.8857020878
  0
LINE
  5
3FB
100
AcDbEntity
  8
0
100
AcDbLine
 62
250
  6
CONTINUOUS
 10
2.2155614029
 20
17.8857020878
 11
2.112210775
 21
17.8936905524
  0
LINE
  5
3FC
100
AcDbEntity
  8
RACCORDO
100
AcDbLine
 62
7
  6
CONTINUOUS
 10
-4.0919582234
 20
16.3805862368
 11
-0.9353616994
 21
16.0988356206
  0
LINE
  5
3FD
100
AcDbEntity
  8
0
100
AcDbLine
 62
7
  6
CONTINUOUS
 10
7.7203508319
 20
16.3962624702
 11
6.5993903177
 21
16.4963168526
  0
LWPOLYLINE
  5
3FE
100
AcDbEntity
  8
0
100
AcDbPolyline
 62
250
  6
CONTINUOUS
 90
8
 70
0
 10
18.8094101692
 20
13.7741529708
 10
18.9512243783
 20
13.7567900538
 10
19.0867237572
 20
13.7312725948
 10
19.2207600856
 20
13.6971946483
 10
19.3530001282
 20
13.6546409375
 10
19.4831151154
 20
13.6037172576
 10
19.6107815608
 20
13.5445502129
 10
19.7356820655
 20
13.477286902
  0
LWPOLYLINE
  5
3FF
100
AcDbEntity
  8
0
100
AcDbPolyline
 62
250
  6
CONTINUOUS
 90
19
 70
0
 10
4.0009946946
 20
17.2900266187
 10
4.0404533957
 20
17.280268013
 10
4.0801512381
 20
17.2739674797
 10
4.1200461559
 20
17.2712071418
 10
4.1602645435
 20
17.2721198288
 10
4.200565142
 20
17.2767368573
 10
4.2403288714
 20
17.2849327984
 10
4.2794255719
 20
17.296723034
 10
4.317794474
 20
17.312111927
 10
4.3549003448
 20
17.3308571503
 10
4.3905976033
 20
17.3529138339
 10
4.4248112831
 20
17.378219483
 10
4.4571137022
 20
17.4064223928
 10
4.4873657607
 20
17.4374235849
 10
4.5154959866
 20
17.4711081712
 10
4.5411980002
 20
17.5070400429
 10
4.564318503
 20
17.5449697425
 10
4.5848447311
 20
17.5848563675
 10
4.6026991085
 20
17.6265501679
  0
LWPOLYLINE
  5
400
100
AcDbEntity
  8
0
100
AcDbPolyline
 62
250
  6
CONTINUOUS
 90
5
 70
0
 10
4.0740127794
 20
17.3913554223
 10
4.1062073846
 20
17.3832405532
 10
4.1389219485
 20
17.3780426465
 10
4.1719629995
 20
17.3758123517
 10
4.1953704128
 20
17.3760432891
  0
LWPOLYLINE
  5
401
100
AcDbEntity
  8
0
100
AcDbPolyline
 62
250
  6
CONTINUOUS
 90
19
 70
0
 10
3.3557280143
 20
17.486382615
 10
3.3334026735
 20
17.4924089609
 10
3.3111587138
 20
17.4964903873
 10
3.2889439093
 20
17.4986650439
 10
3.2664967397
 20
17.4989768311
 10
3.2439476954
 20
17.4974664367
 10
3.221801665
 20
17.4941135019
 10
3.1999257057
 20
17.4888075932
 10
3.1782310467
 20
17.48163557
 10
3.1572656277
 20
17.47276479
 10
3.1369365259
 20
17.4620522522
 10
3.1170959285
 20
17.449526738
 10
3.0982369432
 20
17.4355151322
 10
3.0803432577
 20
17.4198809348
 10
3.063257074
 20
17.4025964137
 10
3.0473296934
 20
17.3840878842
 10
3.0326756611
 20
17.3644308999
 10
3.0191327276
 20
17.3433806506
 10
3.0066869632
 20
17.3208676454
  0
LINE
  5
402
100
AcDbEntity
  8
0
100
AcDbLine
 62
250
  6
CONTINUOUS
 10
3.8450821157
 20
17.4600010577
 11
4.0740127794
 21
17.3913554223
  0
LINE
  5
403
100
AcDbEntity
  8
0
100
AcDbLine
 62
250
  6
CONTINUOUS
 10
4.0009946946
 20
17.2900266187
 11
3.6897517018
 21
17.3835012163
  0
LINE
  5
404
100
AcDbEntity
  8
0
100
AcDbLine
 62
250
  6
CONTINUOUS
 10
3.6316051887
 20
17.5249376558
 11
3.8450821157
 21
17.4600010577
  0
LWPOLYLINE
  5
405
100
AcDbEntity
  8
0
100
AcDbPolyline
 62
250
  6
CONTINUOUS
 90
3
 70
0
 10
3.6897517018
 20
17.3835012163
 10
3.417793552
 20
17.4669367944
 10
3.3557280143
 20
17.486382615
  0
LINE
  5
406
100
AcDbEntity
  8
0
100
AcDbLine
 62
250
  6
CONTINUOUS
 10
3.4332172437
 20
17.5862166479
 11
3.6316051887
 21
17.5249376558
  0
LINE
  5
407
100
AcDbEntity
  8
0
100
AcDbLine
 62
250
  6
CONTINUOUS
 10
17.7239546235
 20
11.4434424431
 11
17.8566009054
 21
11.4017918989
  0
LINE
  5
408
100
AcDbEntity
  8
0
100
AcDbLine
 62
250
  6
CONTINUOUS
 10
18.0914723221
 20
11.8579720976
 11
18.1253677229
 21
11.8470788731
  0
LWPOLYLINE
  5
409
100
AcDbEntity
  8
0
100
AcDbPolyline
 62
250
  6
CONTINUOUS
 90
16
 70
0
 10
1.8427093113
 20
17.1520718991
 10
1.8506766756
 20
17.1494748772
 10
1.8593705397
 20
17.1469603536
 10
1.8686268029
 20
17.1445760126
 10
1.8781355969
 20
17.1423906452
 10
1.8878120501
 20
17.1404076019
 10
1.8978699231
 20
17.1385809116
 10
1.908226016
 20
17.1369354171
 10
1.9186454939
 20
17.1355144877
 10
1.9291502893
 20
17.1343217358
 10
1.9395514768
 20
17.1333879168
 10
1.9496603594
 20
17.132734982
 10
1.959463455
 20
17.1323712581
 10
1.9688016067
 20
17.1323146132
 10
1.9774199575
 20
17.1325721949
 10
1.9851568379
 20
17.1331344904
  0
LWPOLYLINE
  5
40A
100
AcDbEntity
  8
0
100
AcDbPolyline
 62
250
  6
CONTINUOUS
 90
16
 70
0
 10
1.9714240265
 20
17.9186438923
 10
1.9793527671
 20
17.9160332847
 10
1.9879806463
 20
17.9134396733
 10
1.9971344398
 20
17.910914634
 10
2.0065374929
 20
17.9085297214
 10
2.0161169288
 20
17.9062901668
 10
2.026059316
 20
17.9041453784
 10
2.0362764419
 20
17.9021216892
 10
2.0465439946
 20
17.9002734819
 10
2.0568950943
 20
17.8986017785
 10
2.0671570189
 20
17.8971353157
 10
2.0771439491
 20
17.895902942
 10
2.0868170236
 20
17.8949204102
 10
2.0960216025
 20
17.8942152621
 10
2.1045421084
 20
17.8938036752
 10
2.1122101435
 20
17.8936905492
  0
LINE
  5
40B
100
AcDbEntity
  8
0
100
AcDbLine
 62
250
  6
CONTINUOUS
 10
16.2855126143
 20
11.5994852288
 11
16.5148451758
 21
11.5214595424
  0
LINE
  5
40C
100
AcDbEntity
  8
0
100
AcDbLine
 62
250
  6
CONTINUOUS
 10
17.4078557597
 20
11.166284388
 11
17.4007370191
 21
11.1687184916
  0
LINE
  5
40D
100
AcDbEntity
  8
0
100
AcDbLine
 62
7
  6
CONTINUOUS
 10
16.1737868376
 20
11.5404121697
 11
16.5474544408
 21
11.4128863871
  0
LINE
  5
40E
100
AcDbEntity
  8
0
100
AcDbLine
 62
7
  6
CONTINUOUS
 10
16.0032036015
 20
11.5993906567
 11
16.1737868376
 21
11.5404121697
  0
LWPOLYLINE
  5
40F
100
AcDbEntity
  8
0
100
AcDbPolyline
 62
250
  6
CONTINUOUS
 90
16
 70
0
 10
17.4037988292
 20
12.2576118897
 10
17.3974284549
 20
12.2598458298
 10
17.3904010755
 20
12.2626982699
 10
17.3828493801
 20
12.2661155881
 10
17.3750289956
 20
12.2699689351
 10
17.3670135643
 20
12.2742029017
 10
17.3586262332
 20
12.2789083523
 10
17.3499339382
 20
12.2840590772
 10
17.3411324527
 20
12.2895460835
 10
17.3322016743
 20
12.2953894978
 10
17.3232998855
 20
12.3014963932
 10
17.3145875091
 20
12.3077624077
 10
17.3060746965
 20
12.3141886273
 10
17.2978968233
 20
12.3206862017
 10
17.2902755457
 20
12.3270851931
 10
17.2833548468
 20
12.3332595399
  0
LWPOLYLINE
  5
410
100
AcDbEntity
  8
0
100
AcDbPolyline
 62
250
  6
CONTINUOUS
 90
3
 70
0
 10
15.9671306489
 20
11.7091082636
 10
16.0333019353
 20
11.6858591158
 10
16.2855126143
 20
11.5994852288
  0
LWPOLYLINE
  5
411
100
AcDbEntity
  8
0
100
AcDbPolyline
 62
250
  6
CONTINUOUS
 90
18
 70
0
 10
17.8782697842
 20
12.4516083785
 10
17.871680354
 20
12.4539688936
 10
17.8415403831
 20
12.462807502
 10
17.8105688591
 20
12.4687382312
 10
17.778966444
 20
12.4717059515
 10
17.7469775212
 20
12.4716802194
 10
17.7147960583
 20
12.4686622642
 10
17.6826159499
 20
12.4626713914
 10
17.6506854529
 20
12.4537594172
 10
17.6192201085
 20
12.4420050812
 10
17.5883811943
 20
12.4274871931
 10
17.5583303442
 20
12.4102897693
 10
17.5292465353
 20
12.3905241169
 10
17.5012982518
 20
12.3683135782
 10
17.4746263604
 20
12.3437686927
 10
17.4493832601
 20
12.317024623
 10
17.4257284485
 20
12.2882482676
 10
17.4038046477
 20
12.2576100359
  0
LWPOLYLINE
  5
412
100
AcDbEntity
  8
0
100
AcDbPolyline
 62
7
  6
CONTINUOUS
 90
4
 70
0
 10
17.4007370191
 20
11.1687184916
 10
17.4043817343
 20
11.1673708986
 10
17.4087929809
 20
11.1656363998
 10
17.4106429698
 20
11.1648790426
  0
LWPOLYLINE
  5
413
100
AcDbEntity
  8
0
100
AcDbPolyline
 62
250
  6
CONTINUOUS
 90
4
 70
0
 10
18.0824941382
 20
11.8609558861
 10
18.083130436
 20
11.8607198016
 10
18.0848276529
 20
11.8601473221
 10
18.0914723221
 20
11.8579720976
  0
LINE
  5
414
100
AcDbEntity
  8
0
100
AcDbLine
 62
250
  6
CONTINUOUS
 10
17.8839929893
 20
12.4494278599
 11
17.8782697842
 21
12.4516083785
  0
LWPOLYLINE
  5
415
100
AcDbEntity
  8
0
100
AcDbPolyline
 62
7
  6
CONTINUOUS
 90
21
 70
0
 10
17.8788421712
 20
12.4513145273
 10
17.8913301103
 20
12.4463948189
 10
17.9198688576
 20
12.4325287395
 10
17.9470150882
 20
12.4154859707
 10
17.9725966542
 20
12.3954131264
 10
17.9964939047
 20
12.3724583291
 10
18.0186177549
 20
12.3467044331
 10
18.0387693035
 20
12.3183542269
 10
18.0566915583
 20
12.287784674
 10
18.0722203057
 20
12.2553319881
 10
18.0852815171
 20
12.2211680401
 10
18.0957827216
 20
12.1854663853
 10
18.1036662789
 20
12.1485137364
 10
18.1089479307
 20
12.1105924274
 10
18.1116538709
 20
12.0718531389
 10
18.1117850439
 20
12.0325702015
 10
18.1093492442
 20
11.9930193415
 10
18.104339082
 20
11.9533092673
 10
18.0967383074
 20
11.913631467
 10
18.0865528955
 20
11.874272946
 10
18.0824883068
 20
11.8609616716
  0
LINE
  5
416
100
AcDbEntity
  8
0
100
AcDbLine
 62
7
  6
CONTINUOUS
 10
17.4113126947
 20
11.1645857486
 11
17.4103796305
 21
11.1649727947
  0
LINE
  5
417
100
AcDbEntity
  8
0
100
AcDbLine
 62
250
  6
CONTINUOUS
 10
15.9965389769
 20
11.6022697181
 11
16.0032036015
 21
11.5993906567
  0
LWPOLYLINE
  5
418
100
AcDbEntity
  8
0
100
AcDbPolyline
 62
250
  6
CONTINUOUS
 90
15
 70
0
 10
16.5474544408
 20
11.4128863871
 10
16.5408543592
 20
11.415749945
 10
16.5348753743
 20
11.4195806526
 10
16.5295195054
 20
11.424275994
 10
16.524786148
 20
11.4297487119
 10
16.5205655559
 20
11.4361121493
 10
16.5169208346
 20
11.4433420991
 10
16.5139515091
 20
11.451293765
 10
16.511670849
 20
11.4600022744
 10
16.5101465698
 20
11.4693397214
 10
16.5094206613
 20
11.4791530944
 10
16.5095158662
 20
11.4894504306
 10
16.5104655733
 20
11.5001012337
 10
16.5122606154
 20
11.510835231
 10
16.5148541773
 20
11.5214405348
  0
LINE
  5
419
100
AcDbEntity
  8
0
100
AcDbLine
 62
7
  6
CONTINUOUS
 10
22.8134743252
 20
5.8254109256
 11
22.6112941141
 21
5.9421472456
  0
LINE
  5
41A
100
AcDbEntity
  8
0
100
AcDbLine
 62
250
  6
CONTINUOUS
 10
22.6112941141
 20
5.9421472456
 11
20.0188421391
 21
7.4389965249
  0
LINE
  5
41B
100
AcDbEntity
  8
0
100
AcDbLine
 62
7
  6
CONTINUOUS
 10
8.6713387015
 20
13.9909027922
 11
8.4691584904
 21
14.1076391122
  0
LINE
  5
41C
100
AcDbEntity
  8
0
100
AcDbLine
 62
250
  6
CONTINUOUS
 10
8.4691584904
 20
14.1076391122
 11
5.8767065154
 21
15.6044883915
  0
LINE
  5
41D
100
AcDbEntity
  8
0
100
AcDbLine
 62
250
  6
CONTINUOUS
 10
22.917480332
 20
6.3230528996
 11
20.3684713305
 21
7.7948187504
  0
LINE
  5
41E
100
AcDbEntity
  8
0
100
AcDbLine
 62
250
  6
CONTINUOUS
 10
8.7753447082
 20
14.4885447661
 11
6.2263357068
 21
15.960310617
  0
LINE
  5
41F
100
AcDbEntity
  8
0
100
AcDbLine
 62
250
  6
CONTINUOUS
 10
4.3523788797
 20
18.4302759252
 11
4.4220076149
 21
18.3751143141
  0
LINE
  5
420
100
AcDbEntity
  8
0
100
AcDbLine
 62
7
  6
CONTINUOUS
 10
4.2955625562
 20
18.3834901831
 11
4.4088082911
 21
18.2930546532
  0
LINE
  5
421
100
AcDbEntity
  8
0
100
AcDbLine
 62
7
  6
CONTINUOUS
 10
4.164418499
 20
18.4892000146
 11
4.2955625562
 21
18.3834901831
  0
LINE
  5
422
100
AcDbEntity
  8
0
100
AcDbLine
 62
250
  6
CONTINUOUS
 10
4.2200758237
 20
18.5369695555
 11
4.3523788797
 21
18.4302759252
  0
LINE
  5
423
100
AcDbEntity
  8
0
100
AcDbLine
 62
7
  6
CONTINUOUS
 10
4.0346783049
 20
18.5948011257
 11
4.164418499
 21
18.4892000146
  0
LWPOLYLINE
  5
424
100
AcDbEntity
  8
0
100
AcDbPolyline
 62
7
  6
CONTINUOUS
 90
34
 70
0
 10
4.4087914825
 20
18.2930750111
 10
4.4168167926
 20
18.286528693
 10
4.4429196384
 20
18.2627911628
 10
4.4673588016
 20
18.2366957603
 10
4.490021931
 20
18.2084108171
 10
4.5107809358
 20
18.1781288374
 10
4.5295041237
 20
18.1460660287
 10
4.5460803383
 20
18.1124218681
 10
4.56043116
 20
18.0773435098
 10
4.5724668186
 20
18.0410069988
 10
4.5820588115
 20
18.0037080209
 10
4.5891381805
 20
17.9657079227
 10
4.5937134421
 20
17.9271811225
 10
4.5957734524
 20
17.8883904484
 10
4.5953292075
 20
17.8495891263
 10
4.5924013106
 20
17.810935264
 10
4.5870040863
 20
17.7726454513
 10
4.5791513569
 20
17.7349328801
 10
4.5688521982
 20
17.6979843445
 10
4.5561402299
 20
17.6620875844
 10
4.5410760781
 20
17.6275078593
 10
4.5237705045
 20
17.5944163033
 10
4.5043643952
 20
17.563025646
 10
4.4830008742
 20
17.5335336563
 10
4.459802236
 20
17.5060890185
 10
4.4349185354
 20
17.4808613184
 10
4.4085158072
 20
17.4580262779
 10
4.38075313
 20
17.4377525109
 10
4.3518079687
 20
17.4202208259
 10
4.3218328441
 20
17.4055564893
 10
4.290951946
 20
17.3937782571
 10
4.2593305068
 20
17.3849229845
 10
4.2271475217
 20
17.3790390247
 10
4.1999280976
 20
17.3764377395
  0
LINE
  5
425
100
AcDbEntity
  8
0
100
AcDbLine
 62
250
  6
CONTINUOUS
 10
4.0374223644
 20
18.685447844
 11
4.2200758237
 21
18.5369695555
  0
LINE
  5
426
100
AcDbEntity
  8
0
100
AcDbLine
 62
250
  6
CONTINUOUS
 10
3.8733639437
 20
18.82049222
 11
4.0374223644
 21
18.685447844
  0
LINE
  5
427
100
AcDbEntity
  8
0
100
AcDbLine
 62
7
  6
CONTINUOUS
 10
3.8627923749
 20
18.736246103
 11
4.0346783049
 21
18.5948011257
  0
LWPOLYLINE
  5
428
100
AcDbEntity
  8
0
100
AcDbPolyline
 62
250
  6
CONTINUOUS
 90
11
 70
0
 10
17.1488230548
 20
9.1554065745
 10
17.1419796224
 20
9.1613198793
 10
17.135861683
 20
9.1672375696
 10
17.1305839598
 20
9.1730490993
 10
17.1262748016
 20
9.1785806313
 10
17.122904784
 20
9.183810116
 10
17.1203914703
 20
9.1888550921
 10
17.118795963
 20
9.1936583282
 10
17.1181792297
 20
9.1981022853
 10
17.1185674419
 20
9.2021852983
 10
17.1196930561
 20
9.205268872
  0
LWPOLYLINE
  5
429
100
AcDbEntity
  8
0
100
AcDbPolyline
 62
250
  6
CONTINUOUS
 90
11
 70
0
 10
16.8268614183
 20
8.500421596
 10
16.8200056204
 20
8.5063858232
 10
16.8139054376
 20
8.5124107636
 10
16.8086849688
 20
8.5183751487
 10
16.8044787941
 20
8.5241075672
 10
16.8012474337
 20
8.5295873608
 10
16.7988892646
 20
8.5349326079
 10
16.7974636022
 20
8.5400819761
 10
16.7970537252
 20
8.5449063517
 10
16.7977019183
 20
8.5494048115
 10
16.7986937815
 20
8.5521031591
  0
LWPOLYLINE
  5
42A
100
AcDbEntity
  8
0
100
AcDbPolyline
 62
250
  6
CONTINUOUS
 90
9
 70
0
 10
3.6979582347
 20
19.0515052172
 10
3.6510948327
 20
19.092447762
 10
3.5944153567
 20
19.138026648
 10
3.5365055109
 20
19.1806762282
 10
3.4776772229
 20
19.2201468575
 10
3.4183078788
 20
19.2561847354
 10
3.3586730851
 20
19.2885923629
 10
3.2989476908
 20
19.3172340366
 10
3.269177071
 20
19.3300776151
  0
LWPOLYLINE
  5
42B
100
AcDbEntity
  8
0
100
AcDbPolyline
 62
250
  6
CONTINUOUS
 90
3
 70
0
 10
15.9972095646
 20
10.1873498575
 10
15.951449691
 20
10.230161053
 10
15.9045898959
 20
10.2744844025
  0
LWPOLYLINE
  5
42C
100
AcDbEntity
  8
0
100
AcDbPolyline
 62
250
  6
CONTINUOUS
 90
4
 70
0
 10
15.9045898959
 20
10.2744844025
 10
15.807479417
 20
10.3674388875
 10
15.7571936075
 20
10.4159112546
 10
15.7059147007
 20
10.4659261535
  0
LINE
  5
42D
100
AcDbEntity
  8
0
100
AcDbLine
 62
250
  6
CONTINUOUS
 10
15.7059147007
 20
10.4659261535
 11
15.5461174586
 21
10.6240205281
  0
LINE
  5
42E
100
AcDbEntity
  8
0
100
AcDbLine
 62
250
  6
CONTINUOUS
 10
18.280613024
 20
10.3447723787
 11
18.2839148459
 21
10.3071429988
  0
LWPOLYLINE
  5
42F
100
AcDbEntity
  8
RACCORDO
100
AcDbPolyline
 62
7
  6
CONTINUOUS
 90
25
 70
0
 10
24.2022843718
 20
9.6344079473
 10
24.2457213063
 20
9.7562500239
 10
24.2826466305
 20
9.8799935827
 10
24.3130603444
 20
10.0056386238
 10
24.3370367043
 20
10.1337378821
 10
24.354501454
 20
10.2637386227
 10
24.3652318244
 20
10.3939826409
 10
24.3691415493
 20
10.5244730529
 10
24.3663168951
 20
10.6552067425
 10
24.356793891
 20
10.7845161558
 10
24.3404867325
 20
10.9123830482
 10
24.3174812242
 20
11.0388256643
 10
24.2880708094
 20
11.1622311846
 10
24.2521734424
 20
11.2825607043
 10
24.2098711688
 20
11.3998531282
 10
24.161703569
 20
11.5126123505
 10
24.1075955091
 20
11.6207803016
 10
24.047622123
 20
11.7244150512
 10
23.982548392
 20
11.8221947018
 10
23.9123089817
 20
11.9140442507
 10
23.8369692265
 20
12.0000387006
 10
23.7574901113
 20
12.0790811623
 10
23.6741919644
 20
12.1508060062
 10
23.5867544575
 20
12.215578862
 10
23.4951775906
 20
12.2733997296
  0
LINE
  5
430
100
AcDbEntity
  8
0
100
AcDbLine
 62
7
  6
CONTINUOUS
 10
23.8101688618
 20
3.6063526549
 11
23.6200967757
 21
3.1131110329
  0
LINE
  5
431
100
AcDbEntity
  8
RACCORDO
100
AcDbLine
 62
7
  6
CONTINUOUS
 10
22.917480332
 20
6.3230528996
 11
24.2022843718
 21
9.6344079473
  0
LINE
  5
432
100
AcDbEntity
  8
RACCORDO
100
AcDbLine
 62
7
  6
CONTINUOUS
 10
23.5298527677
 20
6.2683939307
 11
24.8146568075
 21
9.5797489785
  0
LWPOLYLINE
  5
433
100
AcDbEntity
  8
0
100
AcDbPolyline
 62
7
  6
CONTINUOUS
 90
16
 70
0
 10
22.917480332
 20
6.3230528996
 10
22.9042746123
 20
6.2910865618
 10
22.8897929973
 20
6.2597100399
 10
22.8740354869
 20
6.228923334
 10
22.8569131694
 20
6.1985826694
 10
22.8385149565
 20
6.1688318208
 10
22.819107583
 20
6.1401021118
 10
22.7986763471
 20
6.1124084186
 10
22.7772359506
 20
6.0857358652
 10
22.7550972333
 20
6.0604711464
 10
22.7322500221
 20
6.0366347721
 10
22.7087044901
 20
6.0142062324
 10
22.6848019973
 20
5.9935106933
 10
22.6606563304
 20
5.9746565435
 10
22.6361537027
 20
5.9575353943
 10
22.6112941141
 20
5.9421472456
  0
LWPOLYLINE
  5
434
100
AcDbEntity
  8
0
100
AcDbPolyline
 62
7
  6
CONTINUOUS
 90
9
 70
0
 10
23.5298527677
 20
6.2683939307
 10
23.4902356088
 20
6.1724949174
 10
23.4467907637
 20
6.0783653518
 10
23.3995182324
 20
5.986005234
 10
23.34815128
 20
5.8949832403
 10
23.2929566413
 20
5.8057306943
 10
23.2347345208
 20
5.7195415673
 10
23.1734408131
 20
5.6364604879
 10
23.1314638486
 20
5.5842397733
  0
LINE
  5
435
100
AcDbEntity
  8
RACCORDO
100
AcDbLine
 62
250
  6
CONTINUOUS
 10
10.060148748
 20
17.7998998139
 11
10.6725211837
 21
17.745240845
  0
LINE
  5
436
100
AcDbEntity
  8
0
100
AcDbLine
 62
7
  6
CONTINUOUS
 10
8.7994771851
 20
19.8138565975
 11
6.9109689185
 21
19.9824205441
  0
LWPOLYLINE
  5
437
100
AcDbEntity
  8
0
100
AcDbPolyline
 62
250
  6
CONTINUOUS
 90
18
 70
0
 10
1.8276807805
 20
19.7733897877
 10
1.8155768586
 20
19.7751136426
 10
1.7880285749
 20
19.7768536656
 10
1.7601824283
 20
19.7756045823
 10
1.7322194111
 20
19.7713524529
 10
1.7043543363
 20
19.7641197897
 10
1.676764248
 20
19.7539492917
 10
1.6496099699
 20
19.7408977132
 10
1.623079137
 20
19.7250608509
 10
1.5973454677
 20
19.7065506475
 10
1.5725501623
 20
19.6854764408
 10
1.548823779
 20
19.6619595243
 10
1.5262951052
 20
19.6361259209
 10
1.5051163204
 20
19.6081468618
 10
1.4854372821
 20
19.5782371129
 10
1.4673765919
 20
19.546601282
 10
1.4510272917
 20
19.5134228139
 10
1.4364792374
 20
19.4789068695
  0
LWPOLYLINE
  5
438
100
AcDbEntity
  8
0
100
AcDbPolyline
 62
250
  6
CONTINUOUS
 90
19
 70
0
 10
2.8911557052
 20
18.4446087464
 10
2.9567223435
 20
18.4351904291
 10
3.0245120991
 20
18.427348755
 10
3.0942489016
 20
18.4210296716
 10
3.1656650492
 20
18.4161519733
 10
3.2384025565
 20
18.4126826944
 10
3.3120201479
 20
18.4106487493
 10
3.3861223826
 20
18.4100397878
 10
3.4603926584
 20
18.4107672277
 10
3.5344956794
 20
18.4127440834
 10
3.6080224483
 20
18.4159245116
 10
3.6806488085
 20
18.4202298665
 10
3.7521670555
 20
18.4255137649
 10
3.8221787183
 20
18.4317060561
 10
3.8903894631
 20
18.438729566
 10
3.9567486537
 20
18.4464219032
 10
4.0210188751
 20
18.4546766193
 10
4.0827938814
 20
18.4634418697
 10
4.1417792222
 20
18.4726348653
  0
LWPOLYLINE
  5
439
100
AcDbEntity
  8
0
100
AcDbPolyline
 62
250
  6
CONTINUOUS
 90
14
 70
0
 10
2.8448693901
 20
19.781988478
 10
2.893690472
 20
19.7746532747
 10
2.9434515214
 20
19.7665748591
 10
2.9944447443
 20
19.7576582002
 10
3.047105257
 20
19.74769692
 10
3.1014031323
 20
19.7365173055
 10
3.1569025293
 20
19.7242230315
 10
3.2137140298
 20
19.7110129259
 10
3.2720188552
 20
19.6967228641
 10
3.3314926362
 20
19.6812101234
 10
3.3921993733
 20
19.6647361509
 10
3.4542858085
 20
19.6473631851
 10
3.5175060871
 20
19.6287513631
 10
3.5818189998
 20
19.6089343097
  0
LINE
  5
43A
100
AcDbEntity
  8
0
100
AcDbLine
 62
7
  6
CONTINUOUS
 10
2.4575623935
 20
19.5654145144
 11
2.4567607699
 21
19.5655448527
  0
LINE
  5
43B
100
AcDbEntity
  8
0
100
AcDbLine
 62
250
  6
CONTINUOUS
 10
1.8296762168
 20
19.7730481524
 11
1.8276807805
 21
19.7733897877
  0
LWPOLYLINE
  5
43C
100
AcDbEntity
  8
0
100
AcDbPolyline
 62
7
  6
CONTINUOUS
 90
4
 70
0
 10
1.8281624845
 20
19.7732527974
 10
1.8325876321
 20
19.7724725069
 10
1.8468051303
 20
19.7692557424
 10
1.861233317
 20
19.7648369837
  0
LWPOLYLINE
  5
43D
100
AcDbEntity
  8
0
100
AcDbPolyline
 62
7
  6
CONTINUOUS
 90
10
 70
0
 10
2.4573193463
 20
19.5654034973
 10
2.5155330543
 20
19.5550413584
 10
2.5946990314
 20
19.5385692961
 10
2.6786587863
 20
19.5185224815
 10
2.7674859627
 20
19.4948657781
 10
2.8610198503
 20
19.4676654206
 10
2.958889966
 20
19.4371135714
 10
3.0609709018
 20
19.4033939851
 10
3.167366887
 20
19.3666659585
 10
3.258339124
 20
19.3342926986
  0
LWPOLYLINE
  5
43E
100
AcDbEntity
  8
0
100
AcDbPolyline
 62
250
  6
CONTINUOUS
 90
16
 70
0
 10
1.521001998
 20
18.8654318507
 10
1.5986903621
 20
18.8508920874
 10
1.6795431584
 20
18.8341048111
 10
1.7633022518
 20
18.8151236177
 10
1.8497002283
 20
18.7940091077
 10
1.9384612489
 20
18.7708286925
 10
2.0293019302
 20
18.7456563791
 10
2.1219322492
 20
18.7185725341
 10
2.2160564692
 20
18.6896636268
 10
2.3113740838
 20
18.6590219536
 10
2.4075807768
 20
18.6267453426
 10
2.5043693933
 20
18.592936842
 10
2.6014309205
 20
18.5577043907
 10
2.6984554744
 20
18.5211604738
 10
2.795133289
 20
18.4834217635
 10
2.8911557052
 20
18.4446087464
  0
LWPOLYLINE
  5
43F
100
AcDbEntity
  8
0
100
AcDbPolyline
 62
250
  6
CONTINUOUS
 90
16
 70
0
 10
2.8448688113
 20
19.7819886087
 10
2.8381237322
 20
19.7837478271
 10
2.8307451105
 20
19.7861150253
 10
2.8228810701
 20
19.7890418308
 10
2.814769829
 20
19.7924311885
 10
2.8064763186
 20
19.7962326113
 10
2.7978404567
 20
19.8005072133
 10
2.7889378705
 20
19.8052303653
 10
2.779962335
 20
19.8103166631
 10
2.7708838074
 20
19.8157953227
 10
2.7618538855
 20
19.8215763075
 10
2.753035438
 20
19.827559302
 10
2.7444603812
 20
19.8337416043
 10
2.7362639502
 20
19.840046183
 10
2.7286385838
 20
19.8463245377
 10
2.7217357036
 20
19.852446555
  0
LWPOLYLINE
  5
440
100
AcDbEntity
  8
0
100
AcDbPolyline
 62
250
  6
CONTINUOUS
 90
19
 70
0
 10
1.8249950252
 20
19.8746001302
 10
1.7929944604
 20
19.8836930542
 10
1.7605736043
 20
19.8893440714
 10
1.7277551648
 20
19.8914727863
 10
1.6944194332
 20
19.8899457715
 10
1.6607657581
 20
19.8847354519
 10
1.6273186881
 20
19.8759756979
 10
1.59418194
 20
19.8636534892
 10
1.5614057606
 20
19.8477654007
 10
1.5294509867
 20
19.8285604001
 10
1.4984385013
 20
19.8060855618
 10
1.4684358337
 20
19.7804040446
 10
1.4398216487
 20
19.7518719282
 10
1.412715085
 20
19.7205899729
 10
1.3871843914
 20
19.6866733545
 10
1.3635137553
 20
19.6505601626
 10
1.3418450411
 20
19.6125008754
 10
1.3221905651
 20
19.5725364354
 10
1.3046249505
 20
19.530816856
  0
LWPOLYLINE
  5
441
100
AcDbEntity
  8
0
100
AcDbPolyline
 62
250
  6
CONTINUOUS
 90
19
 70
0
 10
2.372709552
 20
19.686951409
 10
2.392749385
 20
19.6811290622
 10
2.4129801
 20
19.6772273324
 10
2.4334442499
 20
19.6752089337
 10
2.454381273
 20
19.675031938
 10
2.4756671146
 20
19.6766550834
 10
2.4968306277
 20
19.6800957159
 10
2.5180073041
 20
19.6854640408
 10
2.5392733351
 20
19.6926743221
 10
2.5600929898
 20
19.7015581124
 10
2.5805681468
 20
19.7122576131
 10
2.6008376649
 20
19.7247448422
 10
2.62039616
 20
19.7386940107
 10
2.6392724915
 20
19.7542404951
 10
2.6576219398
 20
19.771412256
 10
2.6750594892
 20
19.7897859969
 10
2.6914641679
 20
19.809286741
 10
2.7070202965
 20
19.8301573248
 10
2.7217514761
 20
19.8524663759
  0
LWPOLYLINE
  5
442
100
AcDbEntity
  8
0
100
AcDbPolyline
 62
7
  6
CONTINUOUS
 90
4
 70
0
 10
2.405425258
 20
19.5783479888
 10
2.4266740532
 20
19.571959115
 10
2.4511665574
 20
19.566512958
 10
2.4567607699
 20
19.5655448527
  0
LINE
  5
443
100
AcDbEntity
  8
0
100
AcDbLine
 62
250
  6
CONTINUOUS
 10
3.5818189998
 20
19.6089343097
 11
3.7144652817
 21
19.5672837655
  0
LINE
  5
444
100
AcDbEntity
  8
0
100
AcDbLine
 62
250
  6
CONTINUOUS
 10
3.9493366984
 20
20.0234639641
 11
3.9832320991
 21
20.0125707396
  0
LINE
  5
445
100
AcDbEntity
  8
0
100
AcDbLine
 62
250
  6
CONTINUOUS
 10
3.265720136
 20
19.3317762546
 11
3.2586013954
 21
19.3342103582
  0
LINE
  5
446
100
AcDbEntity
  8
0
100
AcDbLine
 62
7
  6
CONTINUOUS
 10
2.0316512139
 20
19.7059040363
 11
2.405318817
 21
19.5783782537
  0
LINE
  5
447
100
AcDbEntity
  8
0
100
AcDbLine
 62
250
  6
CONTINUOUS
 10
1.9562094493
 20
19.8289712502
 11
2.372709552
 21
19.686951409
  0
LINE
  5
448
100
AcDbEntity
  8
0
100
AcDbLine
 62
7
  6
CONTINUOUS
 10
1.8610679777
 20
19.7648825233
 11
2.0316512139
 21
19.7059040363
  0
LWPOLYLINE
  5
449
100
AcDbEntity
  8
0
100
AcDbPolyline
 62
250
  6
CONTINUOUS
 90
16
 70
0
 10
3.2616632055
 20
20.4231037563
 10
3.2552928312
 20
20.4253376964
 10
3.2482654517
 20
20.4281901365
 10
3.2407137564
 20
20.4316074547
 10
3.2328933719
 20
20.4354608016
 10
3.2248779406
 20
20.4396947683
 10
3.2164906095
 20
20.4444002188
 10
3.2077983145
 20
20.4495509437
 10
3.1989968289
 20
20.4550379501
 10
3.1900660506
 20
20.4608813643
 10
3.1811642617
 20
20.4669882598
 10
3.1724518853
 20
20.4732542743
 10
3.1639390728
 20
20.4796804938
 10
3.1557611995
 20
20.4861780682
 10
3.1481399219
 20
20.4925770596
 10
3.1412192231
 20
20.4987514064
  0
LWPOLYLINE
  5
44A
100
AcDbEntity
  8
0
100
AcDbPolyline
 62
250
  6
CONTINUOUS
 90
3
 70
0
 10
1.8249950252
 20
19.8746001302
 10
1.8911663116
 20
19.8513509823
 10
1.9562094493
 20
19.8289712502
  0
LWPOLYLINE
  5
44B
100
AcDbEntity
  8
0
100
AcDbPolyline
 62
250
  6
CONTINUOUS
 90
18
 70
0
 10
3.7361341604
 20
20.6171002451
 10
3.7295447303
 20
20.6194607601
 10
3.6994047594
 20
20.6282993686
 10
3.6684332353
 20
20.6342300978
 10
3.6368308203
 20
20.6371978181
 10
3.6048418975
 20
20.637172086
 10
3.5726604345
 20
20.6341541308
 10
3.5404803261
 20
20.628163258
 10
3.5085498292
 20
20.6192512838
 10
3.4770844848
 20
20.6074969478
 10
3.4462455705
 20
20.5929790596
 10
3.4161947205
 20
20.5757816358
 10
3.3871109116
 20
20.5560159834
 10
3.359162628
 20
20.5338054448
 10
3.3324907367
 20
20.5092605592
 10
3.3072476364
 20
20.4825164895
 10
3.2835928248
 20
20.4537401341
 10
3.261669024
 20
20.4231019025
  0
LWPOLYLINE
  5
44C
100
AcDbEntity
  8
0
100
AcDbPolyline
 62
7
  6
CONTINUOUS
 90
4
 70
0
 10
3.2586013954
 20
19.3342103582
 10
3.2622461105
 20
19.3328627651
 10
3.2666573572
 20
19.3311282663
 10
3.2685073461
 20
19.3303709091
  0
LWPOLYLINE
  5
44D
100
AcDbEntity
  8
0
100
AcDbPolyline
 62
250
  6
CONTINUOUS
 90
4
 70
0
 10
3.9403585145
 20
20.0264477526
 10
3.9409948123
 20
20.0262116682
 10
3.9426920291
 20
20.0256391887
 10
3.9493366984
 20
20.0234639641
  0
LINE
  5
44E
100
AcDbEntity
  8
0
100
AcDbLine
 62
250
  6
CONTINUOUS
 10
3.7418573655
 20
20.6149197265
 11
3.7361341604
 21
20.6171002451
  0
LWPOLYLINE
  5
44F
100
AcDbEntity
  8
0
100
AcDbPolyline
 62
7
  6
CONTINUOUS
 90
21
 70
0
 10
3.7367065475
 20
20.6168063939
 10
3.7491944866
 20
20.6118866855
 10
3.7777332339
 20
20.5980206061
 10
3.8048794645
 20
20.5809778373
 10
3.8304610305
 20
20.5609049929
 10
3.854358281
 20
20.5379501957
 10
3.8764821312
 20
20.5121962997
 10
3.8966336798
 20
20.4838460934
 10
3.9145559345
 20
20.4532765405
 10
3.930084682
 20
20.4208238547
 10
3.9431458933
 20
20.3866599067
 10
3.9536470979
 20
20.3509582519
 10
3.9615306552
 20
20.314005603
 10
3.966812307
 20
20.2760842939
 10
3.9695182472
 20
20.2373450054
 10
3.9696494202
 20
20.1980620681
 10
3.9672136205
 20
20.158511208
 10
3.9622034583
 20
20.1188011339
 10
3.9546026837
 20
20.0791233336
 10
3.9444172718
 20
20.0397648126
 10
3.9403526831
 20
20.0264535382
  0
LINE
  5
450
100
AcDbEntity
  8
0
100
AcDbLine
 62
7
  6
CONTINUOUS
 10
3.269177071
 20
19.3300776151
 11
3.2682440068
 21
19.3304646612
  0
LINE
  5
451
100
AcDbEntity
  8
0
100
AcDbLine
 62
250
  6
CONTINUOUS
 10
1.8544033532
 20
19.7677615846
 11
1.8610679777
 21
19.7648825233
  0
LWPOLYLINE
  5
452
100
AcDbEntity
  8
0
100
AcDbPolyline
 62
250
  6
CONTINUOUS
 90
15
 70
0
 10
2.405318817
 20
19.5783782537
 10
2.3987187355
 20
19.5812418115
 10
2.3927397506
 20
19.5850725192
 10
2.3873838817
 20
19.5897678605
 10
2.3826505242
 20
19.5952405784
 10
2.3784299321
 20
19.6016040159
 10
2.3747852109
 20
19.6088339657
 10
2.3718158854
 20
19.6167856316
 10
2.3695352252
 20
19.6254941409
 10
2.3680109461
 20
19.634831588
 10
2.3672850376
 20
19.644644961
 10
2.3673802425
 20
19.6549422971
 10
2.3683299496
 20
19.6655931002
 10
2.3701249917
 20
19.6763270975
 10
2.3727185535
 20
19.6869324014
  0
LWPOLYLINE
  5
453
100
AcDbEntity
  8
0
100
AcDbPolyline
 62
250
  6
CONTINUOUS
 90
16
 70
0
 10
17.4038046477
 20
12.2576100359
 10
17.4581217351
 20
12.2319880175
 10
17.5095647075
 20
12.2012551114
 10
17.5579693252
 20
12.1655094373
 10
17.6031810488
 20
12.1248651187
 10
17.645055533
 20
12.079451919
 10
17.6834590869
 20
12.029414827
 10
17.7182691012
 20
11.9749135937
 10
17.7493744395
 20
11.916122223
 10
17.7766757931
 20
11.8532284154
 10
17.8000859982
 20
11.7864329692
 10
17.8195303141
 20
11.7159491393
 10
17.8349466618
 20
11.6420019563
 10
17.8462858222
 20
11.5648275081
 10
17.8535115932
 20
11.4846721862
 10
17.8566009054
 20
11.4017918989
  0
LWPOLYLINE
  5
454
100
AcDbEntity
  8
0
100
AcDbPolyline
 62
250
  6
CONTINUOUS
 90
16
 70
0
 10
3.261669024
 20
20.4231019025
 10
3.3159861114
 20
20.397479884
 10
3.3674290838
 20
20.366746978
 10
3.4158337014
 20
20.3310013038
 10
3.4610454251
 20
20.2903569853
 10
3.5029199093
 20
20.2449437856
 10
3.5413234632
 20
20.1949066935
 10
3.5761334775
 20
20.1404054603
 10
3.6072388158
 20
20.0816140895
 10
3.6345401694
 20
20.0187202819
 10
3.6579503745
 20
19.9519248358
 10
3.6773946904
 20
19.8814410059
 10
3.6928110381
 20
19.8074938229
 10
3.7041501984
 20
19.7303193747
 10
3.7113759694
 20
19.6501640528
 10
3.7144652817
 20
19.5672837655
  0
LWPOLYLINE
  5
455
100
AcDbEntity
  8
0
100
AcDbPolyline
 62
250
  6
CONTINUOUS
 90
31
 70
0
 10
18.1804259828
 20
13.0279077869
 10
18.0725961959
 20
13.0857710595
 10
17.9622748324
 20
13.136292397
 10
17.8497642755
 20
13.1793333241
 10
17.7353729088
 20
13.2147758685
 10
17.6194142711
 20
13.2425228848
 10
17.5022061969
 20
13.2624983202
 10
17.3840699455
 20
13.2746474234
 10
17.2653293201
 20
13.2789368948
 10
17.1463097804
 20
13.275354977
 10
17.0273375509
 20
13.2639114879
 10
16.908738726
 20
13.2446377932
 10
16.790838377
 20
13.217586721
 10
16.6739596604
 20
13.1828324161
 10
16.5584229328
 20
13.1404701379
 10
16.4445448722
 20
13.0906159983
 10
16.3326376106
 20
13.0334066441
 10
16.2230078779
 20
12.9689988821
 10
16.1159561616
 20
12.8975692496
 10
16.011775883
 20
12.8193135302
 10
15.9107525931
 20
12.7344462174
 10
15.8131631896
 20
12.6431999265
 10
15.7192751584
 20
12.5458247574
 10
15.6293458399
 20
12.4425876086
 10
15.5436217242
 20
12.3337714459
 10
15.4623377751
 20
12.2196745269
 10
15.3857167864
 20
12.1006095834
 10
15.3139687707
 20
11.976902964
 10
15.2472903845
 20
11.8488937399
 10
15.1858643885
 20
11.7169327757
 10
15.1298591472
 20
11.5813817671
  0
LWPOLYLINE
  5
456
100
AcDbEntity
  8
0
100
AcDbPolyline
 62
250
  6
CONTINUOUS
 90
31
 70
0
 10
4.038290359
 20
21.1933996535
 10
3.9304605721
 20
21.251262926
 10
3.8201392086
 20
21.3017842636
 10
3.7076286517
 20
21.3448251906
 10
3.593237285
 20
21.3802677351
 10
3.4772786473
 20
21.4080147513
 10
3.3600705732
 20
21.4279901867
 10
3.2419343218
 20
21.44013929
 10
3.1231936963
 20
21.4444287613
 10
3.0041741567
 20
21.4408468435
 10
2.8852019271
 20
21.4294033544
 10
2.7666031023
 20
21.4101296598
 10
2.6487027533
 20
21.3830785875
 10
2.5318240367
 20
21.3483242827
 10
2.4162873091
 20
21.3059620045
 10
2.3024092485
 20
21.2561078649
 10
2.1905019869
 20
21.1988985107
 10
2.0808722542
 20
21.1344907487
 10
1.9738205379
 20
21.0630611162
 10
1.8696402593
 20
20.9848053967
 10
1.7686169694
 20
20.8999380839
 10
1.6710275659
 20
20.8086917931
 10
1.5771395346
 20
20.7113166239
 10
1.4872102161
 20
20.6080794751
 10
1.4014861005
 20
20.4992633125
 10
1.3202021514
 20
20.3851663935
 10
1.2435811627
 20
20.2661014499
 10
1.171833147
 20
20.1423948305
 10
1.1051547608
 20
20.0143856065
 10
1.0437287648
 20
19.8824246422
 10
0.9877235234
 20
19.7468736336
  0
LWPOLYLINE
  5
457
100
AcDbEntity
  8
0
100
AcDbPolyline
 62
250
  6
CONTINUOUS
 90
8
 70
0
 10
18.8788885337
 20
13.5537623411
 10
18.753988029
 20
13.6210256521
 10
18.6263215836
 20
13.6801926968
 10
18.4962065965
 20
13.7311163767
 10
18.3639665539
 20
13.7736700875
 10
18.2299302254
 20
13.807748034
 10
18.0944308465
 20
13.833265493
 10
17.9526166375
 20
13.85062841
  0
LINE
  5
458
100
AcDbEntity
  8
0
100
AcDbLine
 62
250
  6
CONTINUOUS
 10
18.4945145034
 20
10.2647840586
 11
18.5641432386
 21
10.2096224476
  0
LINE
  5
459
100
AcDbEntity
  8
0
100
AcDbLine
 62
7
  6
CONTINUOUS
 10
18.43769818
 20
10.2179983166
 11
18.5509439148
 21
10.1275627866
  0
LINE
  5
45A
100
AcDbEntity
  8
0
100
AcDbLine
 62
7
  6
CONTINUOUS
 10
18.3065541227
 20
10.323708148
 11
18.43769818
 21
10.2179983166
  0
LINE
  5
45B
100
AcDbEntity
  8
0
100
AcDbLine
 62
250
  6
CONTINUOUS
 10
18.3622114474
 20
10.3714776889
 11
18.4945145034
 21
10.2647840586
  0
LINE
  5
45C
100
AcDbEntity
  8
0
100
AcDbLine
 62
7
  6
CONTINUOUS
 10
18.1768139287
 20
10.4293092592
 11
18.3065541227
 21
10.323708148
  0
LWPOLYLINE
  5
45D
100
AcDbEntity
  8
0
100
AcDbPolyline
 62
7
  6
CONTINUOUS
 90
34
 70
0
 10
18.5509271062
 20
10.1275831446
 10
18.5589524163
 20
10.1210368265
 10
18.5850552622
 20
10.0972992962
 10
18.6094944254
 20
10.0712038937
 10
18.6321575547
 20
10.0429189506
 10
18.6529165596
 20
10.0126369709
 10
18.6716397474
 20
9.9805741622
 10
18.688215962
 20
9.9469300016
 10
18.7025667837
 20
9.9118516433
 10
18.7146024424
 20
9.8755151322
 10
18.7241944352
 20
9.8382161543
 10
18.7312738042
 20
9.8002160561
 10
18.7358490658
 20
9.7616892559
 10
18.7379090761
 20
9.7228985819
 10
18.7374648312
 20
9.6840972598
 10
18.7345369343
 20
9.6454433974
 10
18.72913971
 20
9.6071535848
 10
18.7212869806
 20
9.5694410135
 10
18.7109878219
 20
9.5324924779
 10
18.6982758537
 20
9.4965957178
 10
18.6832117019
 20
9.4620159928
 10
18.6659061282
 20
9.4289244367
 10
18.646500019
 20
9.3975337795
 10
18.6251364979
 20
9.3680417898
 10
18.6019378598
 20
9.3405971519
 10
18.5770541591
 20
9.3153694518
 10
18.5506514309
 20
9.2925344113
 10
18.5228887538
 20
9.2722606443
 10
18.4939435924
 20
9.2547289593
 10
18.4639684678
 20
9.2400646227
 10
18.4330875697
 20
9.2282863905
 10
18.4014661306
 20
9.2194311179
 10
18.3692831454
 20
9.2135471582
 10
18.3420637213
 20
9.210945873
  0
LINE
  5
45E
100
AcDbEntity
  8
0
100
AcDbLine
 62
250
  6
CONTINUOUS
 10
18.1795579881
 20
10.5199559775
 11
18.3622114474
 21
10.3714776889
  0
LINE
  5
45F
100
AcDbEntity
  8
0
100
AcDbLine
 62
250
  6
CONTINUOUS
 10
18.0154995675
 20
10.6550003534
 11
18.1795579881
 21
10.5199559775
  0
LINE
  5
460
100
AcDbEntity
  8
0
100
AcDbLine
 62
7
  6
CONTINUOUS
 10
18.0049279987
 20
10.5707542364
 11
18.1768139287
 21
10.4293092592
  0
LWPOLYLINE
  5
461
100
AcDbEntity
  8
0
100
AcDbPolyline
 62
250
  6
CONTINUOUS
 90
9
 70
0
 10
17.8400938585
 20
10.8860133507
 10
17.7932304564
 20
10.9269558955
 10
17.7365509804
 20
10.9725347815
 10
17.6786411347
 20
11.0151843617
 10
17.6198128467
 20
11.0546549909
 10
17.5604435025
 20
11.0906928688
 10
17.5008087089
 20
11.1231004964
 10
17.4410833145
 20
11.15174217
 10
17.4113126947
 20
11.1645857486
  0
LWPOLYLINE
  5
462
100
AcDbEntity
  8
0
100
AcDbPolyline
 62
250
  6
CONTINUOUS
 90
19
 70
0
 10
17.033291329
 20
10.2791168799
 10
17.0551154794
 20
10.2589997692
 10
17.0758644775
 20
10.236498635
 10
17.095339738
 20
10.2118861856
 10
17.1132480459
 20
10.1856262975
 10
17.1296081223
 20
10.1578001846
 10
17.1446799057
 20
10.1280348679
 10
17.1583870379
 20
10.0964618949
 10
17.170535497
 20
10.063467988
 10
17.1811034386
 20
10.0289419743
 10
17.1899385434
 20
9.9930634273
 10
17.1969520414
 20
9.956178336
 10
17.2021317466
 20
9.9183849387
 10
17.2053995397
 20
9.8800965142
 10
17.2066923323
 20
9.8416090499
 10
17.2059619636
 20
9.8028460447
 10
17.2031939388
 20
9.7640038926
 10
17.1984139486
 20
9.7255987056
 10
17.1916671477
 20
9.6880428083
  0
LWPOLYLINE
  5
463
100
AcDbEntity
  8
0
100
AcDbPolyline
 62
250
  6
CONTINUOUS
 90
3
 70
0
 10
15.9170867579
 20
10.450286957
 10
15.966322037
 20
10.4030267375
 10
16.1100356374
 20
10.2667805853
  0
LWPOLYLINE
  5
464
100
AcDbEntity
  8
0
100
AcDbPolyline
 62
250
  6
CONTINUOUS
 90
5
 70
0
 10
15.6631376217
 20
10.6999399842
 10
15.7147794215
 20
10.6482652505
 10
15.7661668709
 20
10.5974368354
 10
15.8171527242
 20
10.5474775334
 10
15.9170867579
 20
10.450286957
  0
LWPOLYLINE
  5
465
100
AcDbEntity
  8
0
100
AcDbPolyline
 62
250
  6
CONTINUOUS
 90
16
 70
0
 10
16.1100356848
 20
10.2667805643
 10
16.1336952659
 20
10.2427996797
 10
16.1559936594
 20
10.2160087553
 10
16.1766620023
 20
10.1866478054
 10
16.1953960516
 20
10.1551345328
 10
16.212089602
 20
10.1217146373
 10
16.2267691255
 20
10.0863659153
 10
16.2392796539
 20
10.0494281558
 10
16.2494987735
 20
10.0112897063
 10
16.257430644
 20
9.9719349799
 10
16.2629864116
 20
9.9317639273
 10
16.266123115
 20
9.8911752825
 10
16.2668282922
 20
9.850138833
 10
16.265066455
 20
9.8089375548
 10
16.2608743811
 20
9.7681518525
 10
16.2543448521
 20
9.7281988204
  0
LWPOLYLINE
  5
466
100
AcDbEntity
  8
0
100
AcDbPolyline
 62
250
  6
CONTINUOUS
 90
13
 70
0
 10
18.550927269
 20
10.1275760393
 10
18.5477138793
 20
10.1308847015
 10
18.5453810961
 20
10.1348141435
 10
18.5437379212
 20
10.1395515921
 10
18.542830372
 20
10.1450850438
 10
18.5426992384
 20
10.151305829
 10
18.543366251
 20
10.1582454326
 10
18.5448504466
 20
10.1658050619
 10
18.5471415914
 20
10.1738614322
 10
18.5502613458
 20
10.1824242364
 10
18.5541988042
 20
10.1913876587
 10
18.5588651571
 20
10.2005227984
 10
18.5641572483
 20
10.2096453104
  0
LWPOLYLINE
  5
467
100
AcDbEntity
  8
0
100
AcDbPolyline
 62
250
  6
CONTINUOUS
 90
13
 70
0
 10
18.004922859
 20
10.5707548326
 10
18.0013739078
 20
10.5744540821
 10
17.9987351555
 20
10.5787431799
 10
17.9967832971
 20
10.5838000331
 10
17.9955676485
 20
10.5896042754
 10
17.995158457
 20
10.5960620731
 10
17.9955850256
 20
10.6032178088
 10
17.9968438868
 20
10.6109547412
 10
17.9989222854
 20
10.6191406677
 10
18.00186034
 20
10.6277812243
 10
18.0056631628
 20
10.6367783298
 10
18.010240254
 20
10.6459199054
 10
18.015487024
 20
10.6550142826
  0
LWPOLYLINE
  5
468
100
AcDbEntity
  8
0
100
AcDbPolyline
 62
250
  6
CONTINUOUS
 90
3
 70
0
 10
17.8566009054
 20
11.4017918989
 10
17.8898003152
 20
11.3645159209
 10
17.9201908315
 20
11.3268813705
  0
LWPOLYLINE
  5
469
100
AcDbEntity
  8
0
100
AcDbPolyline
 62
250
  6
CONTINUOUS
 90
13
 70
0
 10
18.3631588443
 20
9.5112680437
 10
18.3910472334
 20
9.4785365147
 10
18.4136388103
 20
9.4474105732
 10
18.4308614478
 20
9.4179895936
 10
18.44266016
 20
9.390367507
 10
18.4489972776
 20
9.3646325012
 10
18.4498525684
 20
9.3408667392
 10
18.4452233018
 20
9.3191460969
 10
18.4351242574
 20
9.2995399208
 10
18.4195876781
 20
9.2821108068
 10
18.3986631666
 20
9.2669144
 10
18.3724175279
 20
9.2539992172
 10
18.3409345552
 20
9.2434064923
  0
LWPOLYLINE
  5
46A
100
AcDbEntity
  8
0
100
AcDbPolyline
 62
250
  6
CONTINUOUS
 90
3
 70
0
 10
18.2839148459
 20
10.3071429988
 10
18.2519620771
 20
10.3673875675
 10
18.2512550338
 20
10.3686111329
  0
LWPOLYLINE
  5
46B
100
AcDbEntity
  8
0
100
AcDbPolyline
 62
250
  6
CONTINUOUS
 90
19
 70
0
 10
18.2839148459
 20
10.3071429988
 10
18.3130329684
 20
10.2471514441
 10
18.3393906988
 20
10.1875637926
 10
18.3628670573
 20
10.1287009522
 10
18.3832991024
 20
10.0709471296
 10
18.4006769755
 20
10.0145453972
 10
18.4151072013
 20
9.9596095369
 10
18.4265386793
 20
9.9063992551
 10
18.4349040725
 20
9.8552715653
 10
18.4402798592
 20
9.8064843043
 10
18.4426834904
 20
9.7603087938
 10
18.4421232422
 20
9.7170061519
 10
18.4386883478
 20
9.6767929377
 10
18.4324980053
 20
9.6398647943
 10
18.4236059136
 20
9.6064387319
 10
18.4120512855
 20
9.5767313663
 10
18.39797532
 20
9.5509029932
 10
18.3816047504
 20
9.5290534719
 10
18.3631588443
 20
9.5112680437
  0
LWPOLYLINE
  5
46C
100
AcDbEntity
  8
0
100
AcDbPolyline
 62
7
  6
CONTINUOUS
 90
22
 70
0
 10
23.8101688618
 20
3.6063526549
 10
23.8392870494
 20
3.6978972095
 10
23.8596203208
 20
3.7952742238
 10
23.8711686761
 20
3.898483698
 10
23.8738821024
 20
4.0084797468
 10
23.8678106125
 20
4.1243082554
 10
23.8531042446
 20
4.2431068792
 10
23.8295478419
 20
4.3649496249
 10
23.7973565612
 20
4.4897624858
 10
23.7573259108
 20
4.6144610967
 10
23.7092605558
 20
4.7390426106
 10
23.653355831
 20
4.8635098744
 10
23.5909932495
 20
4.9847870633
 10
23.5220118998
 20
5.1027946897
 10
23.4465726933
 20
5.217612241
 10
23.3665398776
 20
5.3264023555
 10
23.281798993
 20
5.4290148464
 10
23.1924644991
 20
5.5255999004
 10
23.1007440227
 20
5.6137707155
 10
23.0073734394
 20
5.6927316911
 10
22.9116168736
 20
5.7632784278
 10
22.8134743252
 20
5.8254109256
  0
LWPOLYLINE
  5
46D
100
AcDbEntity
  8
RACCORDO
100
AcDbPolyline
 62
7
  6
CONTINUOUS
 90
12
 70
0
 10
7.1975892256
 20
21.547543844
 10
7.1316749712
 20
21.5516778239
 10
7.0284317196
 20
21.5510822896
 10
6.9247098703
 20
21.5419631174
 10
6.8218324318
 20
21.5244366255
 10
6.7198102207
 20
21.4983951177
 10
6.6186324204
 20
21.4639462903
 10
6.5195895889
 20
21.4215295499
 10
6.4227090749
 20
21.3710428292
 10
6.3279635296
 20
21.3125881956
 10
6.2365614657
 20
21.2469112583
 10
6.1741730386
 20
21.195172328
  0
LINE
  5
46E
100
AcDbEntity
  8
RACCORDO
100
AcDbLine
 62
250
  6
CONTINUOUS
 10
9.3530419669
 20
20.4388915961
 11
9.9654144026
 21
20.3842326273
  0
LINE
  5
46F
100
AcDbEntity
  8
RACCORDO
100
AcDbLine
 62
250
  6
CONTINUOUS
 10
7.7266963701
 20
21.3779231608
 11
8.3390688058
 21
21.3232641919
  0
LINE
  5
470
100
AcDbEntity
  8
RACCORDO
100
AcDbLine
 62
7
  6
CONTINUOUS
 10
7.1973981437
 20
21.5475609144
 11
7.8097705794
 21
21.4929019456
  0
LINE
  5
471
100
AcDbEntity
  8
0
100
AcDbLine
 62
7
  6
CONTINUOUS
 10
4.6672745455
 20
21.9396448374
 11
3.8104810137
 21
22.0161202766
  0
LWPOLYLINE
  5
472
100
AcDbEntity
  8
RACCORDO
100
AcDbPolyline
 62
7
  6
CONTINUOUS
 90
7
 70
0
 10
7.8099616612
 20
21.4928848752
 10
7.8468059303
 20
21.4889815652
 10
7.949085856
 20
21.4724206375
 10
8.049582568
 20
21.4475473122
 10
8.1478611943
 20
21.414432003
 10
8.2443566069
 20
21.3730042962
 10
8.3390688058
 20
21.3232641919
  0
LWPOLYLINE
  5
473
100
AcDbEntity
  8
0
100
AcDbPolyline
 62
7
  6
CONTINUOUS
 90
10
 70
0
 10
4.6672745455
 20
21.9396448374
 10
4.7758183847
 20
21.9272519404
 10
4.8837507281
 20
21.9095051493
 10
4.9909004222
 20
21.8864272917
 10
5.0970891575
 20
21.8580524632
 10
5.2021571117
 20
21.8244194113
 10
5.3059627731
 20
21.785567105
 10
5.4083495512
 20
21.741545311
 10
5.5091464841
 20
21.6924188294
 10
5.6081935187
 20
21.6382577842
  0
LWPOLYLINE
  5
474
100
AcDbEntity
  8
0
100
AcDbPolyline
 62
250
  6
CONTINUOUS
 90
8
 70
0
 10
4.6672745455
 20
21.9396448374
 10
4.8090887546
 20
21.9222819204
 10
4.9445881334
 20
21.8967644614
 10
5.0786244619
 20
21.8626865149
 10
5.2108645045
 20
21.8201328041
 10
5.3409794917
 20
21.7692091242
 10
5.4686459371
 20
21.7100420794
 10
5.5935464417
 20
21.6427787685
  0
LWPOLYLINE
  5
475
100
AcDbEntity
  8
RACCORDO
100
AcDbPolyline
 62
7
  6
CONTINUOUS
 90
7
 70
0
 10
21.8688319939
 20
13.2124312942
 10
21.774119795
 20
13.2621713985
 10
21.6776243824
 20
13.3035991053
 10
21.5793457561
 20
13.3367144145
 10
21.478849044
 20
13.3615877398
 10
21.3765691183
 20
13.3781486675
 10
21.3397248493
 20
13.3820519775
  0
LWPOLYLINE
  5
476
100
AcDbEntity
  8
RACCORDO
100
AcDbPolyline
 62
7
  6
CONTINUOUS
 90
7
 70
0
 10
7.7266963701
 20
21.3779231608
 10
7.6319841712
 20
21.4276632651
 10
7.5354887586
 20
21.4690909718
 10
7.4372101323
 20
21.5022062811
 10
7.3367134203
 20
21.5270796063
 10
7.2344334946
 20
21.5436405341
 10
7.1975892256
 20
21.547543844
  0
LWPOLYLINE
  5
477
100
AcDbEntity
  8
0
100
AcDbPolyline
 62
250
  6
CONTINUOUS
 90
8
 70
0
 10
4.73675291
 20
21.7192542077
 10
4.6118524053
 20
21.7865175186
 10
4.4841859599
 20
21.8456845634
 10
4.3540709727
 20
21.8966082433
 10
4.2218309301
 20
21.9391619541
 10
4.0877946017
 20
21.9732399006
 10
3.9522952228
 20
21.9987573596
 10
3.8104810137
 20
22.0161202766
  0
LINE
  5
478
100
AcDbEntity
  8
RACCORDO
100
AcDbLine
 62
7
  6
CONTINUOUS
 10
23.4951775906
 20
12.2733997296
 11
21.8688319939
 21
13.2124312942
  0
LINE
  5
479
100
AcDbEntity
  8
RACCORDO
100
AcDbLine
 62
7
  6
CONTINUOUS
 10
9.3530419669
 20
20.4388915961
 11
7.7266963701
 21
21.3779231608
  0
LINE
  5
47A
100
AcDbEntity
  8
RACCORDO
100
AcDbLine
 62
7
  6
CONTINUOUS
 10
24.1075500263
 20
12.2187407607
 11
22.4812044296
 21
13.1577723254
  0
LINE
  5
47B
100
AcDbEntity
  8
RACCORDO
100
AcDbLine
 62
7
  6
CONTINUOUS
 10
9.9654144026
 20
20.3842326273
 11
8.3390688058
 21
21.3232641919
  0
LWPOLYLINE
  5
47C
100
AcDbEntity
  8
0
100
AcDbPolyline
 62
7
  6
CONTINUOUS
 90
58
 70
0
 10
5.6081935187
 20
21.6382577842
 10
5.7283590205
 20
21.5642155623
 10
5.8452877433
 20
21.4827252202
 10
5.9586975789
 20
21.3939711836
 10
6.068312597
 20
21.2981569921
 10
6.1738706333
 20
21.1954986971
 10
6.2751233066
 20
21.0862223869
 10
6.3718419501
 20
20.9705538638
 10
6.4637720148
 20
20.8487746899
 10
6.5506481644
 20
20.7212235103
 10
6.6322627991
 20
20.5881999251
 10
6.7084220658
 20
20.4500129111
 10
6.7789132064
 20
20.3070490987
 10
6.8435637175
 20
20.1596718177
 10
6.9022359254
 20
20.0082074818
 10
6.9547953851
 20
19.8530089724
 10
7.0011255082
 20
19.6944183318
 10
7.041108583
 20
19.5328328969
 10
7.0746364983
 20
19.3687042688
 10
7.1016323703
 20
19.2024531948
 10
7.1220451016
 20
19.0344440783
 10
7.1358328552
 20
18.8650545009
 10
7.1429653084
 20
18.694670338
 10
7.1434252381
 20
18.5237087993
 10
7.1372131517
 20
18.3525979281
 10
7.124346131
 20
18.1817440658
 10
7.1048559436
 20
18.011549099
 10
7.0787923654
 20
17.8424333317
 10
7.0462200269
 20
17.6748015704
 10
7.0072160978
 20
17.5090436786
 10
6.9618730871
 20
17.3455516219
 10
6.9102970011
 20
17.1847098968
 10
6.8526085698
 20
17.026899769
 10
6.788943571
 20
16.8724983453
 10
6.7194401969
 20
16.7218509888
 10
6.6442672722
 20
16.5753350486
 10
6.5636331032
 20
16.4333564619
 10
6.4777476979
 20
16.2962735818
 10
6.3867990925
 20
16.1643774353
 10
6.2909834697
 20
16.0379527366
 10
6.1904904045
 20
15.9172603222
 10
6.0855834551
 20
15.8026282282
 10
5.9765922841
 20
15.6944109653
 10
5.8638206757
 20
15.5928878613
 10
5.7474998571
 20
15.4982464801
 10
5.6278695682
 20
15.4106726343
 10
5.5051940772
 20
15.3303579936
 10
5.3797805169
 20
15.257502424
 10
5.2519426007
 20
15.1922836324
 10
5.1219811302
 20
15.134849503
 10
4.9902101146
 20
15.085333378
 10
4.8569756921
 20
15.0438565829
 10
4.7226153007
 20
15.0105108375
 10
4.587437727
 20
14.9853591346
 10
4.4517541834
 20
14.9684482237
 10
4.315888638
 20
14.9598085865
 10
4.1801757951
 20
14.9594507847
 10
4.0449446038
 20
14.967363615
  0
LWPOLYLINE
  5
47D
100
AcDbEntity
  8
0
100
AcDbPolyline
 62
7
  6
CONTINUOUS
 90
58
 70
0
 10
19.7503291424
 20
13.4727659176
 10
19.8704946442
 20
13.3987236958
 10
19.987423367
 20
13.3172333536
 10
20.1008332027
 20
13.228479317
 10
20.2104482208
 20
13.1326651256
 10
20.316006257
 20
13.0300068305
 10
20.4172589303
 20
12.9207305203
 10
20.5139775739
 20
12.8050619973
 10
20.6059076385
 20
12.6832828233
 10
20.6927837881
 20
12.5557316438
 10
20.7743984228
 20
12.4227080585
 10
20.8505576895
 20
12.2845210446
 10
20.9210488302
 20
12.1415572321
 10
20.9856993412
 20
11.9941799512
 10
21.0443715491
 20
11.8427156153
 10
21.0969310088
 20
11.6875171059
 10
21.143261132
 20
11.5289264652
 10
21.1832442067
 20
11.3673410303
 10
21.216772122
 20
11.2032124022
 10
21.2437679941
 20
11.0369613282
 10
21.2641807254
 20
10.8689522117
 10
21.277968479
 20
10.6995626343
 10
21.2851009321
 20
10.5291784714
 10
21.2855608619
 20
10.3582169327
 10
21.2793487755
 20
10.1871060616
 10
21.2664817548
 20
10.0162521992
 10
21.2469915673
 20
9.8460572324
 10
21.2209279891
 20
9.6769414652
 10
21.1883556507
 20
9.5093097038
 10
21.1493517215
 20
9.343551812
 10
21.1040087109
 20
9.1800597554
 10
21.0524326249
 20
9.0192180303
 10
20.9947441935
 20
8.8614079024
 10
20.9310791947
 20
8.7070064787
 10
20.8615758206
 20
8.5563591222
 10
20.7864028959
 20
8.4098431821
 10
20.7057687269
 20
8.2678645954
 10
20.6198833217
 20
8.1307817153
 10
20.5289347162
 20
7.9988855688
 10
20.4331190934
 20
7.8724608701
 10
20.3326260283
 20
7.7517684557
 10
20.2277190788
 20
7.6371363616
 10
20.1187279078
 20
7.5289190987
 10
20.0059562994
 20
7.4273959947
 10
19.8896354808
 20
7.3327546135
 10
19.7700051919
 20
7.2451807677
 10
19.647329701
 20
7.1648661271
 10
19.5219161406
 20
7.0920105575
 10
19.3940782244
 20
7.0267917658
 10
19.2641167539
 20
6.9693576364
 10
19.1323457383
 20
6.9198415115
 10
18.9991113158
 20
6.8783647163
 10
18.8647509245
 20
6.8450189709
 10
18.7295733508
 20
6.819867268
 10
18.5938898071
 20
6.8029563572
 10
18.4580242618
 20
6.79431672
 10
18.3223114188
 20
6.7939589181
 10
18.1870802276
 20
6.8018717485
  0
LWPOLYLINE
  5
47E
100
AcDbEntity
  8
0
100
AcDbPolyline
 62
250
  6
CONTINUOUS
 90
55
 70
0
 10
5.5935464417
 20
21.6427787685
 10
5.7153704834
 20
21.5675864186
 10
5.8338151883
 20
21.4846519696
 10
5.9485860842
 20
21.3941816098
 10
6.0593978326
 20
21.2964002626
 10
6.1659749379
 20
21.191551028
 10
6.2680524329
 20
21.0798945776
 10
6.3653765366
 20
20.961708507
 10
6.4577052861
 20
20.8372866454
 10
6.5448091375
 20
20.706938325
 10
6.626471537
 20
20.5709876125
 10
6.7024894588
 20
20.4297725026
 10
6.7726739106
 20
20.2836440783
 10
6.8368504027
 20
20.1329656381
 10
6.8948593823
 20
19.9781117921
 10
6.9465566297
 20
19.8194675316
 10
6.9918136177
 20
19.657427271
 10
7.0305178301
 20
19.492393868
 10
7.0625730422
 20
19.3247776217
 10
7.0878995597
 20
19.1549952525
 10
7.1064344169
 20
18.983468866
 10
7.1181315331
 20
18.810624904
 10
7.1229618276
 20
18.6368930836
 10
7.1209132914
 20
18.4627053297
 10
7.1119910176
 20
18.2884947004
 10
7.0962171883
 20
18.1146943108
 10
7.0736310197
 20
17.941736256
 10
7.0442886646
 20
17.770050537
 10
7.0082630727
 20
17.6000639915
 10
6.9656438094
 20
17.432199233
 10
6.9165368328
 20
17.2668735996
 10
6.8610642306
 20
17.1044981169
 10
6.7993639164
 20
16.9454764759
 10
6.731589287
 20
16.7902040295
 10
6.6579088408
 20
16.6390668095
 10
6.5785057588
 20
16.4924405668
 10
6.4935774498
 20
16.3506898374
 10
6.4033350589
 20
16.2141670358
 10
6.3080029429
 20
16.0832115793
 10
6.2078181124
 20
15.9581490438
 10
6.1030296427
 20
15.8392903545
 10
5.9938980545
 20
15.7269310128
 10
5.8806946661
 20
15.6213503617
 10
5.7637009189
 20
15.5228108913
 10
5.6432076778
 20
15.4315575863
 10
5.5195145081
 20
15.3478173168
 10
5.3929289304
 20
15.2717982743
 10
5.2637656564
 20
15.2036894541
 10
5.1323458064
 20
15.1436601855
 10
4.9989961108
 20
15.0918597107
 10
4.864048098
 20
15.0484168138
 10
4.7278372699
 20
15.0134395007
 10
4.5907022683
 20
14.9870147306
 10
4.4529840323
 20
14.9692081996
 10
4.3150249511
 20
14.9600641774
  0
LWPOLYLINE
  5
47F
100
AcDbEntity
  8
0
100
AcDbPolyline
 62
250
  6
CONTINUOUS
 90
55
 70
0
 10
19.7356820655
 20
13.477286902
 10
19.8575061071
 20
13.402094552
 10
19.975950812
 20
13.3191601031
 10
20.0907217079
 20
13.2286897432
 10
20.2015334563
 20
13.1309083961
 10
20.3081105617
 20
13.0260591615
 10
20.4101880566
 20
12.9144027111
 10
20.5075121603
 20
12.7962166405
 10
20.5998409098
 20
12.6717947788
 10
20.6869447612
 20
12.5414464585
 10
20.7686071607
 20
12.4054957459
 10
20.8446250826
 20
12.264280636
 10
20.9148095344
 20
12.1181522118
 10
20.9789860265
 20
11.9674737715
 10
21.036995006
 20
11.8126199256
 10
21.0886922535
 20
11.653975665
 10
21.1339492414
 20
11.4919354044
 10
21.1726534538
 20
11.3269020015
 10
21.204708666
 20
11.1592857552
 10
21.2300351835
 20
10.9895033859
 10
21.2485700406
 20
10.8179769995
 10
21.2602671569
 20
10.6451330374
 10
21.2650974514
 20
10.4714012171
 10
21.2630489152
 20
10.2972134632
 10
21.2541266413
 20
10.1230028338
 10
21.238352812
 20
9.9492024442
 10
21.2157666434
 20
9.7762443894
 10
21.1864242883
 20
9.6045586704
 10
21.1503986965
 20
9.434572125
 10
21.1077794331
 20
9.2667073664
 10
21.0586724565
 20
9.101381733
 10
21.0031998543
 20
8.9390062503
 10
20.9414995402
 20
8.7799846093
 10
20.8737249108
 20
8.624712163
 10
20.8000444645
 20
8.473574943
 10
20.7206413826
 20
8.3269487003
 10
20.6357130736
 20
8.1851979708
 10
20.5454706827
 20
8.0486751692
 10
20.4501385666
 20
7.9177197128
 10
20.3499537361
 20
7.7926571773
 10
20.2451652664
 20
7.673798488
 10
20.1360336782
 20
7.5614391462
 10
20.0228302898
 20
7.4558584951
 10
19.9058365426
 20
7.3573190247
 10
19.7853433016
 20
7.2660657197
 10
19.6616501318
 20
7.1823254503
 10
19.5350645541
 20
7.1063064078
 10
19.4059012801
 20
7.0381975876
 10
19.2744814301
 20
6.978168319
 10
19.1411317345
 20
6.9263678441
 10
19.0061837217
 20
6.8829249473
 10
18.8699728937
 20
6.8479476342
 10
18.732837892
 20
6.8215228641
 10
18.595119656
 20
6.803716333
 10
18.4571605748
 20
6.7945723109
  0
LWPOLYLINE
  5
480
100
AcDbEntity
  8
RACCORDO
100
AcDbPolyline
 62
7
  6
CONTINUOUS
 90
25
 70
0
 10
9.9654144026
 20
20.3842326273
 10
10.0569912695
 20
20.3264117597
 10
10.1444287764
 20
20.2616389039
 10
10.2277269233
 20
20.18991406
 10
10.3072060385
 20
20.1108715983
 10
10.3825457936
 20
20.0248771484
 10
10.452785204
 20
19.9330275995
 10
10.517858935
 20
19.8352479489
 10
10.5778323211
 20
19.7316131993
 10
10.631940381
 20
19.6234452482
 10
10.6801079808
 20
19.5106860259
 10
10.7224102544
 20
19.393393602
 10
10.7583076214
 20
19.2730640823
 10
10.7877180362
 20
19.149658562
 10
10.8107235445
 20
19.0232159459
 10
10.827030703
 20
18.8953490535
 10
10.8365537071
 20
18.7660396402
 10
10.8393783613
 20
18.6353059506
 10
10.8354686363
 20
18.5048155386
 10
10.8247382659
 20
18.3745715204
 10
10.8072735163
 20
18.2445707798
 10
10.7832971563
 20
18.1164715215
 10
10.7528834424
 20
17.9908264804
 10
10.7159581182
 20
17.8670829216
 10
10.6725211837
 20
17.745240845
  0
LWPOLYLINE
  5
481
100
AcDbEntity
  8
RACCORDO
100
AcDbPolyline
 62
7
  6
CONTINUOUS
 90
25
 70
0
 10
24.1075500263
 20
12.2187407607
 10
24.1991268932
 20
12.1609198931
 10
24.2865644001
 20
12.0961470374
 10
24.369862547
 20
12.0244221935
 10
24.4493416622
 20
11.9453797317
 10
24.5246814174
 20
11.8593852818
 10
24.5949208277
 20
11.7675357329
 10
24.6599945587
 20
11.6697560823
 10
24.7199679448
 20
11.5661213328
 10
24.7740760047
 20
11.4579533816
 10
24.8222436045
 20
11.3451941594
 10
24.8645458781
 20
11.2279017355
 10
24.9004432451
 20
11.1075722157
 10
24.9298536599
 20
10.9841666955
 10
24.9528591682
 20
10.8577240793
 10
24.9691663267
 20
10.729857187
 10
24.9786893308
 20
10.6005477736
 10
24.981513985
 20
10.4698140841
 10
24.97760426
 20
10.339323672
 10
24.9668738897
 20
10.2090796539
 10
24.94940914
 20
10.0790789133
 10
24.9254327801
 20
9.9509796549
 10
24.8950190662
 20
9.8253346138
 10
24.858093742
 20
9.701591055
 10
24.8146568075
 20
9.5797489785
  0
LINE
  5
482
100
AcDbEntity
  8
RACCORDO
100
AcDbLine
 62
250
  6
CONTINUOUS
 10
17.4329124403
 20
15.8716920744
 11
16.7684494159
 21
16.5345939781
  0
LWPOLYLINE
  5
483
100
AcDbEntity
  8
RACCORDO
100
AcDbPolyline
 62
7
  6
CONTINUOUS
 90
14
 70
0
 10
17.8973612949
 20
15.9520181224
 10
17.8946937638
 20
15.9545988555
 10
17.8739204594
 20
15.9701976995
 10
17.8492268494
 20
15.9818379408
 10
17.8210233939
 20
15.9893260941
 10
17.7892514267
 20
15.9925927584
 10
17.7539696139
 20
15.9917073345
 10
17.7157644139
 20
15.9866845403
 10
17.674586963
 20
15.9774552205
 10
17.6304861248
 20
15.9640885304
 10
17.5841949486
 20
15.9468066524
 10
17.5359577839
 20
15.9256836475
 10
17.4855302812
 20
15.9006454549
 10
17.4329124403
 20
15.8716920744
  0
LINE
  5
484
100
AcDbEntity
  8
RACCORDO
100
AcDbLine
 62
7
  6
CONTINUOUS
 10
17.8973423385
 20
15.9520370386
 11
17.2328793141
 21
16.6149389423
  0
LINE
  5
485
100
AcDbEntity
  8
ASSI
100
AcDbLine
 62
7
  6
CONTINUOUS
 10
21.6213446204
 20
11.9020779199
 11
21.6586421818
 21
11.762879767
  0
LINE
  5
486
100
AcDbEntity
  8
ASSI
100
AcDbLine
 62
7
  6
CONTINUOUS
 10
22.4150377976
 20
8.9399372252
 11
22.5213446204
 21
8.5431897474
  0
LWPOLYLINE
  5
487
100
AcDbEntity
  8
RACCORDO
100
AcDbPolyline
 62
7
  6
CONTINUOUS
 90
10
 70
0
 10
32.0403100826
 20
7.4868818419
 10
32.0564798016
 20
7.5330163852
 10
32.0685087613
 20
7.5761551436
 10
32.0763969617
 20
7.6162981169
 10
32.0801422115
 20
7.6536355822
 10
32.079746702
 20
7.6879772625
 10
32.0752170074
 20
7.7187523265
 10
32.066484026
 20
7.7459011591
 10
32.0536168596
 20
7.7694833753
 10
32.0394969187
 20
7.7865262559
  0
LINE
  5
488
100
AcDbEntity
  8
RACCORDO
100
AcDbLine
 62
7
  6
CONTINUOUS
 10
32.0403100826
 20
7.4868818419
 11
31.5753273148
 21
6.2802404077
  0
LWPOLYLINE
  5
489
100
AcDbEntity
  8
RACCORDO
100
AcDbPolyline
 62
7
  6
CONTINUOUS
 90
14
 70
0
 10
32.0394969187
 20
7.7865262559
 10
32.0368293876
 20
7.7891069889
 10
32.0160560831
 20
7.8047058329
 10
31.9913624732
 20
7.8163460743
 10
31.9631590176
 20
7.8238342276
 10
31.9313870504
 20
7.8271008918
 10
31.8961052376
 20
7.826215468
 10
31.8579000376
 20
7.8211926737
 10
31.8167225867
 20
7.811963354
 10
31.7726217485
 20
7.7985966638
 10
31.7263305723
 20
7.7813147859
 10
31.6780934076
 20
7.760191781
 10
31.6276659049
 20
7.7351535883
 10
31.5750480641
 20
7.7062002078
  0
LINE
  5
48A
100
AcDbEntity
  8
RACCORDO
100
AcDbLine
 62
250
  6
CONTINUOUS
 10
31.5750480641
 20
7.7062002078
 11
30.9105850397
 21
8.3691021115
  0
LINE
  5
48B
100
AcDbEntity
  8
RACCORDO
100
AcDbLine
 62
7
  6
CONTINUOUS
 10
32.0394779622
 20
7.786545172
 11
31.3750149378
 21
8.4494470757
  0
ELLIPSE
  5
48C
100
AcDbEntity
  8
0
100
AcDbEllipse
 62
7
  6
CONTINUOUS
 10
-10.4813032454
 20
4.9958167289
 30
0.0
 11
-0.3552374455
 21
1.115699915
 31
0.0
 40
0.5920363473
 41
-0.7927048265
 42
-0.7581349402
  0
ELLIPSE
  5
48D
100
AcDbEntity
  8
0
100
AcDbEllipse
 62
7
  6
CONTINUOUS
 10
-10.4813032454
 20
5.9667768652
 30
0.0
 11
0.7498988317
 21
0.1607118349
 31
0.0
 40
0.0766488126
 41
-1.3225170879
 42
-0.8362608518
  0
ELLIPSE
  5
48E
100
AcDbEntity
  8
0
100
AcDbEllipse
 62
7
  6
CONTINUOUS
 10
3.6608323783
 20
-3.1696751376
 30
0.0
 11
-0.3552374455
 21
1.115699915
 31
0.0
 40
0.5920363473
 41
-0.7927048265
 42
-0.7581349402
  0
ELLIPSE
  5
48F
100
AcDbEntity
  8
0
100
AcDbEllipse
 62
7
  6
CONTINUOUS
 10
3.6608323783
 20
-2.1987150013
 30
0.0
 11
0.7498988317
 21
0.1607118349
 31
0.0
 40
0.0766488126
 41
-1.3225170879
 42
-0.8362608518
  0
ENDSEC
  0
SECTION
  2
OBJECTS
  0
DICTIONARY
  5
C
100
AcDbDictionary
280
0
281
1
  3
ACAD_GROUP
350
D
  3
ACAD_MLINESTYLE
350
17
  3
ACAD_LAYOUT
350
1A
  3
ACAD_PLOTSETTINGS
350
19
  3
ACAD_PLOTSTYLENAME
350
E
  0
DICTIONARY
  5
D
102
{ACAD_REACTORS
330
C
102
}
100
AcDbDictionary
280
0
281
1
  0
ACDBDICTIONARYWDFLT
  5
E
102
{ACAD_REACTORS
330
C
102
}
100
AcDbDictionary
281
1
  3
Normal
350
F
100
AcDbDictionaryWithDefault
340
F
  0
DICTIONARY
  5
17
102
{ACAD_REACTORS
330
C
102
}
100
AcDbDictionary
280
0
281
1
  3
Standard
350
18
  0
DICTIONARY
  5
19
102
{ACAD_REACTORS
330
C
102
}
100
AcDbDictionary
281
1
  0
DICTIONARY
  5
1A
102
{ACAD_REACTORS
330
C
102
}
100
AcDbDictionary
281
1
  3
Model
350
490
  3
Layout1
350
491
  0
ACDBPLACEHOLDER
  5
F
102
{ACAD_REACTORS
330
E
102
}
  0
MLINESTYLE
  5
18
102
{ACAD_REACTORS
330
17
102
}
100
AcDbMlineStyle
  2
STANDARD
 70
0
  3

 62
256
 51
90.0
 52
90.0
 71
2
 49
0.5
 62
256
  6
BYLAYER
 49
-0.5
 62
256
  6
BYLAYER
  0
LAYOUT
  5
490
102
{ACAD_REACTORS
330
1A
102
}
100
AcDbPlotSettings
  1

  2
none_device
  4
ISO_A3_(420.00_x_297.00_MM)
  6

 40
0.0
 41
0.0
 42
0.0
 43
0.0
 44
420.0
 45
297.0
 46
0.0
 47
0.0
 48
0.0
 49
0.0
140
0.0
141
0.0
142
1.0
143
1.0
 70
1024
 72
1
 73
0
 74
0
  7

 75
0
147
1.0
148
0.0
149
0.0
100
AcDbLayout
  1
Model
 70
0
 71
0
 10
0.0
 20
0.0
 11
420.0
 21
297.0
 12
0.0
 22
0.0
 32
0.0
 14
0.0
 24
0.0
 34
0.0
 15
0.0
 25
0.0
 35
0.0
146
0.0
 13
0.0
 23
0.0
 33
0.0
 16
1.0
 26
0.0
 36
0.0
 17
0.0
 27
1.0
 37
0.0
 76
0
330
20F
345
0
346
0
  0
LAYOUT
  5
491
102
{ACAD_REACTORS
330
1A
102
}
100
AcDbPlotSettings
  1

  2
none_device
  4
ISO_A3_(420.00_x_297.00_MM)
  6

 40
0.0
 41
0.0
 42
0.0
 43
0.0
 44
420.0
 45
297.0
 46
0.0
 47
0.0
 48
0.0
 49
0.0
140
0.0
141
0.0
142
1.0
143
1.0
 70
0
 72
1
 73
0
 74
0
  7

 75
0
147
1.0
148
0.0
149
0.0
100
AcDbLayout
  1
Layout1
 70
0
 71
1
 10
0.0
 20
0.0
 11
420.0
 21
297.0
 12
0.0
 22
0.0
 32
0.0
 14
0.0
 24
0.0
 34
0.0
 15
0.0
 25
0.0
 35
0.0
146
0.0
 13
0.0
 23
0.0
 33
0.0
 16
1.0
 26
0.0
 36
0.0
 17
0.0
 27
1.0
 37
0.0
 76
0
330
210
345
0
346
0
  0
ENDSEC
  0
EOF
