  0
SECTION
  2
HEADER
  9
$ACADVER
  1
AC1015
  9
$DWGCODEPAGE
  3
ANSI_1252
  9
$EXTMAX
 10
297.0
 20
210.0
 30
0.0
  9
$EXTMIN
 10
0.0
 20
0.0
 30
0.0
  9
$LIMMIN
 10
0.0
 20
0.0
  9
$LIMMAX
 10
297.0
 20
210.0
  9
$VIEWCTR
 10
148.5
 20
105.0
  9
$VIEWSIZE
 40
210.0
  9
$CLAYER
  8
0
  9
$LTSCALE
 40
16.335
  9
$CELTYPE
  6
BYLAYER
  9
$DIMSCALE
 40
1.0
  9
$DIMASZ
 40
3.0
  9
$DIMEXO
 40
1.85625
  9
$DIMDLI
 40
11.286
  9
$DIMEXE
 40
5.346
  9
$DIMCEN
 40
2.673
  9
$DIMLFAC
 40
1.0
  9
$DIMBLK
  1
_FILLED
  9
$DIMTXT
 40
3.0
  9
$DIMTOL
 70
1
  9
$DIMLIM
 70
0
  9
$DIMTFAC
 40
1.0
  9
$DIMTP
 40
0.01
  9
$DIMTM
 40
0.01
  9
$PDMODE
 70
3
  9
$PDSIZE
 40
3.0
  9
$HANDSEED
  5
63A
  9
$TILEMODE
 70
1
  9
$MEASUREMENT
 70
1
  9
$INSUNITS
 70
4
  0
ENDSEC
  0
SECTION
  2
CLASSES
  0
CLASS
  1
ACDBDICTIONARYWDFLT
  2
AcDbDictionaryWithDefault
  3
AutoCAD 2000
 90
0
280
0
281
0
  0
CLASS
  1
ACDBPLACEHOLDER
  2
AcDbPlaceHolder
  3
AutoCAD 2000
 90
0
280
0
281
0
  0
CLASS
  1
LAYOUT
  2
AcDbLayout
  3
AutoCAD 2000
 90
0
280
0
281
0
  0
ENDSEC
  0
SECTION
  2
TABLES
  0
TABLE
  2
VPORT
  5
8
100
AcDbSymbolTable
 70
2
  0
VPORT
  5
1F4
100
AcDbSymbolTableRecord
100
AcDbViewportTableRecord
  2
*ACTIVE
 70
0
 10
0.0
 20
0.0
 11
1.0
 21
1.0
 12
148.5
 22
105.0
 13
0.0
 23
0.0
 14
1.0
 24
1.0
 15
0.0
 25
0.0
 16
0.0
 26
0.0
 36
1.0
 17
0.0
 27
0.0
 37
0.0
 40
210.0
 41
1.4142857143
 42
50.0
 43
0.0
 44
0.0
 50
0.0
 51
0.0
 71
0
 72
100
 73
1
 74
1
 75
0
 76
0
 77
0
 78
0
  0
ENDTAB
  0
TABLE
  2
LTYPE
  5
5
100
AcDbSymbolTable
 70
6
  0
LTYPE
  5
14
100
AcDbSymbolTableRecord
100
AcDbLinetypeTableRecord
  2
BYBLOCK
 70
0
  3

 72
65
 73
0
 40
0.0
  0
LTYPE
  5
15
100
AcDbSymbolTableRecord
100
AcDbLinetypeTableRecord
  2
BYLAYER
 70
0
  3

 72
65
 73
0
 40
0.0
  0
LTYPE
  5
16
100
AcDbSymbolTableRecord
100
AcDbLinetypeTableRecord
  2
CONTINUOUS
 70
64
  3
Solid line
 72
65
 73
0
 40
0.0
  0
LTYPE
  5
1F5
100
AcDbSymbolTableRecord
100
AcDbLinetypeTableRecord
  2
CENTER
 70
64
  3
____ _ ____ _ ____ _ ____ _ ____ _ ____ _ ____
 72
65
 73
4
 40
0.6
 49
0.375
 74
0
 49
-0.075
 74
0
 49
0.075
 74
0
 49
-0.075
 74
0
  0
LTYPE
  5
1F6
100
AcDbSymbolTableRecord
100
AcDbLinetypeTableRecord
  2
HIDDEN
 70
64
  3
- - - - - - - - - - - - - - - - - - - -
 72
65
 73
2
 40
0.2
 49
0.1
 74
0
 49
-0.1
 74
0
  0
LTYPE
  5
1F7
100
AcDbSymbolTableRecord
100
AcDbLinetypeTableRecord
  2
PHANTOM
 70
64
  3
_____ _ _ _____ _ _ _____ _ _ _____
 72
65
 73
6
 40
0.8
 49
0.45
 74
0
 49
-0.05
 74
0
 49
0.1
 74
0
 49
-0.05
 74
0
 49
0.1
 74
0
 49
-0.05
 74
0
  0
LTYPE
  5
1F8
100
AcDbSymbolTableRecord
100
AcDbLinetypeTableRecord
  2
DOT
 70
64
  3
. . . . . . . . . . . . . . . . . . . .
 72
65
 73
2
 40
0.2
 49
0.1
 74
0
 49
-0.1
 74
0
  0
LTYPE
  5
1F9
100
AcDbSymbolTableRecord
100
AcDbLinetypeTableRecord
  2
DASHED
 70
64
  3
- - - - - - - - - - - - - - - - - - - -
 72
65
 73
2
 40
0.2
 49
0.1
 74
0
 49
-0.1
 74
0
  0
ENDTAB
  0
TABLE
  2
LAYER
  5
2
100
AcDbSymbolTable
 70
36
  0
LAYER
  5
10
100
AcDbSymbolTableRecord
100
AcDbLayerTableRecord
  2
0
 70
0
 62
7
  6
CONTINUOUS
370
-3
390
F
  0
LAYER
  5
1FA
100
AcDbSymbolTableRecord
100
AcDbLayerTableRecord
  2
DEFAULT_1
 70
0
 62
7
  6
CENTER
370
-3
390
F
  0
LAYER
  5
1FB
100
AcDbSymbolTableRecord
100
AcDbLayerTableRecord
  2
DEFAULT_2
 70
0
 62
7
  6
HIDDEN
370
-3
390
F
  0
LAYER
  5
1FC
100
AcDbSymbolTableRecord
100
AcDbLayerTableRecord
  2
DEFAULT_3
 70
0
 62
7
  6
PHANTOM
370
-3
390
F
  0
LAYER
  5
1FD
100
AcDbSymbolTableRecord
100
AcDbLayerTableRecord
  2
ASSI
 70
0
 62
7
  6
CONTINUOUS
370
-3
390
F
  0
LAYER
  5
1FE
100
AcDbSymbolTableRecord
100
AcDbLayerTableRecord
  2
COORDINATE
 70
0
 62
7
  6
CONTINUOUS
370
-3
390
F
  0
LAYER
  5
1FF
100
AcDbSymbolTableRecord
100
AcDbLayerTableRecord
  2
COORD_ORIGINE
 70
0
 62
7
  6
CONTINUOUS
370
-3
390
F
  0
LAYER
  5
200
100
AcDbSymbolTableRecord
100
AcDbLayerTableRecord
  2
COSMETICI
 70
0
 62
7
  6
CONTINUOUS
370
-3
390
F
  0
LAYER
  5
201
100
AcDbSymbolTableRecord
100
AcDbLayerTableRecord
  2
CURVE
 70
0
 62
7
  6
CONTINUOUS
370
-3
390
F
  0
LAYER
  5
202
100
AcDbSymbolTableRecord
100
AcDbLayerTableRecord
  2
IGES
 70
0
 62
7
  6
CONTINUOUS
370
-3
390
F
  0
LAYER
  5
203
100
AcDbSymbolTableRecord
100
AcDbLayerTableRecord
  2
NOTE
 70
0
 62
7
  6
CONTINUOUS
370
-3
390
F
  0
LAYER
  5
204
100
AcDbSymbolTableRecord
100
AcDbLayerTableRecord
  2
PIANI
 70
0
 62
7
  6
CONTINUOUS
370
-3
390
F
  0
LAYER
  5
205
100
AcDbSymbolTableRecord
100
AcDbLayerTableRecord
  2
PIANI_ORIGINE
 70
0
 62
7
  6
CONTINUOUS
370
-3
390
F
  0
LAYER
  5
206
100
AcDbSymbolTableRecord
100
AcDbLayerTableRecord
  2
PUNTI
 70
0
 62
7
  6
CONTINUOUS
370
-3
390
F
  0
LAYER
  5
207
100
AcDbSymbolTableRecord
100
AcDbLayerTableRecord
  2
RACCORDO
 70
0
 62
7
  6
CONTINUOUS
370
-3
390
F
  0
LAYER
  5
208
100
AcDbSymbolTableRecord
100
AcDbLayerTableRecord
  2
SIMBOLI
 70
0
 62
7
  6
CONTINUOUS
370
-3
390
F
  0
LAYER
  5
209
100
AcDbSymbolTableRecord
100
AcDbLayerTableRecord
  2
SNAPLINE
 70
0
 62
7
  6
CONTINUOUS
370
-3
390
F
  0
LAYER
  5
20A
100
AcDbSymbolTableRecord
100
AcDbLayerTableRecord
  2
SUPERFICI
 70
0
 62
7
  6
CONTINUOUS
370
-3
390
F
  0
LAYER
  5
20B
100
AcDbSymbolTableRecord
100
AcDbLayerTableRecord
  2
TRASH
 70
0
 62
7
  6
CONTINUOUS
370
-3
390
F
  0
LAYER
  5
20C
100
AcDbSymbolTableRecord
100
AcDbLayerTableRecord
  2
XSEC_DATUMS
 70
0
 62
7
  6
CONTINUOUS
370
-3
390
F
  0
ENDTAB
  0
TABLE
  2
STYLE
  5
3
100
AcDbSymbolTable
 70
1
  0
STYLE
  5
11
100
AcDbSymbolTableRecord
100
AcDbTextStyleTableRecord
  2
STANDARD
 70
0
 40
0.0
 41
0.8
 50
0.0
 71
0
 42
0.2
  3
txt
  4

  0
STYLE
  5
20D
100
AcDbSymbolTableRecord
100
AcDbTextStyleTableRecord
  2
TEXTSTYLE_1
 70
0
 40
0.0
 41
0.8
 50
0.0
 71
0
 42
0.2
  3
gdt
  4

  0
ENDTAB
  0
TABLE
  2
VIEW
  5
6
100
AcDbSymbolTable
 70
0
  0
ENDTAB
  0
TABLE
  2
UCS
  5
7
100
AcDbSymbolTable
 70
0
  0
ENDTAB
  0
TABLE
  2
APPID
  5
9
100
AcDbSymbolTable
 70
1
  0
APPID
  5
20E
100
AcDbSymbolTableRecord
100
AcDbRegAppTableRecord
  2
ACAD
 70
0
  0
ENDTAB
  0
TABLE
  2
BLOCK_RECORD
  5
1
100
AcDbSymbolTable
 70
0
  0
BLOCK_RECORD
  5
20F
100
AcDbSymbolTableRecord
100
AcDbBlockTableRecord
  2
*Model_Space
  0
BLOCK_RECORD
  5
210
100
AcDbSymbolTableRecord
100
AcDbBlockTableRecord
  2
*Paper_Space
  0
ENDTAB
  0
TABLE
  2
DIMSTYLE
  5
A
100
AcDbSymbolTable
 70
1
100
AcDbDimStyleTable
 71
0
  0
DIMSTYLE
105
211
100
AcDbSymbolTableRecord
100
AcDbDimStyleTableRecord
  2
STANDARD
 70
0
  3

  4

 40
1.0
 41
3.0
 42
0.0625
 43
0.38
 44
0.18
 45
0.0
 46
0.0
 47
0.01
 48
0.01
140
3.0
141
0.09
142
0.0
143
25.4
144
1.0
145
0.0
146
1.0
147
0.09
 71
1.0
 72
0.0
 73
0
 74
0
 75
0
 76
0
 77
1
 78
8
170
0
171
2
172
0
173
0
174
0
175
0
176
0
177
0
178
0
270
2
271
2
272
2
273
2
274
2
275
0
280
0
281
0
282
0
283
1
284
8
285
0
286
0
287
3
288
0
340
11
  0
ENDTAB
  0
ENDSEC
  0
SECTION
  2
BLOCKS
  0
BLOCK
  5
20
100
AcDbEntity
  8
0
100
AcDbBlockBegin
  2
*Model_Space
 70
0
 10
0.0
 20
0.0
 30
0.0
  3
*Model_Space
  1

  0
ENDBLK
  5
21
100
AcDbEntity
  8
0
100
AcDbBlockEnd
  0
BLOCK
  5
1C
100
AcDbEntity
  8
0
100
AcDbBlockBegin
  2
*Paper_Space
 70
0
 10
0.0
 20
0.0
 30
0.0
  3
*Paper_Space
  1

  0
ENDBLK
  5
1D
100
AcDbEntity
  8
0
100
AcDbBlockEnd
  0
ENDSEC
  0
SECTION
  2
ENTITIES
  0
LINE
  5
212
100
AcDbEntity
  8
ASSI
100
AcDbLine
 62
7
  6
CONTINUOUS
 10
-42.9266891466
 20
23.9999558325
 11
-43.6337959278
 21
23.5916812391
  0
LINE
  5
213
100
AcDbEntity
  8
0
100
AcDbLine
 62
253
  6
CONTINUOUS
 10
-42.4266649865
 20
23.9504146548
 11
-43.1337717677
 21
23.5421400615
  0
LINE
  5
214
100
AcDbEntity
  8
0
100
AcDbLine
 62
7
  6
CONTINUOUS
 10
-28.7404972742
 20
21.4198638979
 11
-32.8513238489
 21
18.1366013246
  0
LINE
  5
215
100
AcDbEntity
  8
0
100
AcDbLine
 62
253
  6
CONTINUOUS
 10
-28.782016095
 20
20.8250420388
 11
-32.8928426697
 21
17.5417794656
  0
LINE
  5
216
100
AcDbEntity
  8
ASSI
100
AcDbLine
 62
7
  6
CONTINUOUS
 10
-27.9505424731
 20
21.8846786528
 11
-28.6576492543
 21
21.4764040594
  0
LINE
  5
217
100
AcDbEntity
  8
0
100
AcDbLine
 62
253
  6
CONTINUOUS
 10
-33.186370549
 20
18.6151844547
 11
-33.8934773302
 21
18.2069098614
  0
LINE
  5
218
100
AcDbEntity
  8
0
100
AcDbLine
 62
253
  6
CONTINUOUS
 10
-27.450518313
 20
21.8351374751
 11
-28.1576250942
 21
21.4268628818
  0
LINE
  5
219
100
AcDbEntity
  8
0
100
AcDbLine
 62
7
  6
CONTINUOUS
 10
-43.9870628123
 20
22.9071589262
 11
-43.2799560312
 21
-7.7105159084
  0
LINE
  5
21A
100
AcDbEntity
  8
0
100
AcDbLine
 62
253
  6
CONTINUOUS
 10
-43.8407494912
 20
22.7145659138
 11
-43.13364271
 21
-7.9031089209
  0
LINE
  5
21B
100
AcDbEntity
  8
0
100
AcDbLine
 62
253
  6
CONTINUOUS
 10
-35.4967604156
 20
-10.1786969708
 11
-35.4967604156
 21
-8.5457564172
  0
LINE
  5
21C
100
AcDbEntity
  8
0
100
AcDbLine
 62
253
  6
CONTINUOUS
 10
-34.7896536344
 20
-10.1786969708
 11
-34.7896536344
 21
-8.5457564172
  0
LINE
  5
21D
100
AcDbEntity
  8
0
100
AcDbLine
 62
253
  6
CONTINUOUS
 10
-34.0825468532
 20
-8.7149203026
 11
-34.0825468532
 21
-9.7704223775
  0
LINE
  5
21E
100
AcDbEntity
  8
0
100
AcDbLine
 62
7
  6
CONTINUOUS
 10
-33.9361002438
 20
-8.7994767395
 11
-33.9361002438
 21
-9.5662850808
  0
LINE
  5
21F
100
AcDbEntity
  8
0
100
AcDbLine
 62
7
  6
CONTINUOUS
 10
-31.9612265096
 20
-2.3407953702
 11
-31.9612265096
 21
-4.7085591729
  0
LINE
  5
220
100
AcDbEntity
  8
0
100
AcDbLine
 62
7
  6
CONTINUOUS
 10
-31.6927734202
 20
-4.8635606223
 11
-31.6927734202
 21
-2.8782004713
  0
LINE
  5
221
100
AcDbEntity
  8
0
100
AcDbLine
 62
7
  6
CONTINUOUS
 10
-31.5513520639
 20
-4.7819057036
 11
-31.5513520639
 21
-3.4464948778
  0
LINE
  5
222
100
AcDbEntity
  8
0
100
AcDbLine
 62
7
  6
CONTINUOUS
 10
-30.8416240379
 20
-5.3550036082
 11
-30.2647733969
 21
-3.6994545208
  0
LINE
  5
223
100
AcDbEntity
  8
0
100
AcDbLine
 62
7
  6
CONTINUOUS
 10
-30.7002026817
 20
-5.2733486895
 11
-30.2647733969
 21
-4.0236758907
  0
LINE
  5
224
100
AcDbEntity
  8
0
100
AcDbLine
 62
7
  6
CONTINUOUS
 10
-30.3903972805
 20
-3.24777248
 11
-30.9759000801
 21
-4.9211691249
  0
LINE
  5
225
100
AcDbEntity
  8
0
100
AcDbLine
 62
7
  6
CONTINUOUS
 10
-28.9794979276
 20
-4.0624080836
 11
-29.7505865588
 21
-5.9849549747
  0
LINE
  5
226
100
AcDbEntity
  8
0
100
AcDbLine
 62
7
  6
CONTINUOUS
 10
-30.4106168442
 20
-11.3628511112
 11
-30.4106168442
 21
-12.9957916648
  0
LINE
  5
227
100
AcDbEntity
  8
0
100
AcDbLine
 62
7
  6
CONTINUOUS
 10
-30.2647733969
 20
-3.6994545208
 11
-30.2647733969
 21
-5.6880699387
  0
LINE
  5
228
100
AcDbEntity
  8
0
100
AcDbLine
 62
253
  6
CONTINUOUS
 10
-30.2641702348
 20
-11.5669884078
 11
-30.2641702348
 21
-13.1999289614
  0
LINE
  5
229
100
AcDbEntity
  8
0
100
AcDbLine
 62
7
  6
CONTINUOUS
 10
-29.9962121201
 20
-5.843133854
 11
-29.9962121201
 21
-3.4753700513
  0
LINE
  5
22A
100
AcDbEntity
  8
0
100
AcDbLine
 62
7
  6
CONTINUOUS
 10
-29.8547907638
 20
-5.7614789354
 11
-29.8547907638
 21
-3.3937151327
  0
LINE
  5
22B
100
AcDbEntity
  8
0
100
AcDbLine
 62
7
  6
CONTINUOUS
 10
-27.6543048664
 20
-4.8275579486
 11
-27.6543048664
 21
-7.1953217513
  0
LINE
  5
22C
100
AcDbEntity
  8
0
100
AcDbLine
 62
7
  6
CONTINUOUS
 10
-29.4650108786
 20
-6.1498427933
 11
-29.2507787371
 21
-5.5843682498
  0
LINE
  5
22D
100
AcDbEntity
  8
0
100
AcDbLine
 62
7
  6
CONTINUOUS
 10
-29.3235895224
 20
-6.0681878747
 11
-29.1601231451
 21
-5.6367116524
  0
LINE
  5
22E
100
AcDbEntity
  8
0
100
AcDbLine
 62
7
  6
CONTINUOUS
 10
-29.1650724455
 20
-5.350258753
 11
-28.8336741246
 21
-4.4900457936
  0
LINE
  5
22F
100
AcDbEntity
  8
0
100
AcDbLine
 62
7
  6
CONTINUOUS
 10
-29.0236510892
 20
-5.2686038344
 11
-28.7905252268
 21
-4.6634773886
  0
LINE
  5
230
100
AcDbEntity
  8
0
100
AcDbLine
 62
7
  6
CONTINUOUS
 10
-13.4351030888
 20
9.4973988406
 11
-13.576524445
 21
9.415743922
  0
LINE
  5
231
100
AcDbEntity
  8
0
100
AcDbLine
 62
7
  6
CONTINUOUS
 10
-31.8198051534
 20
-2.2591404515
 11
-31.9612265096
 21
-2.3407953702
  0
LINE
  5
232
100
AcDbEntity
  8
0
100
AcDbLine
 62
7
  6
CONTINUOUS
 10
-12.261246435
 20
8.8196287207
 11
-12.4026677913
 21
8.737973802
  0
LINE
  5
233
100
AcDbEntity
  8
0
100
AcDbLine
 62
7
  6
CONTINUOUS
 10
-31.4228035866
 20
-2.4883641806
 11
-31.5642249429
 21
-2.5700190993
  0
LINE
  5
234
100
AcDbEntity
  8
0
100
AcDbLine
 62
7
  6
CONTINUOUS
 10
-27.3771861833
 20
-7.0816882255
 11
-27.3771861833
 21
-5.2612011835
  0
LINE
  5
235
100
AcDbEntity
  8
0
100
AcDbLine
 62
7
  6
CONTINUOUS
 10
-27.235764827
 20
-7.0000333068
 11
-27.235764827
 21
-5.3428561021
  0
LINE
  5
236
100
AcDbEntity
  8
0
100
AcDbLine
 62
7
  6
CONTINUOUS
 10
-25.5779070166
 20
-6.0264440437
 11
-25.5779070166
 21
-8.3942078464
  0
LINE
  5
237
100
AcDbEntity
  8
0
100
AcDbLine
 62
7
  6
CONTINUOUS
 10
-25.3008053041
 20
-8.270607667
 11
-25.3008053041
 21
-7.4791826159
  0
LINE
  5
238
100
AcDbEntity
  8
0
100
AcDbLine
 62
7
  6
CONTINUOUS
 10
-25.3008053041
 20
-7.1955873806
 11
-25.3008053041
 21
-6.470034335
  0
LINE
  5
239
100
AcDbEntity
  8
0
100
AcDbLine
 62
7
  6
CONTINUOUS
 10
-25.1593839478
 20
-8.1889527483
 11
-25.1593839478
 21
-7.5608375346
  0
LINE
  5
23A
100
AcDbEntity
  8
0
100
AcDbLine
 62
7
  6
CONTINUOUS
 10
-25.1593839478
 20
-7.1139324619
 11
-25.1593839478
 21
-6.5516892536
  0
LINE
  5
23B
100
AcDbEntity
  8
0
100
AcDbLine
 62
7
  6
CONTINUOUS
 10
-24.1783850118
 20
-8.1272540254
 11
-24.1783850118
 21
-7.8436587901
  0
LINE
  5
23C
100
AcDbEntity
  8
0
100
AcDbLine
 62
7
  6
CONTINUOUS
 10
-24.0841375774
 20
-7.1725230319
 11
-24.0841375774
 21
-6.8889277966
  0
LINE
  5
23D
100
AcDbEntity
  8
0
100
AcDbLine
 62
7
  6
CONTINUOUS
 10
-24.0641207986
 20
-9.2682490365
 11
-24.0641207986
 21
-8.9846538011
  0
LINE
  5
23E
100
AcDbEntity
  8
0
100
AcDbLine
 62
7
  6
CONTINUOUS
 10
-24.0369636556
 20
-8.0455991068
 11
-24.0369636556
 21
-7.7620038714
  0
LINE
  5
23F
100
AcDbEntity
  8
0
100
AcDbLine
 62
7
  6
CONTINUOUS
 10
-23.9427162211
 20
-7.0908681133
 11
-23.9427162211
 21
-6.8072728779
  0
LINE
  5
240
100
AcDbEntity
  8
0
100
AcDbLine
 62
7
  6
CONTINUOUS
 10
-23.9226994424
 20
-9.1865941178
 11
-23.9226994424
 21
-8.9029988824
  0
LINE
  5
241
100
AcDbEntity
  8
0
100
AcDbLine
 62
7
  6
CONTINUOUS
 10
-22.7438603896
 20
-2.4526784887
 11
-22.6082395999
 21
-2.2519811753
  0
LINE
  5
242
100
AcDbEntity
  8
0
100
AcDbLine
 62
7
  6
CONTINUOUS
 10
-22.6024390334
 20
-2.37102357
 11
-22.4668182437
 21
-2.1703262567
  0
LINE
  5
243
100
AcDbEntity
  8
0
100
AcDbLine
 62
7
  6
CONTINUOUS
 10
-20.9947555235
 20
-4.6956862537
 11
-20.8410107103
 21
-4.5327894168
  0
LINE
  5
244
100
AcDbEntity
  8
0
100
AcDbLine
 62
7
  6
CONTINUOUS
 10
-23.0454931752
 20
0.2646553383
 11
-23.04729828
 21
0.2635879554
  0
LINE
  5
245
100
AcDbEntity
  8
0
100
AcDbLine
 62
7
  6
CONTINUOUS
 10
-22.904071819
 20
0.346310257
 11
-22.9058676561
 21
0.3452588492
  0
LINE
  5
246
100
AcDbEntity
  8
0
100
AcDbLine
 62
7
  6
CONTINUOUS
 10
-30.2489759243
 20
-3.1661175613
 11
-30.3903972805
 21
-3.24777248
  0
LINE
  5
247
100
AcDbEntity
  8
0
100
AcDbLine
 62
7
  6
CONTINUOUS
 10
-29.8547907638
 20
-3.3937151327
 11
-29.9962121201
 21
-3.4753700513
  0
LINE
  5
248
100
AcDbEntity
  8
0
100
AcDbLine
 62
7
  6
CONTINUOUS
 10
-22.904071819
 20
0.346310257
 11
-23.0472573738
 21
0.263640353
  0
LINE
  5
249
100
AcDbEntity
  8
0
100
AcDbLine
 62
7
  6
CONTINUOUS
 10
-31.5513520639
 20
-4.7819057036
 11
-31.6927734202
 21
-4.8635606223
  0
LINE
  5
24A
100
AcDbEntity
  8
0
100
AcDbLine
 62
7
  6
CONTINUOUS
 10
-22.3267714581
 20
0.4159964419
 11
-22.4681928143
 21
0.3343415233
  0
LINE
  5
24B
100
AcDbEntity
  8
0
100
AcDbLine
 62
7
  6
CONTINUOUS
 10
-9.666230309
 20
7.3212989327
 11
-9.8076516652
 21
7.239644014
  0
LINE
  5
24C
100
AcDbEntity
  8
0
100
AcDbLine
 62
7
  6
CONTINUOUS
 10
-28.8380765714
 20
-3.980753165
 11
-28.9794979276
 21
-4.0624080836
  0
LINE
  5
24D
100
AcDbEntity
  8
0
100
AcDbLine
 62
7
  6
CONTINUOUS
 10
-30.7002026817
 20
-5.2733486895
 11
-30.8416240379
 21
-5.3550036082
  0
LINE
  5
24E
100
AcDbEntity
  8
0
100
AcDbLine
 62
7
  6
CONTINUOUS
 10
-21.5264095051
 20
-0.0650250375
 11
-21.6514618546
 21
-0.1372286968
  0
LINE
  5
24F
100
AcDbEntity
  8
0
100
AcDbLine
 62
7
  6
CONTINUOUS
 10
-28.523859531
 20
-4.162178146
 11
-28.6652808873
 21
-4.2438330647
  0
LINE
  5
250
100
AcDbEntity
  8
0
100
AcDbLine
 62
7
  6
CONTINUOUS
 10
-21.5100404984
 20
-0.3976397159
 11
-21.6514618546
 21
-0.4792946346
  0
LINE
  5
251
100
AcDbEntity
  8
0
100
AcDbLine
 62
7
  6
CONTINUOUS
 10
-8.4923750695
 20
6.6435296292
 11
-8.6337964257
 21
6.5618747106
  0
LINE
  5
252
100
AcDbEntity
  8
0
100
AcDbLine
 62
253
  6
CONTINUOUS
 10
-34.7896536344
 20
-8.5457564172
 11
-34.5825910278
 21
-8.4262010632
  0
LINE
  5
253
100
AcDbEntity
  8
0
100
AcDbLine
 62
7
  6
CONTINUOUS
 10
-29.0236510892
 20
-5.2686038344
 11
-29.1650724455
 21
-5.350258753
  0
LINE
  5
254
100
AcDbEntity
  8
0
100
AcDbLine
 62
7
  6
CONTINUOUS
 10
-29.8547907638
 20
-5.7614789354
 11
-29.9962121201
 21
-5.843133854
  0
LINE
  5
255
100
AcDbEntity
  8
0
100
AcDbLine
 62
7
  6
CONTINUOUS
 10
-21.7614204946
 20
-1.1198806034
 11
-21.9028418509
 21
-1.2015355221
  0
LINE
  5
256
100
AcDbEntity
  8
0
100
AcDbLine
 62
7
  6
CONTINUOUS
 10
-20.9615137271
 20
-0.8082558397
 11
-21.0761809906
 21
-0.8744632397
  0
LINE
  5
257
100
AcDbEntity
  8
0
100
AcDbLine
 62
7
  6
CONTINUOUS
 10
-27.5128835101
 20
-4.74590303
 11
-27.6543048664
 21
-4.8275579486
  0
LINE
  5
258
100
AcDbEntity
  8
0
100
AcDbLine
 62
7
  6
CONTINUOUS
 10
-29.3235895224
 20
-6.0681878747
 11
-29.4650108786
 21
-6.1498427933
  0
LINE
  5
259
100
AcDbEntity
  8
0
100
AcDbLine
 62
7
  6
CONTINUOUS
 10
-22.4668182437
 20
-2.1703262567
 11
-22.608239555
 21
-2.2519811088
  0
LINE
  5
25A
100
AcDbEntity
  8
0
100
AcDbLine
 62
7
  6
CONTINUOUS
 10
-22.6024390334
 20
-2.37102357
 11
-22.7438605143
 21
-2.4526786732
  0
LINE
  5
25B
100
AcDbEntity
  8
0
100
AcDbLine
 62
7
  6
CONTINUOUS
 10
-7.7098192876
 20
6.1916917285
 11
-7.8512406439
 21
6.1100368099
  0
LINE
  5
25C
100
AcDbEntity
  8
0
100
AcDbLine
 62
7
  6
CONTINUOUS
 10
-22.33639306
 20
-2.3374277839
 11
-22.4778144163
 21
-2.4190827025
  0
LINE
  5
25D
100
AcDbEntity
  8
0
100
AcDbLine
 62
7
  6
CONTINUOUS
 10
23.2755980511
 20
-36.198585781
 11
23.147434947
 21
-36.2253419055
  0
LINE
  5
25E
100
AcDbEntity
  8
0
100
AcDbLine
 62
7
  6
CONTINUOUS
 10
23.3286472993
 20
-36.1353799717
 11
23.2888563032
 21
-36.1436869868
  0
LINE
  5
25F
100
AcDbEntity
  8
0
100
AcDbLine
 62
7
  6
CONTINUOUS
 10
-27.9227501777
 20
-7.040324793
 11
-28.6652808873
 21
-4.2438330647
  0
LINE
  5
260
100
AcDbEntity
  8
0
100
AcDbLine
 62
7
  6
CONTINUOUS
 10
-27.7813288214
 20
-6.9586698743
 11
-28.523859531
 21
-4.162178146
  0
LINE
  5
261
100
AcDbEntity
  8
0
100
AcDbLine
 62
7
  6
CONTINUOUS
 10
-28.4282792003
 20
-6.059269174
 11
-28.2255234019
 21
-6.865507328
  0
LINE
  5
262
100
AcDbEntity
  8
0
100
AcDbLine
 62
7
  6
CONTINUOUS
 10
-30.9759000801
 20
-4.9211691249
 11
-31.5642249429
 21
-2.5700190993
  0
LINE
  5
263
100
AcDbEntity
  8
0
100
AcDbLine
 62
7
  6
CONTINUOUS
 10
-30.8815338434
 20
-4.6514656426
 11
-31.4228035866
 21
-2.4883641806
  0
LINE
  5
264
100
AcDbEntity
  8
0
100
AcDbLine
 62
7
  6
CONTINUOUS
 10
-31.6927734202
 20
-2.8782004713
 11
-31.1158117634
 21
-5.1966910519
  0
LINE
  5
265
100
AcDbEntity
  8
0
100
AcDbLine
 62
7
  6
CONTINUOUS
 10
-28.8336741246
 20
-4.4900457936
 11
-28.5281651042
 21
-5.7180010696
  0
LINE
  5
266
100
AcDbEntity
  8
0
100
AcDbLine
 62
7
  6
CONTINUOUS
 10
-22.8645353575
 20
-7.5931108331
 11
-22.8645353575
 21
-9.9608746358
  0
LINE
  5
267
100
AcDbEntity
  8
0
100
AcDbLine
 62
7
  6
CONTINUOUS
 10
-22.5875163765
 20
-10.1208219236
 11
-22.5875163765
 21
-7.7530581209
  0
LINE
  5
268
100
AcDbEntity
  8
0
100
AcDbLine
 62
7
  6
CONTINUOUS
 10
-22.4778144163
 20
-2.4190827025
 11
-22.4778144163
 21
-2.7592772904
  0
LINE
  5
269
100
AcDbEntity
  8
0
100
AcDbLine
 62
7
  6
CONTINUOUS
 10
-22.4681928143
 20
0.3343415233
 11
-22.4681928143
 21
-0.0077244145
  0
LINE
  5
26A
100
AcDbEntity
  8
0
100
AcDbLine
 62
7
  6
CONTINUOUS
 10
-22.4460950203
 20
-10.0391670049
 11
-22.4460950203
 21
-7.6714032022
  0
LINE
  5
26B
100
AcDbEntity
  8
0
100
AcDbLine
 62
253
  6
CONTINUOUS
 10
-22.4152849636
 20
-17.7317769474
 11
-22.4152849636
 21
-16.0988363938
  0
LINE
  5
26C
100
AcDbEntity
  8
0
100
AcDbLine
 62
7
  6
CONTINUOUS
 10
-22.2167117018
 20
-0.1529264571
 11
-22.2167117018
 21
-1.0203110039
  0
LINE
  5
26D
100
AcDbEntity
  8
0
100
AcDbLine
 62
7
  6
CONTINUOUS
 10
-22.2167117018
 20
-1.4419003301
 11
-22.2167117018
 21
-2.5698401375
  0
LINE
  5
26E
100
AcDbEntity
  8
0
100
AcDbLine
 62
7
  6
CONTINUOUS
 10
-22.1134797686
 20
-8.0267609172
 11
-22.1134797686
 21
-10.3945247199
  0
LINE
  5
26F
100
AcDbEntity
  8
0
100
AcDbLine
 62
7
  6
CONTINUOUS
 10
-21.9028418509
 20
-2.7510646557
 11
-21.9028418509
 21
-1.6193200968
  0
LINE
  5
270
100
AcDbEntity
  8
0
100
AcDbLine
 62
7
  6
CONTINUOUS
 10
-21.9028418509
 20
-1.2015355221
 11
-21.9028418509
 21
-0.3341509753
  0
LINE
  5
271
100
AcDbEntity
  8
0
100
AcDbLine
 62
7
  6
CONTINUOUS
 10
-21.8449022283
 20
-10.5495980256
 11
-21.8449022283
 21
-8.6266905026
  0
LINE
  5
272
100
AcDbEntity
  8
0
100
AcDbLine
 62
7
  6
CONTINUOUS
 10
-21.7614204946
 20
-2.669409737
 11
-21.7614204946
 21
-1.5633660789
  0
LINE
  5
273
100
AcDbEntity
  8
0
100
AcDbLine
 62
7
  6
CONTINUOUS
 10
-21.7614204946
 20
-1.1198806034
 11
-21.7614204946
 21
-0.4158058939
  0
LINE
  5
274
100
AcDbEntity
  8
0
100
AcDbLine
 62
253
  6
CONTINUOUS
 10
-21.7081781824
 20
-17.7317769474
 11
-21.7081781824
 21
-16.0988363938
  0
LINE
  5
275
100
AcDbEntity
  8
0
100
AcDbLine
 62
7
  6
CONTINUOUS
 10
-21.7034808721
 20
-10.467943107
 11
-21.7034808721
 21
-8.9677830397
  0
LINE
  5
276
100
AcDbEntity
  8
0
100
AcDbLine
 62
7
  6
CONTINUOUS
 10
-21.6514618546
 20
-0.4792946346
 11
-21.6514618546
 21
-0.1372286968
  0
LINE
  5
277
100
AcDbEntity
  8
0
100
AcDbLine
 62
7
  6
CONTINUOUS
 10
-21.6418402526
 20
-3.2419582953
 11
-21.6418402526
 21
-2.9017637074
  0
LINE
  5
278
100
AcDbEntity
  8
0
100
AcDbLine
 62
7
  6
CONTINUOUS
 10
-21.5100404984
 20
-0.3976397159
 11
-21.5100404984
 21
-0.0817645485
  0
LINE
  5
279
100
AcDbEntity
  8
0
100
AcDbLine
 62
7
  6
CONTINUOUS
 10
-21.5004188964
 20
-3.1603033766
 11
-21.5004188964
 21
-2.922079524
  0
LINE
  5
27A
100
AcDbEntity
  8
0
100
AcDbLine
 62
7
  6
CONTINUOUS
 10
-21.5004188964
 20
-2.8830748277
 11
-21.5004188964
 21
-2.8201087887
  0
LINE
  5
27B
100
AcDbEntity
  8
0
100
AcDbLine
 62
253
  6
CONTINUOUS
 10
-21.0010714012
 20
-16.2680002792
 11
-21.0010714012
 21
-17.323502354
  0
LINE
  5
27C
100
AcDbEntity
  8
0
100
AcDbLine
 62
7
  6
CONTINUOUS
 10
-20.8546247918
 20
-16.352556716
 11
-20.8546247918
 21
-17.1193650574
  0
LINE
  5
27D
100
AcDbEntity
  8
0
100
AcDbLine
 62
7
  6
CONTINUOUS
 10
-20.7538583853
 20
-8.8117892639
 11
-20.7538583853
 21
-10.7350862432
  0
LINE
  5
27E
100
AcDbEntity
  8
0
100
AcDbLine
 62
7
  6
CONTINUOUS
 10
-20.485413074
 20
-11.3345500249
 11
-20.485413074
 21
-8.9667862222
  0
LINE
  5
27F
100
AcDbEntity
  8
0
100
AcDbLine
 62
7
  6
CONTINUOUS
 10
-20.3439917177
 20
-11.2528951063
 11
-20.3439917177
 21
-8.8851313036
  0
LINE
  5
280
100
AcDbEntity
  8
0
100
AcDbLine
 62
7
  6
CONTINUOUS
 10
-20.8533341672
 20
-4.614031335
 11
-20.699589354
 21
-4.4511344981
  0
LINE
  5
281
100
AcDbEntity
  8
0
100
AcDbLine
 62
253
  6
CONTINUOUS
 10
-26.6730252089
 20
-5.2308266872
 11
-26.8144465652
 21
-5.3124816058
  0
LINE
  5
282
100
AcDbEntity
  8
0
100
AcDbLine
 62
253
  6
CONTINUOUS
 10
-34.7896536344
 20
-10.1786969708
 11
-34.0825468532
 21
-9.7704223775
  0
LINE
  5
283
100
AcDbEntity
  8
0
100
AcDbLine
 62
7
  6
CONTINUOUS
 10
-21.7614204946
 20
-2.669409737
 11
-21.9028418509
 21
-2.7510646557
  0
LINE
  5
284
100
AcDbEntity
  8
0
100
AcDbLine
 62
7
  6
CONTINUOUS
 10
-21.5004188964
 20
-2.8201087887
 11
-21.6418402526
 21
-2.9017637074
  0
LINE
  5
285
100
AcDbEntity
  8
0
100
AcDbLine
 62
7
  6
CONTINUOUS
 10
-21.3738022348
 20
-2.801419909
 11
-21.5152235911
 21
-2.8830748277
  0
LINE
  5
286
100
AcDbEntity
  8
0
100
AcDbLine
 62
7
  6
CONTINUOUS
 10
-6.5359774831
 20
5.5139301823
 11
-6.6773988394
 21
5.4322752636
  0
LINE
  5
287
100
AcDbEntity
  8
0
100
AcDbLine
 62
7
  6
CONTINUOUS
 10
-21.5004188964
 20
-3.1603033766
 11
-21.6418402526
 21
-3.2419582953
  0
LINE
  5
288
100
AcDbEntity
  8
0
100
AcDbLine
 62
253
  6
CONTINUOUS
 10
-34.4361002438
 20
-10.7910694059
 11
-33.7289934626
 21
-10.3827948125
  0
LINE
  5
289
100
AcDbEntity
  8
0
100
AcDbLine
 62
7
  6
CONTINUOUS
 10
-27.7813288214
 20
-6.9586698743
 11
-27.9227501777
 21
-7.040324793
  0
LINE
  5
28A
100
AcDbEntity
  8
0
100
AcDbLine
 62
7
  6
CONTINUOUS
 10
-25.4364856604
 20
-5.944789125
 11
-25.5779070166
 21
-6.0264440437
  0
LINE
  5
28B
100
AcDbEntity
  8
0
100
AcDbLine
 62
7
  6
CONTINUOUS
 10
-27.235764827
 20
-7.0000333068
 11
-27.3771861833
 21
-7.0816882255
  0
LINE
  5
28C
100
AcDbEntity
  8
0
100
AcDbLine
 62
253
  6
CONTINUOUS
 10
-26.6887936902
 20
-7.3158475861
 11
-26.8302150464
 21
-7.3975025048
  0
LINE
  5
28D
100
AcDbEntity
  8
0
100
AcDbLine
 62
7
  6
CONTINUOUS
 10
-25.8201786164
 20
-6.9071315223
 11
-25.9615999727
 21
-6.988786441
  0
LINE
  5
28E
100
AcDbEntity
  8
0
100
AcDbLine
 62
7
  6
CONTINUOUS
 10
-5.3621802264
 20
4.8361943574
 11
-5.5036015826
 21
4.7545394387
  0
LINE
  5
28F
100
AcDbEntity
  8
0
100
AcDbLine
 62
7
  6
CONTINUOUS
 10
-20.699589354
 20
-4.4511344981
 11
-20.8410107103
 21
-4.5327894168
  0
LINE
  5
290
100
AcDbEntity
  8
0
100
AcDbLine
 62
7
  6
CONTINUOUS
 10
-20.8533341672
 20
-4.614031335
 11
-20.9947555235
 21
-4.6956862537
  0
LINE
  5
291
100
AcDbEntity
  8
0
100
AcDbLine
 62
7
  6
CONTINUOUS
 10
-25.1593839478
 20
-7.1139324619
 11
-25.3008053041
 21
-7.1955873806
  0
LINE
  5
292
100
AcDbEntity
  8
0
100
AcDbLine
 62
7
  6
CONTINUOUS
 10
-23.9427162211
 20
-6.8072728779
 11
-24.0841375774
 21
-6.8889277966
  0
LINE
  5
293
100
AcDbEntity
  8
0
100
AcDbLine
 62
7
  6
CONTINUOUS
 10
-10.3768040347
 20
0.9545666391
 11
-10.518225391
 21
0.8729117204
  0
LINE
  5
294
100
AcDbEntity
  8
0
100
AcDbLine
 62
7
  6
CONTINUOUS
 10
-23.9427162211
 20
-7.0908681133
 11
-24.0841375774
 21
-7.1725230319
  0
LINE
  5
295
100
AcDbEntity
  8
0
100
AcDbLine
 62
7
  6
CONTINUOUS
 10
-25.1593839478
 20
-8.1889527483
 11
-25.3008053041
 21
-8.270607667
  0
LINE
  5
296
100
AcDbEntity
  8
0
100
AcDbLine
 62
7
  6
CONTINUOUS
 10
-24.0369636556
 20
-7.7620038714
 11
-24.1783850118
 21
-7.8436587901
  0
LINE
  5
297
100
AcDbEntity
  8
0
100
AcDbLine
 62
7
  6
CONTINUOUS
 10
-3.5876483828
 20
3.811601911
 11
-3.7290697391
 21
3.7299469924
  0
LINE
  5
298
100
AcDbEntity
  8
0
100
AcDbLine
 62
7
  6
CONTINUOUS
 10
-24.0369636556
 20
-8.0455991068
 11
-24.1783850118
 21
-8.1272540254
  0
LINE
  5
299
100
AcDbEntity
  8
0
100
AcDbLine
 62
7
  6
CONTINUOUS
 10
-20.9637988813
 20
-0.8042978365
 11
-21.7614204946
 21
-1.1198806034
  0
LINE
  5
29A
100
AcDbEntity
  8
0
100
AcDbLine
 62
7
  6
CONTINUOUS
 10
-21.0761807168
 20
-0.8744631313
 11
-21.9028418509
 21
-1.2015355221
  0
LINE
  5
29B
100
AcDbEntity
  8
0
100
AcDbLine
 62
7
  6
CONTINUOUS
 10
-21.9028418509
 20
-1.6193200968
 11
-21.1145366564
 21
-1.3074234772
  0
LINE
  5
29C
100
AcDbEntity
  8
0
100
AcDbLine
 62
7
  6
CONTINUOUS
 10
24.3009033727
 20
-35.2288676121
 11
24.4290664768
 21
-35.2021114877
  0
LINE
  5
29D
100
AcDbEntity
  8
0
100
AcDbLine
 62
7
  6
CONTINUOUS
 10
21.3958728504
 20
-35.1132560086
 11
21.2677097463
 21
-35.1400121331
  0
LINE
  5
29E
100
AcDbEntity
  8
0
100
AcDbLine
 62
7
  6
CONTINUOUS
 10
21.4489215522
 20
-35.0500503134
 11
21.4091311025
 21
-35.0583572144
  0
LINE
  5
29F
100
AcDbEntity
  8
0
100
AcDbLine
 62
7
  6
CONTINUOUS
 10
23.1901563076
 20
-36.5018984508
 11
23.4037611552
 21
-36.4740973577
  0
LINE
  5
2A0
100
AcDbEntity
  8
0
100
AcDbLine
 62
7
  6
CONTINUOUS
 10
21.310430618
 20
-35.4165683961
 11
21.5240359545
 21
-35.3887675853
  0
LINE
  5
2A1
100
AcDbEntity
  8
0
100
AcDbLine
 62
7
  6
CONTINUOUS
 10
22.5066194265
 20
-34.6966501628
 11
22.293014579
 21
-34.7244512427
  0
LINE
  5
2A2
100
AcDbEntity
  8
0
100
AcDbLine
 62
7
  6
CONTINUOUS
 10
22.6480407828
 20
-34.6149952442
 11
22.4344359352
 21
-34.642796324
  0
LINE
  5
2A3
100
AcDbEntity
  8
0
100
AcDbLine
 62
7
  6
CONTINUOUS
 10
20.6268942258
 20
-33.6113203904
 11
20.4132888894
 21
-33.639121188
  0
LINE
  5
2A4
100
AcDbEntity
  8
0
100
AcDbLine
 62
7
  6
CONTINUOUS
 10
-19.214515914
 20
-9.7005863143
 11
-19.214515914
 21
-12.068350117
  0
LINE
  5
2A5
100
AcDbEntity
  8
0
100
AcDbLine
 62
7
  6
CONTINUOUS
 10
-18.9374142015
 20
-12.2283451729
 11
-18.9374142015
 21
-9.8605813702
  0
LINE
  5
2A6
100
AcDbEntity
  8
0
100
AcDbLine
 62
7
  6
CONTINUOUS
 10
-18.7959928452
 20
-12.1466902543
 11
-18.7959928452
 21
-9.7789264516
  0
LINE
  5
2A7
100
AcDbEntity
  8
0
100
AcDbLine
 62
7
  6
CONTINUOUS
 10
-18.6403784417
 20
-10.0320860952
 11
-18.6403784417
 21
-10.3156813306
  0
LINE
  5
2A8
100
AcDbEntity
  8
0
100
AcDbLine
 62
7
  6
CONTINUOUS
 10
-17.9463389938
 20
-10.7164110094
 11
-17.9463389938
 21
-12.8005795767
  0
LINE
  5
2A9
100
AcDbEntity
  8
0
100
AcDbLine
 62
7
  6
CONTINUOUS
 10
-17.6693369834
 20
-12.9605170659
 11
-17.6693369834
 21
-10.8763484986
  0
LINE
  5
2AA
100
AcDbEntity
  8
0
100
AcDbLine
 62
7
  6
CONTINUOUS
 10
-17.5279156271
 20
-12.8788621473
 11
-17.5279156271
 21
-10.9580034173
  0
LINE
  5
2AB
100
AcDbEntity
  8
0
100
AcDbLine
 62
7
  6
CONTINUOUS
 10
-17.3291413922
 20
-18.9159310877
 11
-17.3291413922
 21
-20.5488716413
  0
LINE
  5
2AC
100
AcDbEntity
  8
0
100
AcDbLine
 62
253
  6
CONTINUOUS
 10
-17.1826947828
 20
-19.1200683844
 11
-17.1826947828
 21
-20.753008938
  0
LINE
  5
2AD
100
AcDbEntity
  8
0
100
AcDbLine
 62
7
  6
CONTINUOUS
 10
-16.9752968284
 20
-11.2770785857
 11
-16.9752968284
 21
-10.9934833504
  0
LINE
  5
2AE
100
AcDbEntity
  8
0
100
AcDbLine
 62
7
  6
CONTINUOUS
 10
-16.8338754721
 20
-11.195423667
 11
-16.8338754721
 21
-10.9118284317
  0
LINE
  5
2AF
100
AcDbEntity
  8
0
100
AcDbLine
 62
7
  6
CONTINUOUS
 10
-9.8076516652
 20
7.239644014
 11
-11.1051523036
 21
3.3224679729
  0
LINE
  5
2B0
100
AcDbEntity
  8
0
100
AcDbLine
 62
7
  6
CONTINUOUS
 10
-10.518225391
 20
0.8729117204
 11
-8.6337964257
 21
6.5618747106
  0
LINE
  5
2B1
100
AcDbEntity
  8
0
100
AcDbLine
 62
7
  6
CONTINUOUS
 10
-16.6097692916
 20
-13.5722981717
 11
-16.3955208866
 21
-13.0068330184
  0
LINE
  5
2B2
100
AcDbEntity
  8
0
100
AcDbLine
 62
7
  6
CONTINUOUS
 10
-16.4683479353
 20
-13.490643253
 11
-16.3048691484
 21
-13.0591741959
  0
LINE
  5
2B3
100
AcDbEntity
  8
0
100
AcDbLine
 62
7
  6
CONTINUOUS
 10
-16.3098315655
 20
-12.7727137231
 11
-15.9784495081
 21
-11.9124913734
  0
LINE
  5
2B4
100
AcDbEntity
  8
0
100
AcDbLine
 62
7
  6
CONTINUOUS
 10
-16.1684102093
 20
-12.6910588044
 11
-15.9352970497
 21
-12.0859290294
  0
LINE
  5
2B5
100
AcDbEntity
  8
0
100
AcDbLine
 62
7
  6
CONTINUOUS
 10
-16.124140375
 20
-11.484930419
 11
-16.8953287083
 21
-13.4074197434
  0
LINE
  5
2B6
100
AcDbEntity
  8
0
100
AcDbLine
 62
7
  6
CONTINUOUS
 10
-22.7231140013
 20
-7.5114559144
 11
-22.8645353575
 21
-7.5931108331
  0
LINE
  5
2B7
100
AcDbEntity
  8
0
100
AcDbLine
 62
7
  6
CONTINUOUS
 10
-22.4460950203
 20
-7.6714032022
 11
-22.5875163765
 21
-7.7530581209
  0
LINE
  5
2B8
100
AcDbEntity
  8
0
100
AcDbLine
 62
7
  6
CONTINUOUS
 10
-23.9226994424
 20
-8.9029988824
 11
-24.0641207986
 21
-8.9846538011
  0
LINE
  5
2B9
100
AcDbEntity
  8
0
100
AcDbLine
 62
7
  6
CONTINUOUS
 10
-21.9720584124
 20
-7.9451059986
 11
-22.1134797686
 21
-8.0267609172
  0
LINE
  5
2BA
100
AcDbEntity
  8
0
100
AcDbLine
 62
253
  6
CONTINUOUS
 10
-30.6177236254
 20
-12.9957522098
 11
-30.4106168442
 21
-12.87617135
  0
LINE
  5
2BB
100
AcDbEntity
  8
0
100
AcDbLine
 62
7
  6
CONTINUOUS
 10
-23.9226994424
 20
-9.1865941178
 11
-24.0641207986
 21
-9.2682490365
  0
LINE
  5
2BC
100
AcDbEntity
  8
0
100
AcDbLine
 62
7
  6
CONTINUOUS
 10
-21.6435457942
 20
-8.1347850671
 11
-21.7849671504
 21
-8.2164399857
  0
LINE
  5
2BD
100
AcDbEntity
  8
0
100
AcDbLine
 62
7
  6
CONTINUOUS
 10
-1.3956117043
 20
2.5459474055
 11
-1.5370330605
 21
2.4642924868
  0
LINE
  5
2BE
100
AcDbEntity
  8
0
100
AcDbLine
 62
7
  6
CONTINUOUS
 10
-20.612437029
 20
-8.7301343452
 11
-20.7538583853
 21
-8.8117892639
  0
LINE
  5
2BF
100
AcDbEntity
  8
0
100
AcDbLine
 62
7
  6
CONTINUOUS
 10
-22.4460950203
 20
-10.0391670049
 11
-22.5875163765
 21
-10.1208219236
  0
LINE
  5
2C0
100
AcDbEntity
  8
0
100
AcDbLine
 62
7
  6
CONTINUOUS
 10
-20.3439917177
 20
-8.8851313036
 11
-20.485413074
 21
-8.9667862222
  0
LINE
  5
2C1
100
AcDbEntity
  8
0
100
AcDbLine
 62
7
  6
CONTINUOUS
 10
-6.5359923324
 20
-1.2630699012
 11
-6.6774136886
 21
-1.3447248199
  0
LINE
  5
2C2
100
AcDbEntity
  8
0
100
AcDbLine
 62
7
  6
CONTINUOUS
 10
-21.7034808721
 20
-10.467943107
 11
-21.8449022283
 21
-10.5495980256
  0
LINE
  5
2C3
100
AcDbEntity
  8
0
100
AcDbLine
 62
7
  6
CONTINUOUS
 10
-19.0730945578
 20
-9.6189313957
 11
-19.214515914
 21
-9.7005863143
  0
LINE
  5
2C4
100
AcDbEntity
  8
0
100
AcDbLine
 62
7
  6
CONTINUOUS
 10
0.3789215535
 20
1.5213541426
 11
0.2375001972
 21
1.4396992239
  0
LINE
  5
2C5
100
AcDbEntity
  8
0
100
AcDbLine
 62
7
  6
CONTINUOUS
 10
20.7683155821
 20
-33.5296654718
 11
20.5547102456
 21
-33.5574662693
  0
LINE
  5
2C6
100
AcDbEntity
  8
0
100
AcDbLine
 62
7
  6
CONTINUOUS
 10
24.3863451162
 20
-34.9255549733
 11
24.2154606514
 21
-34.9276443195
  0
LINE
  5
2C7
100
AcDbEntity
  8
0
100
AcDbLine
 62
7
  6
CONTINUOUS
 10
24.5277664724
 20
-34.8439000546
 11
24.3568820077
 21
-34.8459894008
  0
LINE
  5
2C8
100
AcDbEntity
  8
0
100
AcDbLine
 62
7
  6
CONTINUOUS
 10
-21.8449022283
 20
-8.6266905026
 11
-20.7967111775
 21
-11.1548104014
  0
LINE
  5
2C9
100
AcDbEntity
  8
0
100
AcDbLine
 62
7
  6
CONTINUOUS
 10
-20.7538583853
 20
-10.7350862432
 11
-21.7849671504
 21
-8.2164399857
  0
LINE
  5
2CA
100
AcDbEntity
  8
0
100
AcDbLine
 62
7
  6
CONTINUOUS
 10
-20.7538583853
 20
-10.3079872922
 11
-21.6435457942
 21
-8.1347850671
  0
LINE
  5
2CB
100
AcDbEntity
  8
0
100
AcDbLine
 62
7
  6
CONTINUOUS
 10
-14.8132761256
 20
-12.2418070077
 11
-14.8132761256
 21
-14.6095708104
  0
LINE
  5
2CC
100
AcDbEntity
  8
0
100
AcDbLine
 62
7
  6
CONTINUOUS
 10
-14.5361574425
 20
-14.4859804295
 11
-14.5361574425
 21
-12.4018118622
  0
LINE
  5
2CD
100
AcDbEntity
  8
0
100
AcDbLine
 62
7
  6
CONTINUOUS
 10
-14.3947360863
 20
-14.4043255108
 11
-14.3947360863
 21
-12.3201569435
  0
LINE
  5
2CE
100
AcDbEntity
  8
0
100
AcDbLine
 62
7
  6
CONTINUOUS
 10
-13.4965075345
 20
-15.3698564919
 11
-13.4965075345
 21
-15.0862612565
  0
LINE
  5
2CF
100
AcDbEntity
  8
0
100
AcDbLine
 62
7
  6
CONTINUOUS
 10
-13.3550861783
 20
-15.2882015732
 11
-13.3550861783
 21
-15.0046063378
  0
LINE
  5
2D0
100
AcDbEntity
  8
0
100
AcDbLine
 62
7
  6
CONTINUOUS
 10
-12.6283359707
 20
-14.9180857956
 11
-12.6283359707
 21
-15.871127872
  0
LINE
  5
2D1
100
AcDbEntity
  8
0
100
AcDbLine
 62
7
  6
CONTINUOUS
 10
-12.3513834577
 20
-16.031036782
 11
-12.3513834577
 21
-15.0779947056
  0
LINE
  5
2D2
100
AcDbEntity
  8
0
100
AcDbLine
 62
7
  6
CONTINUOUS
 10
-12.2099621015
 20
-15.9493818634
 11
-12.2099621015
 21
-14.9963397869
  0
LINE
  5
2D3
100
AcDbEntity
  8
0
100
AcDbLine
 62
7
  6
CONTINUOUS
 10
-10.3768040347
 20
0.9545666391
 11
-8.4923750695
 21
6.6435296292
  0
LINE
  5
2D4
100
AcDbEntity
  8
0
100
AcDbLine
 62
7
  6
CONTINUOUS
 10
-18.7959928452
 20
-9.7789264516
 11
-18.9374142015
 21
-9.8605813702
  0
LINE
  5
2D5
100
AcDbEntity
  8
0
100
AcDbLine
 62
7
  6
CONTINUOUS
 10
-18.4989570854
 20
-9.9504311765
 11
-18.6403784417
 21
-10.0320860952
  0
LINE
  5
2D6
100
AcDbEntity
  8
0
100
AcDbLine
 62
7
  6
CONTINUOUS
 10
-20.3439917177
 20
-11.2528951063
 11
-20.485413074
 21
-11.3345500249
  0
LINE
  5
2D7
100
AcDbEntity
  8
0
100
AcDbLine
 62
7
  6
CONTINUOUS
 10
-4.1883384219
 20
-2.6185758461
 11
-4.3297597781
 21
-2.7002307648
  0
LINE
  5
2D8
100
AcDbEntity
  8
0
100
AcDbLine
 62
7
  6
CONTINUOUS
 10
-16.8338754721
 20
-10.9118284317
 11
-16.9752968284
 21
-10.9934833504
  0
LINE
  5
2D9
100
AcDbEntity
  8
0
100
AcDbLine
 62
7
  6
CONTINUOUS
 10
-18.7959928452
 20
-12.1466902543
 11
-18.9374142015
 21
-12.2283451729
  0
LINE
  5
2DA
100
AcDbEntity
  8
0
100
AcDbLine
 62
7
  6
CONTINUOUS
 10
-16.8338754721
 20
-11.195423667
 11
-16.9752968284
 21
-11.2770785857
  0
LINE
  5
2DB
100
AcDbEntity
  8
0
100
AcDbLine
 62
7
  6
CONTINUOUS
 10
3.0458766021
 20
-0.0184951318
 11
2.9044552459
 21
-0.1001500505
  0
LINE
  5
2DC
100
AcDbEntity
  8
0
100
AcDbLine
 62
7
  6
CONTINUOUS
 10
-15.9827190188
 20
-11.4032755003
 11
-16.124140375
 21
-11.484930419
  0
LINE
  5
2DD
100
AcDbEntity
  8
0
100
AcDbLine
 62
7
  6
CONTINUOUS
 10
-15.6686016805
 20
-11.5846429147
 11
-15.8100230367
 21
-11.6662978333
  0
LINE
  5
2DE
100
AcDbEntity
  8
0
100
AcDbLine
 62
7
  6
CONTINUOUS
 10
-17.5279156271
 20
-12.8788621473
 11
-17.6693369834
 21
-12.9605170659
  0
LINE
  5
2DF
100
AcDbEntity
  8
0
100
AcDbLine
 62
7
  6
CONTINUOUS
 10
-1.9047307081
 20
-3.9370851739
 11
-2.0461520643
 21
-4.0187400925
  0
LINE
  5
2E0
100
AcDbEntity
  8
0
100
AcDbLine
 62
7
  6
CONTINUOUS
 10
4.2197763893
 20
-0.6962901565
 11
4.0783550331
 21
-0.7779450752
  0
LINE
  5
2E1
100
AcDbEntity
  8
0
100
AcDbLine
 62
7
  6
CONTINUOUS
 10
-16.1684102093
 20
-12.6910588044
 11
-16.3098315655
 21
-12.7727137231
  0
LINE
  5
2E2
100
AcDbEntity
  8
0
100
AcDbLine
 62
7
  6
CONTINUOUS
 10
23.147434947
 20
-36.2253419055
 11
22.9765509712
 21
-36.1770535868
  0
LINE
  5
2E3
100
AcDbEntity
  8
0
100
AcDbLine
 62
7
  6
CONTINUOUS
 10
23.2888563032
 20
-36.1436869868
 11
23.1179723274
 21
-36.0953986681
  0
LINE
  5
2E4
100
AcDbEntity
  8
0
100
AcDbLine
 62
7
  6
CONTINUOUS
 10
21.2677097463
 20
-35.1400121331
 11
21.0968252816
 21
-35.0917235321
  0
LINE
  5
2E5
100
AcDbEntity
  8
0
100
AcDbLine
 62
7
  6
CONTINUOUS
 10
21.4091311025
 20
-35.0583572144
 11
21.2382466378
 21
-35.0100686134
  0
LINE
  5
2E6
100
AcDbEntity
  8
0
100
AcDbLine
 62
7
  6
CONTINUOUS
 10
22.5493407872
 20
-34.9732066773
 11
22.720224763
 21
-35.021494996
  0
LINE
  5
2E7
100
AcDbEntity
  8
0
100
AcDbLine
 62
7
  6
CONTINUOUS
 10
-42.6766770665
 20
-8.7332459156
 11
-7.8210798919
 21
-28.858430881
  0
LINE
  5
2E8
100
AcDbEntity
  8
0
100
AcDbLine
 62
7
  6
CONTINUOUS
 10
6.5108695339
 20
-37.133518858
 11
41.4695461252
 21
-57.3182205867
  0
LINE
  5
2E9
100
AcDbEntity
  8
0
100
AcDbLine
 62
253
  6
CONTINUOUS
 10
-42.7802183771
 20
-8.504377485
 11
-7.9246212025
 21
-28.6295624504
  0
LINE
  5
2EA
100
AcDbEntity
  8
0
100
AcDbLine
 62
253
  6
CONTINUOUS
 10
6.5104076401
 20
-36.9641671907
 11
41.3660048147
 21
-57.0893521561
  0
LINE
  5
2EB
100
AcDbEntity
  8
0
100
AcDbLine
 62
7
  6
CONTINUOUS
 10
-6.3037869129
 20
-28.1015562774
 11
5.0532887788
 21
-34.6589894442
  0
LINE
  5
2EC
100
AcDbEntity
  8
0
100
AcDbLine
 62
253
  6
CONTINUOUS
 10
-6.5104076401
 20
-27.8131710835
 11
5.0961940777
 21
-34.5146774505
  0
LINE
  5
2ED
100
AcDbEntity
  8
0
100
AcDbLine
 62
253
  6
CONTINUOUS
 10
33.375440072
 20
-50.7611126377
 11
29.5570634536
 21
-48.5564298337
  0
LINE
  5
2EE
100
AcDbEntity
  8
0
100
AcDbLine
 62
253
  6
CONTINUOUS
 10
-17.889801564
 20
-21.1612046214
 11
-21.7081781824
 21
-18.9565218175
  0
LINE
  5
2EF
100
AcDbEntity
  8
0
100
AcDbLine
 62
253
  6
CONTINUOUS
 10
16.4755880016
 20
-41.0033498572
 11
20.2939646201
 21
-43.2080326611
  0
LINE
  5
2F0
100
AcDbEntity
  8
0
100
AcDbLine
 62
253
  6
CONTINUOUS
 10
-30.971277016
 20
-13.6081246449
 11
-34.7896536344
 21
-11.4034418409
  0
LINE
  5
2F1
100
AcDbEntity
  8
0
100
AcDbLine
 62
253
  6
CONTINUOUS
 10
33.7289934626
 20
-50.1487402026
 11
29.9106168442
 21
-47.9440573987
  0
LINE
  5
2F2
100
AcDbEntity
  8
0
100
AcDbLine
 62
253
  6
CONTINUOUS
 10
-17.5362481734
 20
-20.5488321864
 11
-21.3546247918
 21
-18.3441493824
  0
LINE
  5
2F3
100
AcDbEntity
  8
0
100
AcDbLine
 62
253
  6
CONTINUOUS
 10
16.8291413922
 20
-40.3909774221
 11
20.6475180106
 21
-42.5956602261
  0
LINE
  5
2F4
100
AcDbEntity
  8
0
100
AcDbLine
 62
253
  6
CONTINUOUS
 10
-30.6177236254
 20
-12.9957522098
 11
-34.4361002438
 21
-10.7910694059
  0
LINE
  5
2F5
100
AcDbEntity
  8
0
100
AcDbLine
 62
7
  6
CONTINUOUS
 10
-21.5152235911
 20
-2.8830748277
 11
-21.3796026318
 21
-3.2403840764
  0
LINE
  5
2F6
100
AcDbEntity
  8
0
100
AcDbLine
 62
7
  6
CONTINUOUS
 10
-15.0673424205
 20
-14.4628761159
 11
-15.8100230367
 21
-11.6662978333
  0
LINE
  5
2F7
100
AcDbEntity
  8
0
100
AcDbLine
 62
7
  6
CONTINUOUS
 10
-14.9259210643
 20
-14.3812211972
 11
-15.6686016805
 21
-11.5846429147
  0
LINE
  5
2F8
100
AcDbEntity
  8
0
100
AcDbLine
 62
7
  6
CONTINUOUS
 10
-15.5729386183
 20
-13.4817817108
 11
-15.3701665564
 21
-14.2880292551
  0
LINE
  5
2F9
100
AcDbEntity
  8
0
100
AcDbLine
 62
7
  6
CONTINUOUS
 10
-15.9784495081
 20
-11.9124913734
 11
-15.6729235172
 21
-13.1404564479
  0
LINE
  5
2FA
100
AcDbEntity
  8
0
100
AcDbLine
 62
7
  6
CONTINUOUS
 10
-7.8512406439
 20
6.1100368099
 11
-7.8512540789
 21
-0.6669812361
  0
LINE
  5
2FB
100
AcDbEntity
  8
0
100
AcDbLine
 62
7
  6
CONTINUOUS
 10
-11.9029526006
 20
-13.9221913361
 11
-12.4911862466
 21
-14.7203814966
  0
LINE
  5
2FC
100
AcDbEntity
  8
0
100
AcDbLine
 62
7
  6
CONTINUOUS
 10
-12.3513834577
 20
-15.0779947056
 11
-11.5772429537
 21
-14.1102520041
  0
LINE
  5
2FD
100
AcDbEntity
  8
0
100
AcDbLine
 62
7
  6
CONTINUOUS
 10
-12.2099621015
 20
-14.9963397869
 11
-11.4358215975
 21
-14.0285970854
  0
LINE
  5
2FE
100
AcDbEntity
  8
0
100
AcDbLine
 62
253
  6
CONTINUOUS
 10
-21.7081781824
 20
-16.0988363938
 11
-21.5011155758
 21
-15.9792810398
  0
LINE
  5
2FF
100
AcDbEntity
  8
0
100
AcDbLine
 62
7
  6
CONTINUOUS
 10
-14.6718547694
 20
-12.160152089
 11
-14.8132761256
 21
-12.2418070077
  0
LINE
  5
300
100
AcDbEntity
  8
0
100
AcDbLine
 62
7
  6
CONTINUOUS
 10
-16.4683479353
 20
-13.490643253
 11
-16.6097692916
 21
-13.5722981717
  0
LINE
  5
301
100
AcDbEntity
  8
0
100
AcDbLine
 62
7
  6
CONTINUOUS
 10
-14.3947360863
 20
-12.3201569435
 11
-14.5361574425
 21
-12.4018118622
  0
LINE
  5
302
100
AcDbEntity
  8
0
100
AcDbLine
 62
253
  6
CONTINUOUS
 10
-21.7081781824
 20
-17.7317769474
 11
-21.0010714012
 21
-17.323502354
  0
LINE
  5
303
100
AcDbEntity
  8
0
100
AcDbLine
 62
7
  6
CONTINUOUS
 10
-13.2608896555
 20
-12.9748256622
 11
-13.4023110118
 21
-13.0564805808
  0
LINE
  5
304
100
AcDbEntity
  8
0
100
AcDbLine
 62
7
  6
CONTINUOUS
 10
0.3789215535
 20
-5.2556545147
 11
0.2375001972
 21
-5.3373094333
  0
LINE
  5
305
100
AcDbEntity
  8
0
100
AcDbLine
 62
7
  6
CONTINUOUS
 10
-12.9381647064
 20
-13.1611630031
 11
-13.0795860626
 21
-13.2428179218
  0
LINE
  5
306
100
AcDbEntity
  8
0
100
AcDbLine
 62
7
  6
CONTINUOUS
 10
-14.9259210643
 20
-14.3812211972
 11
-15.0673424205
 21
-14.4628761159
  0
LINE
  5
307
100
AcDbEntity
  8
0
100
AcDbLine
 62
7
  6
CONTINUOUS
 10
3.0639530799
 20
-4.1855767274
 11
2.9225317236
 21
-4.267231646
  0
LINE
  5
308
100
AcDbEntity
  8
0
100
AcDbLine
 62
253
  6
CONTINUOUS
 10
-21.3546247918
 20
-18.3441493824
 11
-20.6475180106
 21
-17.9358747891
  0
LINE
  5
309
100
AcDbEntity
  8
0
100
AcDbLine
 62
7
  6
CONTINUOUS
 10
-14.3947360863
 20
-14.4043255108
 11
-14.5361574425
 21
-14.4859804295
  0
LINE
  5
30A
100
AcDbEntity
  8
0
100
AcDbLine
 62
7
  6
CONTINUOUS
 10
6.8867611365
 20
-2.2361737243
 11
6.7453397802
 21
-2.317828643
  0
LINE
  5
30B
100
AcDbEntity
  8
0
100
AcDbLine
 62
7
  6
CONTINUOUS
 10
-11.7615312443
 20
-13.8405364174
 11
-11.9029526006
 21
-13.9221913361
  0
LINE
  5
30C
100
AcDbEntity
  8
0
100
AcDbLine
 62
7
  6
CONTINUOUS
 10
-13.3550861783
 20
-15.0046063378
 11
-13.4965075345
 21
-15.0862612565
  0
LINE
  5
30D
100
AcDbEntity
  8
0
100
AcDbLine
 62
7
  6
CONTINUOUS
 10
-11.4358215975
 20
-14.0285970854
 11
-11.5772429537
 21
-14.1102520041
  0
LINE
  5
30E
100
AcDbEntity
  8
0
100
AcDbLine
 62
7
  6
CONTINUOUS
 10
-13.3550861783
 20
-15.2882015732
 11
-13.4965075345
 21
-15.3698564919
  0
LINE
  5
30F
100
AcDbEntity
  8
0
100
AcDbLine
 62
7
  6
CONTINUOUS
 10
2.3353177256
 20
-6.3852359992
 11
2.1938963694
 21
-6.4668909178
  0
LINE
  5
310
100
AcDbEntity
  8
0
100
AcDbLine
 62
7
  6
CONTINUOUS
 10
-12.2099621015
 20
-14.9963397869
 11
-12.3513834577
 21
-15.0779947056
  0
LINE
  5
311
100
AcDbEntity
  8
0
100
AcDbLine
 62
7
  6
CONTINUOUS
 10
20.6696150976
 20
-33.8878766226
 11
20.8404990734
 21
-33.9361649413
  0
LINE
  5
312
100
AcDbEntity
  8
0
100
AcDbLine
 62
7
  6
CONTINUOUS
 10
22.9765509712
 20
-36.4289433583
 11
23.1901563076
 21
-36.5018984508
  0
LINE
  5
313
100
AcDbEntity
  8
0
100
AcDbLine
 62
7
  6
CONTINUOUS
 10
21.0968252816
 20
-35.3436133036
 11
21.310430618
 21
-35.4165683961
  0
LINE
  5
314
100
AcDbEntity
  8
0
100
AcDbLine
 62
7
  6
CONTINUOUS
 10
22.720224763
 20
-34.7696052598
 11
22.5066194265
 21
-34.6966501628
  0
LINE
  5
315
100
AcDbEntity
  8
0
100
AcDbLine
 62
7
  6
CONTINUOUS
 10
22.8616461192
 20
-34.6879503411
 11
22.6480407828
 21
-34.6149952442
  0
LINE
  5
316
100
AcDbEntity
  8
0
100
AcDbLine
 62
7
  6
CONTINUOUS
 10
24.4290664768
 20
-35.2021114877
 11
24.6426713244
 21
-35.2750663023
  0
LINE
  5
317
100
AcDbEntity
  8
0
100
AcDbLine
 62
7
  6
CONTINUOUS
 10
20.8404990734
 20
-33.6842752051
 11
20.6268942258
 21
-33.6113203904
  0
LINE
  5
318
100
AcDbEntity
  8
0
100
AcDbLine
 62
7
  6
CONTINUOUS
 10
20.9819204296
 20
-33.6026202864
 11
20.7683155821
 21
-33.5296654718
  0
LINE
  5
319
100
AcDbEntity
  8
0
100
AcDbLine
 62
7
  6
CONTINUOUS
 10
24.685392685
 20
-35.0478433443
 11
24.3863451162
 21
-34.9255549733
  0
LINE
  5
31A
100
AcDbEntity
  8
0
100
AcDbLine
 62
7
  6
CONTINUOUS
 10
24.8268140412
 20
-34.9661884256
 11
24.5277664724
 21
-34.8439000546
  0
LINE
  5
31B
100
AcDbEntity
  8
0
100
AcDbLine
 62
253
  6
CONTINUOUS
 10
-33.7289934626
 20
-10.3827948125
 11
-30.4106168442
 21
-12.298783883
  0
LINE
  5
31C
100
AcDbEntity
  8
0
100
AcDbLine
 62
253
  6
CONTINUOUS
 10
-20.6475180106
 20
-17.9358747891
 11
-17.3291413922
 21
-19.8518638595
  0
LINE
  5
31D
100
AcDbEntity
  8
0
100
AcDbLine
 62
253
  6
CONTINUOUS
 10
17.5362481734
 20
-39.9827028288
 11
20.8546247918
 21
-41.8986918992
  0
LINE
  5
31E
100
AcDbEntity
  8
0
100
AcDbLine
 62
253
  6
CONTINUOUS
 10
30.6177236254
 20
-47.5357828053
 11
33.9361002438
 21
-49.4517718758
  0
LINE
  5
31F
100
AcDbEntity
  8
0
100
AcDbLine
 62
7
  6
CONTINUOUS
 10
-33.4789813825
 20
-10.3580242237
 11
-30.4106168442
 21
-12.1296594525
  0
LINE
  5
320
100
AcDbEntity
  8
0
100
AcDbLine
 62
7
  6
CONTINUOUS
 10
-20.3975059306
 20
-17.9111042002
 11
-17.3291413922
 21
-19.682739429
  0
LINE
  5
321
100
AcDbEntity
  8
0
100
AcDbLine
 62
7
  6
CONTINUOUS
 10
17.7862602535
 20
-39.9579322399
 11
20.8546247918
 21
-41.7295674687
  0
LINE
  5
322
100
AcDbEntity
  8
0
100
AcDbLine
 62
7
  6
CONTINUOUS
 10
30.8677357054
 20
-47.5110122165
 11
33.9361002438
 21
-49.2826474453
  0
LINE
  5
323
100
AcDbEntity
  8
0
100
AcDbLine
 62
7
  6
CONTINUOUS
 10
-34.6861123239
 20
-8.3664291643
 11
-30.8677357054
 21
-10.5711119683
  0
LINE
  5
324
100
AcDbEntity
  8
0
100
AcDbLine
 62
7
  6
CONTINUOUS
 10
20.3975059306
 20
-40.1710199845
 11
16.5791293122
 21
-37.9663371806
  0
LINE
  5
325
100
AcDbEntity
  8
0
100
AcDbLine
 62
7
  6
CONTINUOUS
 10
-21.6046368719
 20
-15.9195091409
 11
-17.7862602535
 21
-18.1241919448
  0
LINE
  5
326
100
AcDbEntity
  8
0
100
AcDbLine
 62
7
  6
CONTINUOUS
 10
29.6606047641
 20
-45.5194171571
 11
33.4789813825
 21
-47.7240999611
  0
LINE
  5
327
100
AcDbEntity
  8
0
100
AcDbLine
 62
253
  6
CONTINUOUS
 10
-34.7896536344
 20
-8.1375607337
 11
-30.971277016
 21
-10.3422435377
  0
LINE
  5
328
100
AcDbEntity
  8
0
100
AcDbLine
 62
253
  6
CONTINUOUS
 10
20.2939646201
 20
-39.942151554
 11
16.4755880016
 21
-37.73746875
  0
LINE
  5
329
100
AcDbEntity
  8
0
100
AcDbLine
 62
253
  6
CONTINUOUS
 10
-21.7081781824
 20
-15.6906407103
 11
-17.889801564
 21
-17.8953235143
  0
LINE
  5
32A
100
AcDbEntity
  8
0
100
AcDbLine
 62
253
  6
CONTINUOUS
 10
29.5570634536
 20
-45.2905487266
 11
33.375440072
 21
-47.4952315305
  0
LINE
  5
32B
100
AcDbEntity
  8
0
100
AcDbLine
 62
7
  6
CONTINUOUS
 10
-23.0089265623
 20
-0.2136264172
 11
-22.2167117018
 21
-1.4419003301
  0
LINE
  5
32C
100
AcDbEntity
  8
0
100
AcDbLine
 62
7
  6
CONTINUOUS
 10
-22.2167117018
 20
-1.0203110039
 11
-23.0454931752
 21
0.2646553383
  0
LINE
  5
32D
100
AcDbEntity
  8
0
100
AcDbLine
 62
7
  6
CONTINUOUS
 10
-22.2167117018
 20
-0.7193923967
 11
-22.904071819
 21
0.346310257
  0
LINE
  5
32E
100
AcDbEntity
  8
0
100
AcDbLine
 62
7
  6
CONTINUOUS
 10
-13.4023110118
 20
-13.0564805808
 11
-12.6283359707
 21
-14.9180857956
  0
LINE
  5
32F
100
AcDbEntity
  8
0
100
AcDbLine
 62
7
  6
CONTINUOUS
 10
-12.4911862466
 20
-14.7203814966
 11
-13.0795860626
 21
-13.2428179218
  0
LINE
  5
330
100
AcDbEntity
  8
0
100
AcDbLine
 62
7
  6
CONTINUOUS
 10
-12.3782657146
 20
-14.5671565695
 11
-12.9381647064
 21
-13.1611630031
  0
LINE
  5
331
100
AcDbEntity
  8
0
100
AcDbLine
 62
7
  6
CONTINUOUS
 10
-6.6774136886
 20
-1.3447248199
 11
-6.6773988394
 21
5.4322752636
  0
LINE
  5
332
100
AcDbEntity
  8
0
100
AcDbLine
 62
7
  6
CONTINUOUS
 10
-6.5359923324
 20
-1.2630699012
 11
-6.5359774831
 21
5.5139301823
  0
LINE
  5
333
100
AcDbEntity
  8
0
100
AcDbLine
 62
7
  6
CONTINUOUS
 10
-5.5036015826
 20
4.7545394387
 11
-5.5036015826
 21
-2.0224692186
  0
LINE
  5
334
100
AcDbEntity
  8
0
100
AcDbLine
 62
7
  6
CONTINUOUS
 10
-4.3297597781
 20
-2.7002307648
 11
-4.3297597781
 21
1.7687511376
  0
LINE
  5
335
100
AcDbEntity
  8
0
100
AcDbLine
 62
7
  6
CONTINUOUS
 10
-4.1883384219
 20
-2.6185758461
 11
-4.1883384219
 21
1.1176134446
  0
LINE
  5
336
100
AcDbEntity
  8
0
100
AcDbLine
 62
7
  6
CONTINUOUS
 10
-1.5370330605
 20
2.4642924868
 11
-2.6330506927
 21
-1.3163107499
  0
LINE
  5
337
100
AcDbEntity
  8
0
100
AcDbLine
 62
7
  6
CONTINUOUS
 10
-2.0461520643
 20
-4.0187400925
 11
-0.9363564565
 21
-0.190557411
  0
LINE
  5
338
100
AcDbEntity
  8
0
100
AcDbLine
 62
7
  6
CONTINUOUS
 10
-1.9047307081
 20
-3.9370851739
 11
-0.9363551069
 21
-0.5967235077
  0
LINE
  5
339
100
AcDbEntity
  8
0
100
AcDbLine
 62
7
  6
CONTINUOUS
 10
-12.2099621015
 20
-15.9493818634
 11
-12.3513834577
 21
-16.031036782
  0
LINE
  5
33A
100
AcDbEntity
  8
0
100
AcDbLine
 62
7
  6
CONTINUOUS
 10
9.6355015696
 20
-3.8232620006
 11
9.4940802134
 21
-3.9049169193
  0
LINE
  5
33B
100
AcDbEntity
  8
0
100
AcDbLine
 62
253
  6
CONTINUOUS
 10
-17.5362481734
 20
-20.5488321864
 11
-17.3291413922
 21
-20.4292513266
  0
LINE
  5
33C
100
AcDbEntity
  8
0
100
AcDbLine
 62
7
  6
CONTINUOUS
 10
8.0444328231
 20
-5.8074846175
 11
7.9030114668
 21
-5.8891395362
  0
LINE
  5
33D
100
AcDbEntity
  8
0
100
AcDbLine
 62
7
  6
CONTINUOUS
 10
6.1042053546
 20
-8.5613616268
 11
5.9627839984
 21
-8.6430165454
  0
LINE
  5
33E
100
AcDbEntity
  8
0
100
AcDbLine
 62
7
  6
CONTINUOUS
 10
9.4725785104
 20
-6.6320780385
 11
9.3311571541
 21
-6.7137329571
  0
LINE
  5
33F
100
AcDbEntity
  8
0
100
AcDbLine
 62
7
  6
CONTINUOUS
 10
-31.9612265096
 20
-4.7085591729
 11
-31.6927734202
 21
-4.8635606223
  0
LINE
  5
340
100
AcDbEntity
  8
0
100
AcDbLine
 62
7
  6
CONTINUOUS
 10
-31.1158117634
 20
-5.1966910519
 11
-30.8416240379
 21
-5.3550036082
  0
LINE
  5
341
100
AcDbEntity
  8
0
100
AcDbLine
 62
7
  6
CONTINUOUS
 10
-30.2647733969
 20
-5.6880699387
 11
-29.9962121201
 21
-5.843133854
  0
LINE
  5
342
100
AcDbEntity
  8
0
100
AcDbLine
 62
7
  6
CONTINUOUS
 10
-29.7505865588
 20
-5.9849549747
 11
-29.4650108786
 21
-6.1498427933
  0
LINE
  5
343
100
AcDbEntity
  8
0
100
AcDbLine
 62
7
  6
CONTINUOUS
 10
-28.2255234019
 20
-6.865507328
 11
-27.9227501777
 21
-7.040324793
  0
LINE
  5
344
100
AcDbEntity
  8
0
100
AcDbLine
 62
7
  6
CONTINUOUS
 10
-27.6543048664
 20
-7.1953217513
 11
-26.8231653656
 21
-7.6752112824
  0
LINE
  5
345
100
AcDbEntity
  8
0
100
AcDbLine
 62
7
  6
CONTINUOUS
 10
-25.5779070166
 20
-8.3942078464
 11
-24.0641207986
 21
-9.2682490365
  0
LINE
  5
346
100
AcDbEntity
  8
0
100
AcDbLine
 62
7
  6
CONTINUOUS
 10
-22.8645353575
 20
-9.9608746358
 11
-22.5875163765
 21
-10.1208219236
  0
LINE
  5
347
100
AcDbEntity
  8
0
100
AcDbLine
 62
7
  6
CONTINUOUS
 10
-22.1134797686
 20
-10.3945247199
 11
-21.8449022283
 21
-10.5495980256
  0
LINE
  5
348
100
AcDbEntity
  8
0
100
AcDbLine
 62
7
  6
CONTINUOUS
 10
-20.7967111775
 20
-11.1548104014
 11
-20.485413074
 21
-11.3345500249
  0
LINE
  5
349
100
AcDbEntity
  8
0
100
AcDbLine
 62
7
  6
CONTINUOUS
 10
-19.214515914
 20
-12.068350117
 11
-18.9374142015
 21
-12.2283451729
  0
LINE
  5
34A
100
AcDbEntity
  8
0
100
AcDbLine
 62
7
  6
CONTINUOUS
 10
-17.9463389938
 20
-12.8005795767
 11
-17.6693369834
 21
-12.9605170659
  0
LINE
  5
34B
100
AcDbEntity
  8
0
100
AcDbLine
 62
7
  6
CONTINUOUS
 10
-16.8953287083
 20
-13.4074197434
 11
-16.6097692916
 21
-13.5722981717
  0
LINE
  5
34C
100
AcDbEntity
  8
0
100
AcDbLine
 62
7
  6
CONTINUOUS
 10
-15.3701665564
 20
-14.2880292551
 11
-15.0673424205
 21
-14.4628761159
  0
LINE
  5
34D
100
AcDbEntity
  8
0
100
AcDbLine
 62
7
  6
CONTINUOUS
 10
-14.8132761256
 20
-14.6095708104
 11
-13.4965075345
 21
-15.3698564919
  0
LINE
  5
34E
100
AcDbEntity
  8
0
100
AcDbLine
 62
7
  6
CONTINUOUS
 10
-12.6283359707
 20
-15.871127872
 11
-12.3513834577
 21
-16.031036782
  0
LINE
  5
34F
100
AcDbEntity
  8
0
100
AcDbLine
 62
7
  6
CONTINUOUS
 10
16.0984644054
 20
-32.4576223778
 11
16.4402326626
 21
-32.6549550862
  0
LINE
  5
350
100
AcDbEntity
  8
0
100
AcDbLine
 62
7
  6
CONTINUOUS
 10
17.8927479238
 20
-33.4936191937
 11
18.1490741319
 21
-33.6416187338
  0
LINE
  5
351
100
AcDbEntity
  8
0
100
AcDbLine
 62
7
  6
CONTINUOUS
 10
19.6015893931
 20
-34.4802828413
 11
19.8579156013
 21
-34.6282823814
  0
LINE
  5
352
100
AcDbEntity
  8
0
100
AcDbLine
 62
7
  6
CONTINUOUS
 10
20.8404990734
 20
-35.1956137635
 11
21.0968252816
 21
-35.3436133036
  0
LINE
  5
353
100
AcDbEntity
  8
0
100
AcDbLine
 62
7
  6
CONTINUOUS
 10
22.720224763
 20
-36.2809438182
 11
22.9765509712
 21
-36.4289433583
  0
LINE
  5
354
100
AcDbEntity
  8
0
100
AcDbLine
 62
7
  6
CONTINUOUS
 10
23.9591344433
 20
-36.9962747404
 11
25.4970916923
 21
-37.8842719809
  0
LINE
  5
355
100
AcDbEntity
  8
0
100
AcDbLine
 62
7
  6
CONTINUOUS
 10
25.4970916923
 20
-37.6323822094
 11
24.3009033727
 21
-36.9417180654
  0
LINE
  5
356
100
AcDbEntity
  8
0
100
AcDbLine
 62
7
  6
CONTINUOUS
 10
22.9765509712
 20
-36.1770535868
 11
22.720224763
 21
-36.0290540467
  0
LINE
  5
357
100
AcDbEntity
  8
0
100
AcDbLine
 62
7
  6
CONTINUOUS
 10
21.0968252816
 20
-35.0917235321
 11
20.8404990734
 21
-34.943723992
  0
LINE
  5
358
100
AcDbEntity
  8
0
100
AcDbLine
 62
7
  6
CONTINUOUS
 10
-26.8302139631
 20
-7.3975031302
 11
-27.3771861833
 21
-7.0816882255
  0
LINE
  5
359
100
AcDbEntity
  8
0
100
AcDbLine
 62
7
  6
CONTINUOUS
 10
-13.4965075345
 20
-15.0862612565
 11
-14.5361574425
 21
-14.4859804295
  0
LINE
  5
35A
100
AcDbEntity
  8
0
100
AcDbLine
 62
7
  6
CONTINUOUS
 10
-24.0641207986
 20
-8.9846538011
 11
-25.3008053041
 21
-8.270607667
  0
LINE
  5
35B
100
AcDbEntity
  8
0
100
AcDbLine
 62
7
  6
CONTINUOUS
 10
25.6385130486
 20
-37.5507272907
 11
24.4582765318
 21
-36.8692735178
  0
LINE
  5
35C
100
AcDbEntity
  8
0
100
AcDbLine
 62
7
  6
CONTINUOUS
 10
23.1179723274
 20
-36.0953986681
 11
22.8616461192
 21
-35.947399128
  0
LINE
  5
35D
100
AcDbEntity
  8
0
100
AcDbLine
 62
7
  6
CONTINUOUS
 10
21.2382466378
 20
-35.0100686134
 11
20.9819204296
 21
-34.8620690733
  0
LINE
  5
35E
100
AcDbEntity
  8
0
100
AcDbLine
 62
7
  6
CONTINUOUS
 10
-26.6887926047
 20
-7.3158482129
 11
-27.235764827
 21
-7.0000333068
  0
LINE
  5
35F
100
AcDbEntity
  8
0
100
AcDbLine
 62
7
  6
CONTINUOUS
 10
-13.3550861783
 20
-15.0046063378
 11
-14.3947360863
 21
-14.4043255108
  0
LINE
  5
360
100
AcDbEntity
  8
0
100
AcDbLine
 62
7
  6
CONTINUOUS
 10
-23.9226994424
 20
-8.9029988824
 11
-25.1593839478
 21
-8.1889527483
  0
LINE
  5
361
100
AcDbEntity
  8
0
100
AcDbLine
 62
7
  6
CONTINUOUS
 10
22.3357354507
 20
-35.4544090706
 11
22.0794092425
 21
-35.3064095305
  0
LINE
  5
362
100
AcDbEntity
  8
0
100
AcDbLine
 62
7
  6
CONTINUOUS
 10
20.4560097611
 20
-34.3690790159
 11
20.1996835529
 21
-34.2210794758
  0
LINE
  5
363
100
AcDbEntity
  8
0
100
AcDbLine
 62
7
  6
CONTINUOUS
 10
-29.2507787371
 20
-5.5843682498
 11
-28.4282792003
 21
-6.059269174
  0
LINE
  5
364
100
AcDbEntity
  8
0
100
AcDbLine
 62
7
  6
CONTINUOUS
 10
-16.3955208866
 20
-13.0068330184
 11
-15.5729386183
 21
-13.4817817108
  0
LINE
  5
365
100
AcDbEntity
  8
0
100
AcDbLine
 62
7
  6
CONTINUOUS
 10
22.477156807
 20
-35.3727541519
 11
22.2208305988
 21
-35.2247546118
  0
LINE
  5
366
100
AcDbEntity
  8
0
100
AcDbLine
 62
7
  6
CONTINUOUS
 10
20.5974311173
 20
-34.2874240972
 11
20.3411049092
 21
-34.1394245571
  0
LINE
  5
367
100
AcDbEntity
  8
0
100
AcDbLine
 62
7
  6
CONTINUOUS
 10
-15.6729235172
 20
-13.1404564479
 11
-16.3098315655
 21
-12.7727137231
  0
LINE
  5
368
100
AcDbEntity
  8
0
100
AcDbLine
 62
7
  6
CONTINUOUS
 10
-28.5281651042
 20
-5.7180010696
 11
-29.1650724455
 21
-5.350258753
  0
LINE
  5
369
100
AcDbEntity
  8
0
100
AcDbLine
 62
7
  6
CONTINUOUS
 10
20.1996835529
 20
-33.76767788
 11
20.4987311217
 21
-33.9403441983
  0
LINE
  5
36A
100
AcDbEntity
  8
0
100
AcDbLine
 62
7
  6
CONTINUOUS
 10
22.0794092425
 20
-34.8530079347
 11
22.3784563225
 21
-35.0256739707
  0
LINE
  5
36B
100
AcDbEntity
  8
0
100
AcDbLine
 62
7
  6
CONTINUOUS
 10
-25.3008053041
 20
-7.4791826159
 11
-24.1783850118
 21
-8.1272540254
  0
LINE
  5
36C
100
AcDbEntity
  8
0
100
AcDbLine
 62
7
  6
CONTINUOUS
 10
-15.7203725314
 20
-12.9497501444
 11
-16.1684102093
 21
-12.6910588044
  0
LINE
  5
36D
100
AcDbEntity
  8
0
100
AcDbLine
 62
7
  6
CONTINUOUS
 10
-28.5756114829
 20
-5.5272962878
 11
-29.0236510892
 21
-5.2686038344
  0
LINE
  5
36E
100
AcDbEntity
  8
0
100
AcDbLine
 62
7
  6
CONTINUOUS
 10
20.8404990734
 20
-33.9361649413
 11
21.0968252816
 21
-34.0841644814
  0
LINE
  5
36F
100
AcDbEntity
  8
0
100
AcDbLine
 62
7
  6
CONTINUOUS
 10
22.720224763
 20
-35.021494996
 11
22.9765509712
 21
-35.169494536
  0
LINE
  5
370
100
AcDbEntity
  8
0
100
AcDbLine
 62
7
  6
CONTINUOUS
 10
-24.1783850118
 20
-7.8436587901
 11
-25.3008053041
 21
-7.1955873806
  0
LINE
  5
371
100
AcDbEntity
  8
0
100
AcDbLine
 62
7
  6
CONTINUOUS
 10
22.9765509712
 20
-34.9176047998
 11
22.720224763
 21
-34.7696052598
  0
LINE
  5
372
100
AcDbEntity
  8
0
100
AcDbLine
 62
7
  6
CONTINUOUS
 10
21.0968252816
 20
-33.8322747451
 11
20.8404990734
 21
-33.6842752051
  0
LINE
  5
373
100
AcDbEntity
  8
0
100
AcDbLine
 62
7
  6
CONTINUOUS
 10
-24.0369636556
 20
-7.7620038714
 11
-25.1593839478
 21
-7.1139324619
  0
LINE
  5
374
100
AcDbEntity
  8
0
100
AcDbLine
 62
7
  6
CONTINUOUS
 10
23.1179723274
 20
-34.8359498812
 11
22.8616461192
 21
-34.6879503411
  0
LINE
  5
375
100
AcDbEntity
  8
0
100
AcDbLine
 62
7
  6
CONTINUOUS
 10
21.2382466378
 20
-33.7506198265
 11
20.9819204296
 21
-33.6026202864
  0
LINE
  5
376
100
AcDbEntity
  8
0
100
AcDbLine
 62
7
  6
CONTINUOUS
 10
24.0018558039
 20
-35.2073351356
 11
24.2154606514
 21
-35.3306678974
  0
LINE
  5
377
100
AcDbEntity
  8
0
100
AcDbLine
 62
7
  6
CONTINUOUS
 10
-25.3008053041
 20
-6.470034335
 11
-24.0841375774
 21
-7.1725230319
  0
LINE
  5
378
100
AcDbEntity
  8
0
100
AcDbLine
 62
7
  6
CONTINUOUS
 10
-18.6403784417
 20
-10.3156813306
 11
-17.9463389938
 21
-10.7164110094
  0
LINE
  5
379
100
AcDbEntity
  8
0
100
AcDbLine
 62
7
  6
CONTINUOUS
 10
-17.6693369834
 20
-10.8763484986
 11
-16.9752968284
 21
-11.2770785857
  0
LINE
  5
37A
100
AcDbEntity
  8
0
100
AcDbLine
 62
7
  6
CONTINUOUS
 10
-27.3771861833
 20
-5.2612011835
 11
-26.830213963
 21
-5.5770160882
  0
LINE
  5
37B
100
AcDbEntity
  8
0
100
AcDbLine
 62
7
  6
CONTINUOUS
 10
17.4655374953
 20
-31.13107918
 11
18.7471685362
 21
-31.8710768804
  0
LINE
  5
37C
100
AcDbEntity
  8
0
100
AcDbLine
 62
7
  6
CONTINUOUS
 10
20.4132888894
 20
-32.833073891
 11
21.6521990586
 21
-33.5484050955
  0
LINE
  5
37D
100
AcDbEntity
  8
0
100
AcDbLine
 62
7
  6
CONTINUOUS
 10
22.293014579
 20
-33.9184039457
 11
23.5319242593
 21
-34.6337348679
  0
LINE
  5
37E
100
AcDbEntity
  8
0
100
AcDbLine
 62
7
  6
CONTINUOUS
 10
24.6426713244
 20
-35.2750663023
 11
24.8135557891
 21
-35.3737328506
  0
LINE
  5
37F
100
AcDbEntity
  8
0
100
AcDbLine
 62
7
  6
CONTINUOUS
 10
24.8562761719
 20
-35.146509328
 11
24.685392685
 21
-35.0478433443
  0
LINE
  5
380
100
AcDbEntity
  8
0
100
AcDbLine
 62
7
  6
CONTINUOUS
 10
23.5319242593
 20
-34.3818451316
 11
22.0794092425
 21
-33.5431811653
  0
LINE
  5
381
100
AcDbEntity
  8
0
100
AcDbLine
 62
7
  6
CONTINUOUS
 10
21.6521990586
 20
-33.2965153592
 11
20.1996835529
 21
-32.4578511106
  0
LINE
  5
382
100
AcDbEntity
  8
0
100
AcDbLine
 62
7
  6
CONTINUOUS
 10
19.8579156013
 20
-32.2605185787
 11
19.6015893931
 21
-32.1125190386
  0
LINE
  5
383
100
AcDbEntity
  8
0
100
AcDbLine
 62
7
  6
CONTINUOUS
 10
19.0034947444
 20
-31.7671866843
 11
17.4655374953
 21
-30.8791894438
  0
LINE
  5
384
100
AcDbEntity
  8
0
100
AcDbLine
 62
7
  6
CONTINUOUS
 10
17.123769177
 20
-30.6818567002
 11
16.8674429688
 21
-30.5338571601
  0
LINE
  5
385
100
AcDbEntity
  8
0
100
AcDbLine
 62
7
  6
CONTINUOUS
 10
15.671254038
 20
-29.8431926632
 11
15.4149278299
 21
-29.6951931232
  0
LINE
  5
386
100
AcDbEntity
  8
0
100
AcDbLine
 62
7
  6
CONTINUOUS
 10
-11.5772429537
 20
-14.1102520041
 11
-11.9029526006
 21
-13.9221913361
  0
LINE
  5
387
100
AcDbEntity
  8
0
100
AcDbLine
 62
7
  6
CONTINUOUS
 10
-13.0795860626
 20
-13.2428179218
 11
-13.4023110118
 21
-13.0564805808
  0
LINE
  5
388
100
AcDbEntity
  8
0
100
AcDbLine
 62
7
  6
CONTINUOUS
 10
-14.5361574425
 20
-12.4018118622
 11
-14.8132761256
 21
-12.2418070077
  0
LINE
  5
389
100
AcDbEntity
  8
0
100
AcDbLine
 62
7
  6
CONTINUOUS
 10
-15.8100230367
 20
-11.6662978333
 11
-16.124140375
 21
-11.484930419
  0
LINE
  5
38A
100
AcDbEntity
  8
0
100
AcDbLine
 62
7
  6
CONTINUOUS
 10
-16.9752968284
 20
-10.9934833504
 11
-18.6403784417
 21
-10.0320860952
  0
LINE
  5
38B
100
AcDbEntity
  8
0
100
AcDbLine
 62
7
  6
CONTINUOUS
 10
-18.9374142015
 20
-9.8605813702
 11
-19.214515914
 21
-9.7005863143
  0
LINE
  5
38C
100
AcDbEntity
  8
0
100
AcDbLine
 62
7
  6
CONTINUOUS
 10
-20.485413074
 20
-8.9667862222
 11
-20.7538583853
 21
-8.8117892639
  0
LINE
  5
38D
100
AcDbEntity
  8
0
100
AcDbLine
 62
7
  6
CONTINUOUS
 10
-21.7849671504
 20
-8.2164399857
 11
-22.1134797686
 21
-8.0267609172
  0
LINE
  5
38E
100
AcDbEntity
  8
0
100
AcDbLine
 62
7
  6
CONTINUOUS
 10
-22.5875163765
 20
-7.7530581209
 11
-22.8645353575
 21
-7.5931108331
  0
LINE
  5
38F
100
AcDbEntity
  8
0
100
AcDbLine
 62
7
  6
CONTINUOUS
 10
-24.0841375774
 20
-6.8889277966
 11
-25.5779070166
 21
-6.0264440437
  0
LINE
  5
390
100
AcDbEntity
  8
0
100
AcDbLine
 62
7
  6
CONTINUOUS
 10
-26.8144466374
 20
-5.3124815641
 11
-27.6543048664
 21
-4.8275579486
  0
LINE
  5
391
100
AcDbEntity
  8
0
100
AcDbLine
 62
7
  6
CONTINUOUS
 10
-28.6652808873
 20
-4.2438330647
 11
-28.9794979276
 21
-4.0624080836
  0
LINE
  5
392
100
AcDbEntity
  8
0
100
AcDbLine
 62
7
  6
CONTINUOUS
 10
-29.9962121201
 20
-3.4753700513
 11
-30.3903972805
 21
-3.24777248
  0
LINE
  5
393
100
AcDbEntity
  8
0
100
AcDbLine
 62
7
  6
CONTINUOUS
 10
-31.5642249429
 20
-2.5700190993
 11
-31.9612265096
 21
-2.3407953702
  0
LINE
  5
394
100
AcDbEntity
  8
0
100
AcDbLine
 62
7
  6
CONTINUOUS
 10
5.0755124047
 20
-34.6623460096
 11
6.4897259671
 21
-37.1118357498
  0
LINE
  5
395
100
AcDbEntity
  8
0
100
AcDbLine
 62
253
  6
CONTINUOUS
 10
5.0961940777
 20
-34.5146774505
 11
6.5104076401
 21
-36.9641671907
  0
LINE
  5
396
100
AcDbEntity
  8
0
100
AcDbLine
 62
7
  6
CONTINUOUS
 10
-13.576524445
 20
9.415743922
 11
-11.692110329
 21
1.5506810255
  0
LINE
  5
397
100
AcDbEntity
  8
0
100
AcDbLine
 62
7
  6
CONTINUOUS
 10
-11.1051523036
 20
3.3224679729
 11
-12.4026677913
 21
8.737973802
  0
LINE
  5
398
100
AcDbEntity
  8
0
100
AcDbLine
 62
7
  6
CONTINUOUS
 10
-11.0117372998
 20
3.6044894256
 11
-12.261246435
 21
8.8196287207
  0
LINE
  5
399
100
AcDbEntity
  8
0
100
AcDbLine
 62
7
  6
CONTINUOUS
 10
-0.9363564565
 20
-0.190557411
 11
-0.9363416073
 21
-4.6595478871
  0
LINE
  5
39A
100
AcDbEntity
  8
0
100
AcDbLine
 62
7
  6
CONTINUOUS
 10
0.2375001972
 20
-5.3373094333
 11
0.2375001972
 21
1.4396992239
  0
LINE
  5
39B
100
AcDbEntity
  8
0
100
AcDbLine
 62
7
  6
CONTINUOUS
 10
0.3789215535
 20
-5.2556545147
 11
0.3789215535
 21
1.5213541426
  0
LINE
  5
39C
100
AcDbEntity
  8
0
100
AcDbLine
 62
7
  6
CONTINUOUS
 10
2.9044552459
 20
-0.1001500505
 11
1.0200559791
 21
-5.789147334
  0
LINE
  5
39D
100
AcDbEntity
  8
0
100
AcDbLine
 62
7
  6
CONTINUOUS
 10
2.1938963694
 20
-6.4668909178
 11
2.5644790126
 21
-5.3481199293
  0
LINE
  5
39E
100
AcDbEntity
  8
0
100
AcDbLine
 62
7
  6
CONTINUOUS
 10
2.9225317236
 20
-4.267231646
 11
3.491398422
 21
-2.5497328391
  0
LINE
  5
39F
100
AcDbEntity
  8
0
100
AcDbLine
 62
7
  6
CONTINUOUS
 10
2.3353177256
 20
-6.3852359992
 11
2.6604903439
 21
-5.4035556687
  0
LINE
  5
3A0
100
AcDbEntity
  8
0
100
AcDbLine
 62
7
  6
CONTINUOUS
 10
3.0639530799
 20
-4.1855767274
 11
3.5394065894
 21
-2.7501071564
  0
LINE
  5
3A1
100
AcDbEntity
  8
0
100
AcDbLine
 62
7
  6
CONTINUOUS
 10
8.0606177902
 20
-9.6909525016
 11
7.919196434
 21
-9.7726074203
  0
LINE
  5
3A2
100
AcDbEntity
  8
0
100
AcDbLine
 62
7
  6
CONTINUOUS
 10
24.9976975281
 20
-35.0648544093
 11
24.8268140412
 21
-34.9661884256
  0
LINE
  5
3A3
100
AcDbEntity
  8
0
100
AcDbLine
 62
7
  6
CONTINUOUS
 10
23.6733456155
 20
-34.300190213
 11
22.2208305988
 21
-33.4615262466
  0
LINE
  5
3A4
100
AcDbEntity
  8
0
100
AcDbLine
 62
7
  6
CONTINUOUS
 10
21.7936204148
 20
-33.2148604406
 11
20.3411049092
 21
-32.3761961919
  0
LINE
  5
3A5
100
AcDbEntity
  8
0
100
AcDbLine
 62
7
  6
CONTINUOUS
 10
19.9993369575
 20
-32.17886366
 11
19.7430107493
 21
-32.0308641199
  0
LINE
  5
3A6
100
AcDbEntity
  8
0
100
AcDbLine
 62
7
  6
CONTINUOUS
 10
19.1449161006
 20
-31.6855317656
 11
17.6069588515
 21
-30.7975345252
  0
LINE
  5
3A7
100
AcDbEntity
  8
0
100
AcDbLine
 62
7
  6
CONTINUOUS
 10
17.2651905332
 20
-30.6002017815
 11
17.008864325
 21
-30.4522022414
  0
LINE
  5
3A8
100
AcDbEntity
  8
0
100
AcDbLine
 62
7
  6
CONTINUOUS
 10
15.8126753943
 20
-29.7615377446
 11
15.5563491861
 21
-29.6135382045
  0
LINE
  5
3A9
100
AcDbEntity
  8
0
100
AcDbLine
 62
7
  6
CONTINUOUS
 10
-11.4358215975
 20
-14.0285970854
 11
-11.7615312443
 21
-13.8405364174
  0
LINE
  5
3AA
100
AcDbEntity
  8
0
100
AcDbLine
 62
7
  6
CONTINUOUS
 10
-12.9381647064
 20
-13.1611630031
 11
-13.2608896555
 21
-12.9748256622
  0
LINE
  5
3AB
100
AcDbEntity
  8
0
100
AcDbLine
 62
7
  6
CONTINUOUS
 10
-14.3947360863
 20
-12.3201569435
 11
-14.6718547694
 21
-12.160152089
  0
LINE
  5
3AC
100
AcDbEntity
  8
0
100
AcDbLine
 62
7
  6
CONTINUOUS
 10
-15.6686016805
 20
-11.5846429147
 11
-15.9827190188
 21
-11.4032755003
  0
LINE
  5
3AD
100
AcDbEntity
  8
0
100
AcDbLine
 62
7
  6
CONTINUOUS
 10
-16.8338754721
 20
-10.9118284317
 11
-18.4989570854
 21
-9.9504311765
  0
LINE
  5
3AE
100
AcDbEntity
  8
0
100
AcDbLine
 62
7
  6
CONTINUOUS
 10
-18.7959928452
 20
-9.7789264516
 11
-19.0730945578
 21
-9.6189313957
  0
LINE
  5
3AF
100
AcDbEntity
  8
0
100
AcDbLine
 62
7
  6
CONTINUOUS
 10
-20.3439917177
 20
-8.8851313036
 11
-20.612437029
 21
-8.7301343452
  0
LINE
  5
3B0
100
AcDbEntity
  8
0
100
AcDbLine
 62
7
  6
CONTINUOUS
 10
-21.6435457942
 20
-8.1347850671
 11
-21.9720584124
 21
-7.9451059986
  0
LINE
  5
3B1
100
AcDbEntity
  8
0
100
AcDbLine
 62
7
  6
CONTINUOUS
 10
-22.4460950203
 20
-7.6714032022
 11
-22.7231140013
 21
-7.5114559144
  0
LINE
  5
3B2
100
AcDbEntity
  8
0
100
AcDbLine
 62
7
  6
CONTINUOUS
 10
-23.9427162211
 20
-6.8072728779
 11
-25.4364856604
 21
-5.944789125
  0
LINE
  5
3B3
100
AcDbEntity
  8
0
100
AcDbLine
 62
7
  6
CONTINUOUS
 10
-26.6730252812
 20
-5.2308266455
 11
-27.5128835101
 21
-4.74590303
  0
LINE
  5
3B4
100
AcDbEntity
  8
0
100
AcDbLine
 62
7
  6
CONTINUOUS
 10
-28.523859531
 20
-4.162178146
 11
-28.8380765714
 21
-3.980753165
  0
LINE
  5
3B5
100
AcDbEntity
  8
0
100
AcDbLine
 62
7
  6
CONTINUOUS
 10
-29.8547907638
 20
-3.3937151327
 11
-30.2489759243
 21
-3.1661175613
  0
LINE
  5
3B6
100
AcDbEntity
  8
0
100
AcDbLine
 62
7
  6
CONTINUOUS
 10
-31.4228035866
 20
-2.4883641806
 11
-31.8198051534
 21
-2.2591404515
  0
LINE
  5
3B7
100
AcDbEntity
  8
0
100
AcDbLine
 62
7
  6
CONTINUOUS
 10
20.6268942258
 20
-35.02190305
 11
20.8404990734
 21
-35.1956137635
  0
LINE
  5
3B8
100
AcDbEntity
  8
0
100
AcDbLine
 62
7
  6
CONTINUOUS
 10
22.5066194265
 20
-36.1072328224
 11
22.720224763
 21
-36.2809438182
  0
LINE
  5
3B9
100
AcDbEntity
  8
0
100
AcDbLine
 62
7
  6
CONTINUOUS
 10
21.310430618
 20
-34.0059857365
 11
21.0968252816
 21
-33.8322747451
  0
LINE
  5
3BA
100
AcDbEntity
  8
0
100
AcDbLine
 62
7
  6
CONTINUOUS
 10
21.4518519742
 20
-33.9243308179
 11
21.2382466378
 21
-33.7506198265
  0
LINE
  5
3BB
100
AcDbEntity
  8
0
100
AcDbLine
 62
7
  6
CONTINUOUS
 10
23.1901563076
 20
-35.0913157912
 11
22.9765509712
 21
-34.9176047998
  0
LINE
  5
3BC
100
AcDbEntity
  8
0
100
AcDbLine
 62
7
  6
CONTINUOUS
 10
23.3315776639
 20
-35.0096608726
 11
23.1179723274
 21
-34.8359498812
  0
LINE
  5
3BD
100
AcDbEntity
  8
0
100
AcDbLine
 62
7
  6
CONTINUOUS
 10
20.8404990734
 20
-34.943723992
 11
20.6696150976
 21
-34.7946797788
  0
LINE
  5
3BE
100
AcDbEntity
  8
0
100
AcDbLine
 62
7
  6
CONTINUOUS
 10
20.9819204296
 20
-34.8620690733
 11
20.8110364538
 21
-34.7130248601
  0
LINE
  5
3BF
100
AcDbEntity
  8
0
100
AcDbLine
 62
7
  6
CONTINUOUS
 10
22.720224763
 20
-36.0290540467
 11
22.5493407872
 21
-35.8800098335
  0
LINE
  5
3C0
100
AcDbEntity
  8
0
100
AcDbLine
 62
7
  6
CONTINUOUS
 10
22.8616461192
 20
-35.947399128
 11
22.6907621434
 21
-35.7983549148
  0
LINE
  5
3C1
100
AcDbEntity
  8
0
100
AcDbLine
 62
7
  6
CONTINUOUS
 10
-4.3297597781
 20
1.7687511376
 11
-3.2199641703
 21
-3.3410128397
  0
LINE
  5
3C2
100
AcDbEntity
  8
0
100
AcDbLine
 62
7
  6
CONTINUOUS
 10
11.5837405579
 20
-11.7251422867
 11
11.4423192017
 21
-11.8067972054
  0
LINE
  5
3C3
100
AcDbEntity
  8
0
100
AcDbLine
 62
7
  6
CONTINUOUS
 10
-22.4778144163
 20
-2.7592772904
 11
-21.6418402526
 21
-3.2419582953
  0
LINE
  5
3C4
100
AcDbEntity
  8
0
100
AcDbLine
 62
7
  6
CONTINUOUS
 10
-21.6418402526
 20
-2.9017637074
 11
-21.9028418509
 21
-2.7510646557
  0
LINE
  5
3C5
100
AcDbEntity
  8
0
100
AcDbLine
 62
7
  6
CONTINUOUS
 10
-22.2167117018
 20
-2.5698401375
 11
-22.4778144163
 21
-2.4190827025
  0
LINE
  5
3C6
100
AcDbEntity
  8
0
100
AcDbLine
 62
7
  6
CONTINUOUS
 10
-21.5004188964
 20
-2.8201087887
 11
-21.7614204946
 21
-2.669409737
  0
LINE
  5
3C7
100
AcDbEntity
  8
0
100
AcDbLine
 62
7
  6
CONTINUOUS
 10
-22.2167117018
 20
-2.4065303002
 11
-22.33639306
 21
-2.3374277839
  0
LINE
  5
3C8
100
AcDbEntity
  8
0
100
AcDbLine
 62
7
  6
CONTINUOUS
 10
21.5363901255
 20
-26.9224158445
 11
22.5691202865
 21
-27.5187012963
  0
LINE
  5
3C9
100
AcDbEntity
  8
0
100
AcDbLine
 62
7
  6
CONTINUOUS
 10
22.5691202865
 20
-26.9063485887
 11
21.5363879973
 21
-26.3100619081
  0
LINE
  5
3CA
100
AcDbEntity
  8
0
100
AcDbLine
 62
7
  6
CONTINUOUS
 10
22.7105416427
 20
-26.8246936701
 11
21.6778092812
 21
-26.2284069477
  0
LINE
  5
3CB
100
AcDbEntity
  8
0
100
AcDbLine
 62
7
  6
CONTINUOUS
 10
-22.4681928143
 20
-0.0077244145
 11
-22.2167117018
 21
-0.1529264571
  0
LINE
  5
3CC
100
AcDbEntity
  8
0
100
AcDbLine
 62
7
  6
CONTINUOUS
 10
-21.9028418509
 20
-0.3341509753
 11
-21.6514618546
 21
-0.4792946346
  0
LINE
  5
3CD
100
AcDbEntity
  8
0
100
AcDbLine
 62
7
  6
CONTINUOUS
 10
-21.6514618546
 20
-0.1372286968
 11
-22.4681928143
 21
0.3343415233
  0
LINE
  5
3CE
100
AcDbEntity
  8
0
100
AcDbLine
 62
7
  6
CONTINUOUS
 10
-21.5688635077
 20
-0.0216101098
 11
-22.3267714581
 21
0.4159964419
  0
LINE
  5
3CF
100
AcDbEntity
  8
0
100
AcDbLine
 62
7
  6
CONTINUOUS
 10
25.1126023801
 20
-35.3448868153
 11
24.8562761719
 21
-35.146509328
  0
LINE
  5
3D0
100
AcDbEntity
  8
0
100
AcDbLine
 62
7
  6
CONTINUOUS
 10
25.2540237363
 20
-35.2632318966
 11
24.9976975281
 21
-35.0648544093
  0
LINE
  5
3D1
100
AcDbEntity
  8
0
100
AcDbLine
 62
7
  6
CONTINUOUS
 10
24.8135557891
 20
-35.3737328506
 11
25.0271606366
 21
-35.5474435597
  0
LINE
  5
3D2
100
AcDbEntity
  8
0
100
AcDbLine
 62
7
  6
CONTINUOUS
 10
21.0968252816
 20
-34.0841644814
 11
21.2677097463
 21
-34.2332089768
  0
LINE
  5
3D3
100
AcDbEntity
  8
0
100
AcDbLine
 62
7
  6
CONTINUOUS
 10
22.9765509712
 20
-35.169494536
 11
23.147434947
 21
-35.3185387493
  0
LINE
  5
3D4
100
AcDbEntity
  8
0
100
AcDbLine
 62
7
  6
CONTINUOUS
 10
-2.6330506927
 20
-1.3163107499
 11
-3.7290697391
 21
3.7299469924
  0
LINE
  5
3D5
100
AcDbEntity
  8
0
100
AcDbLine
 62
7
  6
CONTINUOUS
 10
-2.5420621161
 20
-1.0024547525
 11
-3.5876483828
 21
3.811601911
  0
LINE
  5
3D6
100
AcDbEntity
  8
0
100
AcDbLine
 62
7
  6
CONTINUOUS
 10
6.7453397802
 20
-2.317828643
 11
6.7453397802
 21
-9.0948373003
  0
LINE
  5
3D7
100
AcDbEntity
  8
0
100
AcDbLine
 62
7
  6
CONTINUOUS
 10
7.9030114668
 20
-5.8891395362
 11
7.9029980318
 21
-4.2399875563
  0
LINE
  5
3D8
100
AcDbEntity
  8
0
100
AcDbLine
 62
7
  6
CONTINUOUS
 10
8.0444328231
 20
-5.8074846175
 11
8.0444207185
 21
-4.3216432431
  0
LINE
  5
3D9
100
AcDbEntity
  8
0
100
AcDbLine
 62
7
  6
CONTINUOUS
 10
7.919196434
 20
-9.7726074203
 11
7.9193272487
 21
-7.1523016118
  0
LINE
  5
3DA
100
AcDbEntity
  8
0
100
AcDbLine
 62
7
  6
CONTINUOUS
 10
8.0606177902
 20
-9.6909525016
 11
8.0607404521
 21
-7.2339541897
  0
LINE
  5
3DB
100
AcDbEntity
  8
0
100
AcDbLine
 62
253
  6
CONTINUOUS
 10
-7.9246212025
 20
-28.6295624504
 11
-6.5104076401
 21
-27.8131710835
  0
LINE
  5
3DC
100
AcDbEntity
  8
0
100
AcDbLine
 62
7
  6
CONTINUOUS
 10
-7.4246439358
 20
-28.9182298538
 11
-6.1568784108
 21
-28.1863794053
  0
LINE
  5
3DD
100
AcDbEntity
  8
0
100
AcDbLine
 62
7
  6
CONTINUOUS
 10
25.2834868448
 20
-35.544309258
 11
25.1126023801
 21
-35.3448868153
  0
LINE
  5
3DE
100
AcDbEntity
  8
0
100
AcDbLine
 62
7
  6
CONTINUOUS
 10
25.424908201
 20
-35.4626543394
 11
25.2540237363
 21
-35.2632318966
  0
LINE
  5
3DF
100
AcDbEntity
  8
0
100
AcDbLine
 62
7
  6
CONTINUOUS
 10
20.4132888894
 20
-34.7474361508
 11
20.6268942258
 21
-35.02190305
  0
LINE
  5
3E0
100
AcDbEntity
  8
0
100
AcDbLine
 62
7
  6
CONTINUOUS
 10
22.293014579
 20
-35.8327662055
 11
22.5066194265
 21
-36.1072328224
  0
LINE
  5
3E1
100
AcDbEntity
  8
0
100
AcDbLine
 62
7
  6
CONTINUOUS
 10
21.5240359545
 20
-34.2804526224
 11
21.310430618
 21
-34.0059857365
  0
LINE
  5
3E2
100
AcDbEntity
  8
0
100
AcDbLine
 62
7
  6
CONTINUOUS
 10
21.6654573107
 20
-34.1987977038
 11
21.4518519742
 21
-33.9243308179
  0
LINE
  5
3E3
100
AcDbEntity
  8
0
100
AcDbLine
 62
7
  6
CONTINUOUS
 10
23.4037611552
 20
-35.3657823948
 11
23.1901563076
 21
-35.0913157912
  0
LINE
  5
3E4
100
AcDbEntity
  8
0
100
AcDbLine
 62
7
  6
CONTINUOUS
 10
23.5451825114
 20
-35.2841274762
 11
23.3315776639
 21
-35.0096608726
  0
LINE
  5
3E5
100
AcDbEntity
  8
0
100
AcDbLine
 62
7
  6
CONTINUOUS
 10
20.6696150976
 20
-34.7946797788
 11
20.5414519935
 21
-34.6199241143
  0
LINE
  5
3E6
100
AcDbEntity
  8
0
100
AcDbLine
 62
7
  6
CONTINUOUS
 10
20.8110364538
 20
-34.7130248601
 11
20.6828733497
 21
-34.5382691956
  0
LINE
  5
3E7
100
AcDbEntity
  8
0
100
AcDbLine
 62
7
  6
CONTINUOUS
 10
21.2677097463
 20
-34.2332089768
 11
21.3958728504
 21
-34.4079646414
  0
LINE
  5
3E8
100
AcDbEntity
  8
0
100
AcDbLine
 62
7
  6
CONTINUOUS
 10
22.5493407872
 20
-35.8800098335
 11
22.4211776831
 21
-35.705254169
  0
LINE
  5
3E9
100
AcDbEntity
  8
0
100
AcDbLine
 62
7
  6
CONTINUOUS
 10
22.6907621434
 20
-35.7983549148
 11
22.5625990393
 21
-35.6235992503
  0
LINE
  5
3EA
100
AcDbEntity
  8
0
100
AcDbLine
 62
7
  6
CONTINUOUS
 10
23.147434947
 20
-35.3185387493
 11
23.2755980511
 21
-35.4932944138
  0
LINE
  5
3EB
100
AcDbEntity
  8
0
100
AcDbLine
 62
7
  6
CONTINUOUS
 10
4.4183595507
 20
-6.4185273174
 11
4.7889273446
 21
-7.9652292796
  0
LINE
  5
3EC
100
AcDbEntity
  8
0
100
AcDbLine
 62
7
  6
CONTINUOUS
 10
3.491398422
 20
-2.5497328391
 11
4.0602934046
 21
-4.9241609811
  0
LINE
  5
3ED
100
AcDbEntity
  8
0
100
AcDbLine
 62
7
  6
CONTINUOUS
 10
5.9627839984
 20
-8.6430165454
 11
4.0783550331
 21
-0.7779450752
  0
LINE
  5
3EE
100
AcDbEntity
  8
0
100
AcDbLine
 62
7
  6
CONTINUOUS
 10
6.1042053546
 20
-8.5613616268
 11
4.2197763893
 21
-0.6962901565
  0
LINE
  5
3EF
100
AcDbEntity
  8
0
100
AcDbLine
 62
253
  6
CONTINUOUS
 10
28.1576250942
 20
-10.2723075945
 11
27.450518313
 21
-10.6805821878
  0
LINE
  5
3F0
100
AcDbEntity
  8
0
100
AcDbLine
 62
253
  6
CONTINUOUS
 10
28.6993003146
 20
-10.8767173772
 11
27.9921935334
 21
-11.2849919705
  0
LINE
  5
3F1
100
AcDbEntity
  8
0
100
AcDbLine
 62
7
  6
CONTINUOUS
 10
10.1201688209
 20
-11.0434212918
 11
11.4423192017
 21
-11.8067972054
  0
LINE
  5
3F2
100
AcDbEntity
  8
0
100
AcDbLine
 62
7
  6
CONTINUOUS
 10
-5.5036015826
 20
-2.0224692186
 11
-4.3297597781
 21
-2.7002307648
  0
LINE
  5
3F3
100
AcDbEntity
  8
0
100
AcDbLine
 62
7
  6
CONTINUOUS
 10
-0.9363416073
 20
-4.6595478871
 11
0.2375001972
 21
-5.3373094333
  0
LINE
  5
3F4
100
AcDbEntity
  8
0
100
AcDbLine
 62
7
  6
CONTINUOUS
 10
4.7889273446
 20
-7.9652292796
 11
5.9627839984
 21
-8.6430165454
  0
LINE
  5
3F5
100
AcDbEntity
  8
0
100
AcDbLine
 62
7
  6
CONTINUOUS
 10
6.7453397802
 20
-9.0948373003
 11
7.919196434
 21
-9.7726074203
  0
LINE
  5
3F6
100
AcDbEntity
  8
0
100
AcDbLine
 62
7
  6
CONTINUOUS
 10
1.0200559791
 20
-5.789147334
 11
2.1938963694
 21
-6.4668909178
  0
LINE
  5
3F7
100
AcDbEntity
  8
0
100
AcDbLine
 62
7
  6
CONTINUOUS
 10
-3.2199641703
 20
-3.3410128397
 11
-2.0461520643
 21
-4.0187400925
  0
LINE
  5
3F8
100
AcDbEntity
  8
0
100
AcDbLine
 62
7
  6
CONTINUOUS
 10
-7.8512540789
 20
-0.6669812361
 11
-6.6774136886
 21
-1.3447248199
  0
LINE
  5
3F9
100
AcDbEntity
  8
0
100
AcDbLine
 62
7
  6
CONTINUOUS
 10
-11.692110329
 20
1.5506810255
 11
-10.518225391
 21
0.8729117204
  0
LINE
  5
3FA
100
AcDbEntity
  8
0
100
AcDbLine
 62
7
  6
CONTINUOUS
 10
2.5644790126
 20
-5.3481199293
 11
4.4183595507
 21
-6.4185273174
  0
LINE
  5
3FB
100
AcDbEntity
  8
0
100
AcDbLine
 62
7
  6
CONTINUOUS
 10
4.0602934046
 20
-4.9241609811
 11
2.9225317236
 21
-4.267231646
  0
LINE
  5
3FC
100
AcDbEntity
  8
0
100
AcDbLine
 62
7
  6
CONTINUOUS
 10
7.9193272487
 20
-7.1523016118
 11
8.9438323437
 21
-7.7438551594
  0
LINE
  5
3FD
100
AcDbEntity
  8
0
100
AcDbLine
 62
7
  6
CONTINUOUS
 10
4.0148837387
 20
-4.7346321718
 11
3.0639530799
 21
-4.1855767274
  0
LINE
  5
3FE
100
AcDbEntity
  8
0
100
AcDbLine
 62
7
  6
CONTINUOUS
 10
25.0271606366
 20
-35.5474435597
 11
25.1553237407
 21
-35.7221992242
  0
LINE
  5
3FF
100
AcDbEntity
  8
0
100
AcDbLine
 62
7
  6
CONTINUOUS
 10
20.2851257853
 20
-34.4719245742
 11
20.4132888894
 21
-34.7474361508
  0
LINE
  5
400
100
AcDbEntity
  8
0
100
AcDbLine
 62
7
  6
CONTINUOUS
 10
21.6521990586
 20
-34.5559641815
 11
21.5240359545
 21
-34.2804526224
  0
LINE
  5
401
100
AcDbEntity
  8
0
100
AcDbLine
 62
7
  6
CONTINUOUS
 10
22.1648514749
 20
-35.5572546289
 11
22.293014579
 21
-35.8327662055
  0
LINE
  5
402
100
AcDbEntity
  8
0
100
AcDbLine
 62
7
  6
CONTINUOUS
 10
21.7936204148
 20
-34.4743092628
 11
21.6654573107
 21
-34.1987977038
  0
LINE
  5
403
100
AcDbEntity
  8
0
100
AcDbLine
 62
7
  6
CONTINUOUS
 10
8.9438323437
 20
-7.7438551594
 11
10.1201688209
 21
-11.0434212918
  0
LINE
  5
404
100
AcDbEntity
  8
0
100
AcDbLine
 62
7
  6
CONTINUOUS
 10
11.4423192017
 20
-11.8067972054
 11
10.1928244562
 21
-8.3020044956
  0
LINE
  5
405
100
AcDbEntity
  8
0
100
AcDbLine
 62
7
  6
CONTINUOUS
 10
16.2693485034
 20
-32.2540209956
 11
15.671254038
 21
-29.8431926632
  0
LINE
  5
406
100
AcDbEntity
  8
0
100
AcDbLine
 62
7
  6
CONTINUOUS
 10
16.3637035522
 20
-31.9826489099
 11
15.8126753943
 21
-29.7615377446
  0
LINE
  5
407
100
AcDbEntity
  8
0
100
AcDbLine
 62
7
  6
CONTINUOUS
 10
15.4149278299
 20
-29.6951931232
 11
16.0984644054
 21
-32.4576223778
  0
LINE
  5
408
100
AcDbEntity
  8
0
100
AcDbLine
 62
253
  6
CONTINUOUS
 10
15.7684812205
 20
-38.1456644335
 11
15.7684812205
 21
-39.7786049871
  0
LINE
  5
409
100
AcDbEntity
  8
0
100
AcDbLine
 62
253
  6
CONTINUOUS
 10
16.4755880016
 20
-38.1456644335
 11
16.4755880016
 21
-39.7786049871
  0
LINE
  5
40A
100
AcDbEntity
  8
0
100
AcDbLine
 62
7
  6
CONTINUOUS
 10
19.892643338
 20
-23.4234543846
 11
19.7512219817
 21
-23.5051068538
  0
LINE
  5
40B
100
AcDbEntity
  8
0
100
AcDbLine
 62
7
  6
CONTINUOUS
 10
19.892643338
 20
-24.0364741484
 11
19.7512219817
 21
-24.118129067
  0
LINE
  5
40C
100
AcDbEntity
  8
0
100
AcDbLine
 62
253
  6
CONTINUOUS
 10
42.0731115959
 20
-26.4717562313
 11
32.8328171584
 21
-21.1365260312
  0
LINE
  5
40D
100
AcDbEntity
  8
0
100
AcDbLine
 62
253
  6
CONTINUOUS
 10
-34.2470307208
 20
17.5945374263
 11
-43.4873251583
 21
22.9297676264
  0
LINE
  5
40E
100
AcDbEntity
  8
0
100
AcDbLine
 62
253
  6
CONTINUOUS
 10
42.4266649865
 20
-25.8593837962
 11
33.186370549
 21
-20.5241535961
  0
LINE
  5
40F
100
AcDbEntity
  8
0
100
AcDbLine
 62
253
  6
CONTINUOUS
 10
-33.8934773302
 20
18.2069098614
 11
-43.1337717677
 21
23.5421400615
  0
LINE
  5
410
100
AcDbEntity
  8
0
100
AcDbLine
 62
7
  6
CONTINUOUS
 10
9.3311735336
 20
-6.7137424144
 11
7.9030114668
 21
-5.8891395362
  0
LINE
  5
411
100
AcDbEntity
  8
0
100
AcDbLine
 62
7
  6
CONTINUOUS
 10
9.4725976218
 20
-6.6320890732
 11
8.0444328231
 21
-5.8074846175
  0
LINE
  5
412
100
AcDbEntity
  8
0
100
AcDbLine
 62
253
  6
CONTINUOUS
 10
-42.4266649865
 20
23.9504146548
 11
-33.186370549
 21
18.6151844547
  0
LINE
  5
413
100
AcDbEntity
  8
0
100
AcDbLine
 62
253
  6
CONTINUOUS
 10
33.8934773302
 20
-20.1158790028
 11
43.1337717677
 21
-25.4511092029
  0
LINE
  5
414
100
AcDbEntity
  8
0
100
AcDbLine
 62
7
  6
CONTINUOUS
 10
-42.1766529064
 20
23.9751852436
 11
-32.9363584689
 21
18.6399550435
  0
LINE
  5
415
100
AcDbEntity
  8
0
100
AcDbLine
 62
7
  6
CONTINUOUS
 10
34.1434894102
 20
-20.091108414
 11
43.3837838477
 21
-25.4263386141
  0
LINE
  5
416
100
AcDbEntity
  8
0
100
AcDbLine
 62
7
  6
CONTINUOUS
 10
7.9029980318
 20
-4.2399875563
 11
9.3311450946
 21
-5.0645817715
  0
LINE
  5
417
100
AcDbEntity
  8
0
100
AcDbLine
 62
7
  6
CONTINUOUS
 10
0.2375001972
 20
1.4396992239
 11
-1.5370330605
 21
2.4642924868
  0
LINE
  5
418
100
AcDbEntity
  8
0
100
AcDbLine
 62
7
  6
CONTINUOUS
 10
-3.7290697391
 20
3.7299469924
 11
-5.5036015826
 21
4.7545394387
  0
LINE
  5
419
100
AcDbEntity
  8
0
100
AcDbLine
 62
7
  6
CONTINUOUS
 10
-6.6773988394
 20
5.4322752636
 11
-7.8512406439
 21
6.1100368099
  0
LINE
  5
41A
100
AcDbEntity
  8
0
100
AcDbLine
 62
7
  6
CONTINUOUS
 10
-8.6337964257
 20
6.5618747106
 11
-9.8076516652
 21
7.239644014
  0
LINE
  5
41B
100
AcDbEntity
  8
0
100
AcDbLine
 62
7
  6
CONTINUOUS
 10
-12.4026677913
 20
8.737973802
 11
-13.576524445
 21
9.415743922
  0
LINE
  5
41C
100
AcDbEntity
  8
0
100
AcDbLine
 62
7
  6
CONTINUOUS
 10
9.4941055582
 20
-3.9049315531
 11
6.7453397802
 21
-2.317828643
  0
LINE
  5
41D
100
AcDbEntity
  8
0
100
AcDbLine
 62
7
  6
CONTINUOUS
 10
4.0783550331
 20
-0.7779450752
 11
2.9044552459
 21
-0.1001500505
  0
LINE
  5
41E
100
AcDbEntity
  8
0
100
AcDbLine
 62
7
  6
CONTINUOUS
 10
0.3789215535
 20
1.5213541426
 11
-1.3956117043
 21
2.5459474055
  0
LINE
  5
41F
100
AcDbEntity
  8
0
100
AcDbLine
 62
7
  6
CONTINUOUS
 10
-3.5876483828
 20
3.811601911
 11
-5.3621802264
 21
4.8361943574
  0
LINE
  5
420
100
AcDbEntity
  8
0
100
AcDbLine
 62
7
  6
CONTINUOUS
 10
-6.5359774831
 20
5.5139301823
 11
-7.7098192876
 21
6.1916917285
  0
LINE
  5
421
100
AcDbEntity
  8
0
100
AcDbLine
 62
7
  6
CONTINUOUS
 10
-8.4923750695
 20
6.6435296292
 11
-9.666230309
 21
7.3212989327
  0
LINE
  5
422
100
AcDbEntity
  8
0
100
AcDbLine
 62
7
  6
CONTINUOUS
 10
-12.261246435
 20
8.8196287207
 11
-13.4351030888
 21
9.4973988406
  0
LINE
  5
423
100
AcDbEntity
  8
0
100
AcDbLine
 62
7
  6
CONTINUOUS
 10
9.6355300116
 20
-3.8232784227
 11
6.8867611365
 21
-2.2361737243
  0
LINE
  5
424
100
AcDbEntity
  8
0
100
AcDbLine
 62
7
  6
CONTINUOUS
 10
4.2197763893
 20
-0.6962901565
 11
3.0458766021
 21
-0.0184951318
  0
LINE
  5
425
100
AcDbEntity
  8
0
100
AcDbLine
 62
7
  6
CONTINUOUS
 10
25.4543713095
 20
-35.8444875952
 11
25.2834868448
 21
-35.544309258
  0
LINE
  5
426
100
AcDbEntity
  8
0
100
AcDbLine
 62
7
  6
CONTINUOUS
 10
25.5957926658
 20
-35.7628326766
 11
25.424908201
 21
-35.4626543394
  0
LINE
  5
427
100
AcDbEntity
  8
0
100
AcDbLine
 62
7
  6
CONTINUOUS
 10
23.5319242593
 20
-35.6412939539
 11
23.4037611552
 21
-35.3657823948
  0
LINE
  5
428
100
AcDbEntity
  8
0
100
AcDbLine
 62
7
  6
CONTINUOUS
 10
23.6733456155
 20
-35.5596390352
 11
23.5451825114
 21
-35.2841274762
  0
LINE
  5
429
100
AcDbEntity
  8
0
100
AcDbLine
 62
7
  6
CONTINUOUS
 10
21.3958728504
 20
-34.4079646414
 11
21.4813145938
 21
-34.6084314749
  0
LINE
  5
42A
100
AcDbEntity
  8
0
100
AcDbLine
 62
7
  6
CONTINUOUS
 10
23.2755980511
 20
-35.4932944138
 11
23.3610402835
 21
-35.6937615296
  0
LINE
  5
42B
100
AcDbEntity
  8
0
100
AcDbLine
 62
7
  6
CONTINUOUS
 10
25.1553237407
 20
-35.7221992242
 11
25.2407654842
 21
-35.9226660578
  0
LINE
  5
42C
100
AcDbEntity
  8
0
100
AcDbLine
 62
7
  6
CONTINUOUS
 10
11.5837405579
 20
-11.7251422867
 11
10.364085684
 21
-8.3040494602
  0
LINE
  5
42D
100
AcDbEntity
  8
0
100
AcDbLine
 62
7
  6
CONTINUOUS
 10
20.1996835529
 20
-34.2210794758
 11
20.2851257853
 21
-34.4719245742
  0
LINE
  5
42E
100
AcDbEntity
  8
0
100
AcDbLine
 62
7
  6
CONTINUOUS
 10
20.5414519935
 20
-34.6199241143
 11
20.4560097611
 21
-34.3690790159
  0
LINE
  5
42F
100
AcDbEntity
  8
0
100
AcDbLine
 62
7
  6
CONTINUOUS
 10
20.6828733497
 20
-34.5382691956
 11
20.5974311173
 21
-34.2874240972
  0
LINE
  5
430
100
AcDbEntity
  8
0
100
AcDbLine
 62
7
  6
CONTINUOUS
 10
22.0794092425
 20
-35.3064095305
 11
22.1648514749
 21
-35.5572546289
  0
LINE
  5
431
100
AcDbEntity
  8
0
100
AcDbLine
 62
7
  6
CONTINUOUS
 10
22.4211776831
 20
-35.705254169
 11
22.3357354507
 21
-35.4544090706
  0
LINE
  5
432
100
AcDbEntity
  8
0
100
AcDbLine
 62
7
  6
CONTINUOUS
 10
22.5625990393
 20
-35.6235992503
 11
22.477156807
 21
-35.3727541519
  0
LINE
  5
433
100
AcDbEntity
  8
0
100
AcDbLine
 62
7
  6
CONTINUOUS
 10
21.737640802
 20
-34.8571869801
 11
21.6521990586
 21
-34.5559641815
  0
LINE
  5
434
100
AcDbEntity
  8
0
100
AcDbLine
 62
7
  6
CONTINUOUS
 10
21.8790621582
 20
-34.7755320614
 11
21.7936204148
 21
-34.4743092628
  0
LINE
  5
435
100
AcDbEntity
  8
0
100
AcDbLine
 62
253
  6
CONTINUOUS
 10
17.1826947828
 20
-38.3148283189
 11
17.1826947828
 21
-39.3703303937
  0
LINE
  5
436
100
AcDbEntity
  8
0
100
AcDbLine
 62
7
  6
CONTINUOUS
 10
17.3291413922
 20
-38.3993847557
 11
17.3291413922
 21
-39.1661930971
  0
LINE
  5
437
100
AcDbEntity
  8
0
100
AcDbLine
 62
7
  6
CONTINUOUS
 10
17.4655374953
 20
-30.8791894438
 11
17.4655374953
 21
-31.13107918
  0
LINE
  5
438
100
AcDbEntity
  8
0
100
AcDbLine
 62
7
  6
CONTINUOUS
 10
19.0034947444
 20
-32.0190764205
 11
19.0034947444
 21
-31.7671866843
  0
LINE
  5
439
100
AcDbEntity
  8
0
100
AcDbLine
 62
7
  6
CONTINUOUS
 10
19.1449161006
 20
-31.9374215019
 11
19.1449161006
 21
-31.6855317656
  0
LINE
  5
43A
100
AcDbEntity
  8
0
100
AcDbLine
 62
7
  6
CONTINUOUS
 10
19.3452629405
 20
-32.3171649881
 11
19.3452629405
 21
-32.7201887071
  0
LINE
  5
43B
100
AcDbEntity
  8
0
100
AcDbLine
 62
7
  6
CONTINUOUS
 10
19.6015893931
 20
-32.5155426165
 11
19.6015893931
 21
-34.4802828413
  0
LINE
  5
43C
100
AcDbEntity
  8
0
100
AcDbLine
 62
7
  6
CONTINUOUS
 10
19.7512219817
 20
-27.6659022667
 11
19.7512219817
 21
-27.0528825035
  0
LINE
  5
43D
100
AcDbEntity
  8
0
100
AcDbLine
 62
7
  6
CONTINUOUS
 10
19.7512219817
 20
-24.118129067
 11
19.7512219817
 21
-23.5051093032
  0
LINE
  5
43E
100
AcDbEntity
  8
0
100
AcDbLine
 62
7
  6
CONTINUOUS
 10
19.8579156013
 20
-34.6282823814
 11
19.8579156013
 21
-32.2605185787
  0
LINE
  5
43F
100
AcDbEntity
  8
0
100
AcDbLine
 62
7
  6
CONTINUOUS
 10
19.892643338
 20
-27.5842473339
 11
19.892643338
 21
-26.9712275701
  0
LINE
  5
440
100
AcDbEntity
  8
0
100
AcDbLine
 62
7
  6
CONTINUOUS
 10
19.892643338
 20
-24.0364741484
 11
19.892643338
 21
-23.4234543846
  0
LINE
  5
441
100
AcDbEntity
  8
0
100
AcDbLine
 62
7
  6
CONTINUOUS
 10
19.9993369575
 20
-34.5466274627
 11
19.9993369575
 21
-32.17886366
  0
LINE
  5
442
100
AcDbEntity
  8
0
100
AcDbLine
 62
7
  6
CONTINUOUS
 10
20.1996835529
 20
-32.4578511106
 11
20.1996835529
 21
-33.76767788
  0
LINE
  5
443
100
AcDbEntity
  8
0
100
AcDbLine
 62
7
  6
CONTINUOUS
 10
20.4132888894
 20
-33.639121188
 11
20.4132888894
 21
-32.833073891
  0
LINE
  5
444
100
AcDbEntity
  8
0
100
AcDbLine
 62
7
  6
CONTINUOUS
 10
16.8674429688
 20
-30.5338571601
 11
16.2693485034
 21
-32.2540209956
  0
LINE
  5
445
100
AcDbEntity
  8
0
100
AcDbLine
 62
253
  6
CONTINUOUS
 10
32.8101268893
 20
-18.9070594374
 11
32.1030201081
 21
-19.3153340308
  0
LINE
  5
446
100
AcDbEntity
  8
0
100
AcDbLine
 62
7
  6
CONTINUOUS
 10
19.892643338
 20
-26.9712275701
 11
19.7512219817
 21
-27.0528824888
  0
LINE
  5
447
100
AcDbEntity
  8
0
100
AcDbLine
 62
7
  6
CONTINUOUS
 10
22.9933843552
 20
-25.2137832904
 11
22.851962999
 21
-25.2954358558
  0
LINE
  5
448
100
AcDbEntity
  8
0
100
AcDbLine
 62
7
  6
CONTINUOUS
 10
15.5563491861
 20
-29.6135382045
 11
15.4149278299
 21
-29.6951931232
  0
LINE
  5
449
100
AcDbEntity
  8
0
100
AcDbLine
 62
7
  6
CONTINUOUS
 10
21.6778092812
 20
-26.2284069477
 11
21.5363908326
 21
-26.3100635452
  0
LINE
  5
44A
100
AcDbEntity
  8
0
100
AcDbLine
 62
7
  6
CONTINUOUS
 10
15.8126753943
 20
-29.7615377446
 11
15.671254038
 21
-29.8431926632
  0
LINE
  5
44B
100
AcDbEntity
  8
0
100
AcDbLine
 62
7
  6
CONTINUOUS
 10
19.892643338
 20
-27.5842473339
 11
19.7512219817
 21
-27.665904702
  0
LINE
  5
44C
100
AcDbEntity
  8
0
100
AcDbLine
 62
7
  6
CONTINUOUS
 10
22.9933843552
 20
-25.8268031503
 11
22.851962999
 21
-25.908458069
  0
LINE
  5
44D
100
AcDbEntity
  8
0
100
AcDbLine
 62
253
  6
CONTINUOUS
 10
33.8934773302
 20
-20.1158790028
 11
33.186370549
 21
-20.5241535961
  0
LINE
  5
44E
100
AcDbEntity
  8
0
100
AcDbLine
 62
7
  6
CONTINUOUS
 10
22.7105416427
 20
-26.8246936701
 11
22.5691202865
 21
-26.9063485887
  0
LINE
  5
44F
100
AcDbEntity
  8
0
100
AcDbLine
 62
7
  6
CONTINUOUS
 10
17.008864325
 20
-30.4522022414
 11
16.8674429688
 21
-30.5338571601
  0
LINE
  5
450
100
AcDbEntity
  8
0
100
AcDbLine
 62
253
  6
CONTINUOUS
 10
27.0969649224
 20
-11.2929546229
 11
-28.5111784848
 21
20.8144904467
  0
LINE
  5
451
100
AcDbEntity
  8
0
100
AcDbLine
 62
253
  6
CONTINUOUS
 10
27.450518313
 20
-10.6805821878
 11
-28.1576250942
 21
21.4268628818
  0
LINE
  5
452
100
AcDbEntity
  8
0
100
AcDbLine
 62
253
  6
CONTINUOUS
 10
-27.450518313
 20
21.8351374751
 11
28.1576250942
 21
-10.2723075945
  0
LINE
  5
453
100
AcDbEntity
  8
0
100
AcDbLine
 62
7
  6
CONTINUOUS
 10
-27.2005062329
 20
21.8599080639
 11
28.4076371743
 21
-10.2475370057
  0
LINE
  5
454
100
AcDbEntity
  8
0
100
AcDbLine
 62
7
  6
CONTINUOUS
 10
23.6173664916
 20
-35.9425170348
 11
23.5319242593
 21
-35.6412939539
  0
LINE
  5
455
100
AcDbEntity
  8
0
100
AcDbLine
 62
7
  6
CONTINUOUS
 10
23.7587878479
 20
-35.8608621161
 11
23.6733456155
 21
-35.5596390352
  0
LINE
  5
456
100
AcDbEntity
  8
0
100
AcDbLine
 62
7
  6
CONTINUOUS
 10
21.4813145938
 20
-34.6084314749
 11
21.5240359545
 21
-34.7842321654
  0
LINE
  5
457
100
AcDbEntity
  8
0
100
AcDbLine
 62
7
  6
CONTINUOUS
 10
23.3610402835
 20
-35.6937615296
 11
23.4037611552
 21
-35.8695619378
  0
LINE
  5
458
100
AcDbEntity
  8
0
100
AcDbLine
 62
7
  6
CONTINUOUS
 10
20.5547102456
 20
-33.5574662693
 11
20.5547102456
 21
-32.9147288096
  0
LINE
  5
459
100
AcDbEntity
  8
0
100
AcDbLine
 62
7
  6
CONTINUOUS
 10
20.8546247918
 20
-42.595699681
 11
20.8546247918
 21
-40.9627591274
  0
LINE
  5
45A
100
AcDbEntity
  8
0
100
AcDbLine
 62
253
  6
CONTINUOUS
 10
21.0010714012
 20
-42.7998369777
 11
21.0010714012
 21
-41.1668964241
  0
LINE
  5
45B
100
AcDbEntity
  8
0
100
AcDbLine
 62
7
  6
CONTINUOUS
 10
21.5240359545
 20
-34.7842321654
 11
21.5240359545
 21
-34.8849880599
  0
LINE
  5
45C
100
AcDbEntity
  8
0
100
AcDbLine
 62
7
  6
CONTINUOUS
 10
21.6521990586
 20
-33.5484050955
 11
21.6521990586
 21
-33.2965153592
  0
LINE
  5
45D
100
AcDbEntity
  8
0
100
AcDbLine
 62
7
  6
CONTINUOUS
 10
21.737640802
 20
-35.058698769
 11
21.737640802
 21
-34.8571869801
  0
LINE
  5
45E
100
AcDbEntity
  8
0
100
AcDbLine
 62
7
  6
CONTINUOUS
 10
21.7936204148
 20
-33.4667501768
 11
21.7936204148
 21
-33.2148604406
  0
LINE
  5
45F
100
AcDbEntity
  8
0
100
AcDbLine
 62
7
  6
CONTINUOUS
 10
21.8790621582
 20
-34.9770438504
 11
21.8790621582
 21
-34.7755320614
  0
LINE
  5
460
100
AcDbEntity
  8
0
100
AcDbLine
 62
7
  6
CONTINUOUS
 10
22.0794092425
 20
-33.5431811653
 11
22.0794092425
 21
-34.8530079347
  0
LINE
  5
461
100
AcDbEntity
  8
0
100
AcDbLine
 62
7
  6
CONTINUOUS
 10
22.293014579
 20
-34.7244512427
 11
22.293014579
 21
-33.9184039457
  0
LINE
  5
462
100
AcDbEntity
  8
0
100
AcDbLine
 62
7
  6
CONTINUOUS
 10
22.4344359352
 20
-34.642796324
 11
22.4344359352
 21
-34.0000588643
  0
LINE
  5
463
100
AcDbEntity
  8
0
100
AcDbLine
 62
7
  6
CONTINUOUS
 10
22.5691202865
 20
-27.5187012963
 11
22.5691202865
 21
-26.9063485887
  0
LINE
  5
464
100
AcDbEntity
  8
0
100
AcDbLine
 62
7
  6
CONTINUOUS
 10
22.7105416427
 20
-27.4370463776
 11
22.7105416427
 21
-26.8246936701
  0
LINE
  5
465
100
AcDbEntity
  8
0
100
AcDbLine
 62
7
  6
CONTINUOUS
 10
22.851962999
 20
-29.4562313642
 11
22.851962999
 21
-28.8432086004
  0
LINE
  5
466
100
AcDbEntity
  8
0
100
AcDbLine
 62
7
  6
CONTINUOUS
 10
22.851962999
 20
-25.908458069
 11
22.851962999
 21
-25.2954385686
  0
LINE
  5
467
100
AcDbEntity
  8
0
100
AcDbLine
 62
7
  6
CONTINUOUS
 10
22.9933843552
 20
-29.374576432
 11
22.9933843552
 21
-28.7615540831
  0
LINE
  5
468
100
AcDbEntity
  8
0
100
AcDbLine
 62
7
  6
CONTINUOUS
 10
22.9933843552
 20
-25.8268031503
 11
22.9933843552
 21
-25.2137832904
  0
LINE
  5
469
100
AcDbEntity
  8
0
100
AcDbLine
 62
7
  6
CONTINUOUS
 10
23.4037611552
 20
-35.8695619378
 11
23.4037611552
 21
-35.9703178323
  0
LINE
  5
46A
100
AcDbEntity
  8
0
100
AcDbLine
 62
7
  6
CONTINUOUS
 10
23.5319242593
 20
-34.6337348679
 11
23.5319242593
 21
-34.3818451316
  0
LINE
  5
46B
100
AcDbEntity
  8
0
100
AcDbLine
 62
7
  6
CONTINUOUS
 10
23.6173664916
 20
-36.1440288237
 11
23.6173664916
 21
-35.9425170348
  0
LINE
  5
46C
100
AcDbEntity
  8
0
100
AcDbLine
 62
7
  6
CONTINUOUS
 10
23.6733456155
 20
-34.5520799492
 11
23.6733456155
 21
-34.300190213
  0
LINE
  5
46D
100
AcDbEntity
  8
0
100
AcDbLine
 62
7
  6
CONTINUOUS
 10
23.7587878479
 20
-36.0623739051
 11
23.7587878479
 21
-35.8608621161
  0
LINE
  5
46E
100
AcDbEntity
  8
0
100
AcDbLine
 62
7
  6
CONTINUOUS
 10
23.9591344433
 20
-36.7443849689
 11
23.9591344433
 21
-36.9962747404
  0
LINE
  5
46F
100
AcDbEntity
  8
0
100
AcDbLine
 62
7
  6
CONTINUOUS
 10
16.4402326626
 20
-32.6549550862
 11
17.123769177
 21
-30.6818567002
  0
LINE
  5
470
100
AcDbEntity
  8
0
100
AcDbLine
 62
7
  6
CONTINUOUS
 10
16.5816540188
 20
-32.5733001675
 11
17.2651905332
 21
-30.6002017815
  0
LINE
  5
471
100
AcDbEntity
  8
0
100
AcDbLine
 62
7
  6
CONTINUOUS
 10
18.7471685362
 20
-31.8710768804
 11
17.8927479238
 21
-33.4936191937
  0
LINE
  5
472
100
AcDbEntity
  8
0
100
AcDbLine
 62
7
  6
CONTINUOUS
 10
18.1490741319
 20
-33.6416187338
 11
19.0034947444
 21
-32.0190764205
  0
LINE
  5
473
100
AcDbEntity
  8
0
100
AcDbLine
 62
7
  6
CONTINUOUS
 10
18.2904954882
 20
-33.5599638151
 11
19.1449161006
 21
-31.9374215019
  0
LINE
  5
474
100
AcDbEntity
  8
0
100
AcDbLine
 62
7
  6
CONTINUOUS
 10
19.6015893931
 20
-32.1125190386
 11
19.3452629405
 21
-32.3171649881
  0
LINE
  5
475
100
AcDbEntity
  8
0
100
AcDbLine
 62
7
  6
CONTINUOUS
 10
22.7105416427
 20
-27.4370463776
 11
22.5691202865
 21
-27.5187012963
  0
LINE
  5
476
100
AcDbEntity
  8
0
100
AcDbLine
 62
7
  6
CONTINUOUS
 10
17.2651905332
 20
-30.6002017815
 11
17.123769177
 21
-30.6818567002
  0
LINE
  5
477
100
AcDbEntity
  8
0
100
AcDbLine
 62
7
  6
CONTINUOUS
 10
17.6069588515
 20
-30.7975345252
 11
17.4655374953
 21
-30.8791894438
  0
LINE
  5
478
100
AcDbEntity
  8
0
100
AcDbLine
 62
7
  6
CONTINUOUS
 10
22.9933843552
 20
-28.7615540831
 11
22.851962999
 21
-28.8432114907
  0
LINE
  5
479
100
AcDbEntity
  8
0
100
AcDbLine
 62
7
  6
CONTINUOUS
 10
16.5816540188
 20
-32.5733001675
 11
16.4402326626
 21
-32.6549550862
  0
LINE
  5
47A
100
AcDbEntity
  8
0
100
AcDbLine
 62
7
  6
CONTINUOUS
 10
22.9933843552
 20
-29.374576432
 11
22.851962999
 21
-29.4562337039
  0
LINE
  5
47B
100
AcDbEntity
  8
0
100
AcDbLine
 62
7
  6
CONTINUOUS
 10
19.1449161006
 20
-31.6855317656
 11
19.0034947444
 21
-31.7671866843
  0
LINE
  5
47C
100
AcDbEntity
  8
0
100
AcDbLine
 62
7
  6
CONTINUOUS
 10
19.1449161006
 20
-31.9374215019
 11
19.0034947444
 21
-32.0190764205
  0
LINE
  5
47D
100
AcDbEntity
  8
0
100
AcDbLine
 62
7
  6
CONTINUOUS
 10
19.7430107493
 20
-32.0308641199
 11
19.6015893931
 21
-32.1125190386
  0
LINE
  5
47E
100
AcDbEntity
  8
0
100
AcDbLine
 62
7
  6
CONTINUOUS
 10
19.9993369575
 20
-32.17886366
 11
19.8579156013
 21
-32.2605185787
  0
LINE
  5
47F
100
AcDbEntity
  8
0
100
AcDbLine
 62
7
  6
CONTINUOUS
 10
19.4866842967
 20
-32.6385337885
 11
19.3452629405
 21
-32.7201887071
  0
LINE
  5
480
100
AcDbEntity
  8
0
100
AcDbLine
 62
7
  6
CONTINUOUS
 10
18.2904954882
 20
-33.5599638151
 11
18.1490741319
 21
-33.6416187338
  0
LINE
  5
481
100
AcDbEntity
  8
0
100
AcDbLine
 62
7
  6
CONTINUOUS
 10
20.3411049092
 20
-32.3761961919
 11
20.1996835529
 21
-32.4578511106
  0
LINE
  5
482
100
AcDbEntity
  8
0
100
AcDbLine
 62
7
  6
CONTINUOUS
 10
20.4987311217
 20
-33.9403441983
 11
20.6696150976
 21
-33.8878766226
  0
LINE
  5
483
100
AcDbEntity
  8
0
100
AcDbLine
 62
7
  6
CONTINUOUS
 10
22.3784563225
 20
-35.0256739707
 11
22.5493407872
 21
-34.9732066773
  0
LINE
  5
484
100
AcDbEntity
  8
0
100
AcDbLine
 62
7
  6
CONTINUOUS
 10
25.4970916923
 20
-36.0706655979
 11
25.4543713095
 21
-35.8444875952
  0
LINE
  5
485
100
AcDbEntity
  8
0
100
AcDbLine
 62
7
  6
CONTINUOUS
 10
25.6385130486
 20
-35.9890106792
 11
25.5957926658
 21
-35.7628326766
  0
LINE
  5
486
100
AcDbEntity
  8
0
100
AcDbLine
 62
7
  6
CONTINUOUS
 10
25.2407654842
 20
-35.9226660578
 11
25.2407654842
 21
-36.0234220934
  0
LINE
  5
487
100
AcDbEntity
  8
0
100
AcDbLine
 62
7
  6
CONTINUOUS
 10
25.4970916923
 20
-37.8842719809
 11
25.4970916923
 21
-37.6323822094
  0
LINE
  5
488
100
AcDbEntity
  8
0
100
AcDbLine
 62
7
  6
CONTINUOUS
 10
25.4970916923
 20
-36.1714216335
 11
25.4970916923
 21
-36.0706655979
  0
LINE
  5
489
100
AcDbEntity
  8
0
100
AcDbLine
 62
7
  6
CONTINUOUS
 10
25.6385130486
 20
-37.8026170622
 11
25.6385130486
 21
-37.5507272907
  0
LINE
  5
48A
100
AcDbEntity
  8
0
100
AcDbLine
 62
7
  6
CONTINUOUS
 10
25.6385130486
 20
-36.0897667148
 11
25.6385130486
 21
-35.9890106792
  0
LINE
  5
48B
100
AcDbEntity
  8
0
100
AcDbLine
 62
7
  6
CONTINUOUS
 10
24.0445771645
 20
-35.0304901248
 11
24.0018558039
 21
-35.2073351356
  0
LINE
  5
48C
100
AcDbEntity
  8
0
100
AcDbLine
 62
7
  6
CONTINUOUS
 10
21.5240359545
 20
-34.8849880599
 11
21.4813145938
 21
-35.0114551235
  0
LINE
  5
48D
100
AcDbEntity
  8
0
100
AcDbLine
 62
7
  6
CONTINUOUS
 10
23.4037611552
 20
-35.9703178323
 11
23.3610402835
 21
-36.0967851781
  0
LINE
  5
48E
100
AcDbEntity
  8
0
100
AcDbLine
 62
7
  6
CONTINUOUS
 10
21.6521990586
 20
-35.2612555487
 11
21.737640802
 21
-35.058698769
  0
LINE
  5
48F
100
AcDbEntity
  8
0
100
AcDbLine
 62
7
  6
CONTINUOUS
 10
21.7936204148
 20
-35.17960063
 11
21.8790621582
 21
-34.9770438504
  0
LINE
  5
490
100
AcDbEntity
  8
0
100
AcDbLine
 62
7
  6
CONTINUOUS
 10
21.4813145938
 20
-35.0114551235
 11
21.3958728504
 21
-35.1132560086
  0
LINE
  5
491
100
AcDbEntity
  8
0
100
AcDbLine
 62
7
  6
CONTINUOUS
 10
21.5240359545
 20
-35.3887675853
 11
21.6521990586
 21
-35.2612555487
  0
LINE
  5
492
100
AcDbEntity
  8
0
100
AcDbLine
 62
7
  6
CONTINUOUS
 10
21.6654573107
 20
-35.3071126666
 11
21.7936204148
 21
-35.17960063
  0
LINE
  5
493
100
AcDbEntity
  8
0
100
AcDbLine
 62
7
  6
CONTINUOUS
 10
19.3452629405
 20
-32.7201887071
 11
19.6015893931
 21
-32.5155426165
  0
LINE
  5
494
100
AcDbEntity
  8
0
100
AcDbLine
 62
7
  6
CONTINUOUS
 10
19.4866842967
 20
-32.6385337885
 11
19.6015893931
 21
-32.5467957781
  0
LINE
  5
495
100
AcDbEntity
  8
0
100
AcDbLine
 62
7
  6
CONTINUOUS
 10
24.2154606514
 20
-34.9276443195
 11
24.0445771645
 21
-35.0304901248
  0
LINE
  5
496
100
AcDbEntity
  8
0
100
AcDbLine
 62
7
  6
CONTINUOUS
 10
20.5547102456
 20
-33.5574662693
 11
20.4132888894
 21
-33.639121188
  0
LINE
  5
497
100
AcDbEntity
  8
0
100
AcDbLine
 62
7
  6
CONTINUOUS
 10
20.7683155821
 20
-33.5296654718
 11
20.6268942258
 21
-33.6113203904
  0
LINE
  5
498
100
AcDbEntity
  8
0
100
AcDbLine
 62
7
  6
CONTINUOUS
 10
20.9819204296
 20
-33.6026202864
 11
20.8404990734
 21
-33.6842752051
  0
LINE
  5
499
100
AcDbEntity
  8
0
100
AcDbLine
 62
7
  6
CONTINUOUS
 10
21.7936204148
 20
-33.2148604406
 11
21.6521990586
 21
-33.2965153592
  0
LINE
  5
49A
100
AcDbEntity
  8
0
100
AcDbLine
 62
7
  6
CONTINUOUS
 10
20.3411049092
 20
-34.1394245571
 11
20.1996835529
 21
-34.2210794758
  0
LINE
  5
49B
100
AcDbEntity
  8
0
100
AcDbLine
 62
7
  6
CONTINUOUS
 10
21.2382466378
 20
-33.7506198265
 11
21.0968252816
 21
-33.8322747451
  0
LINE
  5
49C
100
AcDbEntity
  8
0
100
AcDbLine
 62
7
  6
CONTINUOUS
 10
21.7936204148
 20
-33.4667501768
 11
21.6521990586
 21
-33.5484050955
  0
LINE
  5
49D
100
AcDbEntity
  8
0
100
AcDbLine
 62
7
  6
CONTINUOUS
 10
19.9993369575
 20
-34.5466274627
 11
19.8579156013
 21
-34.6282823814
  0
LINE
  5
49E
100
AcDbEntity
  8
0
100
AcDbLine
 62
7
  6
CONTINUOUS
 10
20.5974311173
 20
-34.2874240972
 11
20.4560097611
 21
-34.3690790159
  0
LINE
  5
49F
100
AcDbEntity
  8
0
100
AcDbLine
 62
7
  6
CONTINUOUS
 10
22.2208305988
 20
-33.4615262466
 11
22.0794092425
 21
-33.5431811653
  0
LINE
  5
4A0
100
AcDbEntity
  8
0
100
AcDbLine
 62
7
  6
CONTINUOUS
 10
21.4518519742
 20
-33.9243308179
 11
21.310430618
 21
-34.0059857365
  0
LINE
  5
4A1
100
AcDbEntity
  8
0
100
AcDbLine
 62
7
  6
CONTINUOUS
 10
20.6828733497
 20
-34.5382691956
 11
20.5414519935
 21
-34.6199241143
  0
LINE
  5
4A2
100
AcDbEntity
  8
0
100
AcDbLine
 62
7
  6
CONTINUOUS
 10
21.6654573107
 20
-34.1987977038
 11
21.5240359545
 21
-34.2804526224
  0
LINE
  5
4A3
100
AcDbEntity
  8
0
100
AcDbLine
 62
7
  6
CONTINUOUS
 10
20.8110364538
 20
-34.7130248601
 11
20.6696150976
 21
-34.7946797788
  0
LINE
  5
4A4
100
AcDbEntity
  8
0
100
AcDbLine
 62
7
  6
CONTINUOUS
 10
20.9819204296
 20
-34.8620690733
 11
20.8404990734
 21
-34.943723992
  0
LINE
  5
4A5
100
AcDbEntity
  8
0
100
AcDbLine
 62
7
  6
CONTINUOUS
 10
21.7936204148
 20
-34.4743092628
 11
21.6521990586
 21
-34.5559641815
  0
LINE
  5
4A6
100
AcDbEntity
  8
0
100
AcDbLine
 62
7
  6
CONTINUOUS
 10
21.2382466378
 20
-35.0100686134
 11
21.0968252816
 21
-35.0917235321
  0
LINE
  5
4A7
100
AcDbEntity
  8
0
100
AcDbLine
 62
7
  6
CONTINUOUS
 10
21.8790621582
 20
-34.7755320614
 11
21.737640802
 21
-34.8571869801
  0
LINE
  5
4A8
100
AcDbEntity
  8
0
100
AcDbLine
 62
7
  6
CONTINUOUS
 10
21.4091311025
 20
-35.0583572144
 11
21.2677097463
 21
-35.1400121331
  0
LINE
  5
4A9
100
AcDbEntity
  8
0
100
AcDbLine
 62
7
  6
CONTINUOUS
 10
22.4344359352
 20
-34.642796324
 11
22.293014579
 21
-34.7244512427
  0
LINE
  5
4AA
100
AcDbEntity
  8
0
100
AcDbLine
 62
7
  6
CONTINUOUS
 10
21.8790621582
 20
-34.9770438504
 11
21.737640802
 21
-35.058698769
  0
LINE
  5
4AB
100
AcDbEntity
  8
0
100
AcDbLine
 62
253
  6
CONTINUOUS
 10
16.4755880016
 20
-38.1456644335
 11
16.6826506083
 21
-38.0261090795
  0
LINE
  5
4AC
100
AcDbEntity
  8
0
100
AcDbLine
 62
7
  6
CONTINUOUS
 10
22.6480407828
 20
-34.6149952442
 11
22.5066194265
 21
-34.6966501628
  0
LINE
  5
4AD
100
AcDbEntity
  8
0
100
AcDbLine
 62
7
  6
CONTINUOUS
 10
21.7936204148
 20
-35.17960063
 11
21.6521990586
 21
-35.2612555487
  0
LINE
  5
4AE
100
AcDbEntity
  8
0
100
AcDbLine
 62
7
  6
CONTINUOUS
 10
21.6654573107
 20
-35.3071126666
 11
21.5240359545
 21
-35.3887675853
  0
LINE
  5
4AF
100
AcDbEntity
  8
0
100
AcDbLine
 62
7
  6
CONTINUOUS
 10
22.8616461192
 20
-34.6879503411
 11
22.720224763
 21
-34.7696052598
  0
LINE
  5
4B0
100
AcDbEntity
  8
0
100
AcDbLine
 62
7
  6
CONTINUOUS
 10
23.6733456155
 20
-34.300190213
 11
23.5319242593
 21
-34.3818451316
  0
LINE
  5
4B1
100
AcDbEntity
  8
0
100
AcDbLine
 62
7
  6
CONTINUOUS
 10
22.2208305988
 20
-35.2247546118
 11
22.0794092425
 21
-35.3064095305
  0
LINE
  5
4B2
100
AcDbEntity
  8
0
100
AcDbLine
 62
7
  6
CONTINUOUS
 10
23.1179723274
 20
-34.8359498812
 11
22.9765509712
 21
-34.9176047998
  0
LINE
  5
4B3
100
AcDbEntity
  8
0
100
AcDbLine
 62
7
  6
CONTINUOUS
 10
23.6733456155
 20
-34.5520799492
 11
23.5319242593
 21
-34.6337348679
  0
LINE
  5
4B4
100
AcDbEntity
  8
0
100
AcDbLine
 62
7
  6
CONTINUOUS
 10
22.477156807
 20
-35.3727541519
 11
22.3357354507
 21
-35.4544090706
  0
LINE
  5
4B5
100
AcDbEntity
  8
0
100
AcDbLine
 62
7
  6
CONTINUOUS
 10
23.3315776639
 20
-35.0096608726
 11
23.1901563076
 21
-35.0913157912
  0
LINE
  5
4B6
100
AcDbEntity
  8
0
100
AcDbLine
 62
7
  6
CONTINUOUS
 10
22.5625990393
 20
-35.6235992503
 11
22.4211776831
 21
-35.705254169
  0
LINE
  5
4B7
100
AcDbEntity
  8
0
100
AcDbLine
 62
7
  6
CONTINUOUS
 10
23.5451825114
 20
-35.2841274762
 11
23.4037611552
 21
-35.3657823948
  0
LINE
  5
4B8
100
AcDbEntity
  8
0
100
AcDbLine
 62
7
  6
CONTINUOUS
 10
22.6907621434
 20
-35.7983549148
 11
22.5493407872
 21
-35.8800098335
  0
LINE
  5
4B9
100
AcDbEntity
  8
0
100
AcDbLine
 62
7
  6
CONTINUOUS
 10
24.3568820077
 20
-34.8459894008
 11
24.2154606514
 21
-34.9276443195
  0
LINE
  5
4BA
100
AcDbEntity
  8
0
100
AcDbLine
 62
7
  6
CONTINUOUS
 10
24.5277664724
 20
-34.8439000546
 11
24.3863451162
 21
-34.9255549733
  0
LINE
  5
4BB
100
AcDbEntity
  8
0
100
AcDbLine
 62
7
  6
CONTINUOUS
 10
22.8616461192
 20
-35.947399128
 11
22.720224763
 21
-36.0290540467
  0
LINE
  5
4BC
100
AcDbEntity
  8
0
100
AcDbLine
 62
7
  6
CONTINUOUS
 10
23.6733456155
 20
-35.5596390352
 11
23.5319242593
 21
-35.6412939539
  0
LINE
  5
4BD
100
AcDbEntity
  8
0
100
AcDbLine
 62
253
  6
CONTINUOUS
 10
16.4755880016
 20
-39.7786049871
 11
17.1826947828
 21
-39.3703303937
  0
LINE
  5
4BE
100
AcDbEntity
  8
0
100
AcDbLine
 62
7
  6
CONTINUOUS
 10
24.8268140412
 20
-34.9661884256
 11
24.685392685
 21
-35.0478433443
  0
LINE
  5
4BF
100
AcDbEntity
  8
0
100
AcDbLine
 62
7
  6
CONTINUOUS
 10
24.3568820077
 20
-35.2490129788
 11
24.2154606514
 21
-35.3306678974
  0
LINE
  5
4C0
100
AcDbEntity
  8
0
100
AcDbLine
 62
7
  6
CONTINUOUS
 10
23.1179723274
 20
-36.0953986681
 11
22.9765509712
 21
-36.1770535868
  0
LINE
  5
4C1
100
AcDbEntity
  8
0
100
AcDbLine
 62
7
  6
CONTINUOUS
 10
24.9976975281
 20
-35.0648544093
 11
24.8562761719
 21
-35.146509328
  0
LINE
  5
4C2
100
AcDbEntity
  8
0
100
AcDbLine
 62
7
  6
CONTINUOUS
 10
23.7587878479
 20
-35.8608621161
 11
23.6173664916
 21
-35.9425170348
  0
LINE
  5
4C3
100
AcDbEntity
  8
0
100
AcDbLine
 62
7
  6
CONTINUOUS
 10
23.2888563032
 20
-36.1436869868
 11
23.147434947
 21
-36.2253419055
  0
LINE
  5
4C4
100
AcDbEntity
  8
0
100
AcDbLine
 62
7
  6
CONTINUOUS
 10
25.1497355345
 20
-36.1638485355
 11
24.1005557995
 21
-36.6627300502
  0
LINE
  5
4C5
100
AcDbEntity
  8
0
100
AcDbLine
 62
7
  6
CONTINUOUS
 10
25.1553237407
 20
-36.1756008905
 11
23.9591344433
 21
-36.7443849689
  0
LINE
  5
4C6
100
AcDbEntity
  8
0
100
AcDbLine
 62
253
  6
CONTINUOUS
 10
31.4786291073
 20
-19.6255015745
 11
27.3678025326
 21
-11.5951595142
  0
LINE
  5
4C7
100
AcDbEntity
  8
0
100
AcDbLine
 62
253
  6
CONTINUOUS
 10
32.1030201081
 20
-19.3153340308
 11
27.9921935334
 21
-11.2849919705
  0
LINE
  5
4C8
100
AcDbEntity
  8
0
100
AcDbLine
 62
253
  6
CONTINUOUS
 10
28.6993003146
 20
-10.8767173772
 11
32.8101268893
 21
-18.9070594374
  0
LINE
  5
4C9
100
AcDbEntity
  8
0
100
AcDbLine
 62
7
  6
CONTINUOUS
 10
28.8735355465
 20
-10.7549096002
 11
32.9843621213
 21
-18.7852516605
  0
LINE
  5
4CA
100
AcDbEntity
  8
0
100
AcDbLine
 62
253
  6
CONTINUOUS
 10
28.8499566724
 20
-47.3316849636
 11
28.8499566724
 21
-45.69874441
  0
LINE
  5
4CB
100
AcDbEntity
  8
0
100
AcDbLine
 62
253
  6
CONTINUOUS
 10
29.5570634536
 20
-47.3316849636
 11
29.5570634536
 21
-45.69874441
  0
LINE
  5
4CC
100
AcDbEntity
  8
0
100
AcDbLine
 62
253
  6
CONTINUOUS
 10
30.2641702348
 20
-45.8679082954
 11
30.2641702348
 21
-46.9234103703
  0
LINE
  5
4CD
100
AcDbEntity
  8
0
100
AcDbLine
 62
7
  6
CONTINUOUS
 10
30.4106168442
 20
-45.9524647323
 11
30.4106168442
 21
-46.7192730736
  0
LINE
  5
4CE
100
AcDbEntity
  8
0
100
AcDbLine
 62
7
  6
CONTINUOUS
 10
25.4543713095
 20
-36.3482672088
 11
25.4970916923
 21
-36.1714216335
  0
LINE
  5
4CF
100
AcDbEntity
  8
0
100
AcDbLine
 62
7
  6
CONTINUOUS
 10
25.5957926658
 20
-36.2666122901
 11
25.6385130486
 21
-36.0897667148
  0
LINE
  5
4D0
100
AcDbEntity
  8
0
100
AcDbLine
 62
7
  6
CONTINUOUS
 10
23.5319242593
 20
-36.3465853211
 11
23.6173664916
 21
-36.1440288237
  0
LINE
  5
4D1
100
AcDbEntity
  8
0
100
AcDbLine
 62
7
  6
CONTINUOUS
 10
23.6733456155
 20
-36.2649304024
 11
23.7587878479
 21
-36.0623739051
  0
LINE
  5
4D2
100
AcDbEntity
  8
0
100
AcDbLine
 62
7
  6
CONTINUOUS
 10
25.2407654842
 20
-36.0234220934
 11
25.1553237407
 21
-36.1756008905
  0
LINE
  5
4D3
100
AcDbEntity
  8
0
100
AcDbLine
 62
7
  6
CONTINUOUS
 10
23.3610402835
 20
-36.0967851781
 11
23.2755980511
 21
-36.198585781
  0
LINE
  5
4D4
100
AcDbEntity
  8
0
100
AcDbLine
 62
7
  6
CONTINUOUS
 10
24.2154606514
 20
-35.3306678974
 11
24.3009033727
 21
-35.2288676121
  0
LINE
  5
4D5
100
AcDbEntity
  8
0
100
AcDbLine
 62
7
  6
CONTINUOUS
 10
24.3568820077
 20
-35.2490129788
 11
24.3892749121
 21
-35.2104186215
  0
LINE
  5
4D6
100
AcDbEntity
  8
0
100
AcDbLine
 62
7
  6
CONTINUOUS
 10
25.3689285883
 20
-36.4500674941
 11
25.4543713095
 21
-36.3482672088
  0
LINE
  5
4D7
100
AcDbEntity
  8
0
100
AcDbLine
 62
7
  6
CONTINUOUS
 10
25.5103499445
 20
-36.3684125755
 11
25.5957926658
 21
-36.2666122901
  0
LINE
  5
4D8
100
AcDbEntity
  8
0
100
AcDbLine
 62
7
  6
CONTINUOUS
 10
23.4037611552
 20
-36.4740973577
 11
23.5319242593
 21
-36.3465853211
  0
LINE
  5
4D9
100
AcDbEntity
  8
0
100
AcDbLine
 62
7
  6
CONTINUOUS
 10
23.5451825114
 20
-36.392442439
 11
23.6733456155
 21
-36.2649304024
  0
LINE
  5
4DA
100
AcDbEntity
  8
0
100
AcDbLine
 62
7
  6
CONTINUOUS
 10
23.7587878479
 20
-36.0623739051
 11
23.6173664916
 21
-36.1440288237
  0
LINE
  5
4DB
100
AcDbEntity
  8
0
100
AcDbLine
 62
7
  6
CONTINUOUS
 10
25.2540237363
 20
-35.2632318966
 11
25.1126023801
 21
-35.3448868153
  0
LINE
  5
4DC
100
AcDbEntity
  8
0
100
AcDbLine
 62
7
  6
CONTINUOUS
 10
23.6733456155
 20
-36.2649304024
 11
23.5319242593
 21
-36.3465853211
  0
LINE
  5
4DD
100
AcDbEntity
  8
0
100
AcDbLine
 62
7
  6
CONTINUOUS
 10
23.5451825114
 20
-36.392442439
 11
23.4037611552
 21
-36.4740973577
  0
LINE
  5
4DE
100
AcDbEntity
  8
0
100
AcDbLine
 62
253
  6
CONTINUOUS
 10
16.8291413922
 20
-40.3909774221
 11
17.5362481734
 21
-39.9827028288
  0
LINE
  5
4DF
100
AcDbEntity
  8
0
100
AcDbLine
 62
7
  6
CONTINUOUS
 10
25.424908201
 20
-35.4626543394
 11
25.2834868448
 21
-35.544309258
  0
LINE
  5
4E0
100
AcDbEntity
  8
0
100
AcDbLine
 62
253
  6
CONTINUOUS
 10
43.1337717677
 20
-25.4511092029
 11
42.4266649865
 21
-25.8593837962
  0
LINE
  5
4E1
100
AcDbEntity
  8
0
100
AcDbLine
 62
7
  6
CONTINUOUS
 10
25.5957926658
 20
-35.7628326766
 11
25.4543713095
 21
-35.8444875952
  0
LINE
  5
4E2
100
AcDbEntity
  8
0
100
AcDbLine
 62
7
  6
CONTINUOUS
 10
25.6385130486
 20
-35.9890106792
 11
25.4970916923
 21
-36.0706655979
  0
LINE
  5
4E3
100
AcDbEntity
  8
0
100
AcDbLine
 62
7
  6
CONTINUOUS
 10
25.6385130486
 20
-36.0897667148
 11
25.4970916923
 21
-36.1714216335
  0
LINE
  5
4E4
100
AcDbEntity
  8
0
100
AcDbLine
 62
7
  6
CONTINUOUS
 10
25.5957926658
 20
-36.2666122901
 11
25.4543713095
 21
-36.3482672088
  0
LINE
  5
4E5
100
AcDbEntity
  8
0
100
AcDbLine
 62
7
  6
CONTINUOUS
 10
25.5103499445
 20
-36.3684125755
 11
25.3689285883
 21
-36.4500674941
  0
LINE
  5
4E6
100
AcDbEntity
  8
0
100
AcDbLine
 62
253
  6
CONTINUOUS
 10
43.8406204336
 20
-26.6977637497
 11
43.1335136524
 21
-27.106038343
  0
LINE
  5
4E7
100
AcDbEntity
  8
0
100
AcDbLine
 62
7
  6
CONTINUOUS
 10
25.6385130486
 20
-37.5507272907
 11
25.4970916923
 21
-37.6323822094
  0
LINE
  5
4E8
100
AcDbEntity
  8
0
100
AcDbLine
 62
7
  6
CONTINUOUS
 10
25.6385130486
 20
-37.8026170622
 11
25.4970916923
 21
-37.8842719809
  0
LINE
  5
4E9
100
AcDbEntity
  8
0
100
AcDbLine
 62
7
  6
CONTINUOUS
 10
24.3009033727
 20
-36.9417180654
 11
25.3689285883
 21
-36.4500674941
  0
LINE
  5
4EA
100
AcDbEntity
  8
0
100
AcDbLine
 62
7
  6
CONTINUOUS
 10
33.9361002438
 20
-48.515839104
 11
33.9361002438
 21
-50.1487796576
  0
LINE
  5
4EB
100
AcDbEntity
  8
0
100
AcDbLine
 62
253
  6
CONTINUOUS
 10
34.0825468532
 20
-48.7199764007
 11
34.0825468532
 21
-50.3529169542
  0
LINE
  5
4EC
100
AcDbEntity
  8
0
100
AcDbLine
 62
253
  6
CONTINUOUS
 10
20.6475180106
 20
-42.5956602261
 11
20.8546247918
 21
-42.4760793663
  0
LINE
  5
4ED
100
AcDbEntity
  8
0
100
AcDbLine
 62
253
  6
CONTINUOUS
 10
29.5570634536
 20
-45.69874441
 11
29.7641260602
 21
-45.5791890561
  0
LINE
  5
4EE
100
AcDbEntity
  8
0
100
AcDbLine
 62
253
  6
CONTINUOUS
 10
41.7194291476
 20
-56.8962091527
 11
42.4265359288
 21
-27.0950835047
  0
LINE
  5
4EF
100
AcDbEntity
  8
0
100
AcDbLine
 62
253
  6
CONTINUOUS
 10
42.4264068712
 20
-56.907163991
 11
43.1335136524
 21
-27.106038343
  0
LINE
  5
4F0
100
AcDbEntity
  8
0
100
AcDbLine
 62
253
  6
CONTINUOUS
 10
43.8406204336
 20
-26.6977637497
 11
43.1335136524
 21
-56.4988893977
  0
LINE
  5
4F1
100
AcDbEntity
  8
0
100
AcDbLine
 62
7
  6
CONTINUOUS
 10
43.9870554112
 20
-26.4945320361
 11
43.27994863
 21
-56.2956576841
  0
LINE
  5
4F2
100
AcDbEntity
  8
0
100
AcDbLine
 62
253
  6
CONTINUOUS
 10
29.5570634536
 20
-47.3316849636
 11
30.2641702348
 21
-46.9234103703
  0
LINE
  5
4F3
100
AcDbEntity
  8
0
100
AcDbLine
 62
253
  6
CONTINUOUS
 10
29.9106168442
 20
-47.9440573987
 11
30.6177236254
 21
-47.5357828053
  0
LINE
  5
4F4
100
AcDbEntity
  8
0
100
AcDbLine
 62
253
  6
CONTINUOUS
 10
33.7289934626
 20
-50.1487402026
 11
33.9361002438
 21
-50.0291593428
  0
LINE
  5
4F5
100
AcDbEntity
  8
0
100
AcDbLine
 62
253
  6
CONTINUOUS
 10
43.1335136524
 20
-56.4988893977
 11
42.4264068712
 21
-56.907163991
  0
LINE
  5
4F6
100
AcDbEntity
  8
ASSI
100
AcDbLine
 62
7
  6
CONTINUOUS
 10
42.9266891466
 20
-56.9347165822
 11
42.2195823654
 21
-57.3429911755
  0
ARC
  5
4F7
100
AcDbEntity
  8
0
100
AcDbCircle
 62
253
  6
CONTINUOUS
 10
-18.8663104779
 20
-19.2756196176
 40
1.7050103111
100
AcDbArc
 50
21.2237121808
 51
35.2843232157
  0
ARC
  5
4F8
100
AcDbEntity
  8
0
100
AcDbCircle
 62
7
  6
CONTINUOUS
 10
-19.8429262815
 20
-17.1069473063
 40
0.9811659697
100
AcDbArc
 50
222.3615783945
 51
225.5612499517
  0
ARC
  5
4F9
100
AcDbEntity
  8
0
100
AcDbCircle
 62
7
  6
CONTINUOUS
 10
-24.2786899891
 20
-2.7232114775
 40
3.8321880233
100
AcDbArc
 50
28.2618718776
 51
31.7365168567
  0
ARC
  5
4FA
100
AcDbEntity
  8
0
100
AcDbCircle
 62
7
  6
CONTINUOUS
 10
-23.9037889303
 20
-6.2814986533
 40
3.6879996879
100
AcDbArc
 50
38.9063720454
 51
40.4018838243
  0
ARC
  5
4FB
100
AcDbEntity
  8
0
100
AcDbCircle
 62
7
  6
CONTINUOUS
 10
-23.8410705732
 20
-6.2281482774
 40
3.6056598168
100
AcDbArc
 50
40.4022551472
 51
41.6481856789
  0
ARC
  5
4FC
100
AcDbEntity
  8
0
100
AcDbCircle
 62
7
  6
CONTINUOUS
 10
-20.0504434117
 20
-0.308025924
 40
3.580504523
100
AcDbArc
 50
218.4755673025
 51
218.7867326468
  0
ARC
  5
4FD
100
AcDbEntity
  8
0
100
AcDbCircle
 62
7
  6
CONTINUOUS
 10
-20.0620648565
 20
-0.3173656922
 40
3.5655951552
100
AcDbArc
 50
218.7867286823
 51
219.0959117084
  0
ARC
  5
4FE
100
AcDbEntity
  8
0
100
AcDbCircle
 62
7
  6
CONTINUOUS
 10
-19.9425479327
 20
-0.2541121449
 40
3.5370021229
100
AcDbArc
 50
218.1885734491
 51
220.4993305318
  0
ARC
  5
4FF
100
AcDbEntity
  8
0
100
AcDbCircle
 62
7
  6
CONTINUOUS
 10
-20.0137465899
 20
-0.314320323
 40
3.4437601802
100
AcDbArc
 50
220.5069186201
 51
220.9976070869
  0
ARC
  5
500
100
AcDbEntity
  8
0
100
AcDbCircle
 62
7
  6
CONTINUOUS
 10
-20.0596912879
 20
-0.3544175893
 40
3.3827791102
100
AcDbArc
 50
220.9955423416
 51
222.1500706043
  0
ARC
  5
501
100
AcDbEntity
  8
0
100
AcDbCircle
 62
7
  6
CONTINUOUS
 10
-20.1406481859
 20
-0.4280980877
 40
3.2733133918
100
AcDbArc
 50
222.1448574374
 51
224.4229842085
  0
ARC
  5
502
100
AcDbEntity
  8
0
100
AcDbCircle
 62
7
  6
CONTINUOUS
 10
-20.3822181165
 20
-0.677254794
 40
2.9261906811
100
AcDbArc
 50
227.1307905292
 51
229.380901738
  0
ARC
  5
503
100
AcDbEntity
  8
0
100
AcDbCircle
 62
253
  6
CONTINUOUS
 10
-31.9477859299
 20
-11.7225396411
 40
1.7050103111
100
AcDbArc
 50
21.2237121808
 51
35.2843232157
  0
ARC
  5
504
100
AcDbEntity
  8
0
100
AcDbCircle
 62
7
  6
CONTINUOUS
 10
-41.9272616557
 20
-7.603588345
 40
1.3653759815
100
AcDbArc
 50
206.340681697
 51
215.0458988996
  0
ARC
  5
505
100
AcDbEntity
  8
0
100
AcDbCircle
 62
7
  6
CONTINUOUS
 10
-41.9780188019
 20
-7.6273148048
 40
1.3093618619
100
AcDbArc
 50
197.2866392181
 51
206.3957453844
  0
ARC
  5
506
100
AcDbEntity
  8
0
100
AcDbCircle
 62
7
  6
CONTINUOUS
 10
-42.1699655352
 20
-7.8574444266
 40
1.0118225261
100
AcDbArc
 50
234.2236969634
 51
239.9476594961
  0
ARC
  5
507
100
AcDbEntity
  8
0
100
AcDbCircle
 62
7
  6
CONTINUOUS
 10
-32.9244017334
 20
-9.5538673297
 40
0.9811659697
100
AcDbArc
 50
222.3615783945
 51
225.5612499517
  0
ARC
  5
508
100
AcDbEntity
  8
0
100
AcDbCircle
 62
7
  6
CONTINUOUS
 10
-21.1923853993
 20
-2.9477170347
 40
0.8861474292
100
AcDbArc
 50
288.5286039094
 51
299.9474337815
  0
ARC
  5
509
100
AcDbEntity
  8
0
100
AcDbCircle
 62
7
  6
CONTINUOUS
 10
-22.7900510422
 20
0.1434072796
 40
0.8855161174
100
AcDbArc
 50
109.0161404921
 51
119.9380388271
  0
ARC
  5
50A
100
AcDbEntity
  8
0
100
AcDbCircle
 62
7
  6
CONTINUOUS
 10
-22.9335303015
 20
0.0668519391
 40
0.8800283103
100
AcDbArc
 50
120.0043751635
 51
125.1593921004
  0
ARC
  5
50B
100
AcDbEntity
  8
0
100
AcDbCircle
 62
7
  6
CONTINUOUS
 10
-22.6235911646
 20
-0.127519341
 40
0.7840661059
100
AcDbArc
 50
131.7282983279
 51
136.9460748982
  0
ARC
  5
50C
100
AcDbEntity
  8
0
100
AcDbCircle
 62
7
  6
CONTINUOUS
 10
-21.3429293257
 20
-2.6935531318
 40
0.7616182829
100
AcDbArc
 50
305.2535040058
 51
315.3562752465
  0
ARC
  5
50D
100
AcDbEntity
  8
0
100
AcDbCircle
 62
7
  6
CONTINUOUS
 10
-22.7855747482
 20
-0.1946882841
 40
0.7606361874
100
AcDbArc
 50
104.628473214
 51
114.7445862367
  0
ARC
  5
50E
100
AcDbEntity
  8
0
100
AcDbCircle
 62
7
  6
CONTINUOUS
 10
-21.3301778464
 20
-2.7104207906
 40
0.7404842648
100
AcDbArc
 50
300.0087482825
 51
305.2011198193
  0
ARC
  5
50F
100
AcDbEntity
  8
0
100
AcDbCircle
 62
7
  6
CONTINUOUS
 10
-22.793442339
 20
-0.1760198978
 40
0.7403890153
100
AcDbArc
 50
114.796348976
 51
119.2061995068
  0
ARC
  5
510
100
AcDbEntity
  8
0
100
AcDbCircle
 62
7
  6
CONTINUOUS
 10
-22.7944073982
 20
-0.1742109713
 40
0.7383391553
100
AcDbArc
 50
119.209327022
 51
120.7977075954
  0
ARC
  5
511
100
AcDbEntity
  8
0
100
AcDbCircle
 62
7
  6
CONTINUOUS
 10
-42.5910324625
 20
23.4181526756
 40
0.6716846902
100
AcDbArc
 50
99.2323422471
 51
119.9817144899
  0
ARC
  5
512
100
AcDbEntity
  8
0
100
AcDbCircle
 62
7
  6
CONTINUOUS
 10
-27.614885789
 20
21.3028754958
 40
0.6716846902
100
AcDbArc
 50
99.2323422471
 51
119.9817144899
  0
ARC
  5
513
100
AcDbEntity
  8
0
100
AcDbCircle
 62
253
  6
CONTINUOUS
 10
-33.2276021407
 20
18.6876190207
 40
0.6691390764
100
AcDbArc
 50
298.9943114884
 51
299.9577586772
  0
ARC
  5
514
100
AcDbEntity
  8
0
100
AcDbCircle
 62
7
  6
CONTINUOUS
 10
-28.3231000048
 20
20.8972222162
 40
0.6688608285
100
AcDbArc
 50
120.0117551277
 51
128.6119095124
  0
ARC
  5
515
100
AcDbEntity
  8
0
100
AcDbCircle
 62
7
  6
CONTINUOUS
 10
-22.7153182808
 20
-0.3099539782
 40
0.662717156
100
AcDbArc
 50
120.0632984937
 51
130.1832328717
  0
ARC
  5
516
100
AcDbEntity
  8
0
100
AcDbCircle
 62
7
  6
CONTINUOUS
 10
-21.4161148351
 20
-2.1939868892
 40
0.608904943
100
AcDbArc
 50
273.9846757792
 51
282.1892574098
  0
ARC
  5
517
100
AcDbEntity
  8
0
100
AcDbCircle
 62
7
  6
CONTINUOUS
 10
-21.4063134595
 20
-2.2405871882
 40
0.5612858068
100
AcDbArc
 50
282.2156806978
 51
290.7174614253
  0
ARC
  5
518
100
AcDbEntity
  8
0
100
AcDbCircle
 62
7
  6
CONTINUOUS
 10
-21.5343428328
 20
-2.3555029392
 40
0.5253041234
100
AcDbArc
 50
300.0231241082
 51
304.8640864742
  0
ARC
  5
519
100
AcDbEntity
  8
0
100
AcDbCircle
 62
7
  6
CONTINUOUS
 10
-33.0637127945
 20
18.4021997927
 40
0.3400758893
100
AcDbArc
 50
300.0478380413
 51
308.6479903425
  0
ARC
  5
51A
100
AcDbEntity
  8
0
100
AcDbCircle
 62
253
  6
CONTINUOUS
 10
-42.758604746
 20
23.708903515
 40
0.3360518005
100
AcDbArc
 50
115.1012788087
 51
120.0066831789
  0
ARC
  5
51B
100
AcDbEntity
  8
0
100
AcDbCircle
 62
253
  6
CONTINUOUS
 10
-27.7832637238
 20
21.5944413969
 40
0.3349613794
100
AcDbArc
 50
117.7850256626
 51
119.9570703157
  0
ARC
  5
51C
100
AcDbEntity
  8
0
100
AcDbCircle
 62
7
  6
CONTINUOUS
 10
-26.5731201943
 20
-7.2134006194
 40
0.2559346173
100
AcDbArc
 50
300.0633622263
 51
308.9711690073
  0
ARC
  5
51D
100
AcDbEntity
  8
0
100
AcDbCircle
 62
253
  6
CONTINUOUS
 10
-21.5135530197
 20
-16.0234756586
 40
0.1786807618
100
AcDbArc
 50
132.8672304954
 51
136.3068757901
  0
ARC
  5
51E
100
AcDbEntity
  8
0
100
AcDbCircle
 62
253
  6
CONTINUOUS
 10
-34.5950284717
 20
-8.470395682
 40
0.1786807618
100
AcDbArc
 50
132.8672304954
 51
136.3068757901
  0
ARC
  5
51F
100
AcDbEntity
  8
0
100
AcDbCircle
 62
253
  6
CONTINUOUS
 10
35.8743282354
 20
-17.3379455238
 40
3.4425932614
100
AcDbArc
 50
207.116043714
 51
210.341097602
  0
ARC
  5
520
100
AcDbEntity
  8
0
100
AcDbCircle
 62
7
  6
CONTINUOUS
 10
24.261947879
 20
-26.3894030033
 40
2.6238420475
100
AcDbArc
 50
194.0628314692
 51
196.8174669905
  0
ARC
  5
521
100
AcDbEntity
  8
0
100
AcDbCircle
 62
7
  6
CONTINUOUS
 10
35.4167700281
 20
-17.969811239
 40
2.4755170859
100
AcDbArc
 50
230.3004697091
 51
234.6305834799
  0
ARC
  5
522
100
AcDbEntity
  8
0
100
AcDbCircle
 62
7
  6
CONTINUOUS
 10
35.255076906
 20
-18.1932808837
 40
2.1996976948
100
AcDbArc
 50
234.6955978523
 51
236.5530351358
  0
ARC
  5
523
100
AcDbEntity
  8
0
100
AcDbCircle
 62
7
  6
CONTINUOUS
 10
35.1474151361
 20
-18.3568230814
 40
2.0038993183
100
AcDbArc
 50
236.5442823417
 51
239.9347379631
  0
ARC
  5
524
100
AcDbEntity
  8
0
100
AcDbCircle
 62
253
  6
CONTINUOUS
 10
19.3174475812
 20
-41.3224524264
 40
1.7050196726
100
AcDbArc
 50
21.2250365487
 51
35.283041607
  0
ARC
  5
525
100
AcDbEntity
  8
0
100
AcDbCircle
 62
253
  6
CONTINUOUS
 10
32.3989311581
 20
-48.8755276339
 40
1.7050103111
100
AcDbArc
 50
21.2237121808
 51
35.2843232157
  0
ARC
  5
526
100
AcDbEntity
  8
0
100
AcDbCircle
 62
7
  6
CONTINUOUS
 10
18.3408399026
 20
-39.153775346
 40
0.9811659697
100
AcDbArc
 50
222.3615783945
 51
225.5612499517
  0
ARC
  5
527
100
AcDbEntity
  8
0
100
AcDbCircle
 62
7
  6
CONTINUOUS
 10
31.4223153545
 20
-46.7068553226
 40
0.9811659697
100
AcDbArc
 50
222.3615783945
 51
225.5612499518
  0
ARC
  5
528
100
AcDbEntity
  8
0
100
AcDbCircle
 62
7
  6
CONTINUOUS
 10
42.3607625893
 20
-56.2745942828
 40
0.9194273458
100
AcDbArc
 50
352.6372696151
 51
358.6872811699
  0
ARC
  5
529
100
AcDbEntity
  8
0
100
AcDbCircle
 62
7
  6
CONTINUOUS
 10
22.0770918086
 20
-25.7902272496
 40
0.860103942
100
AcDbArc
 50
109.237260251
 51
119.9376333562
  0
ARC
  5
52A
100
AcDbEntity
  8
0
100
AcDbCircle
 62
7
  6
CONTINUOUS
 10
18.976350746
 20
-23.9998981493
 40
0.8601037166
100
AcDbArc
 50
109.2373492724
 51
119.937634628
  0
ARC
  5
52B
100
AcDbEntity
  8
0
100
AcDbCircle
 62
7
  6
CONTINUOUS
 10
42.5910432081
 20
-56.3537031995
 40
0.6709953404
100
AcDbArc
 50
300.0146201822
 51
319.9996696252
  0
ARC
  5
52C
100
AcDbEntity
  8
0
100
AcDbCircle
 62
253
  6
CONTINUOUS
 10
29.7516886163
 20
-45.6233836749
 40
0.1786807618
100
AcDbArc
 50
132.8672304954
 51
136.3068757901
  0
ARC
  5
52D
100
AcDbEntity
  8
0
100
AcDbCircle
 62
7
  6
CONTINUOUS
 10
27.6586290522
 20
-11.377044934
 40
1.3649359558
100
AcDbArc
 50
27.1163027404
 51
33.6723151122
  0
ARC
  5
52E
100
AcDbEntity
  8
0
100
AcDbCircle
 62
7
  6
CONTINUOUS
 10
10.341351069
 20
-7.4505171778
 40
0.8511657867
100
AcDbArc
 50
291.8672034879
 51
299.9542151851
  0
SPLINE
  5
52F
100
AcDbEntity
  8
0
100
AcDbSpline
 62
7
  6
CONTINUOUS
 70
0
 71
3
 72
17
 73
13
 74
11
 42
0.0000001
 43
0.0000001
 44
0.0000000001
 12
-4.468741429
 22
-2.5815466579
 32
0.0
 13
4.5560466436
 23
-2.4241435781
 33
0.0
 40
0.0
 40
0.0
 40
0.0
 40
0.0
 40
0.0429006149
 40
0.0876319299
 40
0.1356664436
 40
0.1879341089
 40
0.3060407185
 40
0.440616346
 40
0.5855579906
 40
0.7326446679
 40
0.8732482048
 40
1.0
 40
1.0
 40
1.0
 40
1.0
 10
18.4049565744
 20
-23.3366655475
 30
0.0
 10
18.341052656
 20
-23.3735821938
 30
0.0
 10
18.2200758823
 20
-23.466828522
 30
0.0
 10
18.0752112442
 20
-23.6524590613
 30
0.0
 10
17.9680159194
 20
-23.8797209268
 30
0.0
 10
17.873438476
 20
-24.2451660636
 30
0.0
 10
17.8672644025
 20
-24.7769786173
 30
0.0
 10
18.0128553769
 20
-25.4494458007
 30
0.0
 10
18.2981343845
 20
-26.1297771842
 30
0.0
 10
18.6995286357
 20
-26.7608620486
 30
0.0
 10
19.1827991457
 20
-27.2898408647
 30
0.0
 10
19.5587262848
 20
-27.5634807499
 30
0.0
 10
19.7512219817
 20
-27.6659022667
 30
0.0
 11
18.4049565744
 21
-23.3366655475
 31
0.0
 11
18.2291707813
 21
-23.4712697858
 31
0.0
 11
18.0858280592
 21
-23.6522246116
 31
0.0
 11
17.9781855766
 21
-23.8755319934
 31
0.0
 11
17.9085675562
 21
-24.1361372153
 31
0.0
 11
17.8889287445
 21
-24.745347364
 31
0.0
 11
18.0286639771
 21
-25.4256652107
 31
0.0
 11
18.3153374497
 21
-26.1165691312
 31
0.0
 11
18.7234623879
 21
-26.7566064539
 31
0.0
 11
19.2166994163
 21
-27.2888234009
 31
0.0
 11
19.7512219817
 21
-27.6659022667
 31
0.0
  0
SPLINE
  5
530
100
AcDbEntity
  8
0
100
AcDbSpline
 62
7
  6
CONTINUOUS
 70
0
 71
3
 72
9
 73
5
 74
3
 42
0.0000001
 43
0.0000001
 44
0.0000000001
 12
0.38430856
 22
0.2219500122
 32
0.0
 13
0.4406796918
 23
-0.052500347
 33
0.0
 40
0.0
 40
0.0
 40
0.0
 40
0.0
 40
0.481773387
 40
1.0
 40
1.0
 40
1.0
 40
1.0
 10
18.780286039
 20
-23.9860430494
 30
0.0
 10
18.8420025846
 20
-23.9503998464
 30
0.0
 10
18.9845952029
 20
-23.8995145066
 30
0.0
 10
19.1350144613
 20
-23.898530009
 30
0.0
 10
19.2111384426
 20
-23.9075990346
 30
0.0
 11
18.780286039
 21
-23.9860430494
 31
0.0
 11
18.9812138489
 21
-23.9129517061
 31
0.0
 11
19.2111384426
 21
-23.9075990346
 31
0.0
  0
SPLINE
  5
531
100
AcDbEntity
  8
0
100
AcDbSpline
 62
7
  6
CONTINUOUS
 70
0
 71
3
 72
9
 73
5
 74
3
 42
0.0000001
 43
0.0000001
 44
0.0000000001
 12
0.5784704506
 22
-0.0689160402
 32
0.0
 13
0.4903103589
 23
-0.3146001188
 33
0.0
 40
0.0
 40
0.0
 40
0.0
 40
0.0
 40
0.2283843455
 40
1.0
 40
1.0
 40
1.0
 40
1.0
 10
19.2111384426
 20
-23.9075990346
 30
0.0
 10
19.2551763077
 20
-23.9128454829
 30
0.0
 10
19.4463218843
 20
-23.9501187358
 30
0.0
 10
19.6251115989
 20
-24.0372122749
 30
0.0
 10
19.7512219817
 20
-24.118129067
 30
0.0
 11
19.2111384426
 21
-23.9075990346
 31
0.0
 11
19.3418411481
 21
-23.9324693345
 31
0.0
 11
19.7512219817
 21
-24.118129067
 31
0.0
  0
SPLINE
  5
532
100
AcDbEntity
  8
0
100
AcDbSpline
 62
7
  6
CONTINUOUS
 70
0
 71
3
 72
17
 73
13
 74
11
 42
0.0000001
 43
0.0000001
 44
0.0000000001
 12
-4.4687416978
 22
-2.5815466636
 32
0.0
 13
4.5560468516
 23
-2.4241436888
 33
0.0
 40
0.0
 40
0.0
 40
0.0
 40
0.0
 40
0.0429006146
 40
0.0876319297
 40
0.1356664435
 40
0.1879341087
 40
0.3060407182
 40
0.4406163458
 40
0.5855579904
 40
0.7326446677
 40
0.8732482048
 40
1.0
 40
1.0
 40
1.0
 40
1.0
 10
21.5056975345
 20
-25.1269944478
 30
0.0
 10
21.4417936126
 20
-25.163911094
 30
0.0
 10
21.3208168331
 20
-25.2571574261
 30
0.0
 10
21.1759521879
 20
-25.4427879734
 30
0.0
 10
21.0687568594
 20
-25.67004985
 30
0.0
 10
20.9741794092
 20
-26.0354950026
 30
0.0
 10
20.9680053359
 20
-26.5673075806
 30
0.0
 10
21.1135963158
 20
-27.2397747945
 30
0.0
 10
21.3988753361
 20
-27.9201062094
 30
0.0
 10
21.8002696051
 20
-28.5511911034
 30
0.0
 10
22.2835401369
 20
-29.0801699443
 30
0.0
 10
22.6594672932
 20
-29.3538098427
 30
0.0
 10
22.851962999
 20
-29.4562313642
 30
0.0
 11
21.5056975345
 21
-25.1269944478
 31
0.0
 11
21.329911733
 21
-25.2615986897
 31
0.0
 11
21.1865690037
 21
-25.4425535237
 31
0.0
 11
21.0789265164
 21
-25.6658609166
 31
0.0
 11
21.009308492
 21
-25.9264661495
 31
0.0
 11
20.9896696787
 21
-26.5356763256
 31
0.0
 11
21.1294049168
 21
-27.2159942034
 31
0.0
 11
21.416078402
 21
-27.9068981558
 31
0.0
 11
21.8242033583
 21
-28.5469355083
 31
0.0
 11
22.3174404092
 21
-29.0791524807
 31
0.0
 11
22.851962999
 21
-29.4562313642
 31
0.0
  0
SPLINE
  5
533
100
AcDbEntity
  8
0
100
AcDbSpline
 62
7
  6
CONTINUOUS
 70
0
 71
3
 72
9
 73
5
 74
3
 42
0.0000001
 43
0.0000001
 44
0.0000000001
 12
0.2287628672
 22
0.1318867118
 32
0.0
 13
0.2625581442
 23
0.0281029376
 33
0.0
 40
0.0
 40
0.0
 40
0.0
 40
0.0
 40
0.2460216763
 40
1.0
 40
1.0
 40
1.0
 40
1.0
 10
21.8816216655
 20
-25.7759896992
 30
0.0
 10
21.9003818735
 20
-25.7651740359
 30
0.0
 10
21.9789642103
 20
-25.7252870103
 30
0.0
 10
22.0661551575
 20
-25.7031519643
 30
0.0
 10
22.1321428739
 20
-25.6960889624
 30
0.0
 11
21.8816216655
 21
-25.7759896992
 31
0.0
 11
21.9395688404
 21
-25.7466223582
 31
0.0
 11
22.1321428739
 21
-25.6960889624
 31
0.0
  0
SPLINE
  5
534
100
AcDbEntity
  8
0
100
AcDbSpline
 62
7
  6
CONTINUOUS
 70
0
 71
3
 72
9
 73
5
 74
3
 42
0.0000001
 43
0.0000001
 44
0.0000000001
 12
0.7547808422
 22
0.0807880439
 32
0.0
 13
0.6388869728
 23
-0.4099320234
 33
0.0
 40
0.0
 40
0.0
 40
0.0
 40
0.0
 40
0.2215026334
 40
1.0
 40
1.0
 40
1.0
 40
1.0
 10
22.1321428739
 20
-25.6960889624
 30
0.0
 10
22.187871522
 20
-25.6901240409
 30
0.0
 10
22.442926754
 20
-25.6930524328
 30
0.0
 10
22.6861723903
 20
-25.8020810688
 30
0.0
 10
22.851962999
 20
-25.908458069
 30
0.0
 11
22.1321428739
 21
-25.6960889624
 31
0.0
 11
22.300282914
 21
-25.6966269744
 31
0.0
 11
22.851962999
 21
-25.908458069
 31
0.0
  0
SPLINE
  5
535
100
AcDbEntity
  8
0
100
AcDbSpline
 62
7
  6
CONTINUOUS
 70
0
 71
3
 72
9
 73
5
 74
3
 42
0.0000001
 43
0.0000001
 44
0.0000000001
 12
-0.3884108587
 22
-0.3276471104
 32
0.0
 13
-0.1384252228
 23
-0.4889315717
 33
0.0
 40
0.0
 40
0.0
 40
0.0
 40
0.0
 40
0.4757425837
 40
1.0
 40
1.0
 40
1.0
 40
1.0
 10
-23.1429260161
 20
0.1963519112
 30
0.0
 10
-23.2045205446
 20
0.1443933502
 30
0.0
 10
-23.3147261192
 20
0.0111379484
 30
0.0
 10
-23.3792771837
 20
-0.1478661076
 30
0.0
 10
-23.4034673336
 20
-0.2333081085
 30
0.0
 11
-23.1429260161
 21
0.1963519112
 31
0.0
 11
-23.299046483
 21
0.0117750931
 31
0.0
 11
-23.4034673336
 21
-0.2333081085
 31
0.0
  0
SPLINE
  5
536
100
AcDbEntity
  8
0
100
AcDbSpline
 62
7
  6
CONTINUOUS
 70
0
 71
3
 72
9
 73
5
 74
3
 42
0.0000001
 43
0.0000001
 44
0.0000000001
 12
-0.1264245646
 22
-0.4465440605
 32
0.0
 13
0.0132979013
 23
-0.463905092
 33
0.0
 40
0.0
 40
0.0
 40
0.0
 40
0.0
 40
0.2344635178
 40
1.0
 40
1.0
 40
1.0
 40
1.0
 10
-23.4034673336
 20
-0.2333081085
 30
0.0
 10
-23.413347983
 20
-0.2682075389
 30
0.0
 10
-23.4486391565
 20
-0.4189924815
 30
0.0
 10
-23.4579700873
 20
-0.5751530896
 30
0.0
 10
-23.4545767444
 20
-0.693531847
 30
0.0
 11
-23.4034673336
 21
-0.2333081085
 31
0.0
 11
-23.4284698523
 21
-0.3392101922
 31
0.0
 11
-23.4545767444
 21
-0.693531847
 31
0.0
  0
SPLINE
  5
537
100
AcDbEntity
  8
0
100
AcDbSpline
 62
7
  6
CONTINUOUS
 70
0
 71
3
 72
10
 73
6
 74
4
 42
0.0000001
 43
0.0000001
 44
0.0000000001
 12
0.0551338011
 22
-1.9233750119
 32
0.0
 13
1.2165201009
 23
-1.4908018032
 33
0.0
 40
0.0
 40
0.0
 40
0.0
 40
0.0
 40
0.2302276302
 40
0.4805588072
 40
1.0
 40
1.0
 40
1.0
 40
1.0
 10
-23.4545767444
 20
-0.693531847
 30
0.0
 10
-23.4503456363
 20
-0.8411365373
 30
0.0
 10
-23.4069432255
 20
-1.148712589
 30
0.0
 10
-23.2106337638
 20
-1.7609497376
 30
0.0
 10
-22.9544972737
 20
-2.194550533
 30
0.0
 10
-22.7438603896
 20
-2.4526784887
 30
0.0
 11
-23.4545767444
 21
-0.693531847
 31
0.0
 11
-23.3970680825
 21
-1.1327791301
 31
0.0
 11
-23.2523557995
 21
-1.5922054421
 31
0.0
 11
-22.7438603896
 21
-2.4526784887
 31
0.0
  0
SPLINE
  5
538
100
AcDbEntity
  8
0
100
AcDbSpline
 62
7
  6
CONTINUOUS
 70
0
 71
3
 72
17
 73
13
 74
11
 42
0.0000001
 43
0.0000001
 44
0.0000000001
 12
-4.3128557167
 22
-3.0376202722
 32
0.0
 13
4.7027979538
 23
-2.3898855112
 33
0.0
 40
0.0
 40
0.0
 40
0.0
 40
0.0
 40
0.0430474029
 40
0.0884262673
 40
0.1373934454
 40
0.1906898079
 40
0.3105726849
 40
0.446000016
 40
0.590693829
 40
0.7365706712
 40
0.8753198608
 40
1.0
 40
1.0
 40
1.0
 40
1.0
 10
-23.4402972677
 20
0.7863219307
 30
0.0
 10
-23.5021830137
 20
0.7427347095
 30
0.0
 10
-23.6179981167
 20
0.6361243579
 30
0.0
 10
-23.7527315941
 20
0.433290451
 30
0.0
 10
-23.8493749712
 20
0.1905945778
 30
0.0
 10
-23.9284839206
 20
-0.1935735174
 30
0.0
 10
-23.9157353183
 20
-0.7427577635
 30
0.0
 10
-23.7489698996
 20
-1.4300806143
 30
0.0
 10
-23.4442628505
 20
-2.1184816376
 30
0.0
 10
-23.0262176383
 20
-2.7514861992
 30
0.0
 10
-22.5296234473
 20
-3.2773697526
 30
0.0
 10
-22.1461913586
 20
-3.5463601586
 30
0.0
 10
-21.9507428574
 20
-3.6456839113
 30
0.0
 11
-23.4402972677
 21
0.7863219307
 31
0.0
 11
-23.6080479003
 21
0.6332632885
 31
0.0
 11
-23.7420959586
 21
0.4349317473
 31
0.0
 11
-23.8395430288
 21
0.1957053187
 31
0.0
 11
-23.8982531279
 21
-0.0792459989
 31
0.0
 11
-23.8952342624
 21
-0.7116463814
 31
0.0
 11
-23.7332978801
 21
-1.4074590177
 31
0.0
 11
-23.4264863768
 21
-2.1063718461
 31
0.0
 11
-23.0013694583
 21
-2.7478186267
 31
0.0
 11
-22.4948481464
 21
-3.2761742975
 31
0.0
 11
-21.9507428574
 21
-3.6456839113
 31
0.0
  0
SPLINE
  5
539
100
AcDbEntity
  8
0
100
AcDbSpline
 62
7
  6
CONTINUOUS
 70
0
 71
3
 72
9
 73
5
 74
3
 42
0.0000001
 43
0.0000001
 44
0.0000000001
 12
0.4224159513
 22
0.110518906
 32
0.0
 13
0.4279701337
 23
-0.0865518873
 33
0.0
 40
0.0
 40
0.0
 40
0.0
 40
0.0
 40
0.2373591828
 40
1.0
 40
1.0
 40
1.0
 40
1.0
 10
-22.9776735934
 20
0.541290957
 30
0.0
 10
-22.9442521584
 20
0.5500351827
 30
0.0
 10
-22.8010043638
 20
0.5775690553
 30
0.0
 10
-22.6520666209
 20
0.5680472463
 30
0.0
 10
-22.54327079
 20
0.5460445789
 30
0.0
 11
-22.9776735934
 21
0.541290957
 31
0.0
 11
-22.8759292313
 21
0.5610183235
 31
0.0
 11
-22.54327079
 21
0.5460445789
 31
0.0
  0
SPLINE
  5
53A
100
AcDbEntity
  8
0
100
AcDbSpline
 62
7
  6
CONTINUOUS
 70
0
 71
3
 72
9
 73
5
 74
3
 42
0.0000001
 43
0.0000001
 44
0.0000000001
 12
0.3301591037
 22
-0.0667707657
 32
0.0
 13
0.306454902
 23
-0.1398168873
 33
0.0
 40
0.0
 40
0.0
 40
0.0
 40
0.0
 40
0.239023727
 40
1.0
 40
1.0
 40
1.0
 40
1.0
 10
-22.54327079
 20
0.5460445789
 30
0.0
 10
-22.5169655036
 20
0.5407246465
 30
0.0
 10
-22.4076518381
 20
0.5148450749
 30
0.0
 10
-22.3017510754
 20
0.47541922
 30
0.0
 10
-22.2240161057
 20
0.4399534421
 30
0.0
 11
-22.54327079
 21
0.5460445789
 31
0.0
 11
-22.4649033712
 21
0.5275790523
 31
0.0
 11
-22.2240161057
 21
0.4399534421
 31
0.0
  0
SPLINE
  5
53B
100
AcDbEntity
  8
0
100
AcDbSpline
 62
7
  6
CONTINUOUS
 70
0
 71
3
 72
9
 73
5
 74
3
 42
0.0000001
 43
0.0000001
 44
0.0000000001
 12
0.1662355582
 22
-0.0758432584
 32
0.0
 13
0.1582372866
 23
-0.0913642261
 33
0.0
 40
0.0
 40
0.0
 40
0.0
 40
0.0
 40
0.2448946564
 40
1.0
 40
1.0
 40
1.0
 40
1.0
 10
-22.2240161057
 20
0.4399534421
 30
0.0
 10
-22.210446039
 20
0.4337622392
 30
0.0
 10
-22.155355514
 20
0.4077804392
 30
0.0
 10
-22.1015601799
 20
0.3790706409
 30
0.0
 10
-22.061731573
 20
0.3560741024
 30
0.0
 11
-22.2240161057
 21
0.4399534421
 31
0.0
 11
-22.1835409656
 21
0.4208730239
 31
0.0
 11
-22.061731573
 21
0.3560741024
 31
0.0
  0
SPLINE
  5
53C
100
AcDbEntity
  8
0
100
AcDbSpline
 62
7
  6
CONTINUOUS
 70
0
 71
3
 72
9
 73
5
 74
3
 42
0.0000001
 43
0.0000001
 44
0.0000000001
 12
0.3431786898
 22
-0.1981470745
 32
0.0
 13
0.3059692907
 23
-0.2518266654
 33
0.0
 40
0.0
 40
0.0
 40
0.0
 40
0.0
 40
0.2412704346
 40
1.0
 40
1.0
 40
1.0
 40
1.0
 10
-22.061731573
 20
0.3560741024
 30
0.0
 10
-22.0341319491
 20
0.3401384255
 30
0.0
 10
-21.9212782072
 20
0.2714367882
 30
0.0
 10
-21.8145454458
 20
0.1928604376
 30
0.0
 10
-21.7371627968
 20
0.1291709921
 30
0.0
 11
-22.061731573
 21
0.3560741024
 31
0.0
 11
-21.9800317174
 21
0.3064122566
 31
0.0
 11
-21.7371627968
 21
0.1291709921
 31
0.0
  0
SPLINE
  5
53D
100
AcDbEntity
  8
0
100
AcDbSpline
 62
7
  6
CONTINUOUS
 70
0
 71
3
 72
9
 73
5
 74
3
 42
0.0000001
 43
0.0000001
 44
0.0000000001
 12
0.3293168419
 22
-0.2710427637
 32
0.0
 13
0.2881660452
 23
-0.3144425107
 33
0.0
 40
0.0
 40
0.0
 40
0.0
 40
0.0
 40
0.2437657141
 40
1.0
 40
1.0
 40
1.0
 40
1.0
 10
-21.7371627968
 20
0.1291709921
 30
0.0
 10
-21.7104040784
 20
0.1071473478
 30
0.0
 10
-21.6023407838
 20
0.0147334427
 30
0.0
 10
-21.5011176425
 20
-0.0856002033
 30
0.0
 10
-21.4284772947
 20
-0.1648642725
 30
0.0
 11
-21.7371627968
 21
0.1291709921
 31
0.0
 11
-21.6581262798
 21
0.06162206
 31
0.0
 11
-21.4284772947
 21
-0.1648642725
 31
0.0
  0
SPLINE
  5
53E
100
AcDbEntity
  8
0
100
AcDbSpline
 62
7
  6
CONTINUOUS
 70
0
 71
3
 72
9
 73
5
 74
3
 42
0.0000001
 43
0.0000001
 44
0.0000000001
 12
0.459429283
 22
-0.5013224135
 32
0.0
 13
0.3576952461
 23
-0.5783195823
 33
0.0
 40
0.0
 40
0.0
 40
0.0
 40
0.0
 40
0.2455283326
 40
1.0
 40
1.0
 40
1.0
 40
1.0
 10
-21.4284772947
 20
-0.1648642725
 30
0.0
 10
-21.3908763261
 20
-0.2058938912
 30
0.0
 10
-21.2419110611
 20
-0.3767961189
 30
0.0
 10
-21.109462898
 20
-0.5619857808
 30
0.0
 10
-21.0195059218
 20
-0.707427694
 30
0.0
 11
-21.4284772947
 21
-0.1648642725
 31
0.0
 11
-21.3187216595
 21
-0.2906778752
 31
0.0
 11
-21.0195059218
 21
-0.707427694
 31
0.0
  0
SPLINE
  5
53F
100
AcDbEntity
  8
0
100
AcDbSpline
 62
7
  6
CONTINUOUS
 70
0
 71
3
 72
9
 73
5
 74
3
 42
0.0000001
 43
0.0000001
 44
0.0000000001
 12
0.7101377192
 22
-1.3209848776
 32
0.0
 13
0.0
 23
-1.499765524
 33
0.0
 40
0.0
 40
0.0
 40
0.0
 40
0.0
 40
0.5253768723
 40
1.0
 40
1.0
 40
1.0
 40
1.0
 10
-20.9033269605
 20
-0.9086620922
 30
0.0
 10
-20.7789636493
 20
-1.1400003933
 30
0.0
 10
-20.5863328011
 20
-1.6054896266
 30
0.0
 10
-20.5034379329
 20
-2.1056951846
 30
0.0
 10
-20.5034379329
 20
-2.3429696526
 30
0.0
 11
-20.9033269605
 21
-0.9086620922
 31
0.0
 11
-20.6068454836
 21
-1.638697378
 31
0.0
 11
-20.5034379329
 21
-2.3429696526
 31
0.0
  0
SPLINE
  5
540
100
AcDbEntity
  8
0
100
AcDbSpline
 62
7
  6
CONTINUOUS
 70
0
 71
3
 72
9
 73
5
 74
3
 42
0.0000001
 43
0.0000001
 44
0.0000000001
 12
-0.1457833609
 22
0.0841734855
 32
0.0
 13
-0.1202556293
 23
0.1177987589
 33
0.0
 40
0.0
 40
0.0
 40
0.0
 40
0.0
 40
0.2088619303
 40
1.0
 40
1.0
 40
1.0
 40
1.0
 10
-33.4789813825
 20
-10.3580242237
 30
0.0
 10
-33.4891309139
 20
-10.3521640115
 30
0.0
 10
-33.5365595485
 20
-10.3221041663
 30
0.0
 10
-33.5796486094
 20
-10.2854841952
 30
0.0
 10
-33.6113615448
 20
-10.2544191676
 30
0.0
 11
-33.4789813825
 21
-10.3580242237
 31
0.0
 11
-33.5087536797
 21
-10.3393211225
 31
0.0
 11
-33.6113615448
 21
-10.2544191676
 31
0.0
  0
SPLINE
  5
541
100
AcDbEntity
  8
0
100
AcDbSpline
 62
7
  6
CONTINUOUS
 70
0
 71
3
 72
9
 73
5
 74
3
 42
0.0000001
 43
0.0000001
 44
0.0000000001
 12
-0.1238700611
 22
0.1356977727
 32
0.0
 13
-0.1003186593
 23
0.1539280486
 33
0.0
 40
0.0
 40
0.0
 40
0.0
 40
0.0
 40
0.2413230209
 40
1.0
 40
1.0
 40
1.0
 40
1.0
 10
-33.6493924806
 20
-10.2149838675
 30
0.0
 10
-33.6593567131
 20
-10.2040682021
 30
0.0
 10
-33.6996753841
 20
-10.1579539785
 30
0.0
 10
-33.7360452833
 20
-10.1084235608
 30
0.0
 10
-33.7614151024
 20
-10.0694963385
 30
0.0
 11
-33.6493924806
 21
-10.2149838675
 31
0.0
 11
-33.6785863962
 21
-10.1816124064
 31
0.0
 11
-33.7614151024
 21
-10.0694963385
 31
0.0
  0
SPLINE
  5
542
100
AcDbEntity
  8
0
100
AcDbSpline
 62
7
  6
CONTINUOUS
 70
0
 71
3
 72
10
 73
6
 74
4
 42
0.0000001
 43
0.0000001
 44
0.0000000001
 12
-0.2938530738
 22
0.4508855136
 32
0.0
 13
-0.0
 23
0.5381889774
 33
0.0
 40
0.0
 40
0.0
 40
0.0
 40
0.0
 40
0.5606377127
 40
0.8064974712
 40
1.0
 40
1.0
 40
1.0
 40
1.0
 10
-33.7614151024
 20
-10.0694963385
 30
0.0
 10
-33.8163301408
 20
-9.9852351975
 30
0.0
 10
-33.8814229251
 20
-9.853608734
 30
0.0
 10
-33.9274098568
 20
-9.6798307871
 30
0.0
 10
-33.9361002438
 20
-9.6009987235
 30
0.0
 10
-33.9361002438
 20
-9.5662850808
 30
0.0
 11
-33.7614151024
 21
-10.0694963385
 31
0.0
 11
-33.8932960672
 21
-9.7981150144
 31
0.0
 11
-33.9262120195
 21
-9.6699555005
 31
0.0
 11
-33.9361002438
 21
-9.5662850808
 31
0.0
  0
SPLINE
  5
543
100
AcDbEntity
  8
0
100
AcDbSpline
 62
7
  6
CONTINUOUS
 70
0
 71
3
 72
9
 73
5
 74
3
 42
0.0000001
 43
0.0000001
 44
0.0000000001
 12
-0.1457833609
 22
0.0841734855
 32
0.0
 13
-0.1202556293
 23
0.1177987589
 33
0.0
 40
0.0
 40
0.0
 40
0.0
 40
0.0
 40
0.2088619303
 40
1.0
 40
1.0
 40
1.0
 40
1.0
 10
-20.3975059306
 20
-17.9111042002
 30
0.0
 10
-20.407655462
 20
-17.905243988
 30
0.0
 10
-20.4550840965
 20
-17.8751841429
 30
0.0
 10
-20.4981731574
 20
-17.8385641718
 30
0.0
 10
-20.5298860929
 20
-17.8074991442
 30
0.0
 11
-20.3975059306
 21
-17.9111042002
 31
0.0
 11
-20.4272782277
 21
-17.8924010991
 31
0.0
 11
-20.5298860929
 21
-17.8074991442
 31
0.0
  0
SPLINE
  5
544
100
AcDbEntity
  8
0
100
AcDbSpline
 62
7
  6
CONTINUOUS
 70
0
 71
3
 72
9
 73
5
 74
3
 42
0.0000001
 43
0.0000001
 44
0.0000000001
 12
-0.1238700611
 22
0.1356977727
 32
0.0
 13
-0.1003186593
 23
0.1539280486
 33
0.0
 40
0.0
 40
0.0
 40
0.0
 40
0.0
 40
0.2413230209
 40
1.0
 40
1.0
 40
1.0
 40
1.0
 10
-20.5679170287
 20
-17.7680638441
 30
0.0
 10
-20.5778812611
 20
-17.7571481786
 30
0.0
 10
-20.6181999322
 20
-17.711033955
 30
0.0
 10
-20.6545698313
 20
-17.6615035374
 30
0.0
 10
-20.6799396505
 20
-17.6225763151
 30
0.0
 11
-20.5679170287
 21
-17.7680638441
 31
0.0
 11
-20.5971109443
 21
-17.7346923829
 31
0.0
 11
-20.6799396505
 21
-17.6225763151
 31
0.0
  0
SPLINE
  5
545
100
AcDbEntity
  8
0
100
AcDbSpline
 62
7
  6
CONTINUOUS
 70
0
 71
3
 72
10
 73
6
 74
4
 42
0.0000001
 43
0.0000001
 44
0.0000000001
 12
-0.2938530738
 22
0.4508855136
 32
0.0
 13
-0.0
 23
0.5381889774
 33
0.0
 40
0.0
 40
0.0
 40
0.0
 40
0.0
 40
0.5606377127
 40
0.8064974712
 40
1.0
 40
1.0
 40
1.0
 40
1.0
 10
-20.6799396505
 20
-17.6225763151
 30
0.0
 10
-20.7348546889
 20
-17.5383151741
 30
0.0
 10
-20.7999474731
 20
-17.4066887105
 30
0.0
 10
-20.8459344048
 20
-17.2329107636
 30
0.0
 10
-20.8546247918
 20
-17.1540787001
 30
0.0
 10
-20.8546247918
 20
-17.1193650574
 30
0.0
 11
-20.6799396505
 21
-17.6225763151
 31
0.0
 11
-20.8118206152
 21
-17.351194991
 31
0.0
 11
-20.8447365676
 21
-17.2230354771
 31
0.0
 11
-20.8546247918
 21
-17.1193650574
 31
0.0
  0
SPLINE
  5
546
100
AcDbEntity
  8
0
100
AcDbSpline
 62
7
  6
CONTINUOUS
 70
0
 71
3
 72
9
 73
5
 74
3
 42
0.0000001
 43
0.0000001
 44
0.0000000001
 12
-0.1457833609
 22
0.0841734855
 32
0.0
 13
-0.1202556293
 23
0.1177987589
 33
0.0
 40
0.0
 40
0.0
 40
0.0
 40
0.0
 40
0.2088619303
 40
1.0
 40
1.0
 40
1.0
 40
1.0
 10
17.7862602535
 20
-39.9579322399
 30
0.0
 10
17.7761107221
 20
-39.9520720277
 30
0.0
 10
17.7286820875
 20
-39.9220121826
 30
0.0
 10
17.6855930267
 20
-39.8853922115
 30
0.0
 10
17.6538800912
 20
-39.8543271839
 30
0.0
 11
17.7862602535
 21
-39.9579322399
 31
0.0
 11
17.7564879563
 21
-39.9392291388
 31
0.0
 11
17.6538800912
 21
-39.8543271839
 31
0.0
  0
SPLINE
  5
547
100
AcDbEntity
  8
0
100
AcDbSpline
 62
7
  6
CONTINUOUS
 70
0
 71
3
 72
9
 73
5
 74
3
 42
0.0000001
 43
0.0000001
 44
0.0000000001
 12
-0.1238700611
 22
0.1356977727
 32
0.0
 13
-0.1003186593
 23
0.1539280486
 33
0.0
 40
0.0
 40
0.0
 40
0.0
 40
0.0
 40
0.2413230209
 40
1.0
 40
1.0
 40
1.0
 40
1.0
 10
17.6158491554
 20
-39.8148918838
 30
0.0
 10
17.6058849229
 20
-39.8039762183
 30
0.0
 10
17.5655662519
 20
-39.7578619947
 30
0.0
 10
17.5291963527
 20
-39.7083315771
 30
0.0
 10
17.5038265336
 20
-39.6694043548
 30
0.0
 11
17.6158491554
 21
-39.8148918838
 31
0.0
 11
17.5866552398
 21
-39.7815204226
 31
0.0
 11
17.5038265336
 21
-39.6694043548
 31
0.0
  0
SPLINE
  5
548
100
AcDbEntity
  8
0
100
AcDbSpline
 62
7
  6
CONTINUOUS
 70
0
 71
3
 72
10
 73
6
 74
4
 42
0.0000001
 43
0.0000001
 44
0.0000000001
 12
-0.2938530738
 22
0.4508855136
 32
0.0
 13
-0.0
 23
0.5381889774
 33
0.0
 40
0.0
 40
0.0
 40
0.0
 40
0.0
 40
0.5606377127
 40
0.8064974712
 40
1.0
 40
1.0
 40
1.0
 40
1.0
 10
17.5038265336
 20
-39.6694043548
 30
0.0
 10
17.4489114952
 20
-39.5851432138
 30
0.0
 10
17.3838187109
 20
-39.4535167502
 30
0.0
 10
17.3378317792
 20
-39.2797388033
 30
0.0
 10
17.3291413922
 20
-39.2009067398
 30
0.0
 10
17.3291413922
 20
-39.1661930971
 30
0.0
 11
17.5038265336
 21
-39.6694043548
 31
0.0
 11
17.3719455688
 21
-39.3980230307
 31
0.0
 11
17.3390296165
 21
-39.2698635168
 31
0.0
 11
17.3291413922
 21
-39.1661930971
 31
0.0
  0
SPLINE
  5
549
100
AcDbEntity
  8
0
100
AcDbSpline
 62
7
  6
CONTINUOUS
 70
0
 71
3
 72
9
 73
5
 74
3
 42
0.0000001
 43
0.0000001
 44
0.0000000001
 12
-0.1457833609
 22
0.0841734855
 32
0.0
 13
-0.1202556293
 23
0.1177987589
 33
0.0
 40
0.0
 40
0.0
 40
0.0
 40
0.0
 40
0.2088619303
 40
1.0
 40
1.0
 40
1.0
 40
1.0
 10
30.8677357054
 20
-47.5110122165
 30
0.0
 10
30.8575861741
 20
-47.5051520043
 30
0.0
 10
30.8101575395
 20
-47.4750921592
 30
0.0
 10
30.7670684786
 20
-47.438472188
 30
0.0
 10
30.7353555431
 20
-47.4074071605
 30
0.0
 11
30.8677357054
 21
-47.5110122165
 31
0.0
 11
30.8379634083
 21
-47.4923091154
 31
0.0
 11
30.7353555431
 21
-47.4074071605
 31
0.0
  0
SPLINE
  5
54A
100
AcDbEntity
  8
0
100
AcDbSpline
 62
7
  6
CONTINUOUS
 70
0
 71
3
 72
9
 73
5
 74
3
 42
0.0000001
 43
0.0000001
 44
0.0000000001
 12
-0.1238700611
 22
0.1356977727
 32
0.0
 13
-0.1003186593
 23
0.1539280486
 33
0.0
 40
0.0
 40
0.0
 40
0.0
 40
0.0
 40
0.2413230209
 40
1.0
 40
1.0
 40
1.0
 40
1.0
 10
30.6973246073
 20
-47.3679718604
 30
0.0
 10
30.6873603749
 20
-47.3570561949
 30
0.0
 10
30.6470417038
 20
-47.3109419713
 30
0.0
 10
30.6106718047
 20
-47.2614115537
 30
0.0
 10
30.5853019856
 20
-47.2224843314
 30
0.0
 11
30.6973246073
 21
-47.3679718604
 31
0.0
 11
30.6681306917
 21
-47.3346003992
 31
0.0
 11
30.5853019856
 21
-47.2224843314
 31
0.0
  0
SPLINE
  5
54B
100
AcDbEntity
  8
0
100
AcDbSpline
 62
7
  6
CONTINUOUS
 70
0
 71
3
 72
10
 73
6
 74
4
 42
0.0000001
 43
0.0000001
 44
0.0000000001
 12
-0.2938530738
 22
0.4508855136
 32
0.0
 13
-0.0
 23
0.5381889774
 33
0.0
 40
0.0
 40
0.0
 40
0.0
 40
0.0
 40
0.5606377127
 40
0.8064974712
 40
1.0
 40
1.0
 40
1.0
 40
1.0
 10
30.5853019856
 20
-47.2224843314
 30
0.0
 10
30.5303869472
 20
-47.1382231904
 30
0.0
 10
30.4652941629
 20
-47.0065967268
 30
0.0
 10
30.4193072312
 20
-46.8328187799
 30
0.0
 10
30.4106168442
 20
-46.7539867163
 30
0.0
 10
30.4106168442
 20
-46.7192730736
 30
0.0
 11
30.5853019856
 21
-47.2224843314
 31
0.0
 11
30.4534210208
 21
-46.9511030073
 31
0.0
 11
30.4205050684
 21
-46.8229434933
 31
0.0
 11
30.4106168442
 21
-46.7192730736
 31
0.0
  0
SPLINE
  5
54C
100
AcDbEntity
  8
0
100
AcDbSpline
 62
7
  6
CONTINUOUS
 70
0
 71
3
 72
11
 73
7
 74
5
 42
0.0000001
 43
0.0000001
 44
0.0000000001
 12
-0.075346433
 22
0.0052873039
 32
0.0
 13
0.0654113337
 23
-0.0377676843
 33
0.0
 40
0.0
 40
0.0
 40
0.0
 40
0.0
 40
0.0464280578
 40
0.2255755838
 40
0.5445169701
 40
1.0
 40
1.0
 40
1.0
 40
1.0
 10
-34.7553540047
 20
-8.3368488277
 30
0.0
 10
-34.7565200675
 20
-8.3367670013
 30
0.0
 10
-34.7443697134
 20
-8.3389275104
 30
0.0
 10
-34.7386671689
 20
-8.3420879966
 30
0.0
 10
-34.7117701581
 20
-8.3518402044
 30
0.0
 10
-34.6960435747
 20
-8.3606949846
 30
0.0
 10
-34.6861123239
 20
-8.3664291643
 30
0.0
 11
-34.7553540047
 21
-8.3368488277
 31
0.0
 11
-34.7519331246
 21
-8.3376202955
 31
0.0
 11
-34.7389885167
 21
-8.3415615851
 31
0.0
 11
-34.7166591142
 21
-8.3506023313
 31
0.0
 11
-34.6861123239
 21
-8.3664291643
 31
0.0
  0
SPLINE
  5
54D
100
AcDbEntity
  8
0
100
AcDbSpline
 62
7
  6
CONTINUOUS
 70
0
 71
3
 72
11
 73
7
 74
5
 42
0.0000001
 43
0.0000001
 44
0.0000000001
 12
0.8173582501
 22
-0.4719324098
 32
0.0
 13
0.0
 23
-0.9438192138
 33
0.0
 40
0.0
 40
0.0
 40
0.0
 40
0.0
 40
0.2181450925
 40
0.5000012155
 40
0.7818637213
 40
1.0
 40
1.0
 40
1.0
 40
1.0
 10
-30.8677357054
 20
-10.5711119683
 30
0.0
 10
-30.8083014751
 20
-10.605428548
 30
0.0
 10
-30.6883284966
 20
-10.7111068819
 30
0.0
 10
-30.542570431
 20
-10.9112091286
 30
0.0
 10
-30.442152753
 20
-11.1374857318
 30
0.0
 10
-30.4106168442
 20
-11.2942240408
 30
0.0
 10
-30.4106168442
 20
-11.3628511112
 30
0.0
 11
-30.8677357054
 21
-10.5711119683
 31
0.0
 11
-30.7087095363
 21
-10.701883433
 31
0.0
 11
-30.5507437625
 21
-10.9159257329
 31
0.0
 11
-30.4443538418
 21
-11.1597528885
 31
0.0
 11
-30.4106168442
 21
-11.3628511112
 31
0.0
  0
SPLINE
  5
54E
100
AcDbEntity
  8
0
100
AcDbSpline
 62
7
  6
CONTINUOUS
 70
0
 71
3
 72
9
 73
5
 74
3
 42
0.0000001
 43
0.0000001
 44
0.0000000001
 12
-0.0
 22
-0.0575816778
 32
0.0
 13
-0.0105339525
 23
-0.0566099414
 33
0.0
 40
0.0
 40
0.0
 40
0.0
 40
0.0
 40
0.3134608426
 40
1.0
 40
1.0
 40
1.0
 40
1.0
 10
-30.4106168442
 20
-12.9957916648
 30
0.0
 10
-30.4106168442
 20
-13.0018081985
 30
0.0
 10
-30.4110512024
 20
-13.020995582
 30
0.0
 10
-30.4129540981
 20
-13.0401755587
 30
0.0
 10
-30.4153647551
 20
-13.0531305392
 30
0.0
 11
-30.4106168442
 21
-12.9957916648
 31
0.0
 11
-30.4110334479
 21
-13.0138364575
 31
0.0
 11
-30.4153647551
 21
-13.0531305392
 31
0.0
  0
SPLINE
  5
54F
100
AcDbEntity
  8
0
100
AcDbSpline
 62
7
  6
CONTINUOUS
 70
0
 71
3
 72
11
 73
7
 74
5
 42
0.0000001
 43
0.0000001
 44
0.0000000001
 12
0.8173582501
 22
-0.4719324098
 32
0.0
 13
0.0
 23
-0.9438192138
 33
0.0
 40
0.0
 40
0.0
 40
0.0
 40
0.0
 40
0.2181450925
 40
0.5000012155
 40
0.7818637213
 40
1.0
 40
1.0
 40
1.0
 40
1.0
 10
-17.7862602535
 20
-18.1241919448
 30
0.0
 10
-17.7268260231
 20
-18.1585085246
 30
0.0
 10
-17.6068530447
 20
-18.2641868585
 30
0.0
 10
-17.461094979
 20
-18.4642891051
 30
0.0
 10
-17.3606773011
 20
-18.6905657084
 30
0.0
 10
-17.3291413922
 20
-18.8473040174
 30
0.0
 10
-17.3291413922
 20
-18.9159310877
 30
0.0
 11
-17.7862602535
 21
-18.1241919448
 31
0.0
 11
-17.6272340844
 21
-18.2549634096
 31
0.0
 11
-17.4692683106
 21
-18.4690057095
 31
0.0
 11
-17.3628783899
 21
-18.712832865
 31
0.0
 11
-17.3291413922
 21
-18.9159310877
 31
0.0
  0
SPLINE
  5
550
100
AcDbEntity
  8
0
100
AcDbSpline
 62
7
  6
CONTINUOUS
 70
0
 71
3
 72
9
 73
5
 74
3
 42
0.0000001
 43
0.0000001
 44
0.0000000001
 12
-0.0
 22
-0.0575816778
 32
0.0
 13
-0.0105339525
 23
-0.0566099414
 33
0.0
 40
0.0
 40
0.0
 40
0.0
 40
0.0
 40
0.3134608426
 40
1.0
 40
1.0
 40
1.0
 40
1.0
 10
-17.3291413922
 20
-20.5488716413
 30
0.0
 10
-17.3291413922
 20
-20.5548881751
 30
0.0
 10
-17.3295757504
 20
-20.5740755586
 30
0.0
 10
-17.3314786461
 20
-20.5932555353
 30
0.0
 10
-17.3338893031
 20
-20.6062105158
 30
0.0
 11
-17.3291413922
 21
-20.5488716413
 31
0.0
 11
-17.3295579959
 21
-20.5669164341
 31
0.0
 11
-17.3338893031
 21
-20.6062105158
 31
0.0
  0
SPLINE
  5
551
100
AcDbEntity
  8
0
100
AcDbSpline
 62
7
  6
CONTINUOUS
 70
0
 71
3
 72
11
 73
7
 74
5
 42
0.0000001
 43
0.0000001
 44
0.0000000001
 12
-0.075346433
 22
0.0052873039
 32
0.0
 13
0.0654113337
 23
-0.0377676843
 33
0.0
 40
0.0
 40
0.0
 40
0.0
 40
0.0
 40
0.0464280578
 40
0.2255755838
 40
0.5445169701
 40
1.0
 40
1.0
 40
1.0
 40
1.0
 10
-21.6738785527
 20
-15.8899288043
 30
0.0
 10
-21.6750446156
 20
-15.8898469779
 30
0.0
 10
-21.6628942615
 20
-15.892007487
 30
0.0
 10
-21.6571917169
 20
-15.8951679731
 30
0.0
 10
-21.6302947061
 20
-15.904920181
 30
0.0
 10
-21.6145681227
 20
-15.9137749611
 30
0.0
 10
-21.6046368719
 20
-15.9195091409
 30
0.0
 11
-21.6738785527
 21
-15.8899288043
 31
0.0
 11
-21.6704576726
 21
-15.890700272
 31
0.0
 11
-21.6575130648
 21
-15.8946415617
 31
0.0
 11
-21.6351836622
 21
-15.9036823078
 31
0.0
 11
-21.6046368719
 21
-15.9195091409
 31
0.0
  0
SPLINE
  5
552
100
AcDbEntity
  8
0
100
AcDbSpline
 62
7
  6
CONTINUOUS
 70
0
 71
3
 72
11
 73
7
 74
5
 42
0.0000001
 43
0.0000001
 44
0.0000000001
 12
0.8173582501
 22
-0.4719324098
 32
0.0
 13
0.0
 23
-0.9438192138
 33
0.0
 40
0.0
 40
0.0
 40
0.0
 40
0.0
 40
0.2181450925
 40
0.5000012155
 40
0.7818637213
 40
1.0
 40
1.0
 40
1.0
 40
1.0
 10
20.3975059306
 20
-40.1710199845
 30
0.0
 10
20.4569401609
 20
-40.2053365643
 30
0.0
 10
20.5769131394
 20
-40.3110148982
 30
0.0
 10
20.722671205
 20
-40.5111171448
 30
0.0
 10
20.823088883
 20
-40.7373937481
 30
0.0
 10
20.8546247918
 20
-40.8941320571
 30
0.0
 10
20.8546247918
 20
-40.9627591274
 30
0.0
 11
20.3975059306
 21
-40.1710199845
 31
0.0
 11
20.5565320997
 21
-40.3017914493
 31
0.0
 11
20.7144978735
 21
-40.5158337492
 31
0.0
 11
20.8208877942
 21
-40.7596609047
 31
0.0
 11
20.8546247918
 21
-40.9627591274
 31
0.0
  0
SPLINE
  5
553
100
AcDbEntity
  8
0
100
AcDbSpline
 62
7
  6
CONTINUOUS
 70
0
 71
3
 72
11
 73
7
 74
5
 42
0.0000001
 43
0.0000001
 44
0.0000000001
 12
-0.075346433
 22
0.0052873039
 32
0.0
 13
0.0654113337
 23
-0.0377676843
 33
0.0
 40
0.0
 40
0.0
 40
0.0
 40
0.0
 40
0.0464280578
 40
0.2255755838
 40
0.54451697
 40
1.0
 40
1.0
 40
1.0
 40
1.0
 10
16.5098876314
 20
-37.936756844
 30
0.0
 10
16.5087215685
 20
-37.9366750176
 30
0.0
 10
16.5208719226
 20
-37.9388355267
 30
0.0
 10
16.5265744671
 20
-37.9419960128
 30
0.0
 10
16.553471478
 20
-37.9517482207
 30
0.0
 10
16.5691980613
 20
-37.9606030008
 30
0.0
 10
16.5791293122
 20
-37.9663371806
 30
0.0
 11
16.5098876314
 21
-37.936756844
 31
0.0
 11
16.5133085115
 21
-37.9375283117
 31
0.0
 11
16.5262531193
 21
-37.9414696014
 31
0.0
 11
16.5485825218
 21
-37.9505103475
 31
0.0
 11
16.5791293122
 21
-37.9663371806
 31
0.0
  0
SPLINE
  5
554
100
AcDbEntity
  8
0
100
AcDbSpline
 62
7
  6
CONTINUOUS
 70
0
 71
3
 72
9
 73
5
 74
3
 42
0.0000001
 43
0.0000001
 44
0.0000000001
 12
-0.0
 22
-0.0575816776
 32
0.0
 13
-0.0105339525
 23
-0.0566099412
 33
0.0
 40
0.0
 40
0.0
 40
0.0
 40
0.0
 40
0.3134608422
 40
1.0
 40
1.0
 40
1.0
 40
1.0
 10
20.8546247918
 20
-42.595699681
 30
0.0
 10
20.8546247918
 20
-42.6017162148
 30
0.0
 10
20.8541904337
 20
-42.6209035982
 30
0.0
 10
20.8522875379
 20
-42.6400835749
 30
0.0
 10
20.849876881
 20
-42.6530385553
 30
0.0
 11
20.8546247918
 21
-42.595699681
 31
0.0
 11
20.8542081882
 21
-42.6137444737
 31
0.0
 11
20.849876881
 21
-42.6530385553
 31
0.0
  0
SPLINE
  5
555
100
AcDbEntity
  8
0
100
AcDbSpline
 62
7
  6
CONTINUOUS
 70
0
 71
3
 72
11
 73
7
 74
5
 42
0.0000001
 43
0.0000001
 44
0.0000000001
 12
0.8173582501
 22
-0.4719324098
 32
0.0
 13
0.0
 23
-0.9438192138
 33
0.0
 40
0.0
 40
0.0
 40
0.0
 40
0.0
 40
0.2181450925
 40
0.5000012155
 40
0.7818637213
 40
1.0
 40
1.0
 40
1.0
 40
1.0
 10
33.4789813825
 20
-47.7240999611
 30
0.0
 10
33.5384156129
 20
-47.7584165408
 30
0.0
 10
33.6583885914
 20
-47.8640948747
 30
0.0
 10
33.804146657
 20
-48.0641971214
 30
0.0
 10
33.9045643349
 20
-48.2904737246
 30
0.0
 10
33.9361002438
 20
-48.4472120336
 30
0.0
 10
33.9361002438
 20
-48.515839104
 30
0.0
 11
33.4789813825
 21
-47.7240999611
 31
0.0
 11
33.6380075516
 21
-47.8548714259
 31
0.0
 11
33.7959733254
 21
-48.0689137257
 31
0.0
 11
33.9023632462
 21
-48.3127408813
 31
0.0
 11
33.9361002438
 21
-48.515839104
 31
0.0
  0
SPLINE
  5
556
100
AcDbEntity
  8
0
100
AcDbSpline
 62
7
  6
CONTINUOUS
 70
0
 71
3
 72
9
 73
5
 74
3
 42
0.0000001
 43
0.0000001
 44
0.0000000001
 12
-0.0
 22
-0.0575816778
 32
0.0
 13
-0.0105339525
 23
-0.0566099414
 33
0.0
 40
0.0
 40
0.0
 40
0.0
 40
0.0
 40
0.3134608426
 40
1.0
 40
1.0
 40
1.0
 40
1.0
 10
33.9361002438
 20
-50.1487796576
 30
0.0
 10
33.9361002438
 20
-50.1547961913
 30
0.0
 10
33.9356658856
 20
-50.1739835748
 30
0.0
 10
33.9337629899
 20
-50.1931635515
 30
0.0
 10
33.9313523329
 20
-50.206118532
 30
0.0
 11
33.9361002438
 21
-50.1487796576
 31
0.0
 11
33.9356836401
 21
-50.1668244504
 31
0.0
 11
33.9313523329
 21
-50.206118532
 31
0.0
  0
SPLINE
  5
557
100
AcDbEntity
  8
0
100
AcDbSpline
 62
7
  6
CONTINUOUS
 70
0
 71
3
 72
11
 73
7
 74
5
 42
0.0000001
 43
0.0000001
 44
0.0000000001
 12
-0.075346433
 22
0.0052873039
 32
0.0
 13
0.0654113337
 23
-0.0377676843
 33
0.0
 40
0.0
 40
0.0
 40
0.0
 40
0.0
 40
0.0464280578
 40
0.2255755838
 40
0.5445169701
 40
1.0
 40
1.0
 40
1.0
 40
1.0
 10
29.5913630833
 20
-45.4898368205
 30
0.0
 10
29.5901970205
 20
-45.4897549941
 30
0.0
 10
29.6023473746
 20
-45.4919155032
 30
0.0
 10
29.6080499191
 20
-45.4950759894
 30
0.0
 10
29.6349469299
 20
-45.5048281972
 30
0.0
 10
29.6506735133
 20
-45.5136829774
 30
0.0
 10
29.6606047641
 20
-45.5194171571
 30
0.0
 11
29.5913630833
 21
-45.4898368205
 31
0.0
 11
29.5947839634
 21
-45.4906082883
 31
0.0
 11
29.6077285713
 21
-45.4945495779
 31
0.0
 11
29.6300579738
 21
-45.5035903241
 31
0.0
 11
29.6606047641
 21
-45.5194171571
 31
0.0
  0
SPLINE
  5
558
100
AcDbEntity
  8
0
100
AcDbSpline
 62
7
  6
CONTINUOUS
 70
0
 71
3
 72
9
 73
5
 74
3
 42
0.0000001
 43
0.0000001
 44
0.0000000001
 12
-0.3241440765
 22
0.1871567273
 32
0.0
 13
-0.373316508
 23
0.0270519465
 33
0.0
 40
0.0
 40
0.0
 40
0.0
 40
0.0
 40
0.2528287495
 40
1.0
 40
1.0
 40
1.0
 40
1.0
 10
-42.1766529064
 20
23.9751852437
 30
0.0
 10
-42.2039705536
 20
23.9909581108
 30
0.0
 10
-42.3148219676
 20
24.048204205
 30
0.0
 10
-42.4386566882
 20
24.0815632882
 30
0.0
 10
-42.5316338089
 20
24.0883007671
 30
0.0
 11
-42.1766529064
 21
23.9751852437
 31
0.0
 11
-42.2608533262
 21
24.0183781131
 31
0.0
 11
-42.5316338089
 21
24.0883007671
 31
0.0
  0
SPLINE
  5
559
100
AcDbEntity
  8
0
100
AcDbSpline
 62
7
  6
CONTINUOUS
 70
0
 71
3
 72
8
 73
4
 74
2
 42
0.0000001
 43
0.0000001
 44
0.0000000001
 12
-0.1668785531
 22
0.0120926602
 32
0.0
 13
-0.1651257082
 23
-0.0269848917
 33
0.0
 40
0.0
 40
0.0
 40
0.0
 40
0.0
 40
1.0
 40
1.0
 40
1.0
 40
1.0
 10
-42.5316338089
 20
24.0883007671
 30
0.0
 10
-42.5872599933
 20
24.0923316538
 30
0.0
 10
-42.643754563
 20
24.090131231
 30
0.0
 10
-42.6987964657
 20
24.0811362671
 30
0.0
 11
-42.5316338089
 21
24.0883007671
 31
0.0
 11
-42.6987964657
 21
24.0811362671
 31
0.0
  0
SPLINE
  5
55A
100
AcDbEntity
  8
0
100
AcDbSpline
 62
7
  6
CONTINUOUS
 70
0
 71
3
 72
9
 73
5
 74
3
 42
0.0000001
 43
0.0000001
 44
0.0000000001
 12
0.460976184
 22
-0.2661618713
 32
0.0
 13
0.5311686152
 23
-0.0346566907
 33
0.0
 40
0.0
 40
0.0
 40
0.0
 40
0.0
 40
0.5661670298
 40
1.0
 40
1.0
 40
1.0
 40
1.0
 10
-32.9363584689
 20
18.6399550435
 30
0.0
 10
-32.8493619633
 20
18.5897243515
 30
0.0
 10
-32.6882833178
 20
18.5125937952
 30
0.0
 10
-32.5131246899
 20
18.4724958455
 30
0.0
 10
-32.4363118705
 20
18.4674841071
 30
0.0
 11
-32.9363584689
 21
18.6399550435
 31
0.0
 11
-32.6624538573
 21
18.5142574163
 31
0.0
 11
-32.4363118705
 21
18.4674841071
 31
0.0
  0
SPLINE
  5
55B
100
AcDbEntity
  8
0
100
AcDbSpline
 62
7
  6
CONTINUOUS
 70
0
 71
3
 72
9
 73
5
 74
3
 42
0.0000001
 43
0.0000001
 44
0.0000000001
 12
-0.3241440765
 22
0.1871567273
 32
0.0
 13
-0.373316508
 23
0.0270519465
 33
0.0
 40
0.0
 40
0.0
 40
0.0
 40
0.0
 40
0.2528287495
 40
1.0
 40
1.0
 40
1.0
 40
1.0
 10
-27.200506233
 20
21.8599080639
 30
0.0
 10
-27.2278238801
 20
21.875680931
 30
0.0
 10
-27.3386752942
 20
21.9329270253
 30
0.0
 10
-27.4625100147
 20
21.9662861085
 30
0.0
 10
-27.5554871354
 20
21.9730235873
 30
0.0
 11
-27.200506233
 21
21.8599080639
 31
0.0
 11
-27.2847066527
 21
21.9031009334
 31
0.0
 11
-27.5554871354
 21
21.9730235873
 31
0.0
  0
SPLINE
  5
55C
100
AcDbEntity
  8
0
100
AcDbSpline
 62
7
  6
CONTINUOUS
 70
0
 71
3
 72
8
 73
4
 74
2
 42
0.0000001
 43
0.0000001
 44
0.0000000001
 12
-0.1668785531
 22
0.0120926602
 32
0.0
 13
-0.1651257082
 23
-0.0269848917
 33
0.0
 40
0.0
 40
0.0
 40
0.0
 40
0.0
 40
1.0
 40
1.0
 40
1.0
 40
1.0
 10
-27.5554871354
 20
21.9730235873
 30
0.0
 10
-27.6111133198
 20
21.9770544741
 30
0.0
 10
-27.6676078895
 20
21.9748540513
 30
0.0
 10
-27.7226497923
 20
21.9658590874
 30
0.0
 11
-27.5554871354
 21
21.9730235873
 31
0.0
 11
-27.7226497923
 21
21.9658590874
 31
0.0
  0
SPLINE
  5
55D
100
AcDbEntity
  8
0
100
AcDbSpline
 62
7
  6
CONTINUOUS
 70
0
 71
3
 72
9
 73
5
 74
3
 42
0.0000001
 43
0.0000001
 44
0.0000000001
 12
-0.2992508218
 22
0.4492199904
 32
0.0
 13
-0.4674453994
 23
0.2698971151
 33
0.0
 40
0.0
 40
0.0
 40
0.0
 40
0.0
 40
0.2561592564
 40
1.0
 40
1.0
 40
1.0
 40
1.0
 10
28.7945589493
 20
-10.6202666095
 30
0.0
 10
28.7690069933
 20
-10.5819093233
 30
0.0
 10
28.6619060826
 20
-10.4374009786
 30
0.0
 10
28.5235388187
 20
-10.3144571626
 30
0.0
 10
28.4076371743
 20
-10.2475370057
 30
0.0
 11
28.7945589493
 21
-10.6202666095
 31
0.0
 11
28.7120855921
 21
-10.5092900349
 31
0.0
 11
28.4076371743
 21
-10.2475370057
 31
0.0
  0
SPLINE
  5
55E
100
AcDbEntity
  8
0
100
AcDbSpline
 62
7
  6
CONTINUOUS
 70
0
 71
3
 72
9
 73
5
 74
3
 42
0.0000001
 43
0.0000001
 44
0.0000000001
 12
0.6329953632
 22
-1.2365321662
 32
0.0
 13
1.0691526643
 23
-0.8869089628
 33
0.0
 40
0.0
 40
0.0
 40
0.0
 40
0.0
 40
0.5175166757
 40
1.0
 40
1.0
 40
1.0
 40
1.0
 10
32.9843621213
 20
-18.7852516605
 30
0.0
 10
33.09355734
 20
-18.9985603325
 30
0.0
 10
33.3433820133
 20
-19.3918278726
 30
0.0
 10
33.6635555525
 20
-19.7318463517
 30
0.0
 10
33.8355049964
 20
-19.8744859466
 30
0.0
 11
32.9843621213
 21
-18.7852516605
 31
0.0
 11
33.370975289
 21
-19.3913440021
 31
0.0
 11
33.8355049964
 21
-19.8744859466
 31
0.0
  0
SPLINE
  5
55F
100
AcDbEntity
  8
0
100
AcDbSpline
 62
7
  6
CONTINUOUS
 70
0
 71
3
 72
9
 73
5
 74
3
 42
0.0000001
 43
0.0000001
 44
0.0000000001
 12
0.0300419073
 22
1.2661208723
 32
0.0
 13
-1.0967837898
 23
0.6332692143
 33
0.0
 40
0.0
 40
0.0
 40
0.0
 40
0.0
 40
0.4994444011
 40
1.0
 40
1.0
 40
1.0
 40
1.0
 10
43.9870554112
 20
-26.4945320361
 30
0.0
 10
43.992056832
 20
-26.2837463759
 30
0.0
 10
43.8656178212
 20
-25.8587070527
 30
0.0
 10
43.56678427
 20
-25.5320007643
 30
0.0
 10
43.3837838477
 20
-25.4263386141
 30
0.0
 11
43.9870554112
 21
-26.4945320361
 31
0.0
 11
43.8227554139
 21
-25.8837080108
 31
0.0
 11
43.3837838477
 21
-25.4263386141
 31
0.0
  0
SPLINE
  5
560
100
AcDbEntity
  8
0
100
AcDbSpline
 62
7
  6
CONTINUOUS
 70
0
 71
3
 72
9
 73
5
 74
3
 42
0.0000001
 43
0.0000001
 44
0.0000000001
 12
0.277416719
 22
0.3301571183
 32
0.0
 13
0.0556417047
 23
0.4276304005
 33
0.0
 40
0.0
 40
0.0
 40
0.0
 40
0.0
 40
0.5006954589
 40
1.0
 40
1.0
 40
1.0
 40
1.0
 10
43.105052973
 20
-56.7850136543
 30
0.0
 10
43.1513534035
 20
-56.7299109311
 30
0.0
 10
43.22677882
 20
-56.60455958
 30
0.0
 10
43.263348291
 20
-56.463591966
 30
0.0
 10
43.2726090096
 20
-56.3924193657
 30
0.0
 11
43.105052973
 21
-56.7850136543
 31
0.0
 11
43.2171427027
 21
-56.6004702928
 31
0.0
 11
43.2726090096
 21
-56.3924193657
 31
0.0
  0
SPLINE
  5
561
100
AcDbEntity
  8
0
100
AcDbSpline
 62
7
  6
CONTINUOUS
 70
0
 71
3
 72
9
 73
5
 74
3
 42
0.0000001
 43
0.0000001
 44
0.0000000001
 12
0.0071757347
 22
-0.3107088155
 32
0.0
 13
0.091986381
 23
-0.2968669145
 33
0.0
 40
0.0
 40
0.0
 40
0.0
 40
0.0
 40
0.2453420004
 40
1.0
 40
1.0
 40
1.0
 40
1.0
 10
-43.2799560312
 20
-7.7105159084
 30
0.0
 10
-43.2793691948
 20
-7.7359258825
 30
0.0
 10
-43.2729369917
 20
-7.8393856715
 30
0.0
 10
-43.2513763628
 20
-7.9417169323
 30
0.0
 10
-43.2282369434
 20
-8.0163945963
 30
0.0
 11
-43.2799560312
 21
-7.7105159084
 31
0.0
 11
-43.2753023949
 21
-7.7866240166
 31
0.0
 11
-43.2282369434
 21
-8.0163945963
 31
0.0
  0
SPLINE
  5
562
100
AcDbEntity
  8
0
100
AcDbSpline
 62
7
  6
CONTINUOUS
 70
0
 71
3
 72
9
 73
5
 74
3
 42
0.0000001
 43
0.0000001
 44
0.0000000001
 12
0.2338669284
 22
-0.3332862241
 32
0.0
 13
0.3305212562
 23
-0.2377585888
 33
0.0
 40
0.0
 40
0.0
 40
0.0
 40
0.0
 40
0.253947694
 40
1.0
 40
1.0
 40
1.0
 40
1.0
 10
-43.0450844541
 20
-8.3876315594
 30
0.0
 10
-43.0252877984
 20
-8.4158439821
 30
0.0
 10
-42.9431408774
 20
-8.5238825236
 30
0.0
 10
-42.8436948049
 20
-8.6192150103
 30
0.0
 10
-42.7614994231
 20
-8.6783417914
 30
0.0
 11
-43.0450844541
 21
-8.3876315594
 31
0.0
 11
-42.9824501437
 21
-8.4698968528
 31
0.0
 11
-42.7614994231
 21
-8.6783417914
 31
0.0
  0
SPLINE
  5
563
100
AcDbEntity
  8
0
100
AcDbSpline
 62
7
  6
CONTINUOUS
 70
0
 71
3
 72
11
 73
7
 74
5
 42
0.0000001
 43
0.0000001
 44
0.0000000001
 12
-0.6987384334
 22
-0.4034428142
 32
0.0
 13
0.018628934
 23
-0.806631555
 33
0.0
 40
0.0
 40
0.0
 40
0.0
 40
0.0
 40
0.2508549223
 40
0.500280116
 40
0.7491910563
 40
1.0
 40
1.0
 40
1.0
 40
1.0
 10
-43.6337959278
 20
23.5916812391
 30
0.0
 10
-43.6922232529
 20
23.5579460339
 30
0.0
 10
-43.7991892272
 20
23.4722701239
 30
0.0
 10
-43.9133857489
 20
23.3030337201
 30
0.0
 10
-43.9781725921
 20
23.1099157119
 30
0.0
 10
-43.9886202468
 20
22.974595729
 30
0.0
 10
-43.9870628123
 20
22.9071589262
 30
0.0
 11
-43.6337959278
 21
23.5916812391
 31
0.0
 11
-43.7917734604
 21
23.4651527966
 31
0.0
 11
-43.905231426
 21
23.2989360731
 31
0.0
 11
-43.9698784027
 21
23.1087923257
 31
0.0
 11
-43.9870628123
 21
22.9071589262
 31
0.0
  0
SPLINE
  5
564
100
AcDbEntity
  8
0
100
AcDbSpline
 62
7
  6
CONTINUOUS
 70
0
 71
3
 72
11
 73
7
 74
5
 42
0.0000001
 43
0.0000001
 44
0.0000000001
 12
0.6793430425
 22
-0.3922441585
 32
0.0
 13
0.6793430424
 23
0.3922441585
 33
0.0
 40
0.0
 40
0.0
 40
0.0
 40
0.0
 40
0.2505500958
 40
0.4994681548
 40
0.7490387007
 40
1.0
 40
1.0
 40
1.0
 40
1.0
 10
41.4695461252
 20
-57.3182205867
 30
0.0
 10
41.5262826134
 20
-57.3509795239
 30
0.0
 10
41.646450634
 20
-57.4052495419
 30
0.0
 10
41.8411179693
 20
-57.4410523116
 30
0.0
 10
42.0388815342
 20
-57.4247089639
 30
0.0
 10
42.1627527612
 20
-57.3758038767
 30
0.0
 10
42.2195823654
 20
-57.3429911755
 30
0.0
 11
41.4695461252
 21
-57.3182205867
 31
0.0
 11
41.6492686959
 21
-57.3977780566
 31
0.0
 11
41.8414441799
 21
-57.4323694406
 31
0.0
 11
42.0364738662
 21
-57.4152945157
 31
0.0
 11
42.2195823654
 21
-57.3429911755
 31
0.0
  0
SPLINE
  5
565
100
AcDbEntity
  8
0
100
AcDbSpline
 62
7
  6
CONTINUOUS
 70
0
 71
3
 72
8
 73
4
 74
2
 42
0.0000001
 43
0.0000001
 44
0.0000000001
 12
-0.0242043325
 22
0.0139841525
 32
0.0
 13
-0.0138853382
 23
0.0242611545
 33
0.0
 40
0.0
 40
0.0
 40
0.0
 40
0.0
 40
1.0
 40
1.0
 40
1.0
 40
1.0
 10
6.5103531796
 20
-37.1332181884
 30
0.0
 10
6.5022850688
 20
-37.1285568042
 30
0.0
 10
6.4952651466
 20
-37.1214894208
 30
0.0
 10
6.4906367005
 20
-37.1134023693
 30
0.0
 11
6.5103531796
 21
-37.1332181884
 31
0.0
 11
6.4906367005
 21
-37.1134023693
 31
0.0
  0
SPLINE
  5
566
100
AcDbEntity
  8
0
100
AcDbSpline
 62
7
  6
CONTINUOUS
 70
0
 71
3
 72
9
 73
5
 74
3
 42
0.0000001
 43
0.0000001
 44
0.0000000001
 12
-0.2633324233
 22
-0.1520137909
 32
0.0
 13
-0.2633016667
 23
0.152067058
 33
0.0
 40
0.0
 40
0.0
 40
0.0
 40
0.0
 40
0.5054562937
 40
1.0
 40
1.0
 40
1.0
 40
1.0
 10
-7.4246457161
 20
-28.9182308815
 30
0.0
 10
-7.469013393
 20
-28.9438429906
 30
0.0
 10
-7.5718925714
 20
-28.9741016133
 30
0.0
 10
-7.6742442877
 20
-28.9432159754
 30
0.0
 10
-7.7176490151
 20
-28.9181480399
 30
0.0
 11
-7.4246457161
 21
-28.9182308815
 31
0.0
 11
-7.5728804902
 21
-28.9588103066
 31
0.0
 11
-7.7176490151
 21
-28.9181480399
 31
0.0
  0
SPLINE
  5
567
100
AcDbEntity
  8
0
100
AcDbSpline
 62
7
  6
CONTINUOUS
 70
0
 71
3
 72
10
 73
6
 74
4
 42
0.0000001
 43
0.0000001
 44
0.0000000001
 12
0.5242312916
 22
-1.272389686
 32
0.0
 13
-0.7849443228
 23
-1.1303346275
 33
0.0
 40
0.0
 40
0.0
 40
0.0
 40
0.0
 40
0.2950057661
 40
0.5652041231
 40
1.0
 40
1.0
 40
1.0
 40
1.0
 10
-21.1145366564
 20
-1.3074234772
 30
0.0
 10
-21.0629862385
 20
-1.4325442419
 30
0.0
 10
-20.9827080504
 20
-1.6815408078
 30
0.0
 10
-20.9198020725
 20
-2.1337197357
 30
0.0
 10
-20.9788559929
 20
-2.4793515681
 30
0.0
 10
-21.0926195113
 20
-2.6431731799
 30
0.0
 11
-21.1145366564
 21
-1.3074234772
 31
0.0
 11
-20.9913684424
 21
-1.694261238
 31
0.0
 11
-20.9453450718
 21
-2.0632359704
 31
0.0
 11
-21.0926195113
 21
-2.6431731799
 31
0.0
  0
SPLINE
  5
568
100
AcDbEntity
  8
0
100
AcDbSpline
 62
7
  6
CONTINUOUS
 70
0
 71
3
 72
9
 73
5
 74
3
 42
0.0000001
 43
0.0000001
 44
0.0000000001
 12
-0.1152029837
 22
-0.1658944691
 32
0.0
 13
-0.1657154066
 23
-0.1154604103
 33
0.0
 40
0.0
 40
0.0
 40
0.0
 40
0.0
 40
0.2569416694
 40
1.0
 40
1.0
 40
1.0
 40
1.0
 10
-21.0926195113
 20
-2.6431731799
 30
0.0
 10
-21.1024863269
 20
-2.6573815805
 30
0.0
 10
-21.1430816932
 20
-2.7111034206
 30
0.0
 10
-21.1930169486
 20
-2.7579224648
 30
0.0
 10
-21.234062353
 20
-2.7865204047
 30
0.0
 11
-21.0926195113
 21
-2.6431731799
 31
0.0
 11
-21.1239642196
 21
-2.6845326232
 31
0.0
 11
-21.234062353
 21
-2.7865204047
 31
0.0
  0
SPLINE
  5
569
100
AcDbEntity
  8
0
100
AcDbSpline
 62
7
  6
CONTINUOUS
 70
0
 71
3
 72
9
 73
5
 74
3
 42
0.0000001
 43
0.0000001
 44
0.0000000001
 12
0.3178404985
 22
0.0224679039
 32
0.0
 13
0.2759364982
 23
0.1593312216
 33
0.0
 40
0.0
 40
0.0
 40
0.0
 40
0.0
 40
0.2578196084
 40
1.0
 40
1.0
 40
1.0
 40
1.0
 10
-21.3796026318
 20
-3.2403840764
 30
0.0
 10
-21.3522874608
 20
-3.2384531876
 30
0.0
 10
-21.2468222816
 20
-3.2255872388
 30
0.0
 10
-21.1439738766
 20
-3.1892000408
 30
0.0
 10
-21.0757089905
 20
-3.149782538
 30
0.0
 11
-21.3796026318
 21
-3.2403840764
 31
0.0
 11
-21.2980794179
 21
-3.2302555201
 31
0.0
 11
-21.0757089905
 21
-3.149782538
 31
0.0
  0
SPLINE
  5
56A
100
AcDbEntity
  8
0
100
AcDbSpline
 62
7
  6
CONTINUOUS
 70
0
 71
3
 72
9
 73
5
 74
3
 42
0.0000001
 43
0.0000001
 44
0.0000000001
 12
0.4545969642
 22
-0.0494585523
 32
0.0
 13
0.4335375244
 23
0.1454295815
 33
0.0
 40
0.0
 40
0.0
 40
0.0
 40
0.0
 40
0.2624774732
 40
1.0
 40
1.0
 40
1.0
 40
1.0
 10
-21.364079358
 20
-3.8310240163
 30
0.0
 10
-21.3243055372
 20
-3.8353512682
 30
0.0
 10
-21.1722020861
 20
-3.8448493451
 30
0.0
 10
-21.0173684267
 20
-3.8236836563
 30
0.0
 10
-20.9107871966
 20
-3.7879311255
 30
0.0
 11
-21.364079358
 21
-3.8310240163
 31
0.0
 11
-21.2442699821
 21
-3.8382247682
 31
0.0
 11
-20.9107871966
 21
-3.7879311255
 31
0.0
  0
SPLINE
  5
56B
100
AcDbEntity
  8
0
100
AcDbSpline
 62
7
  6
CONTINUOUS
 70
0
 71
3
 72
9
 73
5
 74
3
 42
0.0000001
 43
0.0000001
 44
0.0000000001
 12
1.1723575973
 22
-0.8143793866
 32
0.0
 13
0.7413493222
 23
-1.219851345
 33
0.0
 40
0.0
 40
0.0
 40
0.0
 40
0.0
 40
0.4806234943
 40
1.0
 40
1.0
 40
1.0
 40
1.0
 10
-21.9507428574
 20
-3.6456839113
 30
0.0
 10
-21.7629219891
 20
-3.7761538668
 30
0.0
 10
-21.4074443433
 20
-4.0993349173
 30
0.0
 10
-21.1231019969
 20
-4.4844988773
 30
0.0
 10
-20.9947555235
 20
-4.6956862537
 30
0.0
 11
-21.9507428574
 21
-3.6456839113
 31
0.0
 11
-21.4376523515
 21
-4.101128665
 31
0.0
 11
-20.9947555235
 21
-4.6956862537
 31
0.0
  0
SPLINE
  5
56C
100
AcDbEntity
  8
0
100
AcDbSpline
 62
7
  6
CONTINUOUS
 70
0
 71
3
 72
9
 73
5
 74
3
 42
0.0000001
 43
0.0000001
 44
0.0000000001
 12
0.0
 22
-0.6703097041
 32
0.0
 13
-0.2976278109
 23
-0.6006103442
 33
0.0
 40
0.0
 40
0.0
 40
0.0
 40
0.0
 40
0.2726416729
 40
1.0
 40
1.0
 40
1.0
 40
1.0
 10
-20.5034379329
 20
-2.3429696526
 30
0.0
 10
-20.5034379329
 20
-2.4038877723
 30
0.0
 10
-20.5133171997
 20
-2.6267903916
 30
0.0
 10
-20.5657502619
 20
-2.8509176769
 30
0.0
 10
-20.6379109507
 20
-2.9965373219
 30
0.0
 11
-20.5034379329
 21
-2.3429696526
 31
0.0
 11
-20.5119881043
 21
-2.525523892
 31
0.0
 11
-20.6379109507
 21
-2.9965373219
 31
0.0
  0
SPLINE
  5
56D
100
AcDbEntity
  8
0
100
AcDbSpline
 62
7
  6
CONTINUOUS
 70
0
 71
3
 72
9
 73
5
 74
3
 42
0.0000001
 43
0.0000001
 44
0.0000000001
 12
-0.1262983438
 22
-0.2548689637
 32
0.0
 13
-0.2000005469
 23
-0.2022603312
 33
0.0
 40
0.0
 40
0.0
 40
0.0
 40
0.0
 40
0.2595151698
 40
1.0
 40
1.0
 40
1.0
 40
1.0
 10
-20.6379109507
 20
-2.9965373219
 30
0.0
 10
-20.6488363961
 20
-3.018584776
 30
0.0
 10
-20.6939113197
 20
-3.1020004877
 30
0.0
 10
-20.7516797456
 20
-3.1788158548
 30
0.0
 10
-20.8010455359
 20
-3.2287394238
 30
0.0
 11
-20.6379109507
 21
-2.9965373219
 31
0.0
 11
-20.6730865326
 21
-3.0614355404
 31
0.0
 11
-20.8010455359
 21
-3.2287394238
 31
0.0
  0
SPLINE
  5
56E
100
AcDbEntity
  8
0
100
AcDbSpline
 62
7
  6
CONTINUOUS
 70
0
 71
3
 72
9
 73
5
 74
3
 42
0.0000001
 43
0.0000001
 44
0.0000000001
 12
0.3222005623
 22
-0.0293189126
 32
0.0
 13
0.3161377474
 23
0.0687730007
 33
0.0
 40
0.0
 40
0.0
 40
0.0
 40
0.0
 40
0.2590654549
 40
1.0
 40
1.0
 40
1.0
 40
1.0
 10
10.1928244562
 20
-8.3020044956
 30
0.0
 10
10.2206481346
 20
-8.3045363348
 30
0.0
 10
10.3283227824
 20
-8.3106291831
 30
0.0
 10
10.4370960416
 20
-8.3012024034
 30
0.0
 10
10.5151751676
 20
-8.2842169727
 30
0.0
 11
10.1928244562
 21
-8.3020044956
 31
0.0
 11
10.276511431
 21
-8.3066516294
 31
0.0
 11
10.5151751676
 21
-8.2842169727
 31
0.0
  0
SPLINE
  5
56F
100
AcDbEntity
  8
0
100
AcDbSpline
 62
7
  6
CONTINUOUS
 70
0
 71
3
 72
8
 73
4
 74
2
 42
0.0000001
 43
0.0000001
 44
0.0000000001
 12
0.1463177705
 22
0.0318301507
 32
0.0
 13
0.1389631773
 23
0.0557788833
 33
0.0
 40
0.0
 40
0.0
 40
0.0
 40
0.0
 40
1.0
 40
1.0
 40
1.0
 40
1.0
 10
10.5151751676
 20
-8.2842169727
 30
0.0
 10
10.5639477578
 20
-8.2736069225
 30
0.0
 10
10.6120523431
 20
-8.2590342091
 30
0.0
 10
10.6583734022
 20
-8.240441248
 30
0.0
 11
10.5151751676
 21
-8.2842169727
 31
0.0
 11
10.6583734022
 21
-8.240441248
 31
0.0
  0
SPLINE
  5
570
100
AcDbEntity
  8
0
100
AcDbSpline
 62
7
  6
CONTINUOUS
 70
0
 71
3
 72
14
 73
10
 74
8
 42
0.0000001
 43
0.0000001
 44
0.0000000001
 12
1.6743177774
 22
-0.9667301006
 32
0.0
 13
-1.4182805828
 23
-1.313920582
 33
0.0
 40
0.0
 40
0.0
 40
0.0
 40
0.0
 40
0.1260650047
 40
0.2646911961
 40
0.5513732649
 40
0.6861098946
 40
0.8067607661
 40
0.9106385475
 40
1.0
 40
1.0
 40
1.0
 40
1.0
 10
9.3311450946
 20
-5.0645817715
 30
0.0
 10
9.4015027208
 20
-5.105205383
 30
0.0
 10
9.5386650817
 20
-5.2092949392
 30
0.0
 10
9.7781492356
 20
-5.4732528455
 30
0.0
 10
9.9541824318
 20
-5.7971872094
 30
0.0
 10
10.0405872772
 20
-6.1372080453
 30
0.0
 10
10.0519915131
 20
-6.370448992
 30
0.0
 10
10.0099187764
 20
-6.5712791461
 30
0.0
 10
9.9395809171
 20
-6.6793566091
 30
0.0
 10
9.8973343794
 20
-6.7184945596
 30
0.0
 11
9.3311450946
 21
-5.0645817715
 31
0.0
 11
9.5271210614
 21
-5.2094875367
 31
0.0
 11
9.708419385
 21
-5.4068782776
 31
0.0
 11
9.971728493
 21
-5.8946017874
 31
0.0
 11
10.033758305
 21
-6.1476039934
 31
0.0
 11
10.0417761197
 21
-6.3807285433
 31
0.0
 11
9.9951321141
 21
-6.5760707373
 31
0.0
 11
9.8973343794
 21
-6.7184945596
 31
0.0
  0
SPLINE
  5
571
100
AcDbEntity
  8
0
100
AcDbSpline
 62
7
  6
CONTINUOUS
 70
0
 71
3
 72
8
 73
4
 74
2
 42
0.0000001
 43
0.0000001
 44
0.0000000001
 12
-0.0558420359
 22
-0.0517330641
 32
0.0
 13
-0.0659020536
 23
-0.038099373
 33
0.0
 40
0.0
 40
0.0
 40
0.0
 40
0.0
 40
1.0
 40
1.0
 40
1.0
 40
1.0
 10
9.8973343794
 20
-6.7184945596
 30
0.0
 10
9.8787203675
 20
-6.7357389143
 30
0.0
 10
9.8581058259
 20
-6.751068427
 30
0.0
 10
9.8361384747
 20
-6.763768218
 30
0.0
 11
9.8973343794
 21
-6.7184945596
 31
0.0
 11
9.8361384747
 21
-6.763768218
 31
0.0
  0
SPLINE
  5
572
100
AcDbEntity
  8
0
100
AcDbSpline
 62
7
  6
CONTINUOUS
 70
0
 71
3
 72
11
 73
7
 74
5
 42
0.0000001
 43
0.0000001
 44
0.0000000001
 12
0.0144651881
 22
-0.6273468185
 32
0.0
 13
-0.4882007832
 23
-0.3942502601
 33
0.0
 40
0.0
 40
0.0
 40
0.0
 40
0.0
 40
0.2817782956
 40
0.5444773011
 40
0.7857214636
 40
1.0
 40
1.0
 40
1.0
 40
1.0
 10
-26.2466478044
 20
-6.8242033955
 30
0.0
 10
-26.2452891457
 20
-6.8831276346
 30
0.0
 10
-26.2492302915
 20
-6.9973392403
 30
0.0
 10
-26.2755162021
 20
-7.1597875727
 30
0.0
 10
-26.3184027379
 20
-7.3049197665
 30
0.0
 10
-26.3772851097
 20
-7.384220406
 30
0.0
 10
-26.4121554262
 20
-7.4123801955
 30
0.0
 11
-26.2466478044
 21
-6.8242033955
 31
0.0
 11
-26.2531913852
 21
-7.000901977
 31
0.0
 11
-26.279829723
 21
-7.1635826294
 31
0.0
 11
-26.3288989513
 21
-7.3067933884
 31
0.0
 11
-26.4121554262
 21
-7.4123801955
 31
0.0
  0
SPLINE
  5
573
100
AcDbEntity
  8
0
100
AcDbSpline
 62
7
  6
CONTINUOUS
 70
0
 71
3
 72
12
 73
8
 74
6
 42
0.0000001
 43
0.0000001
 44
0.0000000001
 12
1.2279949261
 22
-0.7439626843
 32
0.0
 13
-0.0340017801
 23
-1.435373085
 33
0.0
 40
0.0
 40
0.0
 40
0.0
 40
0.0
 40
0.2452781909
 40
0.5145764879
 40
0.6454061185
 40
0.7692612385
 40
1.0
 40
1.0
 40
1.0
 40
1.0
 10
-26.8302139568
 20
-5.5770158008
 30
0.0
 10
-26.7298138322
 20
-5.6378417413
 30
0.0
 10
-26.5439457652
 20
-5.8074598654
 30
0.0
 10
-26.3846286382
 20
-6.0770443475
 30
0.0
 10
-26.3046655325
 20
-6.3155348918
 30
0.0
 10
-26.2596602856
 20
-6.5436662676
 30
0.0
 10
-26.2440326282
 20
-6.7138046595
 30
0.0
 10
-26.2466478044
 20
-6.8242033955
 30
0.0
 11
-26.8302139568
 21
-5.5770158008
 31
0.0
 11
-26.5659920681
 21
-5.8098389398
 31
0.0
 11
-26.3675288503
 21
-6.141670363
 31
0.0
 11
-26.3076263534
 21
-6.3197049442
 31
0.0
 11
-26.2716741028
 21
-6.4938608992
 31
0.0
 11
-26.2466478044
 21
-6.8242033955
 31
0.0
  0
SPLINE
  5
574
100
AcDbEntity
  8
0
100
AcDbSpline
 62
7
  6
CONTINUOUS
 70
0
 71
3
 72
11
 73
7
 74
5
 42
0.0000001
 43
0.0000001
 44
0.0000000001
 12
0.5345775173
 22
-0.3114932704
 32
0.0
 13
0.5358074616
 23
0.3093728229
 33
0.0
 40
0.0
 40
0.0
 40
0.0
 40
0.0
 40
0.2894565785
 40
0.5516097743
 40
0.7849355107
 40
1.0
 40
1.0
 40
1.0
 40
1.0
 10
-26.8231653656
 20
-7.6752112824
 30
0.0
 10
-26.7715863726
 20
-7.7052658745
 30
0.0
 10
-26.6691189903
 20
-7.7560411643
 30
0.0
 10
-26.5125694684
 20
-7.8008393019
 30
0.0
 10
-26.3631503818
 20
-7.8045018245
 30
0.0
 10
-26.2749407
 20
-7.7695240007
 30
0.0
 10
-26.2365296473
 20
-7.7473456313
 30
0.0
 11
-26.8231653656
 21
-7.6752112824
 31
0.0
 11
-26.6619689267
 21
-7.7532417081
 31
0.0
 11
-26.5053156853
 21
-7.7952834053
 31
0.0
 11
-26.3609570173
 21
-7.7944989019
 31
0.0
 11
-26.2365296473
 21
-7.7473456313
 31
0.0
  0
SPLINE
  5
575
100
AcDbEntity
  8
0
100
AcDbSpline
 62
7
  6
CONTINUOUS
 70
0
 71
3
 72
16
 73
12
 74
10
 42
0.0000001
 43
0.0000001
 44
0.0000000001
 12
-3.2605211111
 22
1.6731049411
 32
0.0
 13
3.1735050247
 23
1.8327967478
 33
0.0
 40
0.0
 40
0.0
 40
0.0
 40
0.0
 40
0.1259858089
 40
0.2662571486
 40
0.4133682903
 40
0.5586273771
 40
0.6936404232
 40
0.8121498866
 40
0.9122594128
 40
0.957059326
 40
1.0
 40
1.0
 40
1.0
 40
1.0
 10
19.7512219817
 20
-27.0528825035
 30
0.0
 10
19.6142955186
 20
-26.9826200104
 30
0.0
 10
19.3461619348
 20
-26.7920198281
 30
0.0
 10
19.0007944002
 20
-26.4201327819
 30
0.0
 10
18.7129839202
 20
-25.9736681565
 30
0.0
 10
18.5073722685
 20
-25.4909269854
 30
0.0
 10
18.4015814257
 20
-25.0119385153
 30
0.0
 10
18.4040745154
 20
-24.5757139974
 30
0.0
 10
18.5069160407
 20
-24.261552093
 30
0.0
 10
18.6487897539
 20
-24.0785341092
 30
0.0
 10
18.7348618908
 20
-24.012276892
 30
0.0
 10
18.780286039
 20
-23.9860430494
 30
0.0
 11
19.7512219817
 21
-27.0528825035
 31
0.0
 11
19.3707748654
 21
-26.7912891934
 31
0.0
 11
19.0181658418
 21
-26.4172281258
 31
0.0
 11
18.7253826048
 21
-25.9645341187
 31
0.0
 11
18.5186900807
 21
-25.4739632426
 31
0.0
 11
18.4167844384
 21
-24.9897841773
 31
0.0
 11
18.4288320377
 21
-24.5556456043
 31
0.0
 11
18.5537417125
 21
-24.2106895084
 31
0.0
 11
18.6553575388
 21
-24.081735157
 31
0.0
 11
18.780286039
 21
-23.9860430494
 31
0.0
  0
SPLINE
  5
576
100
AcDbEntity
  8
0
100
AcDbSpline
 62
7
  6
CONTINUOUS
 70
0
 71
3
 72
10
 73
6
 74
4
 42
0.0000001
 43
0.0000001
 44
0.0000000001
 12
0.1320159053
 22
0.6394048633
 32
0.0
 13
0.565623146
 23
0.3260939056
 33
0.0
 40
0.0
 40
0.0
 40
0.0
 40
0.0
 40
0.530389458
 40
0.7698867452
 40
1.0
 40
1.0
 40
1.0
 40
1.0
 10
21.5363879973
 20
-26.3100619081
 30
0.0
 10
21.5597279455
 20
-26.1970173752
 30
0.0
 10
21.6183883566
 20
-26.0344305919
 30
0.0
 10
21.7557818318
 20
-25.8635306251
 30
0.0
 10
21.8382358711
 20
-25.8010025425
 30
0.0
 10
21.8816216655
 20
-25.7759896992
 30
0.0
 11
21.5363879973
 21
-26.3100619081
 31
0.0
 11
21.6629146264
 21
-25.9877183202
 31
0.0
 11
21.7617352505
 21
-25.866537879
 31
0.0
 11
21.8816216655
 21
-25.7759896992
 31
0.0
  0
SPLINE
  5
577
100
AcDbEntity
  8
0
100
AcDbSpline
 62
7
  6
CONTINUOUS
 70
0
 71
3
 72
11
 73
7
 74
5
 42
0.0000001
 43
0.0000001
 44
0.0000000001
 12
-1.2058680046
 22
0.7508995849
 32
0.0
 13
-1.230053169
 23
-0.7105892149
 33
0.0
 40
0.0
 40
0.0
 40
0.0
 40
0.0
 40
0.2918503379
 40
0.5521505471
 40
0.7843760633
 40
1.0
 40
1.0
 40
1.0
 40
1.0
 10
22.851962999
 20
-25.2954385686
 30
0.0
 10
22.7346520041
 20
-25.2223884694
 30
0.0
 10
22.5007698961
 20
-25.101646447
 30
0.0
 10
22.1392165557
 20
-25.0027692802
 30
0.0
 10
21.7989458165
 20
-25.0034684882
 30
0.0
 10
21.59410717
 20
-25.0759210999
 30
0.0
 10
21.5056975345
 20
-25.1269944478
 30
0.0
 11
22.851962999
 21
-25.2954385686
 31
0.0
 11
22.4816424989
 21
-25.1090346904
 31
0.0
 11
22.1235844463
 21
-25.0167077671
 31
0.0
 11
21.7937531665
 21
-25.0228469198
 31
0.0
 11
21.5056975345
 21
-25.1269944478
 31
0.0
  0
SPLINE
  5
578
100
AcDbEntity
  8
0
100
AcDbSpline
 62
7
  6
CONTINUOUS
 70
0
 71
3
 72
11
 73
7
 74
5
 42
0.0000001
 43
0.0000001
 44
0.0000000001
 12
-2.1328612334
 22
1.0944529707
 32
0.0
 13
-0.3942277424
 23
2.3646371462
 33
0.0
 40
0.0
 40
0.0
 40
0.0
 40
0.0
 40
0.2285954636
 40
0.4847821084
 40
0.7491183313
 40
1.0
 40
1.0
 40
1.0
 40
1.0
 10
22.851962999
 20
-28.8432086004
 30
0.0
 10
22.6894421981
 20
-28.759812939
 30
0.0
 10
22.3747339808
 20
-28.5240487405
 30
0.0
 10
21.9874126507
 20
-28.0625961529
 30
0.0
 10
21.6904187823
 20
-27.5180581103
 30
0.0
 10
21.5693582968
 20
-27.1201638822
 30
0.0
 10
21.5363901255
 20
-26.9224158445
 30
0.0
 11
22.851962999
 21
-28.8432086004
 31
0.0
 11
22.4068889973
 21
-28.523490355
 31
0.0
 11
22.008273931
 21
-28.0562796409
 31
0.0
 11
21.7055863493
 21
-27.4995582173
 31
0.0
 11
21.5363901255
 21
-26.9224158445
 31
0.0
  0
SPLINE
  5
579
100
AcDbEntity
  8
0
100
AcDbSpline
 62
7
  6
CONTINUOUS
 70
0
 71
3
 72
9
 73
5
 74
3
 42
0.0000001
 43
0.0000001
 44
0.0000000001
 12
-0.3129483596
 22
0.1807399739
 32
0.0
 13
-0.102947649
 23
0.3464179492
 33
0.0
 40
0.0
 40
0.0
 40
0.0
 40
0.0
 40
0.4743051465
 40
1.0
 40
1.0
 40
1.0
 40
1.0
 10
-6.3034354527
 20
-28.101756673
 30
0.0
 10
-6.3529131252
 20
-28.073181373
 30
0.0
 10
-6.4417483904
 20
-27.9855215802
 30
0.0
 10
-6.492367957
 20
-27.8738744612
 30
0.0
 10
-6.5104076401
 20
-27.8131710835
 30
0.0
 11
-6.3034354527
 21
-28.101756673
 31
0.0
 11
-6.4285859633
 21
-27.9846300735
 31
0.0
 11
-6.5104076401
 21
-27.8131710835
 31
0.0
  0
SPLINE
  5
57A
100
AcDbEntity
  8
0
100
AcDbSpline
 62
7
  6
CONTINUOUS
 70
0
 71
3
 72
19
 73
15
 74
13
 42
0.0000001
 43
0.0000001
 44
0.0000000001
 12
5.5706826417
 22
3.2163960543
 32
0.0
 13
-6.0804535977
 23
-2.0989980274
 33
0.0
 40
0.0
 40
0.0
 40
0.0
 40
0.0
 40
0.0449221646
 40
0.0928284888
 40
0.145821979
 40
0.204859524
 40
0.3398514067
 40
0.4903950614
 40
0.643068936
 40
0.7838062498
 40
0.8464311006
 40
0.9029284643
 40
0.9536415596
 40
1.0
 40
1.0
 40
1.0
 40
1.0
 10
-20.6084265457
 20
-3.6337949172
 30
0.0
 10
-20.5250108382
 20
-3.5856324262
 30
0.0
 10
-20.3685974808
 20
-3.4559175852
 30
0.0
 10
-20.1988727159
 20
-3.1885217092
 30
0.0
 10
-20.0937555454
 20
-2.8588697315
 30
0.0
 10
-20.0391037922
 20
-2.3291726346
 30
0.0
 10
-20.1522140795
 20
-1.5877072414
 30
0.0
 10
-20.5094515341
 20
-0.7113583821
 30
0.0
 10
-21.0488285425
 20
0.0812127829
 30
0.0
 10
-21.6147157988
 20
0.6079559748
 30
0.0
 10
-22.0997074092
 20
0.8869684945
 30
0.0
 10
-22.4452834182
 20
1.0095170844
 30
0.0
 10
-22.7755831787
 20
1.0481474439
 30
0.0
 10
-22.984622627
 20
1.013033395
 30
0.0
 10
-23.0785827423
 20
0.98059797
 30
0.0
 11
-20.6084265457
 21
-3.6337949172
 31
0.0
 11
-20.3849529089
 21
-3.4506016154
 31
0.0
 11
-20.2163183971
 21
-3.1926774007
 31
0.0
 11
-20.1086572087
 21
-2.869241933
 31
0.0
 11
-20.0657790191
 21
-2.4919083414
 31
0.0
 11
-20.1781866108
 21
-1.6308725752
 31
0.0
 11
-20.5375908969
 21
-0.7316574788
 31
0.0
 11
-21.0930798021
 21
0.0782301652
 31
0.0
 11
-21.7658428675
 21
0.684000569
 31
0.0
 11
-22.1166881076
 21
0.8819543314
 31
0.0
 11
-22.4605083088
 21
0.9996969883
 31
0.0
 11
-22.7850190406
 21
1.0329944732
 31
0.0
 11
-23.0785827423
 21
0.98059797
 31
0.0
  0
SPLINE
  5
57B
100
AcDbEntity
  8
0
100
AcDbSpline
 62
7
  6
CONTINUOUS
 70
0
 71
3
 72
9
 73
5
 74
3
 42
0.0000001
 43
0.0000001
 44
0.0000000001
 12
-0.2213095686
 22
-0.1278932281
 32
0.0
 13
-0.2549701097
 23
-0.0180234883
 33
0.0
 40
0.0
 40
0.0
 40
0.0
 40
0.0
 40
0.2457064227
 40
1.0
 40
1.0
 40
1.0
 40
1.0
 10
-21.2715071878
 20
-2.8103236136
 30
0.0
 10
-21.2896329153
 20
-2.8207983427
 30
0.0
 10
-21.3659026451
 20
-2.8590591794
 30
0.0
 10
-21.4511161524
 20
-2.8785431605
 30
0.0
 10
-21.5152235911
 20
-2.8830748277
 30
0.0
 11
-21.2715071878
 21
-2.8103236136
 31
0.0
 11
-21.3276527908
 21
-2.8384666197
 31
0.0
 11
-21.5152235911
 21
-2.8830748277
 31
0.0
  0
SPLINE
  5
57C
100
AcDbEntity
  8
0
100
AcDbSpline
 62
7
  6
CONTINUOUS
 70
0
 71
3
 72
9
 73
5
 74
3
 42
0.0000001
 43
0.0000001
 44
0.0000000001
 12
-0.2578658626
 22
-0.2045222879
 32
0.0
 13
-0.1384486337
 23
-0.298590263
 33
0.0
 40
0.0
 40
0.0
 40
0.0
 40
0.0
 40
0.2403689149
 40
1.0
 40
1.0
 40
1.0
 40
1.0
 10
21.9493147278
 20
-25.7443963279
 30
0.0
 10
21.9286537486
 20
-25.7607832613
 30
0.0
 10
21.8470602092
 20
-25.8344618232
 30
0.0
 10
21.7853783266
 20
-25.9287548383
 30
0.0
 10
21.750321698
 20
-26.0043609867
 30
0.0
 11
21.9493147278
 21
-25.7443963279
 31
0.0
 11
21.8905790876
 21
-25.797394379
 31
0.0
 11
21.750321698
 21
-26.0043609867
 31
0.0
  0
SPLINE
  5
57D
100
AcDbEntity
  8
0
100
AcDbSpline
 62
7
  6
CONTINUOUS
 70
0
 71
3
 72
9
 73
5
 74
3
 42
0.0000001
 43
0.0000001
 44
0.0000000001
 12
-0.0991853784
 22
-0.2139117407
 32
0.0
 13
-0.0476768839
 23
-0.2309174892
 33
0.0
 40
0.0
 40
0.0
 40
0.0
 40
0.0
 40
0.2405413161
 40
1.0
 40
1.0
 40
1.0
 40
1.0
 10
21.750321698
 20
-26.0043609867
 30
0.0
 10
21.7423689708
 20
-26.0215125239
 30
0.0
 10
21.7116146672
 20
-26.0938794902
 30
0.0
 10
21.6898788224
 20
-26.1699495168
 30
0.0
 10
21.6778092812
 20
-26.2284069477
 30
0.0
 11
21.750321698
 21
-26.0043609867
 31
0.0
 11
21.7280954186
 21
-26.0565412741
 31
0.0
 11
21.6778092812
 21
-26.2284069477
 31
0.0
  0
SPLINE
  5
57E
100
AcDbEntity
  8
0
100
AcDbSpline
 62
7
  6
CONTINUOUS
 70
0
 71
3
 72
12
 73
8
 74
6
 42
0.0000001
 43
0.0000001
 44
0.0000000001
 12
0.7296895624
 22
0.4213135144
 32
0.0
 13
-0.0124735361
 23
0.8424941221
 33
0.0
 40
0.0
 40
0.0
 40
0.0
 40
0.0
 40
0.1051709865
 40
0.213386007
 40
0.3886538942
 40
0.577371001
 40
1.0
 40
1.0
 40
1.0
 40
1.0
 10
-26.0951108357
 20
-7.6656921818
 30
0.0
 10
-26.069530112
 20
-7.6509221959
 30
0.0
 10
-26.0199610837
 20
-7.6162915939
 30
0.0
 10
-25.9477178085
 20
-7.5329562109
 30
0.0
 10
-25.8910759479
 20
-7.4115906713
 30
0.0
 10
-25.8251749458
 20
-7.2001349358
 30
0.0
 10
-25.8184213904
 20
-7.0258190048
 30
0.0
 10
-25.8201786164
 20
-6.9071315223
 30
0.0
 11
-26.0951108357
 21
-7.6656921818
 31
0.0
 11
-26.0230742316
 21
-7.6140834532
 31
0.0
 11
-25.9629050721
 21
-7.5455739083
 31
0.0
 11
-25.8957422478
 21
-7.414051859
 31
0.0
 11
-25.849008601
 21
-7.2620640358
 31
0.0
 11
-25.8201786164
 21
-6.9071315223
 31
0.0
  0
SPLINE
  5
57F
100
AcDbEntity
  8
0
100
AcDbSpline
 62
253
  6
CONTINUOUS
 70
0
 71
3
 72
15
 73
11
 74
9
 42
0.0000001
 43
0.0000001
 44
0.0000000001
 12
0.0
 22
1.0493282926
 32
0.0
 13
0.9087303209
 23
-0.5246894982
 33
0.0
 40
0.0
 40
0.0
 40
0.0
 40
0.0
 40
0.144758486
 40
0.2745323305
 40
0.3911113985
 40
0.4999892084
 40
0.6088691323
 40
0.7254536478
 40
0.8552341948
 40
1.0
 40
1.0
 40
1.0
 40
1.0
 10
28.8499566724
 20
-45.69874441
 30
0.0
 10
28.8499566724
 20
-45.6481113517
 30
0.0
 10
28.8576833342
 20
-45.5517614104
 30
0.0
 10
28.8966172
 20
-45.4193787221
 30
0.0
 10
28.9623988855
 20
-45.3118472078
 30
0.0
 10
29.0537083681
 20
-45.2351794477
 30
0.0
 10
29.1657657526
 20
-45.1944494465
 30
0.0
 10
29.291786562
 20
-45.1912580677
 30
0.0
 10
29.4259048195
 20
-45.2237408174
 30
0.0
 10
29.5132124281
 20
-45.265229694
 30
0.0
 10
29.5570634536
 20
-45.2905487266
 30
0.0
 11
28.8499566724
 21
-45.69874441
 31
0.0
 11
28.8635551746
 21
-45.5474551503
 31
0.0
 11
28.9037847947
 21
-45.4173578477
 31
0.0
 11
28.9691252461
 21
-45.313940323
 31
0.0
 11
29.0570857697
 21
-45.2410316047
 31
0.0
 11
29.1642133067
 21
-45.2013209938
 31
0.0
 11
29.2864518851
 21
-45.1964540107
 31
0.0
 11
29.4192393168
 21
-45.2266722836
 31
0.0
 11
29.5570634536
 21
-45.2905487266
 31
0.0
  0
SPLINE
  5
580
100
AcDbEntity
  8
0
100
AcDbSpline
 62
253
  6
CONTINUOUS
 70
0
 71
3
 72
11
 73
7
 74
5
 42
0.0000001
 43
0.0000001
 44
0.0000000001
 12
-1.2694371376
 22
0.7329570935
 32
0.0
 13
0.0
 23
1.465843357
 33
0.0
 40
0.0
 40
0.0
 40
0.0
 40
0.0
 40
0.2372357117
 40
0.5000064895
 40
0.7627739933
 40
1.0
 40
1.0
 40
1.0
 40
1.0
 10
29.5570634536
 20
-48.5564298337
 30
0.0
 10
29.4566781793
 20
-48.4984686345
 30
0.0
 10
29.2666910211
 20
-48.3385897556
 30
0.0
 10
29.0450155984
 20
-48.035554536
 30
0.0
 10
28.8934187917
 20
-47.6920648483
 30
0.0
 10
28.8499566724
 20
-47.4475970189
 30
0.0
 10
28.8499566724
 20
-47.3316849636
 30
0.0
 11
29.5570634536
 21
-48.5564298337
 31
0.0
 11
29.2864510292
 21
-48.338028252
 31
0.0
 11
29.0570852081
 21
-48.0285842859
 31
0.0
 11
28.903784494
 21
-47.6752297304
 31
0.0
 11
28.8499566724
 21
-47.3316849636
 31
0.0
  0
SPLINE
  5
581
100
AcDbEntity
  8
0
100
AcDbSpline
 62
253
  6
CONTINUOUS
 70
0
 71
3
 72
15
 73
11
 74
9
 42
0.0000001
 43
0.0000001
 44
0.0000000001
 12
0.0
 22
-1.0493282926
 32
0.0
 13
-0.9087303209
 23
0.5246894982
 33
0.0
 40
0.0
 40
0.0
 40
0.0
 40
0.0
 40
0.144758486
 40
0.2745323305
 40
0.3911113985
 40
0.4999892084
 40
0.6088691323
 40
0.7254536478
 40
0.8552341948
 40
1.0
 40
1.0
 40
1.0
 40
1.0
 10
34.0825468532
 20
-50.3529169542
 30
0.0
 10
34.0825468532
 20
-50.4035500126
 30
0.0
 10
34.0748201914
 20
-50.4998999539
 30
0.0
 10
34.0358863256
 20
-50.6322826422
 30
0.0
 10
33.9701046401
 20
-50.7398141565
 30
0.0
 10
33.8787951575
 20
-50.8164819166
 30
0.0
 10
33.766737773
 20
-50.8572119178
 30
0.0
 10
33.6407169636
 20
-50.8604032966
 30
0.0
 10
33.5065987061
 20
-50.8279205469
 30
0.0
 10
33.4192910975
 20
-50.7864316703
 30
0.0
 10
33.375440072
 20
-50.7611126377
 30
0.0
 11
34.0825468532
 21
-50.3529169542
 31
0.0
 11
34.068948351
 21
-50.5042062139
 31
0.0
 11
34.0287187309
 21
-50.6343035166
 31
0.0
 11
33.9633782795
 21
-50.7377210413
 31
0.0
 11
33.8754177559
 21
-50.8106297596
 31
0.0
 11
33.7682902189
 21
-50.8503403705
 31
0.0
 11
33.6460516405
 21
-50.8552073536
 31
0.0
 11
33.5132642088
 21
-50.8249890807
 31
0.0
 11
33.375440072
 21
-50.7611126377
 31
0.0
  0
SPLINE
  5
582
100
AcDbEntity
  8
0
100
AcDbSpline
 62
253
  6
CONTINUOUS
 70
0
 71
3
 72
9
 73
5
 74
3
 42
0.0000001
 43
0.0000001
 44
0.0000000001
 12
0.2353430672
 22
-0.1358841374
 32
0.0
 13
0.1972297863
 23
-0.1869525861
 33
0.0
 40
0.0
 40
0.0
 40
0.0
 40
0.0
 40
0.2373320734
 40
1.0
 40
1.0
 40
1.0
 40
1.0
 10
33.375440072
 20
-47.4952315305
 30
0.0
 10
33.3940582247
 20
-47.5059814186
 30
0.0
 10
33.4709233021
 20
-47.55400103
 30
0.0
 10
33.5415551091
 20
-47.6116876183
 30
0.0
 10
33.5916953865
 20
-47.6592151987
 30
0.0
 11
33.375440072
 21
-47.4952315305
 31
0.0
 11
33.4301922227
 21
-47.5293191135
 31
0.0
 11
33.5916953865
 21
-47.6592151987
 31
0.0
  0
SPLINE
  5
583
100
AcDbEntity
  8
0
100
AcDbSpline
 62
253
  6
CONTINUOUS
 70
0
 71
3
 72
9
 73
5
 74
3
 42
0.0000001
 43
0.0000001
 44
0.0000000001
 12
0.2217412281
 22
-0.2101867919
 32
0.0
 13
0.1762820323
 23
-0.2495441941
 33
0.0
 40
0.0
 40
0.0
 40
0.0
 40
0.0
 40
0.2435433814
 40
1.0
 40
1.0
 40
1.0
 40
1.0
 10
33.5916953865
 20
-47.6592151987
 30
0.0
 10
33.6096965893
 20
-47.6762783994
 30
0.0
 10
33.681697826
 20
-47.7483425931
 30
0.0
 10
33.7462737857
 20
-47.8277320804
 30
0.0
 10
33.790723689
 20
-47.8906551995
 30
0.0
 11
33.5916953865
 21
-47.6592151987
 31
0.0
 11
33.6443270204
 21
-47.7118144021
 31
0.0
 11
33.790723689
 21
-47.8906551995
 31
0.0
  0
SPLINE
  5
584
100
AcDbEntity
  8
0
100
AcDbSpline
 62
253
  6
CONTINUOUS
 70
0
 71
3
 72
9
 73
5
 74
3
 42
0.0000001
 43
0.0000001
 44
0.0000000001
 12
0.1391276124
 22
-0.3595047277
 32
0.0
 13
0.033354398
 23
-0.3840411774
 33
0.0
 40
0.0
 40
0.0
 40
0.0
 40
0.0
 40
0.2616234738
 40
1.0
 40
1.0
 40
1.0
 40
1.0
 10
33.9882975439
 20
-48.2582961921
 30
0.0
 10
34.0004305603
 20
-48.2896478173
 30
0.0
 10
34.0430527409
 20
-48.4108481465
 30
0.0
 10
34.0704313541
 20
-48.537816642
 30
0.0
 10
34.0786407223
 20
-48.6323389722
 30
0.0
 11
33.9882975439
 21
-48.2582961921
 31
0.0
 11
34.0216891122
 21
-48.3534603324
 31
0.0
 11
34.0786407223
 21
-48.6323389722
 31
0.0
  0
SPLINE
  5
585
100
AcDbEntity
  8
0
100
AcDbSpline
 62
253
  6
CONTINUOUS
 70
0
 71
3
 72
9
 73
5
 74
3
 42
0.0000001
 43
0.0000001
 44
0.0000000001
 12
0.0075917023
 22
-0.0874105508
 32
0.0
 13
0.0
 23
-0.0877396053
 33
0.0
 40
0.0
 40
0.0
 40
0.0
 40
0.0
 40
0.2549845435
 40
1.0
 40
1.0
 40
1.0
 40
1.0
 10
34.0786407223
 20
-48.6323389722
 30
0.0
 10
34.0792859779
 20
-48.6397684186
 30
0.0
 10
34.0815198584
 20
-48.668929814
 30
0.0
 10
34.0825468532
 20
-48.6981872799
 30
0.0
 10
34.0825468532
 20
-48.7199764007
 30
0.0
 11
34.0786407223
 21
-48.6323389722
 31
0.0
 11
34.0803467197
 21
-48.6546460751
 31
0.0
 11
34.0825468532
 21
-48.7199764007
 31
0.0
  0
SPLINE
  5
586
100
AcDbEntity
  8
0
100
AcDbSpline
 62
253
  6
CONTINUOUS
 70
0
 71
3
 72
11
 73
7
 74
5
 42
0.0000001
 43
0.0000001
 44
0.0000000001
 12
-1.2694371376
 22
0.7329570935
 32
0.0
 13
0.0
 23
1.465843357
 33
0.0
 40
0.0
 40
0.0
 40
0.0
 40
0.0
 40
0.2372357117
 40
0.5000064895
 40
0.7627739933
 40
1.0
 40
1.0
 40
1.0
 40
1.0
 10
-21.7081781824
 20
-18.9565218175
 30
0.0
 10
-21.8085634567
 20
-18.8985606182
 30
0.0
 10
-21.9985506149
 20
-18.7386817393
 30
0.0
 10
-22.2202260376
 20
-18.4356465198
 30
0.0
 10
-22.3718228443
 20
-18.092156832
 30
0.0
 10
-22.4152849636
 20
-17.8476890027
 30
0.0
 10
-22.4152849636
 20
-17.7317769474
 30
0.0
 11
-21.7081781824
 21
-18.9565218175
 31
0.0
 11
-21.9787906069
 21
-18.7381202358
 31
0.0
 11
-22.2081564279
 21
-18.4286762697
 31
0.0
 11
-22.361457142
 21
-18.0753217141
 31
0.0
 11
-22.4152849636
 21
-17.7317769474
 31
0.0
  0
SPLINE
  5
587
100
AcDbEntity
  8
0
100
AcDbSpline
 62
253
  6
CONTINUOUS
 70
0
 71
3
 72
15
 73
11
 74
9
 42
0.0000001
 43
0.0000001
 44
0.0000000001
 12
0.0
 22
-1.0493282926
 32
0.0
 13
-0.9087303209
 23
0.5246894982
 33
0.0
 40
0.0
 40
0.0
 40
0.0
 40
0.0
 40
0.144758486
 40
0.2745323305
 40
0.3911113985
 40
0.4999892084
 40
0.6088691323
 40
0.7254536478
 40
0.8552341948
 40
1.0
 40
1.0
 40
1.0
 40
1.0
 10
-17.1826947828
 20
-20.753008938
 30
0.0
 10
-17.1826947828
 20
-20.8036419963
 30
0.0
 10
-17.1904214447
 20
-20.8999919376
 30
0.0
 10
-17.2293553104
 20
-21.0323746259
 30
0.0
 10
-17.2951369959
 20
-21.1399061403
 30
0.0
 10
-17.3864464785
 20
-21.2165739003
 30
0.0
 10
-17.4985038631
 20
-21.2573039015
 30
0.0
 10
-17.6245246725
 20
-21.2604952803
 30
0.0
 10
-17.7586429299
 20
-21.2280125306
 30
0.0
 10
-17.8459505385
 20
-21.186523654
 30
0.0
 10
-17.889801564
 20
-21.1612046214
 30
0.0
 11
-17.1826947828
 21
-20.753008938
 31
0.0
 11
-17.196293285
 21
-20.9042981977
 31
0.0
 11
-17.2365229051
 21
-21.0343955003
 31
0.0
 11
-17.3018633566
 21
-21.137813025
 31
0.0
 11
-17.3898238802
 21
-21.2107217433
 31
0.0
 11
-17.4969514172
 21
-21.2504323542
 31
0.0
 11
-17.6191899955
 21
-21.2552993373
 31
0.0
 11
-17.7519774272
 21
-21.2250810644
 31
0.0
 11
-17.889801564
 21
-21.1612046214
 31
0.0
  0
SPLINE
  5
588
100
AcDbEntity
  8
0
100
AcDbSpline
 62
253
  6
CONTINUOUS
 70
0
 71
3
 72
9
 73
5
 74
3
 42
0.0000001
 43
0.0000001
 44
0.0000000001
 12
0.2353430672
 22
-0.1358841374
 32
0.0
 13
0.1972297863
 23
-0.1869525861
 33
0.0
 40
0.0
 40
0.0
 40
0.0
 40
0.0
 40
0.2373320734
 40
1.0
 40
1.0
 40
1.0
 40
1.0
 10
-17.889801564
 20
-17.8953235143
 30
0.0
 10
-17.8711834113
 20
-17.9060734023
 30
0.0
 10
-17.7943183339
 20
-17.9540930137
 30
0.0
 10
-17.7236865269
 20
-18.011779602
 30
0.0
 10
-17.6735462495
 20
-18.0593071824
 30
0.0
 11
-17.889801564
 21
-17.8953235143
 31
0.0
 11
-17.8350494133
 21
-17.9294110973
 31
0.0
 11
-17.6735462495
 21
-18.0593071824
 31
0.0
  0
SPLINE
  5
589
100
AcDbEntity
  8
0
100
AcDbSpline
 62
253
  6
CONTINUOUS
 70
0
 71
3
 72
9
 73
5
 74
3
 42
0.0000001
 43
0.0000001
 44
0.0000000001
 12
0.2217412281
 22
-0.2101867919
 32
0.0
 13
0.1762820323
 23
-0.2495441941
 33
0.0
 40
0.0
 40
0.0
 40
0.0
 40
0.0
 40
0.2435433814
 40
1.0
 40
1.0
 40
1.0
 40
1.0
 10
-17.6735462495
 20
-18.0593071824
 30
0.0
 10
-17.6555450467
 20
-18.0763703831
 30
0.0
 10
-17.58354381
 20
-18.1484345769
 30
0.0
 10
-17.5189678504
 20
-18.2278240642
 30
0.0
 10
-17.474517947
 20
-18.2907471833
 30
0.0
 11
-17.6735462495
 21
-18.0593071824
 31
0.0
 11
-17.6209146157
 21
-18.1119063859
 31
0.0
 11
-17.474517947
 21
-18.2907471833
 31
0.0
  0
SPLINE
  5
58A
100
AcDbEntity
  8
0
100
AcDbSpline
 62
253
  6
CONTINUOUS
 70
0
 71
3
 72
9
 73
5
 74
3
 42
0.0000001
 43
0.0000001
 44
0.0000000001
 12
0.1391276124
 22
-0.3595047277
 32
0.0
 13
0.033354398
 23
-0.3840411774
 33
0.0
 40
0.0
 40
0.0
 40
0.0
 40
0.0
 40
0.2616234738
 40
1.0
 40
1.0
 40
1.0
 40
1.0
 10
-17.2769440921
 20
-18.6583881758
 30
0.0
 10
-17.2648110757
 20
-18.6897398011
 30
0.0
 10
-17.2221888952
 20
-18.8109401303
 30
0.0
 10
-17.1948102819
 20
-18.9379086258
 30
0.0
 10
-17.1866009137
 20
-19.0324309559
 30
0.0
 11
-17.2769440921
 21
-18.6583881758
 31
0.0
 11
-17.2435525239
 21
-18.7535523161
 31
0.0
 11
-17.1866009137
 21
-19.0324309559
 31
0.0
  0
SPLINE
  5
58B
100
AcDbEntity
  8
0
100
AcDbSpline
 62
253
  6
CONTINUOUS
 70
0
 71
3
 72
9
 73
5
 74
3
 42
0.0000001
 43
0.0000001
 44
0.0000000001
 12
0.0075917023
 22
-0.0874105508
 32
0.0
 13
0.0
 23
-0.0877396053
 33
0.0
 40
0.0
 40
0.0
 40
0.0
 40
0.0
 40
0.2549845435
 40
1.0
 40
1.0
 40
1.0
 40
1.0
 10
-17.1866009137
 20
-19.0324309559
 30
0.0
 10
-17.1859556581
 20
-19.0398604024
 30
0.0
 10
-17.1837217776
 20
-19.0690217978
 30
0.0
 10
-17.1826947828
 20
-19.0982792637
 30
0.0
 10
-17.1826947828
 20
-19.1200683844
 30
0.0
 11
-17.1866009137
 21
-19.0324309559
 31
0.0
 11
-17.1848949163
 21
-19.0547380588
 31
0.0
 11
-17.1826947828
 21
-19.1200683844
 31
0.0
  0
SPLINE
  5
58C
100
AcDbEntity
  8
0
100
AcDbSpline
 62
253
  6
CONTINUOUS
 70
0
 71
3
 72
15
 73
11
 74
9
 42
0.0000001
 43
0.0000001
 44
0.0000000001
 12
0.0
 22
1.0493282926
 32
0.0
 13
0.9087303209
 23
-0.5246894982
 33
0.0
 40
0.0
 40
0.0
 40
0.0
 40
0.0
 40
0.144758486
 40
0.2745323305
 40
0.3911113985
 40
0.4999892084
 40
0.6088691323
 40
0.7254536478
 40
0.8552341948
 40
1.0
 40
1.0
 40
1.0
 40
1.0
 10
-22.4152849636
 20
-16.0988363938
 30
0.0
 10
-22.4152849636
 20
-16.0482033354
 30
0.0
 10
-22.4075583018
 20
-15.9518533941
 30
0.0
 10
-22.368624436
 20
-15.8194707058
 30
0.0
 10
-22.3028427505
 20
-15.7119391915
 30
0.0
 10
-22.211533268
 20
-15.6352714314
 30
0.0
 10
-22.0994758834
 20
-15.5945414302
 30
0.0
 10
-21.973455074
 20
-15.5913500514
 30
0.0
 10
-21.8393368165
 20
-15.6238328011
 30
0.0
 10
-21.752029208
 20
-15.6653216777
 30
0.0
 10
-21.7081781824
 20
-15.6906407103
 30
0.0
 11
-22.4152849636
 21
-16.0988363938
 31
0.0
 11
-22.4016864614
 21
-15.9475471341
 31
0.0
 11
-22.3614568413
 21
-15.8174498315
 31
0.0
 11
-22.2961163899
 21
-15.7140323067
 31
0.0
 11
-22.2081558663
 21
-15.6411235884
 31
0.0
 11
-22.1010283293
 21
-15.6014129775
 31
0.0
 11
-21.9787897509
 21
-15.5965459944
 31
0.0
 11
-21.8460023192
 21
-15.6267642673
 31
0.0
 11
-21.7081781824
 21
-15.6906407103
 31
0.0
  0
SPLINE
  5
58D
100
AcDbEntity
  8
0
100
AcDbSpline
 62
253
  6
CONTINUOUS
 70
0
 71
3
 72
11
 73
7
 74
5
 42
0.0000001
 43
0.0000001
 44
0.0000000001
 12
-1.2694371376
 22
0.7329570935
 32
0.0
 13
0.0
 23
1.465843357
 33
0.0
 40
0.0
 40
0.0
 40
0.0
 40
0.0
 40
0.2372357117
 40
0.5000064895
 40
0.7627739933
 40
1.0
 40
1.0
 40
1.0
 40
1.0
 10
-34.7896536344
 20
-11.4034418409
 30
0.0
 10
-34.8900389086
 20
-11.3454806417
 30
0.0
 10
-35.0800260668
 20
-11.1856017627
 30
0.0
 10
-35.3017014895
 20
-10.8825665432
 30
0.0
 10
-35.4532982963
 20
-10.5390768555
 30
0.0
 10
-35.4967604156
 20
-10.2946090261
 30
0.0
 10
-35.4967604156
 20
-10.1786969708
 30
0.0
 11
-34.7896536344
 21
-11.4034418409
 31
0.0
 11
-35.0602660588
 21
-11.1850402592
 31
0.0
 11
-35.2896318798
 21
-10.8755962931
 31
0.0
 11
-35.4429325939
 21
-10.5222417375
 31
0.0
 11
-35.4967604156
 21
-10.1786969708
 31
0.0
  0
SPLINE
  5
58E
100
AcDbEntity
  8
0
100
AcDbSpline
 62
253
  6
CONTINUOUS
 70
0
 71
3
 72
15
 73
11
 74
9
 42
0.0000001
 43
0.0000001
 44
0.0000000001
 12
0.0
 22
-1.0493282926
 32
0.0
 13
-0.9087303209
 23
0.5246894982
 33
0.0
 40
0.0
 40
0.0
 40
0.0
 40
0.0
 40
0.144758486
 40
0.2745323305
 40
0.3911113985
 40
0.4999892084
 40
0.6088691323
 40
0.7254536478
 40
0.8552341948
 40
1.0
 40
1.0
 40
1.0
 40
1.0
 10
-30.2641702348
 20
-13.1999289614
 30
0.0
 10
-30.2641702348
 20
-13.2505620197
 30
0.0
 10
-30.2718968966
 20
-13.3469119611
 30
0.0
 10
-30.3108307624
 20
-13.4792946493
 30
0.0
 10
-30.3766124479
 20
-13.5868261637
 30
0.0
 10
-30.4679219304
 20
-13.6634939237
 30
0.0
 10
-30.579979315
 20
-13.704223925
 30
0.0
 10
-30.7060001244
 20
-13.7074153038
 30
0.0
 10
-30.8401183819
 20
-13.6749325541
 30
0.0
 10
-30.9274259904
 20
-13.6334436774
 30
0.0
 10
-30.971277016
 20
-13.6081246449
 30
0.0
 11
-30.2641702348
 21
-13.1999289614
 31
0.0
 11
-30.277768737
 21
-13.3512182211
 31
0.0
 11
-30.3179983571
 21
-13.4813155237
 31
0.0
 11
-30.3833388085
 21
-13.5847330485
 31
0.0
 11
-30.4712993321
 21
-13.6576417668
 31
0.0
 11
-30.5784268691
 21
-13.6973523777
 31
0.0
 11
-30.7006654475
 21
-13.7022193607
 31
0.0
 11
-30.8334528792
 21
-13.6720010879
 31
0.0
 11
-30.971277016
 21
-13.6081246449
 31
0.0
  0
SPLINE
  5
58F
100
AcDbEntity
  8
0
100
AcDbSpline
 62
253
  6
CONTINUOUS
 70
0
 71
3
 72
9
 73
5
 74
3
 42
0.0000001
 43
0.0000001
 44
0.0000000001
 12
0.2353430672
 22
-0.1358841374
 32
0.0
 13
0.1972297863
 23
-0.1869525861
 33
0.0
 40
0.0
 40
0.0
 40
0.0
 40
0.0
 40
0.2373320734
 40
1.0
 40
1.0
 40
1.0
 40
1.0
 10
-30.971277016
 20
-10.3422435377
 30
0.0
 10
-30.9526588633
 20
-10.3529934257
 30
0.0
 10
-30.8757937859
 20
-10.4010130372
 30
0.0
 10
-30.8051619789
 20
-10.4586996254
 30
0.0
 10
-30.7550217015
 20
-10.5062272059
 30
0.0
 11
-30.971277016
 21
-10.3422435377
 31
0.0
 11
-30.9165248653
 21
-10.3763311207
 31
0.0
 11
-30.7550217015
 21
-10.5062272059
 31
0.0
  0
SPLINE
  5
590
100
AcDbEntity
  8
0
100
AcDbSpline
 62
253
  6
CONTINUOUS
 70
0
 71
3
 72
9
 73
5
 74
3
 42
0.0000001
 43
0.0000001
 44
0.0000000001
 12
0.2217412281
 22
-0.2101867919
 32
0.0
 13
0.1762820323
 23
-0.2495441941
 33
0.0
 40
0.0
 40
0.0
 40
0.0
 40
0.0
 40
0.2435433814
 40
1.0
 40
1.0
 40
1.0
 40
1.0
 10
-30.7550217015
 20
-10.5062272059
 30
0.0
 10
-30.7370204986
 20
-10.5232904065
 30
0.0
 10
-30.665019262
 20
-10.5953546003
 30
0.0
 10
-30.6004433023
 20
-10.6747440876
 30
0.0
 10
-30.5559933989
 20
-10.7376672067
 30
0.0
 11
-30.7550217015
 21
-10.5062272059
 31
0.0
 11
-30.7023900676
 21
-10.5588264093
 31
0.0
 11
-30.5559933989
 21
-10.7376672067
 31
0.0
  0
SPLINE
  5
591
100
AcDbEntity
  8
0
100
AcDbSpline
 62
253
  6
CONTINUOUS
 70
0
 71
3
 72
9
 73
5
 74
3
 42
0.0000001
 43
0.0000001
 44
0.0000000001
 12
0.1391276124
 22
-0.3595047277
 32
0.0
 13
0.033354398
 23
-0.3840411774
 33
0.0
 40
0.0
 40
0.0
 40
0.0
 40
0.0
 40
0.2616234738
 40
1.0
 40
1.0
 40
1.0
 40
1.0
 10
-30.3584195441
 20
-11.1053081992
 30
0.0
 10
-30.3462865276
 20
-11.1366598245
 30
0.0
 10
-30.3036643471
 20
-11.2578601537
 30
0.0
 10
-30.2762857338
 20
-11.3848286492
 30
0.0
 10
-30.2680763657
 20
-11.4793509793
 30
0.0
 11
-30.3584195441
 21
-11.1053081992
 31
0.0
 11
-30.3250279758
 21
-11.2004723396
 31
0.0
 11
-30.2680763657
 21
-11.4793509793
 31
0.0
  0
SPLINE
  5
592
100
AcDbEntity
  8
0
100
AcDbSpline
 62
253
  6
CONTINUOUS
 70
0
 71
3
 72
9
 73
5
 74
3
 42
0.0000001
 43
0.0000001
 44
0.0000000001
 12
0.0075917023
 22
-0.0874105508
 32
0.0
 13
0.0
 23
-0.0877396053
 33
0.0
 40
0.0
 40
0.0
 40
0.0
 40
0.0
 40
0.2549845435
 40
1.0
 40
1.0
 40
1.0
 40
1.0
 10
-30.2680763657
 20
-11.4793509793
 30
0.0
 10
-30.2674311101
 20
-11.4867804258
 30
0.0
 10
-30.2651972295
 20
-11.5159418212
 30
0.0
 10
-30.2641702348
 20
-11.5451992871
 30
0.0
 10
-30.2641702348
 20
-11.5669884078
 30
0.0
 11
-30.2680763657
 21
-11.4793509793
 31
0.0
 11
-30.2663703683
 21
-11.5016580822
 31
0.0
 11
-30.2641702348
 21
-11.5669884078
 31
0.0
  0
SPLINE
  5
593
100
AcDbEntity
  8
0
100
AcDbSpline
 62
253
  6
CONTINUOUS
 70
0
 71
3
 72
15
 73
11
 74
9
 42
0.0000001
 43
0.0000001
 44
0.0000000001
 12
0.0
 22
1.0493282926
 32
0.0
 13
0.9087303209
 23
-0.5246894982
 33
0.0
 40
0.0
 40
0.0
 40
0.0
 40
0.0
 40
0.144758486
 40
0.2745323305
 40
0.3911113985
 40
0.4999892084
 40
0.6088691323
 40
0.7254536478
 40
0.8552341948
 40
1.0
 40
1.0
 40
1.0
 40
1.0
 10
-35.4967604156
 20
-8.5457564172
 30
0.0
 10
-35.4967604156
 20
-8.4951233589
 30
0.0
 10
-35.4890337537
 20
-8.3987734176
 30
0.0
 10
-35.450099888
 20
-8.2663907293
 30
0.0
 10
-35.3843182025
 20
-8.1588592149
 30
0.0
 10
-35.2930087199
 20
-8.0821914549
 30
0.0
 10
-35.1809513353
 20
-8.0414614537
 30
0.0
 10
-35.0549305259
 20
-8.0382700749
 30
0.0
 10
-34.9208122684
 20
-8.0707528245
 30
0.0
 10
-34.8335046599
 20
-8.1122417012
 30
0.0
 10
-34.7896536344
 20
-8.1375607337
 30
0.0
 11
-35.4967604156
 21
-8.5457564172
 31
0.0
 11
-35.4831619134
 21
-8.3944671575
 31
0.0
 11
-35.4429322933
 21
-8.2643698549
 31
0.0
 11
-35.3775918418
 21
-8.1609523301
 31
0.0
 11
-35.2896313182
 21
-8.0880436119
 31
0.0
 11
-35.1825037812
 21
-8.0483330009
 31
0.0
 11
-35.0602652029
 21
-8.0434660179
 31
0.0
 11
-34.9274777712
 21
-8.0736842907
 31
0.0
 11
-34.7896536344
 21
-8.1375607337
 31
0.0
  0
SPLINE
  5
594
100
AcDbEntity
  8
0
100
AcDbSpline
 62
253
  6
CONTINUOUS
 70
0
 71
3
 72
9
 73
5
 74
3
 42
0.0000001
 43
0.0000001
 44
0.0000000001
 12
0.0
 22
0.27166148
 32
0.0
 13
-0.0632508042
 23
0.264195563
 33
0.0
 40
0.0
 40
0.0
 40
0.0
 40
0.0
 40
0.2373335204
 40
1.0
 40
1.0
 40
1.0
 40
1.0
 10
21.0010714012
 20
-41.1668964241
 30
0.0
 10
21.0010714012
 20
-41.1454049656
 30
0.0
 10
20.9979219973
 20
-41.0548591767
 30
0.0
 10
20.9832900326
 20
-40.96487734
 30
0.0
 10
20.9672102766
 20
-40.8977129733
 30
0.0
 11
21.0010714012
 21
-41.1668964241
 31
0.0
 11
20.9989297025
 21
-41.1024576298
 31
0.0
 11
20.9672102766
 21
-40.8977129733
 31
0.0
  0
SPLINE
  5
595
100
AcDbEntity
  8
0
100
AcDbSpline
 62
253
  6
CONTINUOUS
 70
0
 71
3
 72
9
 73
5
 74
3
 42
0.0000001
 43
0.0000001
 44
0.0000000001
 12
-0.0470014468
 22
0.1963227798
 32
0.0
 13
-0.0728623998
 23
0.1882626903
 33
0.0
 40
0.0
 40
0.0
 40
0.0
 40
0.0
 40
0.2451027285
 40
1.0
 40
1.0
 40
1.0
 40
1.0
 10
20.9672102766
 20
-40.8977129733
 30
0.0
 10
20.9633702156
 20
-40.8816732237
 30
0.0
 10
20.9465209457
 20
-40.8165187061
 30
0.0
 10
20.9251429682
 20
-40.7525538552
 30
0.0
 10
20.9068084259
 20
-40.7051808581
 30
0.0
 11
20.9672102766
 21
-40.8977129733
 31
0.0
 11
20.9548385479
 21
-40.8498055933
 31
0.0
 11
20.9068084259
 21
-40.7051808581
 31
0.0
  0
SPLINE
  5
596
100
AcDbEntity
  8
0
100
AcDbSpline
 62
253
  6
CONTINUOUS
 70
0
 71
3
 72
9
 73
5
 74
3
 42
0.0000001
 43
0.0000001
 44
0.0000000001
 12
-0.2820495902
 22
0.3992871049
 32
0.0
 13
-0.4006002021
 23
0.280181444
 33
0.0
 40
0.0
 40
0.0
 40
0.0
 40
0.0
 40
0.2626580467
 40
1.0
 40
1.0
 40
1.0
 40
1.0
 10
20.7092697835
 20
-40.337605717
 30
0.0
 10
20.6845755853
 20
-40.30264706
 30
0.0
 10
20.5855704691
 20
-40.1732835465
 30
0.0
 10
20.4664349644
 20
-40.0582658051
 30
0.0
 10
20.3679751859
 20
-39.9894026273
 30
0.0
 11
20.7092697835
 21
-40.337605717
 31
0.0
 11
20.6311778241
 21
-40.2356800285
 31
0.0
 11
20.3679751859
 21
-39.9894026273
 31
0.0
  0
SPLINE
  5
597
100
AcDbEntity
  8
0
100
AcDbSpline
 62
253
  6
CONTINUOUS
 70
0
 71
3
 72
9
 73
5
 74
3
 42
0.0000001
 43
0.0000001
 44
0.0000000001
 12
-0.0719676343
 22
0.0503344621
 32
0.0
 13
-0.0760558184
 23
0.0439136762
 33
0.0
 40
0.0
 40
0.0
 40
0.0
 40
0.0
 40
0.2549884366
 40
1.0
 40
1.0
 40
1.0
 40
1.0
 10
20.3679751859
 20
-39.9894026273
 30
0.0
 10
20.3618582144
 20
-39.9851243921
 30
0.0
 10
20.3376991
 20
-39.9685912941
 30
0.0
 10
20.3128521081
 20
-39.9530569528
 30
0.0
 10
20.2939646201
 20
-39.942151554
 30
0.0
 11
20.3679751859
 21
-39.9894026273
 31
0.0
 11
20.3494928996
 21
-39.9767578327
 31
0.0
 11
20.2939646201
 21
-39.942151554
 31
0.0
  0
SPLINE
  5
598
100
AcDbEntity
  8
0
100
AcDbSpline
 62
253
  6
CONTINUOUS
 70
0
 71
3
 72
15
 73
11
 74
9
 42
0.0000001
 43
0.0000001
 44
0.0000000001
 12
-0.9087303257
 22
0.524689501
 32
0.0
 13
0.0000000017
 23
-1.0493282982
 33
0.0
 40
0.0
 40
0.0
 40
0.0
 40
0.0
 40
0.144765932
 40
0.2745466481
 40
0.3911310038
 40
0.5000107472
 40
0.6088883989
 40
0.7254673794
 40
0.855241403
 40
1.0
 40
1.0
 40
1.0
 40
1.0
 10
16.4755880016
 20
-37.73746875
 30
0.0
 10
16.4317369375
 20
-37.7121496951
 30
0.0
 10
16.3444291903
 20
-37.6706608911
 30
0.0
 10
16.2103109119
 20
-37.6381779847
 30
0.0
 10
16.084290163
 20
-37.6413695278
 30
0.0
 10
15.9722329475
 20
-37.6820994416
 30
0.0
 10
15.8809235846
 20
-37.7587670966
 30
0.0
 10
15.8151417758
 20
-37.866298513
 30
0.0
 10
15.7762079918
 20
-37.998681309
 30
0.0
 10
15.7684812204
 20
-38.095031336
 30
0.0
 10
15.7684812205
 20
-38.1456644335
 30
0.0
 11
16.4755880016
 21
-37.73746875
 31
0.0
 11
16.3377637147
 21
-37.6735923126
 31
0.0
 11
16.2049761165
 21
-37.643373969
 31
0.0
 11
16.0827377087
 21
-37.6482410375
 31
0.0
 11
15.9756103509
 21
-37.6879515887
 31
0.0
 11
15.8876499355
 21
-37.7608601784
 31
0.0
 11
15.8223094515
 21
-37.8642775747
 31
0.0
 11
15.7820797903
 21
-37.9943750621
 31
0.0
 11
15.7684812205
 21
-38.1456644335
 31
0.0
  0
SPLINE
  5
599
100
AcDbEntity
  8
0
100
AcDbSpline
 62
253
  6
CONTINUOUS
 70
0
 71
3
 72
11
 73
7
 74
5
 42
0.0000001
 43
0.0000001
 44
0.0000000001
 12
0.0
 22
-1.4658433678
 32
0.0
 13
1.2694371482
 23
-0.7329570969
 33
0.0
 40
0.0
 40
0.0
 40
0.0
 40
0.0
 40
0.2372263018
 40
0.4999934543
 40
0.7627639941
 40
1.0
 40
1.0
 40
1.0
 40
1.0
 10
15.7684812205
 20
-39.7786049871
 30
0.0
 10
15.7684812205
 20
-39.8945171874
 30
0.0
 10
15.8119433461
 20
-40.1389849998
 30
0.0
 10
15.9635401605
 20
-40.4824745183
 30
0.0
 10
16.1852154275
 20
-40.7855096643
 30
0.0
 10
16.3752026021
 20
-40.9453885858
 30
0.0
 10
16.4755880016
 20
-41.0033498572
 30
0.0
 11
15.7684812205
 21
-39.7786049871
 31
0.0
 11
15.822309144
 21
-40.1221501783
 31
0.0
 11
15.9756097055
 21
-40.4755042419
 31
0.0
 11
16.2049752661
 21
-40.7849479703
 31
0.0
 11
16.4755880016
 21
-41.0033498572
 31
0.0
  0
SPLINE
  5
59A
100
AcDbEntity
  8
0
100
AcDbSpline
 62
253
  6
CONTINUOUS
 70
0
 71
3
 72
15
 73
11
 74
9
 42
0.0000001
 43
0.0000001
 44
0.0000000001
 12
0.9087303257
 22
-0.524689501
 32
0.0
 13
-0.0000000017
 23
1.0493282982
 33
0.0
 40
0.0
 40
0.0
 40
0.0
 40
0.0
 40
0.144765932
 40
0.2745466481
 40
0.3911310038
 40
0.5000107472
 40
0.6088883989
 40
0.7254673794
 40
0.855241403
 40
1.0
 40
1.0
 40
1.0
 40
1.0
 10
20.2939646201
 20
-43.2080326611
 30
0.0
 10
20.3378156842
 20
-43.233351716
 30
0.0
 10
20.4251234314
 20
-43.27484052
 30
0.0
 10
20.5592417098
 20
-43.3073234265
 30
0.0
 10
20.6852624587
 20
-43.3041318833
 30
0.0
 10
20.7973196742
 20
-43.2634019695
 30
0.0
 10
20.8886290371
 20
-43.1867343146
 30
0.0
 10
20.9544108459
 20
-43.0792028981
 30
0.0
 10
20.9933446299
 20
-42.9468201021
 30
0.0
 10
21.0010714013
 20
-42.8504700751
 30
0.0
 10
21.0010714012
 20
-42.7998369777
 30
0.0
 11
20.2939646201
 21
-43.2080326611
 31
0.0
 11
20.431788907
 21
-43.2719090986
 31
0.0
 11
20.5645765052
 21
-43.3021274422
 31
0.0
 11
20.686814913
 21
-43.2972603736
 31
0.0
 11
20.7939422708
 21
-43.2575498224
 31
0.0
 11
20.8819026862
 21
-43.1846412328
 31
0.0
 11
20.9472431702
 21
-43.0812238364
 31
0.0
 11
20.9874728314
 21
-42.9511263491
 31
0.0
 11
21.0010714012
 21
-42.7998369777
 31
0.0
  0
SPLINE
  5
59B
100
AcDbEntity
  8
0
100
AcDbSpline
 62
7
  6
CONTINUOUS
 70
0
 71
3
 72
9
 73
5
 74
3
 42
0.0000001
 43
0.0000001
 44
0.0000000001
 12
0.0
 22
-0.3981694084
 32
0.0
 13
0.0656392107
 23
-0.3927217486
 33
0.0
 40
0.0
 40
0.0
 40
0.0
 40
0.0
 40
0.2407654519
 40
1.0
 40
1.0
 40
1.0
 40
1.0
 10
-23.4786038569
 20
-0.4618362983
 30
0.0
 10
-23.4786038569
 20
-0.4937914442
 30
0.0
 10
-23.4754972146
 20
-0.6265078319
 30
0.0
 10
-23.4606801802
 20
-0.7588546762
 30
0.0
 10
-23.444068328
 20
-0.8582439827
 30
0.0
 11
-23.4786038569
 21
-0.4618362983
 31
0.0
 11
-23.4764290846
 21
-0.5576770646
 31
0.0
 11
-23.444068328
 21
-0.8582439827
 31
0.0
  0
SPLINE
  5
59C
100
AcDbEntity
  8
0
100
AcDbSpline
 62
7
  6
CONTINUOUS
 70
0
 71
3
 72
9
 73
5
 74
3
 42
0.0000001
 43
0.0000001
 44
0.0000000001
 12
0.4072207996
 22
-0.3491263613
 32
0.0
 13
0.4754650136
 23
-0.2482962275
 33
0.0
 40
0.0
 40
0.0
 40
0.0
 40
0.0
 40
0.2619613853
 40
1.0
 40
1.0
 40
1.0
 40
1.0
 10
-22.2872480388
 20
-2.8983925424
 30
0.0
 10
-22.2516893306
 20
-2.9288784175
 30
0.0
 10
-22.1131248311
 20
-3.0418512152
 30
0.0
 10
-21.9626844541
 20
-3.1407797289
 30
0.0
 10
-21.8457139408
 20
-3.2018637968
 30
0.0
 11
-22.2872480388
 21
-2.8983925424
 31
0.0
 11
-22.1782772666
 21
-2.987103667
 31
0.0
 11
-21.8457139408
 21
-3.2018637968
 31
0.0
  0
SPLINE
  5
59D
100
AcDbEntity
  8
0
100
AcDbSpline
 62
7
  6
CONTINUOUS
 70
0
 71
3
 72
9
 73
5
 74
3
 42
0.0000001
 43
0.0000001
 44
0.0000000001
 12
0.1440138004
 22
-0.0752065501
 32
0.0
 13
0.150252156
 23
-0.0618084904
 33
0.0
 40
0.0
 40
0.0
 40
0.0
 40
0.0
 40
0.2548570617
 40
1.0
 40
1.0
 40
1.0
 40
1.0
 10
-21.8457139408
 20
-3.2018637968
 30
0.0
 10
-21.8334796294
 20
-3.2082527703
 30
0.0
 10
-21.7852090063
 20
-3.2328069275
 30
0.0
 10
-21.7358616871
 20
-3.2552599154
 30
0.0
 10
-21.6985419094
 20
-3.2706119688
 30
0.0
 11
-21.8457139408
 21
-3.2018637968
 31
0.0
 11
-21.8088054774
 21
-3.2206318956
 31
0.0
 11
-21.6985419094
 21
-3.2706119688
 31
0.0
  0
SPLINE
  5
59E
100
AcDbEntity
  8
0
100
AcDbSpline
 62
7
  6
CONTINUOUS
 70
0
 71
3
 72
9
 73
5
 74
3
 42
0.0000001
 43
0.0000001
 44
0.0000000001
 12
0.1424889779
 22
-0.0586149901
 32
0.0
 13
0.1476800339
 23
-0.0439253169
 33
0.0
 40
0.0
 40
0.0
 40
0.0
 40
0.0
 40
0.2551260022
 40
1.0
 40
1.0
 40
1.0
 40
1.0
 10
-21.6985419094
 20
-3.2706119688
 30
0.0
 10
-21.6864243616
 20
-3.2755967048
 30
0.0
 10
-21.6386969683
 20
-3.2945659863
 30
0.0
 10
-21.5900400672
 20
-3.3112168662
 30
0.0
 10
-21.5533723947
 20
-3.3221231417
 30
0.0
 11
-21.6985419094
 21
-3.2706119688
 31
0.0
 11
-21.6620108625
 21
-3.2851249156
 31
0.0
 11
-21.5533723947
 21
-3.3221231417
 31
0.0
  0
SPLINE
  5
59F
100
AcDbEntity
  8
0
100
AcDbSpline
 62
7
  6
CONTINUOUS
 70
0
 71
3
 72
9
 73
5
 74
3
 42
0.0000001
 43
0.0000001
 44
0.0000000001
 12
0.1410936061
 22
-0.041966278
 32
0.0
 13
0.1449351422
 23
-0.0257367195
 33
0.0
 40
0.0
 40
0.0
 40
0.0
 40
0.0
 40
0.2552336797
 40
1.0
 40
1.0
 40
1.0
 40
1.0
 10
-21.5533723947
 20
-3.3221231417
 30
0.0
 10
-21.541368448
 20
-3.3256935442
 30
0.0
 10
-21.4941542137
 20
-3.3390549544
 30
0.0
 10
-21.4462043798
 20
-3.3498526763
 30
0.0
 10
-21.4102234423
 20
-3.356241957
 30
0.0
 11
-21.5533723947
 21
-3.3221231417
 31
0.0
 11
-21.5172192024
 21
-3.3323470985
 31
0.0
 11
-21.4102234423
 21
-3.356241957
 31
0.0
  0
SPLINE
  5
5A0
100
AcDbEntity
  8
0
100
AcDbSpline
 62
7
  6
CONTINUOUS
 70
0
 71
3
 72
9
 73
5
 74
3
 42
0.0000001
 43
0.0000001
 44
0.0000000001
 12
0.1360802197
 22
-0.0241643151
 32
0.0
 13
0.1380359683
 23
-0.0069146059
 33
0.0
 40
0.0
 40
0.0
 40
0.0
 40
0.0
 40
0.2550334489
 40
1.0
 40
1.0
 40
1.0
 40
1.0
 10
-21.4102234423
 20
-3.356241957
 30
0.0
 10
-21.3986551064
 20
-3.3582961932
 30
0.0
 10
-21.3531802929
 20
-3.3656822682
 30
0.0
 10
-21.3072490371
 20
-3.3703286213
 30
0.0
 10
-21.272971644
 20
-3.3720456714
 30
0.0
 11
-21.4102234423
 21
-3.356241957
 31
0.0
 11
-21.3754302214
 21
-3.3618853884
 31
0.0
 11
-21.272971644
 21
-3.3720456714
 31
0.0
  0
SPLINE
  5
5A1
100
AcDbEntity
  8
0
100
AcDbSpline
 62
7
  6
CONTINUOUS
 70
0
 71
3
 72
9
 73
5
 74
3
 42
0.0000001
 43
0.0000001
 44
0.0000000001
 12
0.1313231373
 22
-0.0065783416
 32
0.0
 13
0.1309699721
 23
0.0116579312
 33
0.0
 40
0.0
 40
0.0
 40
0.0
 40
0.0
 40
0.2545100607
 40
1.0
 40
1.0
 40
1.0
 40
1.0
 10
-21.272971644
 20
-3.3720456714
 30
0.0
 10
-21.2618306241
 20
-3.3726037561
 30
0.0
 10
-21.2180242889
 20
-3.3740740134
 30
0.0
 10
-21.1741092005
 20
-3.3725960326
 30
0.0
 10
-21.1415636017
 20
-3.3696990758
 30
0.0
 11
-21.272971644
 21
-3.3720456714
 31
0.0
 11
-21.2395252735
 21
-3.3731611734
 31
0.0
 11
-21.1415636017
 21
-3.3696990758
 31
0.0
  0
SPLINE
  5
5A2
100
AcDbEntity
  8
0
100
AcDbSpline
 62
7
  6
CONTINUOUS
 70
0
 71
3
 72
9
 73
5
 74
3
 42
0.0000001
 43
0.0000001
 44
0.0000000001
 12
0.2484164769
 22
0.0221121082
 32
0.0
 13
0.2296751449
 23
0.0972060653
 33
0.0
 40
0.0
 40
0.0
 40
0.0
 40
0.0
 40
0.2563596771
 40
1.0
 40
1.0
 40
1.0
 40
1.0
 10
-21.1415636017
 20
-3.3696990758
 30
0.0
 10
-21.1203356124
 20
-3.3678095248
 30
0.0
 10
-21.0378339247
 20
-3.357490225
 30
0.0
 10
-20.9567767996
 20
-3.3346984887
 30
0.0
 10
-20.8998448999
 20
-3.3106030387
 30
0.0
 11
-21.1415636017
 21
-3.3696990758
 31
0.0
 11
-21.0781303374
 21
-3.361698928
 31
0.0
 11
-20.8998448999
 21
-3.3106030387
 31
0.0
  0
SPLINE
  5
5A3
100
AcDbEntity
  8
0
100
AcDbSpline
 62
7
  6
CONTINUOUS
 70
0
 71
3
 72
12
 73
8
 74
6
 42
0.0000001
 43
0.0000001
 44
0.0000000001
 12
0.7296844593
 22
0.4213165309
 32
0.0
 13
-0.012473493
 23
0.8424912114
 33
0.0
 40
0.0
 40
0.0
 40
0.0
 40
0.0
 40
0.105170948
 40
0.2133860417
 40
0.3886540375
 40
0.5773711575
 40
1.0
 40
1.0
 40
1.0
 40
1.0
 10
-26.2365296473
 20
-7.7473456313
 30
0.0
 10
-26.2109491119
 20
-7.732575545
 30
0.0
 10
-26.1613804561
 20
-7.6979447428
 30
0.0
 10
-26.0891380311
 20
-7.6146090954
 30
0.0
 10
-26.0324966477
 20
-7.4932438398
 30
0.0
 10
-25.9665962247
 20
-7.2817887239
 30
0.0
 10
-25.9598427534
 20
-7.1074734695
 30
0.0
 10
-25.9615999727
 20
-6.988786441
 30
0.0
 11
-26.2365296473
 21
-7.7473456313
 31
0.0
 11
-26.1644936468
 21
-7.6957366416
 31
0.0
 11
-26.1043251025
 21
-7.6272268935
 31
0.0
 11
-26.0371628971
 21
-7.4957049982
 31
0.0
 11
-25.9904296611
 21
-7.3437176119
 31
0.0
 11
-25.9615999727
 21
-6.988786441
 31
0.0
  0
SPLINE
  5
5A4
100
AcDbEntity
  8
0
100
AcDbSpline
 62
7
  6
CONTINUOUS
 70
0
 71
3
 72
9
 73
5
 74
3
 42
0.0000001
 43
0.0000001
 44
0.0000000001
 12
-0.2972807551
 22
0.5097336878
 32
0.0
 13
-0.3706262347
 23
0.459173686
 33
0.0
 40
0.0
 40
0.0
 40
0.0
 40
0.0
 40
0.2518872284
 40
1.0
 40
1.0
 40
1.0
 40
1.0
 10
-20.699589354
 20
-4.4511344981
 30
0.0
 10
-20.7245497625
 20
-4.4083360295
 30
0.0
 10
-20.8267941907
 20
-4.2402872071
 30
0.0
 10
-20.9414626142
 20
-4.0797564737
 30
0.0
 10
-21.0338860208
 20
-3.9652519074
 30
0.0
 11
-20.699589354
 21
-4.4511344981
 31
0.0
 11
-20.7768461612
 21
-4.3241543268
 31
0.0
 11
-21.0338860208
 21
-3.9652519074
 31
0.0
  0
SPLINE
  5
5A5
100
AcDbEntity
  8
0
100
AcDbSpline
 62
7
  6
CONTINUOUS
 70
0
 71
3
 72
9
 73
5
 74
3
 42
0.0000001
 43
0.0000001
 44
0.0000000001
 12
-0.1237426051
 22
-0.1323702695
 32
0.0
 13
-0.0934630979
 23
-0.155237785
 33
0.0
 40
0.0
 40
0.0
 40
0.0
 40
0.0
 40
0.2451223401
 40
1.0
 40
1.0
 40
1.0
 40
1.0
 10
-23.1965172857
 20
0.4077519156
 30
0.0
 10
-23.2066279781
 20
0.3969362789
 30
0.0
 10
-23.2466507973
 20
0.3516757611
 30
0.0
 10
-23.2816515217
 20
0.302038242
 30
0.0
 10
-23.3051692566
 20
0.2629763967
 30
0.0
 11
-23.1965172857
 21
0.4077519156
 31
0.0
 11
-23.2259471999
 21
0.3744845589
 31
0.0
 11
-23.3051692566
 21
0.2629763967
 31
0.0
  0
SPLINE
  5
5A6
100
AcDbEntity
  8
0
100
AcDbSpline
 62
7
  6
CONTINUOUS
 70
0
 71
3
 72
9
 73
5
 74
3
 42
0.0000001
 43
0.0000001
 44
0.0000000001
 12
-0.3871997121
 22
-0.6431204081
 32
0.0
 13
0.0
 23
-0.7506846717
 33
0.0
 40
0.0
 40
0.0
 40
0.0
 40
0.0
 40
0.2263339534
 40
1.0
 40
1.0
 40
1.0
 40
1.0
 10
-23.3051692566
 20
0.2629763967
 30
0.0
 10
-23.3343814038
 20
0.2144564018
 30
0.0
 10
-23.4442076065
 20
-0.0116279127
 30
0.0
 10
-23.4786038569
 20
-0.2682432176
 30
0.0
 10
-23.4786038569
 20
-0.4618362983
 30
0.0
 11
-23.3051692566
 21
0.2629763967
 31
0.0
 11
-23.3802321465
 21
0.1105512756
 31
0.0
 11
-23.4786038569
 21
-0.4618362983
 31
0.0
  0
SPLINE
  5
5A7
100
AcDbEntity
  8
0
100
AcDbSpline
 62
7
  6
CONTINUOUS
 70
0
 71
3
 72
9
 73
5
 74
3
 42
0.0000001
 43
0.0000001
 44
0.0000000001
 12
-0.0752681115
 22
-0.1776796129
 32
0.0
 13
-0.0367529937
 23
-0.1894321802
 33
0.0
 40
0.0
 40
0.0
 40
0.0
 40
0.0
 40
0.2408926624
 40
1.0
 40
1.0
 40
1.0
 40
1.0
 10
-22.9595886153
 20
-0.2902133332
 30
0.0
 10
-22.9656324605
 20
-0.3044805716
 30
0.0
 10
-22.9890061723
 20
-0.3644298188
 30
0.0
 10
-23.005592424
 20
-0.4269386448
 30
0.0
 10
-23.0148922464
 20
-0.4748717641
 30
0.0
 11
-22.9595886153
 21
-0.2902133332
 31
0.0
 11
-22.9764997005
 21
-0.3335117696
 31
0.0
 11
-23.0148922464
 21
-0.4748717641
 31
0.0
  0
SPLINE
  5
5A8
100
AcDbEntity
  8
0
100
AcDbSpline
 62
7
  6
CONTINUOUS
 70
0
 71
3
 72
11
 73
7
 74
5
 42
0.0000001
 43
0.0000001
 44
0.0000000001
 12
-0.3484258242
 22
-1.7958554371
 32
0.0
 13
1.1565710969
 23
-1.4173357413
 33
0.0
 40
0.0
 40
0.0
 40
0.0
 40
0.0
 40
0.2161221241
 40
0.4639219403
 40
0.7307914159
 40
1.0
 40
1.0
 40
1.0
 40
1.0
 10
-23.0148922464
 20
-0.4748717641
 30
0.0
 10
-23.0399930895
 20
-0.6042464613
 30
0.0
 10
-23.0441632296
 20
-0.8917167159
 30
0.0
 10
-22.9457721453
 20
-1.3291571375
 30
0.0
 10
-22.7534150189
 20
-1.7695957333
 30
0.0
 10
-22.5706045328
 20
-2.0431399406
 30
0.0
 10
-22.4668182437
 20
-2.1703262567
 30
0.0
 11
-23.0148922464
 21
-0.4748717641
 31
0.0
 11
-23.0294179505
 21
-0.8699664178
 31
0.0
 11
-22.9351254883
 21
-1.3133621308
 31
0.0
 11
-22.7412852643
 21
-1.761425988
 31
0.0
 11
-22.4668182437
 21
-2.1703262567
 31
0.0
  0
SPLINE
  5
5A9
100
AcDbEntity
  8
0
100
AcDbSpline
 62
7
  6
CONTINUOUS
 70
0
 71
3
 72
11
 73
7
 74
5
 42
0.0000001
 43
0.0000001
 44
0.0000000001
 12
-0.3493972566
 22
-0.2017373181
 32
0.0
 13
-0.3536724222
 23
0.1941448073
 33
0.0
 40
0.0
 40
0.0
 40
0.0
 40
0.0
 40
0.2184454526
 40
0.4523953328
 40
0.7121571211
 40
1.0
 40
1.0
 40
1.0
 40
1.0
 10
-26.4449078503
 20
-7.4349048477
 30
0.0
 10
-26.4703492643
 20
-7.4495943809
 30
0.0
 10
-26.5289715702
 20
-7.47059239
 30
0.0
 10
-26.6260447857
 20
-7.4720686309
 30
0.0
 10
-26.7289504855
 20
-7.4469296816
 30
0.0
 10
-26.7962799275
 20
-7.4161311583
 30
0.0
 10
-26.8302139569
 20
-7.3975034248
 30
0.0
 11
-26.4449078503
 21
-7.4349048477
 31
0.0
 11
-26.5276720011
 21
-7.4651955514
 31
0.0
 11
-26.6220119289
 21
-7.4682194975
 31
0.0
 11
-26.7241791977
 21
-7.444866143
 31
0.0
 11
-26.8302139569
 21
-7.3975034248
 31
0.0
  0
SPLINE
  5
5AA
100
AcDbEntity
  8
0
100
AcDbSpline
 62
7
  6
CONTINUOUS
 70
0
 71
3
 72
11
 73
7
 74
5
 42
0.0000001
 43
0.0000001
 44
0.0000000001
 12
-1.0702429962
 22
0.6664438075
 32
0.0
 13
-1.1901773349
 23
-0.4159871766
 33
0.0
 40
0.0
 40
0.0
 40
0.0
 40
0.0
 40
0.28747453
 40
0.5481185063
 40
0.7833802047
 40
1.0
 40
1.0
 40
1.0
 40
1.0
 10
22.9933843552
 20
-25.2137832904
 30
0.0
 10
22.8908284878
 20
-25.1499214169
 30
0.0
 10
22.6861760171
 20
-25.0417192861
 30
0.0
 10
22.3705887802
 20
-24.9408564875
 30
0.0
 10
22.0695764309
 20
-24.9135600962
 30
0.0
 10
21.8796428008
 20
-24.948112511
 30
0.0
 10
21.7937041439
 20
-24.97814953
 30
0.0
 11
22.9933843552
 21
-25.2137832904
 31
0.0
 11
22.6717133438
 21
-25.0467738181
 31
0.0
 11
22.357677692
 21
-24.9499785655
 31
0.0
 11
22.0619632433
 21
-24.926903721
 31
0.0
 11
21.7937041439
 21
-24.97814953
 31
0.0
  0
SPLINE
  5
5AB
100
AcDbEntity
  8
0
100
AcDbSpline
 62
7
  6
CONTINUOUS
 70
0
 71
3
 72
11
 73
7
 74
5
 42
0.0000001
 43
0.0000001
 44
0.0000000001
 12
0.6020942024
 22
-1.9938082459
 32
0.0
 13
1.8530141906
 23
-0.9508560142
 33
0.0
 40
0.0
 40
0.0
 40
0.0
 40
0.0
 40
0.2593361129
 40
0.5227828021
 40
0.7742529955
 40
1.0
 40
1.0
 40
1.0
 40
1.0
 10
21.7503240404
 20
-27.1485425053
 30
0.0
 10
21.8023722971
 20
-27.3208979988
 30
0.0
 10
21.9419523094
 20
-27.6585140324
 30
0.0
 10
22.2314237811
 20
-28.1145460261
 30
0.0
 10
22.5811907602
 20
-28.4951514848
 30
0.0
 10
22.8539468876
 20
-28.6900031175
 30
0.0
 10
22.9933843552
 20
-28.7615540831
 30
0.0
 11
21.7503240404
 21
-27.1485425053
 31
0.0
 11
21.9546044607
 21
-27.6485509495
 31
0.0
 11
22.2491594504
 21
-28.111474198
 31
0.0
 11
22.606499427
 21
-28.4943815083
 31
0.0
 11
22.9933843552
 21
-28.7615540831
 31
0.0
  0
SPLINE
  5
5AC
100
AcDbEntity
  8
0
100
AcDbSpline
 62
7
  6
CONTINUOUS
 70
0
 71
3
 72
11
 73
7
 74
5
 42
0.0000001
 43
0.0000001
 44
0.0000000001
 12
-1.0702440946
 22
0.6664444938
 32
0.0
 13
-1.1901779148
 23
-0.4159894428
 33
0.0
 40
0.0
 40
0.0
 40
0.0
 40
0.0
 40
0.2874745738
 40
0.5481185553
 40
0.7833802253
 40
1.0
 40
1.0
 40
1.0
 40
1.0
 10
19.892643338
 20
-23.4234543846
 30
0.0
 10
19.7900873496
 20
-23.3595924356
 30
0.0
 10
19.5854346377
 20
-23.2513902019
 30
0.0
 10
19.2698470277
 20
-23.1505274014
 30
0.0
 10
18.9688343557
 20
-23.1232312097
 30
0.0
 10
18.7789005844
 20
-23.157783903
 30
0.0
 10
18.6929618938
 20
-23.1878210828
 30
0.0
 11
19.892643338
 21
-23.4234543846
 31
0.0
 11
19.5709719292
 21
-23.2564447497
 31
0.0
 11
19.2569359121
 21
-23.159649514
 31
0.0
 11
18.9612211772
 21
-23.1365748806
 31
0.0
 11
18.6929618938
 21
-23.1878210828
 31
0.0
  0
SPLINE
  5
5AD
100
AcDbEntity
  8
0
100
AcDbSpline
 62
253
  6
CONTINUOUS
 70
0
 71
3
 72
11
 73
7
 74
5
 42
0.0000001
 43
0.0000001
 44
0.0000000001
 12
0.0166685243
 22
-0.7217459538
 32
0.0
 13
0.6252069287
 23
-0.360986645
 33
0.0
 40
0.0
 40
0.0
 40
0.0
 40
0.0
 40
0.2388502331
 40
0.5016751957
 40
0.7635906711
 40
1.0
 40
1.0
 40
1.0
 40
1.0
 10
-43.13364271
 20
-7.9031089209
 30
0.0
 10
-43.1323156164
 20
-7.960571984
 30
0.0
 10
-43.1090182916
 20
-8.0808981881
 30
0.0
 10
-43.0327564753
 20
-8.2495328464
 30
0.0
 10
-42.9229264423
 20
-8.3977656398
 30
0.0
 10
-42.8294866272
 20
-8.4759306149
 30
0.0
 10
-42.7802183771
 20
-8.504377485
 30
0.0
 11
-43.13364271
 21
-7.9031089209
 31
0.0
 11
-43.1040553028
 21
-8.0729867255
 31
0.0
 11
-43.0268178846
 21
-8.2462984451
 31
0.0
 11
-42.9132973126
 21
-8.3975165428
 31
0.0
 11
-42.7802183771
 21
-8.504377485
 31
0.0
  0
SPLINE
  5
5AE
100
AcDbEntity
  8
0
100
AcDbSpline
 62
253
  6
CONTINUOUS
 70
0
 71
3
 72
13
 73
9
 74
7
 42
0.0000001
 43
0.0000001
 44
0.0000000001
 12
-0.4625000438
 22
0.2670417288
 32
0.0
 13
0.0123306267
 23
-0.5339152845
 33
0.0
 40
0.0
 40
0.0
 40
0.0
 40
0.0
 40
0.2722247906
 40
0.3883236424
 40
0.4968579855
 40
0.6059626694
 40
0.7235712675
 40
1.0
 40
1.0
 40
1.0
 40
1.0
 10
-43.4873251583
 20
22.9297676264
 30
0.0
 10
-43.5292931508
 20
22.9539994193
 30
0.0
 10
-43.5963860173
 20
22.9807102774
 30
0.0
 10
-43.6860185351
 20
22.9773197051
 30
0.0
 10
-43.7426087246
 20
22.9555157295
 30
0.0
 10
-43.7881077398
 20
22.9150486551
 30
0.0
 10
-43.8332986798
 20
22.8363460467
 30
0.0
 10
-43.841885671
 20
22.7637624223
 30
0.0
 10
-43.8407494912
 20
22.7145659138
 30
0.0
 11
-43.4873251583
 21
22.9297676264
 31
0.0
 11
-43.6248155281
 21
22.9770204342
 31
0.0
 11
-43.6867330833
 21
22.9737573202
 31
0.0
 11
-43.7406800397
 21
22.9525558013
 31
0.0
 11
-43.7845435693
 21
22.9141999297
 31
0.0
 11
-43.8166459907
 21
22.8602138022
 31
0.0
 11
-43.8407494912
 21
22.7145659138
 31
0.0
  0
SPLINE
  5
5AF
100
AcDbEntity
  8
0
100
AcDbSpline
 62
253
  6
CONTINUOUS
 70
0
 71
3
 72
11
 73
7
 74
5
 42
0.0000001
 43
0.0000001
 44
0.0000000001
 12
-1.1223318842
 22
-0.8963915658
 32
0.0
 13
-1.2439092314
 23
0.7182176004
 33
0.0
 40
0.0
 40
0.0
 40
0.0
 40
0.0
 40
0.2188935897
 40
0.4497185805
 40
0.7077931808
 40
1.0
 40
1.0
 40
1.0
 40
1.0
 10
-32.8928426697
 20
17.5417794656
 30
0.0
 10
-32.974733088
 20
17.4763746763
 30
0.0
 10
-33.1708441506
 20
17.3733205311
 30
0.0
 10
-33.5143112286
 20
17.3368879079
 30
0.0
 10
-33.8851270446
 20
17.4122809848
 30
0.0
 10
-34.1258711341
 20
17.5245813995
 30
0.0
 10
-34.2470307208
 20
17.5945374263
 30
0.0
 11
-32.8928426697
 21
17.5417794656
 31
0.0
 11
-33.1708819834
 21
17.3949851073
 31
0.0
 11
-33.4999400426
 21
17.3544189434
 31
0.0
 11
-33.8644162591
 21
17.4220045488
 31
0.0
 11
-34.2470307208
 21
17.5945374263
 31
0.0
  0
SPLINE
  5
5B0
100
AcDbEntity
  8
0
100
AcDbSpline
 62
253
  6
CONTINUOUS
 70
0
 71
3
 72
11
 73
7
 74
5
 42
0.0000001
 43
0.0000001
 44
0.0000000001
 12
-0.2487758587
 22
0.1436400629
 32
0.0
 13
-0.2244609745
 23
-0.1792739984
 33
0.0
 40
0.0
 40
0.0
 40
0.0
 40
0.0
 40
0.2920762326
 40
0.5502938557
 40
0.7811919345
 40
1.0
 40
1.0
 40
1.0
 40
1.0
 10
-28.5111784848
 20
20.8144904467
 30
0.0
 10
-28.53539899
 20
20.8284750628
 30
0.0
 10
-28.583554098
 20
20.8509094051
 30
0.0
 10
-28.6577179034
 20
20.8660456864
 30
0.0
 10
-28.7264161035
 20
20.8587011066
 30
0.0
 10
-28.7656448045
 20
20.8381175711
 30
0.0
 10
-28.782016095
 20
20.8250420388
 30
0.0
 11
-28.5111784848
 21
20.8144904467
 31
0.0
 11
-28.5876686266
 21
20.8489734781
 31
0.0
 11
-28.6605984961
 21
20.8625194061
 31
0.0
 11
-28.7264263431
 21
20.8543793489
 31
0.0
 11
-28.782016095
 21
20.8250420388
 31
0.0
  0
SPLINE
  5
5B1
100
AcDbEntity
  8
0
100
AcDbSpline
 62
253
  6
CONTINUOUS
 70
0
 71
3
 72
9
 73
5
 74
3
 42
0.0000001
 43
0.0000001
 44
0.0000000001
 12
-0.1866955297
 22
0.3647025574
 32
0.0
 13
-0.3548144959
 23
0.204865443
 33
0.0
 40
0.0
 40
0.0
 40
0.0
 40
0.0
 40
0.5252720542
 40
1.0
 40
1.0
 40
1.0
 40
1.0
 10
27.3678025326
 20
-11.5951595142
 30
0.0
 10
27.3351138845
 20
-11.5313034937
 30
0.0
 10
27.2578907258
 20
-11.416984815
 30
0.0
 10
27.153111708
 20
-11.3253730732
 30
0.0
 10
27.0969649224
 20
-11.2929546229
 30
0.0
 11
27.3678025326
 21
-11.5951595142
 31
0.0
 11
27.2463845929
 21
-11.4174717669
 31
0.0
 11
27.0969649224
 21
-11.2929546229
 31
0.0
  0
SPLINE
  5
5B2
100
AcDbEntity
  8
0
100
AcDbSpline
 62
253
  6
CONTINUOUS
 70
0
 71
3
 72
10
 73
6
 74
4
 42
0.0000001
 43
0.0000001
 44
0.0000000001
 12
-1.7766500964
 22
1.025815499
 32
0.0
 13
-0.9348339337
 23
1.8261622379
 33
0.0
 40
0.0
 40
0.0
 40
0.0
 40
0.0
 40
0.2280662332
 40
0.4754947971
 40
1.0
 40
1.0
 40
1.0
 40
1.0
 10
32.8328171584
 20
-21.1365260312
 30
0.0
 10
32.6977525267
 20
-21.0585414056
 30
0.0
 10
32.4317487475
 20
-20.8681074169
 30
0.0
 10
31.9420040595
 20
-20.3886591475
 30
0.0
 10
31.6420708614
 20
-19.9447787729
 30
0.0
 10
31.4786291073
 20
-19.6255015745
 30
0.0
 11
32.8328171584
 21
-21.1365260312
 31
0.0
 11
32.4502028516
 21
-20.8672254531
 31
0.0
 11
32.0857266398
 21
-20.5139231035
 31
0.0
 11
31.4786291073
 21
-19.6255015745
 31
0.0
  0
SPLINE
  5
5B3
100
AcDbEntity
  8
0
100
AcDbSpline
 62
253
  6
CONTINUOUS
 70
0
 71
3
 72
11
 73
7
 74
5
 42
0.0000001
 43
0.0000001
 44
0.0000000001
 12
0.0176424798
 22
0.7435450631
 32
0.0
 13
-0.6440997776
 23
0.3718951391
 33
0.0
 40
0.0
 40
0.0
 40
0.0
 40
0.0
 40
0.2354929008
 40
0.4982605076
 40
0.7619777879
 40
1.0
 40
1.0
 40
1.0
 40
1.0
 10
42.4265359288
 20
-27.0950835047
 30
0.0
 10
42.4279208217
 20
-27.0367169768
 30
0.0
 10
42.407831383
 20
-26.9126320158
 30
0.0
 10
42.3326178834
 20
-26.7377737948
 30
0.0
 10
42.2207464295
 20
-26.5829906841
 30
0.0
 10
42.1242149472
 20
-26.5012626659
 30
0.0
 10
42.0731115959
 20
-26.4717562313
 30
0.0
 11
42.4265359288
 21
-27.0950835047
 31
0.0
 11
42.402432308
 21
-26.9216011106
 31
0.0
 11
42.3264659904
 21
-26.7415350641
 31
0.0
 11
42.2106016937
 21
-26.5832735516
 31
0.0
 11
42.0731115959
 21
-26.4717562313
 31
0.0
  0
SPLINE
  5
5B4
100
AcDbEntity
  8
0
100
AcDbSpline
 62
253
  6
CONTINUOUS
 70
0
 71
3
 72
11
 73
7
 74
5
 42
0.0000001
 43
0.0000001
 44
0.0000000001
 12
0.4412014941
 22
-0.2547442131
 32
0.0
 13
0.0120849109
 23
0.5093204566
 33
0.0
 40
0.0
 40
0.0
 40
0.0
 40
0.0
 40
0.2769058529
 40
0.5032052142
 40
0.7273630867
 40
1.0
 40
1.0
 40
1.0
 40
1.0
 10
41.3660048147
 20
-57.0893521561
 30
0.0
 10
41.4067285734
 20
-57.112865544
 30
0.0
 10
41.4880244557
 20
-57.1466783674
 30
0.0
 10
41.619299772
 20
-57.1291480274
 30
0.0
 10
41.7047637245
 20
-57.0286758032
 30
0.0
 10
41.7183308834
 20
-56.9424956718
 30
0.0
 10
41.7194291476
 20
-56.8962091527
 30
0.0
 11
41.3660048147
 21
-57.0893521561
 31
0.0
 11
41.4990839794
 21
-57.1361674453
 31
0.0
 11
41.6126047695
 21
-57.1160398018
 31
0.0
 11
41.6898418503
 21
-57.0319199633
 31
0.0
 11
41.7194291476
 21
-56.8962091527
 31
0.0
  0
SPLINE
  5
5B5
100
AcDbEntity
  8
0
100
AcDbSpline
 62
7
  6
CONTINUOUS
 70
0
 71
3
 72
11
 73
7
 74
5
 42
0.0000001
 43
0.0000001
 44
0.0000000001
 12
-0.4587330733
 22
-0.2652033059
 32
0.0
 13
-0.4588788903
 23
0.2649509201
 33
0.0
 40
0.0
 40
0.0
 40
0.0
 40
0.0
 40
0.2176810506
 40
0.4509626745
 40
0.7108472993
 40
1.0
 40
1.0
 40
1.0
 40
1.0
 10
9.8361384747
 20
-6.763768218
 30
0.0
 10
9.8028526422
 20
-6.7830114627
 30
0.0
 10
9.7262958304
 20
-6.8107687479
 30
0.0
 10
9.5990526336
 20
-6.8140447221
 30
0.0
 10
9.463602818
 20
-6.7810619067
 30
0.0
 10
9.3754022237
 20
-6.7392795058
 30
0.0
 10
9.3311735336
 20
-6.7137424144
 30
0.0
 11
9.8361384747
 21
-6.763768218
 31
0.0
 11
9.7279734332
 21
-6.8038252498
 31
0.0
 11
9.6044616349
 21
-6.8087612315
 31
0.0
 11
9.4702070862
 21
-6.7781206083
 31
0.0
 11
9.3311735336
 21
-6.7137424144
 31
0.0
  0
SPLINE
  5
5B6
100
AcDbEntity
  8
0
100
AcDbSpline
 62
253
  6
CONTINUOUS
 70
0
 71
3
 72
11
 73
7
 74
5
 42
0.0000001
 43
0.0000001
 44
0.0000000001
 12
-0.0119278205
 22
-0.5026997683
 32
0.0
 13
-0.4355006677
 23
-0.2513732252
 33
0.0
 40
0.0
 40
0.0
 40
0.0
 40
0.0
 40
0.2879630394
 40
0.5469639902
 40
0.7807531573
 40
1.0
 40
1.0
 40
1.0
 40
1.0
 10
43.1335136524
 20
-56.4988893977
 30
0.0
 10
43.1323687286
 20
-56.5471423821
 30
0.0
 10
43.1228534576
 20
-56.638920164
 30
0.0
 10
43.082936577
 20
-56.7647324281
 30
0.0
 10
43.0181989911
 20
-56.8668591486
 30
0.0
 10
42.9584950966
 20
-56.9163085304
 30
0.0
 10
42.9266677145
 20
-56.9346794591
 30
0.0
 11
43.1335136524
 21
-56.4988893977
 31
0.0
 11
43.1172360275
 21
-56.6427712628
 31
0.0
 11
43.0762307749
 21
-56.7663838823
 31
0.0
 11
43.0119463026
 21
-56.8648094235
 31
0.0
 11
42.9266677145
 21
-56.9346794591
 31
0.0
  0
SPLINE
  5
5B7
100
AcDbEntity
  8
0
100
AcDbSpline
 62
253
  6
CONTINUOUS
 70
0
 71
3
 72
11
 73
7
 74
5
 42
0.0000001
 43
0.0000001
 44
0.0000000001
 12
0.0352848221
 22
1.4870851251
 32
0.0
 13
-1.2881952175
 23
0.7437877853
 33
0.0
 40
0.0
 40
0.0
 40
0.0
 40
0.0
 40
0.2355463026
 40
0.4982601435
 40
0.761923379
 40
1.0
 40
1.0
 40
1.0
 40
1.0
 10
43.1335136524
 20
-27.106038343
 30
0.0
 10
43.1362840555
 20
-26.9892792088
 30
0.0
 10
43.0961145264
 20
-26.7411029082
 30
0.0
 10
42.9456258682
 20
-26.3914490063
 30
0.0
 10
42.7219683419
 20
-26.0818613735
 30
0.0
 10
42.528894708
 20
-25.9184099571
 30
0.0
 10
42.4266649865
 20
-25.8593837962
 30
0.0
 11
43.1335136524
 21
-27.106038343
 31
0.0
 11
43.0852886578
 21
-26.7589970126
 31
0.0
 11
42.9333490947
 21
-26.3989560745
 31
0.0
 11
42.7017026378
 21
-26.0824741882
 31
0.0
 11
42.4266649865
 21
-25.8593837962
 31
0.0
  0
SPLINE
  5
5B8
100
AcDbEntity
  8
0
100
AcDbSpline
 62
253
  6
CONTINUOUS
 70
0
 71
3
 72
9
 73
5
 74
3
 42
0.0000001
 43
0.0000001
 44
0.0000000001
 12
0.158226064
 22
-0.0913577477
 32
0.0
 13
0.1408145559
 23
-0.1164172935
 33
0.0
 40
0.0
 40
0.0
 40
0.0
 40
0.0
 40
0.2405825809
 40
1.0
 40
1.0
 40
1.0
 40
1.0
 10
43.1337717677
 20
-25.4511092029
 30
0.0
 10
43.1464605793
 20
-25.4584355638
 30
0.0
 10
43.1984771921
 20
-25.4901383855
 30
0.0
 10
43.2476245201
 20
-25.5264604953
 30
0.0
 10
43.2832701957
 20
-25.5559302689
 30
0.0
 11
43.1337717677
 21
-25.4511092029
 31
0.0
 11
43.1713230871
 21
-25.4739572214
 31
0.0
 11
43.2832701957
 21
-25.5559302689
 31
0.0
  0
SPLINE
  5
5B9
100
AcDbEntity
  8
0
100
AcDbSpline
 62
253
  6
CONTINUOUS
 70
0
 71
3
 72
9
 73
5
 74
3
 42
0.0000001
 43
0.0000001
 44
0.0000000001
 12
0.152523788
 22
-0.1260978063
 32
0.0
 13
0.1330155797
 23
-0.1465299226
 33
0.0
 40
0.0
 40
0.0
 40
0.0
 40
0.0
 40
0.2438234721
 40
1.0
 40
1.0
 40
1.0
 40
1.0
 10
43.2832701957
 20
-25.5559302689
 30
0.0
 10
43.2956664889
 20
-25.5661788038
 30
0.0
 10
43.3457014679
 20
-25.6091817635
 30
0.0
 10
43.3924989065
 20
-25.6559149745
 30
0.0
 10
43.4260266596
 20
-25.6928491372
 30
0.0
 11
43.2832701957
 21
-25.5559302689
 31
0.0
 11
43.3198734221
 21
-25.5873708287
 31
0.0
 11
43.4260266596
 21
-25.6928491372
 31
0.0
  0
SPLINE
  5
5BA
100
AcDbEntity
  8
0
100
AcDbSpline
 62
253
  6
CONTINUOUS
 70
0
 71
3
 72
10
 73
6
 74
4
 42
0.0000001
 43
0.0000001
 44
0.0000000001
 12
0.7442998041
 22
-0.8199204399
 32
0.0
 13
-0.026267558
 23
-1.1070509209
 33
0.0
 40
0.0
 40
0.0
 40
0.0
 40
0.0
 40
0.5207313607
 40
0.7724237866
 40
1.0
 40
1.0
 40
1.0
 40
1.0
 10
43.4260266596
 20
-25.6928491372
 30
0.0
 10
43.5552200762
 20
-25.835168566
 30
0.0
 10
43.7103281268
 20
-26.0833227561
 30
0.0
 10
43.8226542982
 20
-26.4360609113
 30
0.0
 10
43.8426130574
 20
-26.6137842642
 30
0.0
 10
43.8406204336
 20
-26.6977637497
 30
0.0
 11
43.4260266596
 21
-25.6928491372
 31
0.0
 11
43.7332916351
 21
-26.1808041179
 31
0.0
 11
43.8160205332
 21
-26.4469579169
 31
0.0
 11
43.8406204336
 21
-26.6977637497
 31
0.0
  0
SPLINE
  5
5BB
100
AcDbEntity
  8
0
100
AcDbSpline
 62
253
  6
CONTINUOUS
 70
0
 71
3
 72
9
 73
5
 74
3
 42
0.0000001
 43
0.0000001
 44
0.0000000001
 12
-0.3733914517
 22
0.7294058662
 32
0.0
 13
-0.7096297236
 23
0.4097313135
 33
0.0
 40
0.0
 40
0.0
 40
0.0
 40
0.0
 40
0.5252727613
 40
1.0
 40
1.0
 40
1.0
 40
1.0
 10
27.9921935334
 20
-11.2849919705
 30
0.0
 10
27.9268160805
 20
-11.157279626
 30
0.0
 10
27.7723742817
 20
-10.9286382603
 30
0.0
 10
27.5628118327
 20
-10.7454190595
 30
0.0
 10
27.450518313
 20
-10.6805821878
 30
0.0
 11
27.9921935334
 21
-11.2849919705
 31
0.0
 11
27.7493595204
 21
-10.9296139595
 31
0.0
 11
27.450518313
 21
-10.6805821878
 31
0.0
  0
SPLINE
  5
5BC
100
AcDbEntity
  8
0
100
AcDbSpline
 62
253
  6
CONTINUOUS
 70
0
 71
3
 72
9
 73
5
 74
3
 42
0.0000001
 43
0.0000001
 44
0.0000000001
 12
0.1507021656
 22
-0.0870135427
 32
0.0
 13
0.1348898533
 23
-0.1099419248
 33
0.0
 40
0.0
 40
0.0
 40
0.0
 40
0.0
 40
0.2410224862
 40
1.0
 40
1.0
 40
1.0
 40
1.0
 10
28.1576250942
 20
-10.2723075945
 30
0.0
 10
28.1697326311
 20
-10.2792983346
 30
0.0
 10
28.2193086606
 20
-10.3094369456
 30
0.0
 10
28.2662803317
 20
-10.3437853029
 30
0.0
 10
28.3004064535
 20
-10.3715997858
 30
0.0
 11
28.1576250942
 21
-10.2723075945
 31
0.0
 11
28.1934792149
 21
-10.2940710524
 31
0.0
 11
28.3004064535
 21
-10.3715997858
 31
0.0
  0
SPLINE
  5
5BD
100
AcDbEntity
  8
0
100
AcDbSpline
 62
253
  6
CONTINUOUS
 70
0
 71
3
 72
9
 73
5
 74
3
 42
0.0000001
 43
0.0000001
 44
0.0000000001
 12
0.2039736696
 22
-0.1662486637
 32
0.0
 13
0.169654043
 23
-0.2011501473
 33
0.0
 40
0.0
 40
0.0
 40
0.0
 40
0.0
 40
0.2422356589
 40
1.0
 40
1.0
 40
1.0
 40
1.0
 10
28.3004064535
 20
-10.3715997858
 30
0.0
 10
28.3168763522
 20
-10.3850235707
 30
0.0
 10
28.3834436525
 20
-10.442177209
 30
0.0
 10
28.4443202981
 20
-10.5058532549
 30
0.0
 10
28.4871728928
 20
-10.5566613912
 30
0.0
 11
28.3004064535
 21
-10.3715997858
 31
0.0
 11
28.348792383
 21
-10.4130955917
 31
0.0
 11
28.4871728928
 21
-10.5566613912
 31
0.0
  0
SPLINE
  5
5BE
100
AcDbEntity
  8
0
100
AcDbSpline
 62
253
  6
CONTINUOUS
 70
0
 71
3
 72
9
 73
5
 74
3
 42
0.0000001
 43
0.0000001
 44
0.0000000001
 12
0.2478541286
 22
-0.293868001
 32
0.0
 13
0.1751777069
 23
-0.3422029253
 33
0.0
 40
0.0
 40
0.0
 40
0.0
 40
0.0
 40
0.2468752543
 40
1.0
 40
1.0
 40
1.0
 40
1.0
 10
28.4871728928
 20
-10.5566613912
 30
0.0
 10
28.5075692431
 20
-10.5808443037
 30
0.0
 10
28.5872189707
 20
-10.6812714056
 30
0.0
 10
28.655323426
 20
-10.7908102135
 30
0.0
 10
28.6993003146
 20
-10.8767173772
 30
0.0
 11
28.4871728928
 21
-10.5566613912
 31
0.0
 11
28.5461926824
 21
-10.630985571
 31
0.0
 11
28.6993003146
 21
-10.8767173772
 31
0.0
  0
SPLINE
  5
5BF
100
AcDbEntity
  8
0
100
AcDbSpline
 62
253
  6
CONTINUOUS
 70
0
 71
3
 72
11
 73
7
 74
5
 42
0.0000001
 43
0.0000001
 44
0.0000000001
 12
-0.4544027939
 22
0.2623664708
 32
0.0
 13
-0.4546028109
 23
-0.2620197481
 33
0.0
 40
0.0
 40
0.0
 40
0.0
 40
0.0
 40
0.2895724345
 40
0.548980768
 40
0.7821056451
 40
1.0
 40
1.0
 40
1.0
 40
1.0
 10
-28.1576250942
 20
21.4268628818
 30
0.0
 10
-28.2014859353
 20
21.452187581
 30
0.0
 10
-28.2887745852
 20
21.4936780005
 30
0.0
 10
-28.4229013368
 20
21.5261526689
 30
0.0
 10
-28.548839296
 20
21.5229986164
 30
0.0
 10
-28.6246153353
 20
21.4954081479
 30
0.0
 10
-28.6576337974
 20
21.4763772732
 30
0.0
 11
-28.1576250942
 21
21.4268628818
 31
0.0
 11
-28.2954789363
 21
21.4907560908
 31
0.0
 11
-28.4281979852
 21
21.5209644575
 31
0.0
 11
-28.550423404
 21
21.5160946347
 31
0.0
 11
-28.6576337974
 21
21.4763772732
 31
0.0
  0
SPLINE
  5
5C0
100
AcDbEntity
  8
0
100
AcDbSpline
 62
7
  6
CONTINUOUS
 70
0
 71
3
 72
17
 73
13
 74
11
 42
0.0000001
 43
0.0000001
 44
0.0000000001
 12
4.3944716363
 22
2.5338064488
 32
0.0
 13
-4.3929549224
 23
2.5364351228
 33
0.0
 40
0.0
 40
0.0
 40
0.0
 40
0.0
 40
0.0428546697
 40
0.0874702735
 40
0.1352987134
 40
0.1872530619
 40
0.3045049458
 40
0.438171678
 40
0.582525905
 40
0.7296925128
 40
0.8713092584
 40
1.0
 40
1.0
 40
1.0
 40
1.0
 10
10.7663447882
 20
-8.187988218
 30
0.0
 10
10.8291193317
 20
-8.1517930719
 30
0.0
 10
10.9481448804
 20
-8.0608491354
 30
0.0
 10
11.091340221
 20
-7.8798772969
 30
0.0
 10
11.1984480455
 20
-7.6585767351
 30
0.0
 10
11.2946975994
 20
-7.3026673175
 30
0.0
 10
11.3068467217
 20
-6.7836586939
 30
0.0
 10
11.1726069307
 20
-6.1249238769
 30
0.0
 10
10.9019342614
 20
-5.454887034
 30
0.0
 10
10.5165887171
 20
-4.8279858566
 30
0.0
 10
10.0483591479
 20
-4.2952794204
 30
0.0
 10
9.6825497672
 20
-4.0137367921
 30
0.0
 10
9.4941055582
 20
-3.9049315531
 30
0.0
 11
10.7663447882
 21
-8.187988218
 31
0.0
 11
10.9393997147
 21
-8.0564261426
 31
0.0
 11
11.0811224151
 21
-7.8799759251
 31
0.0
 11
11.1885495325
 21
-7.6624399877
 31
0.0
 11
11.2593051224
 21
-7.4085706102
 31
0.0
 11
11.2853828287
 21
-6.8143673655
 31
0.0
 11
11.1571511714
 21
-6.1485617726
 31
0.0
 11
10.885635328
 21
-5.4685051661
 31
0.0
 11
10.4942580646
 21
-4.8328022887
 31
0.0
 11
10.0166685029
 21
-4.2961810492
 31
0.0
 11
9.4941055582
 21
-3.9049315531
 31
0.0
  0
SPLINE
  5
5C1
100
AcDbEntity
  8
0
100
AcDbSpline
 62
253
  6
CONTINUOUS
 70
0
 71
3
 72
11
 73
7
 74
5
 42
0.0000001
 43
0.0000001
 44
0.0000000001
 12
-0.4543983571
 22
0.262363909
 32
0.0
 13
-0.4543602272
 23
-0.2624299367
 33
0.0
 40
0.0
 40
0.0
 40
0.0
 40
0.0
 40
0.2895214145
 40
0.5491171023
 40
0.7822624469
 40
1.0
 40
1.0
 40
1.0
 40
1.0
 10
-43.1337717677
 20
23.5421400615
 30
0.0
 10
-43.1776244527
 20
23.5674600515
 30
0.0
 10
-43.2649410546
 20
23.608943011
 30
0.0
 10
-43.3990923336
 20
23.6414316664
 30
0.0
 10
-43.5250356521
 20
23.6382717665
 30
0.0
 10
-43.6007942784
 20
23.6106856675
 30
0.0
 10
-43.6337713731
 20
23.5916387167
 30
0.0
 11
-43.1337717677
 21
23.5421400615
 31
0.0
 11
-43.2716044944
 21
23.6060116385
 31
0.0
 11
-43.404418033
 21
23.6362418266
 31
0.0
 11
-43.5266526653
 21
23.6313635
 31
0.0
 11
-43.6337713731
 21
23.5916387167
 31
0.0
  0
SPLINE
  5
5C2
100
AcDbEntity
  8
0
100
AcDbSpline
 62
7
  6
CONTINUOUS
 70
0
 71
3
 72
17
 73
13
 74
11
 42
0.0000001
 43
0.0000001
 44
0.0000000001
 12
4.3930099058
 22
2.5355166776
 32
0.0
 13
-4.3925985054
 23
2.5362293323
 33
0.0
 40
0.0
 40
0.0
 40
0.0
 40
0.0
 40
0.0428504804
 40
0.0874765146
 40
0.1353055797
 40
0.187270053
 40
0.3045288976
 40
0.4381977664
 40
0.5825460036
 40
0.7297118101
 40
0.8713054238
 40
1.0
 40
1.0
 40
1.0
 40
1.0
 10
10.9081182941
 20
-8.1061186816
 30
0.0
 10
10.9708658224
 20
-8.0699026456
 30
0.0
 10
11.0898615244
 20
-7.9789178157
 30
0.0
 10
11.2329442303
 20
-7.7978733992
 30
0.0
 10
11.3400863033
 20
-7.5765712731
 30
0.0
 10
11.4360910203
 20
-7.2205883606
 30
0.0
 10
11.4482430702
 20
-6.7016193209
 30
0.0
 10
11.3138976466
 20
-6.0429420161
 30
0.0
 10
11.0432372345
 20
-5.3729786762
 30
0.0
 10
10.6578777915
 20
-4.7462156785
 30
0.0
 10
10.1897370971
 20
-4.2135563304
 30
0.0
 10
9.8239645459
 20
-3.9320780757
 30
0.0
 10
9.6355300116
 20
-3.8232784227
 30
0.0
 11
10.9081182941
 21
-8.1061186816
 31
0.0
 11
11.0810895363
 21
-7.9745108112
 31
0.0
 11
11.2227591204
 21
-7.7979736522
 31
0.0
 11
11.3301511411
 21
-7.5804388015
 31
0.0
 11
11.4007927943
 21
-7.3265065857
 31
0.0
 11
11.4267626508
 21
-6.73231158
 31
0.0
 11
11.2984594862
 21
-6.0665647509
 31
0.0
 11
11.0269343728
 21
-5.3866085311
 31
0.0
 11
10.6355444337
 21
-4.7509893593
 31
0.0
 11
10.1580742897
 21
-4.214496931
 31
0.0
 11
9.6355300116
 21
-3.8232784227
 31
0.0
  0
SPLINE
  5
5C3
100
AcDbEntity
  8
0
100
AcDbSpline
 62
7
  6
CONTINUOUS
 70
0
 71
3
 72
12
 73
8
 74
6
 42
0.0000001
 43
0.0000001
 44
0.0000000001
 12
-1.3916570094
 22
1.7054249621
 32
0.0
 13
1.3601656261
 23
1.7306452562
 33
0.0
 40
0.0
 40
0.0
 40
0.0
 40
0.0
 40
0.2876412172
 40
0.565263228
 40
0.6918942324
 40
0.8069472431
 40
1.0
 40
1.0
 40
1.0
 40
1.0
 10
-22.6082395999
 20
-2.2519811753
 30
0.0
 10
-22.7416722386
 20
-2.088464338
 30
0.0
 10
-22.9652223626
 20
-1.7341895357
 30
0.0
 10
-23.1353100554
 20
-1.2501940189
 30
0.0
 10
-23.1838226298
 20
-0.8703256598
 30
0.0
 10
-23.1727183483
 20
-0.5518009297
 30
0.0
 10
-23.0964544702
 20
-0.3249950298
 30
0.0
 10
-23.0089265623
 20
-0.2136264172
 30
0.0
 11
-22.6082395999
 21
-2.2519811753
 31
0.0
 11
-22.9472804185
 21
-1.7172573683
 31
0.0
 11
-23.1433696959
 21
-1.1384771179
 31
0.0
 11
-23.1770113453
 21
-0.8617773707
 31
0.0
 11
-23.1651735938
 21
-0.6088020593
 31
0.0
 11
-23.0089265623
 21
-0.2136264172
 31
0.0
  0
SPLINE
  5
5C4
100
AcDbEntity
  8
0
100
AcDbSpline
 62
253
  6
CONTINUOUS
 70
0
 71
3
 72
9
 73
5
 74
3
 42
0.0000001
 43
0.0000001
 44
0.0000000001
 12
-0.1109349421
 22
-0.0270508655
 32
0.0
 13
-0.1102708292
 23
0.0296421141
 33
0.0
 40
0.0
 40
0.0
 40
0.0
 40
0.0
 40
0.2346508474
 40
1.0
 40
1.0
 40
1.0
 40
1.0
 10
33.9339012571
 20
-50.1914815334
 30
0.0
 10
33.9252242644
 20
-50.1935973696
 30
0.0
 10
33.887572237
 20
-50.1999022386
 30
0.0
 10
33.8486212835
 20
-50.1951745553
 30
0.0
 10
33.8204893883
 20
-50.1876123664
 30
0.0
 11
33.9339012571
 21
-50.1914815334
 31
0.0
 11
33.9074825839
 21
-50.1959487917
 31
0.0
 11
33.8204893883
 21
-50.1876123664
 31
0.0
  0
SPLINE
  5
5C5
100
AcDbEntity
  8
0
100
AcDbSpline
 62
253
  6
CONTINUOUS
 70
0
 71
3
 72
9
 73
5
 74
3
 42
0.0000001
 43
0.0000001
 44
0.0000000001
 12
-0.0961597365
 22
0.025848884
 32
0.0
 13
-0.0862316951
 23
0.0497891
 33
0.0
 40
0.0
 40
0.0
 40
0.0
 40
0.0
 40
0.2374710184
 40
1.0
 40
1.0
 40
1.0
 40
1.0
 10
33.8204893883
 20
-50.1876123664
 30
0.0
 10
33.8128776714
 20
-50.1855662461
 30
0.0
 10
33.7811561172
 20
-50.1757262416
 30
0.0
 10
33.7509115181
 20
-50.1613954132
 30
0.0
 10
33.7289934626
 20
-50.1487402026
 30
0.0
 11
33.8204893883
 21
-50.1876123664
 31
0.0
 11
33.797895061
 21
-50.1806395656
 31
0.0
 11
33.7289934626
 21
-50.1487402026
 31
0.0
  0
SPLINE
  5
5C6
100
AcDbEntity
  8
0
100
AcDbSpline
 62
253
  6
CONTINUOUS
 70
0
 71
3
 72
9
 73
5
 74
3
 42
0.0000001
 43
0.0000001
 44
0.0000000001
 12
-0.1116491497
 22
-0.1168271471
 32
0.0
 13
-0.0197113715
 23
-0.1603919473
 33
0.0
 40
0.0
 40
0.0
 40
0.0
 40
0.0
 40
0.2280453888
 40
1.0
 40
1.0
 40
1.0
 40
1.0
 10
16.5410180308
 20
-37.9468718069
 30
0.0
 10
16.5325310062
 20
-37.9557524376
 30
0.0
 10
16.4992353562
 20
-37.9985294197
 30
0.0
 10
16.4837204559
 20
-38.052880116
 30
0.0
 10
16.4786483611
 20
-38.0941518837
 30
0.0
 11
16.5410180308
 21
-37.9468718069
 31
0.0
 11
16.5182698498
 21
-37.9758645121
 31
0.0
 11
16.4786483611
 21
-38.0941518837
 31
0.0
  0
SPLINE
  5
5C7
100
AcDbEntity
  8
0
100
AcDbSpline
 62
253
  6
CONTINUOUS
 70
0
 71
3
 72
8
 73
4
 74
2
 42
0.0000001
 43
0.0000001
 44
0.0000000001
 12
-0.0062944432
 22
-0.0512180492
 32
0.0
 13
0.0
 23
-0.0516033776
 33
0.0
 40
0.0
 40
0.0
 40
0.0
 40
0.0
 40
1.0
 40
1.0
 40
1.0
 40
1.0
 10
16.4786483611
 20
-38.0941518837
 30
0.0
 10
16.4765502134
 20
-38.1112245668
 30
0.0
 10
16.4755880016
 20
-38.1284633076
 30
0.0
 10
16.4755880016
 20
-38.1456644335
 30
0.0
 11
16.4786483611
 21
-38.0941518837
 31
0.0
 11
16.4755880016
 21
-38.1456644335
 31
0.0
  0
SPLINE
  5
5C8
100
AcDbEntity
  8
0
100
AcDbSpline
 62
253
  6
CONTINUOUS
 70
0
 71
3
 72
9
 73
5
 74
3
 42
0.0000001
 43
0.0000001
 44
0.0000000001
 12
-0.1109349421
 22
-0.0270508655
 32
0.0
 13
-0.1102708292
 23
0.0296421141
 33
0.0
 40
0.0
 40
0.0
 40
0.0
 40
0.0
 40
0.2346508474
 40
1.0
 40
1.0
 40
1.0
 40
1.0
 10
-17.3313403789
 20
-20.5915735171
 30
0.0
 10
-17.3400173716
 20
-20.5936893533
 30
0.0
 10
-17.377669399
 20
-20.5999942223
 30
0.0
 10
-17.4166203525
 20
-20.5952665391
 30
0.0
 10
-17.4447522478
 20
-20.5877043501
 30
0.0
 11
-17.3313403789
 21
-20.5915735171
 31
0.0
 11
-17.3577590521
 21
-20.5960407754
 31
0.0
 11
-17.4447522478
 21
-20.5877043501
 31
0.0
  0
SPLINE
  5
5C9
100
AcDbEntity
  8
0
100
AcDbSpline
 62
253
  6
CONTINUOUS
 70
0
 71
3
 72
9
 73
5
 74
3
 42
0.0000001
 43
0.0000001
 44
0.0000000001
 12
-0.0961597365
 22
0.025848884
 32
0.0
 13
-0.0862316951
 23
0.0497891
 33
0.0
 40
0.0
 40
0.0
 40
0.0
 40
0.0
 40
0.2374710184
 40
1.0
 40
1.0
 40
1.0
 40
1.0
 10
-17.4447522478
 20
-20.5877043501
 30
0.0
 10
-17.4523639646
 20
-20.5856582299
 30
0.0
 10
-17.4840855188
 20
-20.5758182253
 30
0.0
 10
-17.5143301179
 20
-20.561487397
 30
0.0
 10
-17.5362481734
 20
-20.5488321864
 30
0.0
 11
-17.4447522478
 21
-20.5877043501
 31
0.0
 11
-17.467346575
 21
-20.5807315493
 31
0.0
 11
-17.5362481734
 21
-20.5488321864
 31
0.0
  0
SPLINE
  5
5CA
100
AcDbEntity
  8
0
100
AcDbSpline
 62
253
  6
CONTINUOUS
 70
0
 71
3
 72
9
 73
5
 74
3
 42
0.0000001
 43
0.0000001
 44
0.0000000001
 12
0.1937389233
 22
-0.1118624262
 32
0.0
 13
0.2068522337
 23
-0.0852063744
 33
0.0
 40
0.0
 40
0.0
 40
0.0
 40
0.0
 40
0.2567282817
 40
1.0
 40
1.0
 40
1.0
 40
1.0
 10
-33.186370549
 20
18.6151844547
 30
0.0
 10
-33.1697911287
 20
18.6056117052
 30
0.0
 10
-33.1046414742
 20
18.5693269276
 30
0.0
 10
-33.0371864106
 20
18.5371291444
 30
0.0
 10
-32.9859372723
 20
18.5160186483
 30
0.0
 11
-33.186370549
 21
18.6151844547
 31
0.0
 11
-33.1361876628
 21
18.5872504194
 31
0.0
 11
-32.9859372723
 21
18.5160186483
 31
0.0
  0
SPLINE
  5
5CB
100
AcDbEntity
  8
0
100
AcDbSpline
 62
253
  6
CONTINUOUS
 70
0
 71
3
 72
9
 73
5
 74
3
 42
0.0000001
 43
0.0000001
 44
0.0000000001
 12
0.4711741406
 22
-0.1940856017
 32
0.0
 13
0.50797488
 23
0.0404451832
 33
0.0
 40
0.0
 40
0.0
 40
0.0
 40
0.0
 40
0.2714102953
 40
1.0
 40
1.0
 40
1.0
 40
1.0
 10
-32.9859372723
 20
18.5160186483
 30
0.0
 10
-32.9433101014
 20
18.4984597049
 30
0.0
 10
-32.7837068075
 20
18.4408991077
 30
0.0
 10
-32.6104438599
 20
18.4151743032
 30
0.0
 10
-32.4870754373
 20
18.4249969513
 30
0.0
 11
-32.9859372723
 21
18.5160186483
 31
0.0
 11
-32.8556679286
 21
18.469559765
 31
0.0
 11
-32.4870754373
 21
18.4249969513
 31
0.0
  0
SPLINE
  5
5CC
100
AcDbEntity
  8
0
100
AcDbSpline
 62
253
  6
CONTINUOUS
 70
0
 71
3
 72
9
 73
5
 74
3
 42
0.0000001
 43
0.0000001
 44
0.0000000001
 12
-1.4192594513
 22
0.8194626197
 32
0.0
 13
-0.7467828913
 23
1.4588117385
 33
0.0
 40
0.0
 40
0.0
 40
0.0
 40
0.0
 40
0.4747272372
 40
1.0
 40
1.0
 40
1.0
 40
1.0
 10
33.186370549
 20
-20.5241535961
 30
0.0
 10
32.9617835096
 20
-20.3944798543
 30
0.0
 10
32.5426586143
 20
-20.02804145
 30
0.0
 10
32.2337750123
 20
-19.5707587215
 30
0.0
 10
32.1030201081
 20
-19.3153340308
 30
0.0
 11
33.186370549
 21
-20.5241535961
 31
0.0
 11
32.5886881362
 21
-20.0260900544
 31
0.0
 11
32.1030201081
 21
-19.3153340308
 31
0.0
  0
SPLINE
  5
5CD
100
AcDbEntity
  8
0
100
AcDbSpline
 62
253
  6
CONTINUOUS
 70
0
 71
3
 72
9
 73
5
 74
3
 42
0.0000001
 43
0.0000001
 44
0.0000000001
 12
0.7306010892
 22
-1.2485657649
 32
0.0
 13
1.2527849994
 23
-0.7233423576
 33
0.0
 40
0.0
 40
0.0
 40
0.0
 40
0.0
 40
0.525649095
 40
1.0
 40
1.0
 40
1.0
 40
1.0
 10
32.9032551419
 20
-19.0769604853
 30
0.0
 10
33.031268409
 20
-19.2957296401
 30
0.0
 10
33.319897653
 20
-19.6870522215
 30
0.0
 10
33.6953907641
 20
-20.0015063022
 30
0.0
 10
33.8934773302
 20
-20.1158790028
 30
0.0
 11
32.9032551419
 21
-19.0769604853
 31
0.0
 11
33.3587049028
 21
-19.685887059
 31
0.0
 11
33.8934773302
 21
-20.1158790028
 31
0.0
  0
SPLINE
  5
5CE
100
AcDbEntity
  8
0
100
AcDbSpline
 62
253
  6
CONTINUOUS
 70
0
 71
3
 72
11
 73
7
 74
5
 42
0.0000001
 43
0.0000001
 44
0.0000000001
 12
0.4493676559
 22
0.210520901
 32
0.0
 13
0.4297462134
 23
-0.2481300706
 33
0.0
 40
0.0
 40
0.0
 40
0.0
 40
0.0
 40
0.2178304306
 40
0.4523401846
 40
0.7122953977
 40
1.0
 40
1.0
 40
1.0
 40
1.0
 10
-42.901164518
 20
24.0132183586
 30
0.0
 10
-42.868535868
 20
24.0285043114
 30
0.0
 10
-42.7951479016
 20
24.0491394141
 30
0.0
 10
-42.6760251972
 20
24.0469275835
 30
0.0
 10
-42.549989828
 20
24.0136753231
 30
0.0
 10
-42.4678783076
 20
23.9742107092
 30
0.0
 10
-42.4266649865
 20
23.9504146548
 30
0.0
 11
-42.901164518
 21
24.0132183586
 31
0.0
 11
-42.7973297709
 21
24.0432674467
 31
0.0
 11
-42.6809593288
 21
24.0426236452
 31
0.0
 11
-42.5558437233
 21
24.0112090984
 31
0.0
 11
-42.4266649865
 21
23.9504146548
 31
0.0
  0
SPLINE
  5
5CF
100
AcDbEntity
  8
0
100
AcDbSpline
 62
7
  6
CONTINUOUS
 70
0
 71
3
 72
9
 73
5
 74
3
 42
0.0000001
 43
0.0000001
 44
0.0000000001
 12
-0.4414847942
 22
0.7569937455
 32
0.0
 13
-0.603124008
 23
0.6357592196
 33
0.0
 40
0.0
 40
0.0
 40
0.0
 40
0.0
 40
0.2542682977
 40
1.0
 40
1.0
 40
1.0
 40
1.0
 10
-20.8410107103
 20
-4.5327894168
 30
0.0
 10
-20.8784292393
 20
-4.4686295797
 30
0.0
 10
-21.0325775232
 20
-4.220476688
 30
0.0
 10
-21.2141564603
 20
-3.9890592846
 30
0.0
 10
-21.364079358
 20
-3.8310240163
 30
0.0
 11
-20.8410107103
 21
-4.5327894168
 31
0.0
 11
-20.9585927394
 21
-4.3435167419
 31
0.0
 11
-21.364079358
 21
-3.8310240163
 31
0.0
  0
SPLINE
  5
5D0
100
AcDbEntity
  8
0
100
AcDbSpline
 62
253
  6
CONTINUOUS
 70
0
 71
3
 72
11
 73
7
 74
5
 42
0.0000001
 43
0.0000001
 44
0.0000000001
 12
0.453097653
 22
0.2387462771
 32
0.0
 13
0.4435274698
 23
-0.2560871951
 33
0.0
 40
0.0
 40
0.0
 40
0.0
 40
0.0
 40
0.2178953794
 40
0.4515996361
 40
0.7111966001
 40
1.0
 40
1.0
 40
1.0
 40
1.0
 10
-27.9394077922
 20
21.8907826791
 30
0.0
 10
-27.9064984972
 20
21.9081232493
 30
0.0
 10
-27.8317052635
 20
21.9325892919
 30
0.0
 10
-27.7087546208
 20
21.9332479694
 30
0.0
 10
-27.5782116858
 20
21.9003997964
 30
0.0
 10
-27.4932157268
 20
21.859790426
 30
0.0
 10
-27.450518313
 20
21.8351374751
 30
0.0
 11
-27.9394077922
 21
21.8907826791
 31
0.0
 11
-27.8335602229
 21
21.9261344219
 31
0.0
 11
-27.7138914835
 21
21.9284712912
 31
0.0
 11
-27.5845518278
 21
21.8976878633
 31
0.0
 11
-27.450518313
 21
21.8351374751
 31
0.0
  0
SPLINE
  5
5D1
100
AcDbEntity
  8
0
100
AcDbSpline
 62
253
  6
CONTINUOUS
 70
0
 71
3
 72
9
 73
5
 74
3
 42
0.0000001
 43
0.0000001
 44
0.0000000001
 12
-0.1109349421
 22
-0.0270508655
 32
0.0
 13
-0.1102708292
 23
0.0296421141
 33
0.0
 40
0.0
 40
0.0
 40
0.0
 40
0.0
 40
0.2346508474
 40
1.0
 40
1.0
 40
1.0
 40
1.0
 10
-30.4128158309
 20
-13.0384935406
 30
0.0
 10
-30.4214928236
 20
-13.0406093767
 30
0.0
 10
-30.4591448509
 20
-13.0469142457
 30
0.0
 10
-30.4980958045
 20
-13.0421865625
 30
0.0
 10
-30.5262276997
 20
-13.0346243736
 30
0.0
 11
-30.4128158309
 21
-13.0384935406
 31
0.0
 11
-30.439234504
 21
-13.0429607989
 31
0.0
 11
-30.5262276997
 21
-13.0346243736
 31
0.0
  0
SPLINE
  5
5D2
100
AcDbEntity
  8
0
100
AcDbSpline
 62
253
  6
CONTINUOUS
 70
0
 71
3
 72
9
 73
5
 74
3
 42
0.0000001
 43
0.0000001
 44
0.0000000001
 12
-0.0961597365
 22
0.025848884
 32
0.0
 13
-0.0862316951
 23
0.0497891
 33
0.0
 40
0.0
 40
0.0
 40
0.0
 40
0.0
 40
0.2374710184
 40
1.0
 40
1.0
 40
1.0
 40
1.0
 10
-30.5262276997
 20
-13.0346243736
 30
0.0
 10
-30.5338394166
 20
-13.0325782533
 30
0.0
 10
-30.5655609707
 20
-13.0227382487
 30
0.0
 10
-30.5958055698
 20
-13.0084074204
 30
0.0
 10
-30.6177236254
 20
-12.9957522098
 30
0.0
 11
-30.5262276997
 21
-13.0346243736
 31
0.0
 11
-30.5488220269
 21
-13.0276515728
 31
0.0
 11
-30.6177236254
 21
-12.9957522098
 31
0.0
  0
SPLINE
  5
5D3
100
AcDbEntity
  8
0
100
AcDbSpline
 62
7
  6
CONTINUOUS
 70
0
 71
3
 72
11
 73
7
 74
5
 42
0.0000001
 43
0.0000001
 44
0.0000000001
 12
0.0
 22
1.1460400211
 32
0.0
 13
0.9844259915
 23
0.5867820696
 33
0.0
 40
0.0
 40
0.0
 40
0.0
 40
0.0
 40
0.2892658611
 40
0.5489137099
 40
0.7822784179
 40
1.0
 40
1.0
 40
1.0
 40
1.0
 10
-23.6200252131
 20
-0.543491217
 30
0.0
 10
-23.6200252131
 20
-0.4329877991
 30
0.0
 10
-23.6033076504
 20
-0.2226153119
 30
0.0
 10
-23.5191944434
 20
0.0668275537
 30
0.0
 10
-23.3773696646
 20
0.3025992493
 30
0.0
 10
-23.2438870649
 20
0.4174227476
 30
0.0
 10
-23.1724434701
 20
0.4600077878
 30
0.0
 11
-23.6200252131
 21
-0.543491217
 31
0.0
 11
-23.5906576551
 21
-0.2132843201
 31
0.0
 11
-23.5037846356
 21
0.0713190784
 31
0.0
 11
-23.3626138847
 21
0.2984705805
 31
0.0
 11
-23.1724434701
 21
0.4600077878
 31
0.0
  0
SPLINE
  5
5D4
100
AcDbEntity
  8
0
100
AcDbSpline
 62
253
  6
CONTINUOUS
 70
0
 71
3
 72
11
 73
7
 74
5
 42
0.0000001
 43
0.0000001
 44
0.0000000001
 12
0.4355006678
 22
0.2513732251
 32
0.0
 13
0.0119278205
 23
0.5026997684
 33
0.0
 40
0.0
 40
0.0
 40
0.0
 40
0.0
 40
0.2192468427
 40
0.4530360098
 40
0.7120369606
 40
1.0
 40
1.0
 40
1.0
 40
1.0
 10
42.2195609332
 20
-57.3429540525
 30
0.0
 10
42.2513883153
 20
-57.3245831238
 30
0.0
 10
42.3110922099
 20
-57.275133742
 30
0.0
 10
42.3758297958
 20
-57.1730070215
 30
0.0
 10
42.4157466764
 20
-57.0471947573
 30
0.0
 10
42.4252619474
 20
-56.9554169754
 30
0.0
 10
42.4264068712
 20
-56.907163991
 30
0.0
 11
42.2195609332
 21
-57.3429540525
 31
0.0
 11
42.3048395213
 21
-57.2730840169
 31
0.0
 11
42.3691239937
 21
-57.1746584757
 31
0.0
 11
42.4101292463
 21
-57.0510458562
 31
0.0
 11
42.4264068712
 21
-56.907163991
 31
0.0
  0
SPLINE
  5
5D5
100
AcDbEntity
  8
0
100
AcDbSpline
 62
253
  6
CONTINUOUS
 70
0
 71
3
 72
11
 73
7
 74
5
 42
0.0000001
 43
0.0000001
 44
0.0000000001
 12
0.0
 22
0.7329239856
 32
0.0
 13
0.6347205667
 23
0.3664797003
 33
0.0
 40
0.0
 40
0.0
 40
0.0
 40
0.0
 40
0.2372134903
 40
0.4999938938
 40
0.7627776205
 40
1.0
 40
1.0
 40
1.0
 40
1.0
 10
-34.7896536344
 20
-11.4034418409
 30
0.0
 10
-34.7896536344
 20
-11.3454886887
 30
0.0
 10
-34.7679160246
 20
-11.2232573892
 30
0.0
 10
-34.692144991
 20
-11.051494693
 30
0.0
 10
-34.5812781227
 20
-10.8999921179
 30
0.0
 10
-34.486290218
 20
-10.8200484681
 30
0.0
 10
-34.4361002436
 20
-10.7910694059
 30
0.0
 11
-34.7896536344
 21
-11.4034418409
 31
0.0
 11
-34.7627409853
 21
-11.2316779913
 31
0.0
 11
-34.6861002435
 21
-11.0549855759
 31
0.0
 11
-34.571399268
 21
-10.9002644158
 31
0.0
 11
-34.4361002436
 21
-10.7910694059
 31
0.0
  0
SPLINE
  5
5D6
100
AcDbEntity
  8
0
100
AcDbSpline
 62
253
  6
CONTINUOUS
 70
0
 71
3
 72
11
 73
7
 74
5
 42
0.0000001
 43
0.0000001
 44
0.0000000001
 12
0.6347247569
 22
-0.3664821196
 32
0.0
 13
0.6347247569
 23
0.3664821196
 33
0.0
 40
0.0
 40
0.0
 40
0.0
 40
0.0
 40
0.2372193392
 40
0.5000000007
 40
0.7627806614
 40
1.0
 40
1.0
 40
1.0
 40
1.0
 10
-35.4967604156
 20
-8.5457564172
 30
0.0
 10
-35.4465707531
 20
-8.5747352993
 30
0.0
 10
-35.3298454404
 20
-8.6170298098
 30
0.0
 10
-35.1432070247
 20
-8.6372939084
 30
0.0
 10
-34.9565686092
 20
-8.6170298096
 30
0.0
 10
-34.8398432967
 20
-8.5747352994
 30
0.0
 10
-34.7896536344
 20
-8.5457564174
 30
0.0
 11
-35.4967604156
 21
-8.5457564172
 31
0.0
 11
-35.334548742
 21
-8.6083373519
 31
0.0
 11
-35.1432070245
 21
-8.6303128541
 31
0.0
 11
-34.9518653075
 21
-8.6083373519
 31
0.0
 11
-34.7896536344
 21
-8.5457564174
 31
0.0
  0
SPLINE
  5
5D7
100
AcDbEntity
  8
0
100
AcDbSpline
 62
253
  6
CONTINUOUS
 70
0
 71
3
 72
9
 73
5
 74
3
 42
0.0000001
 43
0.0000001
 44
0.0000000001
 12
0.0
 22
-0.2600619008
 32
0.0
 13
0.2252164889
 23
-0.1300374
 33
0.0
 40
0.0
 40
0.0
 40
0.0
 40
0.0
 40
0.5507499538
 40
1.0
 40
1.0
 40
1.0
 40
1.0
 10
-30.971277016
 20
-10.3422435377
 30
0.0
 10
-30.971277016
 20
-10.3899865643
 30
0.0
 10
-30.9596923384
 20
-10.4787050779
 30
0.0
 10
-30.9014618781
 20
-10.5516388656
 30
0.0
 10
-30.8677357054
 20
-10.5711119683
 30
0.0
 11
-30.971277016
 21
-10.3422435377
 31
0.0
 11
-30.9443676388
 21
-10.4829220888
 31
0.0
 11
-30.8677357054
 21
-10.5711119683
 31
0.0
  0
SPLINE
  5
5D8
100
AcDbEntity
  8
0
100
AcDbSpline
 62
253
  6
CONTINUOUS
 70
0
 71
3
 72
9
 73
5
 74
3
 42
0.0000001
 43
0.0000001
 44
0.0000000001
 12
-0.2252471359
 22
0.1300548733
 32
0.0
 13
-0.0000000005
 23
0.2600971786
 33
0.0
 40
0.0
 40
0.0
 40
0.0
 40
0.0
 40
0.5507429335
 40
1.0
 40
1.0
 40
1.0
 40
1.0
 10
-30.2641702348
 20
-13.1999289614
 30
0.0
 10
-30.3055213242
 20
-13.1760533606
 30
0.0
 10
-30.3765689633
 20
-13.1216508751
 30
0.0
 10
-30.4106168441
 20
-13.0347418299
 30
0.0
 10
-30.4106168442
 20
-12.9957916648
 30
0.0
 11
-30.2641702348
 21
-13.1999289614
 31
0.0
 11
-30.37255661
 21
-13.1062699742
 31
0.0
 11
-30.4106168442
 21
-12.9957916648
 31
0.0
  0
SPLINE
  5
5D9
100
AcDbEntity
  8
0
100
AcDbSpline
 62
253
  6
CONTINUOUS
 70
0
 71
3
 72
9
 73
5
 74
3
 42
0.0000001
 43
0.0000001
 44
0.0000000001
 12
0.0
 22
-0.2600619008
 32
0.0
 13
0.2252164889
 23
-0.1300374
 33
0.0
 40
0.0
 40
0.0
 40
0.0
 40
0.0
 40
0.5507499538
 40
1.0
 40
1.0
 40
1.0
 40
1.0
 10
-17.889801564
 20
-17.8953235143
 30
0.0
 10
-17.889801564
 20
-17.9430665409
 30
0.0
 10
-17.8782168865
 20
-18.0317850545
 30
0.0
 10
-17.8199864262
 20
-18.1047188422
 30
0.0
 10
-17.7862602535
 20
-18.1241919448
 30
0.0
 11
-17.889801564
 21
-17.8953235143
 31
0.0
 11
-17.8628921868
 21
-18.0360020654
 31
0.0
 11
-17.7862602535
 21
-18.1241919448
 31
0.0
  0
SPLINE
  5
5DA
100
AcDbEntity
  8
0
100
AcDbSpline
 62
253
  6
CONTINUOUS
 70
0
 71
3
 72
9
 73
5
 74
3
 42
0.0000001
 43
0.0000001
 44
0.0000000001
 12
-0.2252471359
 22
0.1300548733
 32
0.0
 13
-0.0000000005
 23
0.2600971786
 33
0.0
 40
0.0
 40
0.0
 40
0.0
 40
0.0
 40
0.5507429335
 40
1.0
 40
1.0
 40
1.0
 40
1.0
 10
-17.1826947828
 20
-20.753008938
 30
0.0
 10
-17.2240458723
 20
-20.7291333372
 30
0.0
 10
-17.2950935113
 20
-20.6747308517
 30
0.0
 10
-17.3291413922
 20
-20.5878218065
 30
0.0
 10
-17.3291413922
 20
-20.5488716413
 30
0.0
 11
-17.1826947828
 21
-20.753008938
 31
0.0
 11
-17.2910811581
 21
-20.6593499508
 31
0.0
 11
-17.3291413922
 21
-20.5488716413
 31
0.0
  0
SPLINE
  5
5DB
100
AcDbEntity
  8
0
100
AcDbSpline
 62
253
  6
CONTINUOUS
 70
0
 71
3
 72
11
 73
7
 74
5
 42
0.0000001
 43
0.0000001
 44
0.0000000001
 12
0.0
 22
0.7329239856
 32
0.0
 13
0.6347205667
 23
0.3664797003
 33
0.0
 40
0.0
 40
0.0
 40
0.0
 40
0.0
 40
0.2372134903
 40
0.4999938938
 40
0.7627776205
 40
1.0
 40
1.0
 40
1.0
 40
1.0
 10
-21.7081781824
 20
-18.9565218175
 30
0.0
 10
-21.7081781824
 20
-18.8985686652
 30
0.0
 10
-21.6864405726
 20
-18.7763373658
 30
0.0
 10
-21.6106695391
 20
-18.6045746696
 30
0.0
 10
-21.4998026707
 20
-18.4530720944
 30
0.0
 10
-21.4048147661
 20
-18.3731284447
 30
0.0
 10
-21.3546247917
 20
-18.3441493825
 30
0.0
 11
-21.7081781824
 21
-18.9565218175
 31
0.0
 11
-21.6812655333
 21
-18.7847579679
 31
0.0
 11
-21.6046247916
 21
-18.6080655525
 31
0.0
 11
-21.489923816
 21
-18.4533443924
 31
0.0
 11
-21.3546247917
 21
-18.3441493825
 31
0.0
  0
SPLINE
  5
5DC
100
AcDbEntity
  8
0
100
AcDbSpline
 62
253
  6
CONTINUOUS
 70
0
 71
3
 72
11
 73
7
 74
5
 42
0.0000001
 43
0.0000001
 44
0.0000000001
 12
0.6347247569
 22
-0.3664821196
 32
0.0
 13
0.6347247569
 23
0.3664821196
 33
0.0
 40
0.0
 40
0.0
 40
0.0
 40
0.0
 40
0.2372193392
 40
0.5000000007
 40
0.7627806614
 40
1.0
 40
1.0
 40
1.0
 40
1.0
 10
-22.4152849636
 20
-16.0988363938
 30
0.0
 10
-22.3650953011
 20
-16.1278152759
 30
0.0
 10
-22.2483699884
 20
-16.1701097864
 30
0.0
 10
-22.0617315727
 20
-16.190373885
 30
0.0
 10
-21.8750931572
 20
-16.1701097862
 30
0.0
 10
-21.7583678448
 20
-16.127815276
 30
0.0
 10
-21.7081781824
 20
-16.098836394
 30
0.0
 11
-22.4152849636
 21
-16.0988363938
 31
0.0
 11
-22.2530732901
 21
-16.1614173285
 31
0.0
 11
-22.0617315725
 21
-16.1833928306
 31
0.0
 11
-21.8703898556
 21
-16.1614173284
 31
0.0
 11
-21.7081781824
 21
-16.098836394
 31
0.0
  0
SPLINE
  5
5DD
100
AcDbEntity
  8
0
100
AcDbSpline
 62
253
  6
CONTINUOUS
 70
0
 71
3
 72
11
 73
7
 74
5
 42
0.0000001
 43
0.0000001
 44
0.0000000001
 12
-0.6347247569
 22
-0.3664821197
 32
0.0
 13
-0.6347247569
 23
0.3664821197
 33
0.0
 40
0.0
 40
0.0
 40
0.0
 40
0.0
 40
0.2372193404
 40
0.5
 40
0.7627806596
 40
1.0
 40
1.0
 40
1.0
 40
1.0
 10
16.4755880016
 20
-38.1456644335
 30
0.0
 10
16.4253983389
 20
-38.1746433157
 30
0.0
 10
16.3086730263
 20
-38.2169378261
 30
0.0
 10
16.1220346111
 20
-38.2372019246
 30
0.0
 10
15.9353961958
 20
-38.2169378261
 30
0.0
 10
15.8186708832
 20
-38.1746433157
 30
0.0
 10
15.7684812205
 20
-38.1456644335
 30
0.0
 11
16.4755880016
 21
-38.1456644335
 31
0.0
 11
16.3133763272
 21
-38.2082453684
 31
0.0
 11
16.1220346111
 21
-38.2302208703
 31
0.0
 11
15.9306928949
 21
-38.2082453684
 31
0.0
 11
15.7684812205
 21
-38.1456644335
 31
0.0
  0
SPLINE
  5
5DE
100
AcDbEntity
  8
0
100
AcDbSpline
 62
253
  6
CONTINUOUS
 70
0
 71
3
 72
11
 73
7
 74
5
 42
0.0000001
 43
0.0000001
 44
0.0000000001
 12
-0.6347247568
 22
-0.3664821196
 32
0.0
 13
-0.6347247579
 23
0.3664821177
 33
0.0
 40
0.0
 40
0.0
 40
0.0
 40
0.0
 40
0.2372193404
 40
0.5000000001
 40
0.7627806598
 40
1.0
 40
1.0
 40
1.0
 40
1.0
 10
16.4755880016
 20
-39.7786049871
 30
0.0
 10
16.4253983389
 20
-39.8075838693
 30
0.0
 10
16.3086730263
 20
-39.8498783796
 30
0.0
 10
16.122034611
 20
-39.8701424782
 30
0.0
 10
15.9353961959
 20
-39.8498783796
 30
0.0
 10
15.8186708832
 20
-39.8075838695
 30
0.0
 10
15.7684812205
 20
-39.7786049874
 30
0.0
 11
16.4755880016
 21
-39.7786049871
 31
0.0
 11
16.3133763273
 21
-39.8411859219
 31
0.0
 11
16.122034611
 21
-39.8631614239
 31
0.0
 11
15.9306928948
 21
-39.841185922
 31
0.0
 11
15.7684812205
 21
-39.7786049874
 31
0.0
  0
SPLINE
  5
5DF
100
AcDbEntity
  8
0
100
AcDbSpline
 62
253
  6
CONTINUOUS
 70
0
 71
3
 72
11
 73
7
 74
5
 42
0.0000001
 43
0.0000001
 44
0.0000000001
 12
-0.6347205667
 22
-0.3664797003
 32
0.0
 13
0.0
 23
-0.7329239855
 33
0.0
 40
0.0
 40
0.0
 40
0.0
 40
0.0
 40
0.2372223812
 40
0.5000061068
 40
0.7627865084
 40
1.0
 40
1.0
 40
1.0
 40
1.0
 10
16.8291413922
 20
-40.3909774221
 30
0.0
 10
16.7789514175
 20
-40.4199564845
 30
0.0
 10
16.683963513
 20
-40.4999001347
 30
0.0
 10
16.5730966449
 20
-40.6514027096
 30
0.0
 10
16.4973256116
 20
-40.8231654054
 30
0.0
 10
16.4755880016
 20
-40.9453967046
 30
0.0
 10
16.4755880016
 20
-41.0033498572
 30
0.0
 11
16.8291413922
 21
-40.3909774221
 31
0.0
 11
16.6938423672
 21
-40.5001724331
 31
0.0
 11
16.5791413922
 21
-40.6548935926
 31
0.0
 11
16.502500651
 21
-40.8315860067
 31
0.0
 11
16.4755880016
 21
-41.0033498572
 31
0.0
  0
SPLINE
  5
5E0
100
AcDbEntity
  8
0
100
AcDbSpline
 62
253
  6
CONTINUOUS
 70
0
 71
3
 72
11
 73
7
 74
5
 42
0.0000001
 43
0.0000001
 44
0.0000000001
 12
-0.6347205668
 22
-0.3664797003
 32
0.0
 13
0.0000000021
 23
-0.7329239856
 33
0.0
 40
0.0
 40
0.0
 40
0.0
 40
0.0
 40
0.2372223811
 40
0.5000061068
 40
0.7627865084
 40
1.0
 40
1.0
 40
1.0
 40
1.0
 10
20.6475180106
 20
-42.5956602261
 30
0.0
 10
20.5973280359
 20
-42.6246392885
 30
0.0
 10
20.5023401314
 20
-42.7045829387
 30
0.0
 10
20.3914732633
 20
-42.8560855135
 30
0.0
 10
20.3157022299
 20
-43.0278482094
 30
0.0
 10
20.2939646202
 20
-43.1500795087
 30
0.0
 10
20.2939646204
 20
-43.2080326613
 30
0.0
 11
20.6475180106
 21
-42.5956602261
 31
0.0
 11
20.5122189856
 21
-42.704855237
 31
0.0
 11
20.3975180106
 21
-42.8595763966
 31
0.0
 11
20.3208772694
 21
-43.0362688107
 31
0.0
 11
20.2939646204
 21
-43.2080326613
 31
0.0
  0
SPLINE
  5
5E1
100
AcDbEntity
  8
0
100
AcDbSpline
 62
253
  6
CONTINUOUS
 70
0
 71
3
 72
9
 73
5
 74
3
 42
0.0000001
 43
0.0000001
 44
0.0000000001
 12
0.0
 22
-0.2600619008
 32
0.0
 13
0.2252164889
 23
-0.1300374
 33
0.0
 40
0.0
 40
0.0
 40
0.0
 40
0.0
 40
0.5507499538
 40
1.0
 40
1.0
 40
1.0
 40
1.0
 10
33.375440072
 20
-47.4952315305
 30
0.0
 10
33.375440072
 20
-47.5429745572
 30
0.0
 10
33.3870247496
 20
-47.6316930708
 30
0.0
 10
33.4452552099
 20
-47.7046268584
 30
0.0
 10
33.4789813825
 20
-47.7240999611
 30
0.0
 11
33.375440072
 21
-47.4952315305
 31
0.0
 11
33.4023494492
 21
-47.6359100816
 31
0.0
 11
33.4789813825
 21
-47.7240999611
 31
0.0
  0
SPLINE
  5
5E2
100
AcDbEntity
  8
0
100
AcDbSpline
 62
253
  6
CONTINUOUS
 70
0
 71
3
 72
9
 73
5
 74
3
 42
0.0000001
 43
0.0000001
 44
0.0000000001
 12
-0.2252471359
 22
0.1300548733
 32
0.0
 13
-0.0000000005
 23
0.2600971786
 33
0.0
 40
0.0
 40
0.0
 40
0.0
 40
0.0
 40
0.5507429335
 40
1.0
 40
1.0
 40
1.0
 40
1.0
 10
34.0825468532
 20
-50.3529169542
 30
0.0
 10
34.0411957637
 20
-50.3290413534
 30
0.0
 10
33.9701481247
 20
-50.274638868
 30
0.0
 10
33.9361002439
 20
-50.1877298227
 30
0.0
 10
33.9361002438
 20
-50.1487796576
 30
0.0
 11
34.0825468532
 21
-50.3529169542
 31
0.0
 11
33.9741604779
 21
-50.2592579671
 31
0.0
 11
33.9361002438
 21
-50.1487796576
 31
0.0
  0
SPLINE
  5
5E3
100
AcDbEntity
  8
0
100
AcDbSpline
 62
253
  6
CONTINUOUS
 70
0
 71
3
 72
11
 73
7
 74
5
 42
0.0000001
 43
0.0000001
 44
0.0000000001
 12
-0.0
 22
0.7329239856
 32
0.0
 13
0.6347205667
 23
0.3664797003
 33
0.0
 40
0.0
 40
0.0
 40
0.0
 40
0.0
 40
0.2372134903
 40
0.4999938938
 40
0.7627776205
 40
1.0
 40
1.0
 40
1.0
 40
1.0
 10
29.5570634536
 20
-48.5564298337
 30
0.0
 10
29.5570634536
 20
-48.4984766815
 30
0.0
 10
29.5788010634
 20
-48.376245382
 30
0.0
 10
29.654572097
 20
-48.2044826859
 30
0.0
 10
29.7654389653
 20
-48.0529801107
 30
0.0
 10
29.86042687
 20
-47.973036461
 30
0.0
 10
29.9106168444
 20
-47.9440573988
 30
0.0
 11
29.5570634536
 21
-48.5564298337
 31
0.0
 11
29.5839761027
 21
-48.3846659841
 31
0.0
 11
29.6606168444
 21
-48.2079735687
 31
0.0
 11
29.77531782
 21
-48.0532524087
 31
0.0
 11
29.9106168444
 21
-47.9440573988
 31
0.0
  0
SPLINE
  5
5E4
100
AcDbEntity
  8
0
100
AcDbSpline
 62
253
  6
CONTINUOUS
 70
0
 71
3
 72
11
 73
7
 74
5
 42
0.0000001
 43
0.0000001
 44
0.0000000001
 12
0.6347247569
 22
-0.3664821196
 32
0.0
 13
0.6347247569
 23
0.3664821196
 33
0.0
 40
0.0
 40
0.0
 40
0.0
 40
0.0
 40
0.2372193392
 40
0.5000000007
 40
0.7627806614
 40
1.0
 40
1.0
 40
1.0
 40
1.0
 10
28.8499566724
 20
-45.69874441
 30
0.0
 10
28.9001463349
 20
-45.7277232921
 30
0.0
 10
29.0168716476
 20
-45.7700178027
 30
0.0
 10
29.2035100633
 20
-45.7902819012
 30
0.0
 10
29.3901484788
 20
-45.7700178025
 30
0.0
 10
29.5068737913
 20
-45.7277232922
 30
0.0
 10
29.5570634536
 20
-45.6987444102
 30
0.0
 11
28.8499566724
 21
-45.69874441
 31
0.0
 11
29.012168346
 21
-45.7613253448
 31
0.0
 11
29.2035100635
 21
-45.7833008469
 31
0.0
 11
29.3948517804
 21
-45.7613253447
 31
0.0
 11
29.5570634536
 21
-45.6987444102
 31
0.0
  0
SPLINE
  5
5E5
100
AcDbEntity
  8
0
100
AcDbSpline
 62
253
  6
CONTINUOUS
 70
0
 71
3
 72
9
 73
5
 74
3
 42
0.0000001
 43
0.0000001
 44
0.0000000001
 12
-0.2252471359
 22
0.1300548733
 32
0.0
 13
0.0
 23
0.2600971786
 33
0.0
 40
0.0
 40
0.0
 40
0.0
 40
0.0
 40
0.5507429362
 40
1.0
 40
1.0
 40
1.0
 40
1.0
 10
-30.2641702348
 20
-11.5669884078
 30
0.0
 10
-30.3055213245
 20
-11.5431128069
 30
0.0
 10
-30.3765689634
 20
-11.4887103213
 30
0.0
 10
-30.4106168442
 20
-11.4018012761
 30
0.0
 10
-30.4106168442
 20
-11.3628511112
 30
0.0
 11
-30.2641702348
 21
-11.5669884078
 31
0.0
 11
-30.3725566104
 21
-11.47332942
 31
0.0
 11
-30.4106168442
 21
-11.3628511112
 31
0.0
  0
SPLINE
  5
5E6
100
AcDbEntity
  8
0
100
AcDbSpline
 62
253
  6
CONTINUOUS
 70
0
 71
3
 72
11
 73
7
 74
5
 42
0.0000001
 43
0.0000001
 44
0.0000000001
 12
0.0
 22
0.7329239855
 32
0.0
 13
0.6347205667
 23
0.3664797003
 33
0.0
 40
0.0
 40
0.0
 40
0.0
 40
0.0
 40
0.2372134916
 40
0.4999938932
 40
0.7627776188
 40
1.0
 40
1.0
 40
1.0
 40
1.0
 10
-30.971277016
 20
-13.6081246449
 30
0.0
 10
-30.971277016
 20
-13.5501714923
 30
0.0
 10
-30.9495394061
 20
-13.4279401931
 30
0.0
 10
-30.8737683727
 20
-13.2561774973
 30
0.0
 10
-30.7629015046
 20
-13.1046749224
 30
0.0
 10
-30.6679136001
 20
-13.0247312722
 30
0.0
 10
-30.6177236254
 20
-12.9957522098
 30
0.0
 11
-30.971277016
 21
-13.6081246449
 31
0.0
 11
-30.9443643666
 21
-13.4363607945
 31
0.0
 11
-30.8677236254
 21
-13.2596683803
 31
0.0
 11
-30.7530226504
 21
-13.1049472208
 31
0.0
 11
-30.6177236254
 21
-12.9957522098
 31
0.0
  0
SPLINE
  5
5E7
100
AcDbEntity
  8
0
100
AcDbSpline
 62
253
  6
CONTINUOUS
 70
0
 71
3
 72
11
 73
7
 74
5
 42
0.0000001
 43
0.0000001
 44
0.0000000001
 12
0.6347247569
 22
-0.3664821197
 32
0.0
 13
0.6347247569
 23
0.3664821197
 33
0.0
 40
0.0
 40
0.0
 40
0.0
 40
0.0
 40
0.2372193404
 40
0.5
 40
0.7627806596
 40
1.0
 40
1.0
 40
1.0
 40
1.0
 10
-35.4967604156
 20
-10.1786969708
 30
0.0
 10
-35.4465707528
 20
-10.207675853
 30
0.0
 10
-35.3298454402
 20
-10.2499703634
 30
0.0
 10
-35.143207025
 20
-10.2702344619
 30
0.0
 10
-34.9565686097
 20
-10.2499703634
 30
0.0
 10
-34.8398432971
 20
-10.207675853
 30
0.0
 10
-34.7896536344
 20
-10.1786969708
 30
0.0
 11
-35.4967604156
 21
-10.1786969708
 31
0.0
 11
-35.3345487412
 21
-10.2412779057
 31
0.0
 11
-35.143207025
 21
-10.2632534077
 31
0.0
 11
-34.9518653088
 21
-10.2412779057
 31
0.0
 11
-34.7896536344
 21
-10.1786969708
 31
0.0
  0
SPLINE
  5
5E8
100
AcDbEntity
  8
0
100
AcDbSpline
 62
253
  6
CONTINUOUS
 70
0
 71
3
 72
9
 73
5
 74
3
 42
0.0000001
 43
0.0000001
 44
0.0000000001
 12
0.0
 22
-0.2600619008
 32
0.0
 13
0.2252164891
 23
-0.1300373996
 33
0.0
 40
0.0
 40
0.0
 40
0.0
 40
0.0
 40
0.5507499566
 40
1.0
 40
1.0
 40
1.0
 40
1.0
 10
-34.7896536344
 20
-8.1375607337
 30
0.0
 10
-34.7896536344
 20
-8.1853037606
 30
0.0
 10
-34.7780689567
 20
-8.2740222742
 30
0.0
 10
-34.7198384964
 20
-8.3469560618
 30
0.0
 10
-34.6861123239
 20
-8.3664291643
 30
0.0
 11
-34.7896536344
 21
-8.1375607337
 31
0.0
 11
-34.7627442569
 21
-8.2782392855
 31
0.0
 11
-34.6861123239
 21
-8.3664291643
 31
0.0
  0
SPLINE
  5
5E9
100
AcDbEntity
  8
0
100
AcDbSpline
 62
253
  6
CONTINUOUS
 70
0
 71
3
 72
11
 73
7
 74
5
 42
0.0000001
 43
0.0000001
 44
0.0000000001
 12
0.6347247569
 22
-0.3664821197
 32
0.0
 13
0.6347247569
 23
0.3664821197
 33
0.0
 40
0.0
 40
0.0
 40
0.0
 40
0.0
 40
0.2372193404
 40
0.5
 40
0.7627806596
 40
1.0
 40
1.0
 40
1.0
 40
1.0
 10
-22.4152849636
 20
-17.7317769474
 30
0.0
 10
-22.3650953009
 20
-17.7607558296
 30
0.0
 10
-22.2483699883
 20
-17.8030503399
 30
0.0
 10
-22.061731573
 20
-17.8233144385
 30
0.0
 10
-21.8750931578
 20
-17.8030503399
 30
0.0
 10
-21.7583678451
 20
-17.7607558296
 30
0.0
 10
-21.7081781824
 20
-17.7317769474
 30
0.0
 11
-22.4152849636
 21
-17.7317769474
 31
0.0
 11
-22.2530732892
 21
-17.7943578823
 31
0.0
 11
-22.061731573
 21
-17.8163333842
 31
0.0
 11
-21.8703898568
 21
-17.7943578823
 31
0.0
 11
-21.7081781824
 21
-17.7317769474
 31
0.0
  0
SPLINE
  5
5EA
100
AcDbEntity
  8
0
100
AcDbSpline
 62
253
  6
CONTINUOUS
 70
0
 71
3
 72
9
 73
5
 74
3
 42
0.0000001
 43
0.0000001
 44
0.0000000001
 12
0.0
 22
-0.2600619008
 32
0.0
 13
0.2252164891
 23
-0.1300373996
 33
0.0
 40
0.0
 40
0.0
 40
0.0
 40
0.0
 40
0.5507499566
 40
1.0
 40
1.0
 40
1.0
 40
1.0
 10
-21.7081781824
 20
-15.6906407103
 30
0.0
 10
-21.7081781824
 20
-15.7383837372
 30
0.0
 10
-21.6965935047
 20
-15.8271022508
 30
0.0
 10
-21.6383630444
 20
-15.9000360384
 30
0.0
 10
-21.6046368719
 20
-15.9195091409
 30
0.0
 11
-21.7081781824
 21
-15.6906407103
 31
0.0
 11
-21.6812688049
 21
-15.8313192621
 31
0.0
 11
-21.6046368719
 21
-15.9195091409
 31
0.0
  0
SPLINE
  5
5EB
100
AcDbEntity
  8
0
100
AcDbSpline
 62
253
  6
CONTINUOUS
 70
0
 71
3
 72
9
 73
5
 74
3
 42
0.0000001
 43
0.0000001
 44
0.0000000001
 12
-0.2252471359
 22
0.1300548733
 32
0.0
 13
0.0
 23
0.2600971786
 33
0.0
 40
0.0
 40
0.0
 40
0.0
 40
0.0
 40
0.5507429362
 40
1.0
 40
1.0
 40
1.0
 40
1.0
 10
-17.1826947828
 20
-19.1200683844
 30
0.0
 10
-17.2240458725
 20
-19.0961927835
 30
0.0
 10
-17.2950935114
 20
-19.0417902978
 30
0.0
 10
-17.3291413922
 20
-18.9548812526
 30
0.0
 10
-17.3291413922
 20
-18.9159310877
 30
0.0
 11
-17.1826947828
 21
-19.1200683844
 31
0.0
 11
-17.2910811585
 21
-19.0264093966
 31
0.0
 11
-17.3291413922
 21
-18.9159310877
 31
0.0
  0
SPLINE
  5
5EC
100
AcDbEntity
  8
0
100
AcDbSpline
 62
253
  6
CONTINUOUS
 70
0
 71
3
 72
11
 73
7
 74
5
 42
0.0000001
 43
0.0000001
 44
0.0000000001
 12
0.0
 22
0.7329239855
 32
0.0
 13
0.6347205667
 23
0.3664797003
 33
0.0
 40
0.0
 40
0.0
 40
0.0
 40
0.0
 40
0.2372134916
 40
0.4999938932
 40
0.7627776188
 40
1.0
 40
1.0
 40
1.0
 40
1.0
 10
-17.889801564
 20
-21.1612046214
 30
0.0
 10
-17.889801564
 20
-21.1032514689
 30
0.0
 10
-17.8680639541
 20
-20.9810201696
 30
0.0
 10
-17.7922929208
 20
-20.8092574738
 30
0.0
 10
-17.6814260526
 20
-20.657754899
 30
0.0
 10
-17.5864381482
 20
-20.5778112488
 30
0.0
 10
-17.5362481734
 20
-20.5488321864
 30
0.0
 11
-17.889801564
 21
-21.1612046214
 31
0.0
 11
-17.8628889146
 21
-20.989440771
 31
0.0
 11
-17.7862481734
 21
-20.8127483569
 31
0.0
 11
-17.6715471985
 21
-20.6580271973
 31
0.0
 11
-17.5362481734
 21
-20.5488321864
 31
0.0
  0
SPLINE
  5
5ED
100
AcDbEntity
  8
0
100
AcDbSpline
 62
253
  6
CONTINUOUS
 70
0
 71
3
 72
11
 73
7
 74
5
 42
0.0000001
 43
0.0000001
 44
0.0000000001
 12
0.0
 22
0.7329239855
 32
0.0
 13
0.6347205667
 23
0.3664797003
 33
0.0
 40
0.0
 40
0.0
 40
0.0
 40
0.0
 40
0.2372134916
 40
0.4999938932
 40
0.7627776188
 40
1.0
 40
1.0
 40
1.0
 40
1.0
 10
33.375440072
 20
-50.7611126377
 30
0.0
 10
33.375440072
 20
-50.7031594852
 30
0.0
 10
33.3971776819
 20
-50.5809281859
 30
0.0
 10
33.4729487152
 20
-50.4091654901
 30
0.0
 10
33.5838155834
 20
-50.2576629152
 30
0.0
 10
33.6788034879
 20
-50.177719265
 30
0.0
 10
33.7289934626
 20
-50.1487402026
 30
0.0
 11
33.375440072
 21
-50.7611126377
 31
0.0
 11
33.4023527214
 21
-50.5893487873
 31
0.0
 11
33.4789934626
 21
-50.4126563731
 31
0.0
 11
33.5936944376
 21
-50.2579352136
 31
0.0
 11
33.7289934626
 21
-50.1487402026
 31
0.0
  0
SPLINE
  5
5EE
100
AcDbEntity
  8
0
100
AcDbSpline
 62
253
  6
CONTINUOUS
 70
0
 71
3
 72
11
 73
7
 74
5
 42
0.0000001
 43
0.0000001
 44
0.0000000001
 12
0.6347247569
 22
-0.3664821197
 32
0.0
 13
0.6347247569
 23
0.3664821197
 33
0.0
 40
0.0
 40
0.0
 40
0.0
 40
0.0
 40
0.2372193404
 40
0.5
 40
0.7627806596
 40
1.0
 40
1.0
 40
1.0
 40
1.0
 10
28.8499566724
 20
-47.3316849636
 30
0.0
 10
28.9001463351
 20
-47.3606638458
 30
0.0
 10
29.0168716478
 20
-47.4029583562
 30
0.0
 10
29.203510063
 20
-47.4232224548
 30
0.0
 10
29.3901484782
 20
-47.4029583562
 30
0.0
 10
29.5068737909
 20
-47.3606638458
 30
0.0
 10
29.5570634536
 20
-47.3316849636
 30
0.0
 11
28.8499566724
 21
-47.3316849636
 31
0.0
 11
29.0121683468
 21
-47.3942658985
 31
0.0
 11
29.203510063
 21
-47.4162414005
 31
0.0
 11
29.3948517792
 21
-47.3942658985
 31
0.0
 11
29.5570634536
 21
-47.3316849636
 31
0.0
  0
SPLINE
  5
5EF
100
AcDbEntity
  8
0
100
AcDbSpline
 62
253
  6
CONTINUOUS
 70
0
 71
3
 72
9
 73
5
 74
3
 42
0.0000001
 43
0.0000001
 44
0.0000000001
 12
-0.0
 22
-0.2600619008
 32
0.0
 13
0.2252164891
 23
-0.1300373996
 33
0.0
 40
0.0
 40
0.0
 40
0.0
 40
0.0
 40
0.5507499566
 40
1.0
 40
1.0
 40
1.0
 40
1.0
 10
29.5570634536
 20
-45.2905487266
 30
0.0
 10
29.5570634536
 20
-45.3382917534
 30
0.0
 10
29.5686481313
 20
-45.427010267
 30
0.0
 10
29.6268785916
 20
-45.4999440547
 30
0.0
 10
29.6606047641
 20
-45.5194171571
 30
0.0
 11
29.5570634536
 21
-45.2905487266
 31
0.0
 11
29.5839728311
 21
-45.4312272783
 31
0.0
 11
29.6606047641
 21
-45.5194171571
 31
0.0
  0
SPLINE
  5
5F0
100
AcDbEntity
  8
0
100
AcDbSpline
 62
253
  6
CONTINUOUS
 70
0
 71
3
 72
9
 73
5
 74
3
 42
0.0000001
 43
0.0000001
 44
0.0000000001
 12
-0.2252471359
 22
0.1300548733
 32
0.0
 13
0.0
 23
0.2600971786
 33
0.0
 40
0.0
 40
0.0
 40
0.0
 40
0.0
 40
0.5507429362
 40
1.0
 40
1.0
 40
1.0
 40
1.0
 10
34.0825468532
 20
-48.7199764007
 30
0.0
 10
34.0411957635
 20
-48.6961007997
 30
0.0
 10
33.9701481246
 20
-48.6416983141
 30
0.0
 10
33.9361002438
 20
-48.5547892689
 30
0.0
 10
33.9361002438
 20
-48.515839104
 30
0.0
 11
34.0825468532
 21
-48.7199764007
 31
0.0
 11
33.9741604775
 21
-48.6263174128
 31
0.0
 11
33.9361002438
 21
-48.515839104
 31
0.0
  0
SPLINE
  5
5F1
100
AcDbEntity
  8
0
100
AcDbSpline
 62
253
  6
CONTINUOUS
 70
0
 71
3
 72
11
 73
7
 74
5
 42
0.0000001
 43
0.0000001
 44
0.0000000001
 12
-0.0
 22
-0.7329239856
 32
0.0
 13
0.634720567
 23
-0.3664797
 33
0.0
 40
0.0
 40
0.0
 40
0.0
 40
0.0
 40
0.2372134902
 40
0.4999939082
 40
0.7627776347
 40
1.0
 40
1.0
 40
1.0
 40
1.0
 10
30.2641702348
 20
-46.9234103703
 30
0.0
 10
30.2641702348
 20
-46.9813635225
 30
0.0
 10
30.2859078452
 20
-47.1035948255
 30
0.0
 10
30.3616788815
 20
-47.2753575244
 30
0.0
 10
30.4725457512
 20
-47.4268600987
 30
0.0
 10
30.567533654
 20
-47.5068037449
 30
0.0
 10
30.6177236254
 20
-47.5357828053
 30
0.0
 11
30.2641702348
 21
-46.9234103703
 31
0.0
 11
30.2910828839
 21
-47.0951742198
 31
0.0
 11
30.3677236309
 21
-47.2718666445
 31
0.0
 11
30.4824246082
 21
-47.4265878032
 31
0.0
 11
30.6177236254
 21
-47.5357828053
 31
0.0
  0
SPLINE
  5
5F2
100
AcDbEntity
  8
0
100
AcDbSpline
 62
253
  6
CONTINUOUS
 70
0
 71
3
 72
11
 73
7
 74
5
 42
0.0000001
 43
0.0000001
 44
0.0000000001
 12
-0.6347205667
 22
0.3664797002
 32
0.0
 13
0.0
 23
0.7329239855
 33
0.0
 40
0.0
 40
0.0
 40
0.0
 40
0.0
 40
0.2372223757
 40
0.5000060938
 40
0.7627865012
 40
1.0
 40
1.0
 40
1.0
 40
1.0
 10
29.9106168442
 20
-47.9440573987
 30
0.0
 10
29.8604268706
 20
-47.915078337
 30
0.0
 10
29.7654389682
 20
-47.8351346894
 30
0.0
 10
29.6545721001
 20
-47.6836321168
 30
0.0
 10
29.578801065
 20
-47.5118694203
 30
0.0
 10
29.5570634536
 20
-47.3896381179
 30
0.0
 10
29.5570634536
 20
-47.3316849636
 30
0.0
 11
29.9106168442
 21
-47.9440573987
 31
0.0
 11
29.7753178219
 21
-47.8348623908
 31
0.0
 11
29.660616849
 21
-47.6801412366
 31
0.0
 11
29.5839761046
 21
-47.5034488191
 31
0.0
 11
29.5570634536
 21
-47.3316849636
 31
0.0
  0
SPLINE
  5
5F3
100
AcDbEntity
  8
0
100
AcDbSpline
 62
253
  6
CONTINUOUS
 70
0
 71
3
 72
9
 73
5
 74
3
 42
0.0000001
 43
0.0000001
 44
0.0000000001
 12
-0.0
 22
0.2118524118
 32
0.0
 13
0.1463697007
 23
0.1531579418
 33
0.0
 40
0.0
 40
0.0
 40
0.0
 40
0.0
 40
0.2848901672
 40
1.0
 40
1.0
 40
1.0
 40
1.0
 10
29.5570634536
 20
-45.69874441
 30
0.0
 10
29.5570634536
 20
-45.678626187
 30
0.0
 10
29.5613630446
 20
-45.6085585537
 30
0.0
 10
29.5876033451
 20
-45.5364600326
 30
0.0
 10
29.6224934825
 20
-45.4999517825
 30
0.0
 11
29.5570634536
 21
-45.69874441
 31
0.0
 11
29.5612940368
 21
-45.6385381957
 31
0.0
 11
29.6224934825
 21
-45.4999517825
 31
0.0
  0
SPLINE
  5
5F4
100
AcDbEntity
  8
0
100
AcDbSpline
 62
253
  6
CONTINUOUS
 70
0
 71
3
 72
11
 73
7
 74
5
 42
0.0000001
 43
0.0000001
 44
0.0000000001
 12
-0.0
 22
-0.7329239856
 32
0.0
 13
0.634720567
 23
-0.3664797
 33
0.0
 40
0.0
 40
0.0
 40
0.0
 40
0.0
 40
0.2372134902
 40
0.4999939082
 40
0.7627776347
 40
1.0
 40
1.0
 40
1.0
 40
1.0
 10
17.1826947828
 20
-39.3703303937
 30
0.0
 10
17.1826947828
 20
-39.428283546
 30
0.0
 10
17.2044323932
 20
-39.5505148489
 30
0.0
 10
17.2802034295
 20
-39.7222775479
 30
0.0
 10
17.3910702993
 20
-39.8737801221
 30
0.0
 10
17.486058202
 20
-39.9537237684
 30
0.0
 10
17.5362481734
 20
-39.9827028288
 30
0.0
 11
17.1826947828
 21
-39.3703303937
 31
0.0
 11
17.2096074319
 21
-39.5420942432
 31
0.0
 11
17.286248179
 21
-39.7187866679
 31
0.0
 11
17.4009491562
 21
-39.8735078266
 31
0.0
 11
17.5362481734
 21
-39.9827028288
 31
0.0
  0
SPLINE
  5
5F5
100
AcDbEntity
  8
0
100
AcDbSpline
 62
253
  6
CONTINUOUS
 70
0
 71
3
 72
11
 73
7
 74
5
 42
0.0000001
 43
0.0000001
 44
0.0000000001
 12
0.0000000002
 22
-0.7329239856
 32
0.0
 13
0.634720567
 23
-0.3664797
 33
0.0
 40
0.0
 40
0.0
 40
0.0
 40
0.0
 40
0.2372134895
 40
0.499993905
 40
0.7627776324
 40
1.0
 40
1.0
 40
1.0
 40
1.0
 10
16.4755880016
 20
-39.7786049871
 30
0.0
 10
16.4755880017
 20
-39.8365581391
 30
0.0
 10
16.4973256118
 20
-39.9587894413
 30
0.0
 10
16.5730966476
 20
-40.1305521399
 30
0.0
 10
16.6839635172
 20
-40.2820547145
 30
0.0
 10
16.7789514203
 20
-40.3619983614
 30
0.0
 10
16.8291413922
 20
-40.3909774221
 30
0.0
 11
16.4755880016
 21
-39.7786049871
 31
0.0
 11
16.5025006506
 21
-39.9503688361
 31
0.0
 11
16.5791413966
 21
-40.1270612592
 31
0.0
 11
16.6938423739
 21
-40.2817824187
 31
0.0
 11
16.8291413922
 21
-40.3909774221
 31
0.0
  0
SPLINE
  5
5F6
100
AcDbEntity
  8
0
100
AcDbSpline
 62
253
  6
CONTINUOUS
 70
0
 71
3
 72
9
 73
5
 74
3
 42
0.0000001
 43
0.0000001
 44
0.0000000001
 12
0.1834971542
 22
-0.105948957
 32
0.0
 13
0.2058559376
 23
0.0501968129
 33
0.0
 40
0.0
 40
0.0
 40
0.0
 40
0.0
 40
0.2848952675
 40
1.0
 40
1.0
 40
1.0
 40
1.0
 10
20.6475180106
 20
-42.5956602261
 30
0.0
 10
20.6649438343
 20
-42.6057216782
 30
0.0
 10
20.7277834707
 20
-42.6370387409
 30
0.0
 10
20.8033562841
 20
-42.6503668829
 30
0.0
 10
20.8524258025
 20
-42.6384015567
 30
0.0
 11
20.6475180106
 21
-42.5956602261
 31
0.0
 11
20.7017827566
 21
-42.6221057677
 31
0.0
 11
20.8524258025
 21
-42.6384015567
 31
0.0
  0
SPLINE
  5
5F7
100
AcDbEntity
  8
0
100
AcDbSpline
 62
253
  6
CONTINUOUS
 70
0
 71
3
 72
11
 73
7
 74
5
 42
0.0000001
 43
0.0000001
 44
0.0000000001
 12
-0.0
 22
-0.7329239856
 32
0.0
 13
0.634720567
 23
-0.3664797
 33
0.0
 40
0.0
 40
0.0
 40
0.0
 40
0.0
 40
0.2372134902
 40
0.4999939082
 40
0.7627776347
 40
1.0
 40
1.0
 40
1.0
 40
1.0
 10
-21.0010714012
 20
-17.323502354
 30
0.0
 10
-21.0010714012
 20
-17.3814555063
 30
0.0
 10
-20.9793337909
 20
-17.5036868092
 30
0.0
 10
-20.9035627545
 20
-17.6754495082
 30
0.0
 10
-20.7926958848
 20
-17.8269520824
 30
0.0
 10
-20.6977079821
 20
-17.9068957287
 30
0.0
 10
-20.6475180106
 20
-17.9358747891
 30
0.0
 11
-21.0010714012
 21
-17.323502354
 31
0.0
 11
-20.9741587522
 21
-17.4952662035
 31
0.0
 11
-20.8975180051
 21
-17.6719586282
 31
0.0
 11
-20.7828170279
 21
-17.8266797869
 31
0.0
 11
-20.6475180106
 21
-17.9358747891
 31
0.0
  0
SPLINE
  5
5F8
100
AcDbEntity
  8
0
100
AcDbSpline
 62
253
  6
CONTINUOUS
 70
0
 71
3
 72
11
 73
7
 74
5
 42
0.0000001
 43
0.0000001
 44
0.0000000001
 12
-0.6347205667
 22
0.3664797002
 32
0.0
 13
0.0
 23
0.7329239855
 33
0.0
 40
0.0
 40
0.0
 40
0.0
 40
0.0
 40
0.2372223757
 40
0.5000060938
 40
0.7627865012
 40
1.0
 40
1.0
 40
1.0
 40
1.0
 10
-21.3546247918
 20
-18.3441493824
 30
0.0
 10
-21.4048147654
 20
-18.3151703207
 30
0.0
 10
-21.4998026678
 20
-18.2352266731
 30
0.0
 10
-21.6106695359
 20
-18.0837241005
 30
0.0
 10
-21.686440571
 20
-17.911961404
 30
0.0
 10
-21.7081781824
 20
-17.7897301017
 30
0.0
 10
-21.7081781824
 20
-17.7317769474
 30
0.0
 11
-21.3546247918
 21
-18.3441493824
 31
0.0
 11
-21.4899238142
 21
-18.2349543745
 31
0.0
 11
-21.604624787
 21
-18.0802332203
 31
0.0
 11
-21.6812655314
 21
-17.9035408029
 31
0.0
 11
-21.7081781824
 21
-17.7317769474
 31
0.0
  0
SPLINE
  5
5F9
100
AcDbEntity
  8
0
100
AcDbSpline
 62
253
  6
CONTINUOUS
 70
0
 71
3
 72
9
 73
5
 74
3
 42
0.0000001
 43
0.0000001
 44
0.0000000001
 12
-0.0
 22
0.2118524118
 32
0.0
 13
0.1463697007
 23
0.1531579418
 33
0.0
 40
0.0
 40
0.0
 40
0.0
 40
0.0
 40
0.2848901672
 40
1.0
 40
1.0
 40
1.0
 40
1.0
 10
-21.7081781824
 20
-16.0988363938
 30
0.0
 10
-21.7081781824
 20
-16.0787181708
 30
0.0
 10
-21.7038785914
 20
-16.0086505374
 30
0.0
 10
-21.6776382909
 20
-15.9365520163
 30
0.0
 10
-21.6427481535
 20
-15.9000437663
 30
0.0
 11
-21.7081781824
 21
-16.0988363938
 31
0.0
 11
-21.7039475992
 21
-16.0386301795
 31
0.0
 11
-21.6427481535
 21
-15.9000437663
 31
0.0
  0
SPLINE
  5
5FA
100
AcDbEntity
  8
0
100
AcDbSpline
 62
253
  6
CONTINUOUS
 70
0
 71
3
 72
11
 73
7
 74
5
 42
0.0000001
 43
0.0000001
 44
0.0000000001
 12
-0.0
 22
-0.7329239856
 32
0.0
 13
0.634720567
 23
-0.3664797
 33
0.0
 40
0.0
 40
0.0
 40
0.0
 40
0.0
 40
0.2372134902
 40
0.4999939082
 40
0.7627776347
 40
1.0
 40
1.0
 40
1.0
 40
1.0
 10
-34.0825468532
 20
-9.7704223775
 30
0.0
 10
-34.0825468532
 20
-9.8283755297
 30
0.0
 10
-34.0608092428
 20
-9.9506068327
 30
0.0
 10
-33.9850382065
 20
-10.1223695316
 30
0.0
 10
-33.8741713367
 20
-10.2738721059
 30
0.0
 10
-33.779183434
 20
-10.3538157521
 30
0.0
 10
-33.7289934626
 20
-10.3827948125
 30
0.0
 11
-34.0825468532
 21
-9.7704223775
 31
0.0
 11
-34.0556342041
 21
-9.942186227
 31
0.0
 11
-33.9789934571
 21
-10.1188786516
 31
0.0
 11
-33.8642924798
 21
-10.2735998104
 31
0.0
 11
-33.7289934626
 21
-10.3827948125
 31
0.0
  0
SPLINE
  5
5FB
100
AcDbEntity
  8
0
100
AcDbSpline
 62
253
  6
CONTINUOUS
 70
0
 71
3
 72
11
 73
7
 74
5
 42
0.0000001
 43
0.0000001
 44
0.0000000001
 12
-0.6347205667
 22
0.3664797002
 32
0.0
 13
0.0
 23
0.7329239855
 33
0.0
 40
0.0
 40
0.0
 40
0.0
 40
0.0
 40
0.2372223757
 40
0.5000060938
 40
0.7627865012
 40
1.0
 40
1.0
 40
1.0
 40
1.0
 10
-34.4361002438
 20
-10.7910694059
 30
0.0
 10
-34.4862902174
 20
-10.7620903441
 30
0.0
 10
-34.5812781197
 20
-10.6821466966
 30
0.0
 10
-34.6921449879
 20
-10.530644124
 30
0.0
 10
-34.767916023
 20
-10.3588814275
 30
0.0
 10
-34.7896536344
 20
-10.2366501251
 30
0.0
 10
-34.7896536344
 20
-10.1786969708
 30
0.0
 11
-34.4361002438
 21
-10.7910694059
 31
0.0
 11
-34.5713992661
 21
-10.681874398
 31
0.0
 11
-34.686100239
 21
-10.5271532437
 31
0.0
 11
-34.7627409833
 21
-10.3504608263
 31
0.0
 11
-34.7896536344
 21
-10.1786969708
 31
0.0
  0
SPLINE
  5
5FC
100
AcDbEntity
  8
0
100
AcDbSpline
 62
253
  6
CONTINUOUS
 70
0
 71
3
 72
9
 73
5
 74
3
 42
0.0000001
 43
0.0000001
 44
0.0000000001
 12
-0.0
 22
0.2118524118
 32
0.0
 13
0.1463697007
 23
0.1531579418
 33
0.0
 40
0.0
 40
0.0
 40
0.0
 40
0.0
 40
0.2848901672
 40
1.0
 40
1.0
 40
1.0
 40
1.0
 10
-34.7896536344
 20
-8.5457564172
 30
0.0
 10
-34.7896536344
 20
-8.5256381942
 30
0.0
 10
-34.7853540433
 20
-8.4555705609
 30
0.0
 10
-34.7591137429
 20
-8.3834720397
 30
0.0
 10
-34.7242236055
 20
-8.3469637897
 30
0.0
 11
-34.7896536344
 21
-8.5457564172
 31
0.0
 11
-34.7854230512
 21
-8.4855502029
 31
0.0
 11
-34.7242236055
 21
-8.3469637897
 31
0.0
  0
SPLINE
  5
5FD
100
AcDbEntity
  8
0
100
AcDbSpline
 62
253
  6
CONTINUOUS
 70
0
 71
3
 72
9
 73
5
 74
3
 42
0.0000001
 43
0.0000001
 44
0.0000000001
 12
0.0
 22
-0.2600619008
 32
0.0
 13
0.2252164891
 23
-0.1300373996
 33
0.0
 40
0.0
 40
0.0
 40
0.0
 40
0.0
 40
0.5507499566
 40
1.0
 40
1.0
 40
1.0
 40
1.0
 10
-42.7802183771
 20
-8.504377485
 30
0.0
 10
-42.7802183771
 20
-8.5521205119
 30
0.0
 10
-42.7686336993
 20
-8.6408390255
 30
0.0
 10
-42.710403239
 20
-8.7137728131
 30
0.0
 10
-42.6766770665
 20
-8.7332459156
 30
0.0
 11
-42.7802183771
 21
-8.504377485
 31
0.0
 11
-42.7533089995
 21
-8.6450560368
 31
0.0
 11
-42.6766770665
 21
-8.7332459156
 31
0.0
  0
SPLINE
  5
5FE
100
AcDbEntity
  8
0
100
AcDbSpline
 62
253
  6
CONTINUOUS
 70
0
 71
3
 72
9
 73
5
 74
3
 42
0.0000001
 43
0.0000001
 44
0.0000000001
 12
-0.2197467096
 22
0.1200213347
 32
0.0
 13
-0.005826972
 23
0.2503193632
 33
0.0
 40
0.0
 40
0.0
 40
0.0
 40
0.0
 40
0.5527952728
 40
1.0
 40
1.0
 40
1.0
 40
1.0
 10
-43.13364271
 20
-7.9031089209
 30
0.0
 10
-43.1741343575
 20
-7.8809931787
 30
0.0
 10
-43.2439154043
 20
-7.8306023138
 30
0.0
 10
-43.2790870622
 20
-7.7478305712
 30
0.0
 10
-43.2799556787
 20
-7.7105159036
 30
0.0
 11
-43.13364271
 21
-7.9031089209
 31
0.0
 11
-43.2407075956
 21
-7.8153864816
 31
0.0
 11
-43.2799556787
 21
-7.7105159036
 31
0.0
  0
SPLINE
  5
5FF
100
AcDbEntity
  8
0
100
AcDbSpline
 62
253
  6
CONTINUOUS
 70
0
 71
3
 72
9
 73
5
 74
3
 42
0.0000001
 43
0.0000001
 44
0.0000000001
 12
-0.2197467122
 22
0.1200213362
 32
0.0
 13
-0.0058269687
 23
0.2503193662
 33
0.0
 40
0.0
 40
0.0
 40
0.0
 40
0.0
 40
0.552795294
 40
1.0
 40
1.0
 40
1.0
 40
1.0
 10
-43.8407494912
 20
22.7145659138
 30
0.0
 10
-43.8812411407
 20
22.7366816571
 30
0.0
 10
-43.9510221879
 20
22.7870725242
 30
0.0
 10
-43.986193844
 20
22.8698442682
 30
0.0
 10
-43.9870624599
 20
22.9071589344
 30
0.0
 11
-43.8407494912
 21
22.7145659138
 31
0.0
 11
-43.9478143807
 21
22.8022883592
 31
0.0
 11
-43.9870624599
 21
22.9071589344
 31
0.0
  0
SPLINE
  5
600
100
AcDbEntity
  8
0
100
AcDbSpline
 62
253
  6
CONTINUOUS
 70
0
 71
3
 72
11
 73
7
 74
5
 42
0.0000001
 43
0.0000001
 44
0.0000000001
 12
0.0
 22
0.7329239774
 32
0.0
 13
0.6347205596
 23
0.3664796962
 33
0.0
 40
0.0
 40
0.0
 40
0.0
 40
0.0
 40
0.2372134773
 40
0.4999938924
 40
0.7627776392
 40
1.0
 40
1.0
 40
1.0
 40
1.0
 10
-43.4873251583
 20
22.9297676264
 30
0.0
 10
-43.4873251583
 20
22.9877207748
 30
0.0
 10
-43.4655875503
 20
23.1099520721
 30
0.0
 10
-43.3898165188
 20
23.2817147741
 30
0.0
 10
-43.2789496413
 20
23.4332173397
 30
0.0
 10
-43.1839617575
 20
23.5131610134
 30
0.0
 10
-43.1337717877
 20
23.542140073
 30
0.0
 11
-43.4873251583
 21
22.9297676264
 31
0.0
 11
-43.4604125128
 21
23.1015314649
 31
0.0
 11
-43.38377177
 21
23.2782238869
 31
0.0
 11
-43.2690707869
 21
23.432945057
 31
0.0
 11
-43.1337717877
 21
23.542140073
 31
0.0
  0
SPLINE
  5
601
100
AcDbEntity
  8
0
100
AcDbSpline
 62
253
  6
CONTINUOUS
 70
0
 71
3
 72
11
 73
7
 74
5
 42
0.0000001
 43
0.0000001
 44
0.0000000001
 12
0.0
 22
0.7329239855
 32
0.0
 13
0.6347205667
 23
0.3664797003
 33
0.0
 40
0.0
 40
0.0
 40
0.0
 40
0.0
 40
0.2372134916
 40
0.4999938932
 40
0.7627776188
 40
1.0
 40
1.0
 40
1.0
 40
1.0
 10
-34.2470307208
 20
17.5945374263
 30
0.0
 10
-34.2470307208
 20
17.6524905788
 30
0.0
 10
-34.2252931108
 20
17.7747218781
 30
0.0
 10
-34.1495220775
 20
17.9464845739
 30
0.0
 10
-34.0386552094
 20
18.0979871488
 30
0.0
 10
-33.9436673049
 20
18.177930799
 30
0.0
 10
-33.8934773302
 20
18.2069098614
 30
0.0
 11
-34.2470307208
 21
17.5945374263
 31
0.0
 11
-34.2201180714
 21
17.7663012767
 31
0.0
 11
-34.1434773302
 21
17.9429936909
 31
0.0
 11
-34.0287763552
 21
18.0977148504
 31
0.0
 11
-33.8934773302
 21
18.2069098614
 31
0.0
  0
SPLINE
  5
602
100
AcDbEntity
  8
0
100
AcDbSpline
 62
253
  6
CONTINUOUS
 70
0
 71
3
 72
11
 73
7
 74
5
 42
0.0000001
 43
0.0000001
 44
0.0000000001
 12
-0.3524853836
 22
0.5450358289
 32
0.0
 13
0.506729232
 23
0.4056297399
 33
0.0
 40
0.0
 40
0.0
 40
0.0
 40
0.0
 40
0.2730313884
 40
0.5318909477
 40
0.7722846397
 40
1.0
 40
1.0
 40
1.0
 40
1.0
 10
-32.8928426697
 20
17.5417794656
 30
0.0
 10
-32.9249225276
 20
17.5913834286
 30
0.0
 10
-32.9737935849
 20
17.6978272999
 30
0.0
 10
-32.9936530844
 20
17.8667736404
 30
0.0
 10
-32.9550747035
 20
18.0233459105
 30
0.0
 10
-32.8897576248
 20
18.1057749857
 30
0.0
 10
-32.8512942816
 20
18.1365643598
 30
0.0
 11
-32.8928426697
 21
17.5417794656
 31
0.0
 11
-32.965822285
 21
17.7032756253
 31
0.0
 11
-32.9835539585
 21
17.8703589657
 31
0.0
 11
-32.9437274193
 21
18.0212264041
 31
0.0
 11
-32.8512942816
 21
18.1365643598
 31
0.0
  0
SPLINE
  5
603
100
AcDbEntity
  8
0
100
AcDbSpline
 62
253
  6
CONTINUOUS
 70
0
 71
3
 72
11
 73
7
 74
5
 42
0.0000001
 43
0.0000001
 44
0.0000000001
 12
-0.3524853836
 22
0.5450358289
 32
0.0
 13
0.506729232
 23
0.40562974
 33
0.0
 40
0.0
 40
0.0
 40
0.0
 40
0.0
 40
0.2730313884
 40
0.5318909477
 40
0.7722846397
 40
1.0
 40
1.0
 40
1.0
 40
1.0
 10
-28.782016095
 20
20.8250420388
 30
0.0
 10
-28.8140959529
 20
20.8746460019
 30
0.0
 10
-28.8629670102
 20
20.9810898732
 30
0.0
 10
-28.8828265097
 20
21.1500362137
 30
0.0
 10
-28.8442481288
 20
21.3066084838
 30
0.0
 10
-28.7789310501
 20
21.3890375589
 30
0.0
 10
-28.7404677069
 20
21.4198269331
 30
0.0
 11
-28.782016095
 21
20.8250420388
 31
0.0
 11
-28.8549957103
 21
20.9865381986
 31
0.0
 11
-28.8727273838
 21
21.153621539
 31
0.0
 11
-28.8329008445
 21
21.3044889773
 31
0.0
 11
-28.7404677069
 21
21.4198269331
 31
0.0
  0
SPLINE
  5
604
100
AcDbEntity
  8
0
100
AcDbSpline
 62
253
  6
CONTINUOUS
 70
0
 71
3
 72
11
 73
7
 74
5
 42
0.0000001
 43
0.0000001
 44
0.0000000001
 12
0.0
 22
0.7329239773
 32
0.0
 13
0.6347205596
 23
0.3664796962
 33
0.0
 40
0.0
 40
0.0
 40
0.0
 40
0.0
 40
0.2372134785
 40
0.4999938929
 40
0.7627776384
 40
1.0
 40
1.0
 40
1.0
 40
1.0
 10
-28.5111784848
 20
20.8144904467
 30
0.0
 10
-28.5111784848
 20
20.8724435954
 30
0.0
 10
-28.4894408766
 20
20.9946748928
 30
0.0
 10
-28.4136698452
 20
21.1664375946
 30
0.0
 10
-28.3028029678
 20
21.3179401599
 30
0.0
 10
-28.2078150843
 20
21.3978838336
 30
0.0
 10
-28.1576251142
 20
21.4268628933
 30
0.0
 11
-28.5111784848
 21
20.8144904467
 31
0.0
 11
-28.4842658391
 21
20.9862542861
 31
0.0
 11
-28.4076250964
 21
21.1629467074
 31
0.0
 11
-28.2929241139
 21
21.3176678768
 31
0.0
 11
-28.1576251142
 21
21.4268628933
 31
0.0
  0
SPLINE
  5
605
100
AcDbEntity
  8
0
100
AcDbSpline
 62
253
  6
CONTINUOUS
 70
0
 71
3
 72
11
 73
7
 74
5
 42
0.0000001
 43
0.0000001
 44
0.0000000001
 12
0.0
 22
0.7329239855
 32
0.0
 13
0.6347205667
 23
0.3664797003
 33
0.0
 40
0.0
 40
0.0
 40
0.0
 40
0.0
 40
0.2372134916
 40
0.4999938932
 40
0.7627776188
 40
1.0
 40
1.0
 40
1.0
 40
1.0
 10
27.0969649224
 20
-11.2929546229
 30
0.0
 10
27.0969649224
 20
-11.2350014704
 30
0.0
 10
27.1187025323
 20
-11.1127701711
 30
0.0
 10
27.1944735657
 20
-10.9410074753
 30
0.0
 10
27.3053404338
 20
-10.7895049004
 30
0.0
 10
27.4003283383
 20
-10.7095612502
 30
0.0
 10
27.450518313
 20
-10.6805821878
 30
0.0
 11
27.0969649224
 21
-11.2929546229
 31
0.0
 11
27.1238775718
 21
-11.1211907725
 31
0.0
 11
27.200518313
 21
-10.9444983583
 31
0.0
 11
27.315219288
 21
-10.7897771988
 31
0.0
 11
27.450518313
 21
-10.6805821878
 31
0.0
  0
SPLINE
  5
606
100
AcDbEntity
  8
0
100
AcDbSpline
 62
253
  6
CONTINUOUS
 70
0
 71
3
 72
10
 73
6
 74
4
 42
0.0000001
 43
0.0000001
 44
0.0000000001
 12
0.6495680658
 22
0.2542994765
 32
0.0
 13
0.6041054669
 23
0.3488029254
 33
0.0
 40
0.0
 40
0.0
 40
0.0
 40
0.0
 40
0.2037156203
 40
0.4651096922
 40
1.0
 40
1.0
 40
1.0
 40
1.0
 10
27.3678025326
 20
-11.5951595142
 30
0.0
 10
27.4119115864
 20
-11.5778912557
 30
0.0
 10
27.5109426707
 20
-11.5342511209
 30
0.0
 10
27.7204829681
 20
-11.4334919274
 30
0.0
 10
27.8844834675
 20
-11.3471823801
 30
0.0
 10
27.9921935206
 20
-11.2849919454
 30
0.0
 11
27.3678025326
 21
-11.5951595142
 31
0.0
 11
27.4983602387
 21
-11.5390444733
 31
0.0
 11
27.6628670301
 21
-11.4603943796
 31
0.0
 11
27.9921935206
 21
-11.2849919454
 31
0.0
  0
SPLINE
  5
607
100
AcDbEntity
  8
0
100
AcDbSpline
 62
253
  6
CONTINUOUS
 70
0
 71
3
 72
10
 73
6
 74
4
 42
0.0000001
 43
0.0000001
 44
0.0000000001
 12
0.6495680654
 22
0.2542994764
 32
0.0
 13
0.6041054665
 23
0.3488029251
 33
0.0
 40
0.0
 40
0.0
 40
0.0
 40
0.0
 40
0.2037156356
 40
0.4651096988
 40
1.0
 40
1.0
 40
1.0
 40
1.0
 10
31.4786291073
 20
-19.6255015745
 30
0.0
 10
31.5227381644
 20
-19.6082333147
 30
0.0
 10
31.6217692503
 20
-19.5645931798
 30
0.0
 10
31.8313095442
 20
-19.4638339799
 30
0.0
 10
31.9953100565
 20
-19.3775244647
 30
0.0
 10
32.1030201081
 20
-19.3153340308
 30
0.0
 11
31.4786291073
 21
-19.6255015745
 31
0.0
 11
31.609186823
 21
-19.5693865292
 31
0.0
 11
31.7736936087
 21
-19.4907364379
 31
0.0
 11
32.1030201081
 21
-19.3153340308
 31
0.0
  0
SPLINE
  5
608
100
AcDbEntity
  8
0
100
AcDbSpline
 62
253
  6
CONTINUOUS
 70
0
 71
3
 72
11
 73
7
 74
5
 42
0.0000001
 43
0.0000001
 44
0.0000000001
 12
0.0
 22
0.7329239855
 32
0.0
 13
0.6347205667
 23
0.3664797003
 33
0.0
 40
0.0
 40
0.0
 40
0.0
 40
0.0
 40
0.2372134915
 40
0.4999938932
 40
0.7627776188
 40
1.0
 40
1.0
 40
1.0
 40
1.0
 10
32.8328171584
 20
-21.1365260312
 30
0.0
 10
32.8328171584
 20
-21.0785728786
 30
0.0
 10
32.8545547683
 20
-20.9563415794
 30
0.0
 10
32.9303258016
 20
-20.7845788836
 30
0.0
 10
33.0411926698
 20
-20.6330763087
 30
0.0
 10
33.1361805742
 20
-20.5531326585
 30
0.0
 10
33.186370549
 20
-20.5241535961
 30
0.0
 11
32.8328171584
 21
-21.1365260312
 31
0.0
 11
32.8597298078
 21
-20.9647621808
 31
0.0
 11
32.936370549
 21
-20.7880697666
 31
0.0
 11
33.051071524
 21
-20.633348607
 31
0.0
 11
33.186370549
 21
-20.5241535961
 31
0.0
  0
SPLINE
  5
609
100
AcDbEntity
  8
0
100
AcDbSpline
 62
253
  6
CONTINUOUS
 70
0
 71
3
 72
11
 73
7
 74
5
 42
0.0000001
 43
0.0000001
 44
0.0000000001
 12
0.0
 22
0.7329239855
 32
0.0
 13
0.6347205667
 23
0.3664797003
 33
0.0
 40
0.0
 40
0.0
 40
0.0
 40
0.0
 40
0.2372134916
 40
0.4999938932
 40
0.7627776188
 40
1.0
 40
1.0
 40
1.0
 40
1.0
 10
42.0731115959
 20
-26.4717562313
 30
0.0
 10
42.0731115959
 20
-26.4138030788
 30
0.0
 10
42.0948492058
 20
-26.2915717795
 30
0.0
 10
42.1706202391
 20
-26.1198090837
 30
0.0
 10
42.2814871073
 20
-25.9683065088
 30
0.0
 10
42.3764750117
 20
-25.8883628586
 30
0.0
 10
42.4266649865
 20
-25.8593837962
 30
0.0
 11
42.0731115959
 21
-26.4717562313
 31
0.0
 11
42.1000242453
 21
-26.2999923809
 31
0.0
 11
42.1766649865
 21
-26.1232999667
 31
0.0
 11
42.2913659614
 21
-25.9685788072
 31
0.0
 11
42.4266649865
 21
-25.8593837962
 31
0.0
  0
SPLINE
  5
60A
100
AcDbEntity
  8
0
100
AcDbSpline
 62
253
  6
CONTINUOUS
 70
0
 71
3
 72
11
 73
7
 74
5
 42
0.0000001
 43
0.0000001
 44
0.0000000001
 12
0.6272150084
 22
-0.3817196573
 32
0.0
 13
0.63586036
 23
0.3671378027
 33
0.0
 40
0.0
 40
0.0
 40
0.0
 40
0.0
 40
0.2388479833
 40
0.5016990893
 40
0.7636232359
 40
1.0
 40
1.0
 40
1.0
 40
1.0
 10
42.4265359288
 20
-27.0950835047
 30
0.0
 10
42.4764722755
 20
-27.1254744948
 30
0.0
 10
42.592808205
 20
-27.1707312076
 30
0.0
 10
42.7796574729
 20
-27.1945589567
 30
0.0
 10
42.9665597935
 20
-27.1766744478
 30
0.0
 10
43.0834127815
 20
-27.1349659355
 30
0.0
 10
43.1335136529
 20
-27.1060383203
 30
0.0
 11
42.4265359288
 21
-27.0950835047
 31
0.0
 11
42.5886982028
 21
-27.1618566719
 31
0.0
 11
42.7799980571
 21
-27.187386182
 31
0.0
 11
42.9713118104
 21
-27.1677853888
 31
0.0
 11
43.1335136529
 21
-27.1060383203
 31
0.0
  0
SPLINE
  5
60B
100
AcDbEntity
  8
0
100
AcDbSpline
 62
253
  6
CONTINUOUS
 70
0
 71
3
 72
11
 73
7
 74
5
 42
0.0000001
 43
0.0000001
 44
0.0000000001
 12
0.6272150009
 22
-0.3817196528
 32
0.0
 13
0.6358603524
 23
0.3671377983
 33
0.0
 40
0.0
 40
0.0
 40
0.0
 40
0.0
 40
0.2388480031
 40
0.5016991017
 40
0.7636232331
 40
1.0
 40
1.0
 40
1.0
 40
1.0
 10
41.7194291476
 20
-56.8962091527
 30
0.0
 10
41.7693654978
 20
-56.926600145
 30
0.0
 10
41.8857014295
 20
-56.9718568557
 30
0.0
 10
42.0725506957
 20
-56.9956846071
 30
0.0
 10
42.259453004
 20
-56.9778000856
 30
0.0
 10
42.3763059998
 20
-56.9360916063
 30
0.0
 10
42.4264068712
 20
-56.907163991
 30
0.0
 11
41.7194291476
 21
-56.8962091527
 31
0.0
 11
41.8815914338
 21
-56.9629823227
 31
0.0
 11
42.0728912807
 21
-56.98851183
 31
0.0
 11
42.2642050207
 21
-56.9689110385
 31
0.0
 11
42.4264068712
 21
-56.907163991
 31
0.0
  0
SPLINE
  5
60C
100
AcDbEntity
  8
0
100
AcDbSpline
 62
253
  6
CONTINUOUS
 70
0
 71
3
 72
9
 73
5
 74
3
 42
0.0000001
 43
0.0000001
 44
0.0000000001
 12
0.0
 22
-0.2600619008
 32
0.0
 13
0.2252164892
 23
-0.1300373995
 33
0.0
 40
0.0
 40
0.0
 40
0.0
 40
0.0
 40
0.5507499566
 40
1.0
 40
1.0
 40
1.0
 40
1.0
 10
41.3660048147
 20
-57.0893521561
 30
0.0
 10
41.3660048147
 20
-57.137095183
 30
0.0
 10
41.3775894924
 20
-57.2258136966
 30
0.0
 10
41.4358199527
 20
-57.2987474842
 30
0.0
 10
41.4695461252
 20
-57.3182205867
 30
0.0
 11
41.3660048147
 21
-57.0893521561
 31
0.0
 11
41.3929141922
 21
-57.2300307079
 31
0.0
 11
41.4695461252
 21
-57.3182205867
 31
0.0
  0
SPLINE
  5
60D
100
AcDbEntity
  8
0
100
AcDbSpline
 62
253
  6
CONTINUOUS
 70
0
 71
3
 72
9
 73
5
 74
3
 42
0.0000001
 43
0.0000001
 44
0.0000000001
 12
-0.2252498585
 22
0.1300566667
 32
0.0
 13
-0.2252499544
 23
-0.1300565006
 33
0.0
 40
0.0
 40
0.0
 40
0.0
 40
0.0
 40
0.4492417779
 40
1.0
 40
1.0
 40
1.0
 40
1.0
 10
-33.4789813825
 20
-10.3580242237
 30
0.0
 10
-33.5127119315
 20
-10.3385485943
 30
0.0
 10
-33.6050046391
 20
-10.3245837786
 30
0.0
 10
-33.6876407078
 20
-10.3589182502
 30
0.0
 10
-33.7289934626
 20
-10.3827948125
 30
0.0
 11
-33.4789813825
 21
-10.3580242237
 31
0.0
 11
-33.5936865263
 21
-10.335749111
 31
0.0
 11
-33.7289934626
 21
-10.3827948125
 31
0.0
  0
SPLINE
  5
60E
100
AcDbEntity
  8
0
100
AcDbSpline
 62
253
  6
CONTINUOUS
 70
0
 71
3
 72
9
 73
5
 74
3
 42
0.0000001
 43
0.0000001
 44
0.0000000001
 12
-0.2252498585
 22
0.1300566667
 32
0.0
 13
-0.2252499544
 23
-0.1300565006
 33
0.0
 40
0.0
 40
0.0
 40
0.0
 40
0.0
 40
0.4492417779
 40
1.0
 40
1.0
 40
1.0
 40
1.0
 10
-42.1766529064
 20
23.9751852436
 30
0.0
 10
-42.2103834554
 20
23.994660873
 30
0.0
 10
-42.3026761629
 20
24.0086256888
 30
0.0
 10
-42.3853122317
 20
23.9742912171
 30
0.0
 10
-42.4266649865
 20
23.9504146548
 30
0.0
 11
-42.1766529064
 21
23.9751852436
 31
0.0
 11
-42.2913580502
 21
23.9974603563
 31
0.0
 11
-42.4266649865
 21
23.9504146548
 31
0.0
  0
SPLINE
  5
60F
100
AcDbEntity
  8
0
100
AcDbSpline
 62
7
  6
CONTINUOUS
 70
0
 71
3
 72
10
 73
6
 74
4
 42
0.0000001
 43
0.0000001
 44
0.0000000001
 12
-0.6919554793
 22
-0.3995706592
 32
0.0
 13
-0.7583965848
 23
0.2515824263
 33
0.0
 40
0.0
 40
0.0
 40
0.0
 40
0.0
 40
0.2301234234
 40
0.4693468404
 40
1.0
 40
1.0
 40
1.0
 40
1.0
 10
-20.9598378039
 20
-3.3516424366
 30
0.0
 10
-21.0129161918
 20
-3.382292626
 30
0.0
 10
-21.1296031117
 20
-3.4313226684
 30
0.0
 10
-21.3948025293
 20
-3.4723884827
 30
0.0
 10
-21.6030142822
 20
-3.434936752
 30
0.0
 10
-21.7371627968
 20
-3.3904357488
 30
0.0
 11
-20.9598378039
 21
-3.3516424366
 31
0.0
 11
-21.129211884
 21
-3.4232187268
 31
0.0
 11
-21.317905695
 21
-3.4537520335
 31
0.0
 11
-21.7371627968
 21
-3.3904357488
 31
0.0
  0
SPLINE
  5
610
100
AcDbEntity
  8
0
100
AcDbSpline
 62
7
  6
CONTINUOUS
 70
0
 71
3
 72
9
 73
5
 74
3
 42
0.0000001
 43
0.0000001
 44
0.0000000001
 12
-1.3111971494
 22
0.4349626129
 32
0.0
 13
-0.8711786722
 23
1.0721371929
 33
0.0
 40
0.0
 40
0.0
 40
0.0
 40
0.0
 40
0.4627362082
 40
1.0
 40
1.0
 40
1.0
 40
1.0
 10
-21.7371627968
 20
-3.3904357488
 30
0.0
 10
-21.9394089292
 20
-3.3233447654
 30
0.0
 10
-22.3458024724
 20
-3.0870924165
 30
0.0
 10
-22.6732750297
 20
-2.7579096794
 30
0.0
 10
-22.8292926153
 20
-2.5659028482
 30
0.0
 11
-21.7371627968
 21
-3.3904357488
 31
0.0
 11
-22.2986160034
 21
-3.0848010326
 31
0.0
 11
-22.8292926153
 21
-2.5659028482
 31
0.0
  0
SPLINE
  5
611
100
AcDbEntity
  8
0
100
AcDbSpline
 62
7
  6
CONTINUOUS
 70
0
 71
3
 72
10
 73
6
 74
4
 42
0.0000001
 43
0.0000001
 44
0.0000000001
 12
-1.3478215175
 22
1.695921413
 32
0.0
 13
-0.0
 23
2.1662807487
 33
0.0
 40
0.0
 40
0.0
 40
0.0
 40
0.0
 40
0.5219212866
 40
0.7717946868
 40
1.0
 40
1.0
 40
1.0
 40
1.0
 10
-22.8535256814
 20
-2.5357472775
 30
0.0
 10
-23.0880112616
 20
-2.2407014489
 30
0.0
 10
-23.3708866346
 20
-1.7472786601
 30
0.0
 10
-23.5795194959
 20
-1.0540180612
 30
0.0
 10
-23.6200252131
 20
-0.7082768092
 30
0.0
 10
-23.6200252131
 20
-0.543491217
 30
0.0
 11
-22.8535256814
 21
-2.5357472775
 31
0.0
 11
-23.4148722907
 21
-1.5543147842
 31
0.0
 11
-23.5678580346
 21
-1.0350878078
 31
0.0
 11
-23.6200252131
 21
-0.543491217
 31
0.0
  0
SPLINE
  5
612
100
AcDbEntity
  8
0
100
AcDbSpline
 62
253
  6
CONTINUOUS
 70
0
 71
3
 72
9
 73
5
 74
3
 42
0.0000001
 43
0.0000001
 44
0.0000000001
 12
-0.2252498584
 22
0.1300566667
 32
0.0
 13
-0.2252499544
 23
-0.1300565006
 33
0.0
 40
0.0
 40
0.0
 40
0.0
 40
0.0
 40
0.449241778
 40
1.0
 40
1.0
 40
1.0
 40
1.0
 10
-32.9363584689
 20
18.6399550435
 30
0.0
 10
-32.9700890179
 20
18.6594306729
 30
0.0
 10
-33.0623817255
 20
18.6733954886
 30
0.0
 10
-33.1450177942
 20
18.639061017
 30
0.0
 10
-33.186370549
 20
18.6151844547
 30
0.0
 11
-32.9363584689
 21
18.6399550435
 31
0.0
 11
-33.0510636127
 21
18.6622301562
 31
0.0
 11
-33.186370549
 21
18.6151844547
 31
0.0
  0
SPLINE
  5
613
100
AcDbEntity
  8
0
100
AcDbSpline
 62
253
  6
CONTINUOUS
 70
0
 71
3
 72
9
 73
5
 74
3
 42
0.0000001
 43
0.0000001
 44
0.0000000001
 12
-0.0
 22
-0.2600971785
 32
0.0
 13
-0.2252471359
 23
-0.1300548733
 33
0.0
 40
0.0
 40
0.0
 40
0.0
 40
0.0
 40
0.4492570641
 40
1.0
 40
1.0
 40
1.0
 40
1.0
 10
-33.9361002438
 20
-9.5662850808
 30
0.0
 10
-33.9361002438
 20
-9.6052352457
 30
0.0
 10
-33.9701481246
 20
-9.6921442909
 30
0.0
 10
-34.0411957635
 20
-9.7465467765
 30
0.0
 10
-34.0825468532
 20
-9.7704223774
 30
0.0
 11
-33.9361002438
 21
-9.5662850808
 31
0.0
 11
-33.9741604776
 21
-9.6767633897
 31
0.0
 11
-34.0825468532
 21
-9.7704223774
 31
0.0
  0
SPLINE
  5
614
100
AcDbEntity
  8
0
100
AcDbSpline
 62
253
  6
CONTINUOUS
 70
0
 71
3
 72
9
 73
5
 74
3
 42
0.0000001
 43
0.0000001
 44
0.0000000001
 12
-0.2252498585
 22
0.1300566667
 32
0.0
 13
-0.2252499544
 23
-0.1300565006
 33
0.0
 40
0.0
 40
0.0
 40
0.0
 40
0.0
 40
0.4492417779
 40
1.0
 40
1.0
 40
1.0
 40
1.0
 10
-27.2005062329
 20
21.8599080639
 30
0.0
 10
-27.2342367819
 20
21.8793836933
 30
0.0
 10
-27.3265294895
 20
21.8933485091
 30
0.0
 10
-27.4091655582
 20
21.8590140374
 30
0.0
 10
-27.450518313
 20
21.8351374751
 30
0.0
 11
-27.2005062329
 21
21.8599080639
 31
0.0
 11
-27.3152113768
 21
21.8821831766
 31
0.0
 11
-27.450518313
 21
21.8351374751
 31
0.0
  0
SPLINE
  5
615
100
AcDbEntity
  8
0
100
AcDbSpline
 62
7
  6
CONTINUOUS
 70
0
 71
3
 72
13
 73
9
 74
7
 42
0.0000001
 43
0.0000001
 44
0.0000000001
 12
2.1458042282
 22
1.2390300346
 32
0.0
 13
-1.2388268816
 23
2.1459215199
 33
0.0
 40
0.0
 40
0.0
 40
0.0
 40
0.0
 40
0.0908909844
 40
0.1881605279
 40
0.2963346588
 40
0.4172597766
 40
0.6936967386
 40
1.0
 40
1.0
 40
1.0
 40
1.0
 10
-21.0757089905
 20
-3.149782538
 30
0.0
 10
-21.010697571
 20
-3.1122436515
 30
0.0
 10
-20.8891658771
 20
-3.0098510865
 30
0.0
 10
-20.7599513942
 20
-2.7980967533
 30
0.0
 10
-20.6830298203
 20
-2.537157128
 30
0.0
 10
-20.6501807228
 20
-2.1186073495
 30
0.0
 10
-20.7537819557
 20
-1.537854555
 30
0.0
 10
-20.9496951454
 20
-1.0935640514
 30
0.0
 10
-21.0761807168
 20
-0.8744631313
 30
0.0
 11
-21.0757089905
 21
-3.149782538
 31
0.0
 11
-20.9024992482
 21
-3.0058406777
 31
0.0
 11
-20.7739331925
 21
-2.8019769141
 31
0.0
 11
-20.6947544197
 21
-2.5459008315
 31
0.0
 11
-20.6680949739
 21
-2.2474565743
 31
0.0
 11
-20.7741641914
 21
-1.5707535413
 31
0.0
 11
-21.0761807168
 21
-0.8744631313
 31
0.0
  0
SPLINE
  5
616
100
AcDbEntity
  8
0
100
AcDbSpline
 62
253
  6
CONTINUOUS
 70
0
 71
3
 72
9
 73
5
 74
3
 42
0.0000001
 43
0.0000001
 44
0.0000000001
 12
-0.2252498535
 22
0.1300566626
 32
0.0
 13
-0.2252499489
 23
-0.1300564974
 33
0.0
 40
0.0
 40
0.0
 40
0.0
 40
0.0
 40
0.4492417951
 40
1.0
 40
1.0
 40
1.0
 40
1.0
 10
28.4076371743
 20
-10.2475370057
 30
0.0
 10
28.3739066247
 20
-10.2280613762
 30
0.0
 10
28.2816139183
 20
-10.2140965577
 30
0.0
 10
28.1989778551
 20
-10.2484310383
 30
0.0
 10
28.1576251026
 20
-10.2723075994
 30
0.0
 11
28.4076371743
 21
-10.2475370057
 31
0.0
 11
28.2929320288
 21
-10.2252618931
 31
0.0
 11
28.1576251026
 21
-10.2723075994
 31
0.0
  0
SPLINE
  5
617
100
AcDbEntity
  8
0
100
AcDbSpline
 62
253
  6
CONTINUOUS
 70
0
 71
3
 72
13
 73
9
 74
7
 42
0.0000001
 43
0.0000001
 44
0.0000000001
 12
0.0978004267
 22
-0.1911082838
 32
0.0
 13
-0.18591493
 23
-0.1073449505
 33
0.0
 40
0.0
 40
0.0
 40
0.0
 40
0.0
 40
0.0256780091
 40
0.0786657063
 40
0.1622501024
 40
0.2760282949
 40
0.5894577967
 40
1.0
 40
1.0
 40
1.0
 40
1.0
 10
28.8735216489
 20
-10.7549167146
 30
0.0
 10
28.8743587556
 20
-10.7565524747
 30
0.0
 10
28.8713472205
 20
-10.7626853655
 30
0.0
 10
28.8634403801
 20
-10.7702452575
 30
0.0
 10
28.849456611
 20
-10.7820163426
 30
0.0
 10
28.8198946622
 20
-10.8032110654
 30
0.0
 10
28.7692857429
 20
-10.835655196
 30
0.0
 10
28.7247422896
 20
-10.8620274997
 30
0.0
 10
28.6993003146
 20
-10.8767173772
 30
0.0
 11
28.8735216489
 21
-10.7549167146
 31
0.0
 11
28.8723051214
 21
-10.7602933483
 31
0.0
 11
28.8647849657
 21
-10.7688283578
 31
0.0
 11
28.8510717093
 21
-10.780401113
 31
0.0
 11
28.831372584
 21
-10.7948429461
 31
0.0
 11
28.7750009426
 21
-10.8315820889
 31
0.0
 11
28.6993003146
 21
-10.8767173772
 31
0.0
  0
SPLINE
  5
618
100
AcDbEntity
  8
0
100
AcDbSpline
 62
7
  6
CONTINUOUS
 70
0
 71
3
 72
9
 73
5
 74
3
 42
0.0000001
 43
0.0000001
 44
0.0000000001
 12
0.0823058595
 22
-0.0475223718
 32
0.0
 13
0.0870325911
 23
-0.0381832216
 33
0.0
 40
0.0
 40
0.0
 40
0.0
 40
0.0
 40
0.2554813918
 40
1.0
 40
1.0
 40
1.0
 40
1.0
 10
9.4725976218
 20
-6.6320890732
 30
0.0
 10
9.479606827
 20
-6.6361361004
 30
0.0
 10
9.5072464527
 20
-6.6516188022
 30
0.0
 10
9.5357084965
 20
-6.6656453572
 30
0.0
 10
9.5573076244
 20
-6.6751213969
 30
0.0
 11
9.4725976218
 21
-6.6320890732
 31
0.0
 11
9.4937833269
 21
-6.643952141
 31
0.0
 11
9.5573076244
 21
-6.6751213969
 31
0.0
  0
SPLINE
  5
619
100
AcDbEntity
  8
0
100
AcDbSpline
 62
7
  6
CONTINUOUS
 70
0
 71
3
 72
9
 73
5
 74
3
 42
0.0000001
 43
0.0000001
 44
0.0000000001
 12
0.3234255053
 22
-0.1418942901
 32
0.0
 13
0.3387986489
 23
0.099767342
 33
0.0
 40
0.0
 40
0.0
 40
0.0
 40
0.0
 40
0.5358579138
 40
1.0
 40
1.0
 40
1.0
 40
1.0
 10
9.5573076244
 20
-6.6751213969
 30
0.0
 10
9.6150776632
 20
-6.7004664563
 30
0.0
 10
9.7292492538
 20
-6.7359457323
 30
0.0
 10
9.8505121797
 20
-6.7294518534
 30
0.0
 10
9.9029290836
 20
-6.714016446
 30
0.0
 11
9.5573076244
 21
-6.6751213969
 31
0.0
 11
9.7394733962
 21
-6.7264378308
 31
0.0
 11
9.9029290836
 21
-6.714016446
 31
0.0
  0
SPLINE
  5
61A
100
AcDbEntity
  8
0
100
AcDbSpline
 62
253
  6
CONTINUOUS
 70
0
 71
3
 72
9
 73
5
 74
3
 42
0.0000001
 43
0.0000001
 44
0.0000000001
 12
-0.2252498585
 22
0.1300566667
 32
0.0
 13
-0.2252499544
 23
-0.1300565006
 33
0.0
 40
0.0
 40
0.0
 40
0.0
 40
0.0
 40
0.4492417779
 40
1.0
 40
1.0
 40
1.0
 40
1.0
 10
-20.3975059306
 20
-17.9111042003
 30
0.0
 10
-20.4312364795
 20
-17.8916285709
 30
0.0
 10
-20.5235291871
 20
-17.8776637551
 30
0.0
 10
-20.6061652559
 20
-17.9119982267
 30
0.0
 10
-20.6475180106
 20
-17.9358747891
 30
0.0
 11
-20.3975059306
 21
-17.9111042003
 31
0.0
 11
-20.5122110744
 21
-17.8888290876
 31
0.0
 11
-20.6475180106
 21
-17.9358747891
 31
0.0
  0
SPLINE
  5
61B
100
AcDbEntity
  8
0
100
AcDbSpline
 62
253
  6
CONTINUOUS
 70
0
 71
3
 72
13
 73
9
 74
7
 42
0.0000001
 43
0.0000001
 44
0.0000000001
 12
0.0978004267
 22
-0.1911082838
 32
0.0
 13
-0.18591493
 23
-0.1073449505
 33
0.0
 40
0.0
 40
0.0
 40
0.0
 40
0.0
 40
0.0256780091
 40
0.0786657063
 40
0.1622501024
 40
0.2760282949
 40
0.5894577967
 40
1.0
 40
1.0
 40
1.0
 40
1.0
 10
32.9843482236
 20
-18.7852587749
 30
0.0
 10
32.9851853303
 20
-18.7868945349
 30
0.0
 10
32.9821737953
 20
-18.7930274258
 30
0.0
 10
32.9742669548
 20
-18.8005873178
 30
0.0
 10
32.9602831858
 20
-18.8123584029
 30
0.0
 10
32.9307212369
 20
-18.8335531257
 30
0.0
 10
32.8801123176
 20
-18.8659972563
 30
0.0
 10
32.8355688643
 20
-18.8923695599
 30
0.0
 10
32.8101268893
 20
-18.9070594374
 30
0.0
 11
32.9843482236
 21
-18.7852587749
 31
0.0
 11
32.9831316961
 21
-18.7906354085
 31
0.0
 11
32.9756115404
 21
-18.799170418
 31
0.0
 11
32.961898284
 21
-18.8107431733
 31
0.0
 11
32.9421991587
 21
-18.8251850064
 31
0.0
 11
32.8858275174
 21
-18.8619241492
 31
0.0
 11
32.8101268893
 21
-18.9070594374
 31
0.0
  0
SPLINE
  5
61C
100
AcDbEntity
  8
0
100
AcDbSpline
 62
253
  6
CONTINUOUS
 70
0
 71
3
 72
9
 73
5
 74
3
 42
0.0000001
 43
0.0000001
 44
0.0000000001
 12
-0.0
 22
-0.2600971783
 32
0.0
 13
0.2252471361
 23
-0.1300548725
 33
0.0
 40
0.0
 40
0.0
 40
0.0
 40
0.0
 40
0.4492570643
 40
1.0
 40
1.0
 40
1.0
 40
1.0
 10
20.8546247918
 20
-40.9627591274
 30
0.0
 10
20.8546247918
 20
-41.0017092923
 30
0.0
 10
20.8886726726
 20
-41.0886183375
 30
0.0
 10
20.9597203116
 20
-41.143020823
 30
0.0
 10
21.0010714012
 20
-41.1668964237
 30
0.0
 11
20.8546247918
 21
-40.9627591274
 31
0.0
 11
20.8926850256
 21
-41.0732374363
 31
0.0
 11
21.0010714012
 21
-41.1668964237
 31
0.0
  0
SPLINE
  5
61D
100
AcDbEntity
  8
0
100
AcDbSpline
 62
253
  6
CONTINUOUS
 70
0
 71
3
 72
9
 73
5
 74
3
 42
0.0000001
 43
0.0000001
 44
0.0000000001
 12
-0.2252498585
 22
0.1300566667
 32
0.0
 13
-0.2252499544
 23
-0.1300565006
 33
0.0
 40
0.0
 40
0.0
 40
0.0
 40
0.0
 40
0.4492417779
 40
1.0
 40
1.0
 40
1.0
 40
1.0
 10
34.1434894102
 20
-20.091108414
 30
0.0
 10
34.1097588613
 20
-20.0716327846
 30
0.0
 10
34.0174661537
 20
-20.0576679688
 30
0.0
 10
33.934830085
 20
-20.0920024404
 30
0.0
 10
33.8934773302
 20
-20.1158790028
 30
0.0
 11
34.1434894102
 21
-20.091108414
 31
0.0
 11
34.0287842664
 21
-20.0688333013
 31
0.0
 11
33.8934773302
 21
-20.1158790028
 31
0.0
  0
SPLINE
  5
61E
100
AcDbEntity
  8
0
100
AcDbSpline
 62
253
  6
CONTINUOUS
 70
0
 71
3
 72
9
 73
5
 74
3
 42
0.0000001
 43
0.0000001
 44
0.0000000001
 12
-0.0
 22
-0.2600971785
 32
0.0
 13
-0.2252471359
 23
-0.1300548733
 33
0.0
 40
0.0
 40
0.0
 40
0.0
 40
0.0
 40
0.4492570641
 40
1.0
 40
1.0
 40
1.0
 40
1.0
 10
-20.8546247918
 20
-17.1193650574
 30
0.0
 10
-20.8546247918
 20
-17.1583152223
 30
0.0
 10
-20.8886726726
 20
-17.2452242675
 30
0.0
 10
-20.9597203116
 20
-17.2996267531
 30
0.0
 10
-21.0010714012
 20
-17.323502354
 30
0.0
 11
-20.8546247918
 21
-17.1193650574
 31
0.0
 11
-20.8926850256
 21
-17.2298433663
 31
0.0
 11
-21.0010714012
 21
-17.323502354
 31
0.0
  0
SPLINE
  5
61F
100
AcDbEntity
  8
0
100
AcDbSpline
 62
253
  6
CONTINUOUS
 70
0
 71
3
 72
9
 73
5
 74
3
 42
0.0000001
 43
0.0000001
 44
0.0000000001
 12
-0.225249852
 22
0.1300566614
 32
0.0
 13
-0.2252499472
 23
-0.1300564965
 33
0.0
 40
0.0
 40
0.0
 40
0.0
 40
0.0
 40
0.4492417999
 40
1.0
 40
1.0
 40
1.0
 40
1.0
 10
43.3837838477
 20
-25.4263386141
 30
0.0
 10
43.3500532981
 20
-25.4068629845
 30
0.0
 10
43.257760592
 20
-25.3928981653
 30
0.0
 10
43.1751245305
 20
-25.4272326486
 30
0.0
 10
43.1337717786
 20
-25.4511092092
 30
0.0
 11
43.3837838477
 21
-25.4263386141
 31
0.0
 11
43.2690787018
 21
-25.4040635015
 31
0.0
 11
43.1337717786
 21
-25.4511092092
 31
0.0
  0
SPLINE
  5
620
100
AcDbEntity
  8
0
100
AcDbSpline
 62
7
  6
CONTINUOUS
 70
0
 71
3
 72
9
 73
5
 74
3
 42
0.0000001
 43
0.0000001
 44
0.0000000001
 12
0.2787905286
 22
-0.1530391674
 32
0.0
 13
0.3114301825
 23
0.0644700475
 33
0.0
 40
0.0
 40
0.0
 40
0.0
 40
0.0
 40
0.2824249057
 40
1.0
 40
1.0
 40
1.0
 40
1.0
 10
-26.6887925985
 20
-7.3158485074
 30
0.0
 10
-26.6625468022
 20
-7.3302558649
 30
0.0
 10
-26.5675509889
 20
-7.3758197213
 30
0.0
 10
-26.4555879494
 20
-7.397944416
 30
0.0
 10
-26.3810964352
 20
-7.3825237158
 30
0.0
 11
-26.6887925985
 21
-7.3158485074
 31
0.0
 11
-26.6075350641
 21
-7.3541230033
 31
0.0
 11
-26.3810964352
 21
-7.3825237158
 31
0.0
  0
SPLINE
  5
621
100
AcDbEntity
  8
0
100
AcDbSpline
 62
7
  6
CONTINUOUS
 70
0
 71
3
 72
18
 73
14
 74
12
 42
0.0000001
 43
0.0000001
 44
0.0000000001
 12
0.0295933563
 22
1.964636341
 32
0.0
 13
-1.697680166
 23
0.9892187691
 33
0.0
 40
0.0
 40
0.0
 40
0.0
 40
0.0
 40
0.1123217892
 40
0.2319390694
 40
0.2945873054
 40
0.3587018874
 40
0.4240599108
 40
0.4906999585
 40
0.558268918
 40
0.6259544009
 40
0.6929900278
 40
0.7588356242
 40
1.0
 40
1.0
 40
1.0
 40
1.0
 10
-25.8201786164
 20
-6.9071315223
 30
0.0
 10
-25.8190706235
 20
-6.833574366
 30
0.0
 10
-25.8232292309
 20
-6.681424811
 30
0.0
 10
-25.851541189
 20
-6.4900255533
 30
0.0
 10
-25.8894307744
 20
-6.3331156445
 30
0.0
 10
-25.9240741559
 20
-6.2121091855
 30
0.0
 10
-25.9661422397
 20
-6.0906360292
 30
0.0
 10
-26.0188834472
 20
-5.9708824065
 30
0.0
 10
-26.0807646942
 20
-5.8539346221
 30
0.0
 10
-26.1487223144
 20
-5.7401412112
 30
0.0
 10
-26.2234804732
 20
-5.6319061126
 30
0.0
 10
-26.3793719891
 20
-5.4429517565
 30
0.0
 10
-26.5365519553
 20
-5.3103480878
 30
0.0
 10
-26.6730252812
 20
-5.2308266455
 30
0.0
 11
-25.8201786164
 21
-6.9071315223
 31
0.0
 11
-25.8273508393
 21
-6.6865515929
 31
0.0
 11
-25.8615441815
 21
-6.4540210781
 31
0.0
 11
-25.8900268645
 21
-6.3342667179
 31
0.0
 11
-25.9249354184
 21
-6.2132238435
 31
0.0
 11
-25.9674778179
 21
-6.0920559247
 31
0.0
 11
-26.0200351477
 21
-5.9721285779
 31
0.0
 11
-26.0817226889
 21
-5.8545667125
 31
0.0
 11
-26.1501918166
 21
-5.7405536921
 31
0.0
 11
-26.2254132741
 21
-5.6324300432
 31
0.0
 11
-26.3076485446
 21
-5.5325508516
 31
0.0
 11
-26.6730252812
 21
-5.2308266455
 31
0.0
  0
SPLINE
  5
622
100
AcDbEntity
  8
0
100
AcDbSpline
 62
7
  6
CONTINUOUS
 70
0
 71
3
 72
9
 73
5
 74
3
 42
0.0000001
 43
0.0000001
 44
0.0000000001
 12
0.5460122278
 22
0.3149563137
 32
0.0
 13
0.168103574
 23
0.6075096879
 33
0.0
 40
0.0
 40
0.0
 40
0.0
 40
0.0
 40
0.4727032252
 40
1.0
 40
1.0
 40
1.0
 40
1.0
 10
-20.9348878902
 20
-3.0685103808
 30
0.0
 10
-20.8488539765
 20
-3.0188834257
 30
0.0
 10
-20.6907316314
 20
-2.8690252148
 30
0.0
 10
-20.6062159431
 20
-2.6714813286
 30
0.0
 10
-20.576669119
 20
-2.5647020289
 30
0.0
 11
-20.9348878902
 21
-3.0685103808
 31
0.0
 11
-20.7158113767
 21
-2.8665512215
 31
0.0
 11
-20.576669119
 21
-2.5647020289
 31
0.0
  0
SPLINE
  5
623
100
AcDbEntity
  8
0
100
AcDbSpline
 62
7
  6
CONTINUOUS
 70
0
 71
3
 72
9
 73
5
 74
3
 42
0.0000001
 43
0.0000001
 44
0.0000000001
 12
0.1432048452
 22
0.5175281449
 32
0.0
 13
-0.036850233
 23
0.5357098737
 33
0.0
 40
0.0
 40
0.0
 40
0.0
 40
0.0
 40
0.2326623052
 40
1.0
 40
1.0
 40
1.0
 40
1.0
 10
-20.576669119
 20
-2.5647020289
 30
0.0
 10
-20.5655629959
 20
-2.5245655985
 30
0.0
 10
-20.5269258185
 20
-2.3495434077
 30
0.0
 10
-20.521953061
 20
-2.1681551185
 30
0.0
 10
-20.5313785853
 20
-2.0311316587
 30
0.0
 11
-20.576669119
 21
-2.5647020289
 31
0.0
 11
-20.5494064803
 21
-2.4427788578
 31
0.0
 11
-20.5313785853
 21
-2.0311316587
 31
0.0
  0
SPLINE
  5
624
100
AcDbEntity
  8
0
100
AcDbSpline
 62
253
  6
CONTINUOUS
 70
0
 71
3
 72
9
 73
5
 74
3
 42
0.0000001
 43
0.0000001
 44
0.0000000001
 12
-0.0061902064
 22
-0.2588995631
 32
0.0
 13
-0.2242740655
 23
-0.1294930346
 33
0.0
 40
0.0
 40
0.0
 40
0.0
 40
0.0
 40
0.4534110654
 40
1.0
 40
1.0
 40
1.0
 40
1.0
 10
43.9870550203
 20
-26.4945320268
 30
0.0
 10
43.986119451
 20
-26.5336613357
 30
0.0
 10
43.9519510805
 20
-26.6196168155
 30
0.0
 10
43.8814823411
 20
-26.6741705964
 30
0.0
 10
43.8406204336
 20
-26.6977637497
 30
0.0
 11
43.9870550203
 21
-26.4945320268
 31
0.0
 11
43.9476721287
 21
-26.6051520557
 31
0.0
 11
43.8406204336
 21
-26.6977637497
 31
0.0
  0
SPLINE
  5
625
100
AcDbEntity
  8
0
100
AcDbSpline
 62
253
  6
CONTINUOUS
 70
0
 71
3
 72
9
 73
5
 74
3
 42
0.0000001
 43
0.0000001
 44
0.0000000001
 12
-0.0061902077
 22
-0.2588995682
 32
0.0
 13
-0.2242740699
 23
-0.1294930371
 33
0.0
 40
0.0
 40
0.0
 40
0.0
 40
0.0
 40
0.4534110621
 40
1.0
 40
1.0
 40
1.0
 40
1.0
 10
43.2799482391
 20
-56.2956576748
 30
0.0
 10
43.2790126696
 20
-56.3347869842
 30
0.0
 10
43.2448442969
 20
-56.4207424639
 30
0.0
 10
43.1743755608
 20
-56.4752962513
 30
0.0
 10
43.1335136522
 20
-56.4988894052
 30
0.0
 11
43.2799482391
 21
-56.2956576748
 31
0.0
 11
43.2405653468
 21
-56.406277705
 31
0.0
 11
43.1335136522
 21
-56.4988894052
 31
0.0
  0
SPLINE
  5
626
100
AcDbEntity
  8
0
100
AcDbSpline
 62
253
  6
CONTINUOUS
 70
0
 71
3
 72
9
 73
5
 74
3
 42
0.0000001
 43
0.0000001
 44
0.0000000001
 12
-0.2252498585
 22
0.1300566667
 32
0.0
 13
-0.2252499544
 23
-0.1300565006
 33
0.0
 40
0.0
 40
0.0
 40
0.0
 40
0.0
 40
0.4492417779
 40
1.0
 40
1.0
 40
1.0
 40
1.0
 10
17.7862602535
 20
-39.9579322399
 30
0.0
 10
17.7525297045
 20
-39.9384566106
 30
0.0
 10
17.660236997
 20
-39.9244917948
 30
0.0
 10
17.5776009282
 20
-39.9588262664
 30
0.0
 10
17.5362481734
 20
-39.9827028288
 30
0.0
 11
17.7862602535
 21
-39.9579322399
 31
0.0
 11
17.6715551097
 21
-39.9356571273
 31
0.0
 11
17.5362481734
 21
-39.9827028288
 31
0.0
  0
SPLINE
  5
627
100
AcDbEntity
  8
0
100
AcDbSpline
 62
7
  6
CONTINUOUS
 70
0
 71
3
 72
9
 73
5
 74
3
 42
0.0000001
 43
0.0000001
 44
0.0000000001
 12
-0.3129483596
 22
0.1807399739
 32
0.0
 13
-0.102947649
 23
0.3464179492
 33
0.0
 40
0.0
 40
0.0
 40
0.0
 40
0.0
 40
0.4743051465
 40
1.0
 40
1.0
 40
1.0
 40
1.0
 10
-7.7176490151
 20
-28.9181480399
 30
0.0
 10
-7.7671266876
 20
-28.88957274
 30
0.0
 10
-7.8559619527
 20
-28.8019129471
 30
0.0
 10
-7.9065815194
 20
-28.6902658281
 30
0.0
 10
-7.9246212025
 20
-28.6295624504
 30
0.0
 11
-7.7176490151
 21
-28.9181480399
 31
0.0
 11
-7.8427995257
 21
-28.8010214404
 31
0.0
 11
-7.9246212025
 21
-28.6295624504
 31
0.0
  0
SPLINE
  5
628
100
AcDbEntity
  8
0
100
AcDbSpline
 62
253
  6
CONTINUOUS
 70
0
 71
3
 72
9
 73
5
 74
3
 42
0.0000001
 43
0.0000001
 44
0.0000000001
 12
-0.2252164891
 22
0.1300373996
 32
0.0
 13
0.0
 23
0.2600619008
 33
0.0
 40
0.0
 40
0.0
 40
0.0
 40
0.0
 40
0.4492500434
 40
1.0
 40
1.0
 40
1.0
 40
1.0
 10
20.3975059306
 20
-40.1710199845
 30
0.0
 10
20.3637797581
 20
-40.1515468821
 30
0.0
 10
20.3055492978
 20
-40.0786130944
 30
0.0
 10
20.2939646201
 20
-39.9898945808
 30
0.0
 10
20.2939646201
 20
-39.942151554
 30
0.0
 11
20.3975059306
 21
-40.1710199845
 31
0.0
 11
20.3208739976
 21
-40.0828301057
 31
0.0
 11
20.2939646201
 21
-39.942151554
 31
0.0
  0
SPLINE
  5
629
100
AcDbEntity
  8
0
100
AcDbSpline
 62
253
  6
CONTINUOUS
 70
0
 71
3
 72
9
 73
5
 74
3
 42
0.0000001
 43
0.0000001
 44
0.0000000001
 12
-0.0
 22
-0.2600971785
 32
0.0
 13
-0.2252471359
 23
-0.1300548733
 33
0.0
 40
0.0
 40
0.0
 40
0.0
 40
0.0
 40
0.4492570641
 40
1.0
 40
1.0
 40
1.0
 40
1.0
 10
17.3291413922
 20
-39.1661930971
 30
0.0
 10
17.3291413922
 20
-39.205143262
 30
0.0
 10
17.2950935114
 20
-39.2920523072
 30
0.0
 10
17.2240458725
 20
-39.3464547928
 30
0.0
 10
17.1826947828
 20
-39.3703303937
 30
0.0
 11
17.3291413922
 21
-39.1661930971
 31
0.0
 11
17.2910811585
 21
-39.276671406
 31
0.0
 11
17.1826947828
 21
-39.3703303937
 31
0.0
  0
SPLINE
  5
62A
100
AcDbEntity
  8
0
100
AcDbSpline
 62
7
  6
CONTINUOUS
 70
0
 71
3
 72
9
 73
5
 74
3
 42
0.0000001
 43
0.0000001
 44
0.0000000001
 12
-0.2309669014
 22
-0.1760665334
 32
0.0
 13
-0.1379332678
 23
-0.2555768913
 33
0.0
 40
0.0
 40
0.0
 40
0.0
 40
0.0
 40
0.2423606308
 40
1.0
 40
1.0
 40
1.0
 40
1.0
 10
18.8579159227
 20
-23.9468125424
 30
0.0
 10
18.839256828
 20
-23.9610364077
 30
0.0
 10
18.7656578212
 20
-24.0241523517
 30
0.0
 10
18.7071427791
 20
-24.1039917728
 30
0.0
 10
18.6723082211
 20
-24.168536811
 30
0.0
 11
18.8579159227
 21
-23.9468125424
 31
0.0
 11
18.8044678367
 21
-23.9926123626
 31
0.0
 11
18.6723082211
 21
-24.168536811
 31
0.0
  0
SPLINE
  5
62B
100
AcDbEntity
  8
0
100
AcDbSpline
 62
7
  6
CONTINUOUS
 70
0
 71
3
 72
14
 73
10
 74
8
 42
0.0000001
 43
0.0000001
 44
0.0000000001
 12
-1.5641719435
 22
-2.8982580435
 32
0.0
 13
2.9301510506
 23
-1.5035785234
 33
0.0
 40
0.0
 40
0.0
 40
0.0
 40
0.0
 40
0.2067032767
 40
0.3327138161
 40
0.4688996885
 40
0.6097249815
 40
0.7489710194
 40
0.8807145157
 40
1.0
 40
1.0
 40
1.0
 40
1.0
 10
18.6723082211
 20
-24.168536811
 30
0.0
 10
18.5645350658
 20
-24.3682299558
 30
0.0
 10
18.5227090818
 20
-24.7557915473
 30
0.0
 10
18.6100590446
 20
-25.2614821136
 30
0.0
 10
18.7568907948
 20
-25.6818571248
 30
0.0
 10
18.9715559297
 20
-26.0868134693
 30
0.0
 10
19.2404236673
 20
-26.4525484447
 30
0.0
 10
19.5463059972
 20
-26.7550518214
 30
0.0
 10
19.7761351756
 20
-26.9114425393
 30
0.0
 10
19.892643338
 20
-26.9712275701
 30
0.0
 11
18.6723082211
 21
-24.168536811
 31
0.0
 11
18.5526311314
 21
-24.8386927929
 31
0.0
 11
18.6189456451
 21
-25.2483643209
 31
0.0
 11
18.7653355277
 21
-25.6723174231
 31
0.0
 11
18.9820841654
 21
-26.0823490225
 31
0.0
 11
19.2546862144
 21
-26.4511261115
 31
0.0
 11
19.5651819901
 21
-26.7541914397
 31
0.0
 11
19.892643338
 21
-26.9712275701
 31
0.0
  0
SPLINE
  5
62C
100
AcDbEntity
  8
0
100
AcDbSpline
 62
253
  6
CONTINUOUS
 70
0
 71
3
 72
11
 73
7
 74
5
 42
0.0000001
 43
0.0000001
 44
0.0000000001
 12
-0.9081579451
 22
-0.5032846566
 32
0.0
 13
-0.8991711059
 23
0.5191701273
 33
0.0
 40
0.0
 40
0.0
 40
0.0
 40
0.0
 40
0.2178835077
 40
0.4512646294
 40
0.7107620768
 40
1.0
 40
1.0
 40
1.0
 40
1.0
 10
-32.9032551855
 20
18.1023445926
 30
0.0
 10
-32.9692127317
 20
18.0657921171
 30
0.0
 10
-33.1199223674
 20
18.0134102758
 30
0.0
 10
-33.3691601081
 20
18.0093542674
 30
0.0
 10
-33.634238565
 20
18.0746519572
 30
0.0
 10
-33.8067858691
 20
18.1568552982
 30
0.0
 10
-33.8934773302
 20
18.2069098614
 30
0.0
 11
-32.9032551855
 21
18.1023445926
 31
0.0
 11
-33.1165024963
 21
18.0268203135
 31
0.0
 11
-33.3587049322
 21
18.0193600137
 31
0.0
 11
-33.6211547927
 21
18.0803071203
 31
0.0
 11
-33.8934773302
 21
18.2069098614
 31
0.0
  0
SPLINE
  5
62D
100
AcDbEntity
  8
0
100
AcDbSpline
 62
253
  6
CONTINUOUS
 70
0
 71
3
 72
9
 73
5
 74
3
 42
0.0000001
 43
0.0000001
 44
0.0000000001
 12
-0.2252498585
 22
0.1300566667
 32
0.0
 13
-0.2252499544
 23
-0.1300565006
 33
0.0
 40
0.0
 40
0.0
 40
0.0
 40
0.0
 40
0.4492417779
 40
1.0
 40
1.0
 40
1.0
 40
1.0
 10
30.8677357054
 20
-47.5110122165
 30
0.0
 10
30.8340051565
 20
-47.4915365871
 30
0.0
 10
30.7417124489
 20
-47.4775717714
 30
0.0
 10
30.6590763802
 20
-47.511906243
 30
0.0
 10
30.6177236254
 20
-47.5357828053
 30
0.0
 11
30.8677357054
 21
-47.5110122165
 31
0.0
 11
30.7530305616
 21
-47.4887371038
 31
0.0
 11
30.6177236254
 21
-47.5357828053
 31
0.0
  0
SPLINE
  5
62E
100
AcDbEntity
  8
0
100
AcDbSpline
 62
253
  6
CONTINUOUS
 70
0
 71
3
 72
9
 73
5
 74
3
 42
0.0000001
 43
0.0000001
 44
0.0000000001
 12
-0.2252164893
 22
0.1300373997
 32
0.0
 13
-0.0000000008
 23
0.260061901
 33
0.0
 40
0.0
 40
0.0
 40
0.0
 40
0.0
 40
0.4492500431
 40
1.0
 40
1.0
 40
1.0
 40
1.0
 10
16.5791293122
 20
-37.9663371806
 30
0.0
 10
16.5454031397
 20
-37.9468640781
 30
0.0
 10
16.4871726794
 20
-37.8739302904
 30
0.0
 10
16.4755880015
 20
-37.7852117768
 30
0.0
 10
16.4755880013
 20
-37.7374687498
 30
0.0
 11
16.5791293122
 21
-37.9663371806
 31
0.0
 11
16.5024973792
 21
-37.8781473017
 31
0.0
 11
16.4755880013
 21
-37.7374687498
 31
0.0
  0
SPLINE
  5
62F
100
AcDbEntity
  8
0
100
AcDbSpline
 62
253
  6
CONTINUOUS
 70
0
 71
3
 72
9
 73
5
 74
3
 42
0.0000001
 43
0.0000001
 44
0.0000000001
 12
-0.0
 22
-0.2600971785
 32
0.0
 13
-0.2252471359
 23
-0.1300548733
 33
0.0
 40
0.0
 40
0.0
 40
0.0
 40
0.0
 40
0.4492570641
 40
1.0
 40
1.0
 40
1.0
 40
1.0
 10
30.4106168442
 20
-46.7192730736
 30
0.0
 10
30.4106168442
 20
-46.7582232386
 30
0.0
 10
30.3765689634
 20
-46.8451322838
 30
0.0
 10
30.3055213244
 20
-46.8995347694
 30
0.0
 10
30.2641702348
 20
-46.9234103703
 30
0.0
 11
30.4106168442
 21
-46.7192730736
 31
0.0
 11
30.3725566104
 21
-46.8297513825
 31
0.0
 11
30.2641702348
 21
-46.9234103703
 31
0.0
  0
SPLINE
  5
630
100
AcDbEntity
  8
0
100
AcDbSpline
 62
7
  6
CONTINUOUS
 70
0
 71
3
 72
20
 73
16
 74
14
 42
0.0000001
 43
0.0000001
 44
0.0000000001
 12
5.7177712834
 22
3.2999964149
 32
0.0
 13
-5.717264069
 23
-3.3008750889
 33
0.0
 40
0.0
 40
0.0
 40
0.0
 40
0.0
 40
0.0454011369
 40
0.0940237574
 40
0.1480819439
 40
0.2085075217
 40
0.2751502912
 40
0.3470594849
 40
0.5001535631
 40
0.6532520714
 40
0.7914610959
 40
0.8518951368
 40
0.9059615444
 40
0.954588287
 40
1.0
 40
1.0
 40
1.0
 40
1.0
 10
-20.750015949
 20
-3.7155493963
 30
0.0
 10
-20.6634848434
 20
-3.6656082
 30
0.0
 10
-20.5014920402
 20
-3.5295591396
 30
0.0
 10
-20.3291577305
 20
-3.2477593306
 30
0.0
 10
-20.2266262696
 20
-2.9003726314
 30
0.0
 10
-20.1947699994
 20
-2.5008162656
 30
0.0
 10
-20.2332725558
 20
-2.0629016911
 30
0.0
 10
-20.3791464492
 20
-1.4362494033
 30
0.0
 10
-20.7181887556
 20
-0.6672030859
 30
0.0
 10
-21.3000551592
 20
0.1271673305
 30
0.0
 10
-21.9010398445
 20
0.6338751994
 30
0.0
 10
-22.4057690864
 20
0.8744332815
 30
0.0
 10
-22.7579337338
 20
0.959425249
 30
0.0
 10
-23.0881932857
 20
0.9511522774
 30
0.0
 10
-23.2870590671
 20
0.8789113405
 30
0.0
 10
-23.3736026521
 20
0.8289452097
 30
0.0
 11
-20.750015949
 21
-3.7155493963
 31
0.0
 11
-20.5192996841
 21
-3.524222966
 31
0.0
 11
-20.3478052184
 21
-3.2528808799
 31
0.0
 11
-20.2421854258
 21
-2.9119906047
 31
0.0
 11
-20.2064774503
 21
-2.5146784245
 31
0.0
 11
-20.2420838221
 21
-2.0761638259
 31
0.0
 11
-20.3476525374
 21
-1.613325424
 31
0.0
 11
-20.7497699095
 21
-0.6860776599
 31
0.0
 11
-21.3516764915
 21
0.1258671546
 31
0.0
 11
-22.0616851284
 21
0.6989259886
 31
0.0
 11
-22.4236404545
 21
0.8667501474
 31
0.0
 11
-22.7717000546
 21
0.9458385559
 31
0.0
 11
-23.0924664559
 21
0.9330609921
 31
0.0
 11
-23.3736026521
 21
0.8289452097
 31
0.0
  0
SPLINE
  5
631
100
AcDbEntity
  8
0
100
AcDbSpline
 62
7
  6
CONTINUOUS
 70
0
 71
3
 72
9
 73
5
 74
3
 42
0.0000001
 43
0.0000001
 44
0.0000000001
 12
-0.0560185723
 22
0.0978784398
 32
0.0
 13
0.0364760146
 23
0.1067134939
 33
0.0
 40
0.0
 40
0.0
 40
0.0
 40
0.0
 40
0.4195529834
 40
1.0
 40
1.0
 40
1.0
 40
1.0
 10
6.4906367005
 20
-37.1134023693
 30
0.0
 10
6.4828024475
 20
-37.0997139721
 30
0.0
 10
6.4780816561
 20
-37.0600538187
 30
0.0
 10
6.4878571434
 20
-37.0235977602
 30
0.0
 10
6.494914608
 20
-37.0029505838
 30
0.0
 11
6.4906367005
 21
-37.1134023693
 31
0.0
 11
6.4813929064
 21
-37.0669989006
 31
0.0
 11
6.494914608
 21
-37.0029505838
 31
0.0
  0
SPLINE
  5
632
100
AcDbEntity
  8
0
100
AcDbSpline
 62
7
  6
CONTINUOUS
 70
0
 71
3
 72
9
 73
5
 74
3
 42
0.0000001
 43
0.0000001
 44
0.0000000001
 12
0.0135109153
 22
0.0395272619
 32
0.0
 13
0.0172193232
 23
0.038058431
 33
0.0
 40
0.0
 40
0.0
 40
0.0
 40
0.0
 40
0.2384693503
 40
1.0
 40
1.0
 40
1.0
 40
1.0
 10
6.494914608
 20
-37.0029505838
 30
0.0
 10
6.4959885877
 20
-36.9998085703
 30
0.0
 10
6.5006737224
 20
-36.9866950278
 30
0.0
 10
6.506036626
 20
-36.9738280779
 30
0.0
 10
6.5104076401
 20
-36.9641671907
 30
0.0
 11
6.494914608
 21
-37.0029505838
 31
0.0
 11
6.4982616529
 21
-36.9935682375
 31
0.0
 11
6.5104076401
 21
-36.9641671907
 31
0.0
  0
SPLINE
  5
633
100
AcDbEntity
  8
0
100
AcDbSpline
 62
7
  6
CONTINUOUS
 70
0
 71
3
 72
9
 73
5
 74
3
 42
0.0000001
 43
0.0000001
 44
0.0000000001
 12
-0.0560185723
 22
0.0978784398
 32
0.0
 13
0.0364760146
 23
0.1067134939
 33
0.0
 40
0.0
 40
0.0
 40
0.0
 40
0.0
 40
0.4195529834
 40
1.0
 40
1.0
 40
1.0
 40
1.0
 10
5.0764231381
 20
-34.6639126291
 30
0.0
 10
5.0685888851
 20
-34.6502242319
 30
0.0
 10
5.0638680937
 20
-34.6105640784
 30
0.0
 10
5.073643581
 20
-34.57410802
 30
0.0
 10
5.0807010456
 20
-34.5534608436
 30
0.0
 11
5.0764231381
 21
-34.6639126291
 31
0.0
 11
5.0671793441
 21
-34.6175091604
 31
0.0
 11
5.0807010456
 21
-34.5534608436
 31
0.0
  0
SPLINE
  5
634
100
AcDbEntity
  8
0
100
AcDbSpline
 62
7
  6
CONTINUOUS
 70
0
 71
3
 72
9
 73
5
 74
3
 42
0.0000001
 43
0.0000001
 44
0.0000000001
 12
0.0135109153
 22
0.0395272619
 32
0.0
 13
0.0172193232
 23
0.038058431
 33
0.0
 40
0.0
 40
0.0
 40
0.0
 40
0.0
 40
0.2384693503
 40
1.0
 40
1.0
 40
1.0
 40
1.0
 10
5.0807010456
 20
-34.5534608436
 30
0.0
 10
5.0817750253
 20
-34.5503188301
 30
0.0
 10
5.08646016
 20
-34.5372052876
 30
0.0
 10
5.0918230636
 20
-34.5243383377
 30
0.0
 10
5.0961940777
 20
-34.5146774505
 30
0.0
 11
5.0807010456
 21
-34.5534608436
 31
0.0
 11
5.0840480905
 21
-34.5440784973
 31
0.0
 11
5.0961940777
 21
-34.5146774505
 31
0.0
  0
SPLINE
  5
635
100
AcDbEntity
  8
0
100
AcDbSpline
 62
7
  6
CONTINUOUS
 70
0
 71
3
 72
18
 73
14
 74
12
 42
0.0000001
 43
0.0000001
 44
0.0000000001
 12
0.0295933563
 22
1.964636341
 32
0.0
 13
-1.697680166
 23
0.9892187691
 33
0.0
 40
0.0
 40
0.0
 40
0.0
 40
0.0
 40
0.1123217892
 40
0.2319390694
 40
0.2945873054
 40
0.3587018874
 40
0.4240599108
 40
0.4906999585
 40
0.558268918
 40
0.6259544009
 40
0.6929900278
 40
0.7588356242
 40
1.0
 40
1.0
 40
1.0
 40
1.0
 10
-25.9615999727
 20
-6.988786441
 30
0.0
 10
-25.9604919798
 20
-6.9152292847
 30
0.0
 10
-25.9646505872
 20
-6.7630797297
 30
0.0
 10
-25.9929625452
 20
-6.571680472
 30
0.0
 10
-26.0308521306
 20
-6.4147705631
 30
0.0
 10
-26.0654955121
 20
-6.2937641041
 30
0.0
 10
-26.1075635959
 20
-6.1722909479
 30
0.0
 10
-26.1603048035
 20
-6.0525373252
 30
0.0
 10
-26.2221860505
 20
-5.9355895408
 30
0.0
 10
-26.2901436707
 20
-5.8217961299
 30
0.0
 10
-26.3649018295
 20
-5.7135610313
 30
0.0
 10
-26.5207933453
 20
-5.5246066752
 30
0.0
 10
-26.6779733115
 20
-5.3920030065
 30
0.0
 10
-26.8144466374
 20
-5.3124815641
 30
0.0
 11
-25.9615999727
 21
-6.988786441
 31
0.0
 11
-25.9687721956
 21
-6.7682065116
 31
0.0
 11
-26.0029655377
 21
-6.5356759968
 31
0.0
 11
-26.0314482207
 21
-6.4159216366
 31
0.0
 11
-26.0663567746
 21
-6.2948787622
 31
0.0
 11
-26.1088991742
 21
-6.1737108434
 31
0.0
 11
-26.1614565039
 21
-6.0537834965
 31
0.0
 11
-26.2231440451
 21
-5.9362216312
 31
0.0
 11
-26.2916131728
 21
-5.8222086108
 31
0.0
 11
-26.3668346303
 21
-5.7140849619
 31
0.0
 11
-26.4490699009
 21
-5.6142057703
 31
0.0
 11
-26.8144466374
 21
-5.3124815641
 31
0.0
  0
SPLINE
  5
636
100
AcDbEntity
  8
0
100
AcDbSpline
 62
253
  6
CONTINUOUS
 70
0
 71
3
 72
9
 73
5
 74
3
 42
0.0000001
 43
0.0000001
 44
0.0000000001
 12
0.0
 22
-0.2600971785
 32
0.0
 13
0.2252471359
 23
-0.1300548733
 33
0.0
 40
0.0
 40
0.0
 40
0.0
 40
0.0
 40
0.4492570638
 40
1.0
 40
1.0
 40
1.0
 40
1.0
 10
20.8546247918
 20
-42.595699681
 30
0.0
 10
20.8546247918
 20
-42.6346498459
 30
0.0
 10
20.8886726726
 20
-42.7215588911
 30
0.0
 10
20.9597203116
 20
-42.7759613768
 30
0.0
 10
21.0010714012
 20
-42.7998369777
 30
0.0
 11
20.8546247918
 21
-42.595699681
 31
0.0
 11
20.8926850256
 21
-42.7061779899
 31
0.0
 11
21.0010714012
 21
-42.7998369777
 31
0.0
  0
SPLINE
  5
637
100
AcDbEntity
  8
0
100
AcDbSpline
 62
7
  6
CONTINUOUS
 70
0
 71
3
 72
11
 73
7
 74
5
 42
0.0000001
 43
0.0000001
 44
0.0000000001
 12
-1.2058685565
 22
0.7508982892
 32
0.0
 13
-1.2300529638
 23
-0.7105891375
 33
0.0
 40
0.0
 40
0.0
 40
0.0
 40
0.0
 40
0.2918502655
 40
0.5521504891
 40
0.7843760372
 40
1.0
 40
1.0
 40
1.0
 40
1.0
 10
19.7512219817
 20
-23.5051093032
 30
0.0
 10
19.6339109623
 20
-23.4320593482
 30
0.0
 10
19.4000288441
 20
-23.3113175197
 30
0.0
 10
19.0384755712
 20
-23.2124404202
 30
0.0
 10
18.6982048485
 20
-23.2131395798
 30
0.0
 10
18.4933662059
 20
-23.2855921989
 30
0.0
 10
18.4049565744
 20
-23.3366655475
 30
0.0
 11
19.7512219817
 21
-23.5051093032
 31
0.0
 11
19.3809015046
 21
-23.3187057488
 31
0.0
 11
19.0228434721
 21
-23.2263788912
 31
0.0
 11
18.6930121968
 21
-23.2325180207
 31
0.0
 11
18.4049565744
 21
-23.3366655475
 31
0.0
  0
ENDSEC
  0
SECTION
  2
OBJECTS
  0
DICTIONARY
  5
C
100
AcDbDictionary
280
0
281
1
  3
ACAD_GROUP
350
D
  3
ACAD_MLINESTYLE
350
17
  3
ACAD_LAYOUT
350
1A
  3
ACAD_PLOTSETTINGS
350
19
  3
ACAD_PLOTSTYLENAME
350
E
  0
DICTIONARY
  5
D
102
{ACAD_REACTORS
330
C
102
}
100
AcDbDictionary
280
0
281
1
  0
ACDBDICTIONARYWDFLT
  5
E
102
{ACAD_REACTORS
330
C
102
}
100
AcDbDictionary
281
1
  3
Normal
350
F
100
AcDbDictionaryWithDefault
340
F
  0
DICTIONARY
  5
17
102
{ACAD_REACTORS
330
C
102
}
100
AcDbDictionary
280
0
281
1
  3
Standard
350
18
  0
DICTIONARY
  5
19
102
{ACAD_REACTORS
330
C
102
}
100
AcDbDictionary
281
1
  0
DICTIONARY
  5
1A
102
{ACAD_REACTORS
330
C
102
}
100
AcDbDictionary
281
1
  3
Model
350
638
  3
Layout1
350
639
  0
ACDBPLACEHOLDER
  5
F
102
{ACAD_REACTORS
330
E
102
}
  0
MLINESTYLE
  5
18
102
{ACAD_REACTORS
330
17
102
}
100
AcDbMlineStyle
  2
STANDARD
 70
0
  3

 62
256
 51
90.0
 52
90.0
 71
2
 49
0.5
 62
256
  6
BYLAYER
 49
-0.5
 62
256
  6
BYLAYER
  0
LAYOUT
  5
638
102
{ACAD_REACTORS
330
1A
102
}
100
AcDbPlotSettings
  1

  2
none_device
  4
ISO_A4_(297.00_x_210.00_MM)
  6

 40
0.0
 41
0.0
 42
0.0
 43
0.0
 44
297.0
 45
210.0
 46
0.0
 47
0.0
 48
0.0
 49
0.0
140
0.0
141
0.0
142
1.0
143
1.0
 70
1024
 72
1
 73
0
 74
0
  7

 75
0
147
1.0
148
0.0
149
0.0
100
AcDbLayout
  1
Model
 70
0
 71
0
 10
0.0
 20
0.0
 11
297.0
 21
210.0
 12
0.0
 22
0.0
 32
0.0
 14
0.0
 24
0.0
 34
0.0
 15
0.0
 25
0.0
 35
0.0
146
0.0
 13
0.0
 23
0.0
 33
0.0
 16
1.0
 26
0.0
 36
0.0
 17
0.0
 27
1.0
 37
0.0
 76
0
330
20F
345
0
346
0
  0
LAYOUT
  5
639
102
{ACAD_REACTORS
330
1A
102
}
100
AcDbPlotSettings
  1

  2
none_device
  4
ISO_A4_(297.00_x_210.00_MM)
  6

 40
0.0
 41
0.0
 42
0.0
 43
0.0
 44
297.0
 45
210.0
 46
0.0
 47
0.0
 48
0.0
 49
0.0
140
0.0
141
0.0
142
1.0
143
1.0
 70
0
 72
1
 73
0
 74
0
  7

 75
0
147
1.0
148
0.0
149
0.0
100
AcDbLayout
  1
Layout1
 70
0
 71
1
 10
0.0
 20
0.0
 11
297.0
 21
210.0
 12
0.0
 22
0.0
 32
0.0
 14
0.0
 24
0.0
 34
0.0
 15
0.0
 25
0.0
 35
0.0
146
0.0
 13
0.0
 23
0.0
 33
0.0
 16
1.0
 26
0.0
 36
0.0
 17
0.0
 27
1.0
 37
0.0
 76
0
330
210
345
0
346
0
  0
ENDSEC
  0
EOF
