  0
SECTION
  2
HEADER
  9
$ACADVER
  1
AC1024
  9
$DWGCODEPAGE
  3
ANSI_1252
  9
$EXTMAX
 10
297.0
 20
210.0
 30
0.0
  9
$EXTMIN
 10
0.0
 20
0.0
 30
0.0
  9
$LIMMIN
 10
0.0
 20
0.0
  9
$LIMMAX
 10
297.0
 20
210.0
  9
$VIEWCTR
 10
148.5
 20
105.0
  9
$VIEWSIZE
 40
210.0
  9
$CLAYER
  8
0
  9
$LTSCALE
 40
16.335
  9
$CELTYPE
  6
BYLAYER
  9
$DIMSCALE
 40
1.0
  9
$DIMASZ
 40
3.0
  9
$DIMEXO
 40
0.5
  9
$DIMDLI
 40
11.286
  9
$DIMEXE
 40
1.5
  9
$DIMCEN
 40
2.673
  9
$DIMLFAC
 40
1.0
  9
$DIMBLK
  1
_FILLED
  9
$DIMALT
 70
0
  9
$DIMALTF
 40
0.0393700787
  9
$DIMTXT
 40
3.0
  9
$DIMTOL
 70
1
  9
$DIMLIM
 70
0
  9
$DIMTFAC
 40
1.0
  9
$DIMTP
 40
0.01
  9
$DIMTM
 40
0.01
  9
$DIMGAP
 40
0.625
  9
$DIMDSEP
 70
44
  9
$AUNITS
 70
0
  9
$PDMODE
 70
3
  9
$PDSIZE
 40
3.0
  9
$HANDSEED
  5
3D9
  9
$TILEMODE
 70
1
  9
$MEASUREMENT
 70
1
  9
$INSUNITS
 70
4
  0
ENDSEC
  0
SECTION
  2
CLASSES
  0
CLASS
  1
ACDBDICTIONARYWDFLT
  2
AcDbDictionaryWithDefault
  3
AutoCAD 2000
 90
0
 91
1
280
0
281
0
  0
CLASS
  1
ACDBPLACEHOLDER
  2
AcDbPlaceHolder
  3
AutoCAD 2000
 90
0
 91
1
280
0
281
0
  0
CLASS
  1
LAYOUT
  2
AcDbLayout
  3
AutoCAD 2000
 90
0
 91
0
280
0
281
0
  0
ENDSEC
  0
SECTION
  2
TABLES
  0
TABLE
  2
VPORT
  5
8
100
AcDbSymbolTable
 70
2
  0
VPORT
  5
1F4
100
AcDbSymbolTableRecord
100
AcDbViewportTableRecord
  2
*ACTIVE
 70
0
 10
0.0
 20
0.0
 11
1.0
 21
1.0
 12
148.5
 22
105.0
 13
0.0
 23
0.0
 14
1.0
 24
1.0
 15
0.0
 25
0.0
 16
0.0
 26
0.0
 36
1.0
 17
0.0
 27
0.0
 37
0.0
 40
210.0
 41
1.4142857143
 42
50.0
 43
0.0
 44
0.0
 50
0.0
 51
0.0
 71
0
 72
100
 73
1
 74
1
 75
0
 76
0
 77
0
 78
0
  0
ENDTAB
  0
TABLE
  2
LTYPE
  5
5
100
AcDbSymbolTable
 70
6
  0
LTYPE
  5
14
100
AcDbSymbolTableRecord
100
AcDbLinetypeTableRecord
  2
BYBLOCK
 70
0
  3

 72
65
 73
0
 40
0.0
  0
LTYPE
  5
15
100
AcDbSymbolTableRecord
100
AcDbLinetypeTableRecord
  2
BYLAYER
 70
0
  3

 72
65
 73
0
 40
0.0
  0
LTYPE
  5
16
100
AcDbSymbolTableRecord
100
AcDbLinetypeTableRecord
  2
CONTINUOUS
 70
64
  3
Solid line
 72
65
 73
0
 40
0.0
  0
LTYPE
  5
1F5
100
AcDbSymbolTableRecord
100
AcDbLinetypeTableRecord
  2
CENTER
 70
64
  3
____ _ ____ _ ____ _ ____ _ ____ _ ____ _ ____
 72
65
 73
4
 40
0.6
 49
0.375
 74
0
 49
-0.075
 74
0
 49
0.075
 74
0
 49
-0.075
 74
0
  0
LTYPE
  5
1F6
100
AcDbSymbolTableRecord
100
AcDbLinetypeTableRecord
  2
HIDDEN
 70
64
  3
- - - - - - - - - - - - - - - - - - - -
 72
65
 73
2
 40
0.2
 49
0.1
 74
0
 49
-0.1
 74
0
  0
LTYPE
  5
1F7
100
AcDbSymbolTableRecord
100
AcDbLinetypeTableRecord
  2
PHANTOM
 70
64
  3
_____ _ _ _____ _ _ _____ _ _ _____
 72
65
 73
6
 40
0.8
 49
0.45
 74
0
 49
-0.05
 74
0
 49
0.1
 74
0
 49
-0.05
 74
0
 49
0.1
 74
0
 49
-0.05
 74
0
  0
LTYPE
  5
1F8
100
AcDbSymbolTableRecord
100
AcDbLinetypeTableRecord
  2
DOT
 70
64
  3
. . . . . . . . . . . . . . . . . . . .
 72
65
 73
2
 40
0.2
 49
0.1
 74
0
 49
-0.1
 74
0
  0
LTYPE
  5
1F9
100
AcDbSymbolTableRecord
100
AcDbLinetypeTableRecord
  2
DASHED
 70
64
  3
- - - - - - - - - - - - - - - - - - - -
 72
65
 73
2
 40
0.2
 49
0.1
 74
0
 49
-0.1
 74
0
  0
ENDTAB
  0
TABLE
  2
LAYER
  5
2
100
AcDbSymbolTable
 70
36
  0
LAYER
  5
10
100
AcDbSymbolTableRecord
100
AcDbLayerTableRecord
  2
0
 70
0
 62
7
  6
CONTINUOUS
370
-3
390
F
  0
LAYER
  5
1FA
100
AcDbSymbolTableRecord
100
AcDbLayerTableRecord
  2
DEFAULT_1
 70
0
 62
7
  6
CENTER
370
-3
390
F
  0
LAYER
  5
1FB
100
AcDbSymbolTableRecord
100
AcDbLayerTableRecord
  2
DEFAULT_2
 70
0
 62
7
  6
HIDDEN
370
-3
390
F
  0
LAYER
  5
1FC
100
AcDbSymbolTableRecord
100
AcDbLayerTableRecord
  2
DEFAULT_3
 70
0
 62
7
  6
PHANTOM
370
-3
390
F
  0
LAYER
  5
1FD
100
AcDbSymbolTableRecord
100
AcDbLayerTableRecord
  2
ASSI
 70
0
 62
7
  6
CONTINUOUS
370
-3
390
F
  0
LAYER
  5
1FE
100
AcDbSymbolTableRecord
100
AcDbLayerTableRecord
  2
COORDINATE
 70
0
 62
7
  6
CONTINUOUS
370
-3
390
F
  0
LAYER
  5
1FF
100
AcDbSymbolTableRecord
100
AcDbLayerTableRecord
  2
COORD_ORIGINE
 70
0
 62
7
  6
CONTINUOUS
370
-3
390
F
  0
LAYER
  5
200
100
AcDbSymbolTableRecord
100
AcDbLayerTableRecord
  2
COSMETICI
 70
0
 62
7
  6
CONTINUOUS
370
-3
390
F
  0
LAYER
  5
201
100
AcDbSymbolTableRecord
100
AcDbLayerTableRecord
  2
CURVE
 70
0
 62
7
  6
CONTINUOUS
370
-3
390
F
  0
LAYER
  5
202
100
AcDbSymbolTableRecord
100
AcDbLayerTableRecord
  2
DRAFT
 70
0
 62
7
  6
CONTINUOUS
370
-3
390
F
  0
LAYER
  5
203
100
AcDbSymbolTableRecord
100
AcDbLayerTableRecord
  2
NOTE
 70
0
 62
7
  6
CONTINUOUS
370
-3
390
F
  0
LAYER
  5
204
100
AcDbSymbolTableRecord
100
AcDbLayerTableRecord
  2
PIANI
 70
0
 62
7
  6
CONTINUOUS
370
-3
390
F
  0
LAYER
  5
205
100
AcDbSymbolTableRecord
100
AcDbLayerTableRecord
  2
PIANI_ORIGINE
 70
0
 62
7
  6
CONTINUOUS
370
-3
390
F
  0
LAYER
  5
206
100
AcDbSymbolTableRecord
100
AcDbLayerTableRecord
  2
PUNTI
 70
0
 62
7
  6
CONTINUOUS
370
-3
390
F
  0
LAYER
  5
207
100
AcDbSymbolTableRecord
100
AcDbLayerTableRecord
  2
RACCORDO
 70
0
 62
7
  6
CONTINUOUS
370
-3
390
F
  0
LAYER
  5
208
100
AcDbSymbolTableRecord
100
AcDbLayerTableRecord
  2
SIMBOLI
 70
0
 62
7
  6
CONTINUOUS
370
-3
390
F
  0
LAYER
  5
209
100
AcDbSymbolTableRecord
100
AcDbLayerTableRecord
  2
SNAPLINE
 70
0
 62
7
  6
CONTINUOUS
370
-3
390
F
  0
LAYER
  5
20A
100
AcDbSymbolTableRecord
100
AcDbLayerTableRecord
  2
SUPERFICI
 70
0
 62
7
  6
CONTINUOUS
370
-3
390
F
  0
LAYER
  5
20B
100
AcDbSymbolTableRecord
100
AcDbLayerTableRecord
  2
TRASH
 70
0
 62
7
  6
CONTINUOUS
370
-3
390
F
  0
LAYER
  5
20C
100
AcDbSymbolTableRecord
100
AcDbLayerTableRecord
  2
XSEC_DATUMS
 70
0
 62
7
  6
CONTINUOUS
370
-3
390
F
  0
ENDTAB
  0
TABLE
  2
STYLE
  5
3
100
AcDbSymbolTable
 70
1
  0
STYLE
  5
11
100
AcDbSymbolTableRecord
100
AcDbTextStyleTableRecord
  2
STANDARD
 70
0
 40
0.0
 41
0.8
 50
0.0
 71
0
 42
0.2
  3
txt
  4

  0
STYLE
  5
20D
100
AcDbSymbolTableRecord
100
AcDbTextStyleTableRecord
  2
TEXTSTYLE_1
 70
0
 40
0.0
 41
0.8
 50
0.0
 71
0
 42
0.2
  3
gdt
  4

  0
ENDTAB
  0
TABLE
  2
VIEW
  5
6
100
AcDbSymbolTable
 70
0
  0
ENDTAB
  0
TABLE
  2
UCS
  5
7
100
AcDbSymbolTable
 70
0
  0
ENDTAB
  0
TABLE
  2
APPID
  5
9
100
AcDbSymbolTable
 70
1
  0
APPID
  5
20E
100
AcDbSymbolTableRecord
100
AcDbRegAppTableRecord
  2
ACAD
 70
0
  0
ENDTAB
  0
TABLE
  2
BLOCK_RECORD
  5
1
100
AcDbSymbolTable
 70
0
  0
BLOCK_RECORD
  5
20F
100
AcDbSymbolTableRecord
100
AcDbBlockTableRecord
  2
*Model_Space
  0
BLOCK_RECORD
  5
210
100
AcDbSymbolTableRecord
100
AcDbBlockTableRecord
  2
*Paper_Space
  0
BLOCK_RECORD
  5
211
100
AcDbSymbolTableRecord
100
AcDbBlockTableRecord
  2
_FILLED
  0
ENDTAB
  0
TABLE
  2
DIMSTYLE
  5
A
100
AcDbSymbolTable
 70
1
100
AcDbDimStyleTable
 71
0
  0
DIMSTYLE
105
212
100
AcDbSymbolTableRecord
100
AcDbDimStyleTableRecord
  2
STANDARD
 70
0
  3

  4

 40
1.0
 41
3.0
 42
0.5
 43
0.38
 44
1.5
 45
0.0
 46
0.0
 47
0.01
 48
0.01
140
3.0
141
0.09
142
0.0
143
25.4
144
1.0
145
0.0
146
1.0
147
0.625
 71
1.0
 72
0.0
 73
0
 74
0
 75
0
 76
0
 77
1
 78
8
 79
2
170
0
171
1
172
0
173
0
174
0
175
0
176
0
177
0
178
0
270
2
179
2
271
2
272
2
273
2
274
2
275
0
280
0
281
0
282
0
283
1
284
8
285
0
286
0
287
3
288
0
340
11
278
44
341
211
342
211
343
211
344
211
  0
ENDTAB
  0
ENDSEC
  0
SECTION
  2
BLOCKS
  0
BLOCK
  5
20
100
AcDbEntity
  8
0
100
AcDbBlockBegin
  2
*Model_Space
 70
0
 10
0.0
 20
0.0
 30
0.0
  3
*Model_Space
  1

  0
ENDBLK
  5
21
100
AcDbEntity
  8
0
100
AcDbBlockEnd
  0
BLOCK
  5
1C
100
AcDbEntity
  8
0
100
AcDbBlockBegin
  2
*Paper_Space
 70
0
 10
0.0
 20
0.0
 30
0.0
  3
*Paper_Space
  1

  0
ENDBLK
  5
1D
100
AcDbEntity
  8
0
100
AcDbBlockEnd
  0
BLOCK
  5
213
100
AcDbEntity
  8
0
100
AcDbBlockBegin
  2
_FILLED
 70
64
 10
0.0
 20
0.0
  3
_FILLED
  1

  0
SOLID
  5
214
100
AcDbEntity
  8
0
  6
BYBLOCK
 62
0
100
AcDbTrace
 10
0.0
 20
0.0
 11
-1.0
 21
0.3166666667
 12
-1.0
 22
-0.3166666667
 13
-1.0
 23
-0.3166666667
  0
ENDBLK
  5
215
100
AcDbEntity
  8
0
  6
BYBLOCK
 62
0
100
AcDbBlockEnd
  0
ENDSEC
  0
SECTION
  2
ENTITIES
  0
LWPOLYLINE
  5
216
100
AcDbEntity
  8
RACCORDO
100
AcDbPolyline
 62
7
  6
CONTINUOUS
 90
11
 70
0
 10
-2.0177447765
 20
-25.3723825419
 10
-1.9963104542
 20
-25.3839963294
 10
-1.9764521896
 20
-25.3932828658
 10
-1.9567477359
 20
-25.4009198273
 10
-1.9370215093
 20
-25.4067441572
 10
-1.9173354063
 20
-25.4105127202
 10
-1.8983879307
 20
-25.4118871738
 10
-1.8802720202
 20
-25.4108443199
 10
-1.862649444
 20
-25.4073989143
 10
-1.8462754256
 20
-25.4016938635
 10
-1.835699455
 20
-25.3964279804
  0
LINE
  5
217
100
AcDbEntity
  8
RACCORDO
100
AcDbLine
 62
7
  6
CONTINUOUS
 10
-2.9820915175
 20
-24.8155808082
 11
-2.0178871277
 21
-25.3723003385
  0
LINE
  5
218
100
AcDbEntity
  8
RACCORDO
100
AcDbLine
 62
250
  6
CONTINUOUS
 10
-2.8936848638
 20
-24.8057551108
 11
-2.1808723284
 21
-25.2173241351
  0
LINE
  5
219
100
AcDbEntity
  8
DRAFT
100
AcDbLine
 62
7
  6
CONTINUOUS
 10
1.104409506
 20
25.293521135
 11
-3.6752877634
 21
22.4652434001
  0
LINE
  5
21A
100
AcDbEntity
  8
RACCORDO
100
AcDbLine
 62
250
  6
CONTINUOUS
 10
-3.3027318011
 20
21.8451251994
 11
-3.3019137184
 21
21.8455914227
  0
LINE
  5
21B
100
AcDbEntity
  8
RACCORDO
100
AcDbLine
 62
250
  6
CONTINUOUS
 10
-2.0043482452
 20
-24.0173326831
 11
-2.6459448783
 21
-23.6468828282
  0
LINE
  5
21C
100
AcDbEntity
  8
RACCORDO
100
AcDbLine
 62
250
  6
CONTINUOUS
 10
-1.8065028018
 20
-23.9362902796
 11
-2.7124977416
 21
-23.4131801561
  0
LINE
  5
21D
100
AcDbEntity
  8
RACCORDO
100
AcDbLine
 62
7
  6
CONTINUOUS
 10
3.014445888
 20
23.3627766138
 11
3.584885857
 21
23.6909306894
  0
LINE
  5
21E
100
AcDbEntity
  8
RACCORDO
100
AcDbLine
 62
7
  6
CONTINUOUS
 10
-2.4958620719
 20
-20.8412540331
 11
-1.9367883192
 21
-21.164056211
  0
LINE
  5
21F
100
AcDbEntity
  8
RACCORDO
100
AcDbLine
 62
250
  6
CONTINUOUS
 10
-2.5372785961
 20
-20.7497066609
 11
-1.9782048434
 21
-21.0725088388
  0
LINE
  5
220
100
AcDbEntity
  8
RACCORDO
100
AcDbLine
 62
250
  6
CONTINUOUS
 10
-1.9368205915
 20
-21.1640375654
 11
-1.9367883192
 21
-21.164056211
  0
LINE
  5
221
100
AcDbEntity
  8
RACCORDO
100
AcDbLine
 62
7
  6
CONTINUOUS
 10
-4.1535575893
 20
17.7300972316
 11
-3.1549309925
 21
18.326995383
  0
LINE
  5
222
100
AcDbEntity
  8
RACCORDO
100
AcDbLine
 62
250
  6
CONTINUOUS
 10
-4.0521806218
 20
17.7210014091
 11
-3.1549309925
 21
18.2573046147
  0
LINE
  5
223
100
AcDbEntity
  8
RACCORDO
100
AcDbLine
 62
7
  6
CONTINUOUS
 10
-3.154926357
 20
18.0882771222
 11
-3.9219660337
 21
17.6458171379
  0
LINE
  5
224
100
AcDbEntity
  8
RACCORDO
100
AcDbLine
 62
7
  6
CONTINUOUS
 10
3.3144699905
 20
22.1701359761
 11
1.6753528807
 21
21.2265977075
  0
LINE
  5
225
100
AcDbEntity
  8
RACCORDO
100
AcDbLine
 62
250
  6
CONTINUOUS
 10
1.6910978935
 20
21.1498071282
 11
2.2717879931
 21
21.4815795439
  0
LINE
  5
226
100
AcDbEntity
  8
RACCORDO
100
AcDbLine
 62
7
  6
CONTINUOUS
 10
2.7142751501
 20
21.2228236066
 11
1.7513459013
 21
20.6763920294
  0
LINE
  5
227
100
AcDbEntity
  8
RACCORDO
100
AcDbLine
 62
250
  6
CONTINUOUS
 10
2.7428883381
 20
21.1724015085
 11
2.8138067421
 21
21.2126458003
  0
LINE
  5
228
100
AcDbEntity
  8
RACCORDO
100
AcDbLine
 62
7
  6
CONTINUOUS
 10
-4.1509513353
 20
-18.5527007351
 11
-4.0078392556
 21
-18.6353318564
  0
LINE
  5
229
100
AcDbEntity
  8
RACCORDO
100
AcDbLine
 62
7
  6
CONTINUOUS
 10
-3.544713404
 20
-18.9027349187
 11
-3.1549309922
 21
-19.1277903982
  0
LINE
  5
22A
100
AcDbEntity
  8
RACCORDO
100
AcDbLine
 62
7
  6
CONTINUOUS
 10
-1.8367931515
 20
-19.8888666673
 11
-1.4515828138
 21
-20.1112822884
  0
LINE
  5
22B
100
AcDbEntity
  8
RACCORDO
100
AcDbLine
 62
7
  6
CONTINUOUS
 10
-0.9884569623
 20
-20.3786853508
 11
-0.8407728084
 21
-20.4639563303
  0
LINE
  5
22C
100
AcDbEntity
  8
RACCORDO
100
AcDbLine
 62
250
  6
CONTINUOUS
 10
-4.1923678596
 20
-18.4611533629
 11
-3.9956889693
 21
-18.5747132891
  0
LINE
  5
22D
100
AcDbEntity
  8
RACCORDO
100
AcDbLine
 62
250
  6
CONTINUOUS
 10
-3.6351246646
 20
-18.7828985998
 11
-3.0963523487
 21
-19.0939789825
  0
LINE
  5
22E
100
AcDbEntity
  8
RACCORDO
100
AcDbLine
 62
250
  6
CONTINUOUS
 10
-1.9782048434
 20
-19.7395833384
 11
-1.4394325276
 21
-20.0506637212
  0
LINE
  5
22F
100
AcDbEntity
  8
RACCORDO
100
AcDbLine
 62
250
  6
CONTINUOUS
 10
-1.0788682228
 20
-20.2588490318
 11
-0.8821893326
 21
-20.3724089581
  0
LINE
  5
230
100
AcDbEntity
  8
RACCORDO
100
AcDbLine
 62
250
  6
CONTINUOUS
 10
-0.8821893326
 20
-19.7938184483
 11
-1.6957799819
 21
-19.3240614041
  0
LINE
  5
231
100
AcDbEntity
  8
RACCORDO
100
AcDbLine
 62
250
  6
CONTINUOUS
 10
-3.3787772102
 20
-18.3523198974
 11
-4.1923678596
 21
-17.8825628532
  0
LINE
  5
232
100
AcDbEntity
  8
RACCORDO
100
AcDbLine
 62
250
  6
CONTINUOUS
 10
-0.7653255372
 20
-19.5655295058
 11
-1.5789268822
 21
-19.0957662859
  0
LINE
  5
233
100
AcDbEntity
  8
RACCORDO
100
AcDbLine
 62
250
  6
CONTINUOUS
 10
-3.2619009964
 20
-18.124038125
 11
-4.0755040641
 21
-17.6542739106
  0
LINE
  5
234
100
AcDbEntity
  8
RACCORDO
100
AcDbLine
 62
250
  6
CONTINUOUS
 10
0.3252711191
 20
-20.0146800117
 11
0.4325698849
 21
-20.0766329743
  0
LINE
  5
235
100
AcDbEntity
  8
RACCORDO
100
AcDbLine
 62
250
  6
CONTINUOUS
 10
-0.8408050807
 20
-20.4639376846
 11
-0.8407728084
 21
-20.4639563303
  0
LINE
  5
236
100
AcDbEntity
  8
RACCORDO
100
AcDbLine
 62
7
  6
CONTINUOUS
 10
-3.4284731247
 20
17.3608805172
 11
-3.1549259475
 21
17.5244878631
  0
LINE
  5
237
100
AcDbEntity
  8
DRAFT
100
AcDbLine
 62
7
  6
CONTINUOUS
 10
2.1405518022
 20
19.9095030778
 11
-1.1345713017
 21
18.0648769103
  0
LINE
  5
238
100
AcDbEntity
  8
RACCORDO
100
AcDbLine
 62
7
  6
CONTINUOUS
 10
2.6025872753
 20
20.5232744446
 11
1.6753528807
 21
20.0018922923
  0
LINE
  5
239
100
AcDbEntity
  8
RACCORDO
100
AcDbLine
 62
7
  6
CONTINUOUS
 10
4.1090379208
 20
20.4207744618
 11
3.5376688947
 21
20.1000058736
  0
LINE
  5
23A
100
AcDbEntity
  8
RACCORDO
100
AcDbLine
 62
250
  6
CONTINUOUS
 10
-1.5339271588
 20
17.9409640692
 11
-1.6966016343
 21
17.8496837329
  0
LINE
  5
23B
100
AcDbEntity
  8
RACCORDO
100
AcDbLine
 62
7
  6
CONTINUOUS
 10
2.8845843384
 20
20.5899030758
 11
3.3958433045
 21
20.8765851838
  0
LINE
  5
23C
100
AcDbEntity
  8
RACCORDO
100
AcDbLine
 62
7
  6
CONTINUOUS
 10
1.8261356541
 20
-19.2896015603
 11
2.7256152345
 21
-19.8089497968
  0
LINE
  5
23D
100
AcDbEntity
  8
RACCORDO
100
AcDbLine
 62
250
  6
CONTINUOUS
 10
1.8685683512
 20
-19.2464676775
 11
2.6841987103
 21
-19.7174024246
  0
LINE
  5
23E
100
AcDbEntity
  8
RACCORDO
100
AcDbLine
 62
250
  6
CONTINUOUS
 10
2.7255829622
 20
-19.8089311512
 11
2.7256152345
 21
-19.8089497968
  0
LINE
  5
23F
100
AcDbEntity
  8
RACCORDO
100
AcDbLine
 62
250
  6
CONTINUOUS
 10
-2.1808723284
 20
-25.2173241351
 11
-2.4945156717
 21
-24.7323483955
  0
LINE
  5
240
100
AcDbEntity
  8
RACCORDO
100
AcDbLine
 62
250
  6
CONTINUOUS
 10
-1.8396600492
 20
-25.2851492544
 11
-2.2410727836
 21
-24.6644587731
  0
LWPOLYLINE
  5
241
100
AcDbEntity
  8
RACCORDO
100
AcDbPolyline
 62
7
  6
CONTINUOUS
 90
4
 70
0
 10
-1.7315131458
 20
16.3411031031
 10
-1.7494105287
 20
16.3304292982
 10
-1.7675531826
 20
16.3198296924
 10
-1.7857845526
 20
16.309447714
  0
LINE
  5
242
100
AcDbEntity
  8
RACCORDO
100
AcDbLine
 62
7
  6
CONTINUOUS
 10
-1.9442043102
 20
16.2179693042
 11
-1.9563132683
 21
16.2108784029
  0
LINE
  5
243
100
AcDbEntity
  8
RACCORDO
100
AcDbLine
 62
7
  6
CONTINUOUS
 10
-1.9782048434
 20
16.1983412419
 11
1.5869651421
 21
18.2568067579
  0
LINE
  5
244
100
AcDbEntity
  8
RACCORDO
100
AcDbLine
 62
250
  6
CONTINUOUS
 10
-0.7420020948
 20
15.8097458139
 11
2.6829753148
 21
17.7872815386
  0
LINE
  5
245
100
AcDbEntity
  8
RACCORDO
100
AcDbLine
 62
250
  6
CONTINUOUS
 10
2.9658019194
 20
17.6239904823
 11
-0.6005861235
 21
15.5648061668
  0
LINE
  5
246
100
AcDbEntity
  8
RACCORDO
100
AcDbLine
 62
7
  6
CONTINUOUS
 10
-1.9676353685
 20
16.2043197573
 11
-1.9782048434
 21
16.1983412419
  0
LINE
  5
247
100
AcDbEntity
  8
RACCORDO
100
AcDbLine
 62
7
  6
CONTINUOUS
 10
-1.6966016343
 20
16.3609196241
 11
-1.7138626635
 21
16.3513797599
  0
LINE
  5
248
100
AcDbEntity
  8
RACCORDO
100
AcDbLine
 62
250
  6
CONTINUOUS
 10
-1.6966016343
 20
15.2879122615
 11
-1.5888436449
 21
15.3273044657
  0
LINE
  5
249
100
AcDbEntity
  8
RACCORDO
100
AcDbLine
 62
250
  6
CONTINUOUS
 10
-0.6005861235
 20
14.9862156571
 11
2.9658019194
 21
16.289945138
  0
LINE
  5
24A
100
AcDbEntity
  8
RACCORDO
100
AcDbLine
 62
7
  6
CONTINUOUS
 10
-0.6721002912
 20
14.8807376797
 11
2.7107125562
 21
16.1173593777
  0
LINE
  5
24B
100
AcDbEntity
  8
RACCORDO
100
AcDbLine
 62
250
  6
CONTINUOUS
 10
1.7517045557
 20
-16.5337458122
 11
2.5652952051
 21
-17.0035028564
  0
LINE
  5
24C
100
AcDbEntity
  8
RACCORDO
100
AcDbLine
 62
250
  6
CONTINUOUS
 10
1.8685683512
 20
-16.3054568696
 11
2.6841987103
 21
-16.7763916167
  0
LINE
  5
24D
100
AcDbEntity
  8
DRAFT
100
AcDbLine
 62
7
  6
CONTINUOUS
 10
3.0109768798
 20
-22.4784643749
 11
2.8036408383
 21
-22.1578679006
  0
LINE
  5
24E
100
AcDbEntity
  8
RACCORDO
100
AcDbLine
 62
250
  6
CONTINUOUS
 10
-4.2509464874
 20
16.9797896037
 11
-4.2509465033
 21
16.9798356263
  0
LINE
  5
24F
100
AcDbEntity
  8
RACCORDO
100
AcDbLine
 62
250
  6
CONTINUOUS
 10
-4.2509464929
 20
-17.8009452699
 11
-4.2509465033
 21
-17.8009079345
  0
LINE
  5
250
100
AcDbEntity
  8
RACCORDO
100
AcDbLine
 62
250
  6
CONTINUOUS
 10
-4.2509464929
 20
17.5583887877
 11
-4.2509465033
 21
17.5584261361
  0
LINE
  5
251
100
AcDbEntity
  8
RACCORDO
100
AcDbLine
 62
7
  6
CONTINUOUS
 10
-4.2509465033
 20
17.5584261361
 11
-4.2509465033
 21
16.9798356263
  0
LINE
  5
252
100
AcDbEntity
  8
RACCORDO
100
AcDbLine
 62
7
  6
CONTINUOUS
 10
-4.2509465033
 20
-17.8009079345
 11
-4.2509465033
 21
-18.3794984442
  0
LINE
  5
253
100
AcDbEntity
  8
RACCORDO
100
AcDbLine
 62
250
  6
CONTINUOUS
 10
-4.1923678596
 20
17.4767712174
 11
-4.1923678596
 21
16.8981807077
  0
LINE
  5
254
100
AcDbEntity
  8
RACCORDO
100
AcDbLine
 62
250
  6
CONTINUOUS
 10
-4.1923678596
 20
-17.8825628532
 11
-4.1923678596
 21
-18.4611533629
  0
LINE
  5
255
100
AcDbEntity
  8
RACCORDO
100
AcDbLine
 62
250
  6
CONTINUOUS
 10
-3.1549308866
 20
-20.4363935409
 11
-3.1549309925
 21
-20.4362747166
  0
LINE
  5
256
100
AcDbEntity
  8
RACCORDO
100
AcDbLine
 62
7
  6
CONTINUOUS
 10
-3.1549309925
 20
18.5776478914
 11
-3.1549309925
 21
17.0410668503
  0
LINE
  5
257
100
AcDbEntity
  8
RACCORDO
100
AcDbLine
 62
7
  6
CONTINUOUS
 10
-3.1549309925
 20
16.0158862768
 11
-3.1549309925
 21
-18.1026098265
  0
LINE
  5
258
100
AcDbEntity
  8
RACCORDO
100
AcDbLine
 62
7
  6
CONTINUOUS
 10
-3.1549309925
 20
-19.1277903978
 11
-3.1549309925
 21
-20.4362747166
  0
LINE
  5
259
100
AcDbEntity
  8
RACCORDO
100
AcDbLine
 62
250
  6
CONTINUOUS
 10
-3.0963523487
 20
18.4959929727
 11
-3.0963523487
 21
16.8439455977
  0
LINE
  5
25A
100
AcDbEntity
  8
RACCORDO
100
AcDbLine
 62
250
  6
CONTINUOUS
 10
-3.0963523487
 20
15.9342313581
 11
-3.0963523487
 21
-18.1842647429
  0
LINE
  5
25B
100
AcDbEntity
  8
RACCORDO
100
AcDbLine
 62
250
  6
CONTINUOUS
 10
-3.0963523487
 20
-19.0939789825
 11
-3.0963523487
 21
-20.5179296354
  0
LINE
  5
25C
100
AcDbEntity
  8
RACCORDO
100
AcDbLine
 62
250
  6
CONTINUOUS
 10
-3.0788804849
 20
-22.8970163618
 11
-3.0788804849
 21
-22.1561882513
  0
LINE
  5
25D
100
AcDbEntity
  8
RACCORDO
100
AcDbLine
 62
250
  6
CONTINUOUS
 10
-2.9097693048
 20
-23.0714957861
 11
-2.9097693048
 21
-22.0254164033
  0
LINE
  5
25E
100
AcDbEntity
  8
RACCORDO
100
AcDbLine
 62
7
  6
CONTINUOUS
 10
-2.6327622998
 20
-24.5610188634
 11
-2.6327622998
 21
-24.325315441
  0
LINE
  5
25F
100
AcDbEntity
  8
RACCORDO
100
AcDbLine
 62
250
  6
CONTINUOUS
 10
-2.5800415204
 20
-24.6829668424
 11
-2.5800415204
 21
-24.2960878619
  0
LINE
  5
260
100
AcDbEntity
  8
RACCORDO
100
AcDbLine
 62
250
  6
CONTINUOUS
 10
-2.4945156717
 20
-24.345469415
 11
-2.4945156717
 21
-24.7323483955
  0
LINE
  5
261
100
AcDbEntity
  8
RACCORDO
100
AcDbLine
 62
250
  6
CONTINUOUS
 10
-2.2410727836
 20
-24.5290403673
 11
-2.2410727836
 21
-24.6644587731
  0
LINE
  5
262
100
AcDbEntity
  8
RACCORDO
100
AcDbLine
 62
250
  6
CONTINUOUS
 10
-1.9782048434
 20
-21.0725088388
 11
-1.9782048434
 21
-19.7395833384
  0
LINE
  5
263
100
AcDbEntity
  8
RACCORDO
100
AcDbLine
 62
250
  6
CONTINUOUS
 10
-1.9782048434
 20
-18.8298690988
 11
-1.9782048434
 21
15.2886270022
  0
LINE
  5
264
100
AcDbEntity
  8
RACCORDO
100
AcDbLine
 62
250
  6
CONTINUOUS
 10
-1.9782048434
 20
16.1983412419
 11
-1.9782048434
 21
17.8503886168
  0
LINE
  5
265
100
AcDbEntity
  8
RACCORDO
100
AcDbLine
 62
250
  6
CONTINUOUS
 10
-1.6966016343
 20
-21.0732182942
 11
-1.6966016343
 21
-19.9698114922
  0
LINE
  5
266
100
AcDbEntity
  8
RACCORDO
100
AcDbLine
 62
250
  6
CONTINUOUS
 10
-1.6966016343
 20
-18.8305785542
 11
-1.6966016343
 21
15.2879122615
  0
LINE
  5
267
100
AcDbEntity
  8
RACCORDO
100
AcDbLine
 62
250
  6
CONTINUOUS
 10
-1.6966016343
 20
16.3609196241
 11
-1.6966016343
 21
17.8496837329
  0
LWPOLYLINE
  5
268
100
AcDbEntity
  8
RACCORDO
100
AcDbPolyline
 62
7
  6
CONTINUOUS
 90
6
 70
0
 10
-3.154931176
 20
-18.1026206801
 10
-3.155349289
 20
-18.1146435963
 10
-3.1564300138
 20
-18.1243343691
 10
-3.1577608203
 20
-18.1310873596
 10
-3.158843486
 20
-18.1348122645
 10
-3.1591120156
 20
-18.1355451743
  0
LINE
  5
269
100
AcDbEntity
  8
RACCORDO
100
AcDbLine
 62
250
  6
CONTINUOUS
 10
-0.8821893326
 20
-20.3724089581
 11
-0.8821893326
 21
-19.7938184483
  0
LINE
  5
26A
100
AcDbEntity
  8
RACCORDO
100
AcDbLine
 62
250
  6
CONTINUOUS
 10
-0.8821893326
 20
14.9869251125
 11
-0.8821893326
 21
15.5655156222
  0
LINE
  5
26B
100
AcDbEntity
  8
RACCORDO
100
AcDbLine
 62
250
  6
CONTINUOUS
 10
-0.6005861235
 20
-20.3731184134
 11
-0.6005861235
 21
-19.7945279037
  0
LINE
  5
26C
100
AcDbEntity
  8
RACCORDO
100
AcDbLine
 62
250
  6
CONTINUOUS
 10
-0.6005861235
 20
14.9862156571
 11
-0.6005861235
 21
15.5648061668
  0
LINE
  5
26D
100
AcDbEntity
  8
RACCORDO
100
AcDbLine
 62
250
  6
CONTINUOUS
 10
2.9069553312
 20
3.2125286838
 11
4.192022808
 21
3.9395897222
  0
LINE
  5
26E
100
AcDbEntity
  8
RACCORDO
100
AcDbLine
 62
7
  6
CONTINUOUS
 10
0.4325698849
 20
-20.0766329743
 11
0.4325698849
 21
-20.3320202652
  0
LINE
  5
26F
100
AcDbEntity
  8
RACCORDO
100
AcDbLine
 62
250
  6
CONTINUOUS
 10
1.5869651421
 20
15.7065620625
 11
1.5869651421
 21
-16.3047474142
  0
LINE
  5
270
100
AcDbEntity
  8
RACCORDO
100
AcDbLine
 62
250
  6
CONTINUOUS
 10
1.5869651421
 20
-19.2429330023
 11
1.5869651421
 21
-19.2222296583
  0
LINE
  5
271
100
AcDbEntity
  8
RACCORDO
100
AcDbLine
 62
250
  6
CONTINUOUS
 10
1.5869651421
 20
18.2568067579
 11
1.5869651421
 21
19.5977100835
  0
LINE
  5
272
100
AcDbEntity
  8
RACCORDO
100
AcDbLine
 62
250
  6
CONTINUOUS
 10
1.8685683512
 20
15.8095049844
 11
1.8685683512
 21
-16.3054568696
  0
LINE
  5
273
100
AcDbEntity
  8
RACCORDO
100
AcDbLine
 62
250
  6
CONTINUOUS
 10
1.8685683512
 20
-19.2464676775
 11
1.8685683512
 21
-19.0652618708
  0
LINE
  5
274
100
AcDbEntity
  8
RACCORDO
100
AcDbLine
 62
250
  6
CONTINUOUS
 10
1.8685683512
 20
18.2575099125
 11
1.8685683512
 21
19.6915639694
  0
LINE
  5
275
100
AcDbEntity
  8
DRAFT
100
AcDbLine
 62
7
  6
CONTINUOUS
 10
2.2106214052
 20
-19.5115988142
 11
2.2106214052
 21
-19.6075315473
  0
LINE
  5
276
100
AcDbEntity
  8
RACCORDO
100
AcDbLine
 62
250
  6
CONTINUOUS
 10
2.6841987103
 20
-19.7174024246
 11
2.6841987103
 21
-18.6106232563
  0
LINE
  5
277
100
AcDbEntity
  8
RACCORDO
100
AcDbLine
 62
250
  6
CONTINUOUS
 10
2.6841987103
 20
-16.7763916167
 11
2.6841987103
 21
-1.9557650855
  0
LINE
  5
278
100
AcDbEntity
  8
RACCORDO
100
AcDbLine
 62
250
  6
CONTINUOUS
 10
2.6841987103
 20
3.6453989294
 11
2.6841987103
 21
16.0166146301
  0
LINE
  5
279
100
AcDbEntity
  8
RACCORDO
100
AcDbLine
 62
250
  6
CONTINUOUS
 10
2.6841987103
 20
17.7865751654
 11
2.6841987103
 21
20.0881123886
  0
LINE
  5
27A
100
AcDbEntity
  8
RACCORDO
100
AcDbLine
 62
250
  6
CONTINUOUS
 10
2.8141132244
 20
-19.8350066429
 11
2.8141132244
 21
-20.6109753076
  0
LINE
  5
27B
100
AcDbEntity
  8
RACCORDO
100
AcDbLine
 62
250
  6
CONTINUOUS
 10
2.9658019194
 20
-19.71811188
 11
2.9658019194
 21
-18.3851863796
  0
LINE
  5
27C
100
AcDbEntity
  8
RACCORDO
100
AcDbLine
 62
250
  6
CONTINUOUS
 10
2.9658019194
 20
-17.0511410353
 11
2.9658019194
 21
-1.9564745409
  0
LINE
  5
27D
100
AcDbEntity
  8
RACCORDO
100
AcDbLine
 62
250
  6
CONTINUOUS
 10
2.9658019194
 20
3.644689474
 11
2.9658019194
 21
16.289945138
  0
LINE
  5
27E
100
AcDbEntity
  8
RACCORDO
100
AcDbLine
 62
250
  6
CONTINUOUS
 10
2.9658019194
 20
17.6239904823
 11
2.9658019194
 21
20.0874028076
  0
LINE
  5
27F
100
AcDbEntity
  8
RACCORDO
100
AcDbLine
 62
250
  6
CONTINUOUS
 10
3.0957164335
 20
-19.7141656232
 11
3.0957164335
 21
-21.2755221092
  0
LINE
  5
280
100
AcDbEntity
  8
RACCORDO
100
AcDbLine
 62
7
  6
CONTINUOUS
 10
3.5376688947
 20
20.7937653182
 11
3.5376688947
 21
20.1000058736
  0
LINE
  5
281
100
AcDbEntity
  8
RACCORDO
100
AcDbLine
 62
250
  6
CONTINUOUS
 10
4.192022808
 20
-0.7249566048
 11
2.9069553312
 21
-1.4563591857
  0
LINE
  5
282
100
AcDbEntity
  8
RACCORDO
100
AcDbLine
 62
7
  6
CONTINUOUS
 10
3.6675834088
 20
-20.9510464552
 11
3.6675834088
 21
-19.3954025874
  0
LINE
  5
283
100
AcDbEntity
  8
0
100
AcDbLine
 62
7
  6
CONTINUOUS
 10
4.2509465033
 20
-19.0017624374
 11
4.2509465033
 21
-1.2254152796
  0
LINE
  5
284
100
AcDbEntity
  8
0
100
AcDbLine
 62
7
  6
CONTINUOUS
 10
4.2509465033
 20
4.3720047906
 11
4.2509465033
 21
20.3380011607
  0
LWPOLYLINE
  5
285
100
AcDbEntity
  8
RACCORDO
100
AcDbPolyline
 62
7
  6
CONTINUOUS
 90
13
 70
0
 10
-3.2649178111
 20
18.8318975379
 10
-3.2522669136
 20
18.8168678575
 10
-3.2355847783
 20
18.7947872448
 10
-3.2198523351
 20
18.7711762501
 10
-3.2054072859
 20
18.7464966564
 10
-3.1924888801
 20
18.721156965
 10
-3.1814309609
 20
18.6959089818
 10
-3.1723485115
 20
18.6712937112
 10
-3.1652487936
 20
18.6477199525
 10
-3.1601316177
 20
18.6257783504
 10
-3.1568561551
 20
18.6058368505
 10
-3.1552300331
 20
18.5882949868
 10
-3.1549307125
 20
18.577634232
  0
LINE
  5
286
100
AcDbEntity
  8
RACCORDO
100
AcDbLine
 62
7
  6
CONTINUOUS
 10
-4.1752101514
 20
-17.6441962701
 11
-3.1549309925
 21
-16.8351715501
  0
LINE
  5
287
100
AcDbEntity
  8
RACCORDO
100
AcDbLine
 62
250
  6
CONTINUOUS
 10
-4.0755040641
 20
-17.6542739106
 11
-3.1549309925
 21
-16.9243105815
  0
LINE
  5
288
100
AcDbEntity
  8
RACCORDO
100
AcDbLine
 62
250
  6
CONTINUOUS
 10
-3.2619009964
 20
-18.124038125
 11
-3.1549309925
 21
-18.0392162955
  0
LINE
  5
289
100
AcDbEntity
  8
RACCORDO
100
AcDbLine
 62
250
  6
CONTINUOUS
 10
1.5869651421
 20
-16.3047474142
 11
-1.6966016343
 21
-18.8305785542
  0
LINE
  5
28A
100
AcDbEntity
  8
RACCORDO
100
AcDbLine
 62
7
  6
CONTINUOUS
 10
-4.1509513353
 20
16.8066333354
 11
-3.3373606551
 21
16.3368762734
  0
LINE
  5
28B
100
AcDbEntity
  8
RACCORDO
100
AcDbLine
 62
7
  6
CONTINUOUS
 10
-1.6543634578
 20
15.3651347845
 11
-0.8407728084
 21
14.8953777402
  0
LINE
  5
28C
100
AcDbEntity
  8
RACCORDO
100
AcDbLine
 62
250
  6
CONTINUOUS
 10
-4.1923678596
 20
16.8981807077
 11
-3.3787772102
 21
16.4284236634
  0
LINE
  5
28D
100
AcDbEntity
  8
RACCORDO
100
AcDbLine
 62
250
  6
CONTINUOUS
 10
-1.6957799819
 20
15.4566821567
 11
-0.8821893326
 21
14.9869251125
  0
LINE
  5
28E
100
AcDbEntity
  8
RACCORDO
100
AcDbLine
 62
250
  6
CONTINUOUS
 10
-0.8821893326
 20
15.5655156222
 11
-1.0788682228
 21
15.6790755485
  0
LINE
  5
28F
100
AcDbEntity
  8
RACCORDO
100
AcDbLine
 62
250
  6
CONTINUOUS
 10
-1.4394325276
 20
15.8872608591
 11
-1.9782048434
 21
16.1983412419
  0
LINE
  5
290
100
AcDbEntity
  8
RACCORDO
100
AcDbLine
 62
250
  6
CONTINUOUS
 10
-3.0963523487
 20
16.8439455977
 11
-3.6351246646
 21
17.1550259805
  0
LINE
  5
291
100
AcDbEntity
  8
RACCORDO
100
AcDbLine
 62
250
  6
CONTINUOUS
 10
-3.9956889693
 20
17.3632112911
 11
-4.1923678596
 21
17.4767712174
  0
LINE
  5
292
100
AcDbEntity
  8
RACCORDO
100
AcDbLine
 62
250
  6
CONTINUOUS
 10
-0.7420020948
 20
15.8097458139
 11
-0.8722166829
 21
15.8849300851
  0
LINE
  5
293
100
AcDbEntity
  8
RACCORDO
100
AcDbLine
 62
250
  6
CONTINUOUS
 10
-1.365709592
 20
16.1698667059
 11
-1.6966016343
 21
16.3609196241
  0
LINE
  5
294
100
AcDbEntity
  8
RACCORDO
100
AcDbLine
 62
250
  6
CONTINUOUS
 10
-3.1549309925
 20
17.2029407183
 11
-3.4284731247
 21
17.3608805172
  0
LINE
  5
295
100
AcDbEntity
  8
RACCORDO
100
AcDbLine
 62
250
  6
CONTINUOUS
 10
-3.9219660337
 20
17.6458171379
 11
-4.0521806218
 21
17.7210014091
  0
LINE
  5
296
100
AcDbEntity
  8
RACCORDO
100
AcDbLine
 62
250
  6
CONTINUOUS
 10
-0.8408658736
 20
14.895431575
 11
-0.8407728084
 21
14.8953777402
  0
LWPOLYLINE
  5
297
100
AcDbEntity
  8
RACCORDO
100
AcDbPolyline
 62
7
  6
CONTINUOUS
 90
19
 70
0
 10
-3.3373843155
 20
16.3368903225
 10
-3.332703755
 20
16.334092171
 10
-3.320262426
 20
16.3257685124
 10
-3.3065259634
 20
16.3151803705
 10
-3.2918293903
 20
16.3022850983
 10
-3.2764857481
 20
16.2870800634
 10
-3.260855696
 20
16.2696740348
 10
-3.2452202285
 20
16.2501349544
 10
-3.2299743441
 20
16.2287294471
 10
-3.2155918433
 20
16.205982094
 10
-3.2023283446
 20
16.1822212123
 10
-3.1904254306
 20
16.1578321299
 10
-3.180200999
 20
16.1335455741
 10
-3.1717493896
 20
16.1098184818
 10
-3.1650771873
 20
16.0869842346
 10
-3.1602069887
 20
16.0656410282
 10
-3.157017034
 20
16.0461179937
 10
-3.1553360469
 20
16.0286976882
 10
-3.1549311857
 20
16.0158724331
  0
LINE
  5
298
100
AcDbEntity
  8
RACCORDO
100
AcDbLine
 62
250
  6
CONTINUOUS
 10
1.7517045557
 20
-16.5337458122
 11
-1.5789268822
 21
-19.0957662859
  0
LINE
  5
299
100
AcDbEntity
  8
RACCORDO
100
AcDbLine
 62
250
  6
CONTINUOUS
 10
2.5652952051
 20
-17.0035028564
 11
-0.7653255372
 21
-19.5655295058
  0
LINE
  5
29A
100
AcDbEntity
  8
RACCORDO
100
AcDbLine
 62
250
  6
CONTINUOUS
 10
2.9658019194
 20
-17.0511410353
 11
-0.6005861235
 21
-19.7945279037
  0
LWPOLYLINE
  5
29B
100
AcDbEntity
  8
RACCORDO
100
AcDbPolyline
 62
7
  6
CONTINUOUS
 90
5
 70
0
 10
-3.154907353
 20
-19.1277931507
 10
-3.1540444772
 20
-19.127279634
 10
-3.1518600735
 20
-19.1259645947
 10
-3.1483203061
 20
-19.1239950456
 10
-3.1379952716
 20
-19.1179785511
  0
LINE
  5
29C
100
AcDbEntity
  8
RACCORDO
100
AcDbLine
 62
7
  6
CONTINUOUS
 10
-3.1236341839
 20
-19.1097277528
 11
-3.1153046965
 21
-19.1048190706
  0
LINE
  5
29D
100
AcDbEntity
  8
RACCORDO
100
AcDbLine
 62
7
  6
CONTINUOUS
 10
-3.154930205
 20
-19.1277899436
 11
-3.0963523487
 21
-19.0939789825
  0
LINE
  5
29E
100
AcDbEntity
  8
RACCORDO
100
AcDbLine
 62
7
  6
CONTINUOUS
 10
-3.1379952716
 20
-19.1179785511
 11
-3.1312299401
 21
-19.1141307571
  0
LINE
  5
29F
100
AcDbEntity
  8
RACCORDO
100
AcDbLine
 62
7
  6
CONTINUOUS
 10
-3.1061993406
 20
-19.0995403453
 11
-3.0963523487
 21
-19.0939789825
  0
LWPOLYLINE
  5
2A0
100
AcDbEntity
  8
RACCORDO
100
AcDbPolyline
 62
7
  6
CONTINUOUS
 90
6
 70
0
 10
-1.6806508709
 20
15.3763778263
 10
-1.6804529125
 20
15.376341394
 10
-1.6776974485
 20
15.37567489
 10
-1.6719885424
 20
15.373746567
 10
-1.6636996754
 20
15.3701138757
 10
-1.6543498911
 20
15.3651272698
  0
LINE
  5
2A1
100
AcDbEntity
  8
RACCORDO
100
AcDbLine
 62
250
  6
CONTINUOUS
 10
2.6841987103
 20
16.0166146301
 11
2.5876373151
 21
16.0723679695
  0
LINE
  5
2A2
100
AcDbEntity
  8
DRAFT
100
AcDbLine
 62
7
  6
CONTINUOUS
 10
-3.3195900044
 20
-21.439626436
 11
-2.4009611874
 21
-20.8960486144
  0
LINE
  5
2A3
100
AcDbEntity
  8
RACCORDO
100
AcDbLine
 62
7
  6
CONTINUOUS
 10
-2.2875785759
 20
-20.9615143133
 11
-3.1471417344
 21
-21.4693121809
  0
LINE
  5
2A4
100
AcDbEntity
  8
RACCORDO
100
AcDbLine
 62
7
  6
CONTINUOUS
 10
1.8685683512
 20
18.2575099125
 11
2.0642514964
 21
18.1445249169
  0
LINE
  5
2A5
100
AcDbEntity
  8
RACCORDO
100
AcDbLine
 62
7
  6
CONTINUOUS
 10
2.4885155651
 20
17.8995601609
 11
2.6841987103
 21
17.7865751654
  0
LWPOLYLINE
  5
2A6
100
AcDbEntity
  8
RACCORDO
100
AcDbPolyline
 62
7
  6
CONTINUOUS
 90
17
 70
0
 10
-2.9870297687
 20
-24.6274390391
 10
-3.0021394475
 20
-24.6379016693
 10
-3.0145003523
 20
-24.6494117435
 10
-3.0247560935
 20
-24.6622609605
 10
-3.0327654092
 20
-24.6762128455
 10
-3.0385004011
 20
-24.6912286873
 10
-3.0417823096
 20
-24.7070442901
 10
-3.0424788236
 20
-24.7231019181
 10
-3.040679423
 20
-24.7387859409
 10
-3.0365961156
 20
-24.7537216146
 10
-3.0304858558
 20
-24.7675602168
 10
-3.0228429248
 20
-24.7798170484
 10
-3.0141779043
 20
-24.7903876143
 10
-3.0048300482
 20
-24.7994779337
 10
-2.99508648
 20
-24.807211769
 10
-2.9852594633
 20
-24.8137056298
 10
-2.9820829273
 20
-24.8155862018
  0
LINE
  5
2A7
100
AcDbEntity
  8
RACCORDO
100
AcDbLine
 62
7
  6
CONTINUOUS
 10
-2.7124977416
 20
-23.4131801561
 11
-1.8673592758
 21
-22.9235205074
  0
LINE
  5
2A8
100
AcDbEntity
  8
RACCORDO
100
AcDbLine
 62
7
  6
CONTINUOUS
 10
-2.0632064421
 20
-22.5843893621
 11
-2.9097693048
 21
-23.0714957861
  0
LINE
  5
2A9
100
AcDbEntity
  8
RACCORDO
100
AcDbLine
 62
250
  6
CONTINUOUS
 10
-0.6005861235
 20
-20.3731184134
 11
2.9658019194
 21
-18.3851863796
  0
LINE
  5
2AA
100
AcDbEntity
  8
RACCORDO
100
AcDbLine
 62
7
  6
CONTINUOUS
 10
-0.6433922444
 20
-20.4654479627
 11
2.8221470779
 21
-18.5337297788
  0
LINE
  5
2AB
100
AcDbEntity
  8
RACCORDO
100
AcDbLine
 62
250
  6
CONTINUOUS
 10
-1.6966016343
 20
-21.0732182942
 11
1.5869651421
 21
-19.2429330023
  0
LINE
  5
2AC
100
AcDbEntity
  8
RACCORDO
100
AcDbLine
 62
7
  6
CONTINUOUS
 10
-1.7394077552
 20
-21.1655478434
 11
1.6287554747
 21
-19.2881078398
  0
LINE
  5
2AD
100
AcDbEntity
  8
RACCORDO
100
AcDbLine
 62
250
  6
CONTINUOUS
 10
2.9658019194
 20
-19.71811188
 11
4.2509465033
 21
-19.0017624374
  0
LINE
  5
2AE
100
AcDbEntity
  8
RACCORDO
100
AcDbLine
 62
7
  6
CONTINUOUS
 10
2.9229957985
 20
-19.8104414292
 11
4.2086558988
 21
-19.0938046339
  0
LINE
  5
2AF
100
AcDbEntity
  8
RACCORDO
100
AcDbLine
 62
7
  6
CONTINUOUS
 10
-1.6809147376
 20
17.9338743228
 11
-1.6808809859
 21
17.9338736371
  0
LINE
  5
2B0
100
AcDbEntity
  8
RACCORDO
100
AcDbLine
 62
7
  6
CONTINUOUS
 10
-2.9869684691
 20
-24.6274026227
 11
-2.987043036
 21
-24.6274468896
  0
LINE
  5
2B1
100
AcDbEntity
  8
DRAFT
100
AcDbLine
 62
7
  6
CONTINUOUS
 10
-2.6327622998
 20
-24.4178091347
 11
-2.9869554915
 21
-24.6273949435
  0
LINE
  5
2B2
100
AcDbEntity
  8
RACCORDO
100
AcDbLine
 62
250
  6
CONTINUOUS
 10
-2.6327622998
 20
-24.4182901626
 11
-2.982560115
 21
-24.6252530802
  0
LINE
  5
2B3
100
AcDbEntity
  8
RACCORDO
100
AcDbLine
 62
7
  6
CONTINUOUS
 10
-2.0776810001
 20
-24.5709896495
 11
-2.2410727836
 21
-24.6644587731
  0
LINE
  5
2B4
100
AcDbEntity
  8
RACCORDO
100
AcDbLine
 62
250
  6
CONTINUOUS
 10
3.6675834088
 20
-20.9510464552
 11
3.0957164335
 21
-21.2755221092
  0
LINE
  5
2B5
100
AcDbEntity
  8
RACCORDO
100
AcDbLine
 62
7
  6
CONTINUOUS
 10
3.4104566584
 20
-21.6814442196
 11
3.2914492287
 21
-21.7485835964
  0
LINE
  5
2B6
100
AcDbEntity
  8
DRAFT
100
AcDbLine
 62
7
  6
CONTINUOUS
 10
-1.5041139094
 20
-24.5840964357
 11
3.3490477298
 21
-21.8506819439
  0
LINE
  5
2B7
100
AcDbEntity
  8
RACCORDO
100
AcDbLine
 62
250
  6
CONTINUOUS
 10
-2.9825575682
 20
-24.6252515734
 11
-2.9869684691
 21
-24.6274026227
  0
LINE
  5
2B8
100
AcDbEntity
  8
RACCORDO
100
AcDbLine
 62
250
  6
CONTINUOUS
 10
2.2717879931
 20
21.4815795439
 11
2.7156908868
 21
21.2252755765
  0
LINE
  5
2B9
100
AcDbEntity
  8
RACCORDO
100
AcDbLine
 62
250
  6
CONTINUOUS
 10
3.5376688947
 20
20.7506757765
 11
4.1090379208
 21
20.4207744618
  0
LINE
  5
2BA
100
AcDbEntity
  8
RACCORDO
100
AcDbLine
 62
250
  6
CONTINUOUS
 10
3.3958433045
 20
20.8765851838
 11
2.8138067421
 21
21.2126458003
  0
LINE
  5
2BB
100
AcDbEntity
  8
RACCORDO
100
AcDbLine
 62
7
  6
CONTINUOUS
 10
2.371052348
 20
21.4910624756
 11
2.7927970977
 21
21.2475523429
  0
LINE
  5
2BC
100
AcDbEntity
  8
RACCORDO
100
AcDbLine
 62
7
  6
CONTINUOUS
 10
3.5355381413
 20
20.818702973
 11
4.2091685426
 21
20.4297572219
  0
LINE
  5
2BD
100
AcDbEntity
  8
RACCORDO
100
AcDbLine
 62
7
  6
CONTINUOUS
 10
3.495890934
 20
20.8855213793
 11
2.9129888211
 21
21.2220817539
  0
LINE
  5
2BE
100
AcDbEntity
  8
RACCORDO
100
AcDbLine
 62
250
  6
CONTINUOUS
 10
3.0109768798
 20
-22.4784643749
 11
-1.8396600492
 21
-25.2851492544
  0
LINE
  5
2BF
100
AcDbEntity
  8
RACCORDO
100
AcDbLine
 62
250
  6
CONTINUOUS
 10
-1.8360059519
 20
-25.3966010089
 11
-1.8358812469
 21
-25.3965303738
  0
LINE
  5
2C0
100
AcDbEntity
  8
DRAFT
100
AcDbLine
 62
7
  6
CONTINUOUS
 10
3.0173383869
 20
-22.6630836164
 11
-1.8361025954
 21
-25.3966554407
  0
LINE
  5
2C1
100
AcDbEntity
  8
RACCORDO
100
AcDbLine
 62
250
  6
CONTINUOUS
 10
-2.6327622998
 20
-24.4883106935
 11
-2.982560115
 21
-24.6252530802
  0
LINE
  5
2C2
100
AcDbEntity
  8
RACCORDO
100
AcDbLine
 62
250
  6
CONTINUOUS
 10
-2.5800415204
 20
-24.6829668424
 11
-2.8936848638
 21
-24.8057551108
  0
ARC
  5
2C3
100
AcDbEntity
  8
RACCORDO
100
AcDbCircle
 62
7
  6
CONTINUOUS
 10
-898.0541832214
 20
1516.3415307255
 40
1748.2292445463
100
AcDbArc
 50
300.8768617728
 51
301.0052793826
  0
ARC
  5
2C4
100
AcDbEntity
  8
RACCORDO
100
AcDbCircle
 62
7
  6
CONTINUOUS
 10
-0.896077028
 20
-22.1369535424
 40
2.8067086562
100
AcDbArc
 50
213.3179031181
 51
213.6943530203
  0
ARC
  5
2C5
100
AcDbEntity
  8
RACCORDO
100
AcDbCircle
 62
7
  6
CONTINUOUS
 10
-0.8976390189
 20
-22.1370384623
 40
2.8053086331
100
AcDbArc
 50
206.3135189706
 51
206.6847833306
  0
ARC
  5
2C6
100
AcDbEntity
  8
RACCORDO
100
AcDbCircle
 62
7
  6
CONTINUOUS
 10
-0.8992218842
 20
-22.1390490641
 40
2.8029295914
100
AcDbArc
 50
213.6943766406
 51
213.9347634823
  0
ARC
  5
2C7
100
AcDbEntity
  8
RACCORDO
100
AcDbCircle
 62
7
  6
CONTINUOUS
 10
-0.9016089345
 20
-22.1390030856
 40
2.8008791892
100
AcDbArc
 50
206.0657249144
 51
206.31349324
  0
ARC
  5
2C8
100
AcDbEntity
  8
RACCORDO
100
AcDbCircle
 62
250
  6
CONTINUOUS
 10
-1.0314620345
 20
-22.2148320295
 40
2.6138326194
100
AcDbArc
 50
207.3022712014
 51
209.7504459079
  0
ARC
  5
2C9
100
AcDbEntity
  8
RACCORDO
100
AcDbCircle
 62
250
  6
CONTINUOUS
 10
-1.0332804643
 20
-22.2160927842
 40
2.6116267353
100
AcDbArc
 50
210.2461077458
 51
214.3498346396
  0
ARC
  5
2CA
100
AcDbEntity
  8
RACCORDO
100
AcDbCircle
 62
250
  6
CONTINUOUS
 10
-4.0332131053
 20
-23.9484969232
 40
2.6026561328
100
AcDbArc
 50
24.4637792443
 51
29.7583720068
  0
ARC
  5
2CB
100
AcDbEntity
  8
RACCORDO
100
AcDbCircle
 62
250
  6
CONTINUOUS
 10
-4.0335141324
 20
-23.947686264
 40
2.6025114206
100
AcDbArc
 50
30.2412188806
 51
35.5379819508
  0
ARC
  5
2CC
100
AcDbEntity
  8
RACCORDO
100
AcDbCircle
 62
250
  6
CONTINUOUS
 10
-1.0460551525
 20
-22.2221713379
 40
2.5974987653
100
AcDbArc
 50
204.8694447884
 51
207.3060638321
  0
ARC
  5
2CD
100
AcDbEntity
  8
RACCORDO
100
AcDbCircle
 62
250
  6
CONTINUOUS
 10
-1.7287231179
 20
-22.9336536028
 40
1.6065540021
100
AcDbArc
 50
235.195839088
 51
237.0133578146
  0
ARC
  5
2CE
100
AcDbEntity
  8
RACCORDO
100
AcDbCircle
 62
250
  6
CONTINUOUS
 10
-1.7685932076
 20
-22.9947898305
 40
1.533566083
100
AcDbArc
 50
237.0192500777
 51
238.053639345
  0
ARC
  5
2CF
100
AcDbEntity
  8
RACCORDO
100
AcDbCircle
 62
7
  6
CONTINUOUS
 10
-1.9040953726
 20
-23.8383731287
 40
0.7468714861
100
AcDbArc
 50
282.8817365264
 51
283.1527405329
  0
ARC
  5
2D0
100
AcDbEntity
  8
RACCORDO
100
AcDbCircle
 62
7
  6
CONTINUOUS
 10
-3.3724005202
 20
-18.2939645066
 40
0.721417279
100
AcDbArc
 50
207.8043336751
 51
210.3277671365
  0
ARC
  5
2D1
100
AcDbEntity
  8
RACCORDO
100
AcDbCircle
 62
7
  6
CONTINUOUS
 10
-0.8161440784
 20
-19.7699149386
 40
0.7214172791
100
AcDbArc
 50
207.8043336751
 51
210.3277671365
  0
ARC
  5
2D2
100
AcDbEntity
  8
RACCORDO
100
AcDbCircle
 62
250
  6
CONTINUOUS
 10
-0.9651825126
 20
-19.8559117216
 40
0.5126806199
100
AcDbArc
 50
202.3256319046
 51
218.4438246317
  0
ARC
  5
2D3
100
AcDbEntity
  8
RACCORDO
100
AcDbCircle
 62
250
  6
CONTINUOUS
 10
-3.5214389544
 20
-18.3799612896
 40
0.5126806199
100
AcDbArc
 50
202.3256319046
 51
218.4438246317
  0
ARC
  5
2D4
100
AcDbEntity
  8
RACCORDO
100
AcDbCircle
 62
250
  6
CONTINUOUS
 10
-2.7353627502
 20
-24.4519699405
 40
0.3875949012
100
AcDbArc
 50
243.5530486358
 51
245.890525111
  0
ARC
  5
2D5
100
AcDbEntity
  8
RACCORDO
100
AcDbCircle
 62
250
  6
CONTINUOUS
 10
-2.7501379869
 20
-24.481128128
 40
0.3549078529
100
AcDbArc
 50
238.8547770404
 51
243.5922477979
  0
ARC
  5
2D6
100
AcDbEntity
  8
RACCORDO
100
AcDbCircle
 62
7
  6
CONTINUOUS
 10
-3.2024888211
 20
-23.438401031
 40
0.2175659324
100
AcDbArc
 50
164.5553051797
 51
165.80855796
  0
ARC
  5
2D7
100
AcDbEntity
  8
RACCORDO
100
AcDbCircle
 62
7
  6
CONTINUOUS
 10
-2.9549309925
 20
-20.4362747166
 40
0.2
100
AcDbArc
 50
180.0340406643
 51
256.3383755903
  0
ARC
  5
2D8
100
AcDbEntity
  8
RACCORDO
100
AcDbCircle
 62
7
  6
CONTINUOUS
 10
-1.8367834872
 20
-20.9908539201
 40
0.2
100
AcDbArc
 50
239.9877240754
 51
299.1356301222
  0
ARC
  5
2D9
100
AcDbEntity
  8
RACCORDO
100
AcDbCircle
 62
7
  6
CONTINUOUS
 10
-4.0509465033
 20
-17.8009079345
 40
0.2
100
AcDbArc
 50
128.4124701384
 51
180.010695805
  0
ARC
  5
2DA
100
AcDbEntity
  8
RACCORDO
100
AcDbCircle
 62
7
  6
CONTINUOUS
 10
-4.0509465033
 20
-18.3794984442
 40
0.2
100
AcDbArc
 50
180.0007993023
 51
239.9992007516
  0
ARC
  5
2DB
100
AcDbEntity
  8
RACCORDO
100
AcDbCircle
 62
7
  6
CONTINUOUS
 10
-0.7407679764
 20
-20.2907540394
 40
0.2
100
AcDbArc
 50
239.9877240754
 51
299.1356301222
  0
ARC
  5
2DC
100
AcDbEntity
  8
RACCORDO
100
AcDbCircle
 62
250
  6
CONTINUOUS
 10
-2.9012625926
 20
-24.6565888398
 40
0.1212675704
100
AcDbArc
 50
210.5137925446
 51
214.6724471462
  0
ARC
  5
2DD
100
AcDbEntity
  8
RACCORDO
100
AcDbCircle
 62
250
  6
CONTINUOUS
 10
-3.2054506849
 20
-18.0485242717
 40
0.0939263104
100
AcDbArc
 50
300.8052645552
 51
308.2900623085
  0
ARC
  5
2DE
100
AcDbEntity
  8
RACCORDO
100
AcDbCircle
 62
250
  6
CONTINUOUS
 10
-3.5804113246
 20
20.0385489021
 40
2.0780183258
100
AcDbArc
 50
56.6376981789
 51
57.5797259516
  0
ARC
  5
2DF
100
AcDbEntity
  8
RACCORDO
100
AcDbCircle
 62
250
  6
CONTINUOUS
 10
-3.5149417619
 20
20.1430094456
 40
1.954739419
100
AcDbArc
 50
57.5580766806
 51
59.9900672766
  0
ARC
  5
2E0
100
AcDbEntity
  8
RACCORDO
100
AcDbCircle
 62
250
  6
CONTINUOUS
 10
-3.7691931621
 20
18.4344081661
 40
0.6811318802
100
AcDbArc
 50
28.7022922622
 51
38.0349370772
  0
ARC
  5
2E1
100
AcDbEntity
  8
RACCORDO
100
AcDbCircle
 62
250
  6
CONTINUOUS
 10
-3.7327723733
 20
18.46275978
 40
0.6349769782
100
AcDbArc
 50
38.04483054
 51
41.3784874068
  0
ARC
  5
2E2
100
AcDbEntity
  8
RACCORDO
100
AcDbCircle
 62
7
  6
CONTINUOUS
 10
-4.0509465033
 20
17.5584261361
 40
0.2
100
AcDbArc
 50
120.8675660173
 51
180.0106995285
  0
ARC
  5
2E3
100
AcDbEntity
  8
RACCORDO
100
AcDbCircle
 62
7
  6
CONTINUOUS
 10
-4.0509465033
 20
16.9798356263
 40
0.2
100
AcDbArc
 50
180.0131845031
 51
240.0404832214
  0
ARC
  5
2E4
100
AcDbEntity
  8
RACCORDO
100
AcDbCircle
 62
7
  6
CONTINUOUS
 10
-0.7407679764
 20
15.0685800311
 40
0.2
100
AcDbArc
 50
239.9676009999
 51
290.0803776697
  0
ARC
  5
2E5
100
AcDbEntity
  8
RACCORDO
100
AcDbCircle
 62
7
  6
CONTINUOUS
 10
0.0555600893
 20
-21.5980089064
 40
2.9298209372
100
AcDbArc
 50
19.6876381801
 51
25.63926717
  0
ARC
  5
2E6
100
AcDbEntity
  8
RACCORDO
100
AcDbCircle
 62
250
  6
CONTINUOUS
 10
1.687281453
 20
-19.4267685152
 40
0.2094468479
100
AcDbArc
 50
113.7163741624
 51
118.6173905151
  0
ARC
  5
2E7
100
AcDbEntity
  8
RACCORDO
100
AcDbCircle
 62
7
  6
CONTINUOUS
 10
1.7261291693
 20
-19.4628031154
 40
0.2000000947
100
AcDbArc
 50
59.9987959625
 51
119.1362918637
  0
ARC
  5
2E8
100
AcDbEntity
  8
RACCORDO
100
AcDbCircle
 62
7
  6
CONTINUOUS
 10
2.8256200665
 20
-19.6357475059
 40
0.2
100
AcDbArc
 50
239.9877240754
 51
299.1356301221
  0
ARC
  5
2E9
100
AcDbEntity
  8
RACCORDO
100
AcDbCircle
 62
250
  6
CONTINUOUS
 10
1.7674657096
 20
-19.4162539448
 40
0.1976032275
100
AcDbArc
 50
59.2265562389
 51
64.3246840774
  0
ARC
  5
2EA
100
AcDbEntity
  8
RACCORDO
100
AcDbCircle
 62
7
  6
CONTINUOUS
 10
3.2736951238
 20
23.0526247302
 40
1.8036742099
100
AcDbArc
 50
235.7530897095
 51
239.9704432789
  0
ARC
  5
2EB
100
AcDbEntity
  8
RACCORDO
100
AcDbCircle
 62
250
  6
CONTINUOUS
 10
3.1707894599
 20
23.0365377185
 40
1.7961343385
100
AcDbArc
 50
237.2033044513
 51
239.9655797729
  0
ARC
  5
2EC
100
AcDbEntity
  8
RACCORDO
100
AcDbCircle
 62
7
  6
CONTINUOUS
 10
2.812983989
 20
21.048879463
 40
0.2
100
AcDbArc
 50
59.9985852246
 51
119.5737986299
  0
ARC
  5
2ED
100
AcDbEntity
  8
RACCORDO
100
AcDbCircle
 62
7
  6
CONTINUOUS
 10
833.9235329961
 20
-1430.752760007
 40
1670.7163752346
100
AcDbArc
 50
119.8615416583
 51
119.9972698516
  0
SPLINE
  5
2EE
100
AcDbEntity
  8
RACCORDO
100
AcDbSpline
 62
7
  6
CONTINUOUS
 70
0
 71
3
 72
11
 73
7
 74
0
 42
0.0000001
 43
0.0000001
 44
0.0000000001
 40
0.0
 40
0.0
 40
0.0
 40
0.0
 40
0.1954073139
 40
0.4188875661
 40
0.6863459746
 40
1.0
 40
1.0
 40
1.0
 40
1.0
 10
-3.3026938994
 20
21.8453935797
 30
0.0
 10
-3.2547083286
 20
21.8726850259
 30
0.0
 10
-3.1405090926
 20
21.9126462926
 30
0.0
 10
-2.9440308378
 20
21.915245415
 30
0.0
 10
-2.7215575315
 20
21.8599233163
 30
0.0
 10
-2.5725984211
 20
21.7884532133
 30
0.0
 10
-2.4958620725
 20
21.7441466074
 30
0.0
  0
SPLINE
  5
2EF
100
AcDbEntity
  8
0
100
AcDbSpline
 62
7
  6
CONTINUOUS
 70
0
 71
3
 72
9
 73
5
 74
0
 42
0.0000001
 43
0.0000001
 44
0.0000000001
 40
0.0
 40
0.0
 40
0.0
 40
0.0
 40
0.265443676
 40
1.0
 40
1.0
 40
1.0
 40
1.0
 10
4.2509465033
 20
4.3720047906
 30
0.0
 10
4.2509465033
 20
4.3333158368
 30
0.0
 10
4.2464706854
 20
4.187674039
 30
0.0
 10
4.2231031726
 20
4.0420422115
 30
0.0
 10
4.192022808
 20
3.9395897222
 30
0.0
  0
SPLINE
  5
2F0
100
AcDbEntity
  8
RACCORDO
100
AcDbSpline
 62
7
  6
CONTINUOUS
 70
0
 71
3
 72
18
 73
14
 74
0
 42
0.0000001
 43
0.0000001
 44
0.0000000001
 40
0.0
 40
0.0
 40
0.0
 40
0.0
 40
0.1306457051
 40
0.2768904223
 40
0.4297781713
 40
0.5796677854
 40
0.7172186862
 40
0.7788926943
 40
0.8347073456
 40
0.8842074714
 40
0.927393464
 40
0.9653333238
 40
1.0
 40
1.0
 40
1.0
 40
1.0
 10
-2.4958620725
 20
21.7441466074
 30
0.0
 10
-2.3601378101
 20
21.6657811193
 30
0.0
 10
-2.0945547214
 20
21.46087782
 30
0.0
 10
-1.7521107548
 20
21.0723493872
 30
0.0
 10
-1.4670426768
 20
20.6122685225
 30
0.0
 10
-1.2653178319
 20
20.1215775061
 30
0.0
 10
-1.1769833
 20
19.7088833764
 30
0.0
 10
-1.1654044099
 20
19.4024573455
 30
0.0
 10
-1.1840515818
 20
19.2023237976
 30
0.0
 10
-1.2278360726
 20
19.0287913375
 30
0.0
 10
-1.2938358891
 20
18.8854647599
 30
0.0
 10
-1.3787810645
 20
18.7740557893
 30
0.0
 10
-1.4479573887
 20
18.7192241111
 30
0.0
 10
-1.4838359528
 20
18.6981966511
 30
0.0
  0
SPLINE
  5
2F1
100
AcDbEntity
  8
RACCORDO
100
AcDbSpline
 62
7
  6
CONTINUOUS
 70
0
 71
3
 72
14
 73
10
 74
0
 42
0.0000001
 43
0.0000001
 44
0.0000000001
 40
0.0
 40
0.0
 40
0.0
 40
0.0
 40
0.3074283102
 40
0.4502030091
 40
0.5821701661
 40
0.7019909777
 40
0.8098143253
 40
0.9077275421
 40
1.0
 40
1.0
 40
1.0
 40
1.0
 10
3.5723341032
 20
24.0239244847
 30
0.0
 10
3.4021919826
 20
24.2819059165
 30
0.0
 10
3.1128910825
 20
24.6366488478
 30
0.0
 10
2.6650706664
 20
25.0153968688
 30
0.0
 10
2.3282053287
 20
25.2277300026
 30
0.0
 10
1.992858728
 20
25.3679701309
 30
0.0
 10
1.6687213859
 20
25.4306616565
 30
0.0
 10
1.3659948115
 20
25.41136101
 30
0.0
 10
1.184232938
 20
25.3407617186
 30
0.0
 10
1.1044119282
 20
25.2935171271
 30
0.0
  0
SPLINE
  5
2F2
100
AcDbEntity
  8
DRAFT
100
AcDbSpline
 62
7
  6
CONTINUOUS
 70
0
 71
3
 72
11
 73
7
 74
0
 42
0.0000001
 43
0.0000001
 44
0.0000000001
 40
0.0
 40
0.0
 40
0.0
 40
0.0
 40
0.2962225143
 40
0.5585992868
 40
0.7889352024
 40
1.0
 40
1.0
 40
1.0
 40
1.0
 10
3.4104566584
 20
-21.6814442196
 30
0.0
 10
3.4123584655
 20
-21.7000766681
 30
0.0
 10
3.4130282301
 20
-21.7356376262
 30
0.0
 10
3.4032270559
 20
-21.7850469749
 30
0.0
 10
3.3823163685
 20
-21.8251974047
 30
0.0
 10
3.3606615993
 20
-21.8441091567
 30
0.0
 10
3.3490346104
 20
-21.8506591099
 30
0.0
  0
SPLINE
  5
2F3
100
AcDbEntity
  8
DRAFT
100
AcDbSpline
 62
7
  6
CONTINUOUS
 70
0
 71
3
 72
11
 73
7
 74
0
 42
0.0000001
 43
0.0000001
 44
0.0000000001
 40
0.0
 40
0.0
 40
0.0
 40
0.0
 40
0.2191666927
 40
0.455919441
 40
0.7155896873
 40
1.0
 40
1.0
 40
1.0
 40
1.0
 10
3.4104566584
 20
-21.6814442196
 30
0.0
 10
3.4528256095
 20
-21.6417623115
 30
0.0
 10
3.5294822846
 20
-21.546374403
 30
0.0
 10
3.6098944083
 20
-21.3731382133
 30
0.0
 10
3.6578937878
 20
-21.1707961115
 30
0.0
 10
3.6675834088
 20
-21.0263770991
 30
0.0
 10
3.6675834088
 20
-20.9510464552
 30
0.0
  0
SPLINE
  5
2F4
100
AcDbEntity
  8
0
100
AcDbSpline
 62
7
  6
CONTINUOUS
 70
0
 71
3
 72
9
 73
5
 74
0
 42
0.0000001
 43
0.0000001
 44
0.0000000001
 40
0.0
 40
0.0
 40
0.0
 40
0.0
 40
0.2612609022
 40
1.0
 40
1.0
 40
1.0
 40
1.0
 10
4.192022808
 20
-0.7249566048
 30
0.0
 10
4.2016527573
 20
-0.7678209384
 30
0.0
 10
4.2345054364
 20
-0.9327240049
 30
0.0
 10
4.2509465033
 20
-1.1011913947
 30
0.0
 10
4.2509465033
 20
-1.2254152796
 30
0.0
  0
SPLINE
  5
2F5
100
AcDbEntity
  8
0
100
AcDbSpline
 62
7
  6
CONTINUOUS
 70
0
 71
3
 72
11
 73
7
 74
0
 42
0.0000001
 43
0.0000001
 44
0.0000000001
 40
0.0
 40
0.0
 40
0.0
 40
0.0
 40
0.2228353824
 40
0.4643985519
 40
0.7240718333
 40
1.0
 40
1.0
 40
1.0
 40
1.0
 10
4.192022808
 20
3.9395897222
 30
0.0
 10
4.0904290223
 20
3.6046986623
 30
0.0
 10
3.9410910387
 20
2.8870499338
 30
0.0
 10
3.8729478042
 20
1.7488116066
 30
0.0
 10
3.9516611141
 20
0.5280979544
 30
0.0
 10
4.0970349299
 20
-0.3021514628
 30
0.0
 10
4.192022808
 20
-0.7249566048
 30
0.0
  0
SPLINE
  5
2F6
100
AcDbEntity
  8
RACCORDO
100
AcDbSpline
 62
7
  6
CONTINUOUS
 70
0
 71
3
 72
9
 73
5
 74
0
 42
0.0000001
 43
0.0000001
 44
0.0000000001
 40
0.0
 40
0.0
 40
0.0
 40
0.0
 40
0.2685431728
 40
1.0
 40
1.0
 40
1.0
 40
1.0
 10
-2.4958620719
 20
-20.8412540331
 30
0.0
 10
-2.5384787081
 20
-20.8166477215
 30
0.0
 10
-2.6997671182
 20
-20.7297772254
 30
0.0
 10
-2.8723678247
 20
-20.662437686
 30
0.0
 10
-3.0025515399
 20
-20.6305227115
 30
0.0
  0
SPLINE
  5
2F7
100
AcDbEntity
  8
RACCORDO
100
AcDbSpline
 62
7
  6
CONTINUOUS
 70
0
 71
3
 72
11
 73
7
 74
0
 42
0.0000001
 43
0.0000001
 44
0.0000000001
 40
0.0
 40
0.0
 40
0.0
 40
0.0
 40
0.2649643674
 40
0.5185553587
 40
0.7608943269
 40
1.0
 40
1.0
 40
1.0
 40
1.0
 10
-3.9950650422
 20
-18.6582901268
 30
0.0
 10
-3.9679892243
 20
-18.7045736633
 30
0.0
 10
-3.9047681413
 20
-18.7896625276
 30
0.0
 10
-3.7846927112
 20
-18.8888605807
 30
0.0
 10
-3.6442201468
 20
-18.9460631837
 30
0.0
 10
-3.5428695033
 20
-18.943689469
 30
0.0
 10
-3.4961623345
 20
-18.9310451387
 30
0.0
  0
SPLINE
  5
2F8
100
AcDbEntity
  8
RACCORDO
100
AcDbSpline
 62
7
  6
CONTINUOUS
 70
0
 71
3
 72
17
 73
13
 74
0
 42
0.0000001
 43
0.0000001
 44
0.0000000001
 40
0.0
 40
0.0
 40
0.0
 40
0.0
 40
0.0483170539
 40
0.09730087
 40
0.1476444953
 40
0.1999254493
 40
0.3119849811
 40
0.4357114129
 40
0.5701394627
 40
0.7120900791
 40
0.8570370303
 40
1.0
 40
1.0
 40
1.0
 40
1.0
 10
-3.6761677371
 20
22.4646727672
 30
0.0
 10
-3.7324681141
 20
22.4312356306
 30
0.0
 10
-3.8394078591
 20
22.3523333893
 30
0.0
 10
-3.974858941
 20
22.2035022
 30
0.0
 10
-4.0839761156
 20
22.0281731399
 30
0.0
 10
-4.1959020785
 20
21.7584442007
 30
0.0
 10
-4.2642396494
 20
21.3692776673
 30
0.0
 10
-4.2412167026
 20
20.8651958583
 30
0.0
 10
-4.1220613913
 20
20.3337595039
 30
0.0
 10
-3.9142992139
 20
19.799796041
 30
0.0
 10
-3.6292834099
 20
19.2897473197
 30
0.0
 10
-3.393040502
 20
18.9772294449
 30
0.0
 10
-3.2649147324
 20
18.8318939847
 30
0.0
  0
SPLINE
  5
2F9
100
AcDbEntity
  8
RACCORDO
100
AcDbSpline
 62
7
  6
CONTINUOUS
 70
0
 71
3
 72
9
 73
5
 74
0
 42
0.0000001
 43
0.0000001
 44
0.0000000001
 40
0.0
 40
0.0
 40
0.0
 40
0.0
 40
0.5071394697
 40
1.0
 40
1.0
 40
1.0
 40
1.0
 10
-1.6809147376
 20
17.9338743228
 30
0.0
 10
-1.5852375366
 20
17.9319171305
 30
0.0
 10
-1.395089371
 20
17.9498399243
 30
0.0
 10
-1.2164432202
 20
18.0190043469
 30
0.0
 10
-1.1353480518
 20
18.0645355561
 30
0.0
  0
SPLINE
  5
2FA
100
AcDbEntity
  8
RACCORDO
100
AcDbSpline
 62
7
  6
CONTINUOUS
 70
0
 71
3
 72
11
 73
7
 74
0
 42
0.0000001
 43
0.0000001
 44
0.0000000001
 40
0.0
 40
0.0
 40
0.0
 40
0.0
 40
0.2649643674
 40
0.5185553587
 40
0.7608943269
 40
1.0
 40
1.0
 40
1.0
 40
1.0
 10
-1.4388086005
 20
-20.1342405588
 30
0.0
 10
-1.4117327825
 20
-20.1805240954
 30
0.0
 10
-1.3485116995
 20
-20.2656129596
 30
0.0
 10
-1.2284362694
 20
-20.3648110127
 30
0.0
 10
-1.087963705
 20
-20.4220136157
 30
0.0
 10
-0.9866130615
 20
-20.419639901
 30
0.0
 10
-0.9399058928
 20
-20.4069955707
 30
0.0
  0
SPLINE
  5
2FB
100
AcDbEntity
  8
RACCORDO
100
AcDbSpline
 62
7
  6
CONTINUOUS
 70
0
 71
3
 72
9
 73
5
 74
0
 42
0.0000001
 43
0.0000001
 44
0.0000000001
 40
0.0
 40
0.0
 40
0.0
 40
0.0
 40
0.2302612984
 40
1.0
 40
1.0
 40
1.0
 40
1.0
 10
2.1822748043
 20
20.920145566
 30
0.0
 10
2.1620526027
 20
20.9206684163
 30
0.0
 10
2.0743302316
 20
20.9267305835
 30
0.0
 10
1.9879431335
 20
20.9472381304
 30
0.0
 10
1.9237377853
 20
20.9684648764
 30
0.0
  0
SPLINE
  5
2FC
100
AcDbEntity
  8
RACCORDO
100
AcDbSpline
 62
7
  6
CONTINUOUS
 70
0
 71
3
 72
11
 73
7
 74
0
 42
0.0000001
 43
0.0000001
 44
0.0000000001
 40
0.0
 40
0.0
 40
0.0
 40
0.0
 40
0.2510923729
 40
0.5003654222
 40
0.7498834076
 40
1.0
 40
1.0
 40
1.0
 40
1.0
 10
-3.4032573201
 20
-21.7128313572
 30
0.0
 10
-3.4124031914
 20
-21.6886061361
 30
0.0
 10
-3.4239740511
 20
-21.6374035028
 30
0.0
 10
-3.4162613634
 20
-21.5589698265
 30
0.0
 10
-3.3813865332
 20
-21.4880899428
 30
0.0
 10
-3.3417883931
 20
-21.4527618303
 30
0.0
 10
-3.3195900044
 20
-21.439626436
 30
0.0
  0
SPLINE
  5
2FD
100
AcDbEntity
  8
RACCORDO
100
AcDbSpline
 62
7
  6
CONTINUOUS
 70
0
 71
3
 72
11
 73
7
 74
0
 42
0.0000001
 43
0.0000001
 44
0.0000000001
 40
0.0
 40
0.0
 40
0.0
 40
0.0
 40
0.2499195658
 40
0.4995729007
 40
0.7489064719
 40
1.0
 40
1.0
 40
1.0
 40
1.0
 10
-1.5041139094
 20
-24.5840964357
 30
0.0
 10
-1.526558871
 20
-24.5967379647
 30
0.0
 10
-1.5769108549
 20
-24.6133684571
 30
0.0
 10
-1.6557010148
 20
-24.6081839854
 30
0.0
 10
-1.7274623592
 20
-24.5756610839
 30
0.0
 10
-1.7660541145
 20
-24.540108461
 30
0.0
 10
-1.7824620291
 20
-24.5200931237
 30
0.0
  0
SPLINE
  5
2FE
100
AcDbEntity
  8
RACCORDO
100
AcDbSpline
 62
7
  6
CONTINUOUS
 70
0
 71
3
 72
8
 73
4
 74
0
 42
0.0000001
 43
0.0000001
 44
0.0000000001
 40
0.0
 40
0.0
 40
0.0
 40
0.0
 40
1.0
 40
1.0
 40
1.0
 40
1.0
 10
-3.2310589301
 20
-23.6938623745
 30
0.0
 10
-3.2508336083
 20
-23.6887768928
 30
0.0
 10
-3.2700213382
 20
-23.6807534449
 30
0.0
 10
-3.2876951195
 20
-23.6705290878
 30
0.0
  0
SPLINE
  5
2FF
100
AcDbEntity
  8
RACCORDO
100
AcDbSpline
 62
7
  6
CONTINUOUS
 70
0
 71
3
 72
11
 73
7
 74
0
 42
0.0000001
 43
0.0000001
 44
0.0000000001
 40
0.0
 40
0.0
 40
0.0
 40
0.0
 40
0.249804285
 40
0.5016407665
 40
0.7520039037
 40
1.0
 40
1.0
 40
1.0
 40
1.0
 10
-3.2876951195
 20
-23.6705290878
 30
0.0
 10
-3.3116181915
 20
-23.6566894897
 30
0.0
 10
-3.3550021673
 20
-23.6202308097
 30
0.0
 10
-3.4003303428
 20
-23.5491440457
 30
0.0
 10
-3.4234368935
 20
-23.4681179135
 30
0.0
 10
-3.4201421606
 20
-23.4116623068
 30
0.0
 10
-3.4134150719
 20
-23.3850620052
 30
0.0
  0
SPLINE
  5
300
100
AcDbEntity
  8
RACCORDO
100
AcDbSpline
 62
7
  6
CONTINUOUS
 70
0
 71
3
 72
9
 73
5
 74
0
 42
0.0000001
 43
0.0000001
 44
0.0000000001
 40
0.0
 40
0.0
 40
0.0
 40
0.0
 40
0.5179427586
 40
1.0
 40
1.0
 40
1.0
 40
1.0
 10
-2.3460947081
 20
-24.4892219914
 30
0.0
 10
-2.247790447
 20
-24.5321258172
 30
0.0
 10
-2.0471632788
 20
-24.5938463997
 30
0.0
 10
-1.8349033291
 20
-24.588703123
 30
0.0
 10
-1.7375882976
 20
-24.5664475828
 30
0.0
  0
SPLINE
  5
301
100
AcDbEntity
  8
RACCORDO
100
AcDbSpline
 62
7
  6
CONTINUOUS
 70
0
 71
3
 72
13
 73
9
 74
0
 42
0.0000001
 43
0.0000001
 44
0.0000000001
 40
0.0
 40
0.0
 40
0.0
 40
0.0
 40
0.1049793996
 40
0.2140280649
 40
0.3287395338
 40
0.4503820301
 40
0.7144117824
 40
1.0
 40
1.0
 40
1.0
 40
1.0
 10
-3.4192675402
 20
-21.6487145899
 30
0.0
 10
-3.4627051683
 20
-21.6951374573
 30
0.0
 10
-3.539276591
 20
-21.8015401204
 30
0.0
 10
-3.6174405647
 20
-21.9860718379
 30
0.0
 10
-3.661239787
 20
-22.1917286046
 30
0.0
 10
-3.6765735607
 20
-22.4953939608
 30
0.0
 10
-3.6128320549
 20
-22.901181463
 30
0.0
 10
-3.4936084061
 20
-23.2143520628
 30
0.0
 10
-3.4176123606
 20
-23.3697146651
 30
0.0
  0
SPLINE
  5
302
100
AcDbEntity
  8
RACCORDO
100
AcDbSpline
 62
7
  6
CONTINUOUS
 70
0
 71
3
 72
9
 73
5
 74
0
 42
0.0000001
 43
0.0000001
 44
0.0000000001
 40
0.0
 40
0.0
 40
0.0
 40
0.0
 40
0.5150076236
 40
1.0
 40
1.0
 40
1.0
 40
1.0
 10
-3.2247389266
 20
-23.7037806002
 30
0.0
 10
-3.1421520613
 20
-23.8265217783
 30
0.0
 10
-2.9628342416
 20
-24.0527209383
 30
0.0
 10
-2.7464008135
 20
-24.2447192372
 30
0.0
 10
-2.6327578483
 20
-24.3253078325
 30
0.0
  0
SPLINE
  5
303
100
AcDbEntity
  8
DRAFT
100
AcDbSpline
 62
7
  6
CONTINUOUS
 70
0
 71
3
 72
12
 73
8
 74
0
 42
0.0000001
 43
0.0000001
 44
0.0000000001
 40
0.0
 40
0.0
 40
0.0
 40
0.0
 40
0.1843795752
 40
0.2930172838
 40
0.4150450576
 40
0.6942177018
 40
1.0
 40
1.0
 40
1.0
 40
1.0
 10
3.017338784
 20
-22.6630842718
 30
0.0
 10
3.0281369827
 20
-22.6570024085
 30
0.0
 10
3.0413559939
 20
-22.6400482599
 30
0.0
 10
3.0482813414
 20
-22.612951171
 30
0.0
 10
3.0499546693
 20
-22.5784808732
 30
0.0
 10
3.0396656129
 20
-22.5313427978
 30
0.0
 10
3.0221383512
 20
-22.4957229681
 30
0.0
 10
3.0109768798
 20
-22.4784643749
 30
0.0
  0
SPLINE
  5
304
100
AcDbEntity
  8
DRAFT
100
AcDbSpline
 62
7
  6
CONTINUOUS
 70
0
 71
3
 72
17
 73
13
 74
0
 42
0.0000001
 43
0.0000001
 44
0.0000000001
 40
0.0
 40
0.0
 40
0.0
 40
0.0
 40
0.0428620276
 40
0.0875492299
 40
0.1354766358
 40
0.1875402957
 40
0.304966957
 40
0.4386912984
 40
0.5829796359
 40
0.7300082616
 40
0.8714371314
 40
1.0
 40
1.0
 40
1.0
 40
1.0
 10
-1.9531353894
 20
-24.0877095167
 30
0.0
 10
-1.9247385806
 20
-24.0709065788
 30
0.0
 10
-1.8709920074
 20
-24.0288445894
 30
0.0
 10
-1.8064677399
 20
-23.9457748574
 30
0.0
 10
-1.758405854
 20
-23.8444551868
 30
0.0
 10
-1.7154966619
 20
-23.6818870991
 30
0.0
 10
-1.7108669699
 20
-23.4453588409
 30
0.0
 10
-1.7727555002
 20
-23.1454970179
 30
0.0
 10
-1.8964377176
 20
-22.8407649756
 30
0.0
 10
-2.0720670327
 20
-22.5558367177
 30
0.0
 10
-2.2851727217
 20
-22.3137263222
 30
0.0
 10
-2.4515700601
 20
-22.1857743382
 30
0.0
 10
-2.5372785961
 20
-22.1362873038
 30
0.0
  0
SPLINE
  5
305
100
AcDbEntity
  8
DRAFT
100
AcDbSpline
 62
7
  6
CONTINUOUS
 70
0
 71
3
 72
11
 73
7
 74
0
 42
0.0000001
 43
0.0000001
 44
0.0000000001
 40
0.0
 40
0.0
 40
0.0
 40
0.0
 40
0.2894979459
 40
0.5489406073
 40
0.7822341264
 40
1.0
 40
1.0
 40
1.0
 40
1.0
 10
-2.5372785961
 20
-22.1362873038
 30
0.0
 10
-2.5878503631
 20
-22.1070877993
 30
0.0
 10
-2.6884599836
 20
-22.059151013
 30
0.0
 10
-2.8430801681
 20
-22.021390256
 30
0.0
 10
-2.9882869678
 20
-22.0242585495
 30
0.0
 10
-3.0759809203
 20
-22.0551652418
 30
0.0
 10
-3.1142573411
 20
-22.0767168727
 30
0.0
  0
SPLINE
  5
306
100
AcDbEntity
  8
RACCORDO
100
AcDbSpline
 62
7
  6
CONTINUOUS
 70
0
 71
3
 72
13
 73
9
 74
0
 42
0.0000001
 43
0.0000001
 44
0.0000000001
 40
0.0
 40
0.0
 40
0.0
 40
0.0
 40
0.1109383699
 40
0.2268851239
 40
0.3486849677
 40
0.474936391
 40
0.7347965449
 40
1.0
 40
1.0
 40
1.0
 40
1.0
 10
3.584885857
 20
23.6909306894
 30
0.0
 10
3.5966307627
 20
23.6976871254
 30
0.0
 10
3.6177478202
 20
23.7170167591
 30
0.0
 10
3.6367724172
 20
23.7559152325
 30
0.0
 10
3.644587462
 20
23.8001212702
 30
0.0
 10
3.6425254592
 20
23.8624415621
 30
0.0
 10
3.6207568431
 20
23.9400558226
 30
0.0
 10
3.5901672683
 20
23.9968845873
 30
0.0
 10
3.5723341032
 20
24.0239244847
 30
0.0
  0
SPLINE
  5
307
100
AcDbEntity
  8
RACCORDO
100
AcDbSpline
 62
7
  6
CONTINUOUS
 70
0
 71
3
 72
9
 73
5
 74
0
 42
0.0000001
 43
0.0000001
 44
0.0000000001
 40
0.0
 40
0.0
 40
0.0
 40
0.0
 40
0.4821497753
 40
1.0
 40
1.0
 40
1.0
 40
1.0
 10
3.3144699905
 20
22.1701359761
 30
0.0
 10
3.3565749517
 20
22.1943734564
 30
0.0
 10
3.4187499259
 20
22.2860784732
 30
0.0
 10
3.4208163825
 20
22.3926189457
 30
0.0
 10
3.4063304853
 20
22.4427479141
 30
0.0
  0
SPLINE
  5
308
100
AcDbEntity
  8
DRAFT
100
AcDbSpline
 62
7
  6
CONTINUOUS
 70
0
 71
3
 72
10
 73
6
 74
0
 42
0.0000001
 43
0.0000001
 44
0.0000000001
 40
0.0
 40
0.0
 40
0.0
 40
0.0
 40
0.4629208575
 40
0.7232221534
 40
1.0
 40
1.0
 40
1.0
 40
1.0
 10
1.6753528807
 20
20.0018922923
 30
0.0
 10
1.7321406853
 20
20.1839626627
 30
0.0
 10
1.7670771662
 20
20.485826071
 30
0.0
 10
1.7398427954
 20
20.897003801
 30
0.0
 10
1.7008397193
 20
21.1154514502
 30
0.0
 10
1.6753528807
 20
21.2265977075
 30
0.0
  0
SPLINE
  5
309
100
AcDbEntity
  8
RACCORDO
100
AcDbSpline
 62
7
  6
CONTINUOUS
 70
0
 71
3
 72
9
 73
5
 74
0
 42
0.0000001
 43
0.0000001
 44
0.0000000001
 40
0.0
 40
0.0
 40
0.0
 40
0.0
 40
0.2443137361
 40
1.0
 40
1.0
 40
1.0
 40
1.0
 10
3.4063304853
 20
22.4427479141
 30
0.0
 10
3.3836922559
 20
22.5210883214
 30
0.0
 10
3.2807497621
 20
22.8387130879
 30
0.0
 10
3.1392422881
 20
23.143584211
 30
0.0
 10
3.014445888
 20
23.3627766138
 30
0.0
  0
SPLINE
  5
30A
100
AcDbEntity
  8
RACCORDO
100
AcDbSpline
 62
250
  6
CONTINUOUS
 70
0
 71
3
 72
9
 73
5
 74
0
 42
0.0000001
 43
0.0000001
 44
0.0000000001
 40
0.0
 40
0.0
 40
0.0
 40
0.0
 40
0.2322718799
 40
1.0
 40
1.0
 40
1.0
 40
1.0
 10
-3.3787772102
 20
16.4284236634
 30
0.0
 10
-3.3661609372
 20
16.4211398298
 30
0.0
 10
-3.313717574
 20
16.3865561273
 30
0.0
 10
-3.2687130165
 20
16.3414112506
 30
0.0
 10
-3.2385941487
 20
16.3038425366
 30
0.0
  0
SPLINE
  5
30B
100
AcDbEntity
  8
RACCORDO
100
AcDbSpline
 62
250
  6
CONTINUOUS
 70
0
 71
3
 72
9
 73
5
 74
0
 42
0.0000001
 43
0.0000001
 44
0.0000000001
 40
0.0
 40
0.0
 40
0.0
 40
0.0
 40
0.7532210279
 40
1.0
 40
1.0
 40
1.0
 40
1.0
 10
-3.2385941487
 20
16.3038425366
 30
0.0
 10
-3.2005144863
 20
16.2563439401
 30
0.0
 10
-3.1583548669
 20
16.1858347265
 30
0.0
 10
-3.1295885675
 20
16.1102572322
 30
0.0
 10
-3.1233942893
 20
16.0912977752
 30
0.0
  0
SPLINE
  5
30C
100
AcDbEntity
  8
RACCORDO
100
AcDbSpline
 62
250
  6
CONTINUOUS
 70
0
 71
3
 72
9
 73
5
 74
0
 42
0.0000001
 43
0.0000001
 44
0.0000000001
 40
0.0
 40
0.0
 40
0.0
 40
0.0
 40
0.264861292
 40
1.0
 40
1.0
 40
1.0
 40
1.0
 10
-3.1233942893
 20
16.0912977752
 30
0.0
 10
-3.1190148152
 20
16.0778930734
 30
0.0
 10
-3.1042061116
 20
16.0267694506
 30
0.0
 10
-3.0963538701
 20
15.9733722643
 30
0.0
 10
-3.0963523487
 20
15.9342313581
 30
0.0
  0
SPLINE
  5
30D
100
AcDbEntity
  8
RACCORDO
100
AcDbSpline
 62
250
  6
CONTINUOUS
 70
0
 71
3
 72
13
 73
9
 74
0
 42
0.0000001
 43
0.0000001
 44
0.0000000001
 40
0.0
 40
0.0
 40
0.0
 40
0.0
 40
0.3105473879
 40
0.5932867897
 40
0.7128166025
 40
0.8162562403
 40
0.9086732305
 40
1.0
 40
1.0
 40
1.0
 40
1.0
 10
-3.6351246646
 20
17.1550259805
 30
0.0
 10
-3.6541788076
 20
17.2015065955
 30
0.0
 10
-3.7038542342
 20
17.2851491824
 30
0.0
 10
-3.7901417717
 20
17.365601897
 30
0.0
 10
-3.8653751926
 20
17.3996411032
 30
0.0
 10
-3.9168571269
 20
17.406875803
 30
0.0
 10
-3.9632492909
 20
17.3950348549
 30
0.0
 10
-3.9866143407
 20
17.3748687573
 30
0.0
 10
-3.9956889693
 20
17.3632112911
 30
0.0
  0
SPLINE
  5
30E
100
AcDbEntity
  8
RACCORDO
100
AcDbSpline
 62
250
  6
CONTINUOUS
 70
0
 71
3
 72
9
 73
5
 74
0
 42
0.0000001
 43
0.0000001
 44
0.0000000001
 40
0.0
 40
0.0
 40
0.0
 40
0.0
 40
0.2528847062
 40
1.0
 40
1.0
 40
1.0
 40
1.0
 10
-3.1717540331
 20
18.7615276022
 30
0.0
 10
-3.16727138
 20
18.7533540153
 30
0.0
 10
-3.1502000927
 20
18.7206793689
 30
0.0
 10
-3.1357523037
 20
18.6866217254
 30
0.0
 10
-3.1266803837
 20
18.6606177798
 30
0.0
  0
SPLINE
  5
30F
100
AcDbEntity
  8
RACCORDO
100
AcDbSpline
 62
250
  6
CONTINUOUS
 70
0
 71
3
 72
9
 73
5
 74
0
 42
0.0000001
 43
0.0000001
 44
0.0000000001
 40
0.0
 40
0.0
 40
0.0
 40
0.0
 40
0.2654347255
 40
1.0
 40
1.0
 40
1.0
 40
1.0
 10
-3.1266803837
 20
18.6606177798
 30
0.0
 10
-3.1217896648
 20
18.6465989185
 30
0.0
 10
-3.1052602057
 20
18.593186188
 30
0.0
 10
-3.0963532605
 20
18.5370819513
 30
0.0
 10
-3.0963523487
 20
18.4959929727
 30
0.0
  0
SPLINE
  5
310
100
AcDbEntity
  8
RACCORDO
100
AcDbSpline
 62
250
  6
CONTINUOUS
 70
0
 71
3
 72
22
 73
18
 74
0
 42
0.0000001
 43
0.0000001
 44
0.0000000001
 40
0.0
 40
0.0
 40
0.0
 40
0.0
 40
0.047494112
 40
0.0926404921
 40
0.1388503937
 40
0.1891762928
 40
0.2454622803
 40
0.3082547463
 40
0.3770774509
 40
0.4507368627
 40
0.5275690379
 40
0.605637876
 40
0.6829075821
 40
0.757406414
 40
0.8273959527
 40
0.8915620735
 40
1.0
 40
1.0
 40
1.0
 40
1.0
 10
-1.8182457103
 20
18.0521775716
 30
0.0
 10
-1.7242352981
 20
18.0502544755
 30
0.0
 10
-1.5385318593
 20
18.0715596109
 30
0.0
 10
-1.286579012
 20
18.1947275001
 30
0.0
 10
-1.0888513512
 20
18.4010877712
 30
0.0
 10
-0.9538729091
 20
18.6761298087
 30
0.0
 10
-0.8830303377
 20
19.0066303162
 30
0.0
 10
-0.8765820994
 20
19.3804555763
 30
0.0
 10
-0.9338537111
 20
19.7842456429
 30
0.0
 10
-1.0524380452
 20
20.2031566955
 30
0.0
 10
-1.2277982244
 20
20.6214309824
 30
0.0
 10
-1.4532208829
 20
21.0231383475
 30
0.0
 10
-1.7201734099
 20
21.392952964
 30
0.0
 10
-2.0181856199
 20
21.7166727023
 30
0.0
 10
-2.3370654089
 20
21.9823563222
 30
0.0
 10
-2.74759687
 20
22.2308680652
 30
0.0
 10
-3.0916078778
 20
22.3310253568
 30
0.0
 10
-3.3062090722
 20
22.3249127666
 30
0.0
  0
SPLINE
  5
311
100
AcDbEntity
  8
RACCORDO
100
AcDbSpline
 62
250
  6
CONTINUOUS
 70
0
 71
3
 72
11
 73
7
 74
0
 42
0.0000001
 43
0.0000001
 44
0.0000000001
 40
0.0
 40
0.0
 40
0.0
 40
0.0
 40
0.2932109599
 40
0.5433974483
 40
0.7683398803
 40
1.0
 40
1.0
 40
1.0
 40
1.0
 10
-1.9782048434
 20
17.8503886168
 30
0.0
 10
-1.9782066308
 20
17.8786237473
 30
0.0
 10
-1.9724804234
 20
17.931355606
 30
0.0
 10
-1.940750589
 20
18.0002836016
 30
0.0
 10
-1.8857581313
 20
18.0449049734
 30
0.0
 10
-1.8405490925
 20
18.052632059
 30
0.0
 10
-1.8182457103
 20
18.0521775716
 30
0.0
  0
SPLINE
  5
312
100
AcDbEntity
  8
RACCORDO
100
AcDbSpline
 62
250
  6
CONTINUOUS
 70
0
 71
3
 72
13
 73
9
 74
0
 42
0.0000001
 43
0.0000001
 44
0.0000000001
 40
0.0
 40
0.0
 40
0.0
 40
0.0
 40
0.3105483921
 40
0.5932878276
 40
0.7128174472
 40
0.816256861
 40
0.9086734872
 40
1.0
 40
1.0
 40
1.0
 40
1.0
 10
-1.0788682228
 20
15.6790755485
 30
0.0
 10
-1.097922428
 20
15.7255563151
 30
0.0
 10
-1.1475979824
 20
15.8091990464
 30
0.0
 10
-1.2338857325
 20
15.8896517362
 30
0.0
 10
-1.309119156
 20
15.9236908238
 30
0.0
 10
-1.3606009841
 20
15.9309253255
 30
0.0
 10
-1.406992999
 20
15.9190843744
 30
0.0
 10
-1.4303579241
 20
15.8989182928
 30
0.0
 10
-1.4394325276
 20
15.8872608591
 30
0.0
  0
SPLINE
  5
313
100
AcDbEntity
  8
RACCORDO
100
AcDbSpline
 62
250
  6
CONTINUOUS
 70
0
 71
3
 72
15
 73
11
 74
0
 42
0.0000001
 43
0.0000001
 44
0.0000000001
 40
0.0
 40
0.0
 40
0.0
 40
0.0
 40
0.1450208184
 40
0.2751959265
 40
0.3922891754
 40
0.5014159101
 40
0.6100808421
 40
0.7261253624
 40
0.8553362305
 40
1.0
 40
1.0
 40
1.0
 40
1.0
 10
-1.9782048434
 20
15.2886270022
 30
0.0
 10
-1.9782036001
 20
15.3090461277
 30
0.0
 10
-1.9751717205
 20
15.3479196228
 30
0.0
 10
-1.9598271114
 20
15.4014553887
 30
0.0
 10
-1.933893278
 20
15.4452158341
 30
0.0
 10
-1.8977492008
 20
15.4768923846
 30
0.0
 10
-1.8530066253
 20
15.4941246764
 30
0.0
 10
-1.8024611924
 20
15.4961194041
 30
0.0
 10
-1.7485150082
 20
15.4834835019
 30
0.0
 10
-1.7134191581
 20
15.4668679123
 30
0.0
 10
-1.6957799819
 20
15.4566821567
 30
0.0
  0
SPLINE
  5
314
100
AcDbEntity
  8
RACCORDO
100
AcDbSpline
 62
250
  6
CONTINUOUS
 70
0
 71
3
 72
11
 73
7
 74
0
 42
0.0000001
 43
0.0000001
 44
0.0000000001
 40
0.0
 40
0.0
 40
0.0
 40
0.0
 40
0.2375879084
 40
0.5006721007
 40
0.763100608
 40
1.0
 40
1.0
 40
1.0
 40
1.0
 10
-1.6957799819
 20
-19.3240614041
 30
0.0
 10
-1.7362494328
 20
-19.3007065265
 30
0.0
 10
-1.8125882083
 20
-19.2359023993
 30
0.0
 10
-1.9010979639
 20
-19.1133367324
 30
0.0
 10
-1.961154368
 20
-18.9747342714
 30
0.0
 10
-1.9782008787
 20
-18.8764587043
 30
0.0
 10
-1.9782048434
 20
-18.8298690988
 30
0.0
  0
SPLINE
  5
315
100
AcDbEntity
  8
RACCORDO
100
AcDbSpline
 62
250
  6
CONTINUOUS
 70
0
 71
3
 72
13
 73
9
 74
0
 42
0.0000001
 43
0.0000001
 44
0.0000000001
 40
0.0
 40
0.0
 40
0.0
 40
0.0
 40
0.3157576292
 40
0.4574799344
 40
0.5856148718
 40
0.8021561602
 40
0.9004602313
 40
1.0
 40
1.0
 40
1.0
 40
1.0
 10
-1.366723265
 20
-20.174669376
 30
0.0
 10
-1.3443264247
 20
-20.2028179503
 30
0.0
 10
-1.3072248865
 20
-20.2404818968
 30
0.0
 10
-1.2508173338
 20
-20.2767079031
 30
0.0
 10
-1.1997851514
 20
-20.2983557486
 30
0.0
 10
-1.1464968473
 20
-20.3031445023
 30
0.0
 10
-1.1025156723
 20
-20.2836440754
 30
0.0
 10
-1.0858338404
 20
-20.2677972163
 30
0.0
 10
-1.0788682228
 20
-20.2588490318
 30
0.0
  0
SPLINE
  5
316
100
AcDbEntity
  8
RACCORDO
100
AcDbSpline
 62
250
  6
CONTINUOUS
 70
0
 71
3
 72
9
 73
5
 74
0
 42
0.0000001
 43
0.0000001
 44
0.0000000001
 40
0.0
 40
0.0
 40
0.0
 40
0.0
 40
0.2448839263
 40
1.0
 40
1.0
 40
1.0
 40
1.0
 10
-3.0963523487
 20
-20.5179296354
 30
0.0
 10
-3.0810561218
 20
-20.5216795567
 30
0.0
 10
-3.0188084879
 20
-20.5378642409
 30
0.0
 10
-2.9574548011
 20
-20.5574438492
 30
0.0
 10
-2.9117579345
 20
-20.5738823172
 30
0.0
  0
SPLINE
  5
317
100
AcDbEntity
  8
RACCORDO
100
AcDbSpline
 62
250
  6
CONTINUOUS
 70
0
 71
3
 72
9
 73
5
 74
0
 42
0.0000001
 43
0.0000001
 44
0.0000000001
 40
0.0
 40
0.0
 40
0.0
 40
0.0
 40
0.2407252605
 40
1.0
 40
1.0
 40
1.0
 40
1.0
 10
-2.9117579345
 20
-20.5738823172
 30
0.0
 10
-2.8804976131
 20
-20.5851275475
 30
0.0
 10
-2.7518122273
 20
-20.6350837391
 30
0.0
 10
-2.6280228522
 20
-20.6973120647
 30
0.0
 10
-2.5372785961
 20
-20.7497066609
 30
0.0
  0
SPLINE
  5
318
100
AcDbEntity
  8
RACCORDO
100
AcDbSpline
 62
250
  6
CONTINUOUS
 70
0
 71
3
 72
22
 73
18
 74
0
 42
0.0000001
 43
0.0000001
 44
0.0000000001
 40
0.0
 40
0.0
 40
0.0
 40
0.0
 40
0.0686376871
 40
0.1419568756
 40
0.2960854862
 40
0.3734386063
 40
0.4484096821
 40
0.5193236398
 40
0.5848531677
 40
0.6442132008
 40
0.6974060898
 40
0.7454974571
 40
0.7907605371
 40
0.8363225706
 40
0.8852094726
 40
0.9394889731
 40
1.0
 40
1.0
 40
1.0
 40
1.0
 10
-2.4376439499
 20
21.774130329
 30
0.0
 10
-2.3428183506
 20
21.7116994236
 30
0.0
 10
-2.1568183305
 20
21.5667612906
 30
0.0
 10
-1.8127585842
 20
21.2169462012
 30
0.0
 10
-1.5249087621
 20
20.7967259056
 30
0.0
 10
-1.309313326
 20
20.3371821235
 30
0.0
 10
-1.1913124221
 20
19.9863100463
 30
0.0
 10
-1.1215742643
 20
19.6426205865
 30
0.0
 10
-1.1026384896
 20
19.3180152107
 30
0.0
 10
-1.1355624271
 20
19.0235652916
 30
0.0
 10
-1.2203266602
 20
18.7691535458
 30
0.0
 10
-1.3563496664
 20
18.5643104458
 30
0.0
 10
-1.5407172294
 20
18.4199682722
 30
0.0
 10
-1.7640340825
 20
18.3456504053
 30
0.0
 10
-2.0133288552
 20
18.3432029793
 30
0.0
 10
-2.2782053313
 20
18.4091402676
 30
0.0
 10
-2.4505996225
 20
18.4915455971
 30
0.0
 10
-2.5372785961
 20
18.5415929501
 30
0.0
  0
SPLINE
  5
319
100
AcDbEntity
  8
RACCORDO
100
AcDbSpline
 62
250
  6
CONTINUOUS
 70
0
 71
3
 72
23
 73
19
 74
0
 42
0.0000001
 43
0.0000001
 44
0.0000000001
 40
0.0
 40
0.0
 40
0.0
 40
0.0
 40
0.0665850379
 40
0.1384369908
 40
0.2140621725
 40
0.2916573764
 40
0.3692512803
 40
0.4448764417
 40
0.5167219948
 40
0.5833072895
 40
0.6436848904
 40
0.6976972688
 40
0.7462779724
 40
0.7916491086
 40
0.837021511
 40
0.8856032265
 40
0.9396215741
 40
1.0
 40
1.0
 40
1.0
 40
1.0
 10
-2.5372785961
 20
18.5415929501
 30
0.0
 10
-2.6349237961
 20
18.5979720648
 30
0.0
 10
-2.8278016557
 20
18.7331832314
 30
0.0
 10
-3.0931897827
 20
18.9814807502
 30
0.0
 10
-3.3377615746
 20
19.2749912063
 30
0.0
 10
-3.5523047145
 20
19.6026846482
 30
0.0
 10
-3.7288269435
 20
19.9523395976
 30
0.0
 10
-3.8607196888
 20
20.3108612306
 30
0.0
 10
-3.9430536333
 20
20.664929389
 30
0.0
 10
-3.9727065036
 20
21.0015800739
 30
0.0
 10
-3.9482492165
 20
21.3088077876
 30
0.0
 10
-3.8695003223
 20
21.575880676
 30
0.0
 10
-3.736861177
 20
21.7926730212
 30
0.0
 10
-3.5527626313
 20
21.9475171467
 30
0.0
 10
-3.3266072516
 20
22.0295053954
 30
0.0
 10
-3.0725133346
 20
22.0359520916
 30
0.0
 10
-2.8018949719
 20
21.9706359377
 30
0.0
 10
-2.6258219635
 20
21.8868178099
 30
0.0
 10
-2.5372785961
 20
21.8356939792
 30
0.0
  0
SPLINE
  5
31A
100
AcDbEntity
  8
RACCORDO
100
AcDbSpline
 62
250
  6
CONTINUOUS
 70
0
 71
3
 72
8
 73
4
 74
0
 42
0.0000001
 43
0.0000001
 44
0.0000000001
 40
0.0
 40
0.0
 40
0.0
 40
0.0
 40
1.0
 40
1.0
 40
1.0
 40
1.0
 10
2.7107122453
 20
16.1173593019
 30
0.0
 10
2.7423329084
 20
16.1289192128
 30
0.0
 10
2.7726865115
 20
16.1441406637
 30
0.0
 10
2.8016673896
 20
16.1612756156
 30
0.0
  0
SPLINE
  5
31B
100
AcDbEntity
  8
RACCORDO
100
AcDbSpline
 62
250
  6
CONTINUOUS
 70
0
 71
3
 72
10
 73
6
 74
0
 42
0.0000001
 43
0.0000001
 44
0.0000000001
 40
0.0
 40
0.0
 40
0.0
 40
0.0
 40
0.2239738615
 40
0.4609725334
 40
1.0
 40
1.0
 40
1.0
 40
1.0
 10
-0.6721018568
 20
14.8807374681
 30
0.0
 10
-0.6627746931
 20
14.8841461469
 30
0.0
 10
-0.644670633
 20
14.8945809079
 30
0.0
 10
-0.6148709976
 20
14.928178716
 30
0.0
 10
-0.6039379966
 20
14.9625525727
 30
0.0
 10
-0.6005861235
 20
14.9862156571
 30
0.0
  0
LINE
  5
31C
100
AcDbEntity
  8
RACCORDO
100
AcDbLine
 62
7
  6
CONTINUOUS
 10
3.2914492287
 20
-21.7485835964
 11
-1.4436039247
 21
-24.4199262168
  0
SPLINE
  5
31D
100
AcDbEntity
  8
RACCORDO
100
AcDbSpline
 62
250
  6
CONTINUOUS
 70
0
 71
3
 72
14
 73
10
 74
0
 42
0.0000001
 43
0.0000001
 44
0.0000000001
 40
0.0
 40
0.0
 40
0.0
 40
0.0
 40
0.3011860703
 40
0.4423171234
 40
0.5742505624
 40
0.6956554313
 40
0.806184064
 40
0.9068335439
 40
1.0
 40
1.0
 40
1.0
 40
1.0
 10
-1.4436039247
 20
-22.6878148739
 30
0.0
 10
-1.3625036066
 20
-22.8536838008
 30
0.0
 10
-1.2654704195
 20
-23.1095895601
 30
0.0
 10
-1.1964307109
 20
-23.4554004784
 30
0.0
 10
-1.1784018567
 20
-23.6972792562
 30
0.0
 10
-1.1936978603
 20
-23.9206941876
 30
0.0
 10
-1.2422493087
 20
-24.1199706708
 30
0.0
 10
-1.3235101677
 20
-24.2896063101
 30
0.0
 10
-1.4009501882
 20
-24.3819449162
 30
0.0
 10
-1.4436039247
 20
-24.4199262168
 30
0.0
  0
SPLINE
  5
31E
100
AcDbEntity
  8
RACCORDO
100
AcDbSpline
 62
7
  6
CONTINUOUS
 70
0
 71
3
 72
8
 73
4
 74
0
 42
0.0000001
 43
0.0000001
 44
0.0000000001
 40
0.0
 40
0.0
 40
0.0
 40
0.0
 40
1.0
 40
1.0
 40
1.0
 40
1.0
 10
2.6968996897
 20
-20.3302645159
 30
0.0
 10
1.3169121815
 20
-21.116431318
 30
0.0
 10
-0.0632303488
 20
-21.902326138
 30
0.0
 10
-1.4436039247
 20
-22.6878148739
 30
0.0
  0
SPLINE
  5
31F
100
AcDbEntity
  8
RACCORDO
100
AcDbSpline
 62
250
  6
CONTINUOUS
 70
0
 71
3
 72
9
 73
5
 74
0
 42
0.0000001
 43
0.0000001
 44
0.0000000001
 40
0.0
 40
0.0
 40
0.0
 40
0.0
 40
0.5199961338
 40
1.0
 40
1.0
 40
1.0
 40
1.0
 10
0.1858149442
 20
-20.7793169358
 30
0.0
 10
0.1096361549
 20
-20.6968504145
 30
0.0
 10
-0.0471418799
 20
-20.5473535613
 30
0.0
 10
-0.2246943026
 20
-20.4225240041
 30
0.0
 10
-0.3146955053
 20
-20.3711473181
 30
0.0
  0
SPLINE
  5
320
100
AcDbEntity
  8
RACCORDO
100
AcDbSpline
 62
7
  6
CONTINUOUS
 70
0
 71
3
 72
8
 73
4
 74
0
 42
0.0000001
 43
0.0000001
 44
0.0000000001
 40
0.0
 40
0.0
 40
0.0
 40
0.0
 40
1.0
 40
1.0
 40
1.0
 40
1.0
 10
2.4647786956
 20
-19.928219161
 30
0.0
 10
1.0939880455
 20
-20.7303154285
 30
0.0
 10
-0.2766445575
 20
-21.5326819314
 30
0.0
 10
-1.6470409822
 20
-22.3354515546
 30
0.0
  0
SPLINE
  5
321
100
AcDbEntity
  8
RACCORDO
100
AcDbSpline
 62
250
  6
CONTINUOUS
 70
0
 71
3
 72
14
 73
10
 74
0
 42
0.0000001
 43
0.0000001
 44
0.0000000001
 40
0.0
 40
0.0
 40
0.0
 40
0.0
 40
0.0931662737
 40
0.1938172074
 40
0.3043479042
 40
0.4257545766
 40
0.5576889246
 40
0.698819569
 40
1.0
 40
1.0
 40
1.0
 40
1.0
 10
-3.1471417344
 20
-21.4693121809
 30
0.0
 10
-3.092918268
 20
-21.4513687837
 30
0.0
 10
-2.9742236102
 20
-21.430484242
 30
0.0
 10
-2.7866768619
 20
-21.4449432058
 30
0.0
 10
-2.5898155057
 20
-21.5025480918
 30
0.0
 10
-2.388677927
 20
-21.6010205759
 30
0.0
 10
-2.1882134663
 20
-21.7375833027
 30
0.0
 10
-1.9232474242
 20
-21.9702882687
 30
0.0
 10
-1.750139343
 20
-22.1822792838
 30
0.0
 10
-1.6470409822
 20
-22.3354515546
 30
0.0
  0
LINE
  5
322
100
AcDbEntity
  8
RACCORDO
100
AcDbLine
 62
250
  6
CONTINUOUS
 10
4.2509465033
 20
-1.2254152796
 11
2.9658019194
 21
-1.9564745409
  0
LINE
  5
323
100
AcDbEntity
  8
RACCORDO
100
AcDbLine
 62
250
  6
CONTINUOUS
 10
2.9658019194
 20
3.644689474
 11
4.2509465033
 21
4.3720047906
  0
SPLINE
  5
324
100
AcDbEntity
  8
RACCORDO
100
AcDbSpline
 62
250
  6
CONTINUOUS
 70
0
 71
3
 72
9
 73
5
 74
0
 42
0.0000001
 43
0.0000001
 44
0.0000000001
 40
0.0
 40
0.0
 40
0.0
 40
0.0
 40
0.5196037867
 40
1.0
 40
1.0
 40
1.0
 40
1.0
 10
2.9658019194
 20
20.0874028076
 30
0.0
 10
2.965807464
 20
20.1758107479
 30
0.0
 10
2.9497171674
 20
20.3462179164
 30
0.0
 10
2.9085410672
 20
20.5117557301
 30
0.0
 10
2.8845843384
 20
20.5899030758
 30
0.0
  0
SPLINE
  5
325
100
AcDbEntity
  8
RACCORDO
100
AcDbSpline
 62
250
  6
CONTINUOUS
 70
0
 71
3
 72
9
 73
5
 74
0
 42
0.0000001
 43
0.0000001
 44
0.0000000001
 40
0.0
 40
0.0
 40
0.0
 40
0.0
 40
0.2352540599
 40
1.0
 40
1.0
 40
1.0
 40
1.0
 10
2.6312367809
 20
3.2564542182
 30
0.0
 10
2.6401840932
 20
3.285974329
 30
0.0
 10
2.6726873136
 20
3.4131272086
 30
0.0
 10
2.6841958701
 20
3.5451262839
 30
0.0
 10
2.6841987103
 20
3.6453989294
 30
0.0
  0
SPLINE
  5
326
100
AcDbEntity
  8
RACCORDO
100
AcDbSpline
 62
250
  6
CONTINUOUS
 70
0
 71
3
 72
11
 73
7
 74
0
 42
0.0000001
 43
0.0000001
 44
0.0000000001
 40
0.0
 40
0.0
 40
0.0
 40
0.0
 40
0.275894787
 40
0.5355792793
 40
0.777162705
 40
1.0
 40
1.0
 40
1.0
 40
1.0
 10
2.6312367809
 20
-1.5056612658
 30
0.0
 10
2.5343311036
 20
-1.0740577149
 30
0.0
 10
2.386014838
 20
-0.2264749596
 30
0.0
 10
2.3057017501
 20
1.0197525701
 30
0.0
 10
2.3752375933
 20
2.1818357694
 30
0.0
 10
2.5275962993
 20
2.9145362757
 30
0.0
 10
2.6312367809
 20
3.2564542182
 30
0.0
  0
SPLINE
  5
327
100
AcDbEntity
  8
RACCORDO
100
AcDbSpline
 62
250
  6
CONTINUOUS
 70
0
 71
3
 72
9
 73
5
 74
0
 42
0.0000001
 43
0.0000001
 44
0.0000000001
 40
0.0
 40
0.0
 40
0.0
 40
0.0
 40
0.2385492339
 40
1.0
 40
1.0
 40
1.0
 40
1.0
 10
2.6841987103
 20
-1.9557650855
 30
0.0
 10
2.6841976884
 20
-1.9196854485
 30
0.0
 10
2.6793716816
 20
-1.7684494614
 30
0.0
 10
2.6564650385
 20
-1.6180305016
 30
0.0
 10
2.6312367809
 20
-1.5056612658
 30
0.0
  0
SPLINE
  5
328
100
AcDbEntity
  8
RACCORDO
100
AcDbSpline
 62
250
  6
CONTINUOUS
 70
0
 71
3
 72
11
 73
7
 74
0
 42
0.0000001
 43
0.0000001
 44
0.0000000001
 40
0.0
 40
0.0
 40
0.0
 40
0.0
 40
0.2587125886
 40
0.5053896779
 40
0.7492373184
 40
1.0
 40
1.0
 40
1.0
 40
1.0
 10
1.8685683512
 20
19.6915639694
 30
0.0
 10
1.9497215077
 20
19.6909586411
 30
0.0
 10
2.1090781219
 20
19.7056098695
 30
0.0
 10
2.3338658757
 20
19.7817246109
 30
0.0
 10
2.5307250079
 20
19.9099097499
 30
0.0
 10
2.6372946613
 20
20.0249644717
 30
0.0
 10
2.6841987103
 20
20.0881123886
 30
0.0
  0
SPLINE
  5
329
100
AcDbEntity
  8
ASSI
100
AcDbSpline
 62
7
  6
CONTINUOUS
 70
0
 71
3
 72
12
 73
8
 74
0
 42
0.0000001
 43
0.0000001
 44
0.0000000001
 40
0.0
 40
0.0
 40
0.0
 40
0.0
 40
0.3005694623
 40
0.5728677634
 40
0.6945529624
 40
0.805829028
 40
1.0
 40
1.0
 40
1.0
 40
1.0
 10
2.4885155651
 20
17.8995601609
 30
0.0
 10
2.4590226674
 20
17.9421297662
 30
0.0
 10
2.3953340794
 20
18.0183919778
 30
0.0
 10
2.3004821448
 20
18.0933723882
 30
0.0
 10
2.22200382
 20
18.1319642384
 30
0.0
 10
2.1515332913
 20
18.1534611615
 30
0.0
 10
2.0963951695
 20
18.1538019036
 30
0.0
 10
2.0642514964
 20
18.1445249169
 30
0.0
  0
SPLINE
  5
32A
100
AcDbEntity
  8
DRAFT
100
AcDbSpline
 62
7
  6
CONTINUOUS
 70
0
 71
3
 72
11
 73
7
 74
0
 42
0.0000001
 43
0.0000001
 44
0.0000000001
 40
0.0
 40
0.0
 40
0.0
 40
0.0
 40
0.2324763361
 40
0.5000070343
 40
0.7675337597
 40
1.0
 40
1.0
 40
1.0
 40
1.0
 10
2.4647786956
 20
-19.928219161
 30
0.0
 10
2.4997236595
 20
-19.9428422839
 30
0.0
 10
2.5670323832
 20
-19.992561545
 30
0.0
 10
2.6432219223
 20
-20.0932286902
 30
0.0
 10
2.692307076
 20
-20.2095426768
 30
0.0
 10
2.7017095062
 20
-20.2926915567
 30
0.0
 10
2.6968996897
 20
-20.3302645159
 30
0.0
  0
SPLINE
  5
32B
100
AcDbEntity
  8
DRAFT
100
AcDbSpline
 62
7
  6
CONTINUOUS
 70
0
 71
3
 72
9
 73
5
 74
0
 42
0.0000001
 43
0.0000001
 44
0.0000000001
 40
0.0
 40
0.0
 40
0.0
 40
0.0
 40
0.2460879156
 40
1.0
 40
1.0
 40
1.0
 40
1.0
 10
2.2106214052
 20
-19.6075315473
 30
0.0
 10
2.2333444463
 20
-19.6322580631
 30
0.0
 10
2.3237796502
 20
-19.734472521
 30
0.0
 10
2.4066890613
 20
-19.8433071179
 30
0.0
 10
2.4647786956
 20
-19.928219161
 30
0.0
  0
LINE
  5
32C
100
AcDbEntity
  8
RACCORDO
100
AcDbLine
 62
7
  6
CONTINUOUS
 10
2.2106214052
 20
-19.6075315473
 11
0.1858149442
 21
-20.7793169358
  0
SPLINE
  5
32D
100
AcDbEntity
  8
RACCORDO
100
AcDbSpline
 62
250
  6
CONTINUOUS
 70
0
 71
3
 72
17
 73
13
 74
0
 42
0.0000001
 43
0.0000001
 44
0.0000000001
 40
0.0
 40
0.0
 40
0.0
 40
0.0
 40
0.1287469942
 40
0.2704054324
 40
0.417622452
 40
0.5619951422
 40
0.6956413204
 40
0.8128303004
 40
0.8647491166
 40
0.9125404396
 40
0.9571415094
 40
1.0
 40
1.0
 40
1.0
 40
1.0
 10
-2.3965977169
 20
18.7861121435
 30
0.0
 10
-2.5312837457
 20
18.8638781684
 30
0.0
 10
-2.7927024909
 20
19.0651202988
 30
0.0
 10
-3.1272123965
 20
19.4459358078
 30
0.0
 10
-3.4024201403
 20
19.8940210159
 30
0.0
 10
-3.5955203694
 20
20.3728827792
 30
0.0
 10
-3.6910416886
 20
20.8435036526
 30
0.0
 10
-3.6818170102
 20
21.2141545518
 30
0.0
 10
-3.6126175771
 20
21.4681365893
 30
0.0
 10
-3.5357234862
 20
21.6259540617
 30
0.0
 10
-3.432960359
 20
21.7548072084
 30
0.0
 10
-3.3476930047
 20
21.8194566413
 30
0.0
 10
-3.3027294432
 20
21.8451210975
 30
0.0
  0
SPLINE
  5
32E
100
AcDbEntity
  8
RACCORDO
100
AcDbSpline
 62
7
  6
CONTINUOUS
 70
0
 71
3
 72
9
 73
5
 74
0
 42
0.0000001
 43
0.0000001
 44
0.0000000001
 40
0.0
 40
0.0
 40
0.0
 40
0.0
 40
0.5254407012
 40
1.0
 40
1.0
 40
1.0
 40
1.0
 10
2.7374990645
 20
20.5547853268
 30
0.0
 10
2.764185289
 20
20.5549006414
 30
0.0
 10
2.8150819273
 20
20.5606739423
 30
0.0
 10
2.863561489
 20
20.5781149767
 30
0.0
 10
2.8845843384
 20
20.5899030757
 30
0.0
  0
LINE
  5
32F
100
AcDbEntity
  8
RACCORDO
100
AcDbLine
 62
250
  6
CONTINUOUS
 10
1.7534343405
 20
20.6109189732
 11
2.742888382
 21
21.1724014831
  0
SPLINE
  5
330
100
AcDbEntity
  8
RACCORDO
100
AcDbSpline
 62
250
  6
CONTINUOUS
 70
0
 71
3
 72
9
 73
5
 74
0
 42
0.0000001
 43
0.0000001
 44
0.0000000001
 40
0.0
 40
0.0
 40
0.0
 40
0.0
 40
0.2558722298
 40
1.0
 40
1.0
 40
1.0
 40
1.0
 10
0.4325698849
 20
-20.3320202652
 30
0.0
 10
0.4112879985
 20
-20.3110042042
 30
0.0
 10
0.3268765513
 20
-20.23013895
 30
0.0
 10
0.2374868307
 20
-20.1544152223
 30
0.0
 10
0.1682238025
 20
-20.1017960775
 30
0.0
  0
SPLINE
  5
331
100
AcDbEntity
  8
RACCORDO
100
AcDbSpline
 62
250
  6
CONTINUOUS
 70
0
 71
3
 72
9
 73
5
 74
0
 42
0.0000001
 43
0.0000001
 44
0.0000000001
 40
0.0
 40
0.0
 40
0.0
 40
0.0
 40
0.4496863183
 40
1.0
 40
1.0
 40
1.0
 40
1.0
 10
2.3710523452
 20
21.4910624707
 30
0.0
 10
2.3576547332
 20
21.4987974037
 30
0.0
 10
2.3210777692
 20
21.504436074
 30
0.0
 10
2.2882261256
 20
21.490971333
 30
0.0
 10
2.2717879931
 20
21.4815795439
 30
0.0
  0
SPLINE
  5
332
100
AcDbEntity
  8
RACCORDO
100
AcDbSpline
 62
250
  6
CONTINUOUS
 70
0
 71
3
 72
9
 73
5
 74
0
 42
0.0000001
 43
0.0000001
 44
0.0000000001
 40
0.0
 40
0.0
 40
0.0
 40
0.0
 40
0.449752907
 40
1.0
 40
1.0
 40
1.0
 40
1.0
 10
2.9129882627
 20
21.222082069
 30
0.0
 10
2.8996005955
 20
21.2298109025
 30
0.0
 10
2.8630614098
 20
21.2354550661
 30
0.0
 10
2.8302328128
 20
21.2220196652
 30
0.0
 10
2.8138067405
 20
21.2126458012
 30
0.0
  0
SPLINE
  5
333
100
AcDbEntity
  8
RACCORDO
100
AcDbSpline
 62
7
  6
CONTINUOUS
 70
0
 71
3
 72
9
 73
5
 74
0
 42
0.0000001
 43
0.0000001
 44
0.0000000001
 40
0.0
 40
0.0
 40
0.0
 40
0.0
 40
0.4928585876
 40
1.0
 40
1.0
 40
1.0
 40
1.0
 10
-3.1549302051
 20
17.0410667209
 30
0.0
 10
-3.154930489
 20
17.0070109036
 30
0.0
 10
-3.1422019629
 20
16.9378790602
 30
0.0
 10
-3.1138737187
 20
16.8742935007
 30
0.0
 10
-3.0963523487
 20
16.8439455977
 30
0.0
  0
SPLINE
  5
334
100
AcDbEntity
  8
RACCORDO
100
AcDbSpline
 62
250
  6
CONTINUOUS
 70
0
 71
3
 72
11
 73
7
 74
0
 42
0.0000001
 43
0.0000001
 44
0.0000000001
 40
0.0
 40
0.0
 40
0.0
 40
0.0
 40
0.1948699742
 40
0.3632162248
 40
0.5886509954
 40
1.0
 40
1.0
 40
1.0
 40
1.0
 10
1.8261341579
 20
-19.2896007096
 30
0.0
 10
1.8305525276
 20
-19.2921515584
 30
0.0
 10
1.8393327719
 20
-19.2964108393
 30
0.0
 10
1.856108506
 20
-19.2940573115
 30
0.0
 10
1.8674519801
 20
-19.27382322
 30
0.0
 10
1.8683955794
 20
-19.257229777
 30
0.0
 10
1.8685577681
 20
-19.246461567
 30
0.0
  0
SPLINE
  5
335
100
AcDbEntity
  8
RACCORDO
100
AcDbSpline
 62
7
  6
CONTINUOUS
 70
0
 71
3
 72
9
 73
5
 74
0
 42
0.0000001
 43
0.0000001
 44
0.0000000001
 40
0.0
 40
0.0
 40
0.0
 40
0.0
 40
0.230482541
 40
1.0
 40
1.0
 40
1.0
 40
1.0
 10
-0.9884604891
 20
-20.3786806883
 30
0.0
 10
-0.9985705107
 20
-20.3728498147
 30
0.0
 10
-1.0391815706
 20
-20.3418293599
 30
0.0
 10
-1.0651203304
 20
-20.2953093737
 30
0.0
 10
-1.0788682228
 20
-20.2588490318
 30
0.0
  0
SPLINE
  5
336
100
AcDbEntity
  8
RACCORDO
100
AcDbSpline
 62
7
  6
CONTINUOUS
 70
0
 71
3
 72
9
 73
5
 74
0
 42
0.0000001
 43
0.0000001
 44
0.0000000001
 40
0.0
 40
0.0
 40
0.0
 40
0.0
 40
0.524758192
 40
1.0
 40
1.0
 40
1.0
 40
1.0
 10
-1.7824405686
 20
-24.5201001822
 30
0.0
 10
-1.7966614071
 20
-24.5028333565
 30
0.0
 10
-1.8129385468
 20
-24.4610560379
 30
0.0
 10
-1.8008632567
 20
-24.4129363489
 30
0.0
 10
-1.7851714559
 20
-24.4001235843
 30
0.0
  0
SPLINE
  5
337
100
AcDbEntity
  8
RACCORDO
100
AcDbSpline
 62
250
  6
CONTINUOUS
 70
0
 71
3
 72
11
 73
7
 74
0
 42
0.0000001
 43
0.0000001
 44
0.0000000001
 40
0.0
 40
0.0
 40
0.0
 40
0.0
 40
0.2758948193
 40
0.5355793158
 40
0.7771626718
 40
1.0
 40
1.0
 40
1.0
 40
1.0
 10
2.9069553312
 20
-1.4563591857
 30
0.0
 10
2.8119467585
 20
-1.0332050583
 30
0.0
 10
2.6665342626
 20
-0.2022153081
 30
0.0
 10
2.5877927454
 20
1.0196148508
 30
0.0
 10
2.6559682206
 20
2.1589479139
 30
0.0
 10
2.805343797
 20
2.8773043955
 30
0.0
 10
2.9069553312
 20
3.2125286838
 30
0.0
  0
SPLINE
  5
338
100
AcDbEntity
  8
RACCORDO
100
AcDbSpline
 62
7
  6
CONTINUOUS
 70
0
 71
3
 72
9
 73
5
 74
0
 42
0.0000001
 43
0.0000001
 44
0.0000000001
 40
0.0
 40
0.0
 40
0.0
 40
0.0
 40
0.230482541
 40
1.0
 40
1.0
 40
1.0
 40
1.0
 10
-3.5447169308
 20
-18.9027302562
 30
0.0
 10
-3.5548269525
 20
-18.8968993826
 30
0.0
 10
-3.5954380124
 20
-18.8658789278
 30
0.0
 10
-3.6213767722
 20
-18.8193589417
 30
0.0
 10
-3.6351246646
 20
-18.7828985998
 30
0.0
  0
SPLINE
  5
339
100
AcDbEntity
  8
RACCORDO
100
AcDbSpline
 62
250
  6
CONTINUOUS
 70
0
 71
3
 72
11
 73
7
 74
0
 42
0.0000001
 43
0.0000001
 44
0.0000000001
 40
0.0
 40
0.0
 40
0.0
 40
0.0
 40
0.1839266751
 40
0.4133849002
 40
0.6935582823
 40
1.0
 40
1.0
 40
1.0
 40
1.0
 10
-1.835883747
 20
-25.3965306586
 30
0.0
 10
-1.829430835
 20
-25.3928566646
 30
0.0
 10
-1.8184875994
 20
-25.3784178272
 30
0.0
 10
-1.8157590579
 20
-25.3497913639
 30
0.0
 10
-1.8227610764
 20
-25.3172572891
 30
0.0
 10
-1.8333002521
 20
-25.2957480789
 30
0.0
 10
-1.8399763605
 20
-25.285332279
 30
0.0
  0
SPLINE
  5
33A
100
AcDbEntity
  8
RACCORDO
100
AcDbSpline
 62
250
  6
CONTINUOUS
 70
0
 71
3
 72
11
 73
7
 74
0
 42
0.0000001
 43
0.0000001
 44
0.0000000001
 40
0.0
 40
0.0
 40
0.0
 40
0.0
 40
0.30102406
 40
0.5653355112
 40
0.794063996
 40
1.0
 40
1.0
 40
1.0
 40
1.0
 10
-1.4579546869
 20
-24.4267853363
 30
0.0
 10
-1.4548707327
 20
-24.4439463339
 30
0.0
 10
-1.4517695931
 20
-24.4767895538
 30
0.0
 10
-1.4576571348
 20
-24.5228814612
 30
0.0
 10
-1.4745239209
 20
-24.5605500199
 30
0.0
 10
-1.4937212165
 20
-24.5782420253
 30
0.0
 10
-1.5041142556
 20
-24.5840958313
 30
0.0
  0
SPLINE
  5
33B
100
AcDbEntity
  8
RACCORDO
100
AcDbSpline
 62
250
  6
CONTINUOUS
 70
0
 71
3
 72
11
 73
7
 74
0
 42
0.0000001
 43
0.0000001
 44
0.0000000001
 40
0.0
 40
0.0
 40
0.0
 40
0.0
 40
0.2289702654
 40
0.5000076072
 40
0.7710405276
 40
1.0
 40
1.0
 40
1.0
 40
1.0
 10
-1.661963347
 20
-22.3434074315
 30
0.0
 10
-1.6302407748
 20
-22.3532431653
 30
0.0
 10
-1.567854077
 20
-22.3953082873
 30
0.0
 10
-1.4987833601
 20
-22.4847678041
 30
0.0
 10
-1.4558448038
 20
-22.5893129262
 30
0.0
 10
-1.4506100752
 20
-22.6643722801
 30
0.0
 10
-1.4579546869
 20
-22.6967607957
 30
0.0
  0
SPLINE
  5
33C
100
AcDbEntity
  8
RACCORDO
100
AcDbSpline
 62
7
  6
CONTINUOUS
 70
0
 71
3
 72
9
 73
5
 74
0
 42
0.0000001
 43
0.0000001
 44
0.0000000001
 40
0.0
 40
0.0
 40
0.0
 40
0.0
 40
0.4143563575
 40
1.0
 40
1.0
 40
1.0
 40
1.0
 10
-4.0105411814
 20
-18.6304674781
 30
0.0
 10
-4.0133554754
 20
-18.6251039183
 30
0.0
 10
-4.0136699375
 20
-18.6092957157
 30
0.0
 10
-4.0077768258
 20
-18.5958419527
 30
0.0
 10
-4.0037955675
 20
-18.5882630792
 30
0.0
  0
SPLINE
  5
33D
100
AcDbEntity
  8
RACCORDO
100
AcDbSpline
 62
7
  6
CONTINUOUS
 70
0
 71
3
 72
9
 73
5
 74
0
 42
0.0000001
 43
0.0000001
 44
0.0000000001
 40
0.0
 40
0.0
 40
0.0
 40
0.0
 40
0.2388114185
 40
1.0
 40
1.0
 40
1.0
 40
1.0
 10
-4.0037955675
 20
-18.5882630792
 30
0.0
 10
-4.0032108847
 20
-18.587150055
 30
0.0
 10
-4.0006930742
 20
-18.5825259893
 30
0.0
 10
-3.9979146347
 20
-18.5780457619
 30
0.0
 10
-3.9956889693
 20
-18.5747132891
 30
0.0
  0
SPLINE
  5
33E
100
AcDbEntity
  8
RACCORDO
100
AcDbSpline
 62
250
  6
CONTINUOUS
 70
0
 71
3
 72
9
 73
5
 74
0
 42
0.0000001
 43
0.0000001
 44
0.0000000001
 40
0.0
 40
0.0
 40
0.0
 40
0.0
 40
0.4992560538
 40
1.0
 40
1.0
 40
1.0
 40
1.0
 10
-2.0178850027
 20
-25.3723034386
 30
0.0
 10
-2.0504524392
 20
-25.3534951957
 30
0.0
 10
-2.1094936928
 20
-25.305177069
 30
0.0
 10
-2.1583565998
 20
-25.2475931244
 30
0.0
 10
-2.180869672
 20
-25.2173277574
 30
0.0
  0
SPLINE
  5
33F
100
AcDbEntity
  8
RACCORDO
100
AcDbSpline
 62
7
  6
CONTINUOUS
 70
0
 71
3
 72
9
 73
5
 74
0
 42
0.0000001
 43
0.0000001
 44
0.0000000001
 40
0.0
 40
0.0
 40
0.0
 40
0.0
 40
0.2341506074
 40
1.0
 40
1.0
 40
1.0
 40
1.0
 10
-2.6327612674
 20
-24.5610192576
 30
0.0
 10
-2.6327637897
 20
-24.5715253469
 30
0.0
 10
-2.627261677
 20
-24.6164119761
 30
0.0
 10
-2.6029753545
 20
-24.6573769073
 30
0.0
 10
-2.5800415204
 20
-24.6829668424
 30
0.0
  0
SPLINE
  5
340
100
AcDbEntity
  8
RACCORDO
100
AcDbSpline
 62
7
  6
CONTINUOUS
 70
0
 71
3
 72
9
 73
5
 74
0
 42
0.0000001
 43
0.0000001
 44
0.0000000001
 40
0.0
 40
0.0
 40
0.0
 40
0.0
 40
0.4297602058
 40
1.0
 40
1.0
 40
1.0
 40
1.0
 10
-3.4041619053
 20
-23.3968545078
 30
0.0
 10
-3.3983845553
 20
-23.40836132
 30
0.0
 10
-3.3777999628
 20
-23.4310280363
 30
0.0
 10
-3.3553820691
 20
-23.450596585
 30
0.0
 10
-3.3430650657
 20
-23.4624360499
 30
0.0
  0
SPLINE
  5
341
100
AcDbEntity
  8
RACCORDO
100
AcDbSpline
 62
7
  6
CONTINUOUS
 70
0
 71
3
 72
9
 73
5
 74
0
 42
0.0000001
 43
0.0000001
 44
0.0000000001
 40
0.0
 40
0.0
 40
0.0
 40
0.0
 40
0.2375586526
 40
1.0
 40
1.0
 40
1.0
 40
1.0
 10
-3.3430650657
 20
-23.4624360499
 30
0.0
 10
-3.339347164
 20
-23.4660098061
 30
0.0
 10
-3.3239091782
 20
-23.4812551077
 30
0.0
 10
-3.3098175551
 20
-23.4980116077
 30
0.0
 10
-3.3007783217
 20
-23.5118765742
 30
0.0
  0
SPLINE
  5
342
100
AcDbEntity
  8
RACCORDO
100
AcDbSpline
 62
250
  6
CONTINUOUS
 70
0
 71
3
 72
13
 73
9
 74
0
 42
0.0000001
 43
0.0000001
 44
0.0000000001
 40
0.0
 40
0.0
 40
0.0
 40
0.0
 40
0.3058600572
 40
0.5819409299
 40
0.7029158231
 40
0.8113274962
 40
0.9089946585
 40
1.0
 40
1.0
 40
1.0
 40
1.0
 10
-0.8709939715
 20
15.8856618081
 30
0.0
 10
-0.9029396865
 20
15.9400483581
 30
0.0
 10
-0.9749950931
 20
16.0373032918
 30
0.0
 10
-1.087735692
 20
16.131761296
 30
0.0
 10
-1.1822783711
 20
16.1769544498
 30
0.0
 10
-1.248333592
 20
16.1932681274
 30
0.0
 10
-1.3103834345
 20
16.1924145989
 30
0.0
 10
-1.3480039274
 20
16.1796003563
 30
0.0
 10
-1.3644640664
 20
16.1705852562
 30
0.0
  0
SPLINE
  5
343
100
AcDbEntity
  8
RACCORDO
100
AcDbSpline
 62
250
  6
CONTINUOUS
 70
0
 71
3
 72
13
 73
9
 74
0
 42
0.0000001
 43
0.0000001
 44
0.0000000001
 40
0.0
 40
0.0
 40
0.0
 40
0.0
 40
0.3058600513
 40
0.5819409301
 40
0.7029158271
 40
0.8113274939
 40
0.9089946516
 40
1.0
 40
1.0
 40
1.0
 40
1.0
 10
-3.4272504133
 20
17.3616122401
 30
0.0
 10
-3.4591961276
 20
17.415998789
 30
0.0
 10
-3.5312515359
 20
17.5132537205
 30
0.0
 10
-3.6439921326
 20
17.6077117302
 30
0.0
 10
-3.738534814
 20
17.6529048791
 30
0.0
 10
-3.8045900322
 20
17.6692185633
 30
0.0
 10
-3.8666398735
 20
17.6683650277
 30
0.0
 10
-3.9042603679
 20
17.6555507891
 30
0.0
 10
-3.9207205081
 20
17.6465356883
 30
0.0
  0
SPLINE
  5
344
100
AcDbEntity
  8
RACCORDO
100
AcDbSpline
 62
7
  6
CONTINUOUS
 70
0
 71
3
 72
14
 73
10
 74
0
 42
0.0000001
 43
0.0000001
 44
0.0000000001
 40
0.0
 40
0.0
 40
0.0
 40
0.0
 40
0.0202578533
 40
0.075545814
 40
0.1629734104
 40
0.2800559174
 40
0.4243259041
 40
0.5935841188
 40
1.0
 40
1.0
 40
1.0
 40
1.0
 10
-2.6327585173
 20
-24.3253274625
 30
0.0
 10
-2.6324443392
 20
-24.3255866332
 30
0.0
 10
-2.6308403968
 20
-24.3241973434
 30
0.0
 10
-2.6280887185
 20
-24.3234584467
 30
0.0
 10
-2.6233533565
 20
-24.320670727
 30
0.0
 10
-2.6172226438
 20
-24.3175007914
 30
0.0
 10
-2.6096353418
 20
-24.3132458343
 30
0.0
 10
-2.5970550447
 20
-24.3061251205
 30
0.0
 10
-2.5870647134
 20
-24.3002638221
 30
0.0
 10
-2.5800415204
 20
-24.2960878619
 30
0.0
  0
SPLINE
  5
345
100
AcDbEntity
  8
RACCORDO
100
AcDbSpline
 62
7
  6
CONTINUOUS
 70
0
 71
3
 72
9
 73
5
 74
0
 42
0.0000001
 43
0.0000001
 44
0.0000000001
 40
0.0
 40
0.0
 40
0.0
 40
0.0
 40
0.4143563575
 40
1.0
 40
1.0
 40
1.0
 40
1.0
 10
-1.4542847396
 20
-20.1064179102
 30
0.0
 10
-1.4570990337
 20
-20.1010543503
 30
0.0
 10
-1.4574134958
 20
-20.0852461478
 30
0.0
 10
-1.451520384
 20
-20.0717923848
 30
0.0
 10
-1.4475391257
 20
-20.0642135113
 30
0.0
  0
SPLINE
  5
346
100
AcDbEntity
  8
RACCORDO
100
AcDbSpline
 62
7
  6
CONTINUOUS
 70
0
 71
3
 72
9
 73
5
 74
0
 42
0.0000001
 43
0.0000001
 44
0.0000000001
 40
0.0
 40
0.0
 40
0.0
 40
0.0
 40
0.2388114185
 40
1.0
 40
1.0
 40
1.0
 40
1.0
 10
-1.4475391257
 20
-20.0642135113
 30
0.0
 10
-1.4469544429
 20
-20.0631004871
 30
0.0
 10
-1.4444366324
 20
-20.0584764214
 30
0.0
 10
-1.4416581929
 20
-20.0539961939
 30
0.0
 10
-1.4394325276
 20
-20.0506637212
 30
0.0
  0
SPLINE
  5
347
100
AcDbEntity
  8
RACCORDO
100
AcDbSpline
 62
250
  6
CONTINUOUS
 70
0
 71
3
 72
9
 73
5
 74
0
 42
0.0000001
 43
0.0000001
 44
0.0000000001
 40
0.0
 40
0.0
 40
0.0
 40
0.0
 40
0.2392287697
 40
1.0
 40
1.0
 40
1.0
 40
1.0
 10
2.6561822701
 20
16.0976211883
 30
0.0
 10
2.6581820862
 20
16.0956189978
 30
0.0
 10
2.6660597578
 20
16.0867694285
 30
0.0
 10
2.6718804491
 20
16.0761907347
 30
0.0
 10
2.6751811957
 20
16.0678187256
 30
0.0
  0
SPLINE
  5
348
100
AcDbEntity
  8
RACCORDO
100
AcDbSpline
 62
250
  6
CONTINUOUS
 70
0
 71
3
 72
9
 73
5
 74
0
 42
0.0000001
 43
0.0000001
 44
0.0000000001
 40
0.0
 40
0.0
 40
0.0
 40
0.0
 40
0.2381977444
 40
1.0
 40
1.0
 40
1.0
 40
1.0
 10
2.6751811957
 20
16.0678187256
 30
0.0
 10
2.676163983
 20
16.0653259853
 30
0.0
 10
2.6798929295
 20
16.0547051603
 30
0.0
 10
2.6821127796
 20
16.0435848873
 30
0.0
 10
2.6831245354
 20
16.0350753232
 30
0.0
  0
SPLINE
  5
349
100
AcDbEntity
  8
RACCORDO
100
AcDbSpline
 62
250
  6
CONTINUOUS
 70
0
 71
3
 72
8
 73
4
 74
0
 42
0.0000001
 43
0.0000001
 44
0.0000000001
 40
0.0
 40
0.0
 40
0.0
 40
0.0
 40
1.0
 40
1.0
 40
1.0
 40
1.0
 10
2.6831245354
 20
16.0350753232
 30
0.0
 10
2.6838550066
 20
16.0289315564
 30
0.0
 10
2.6842327339
 20
16.0227385179
 30
0.0
 10
2.6843073071
 20
16.0165519277
 30
0.0
  0
SPLINE
  5
34A
100
AcDbEntity
  8
RACCORDO
100
AcDbSpline
 62
7
  6
CONTINUOUS
 70
0
 71
3
 72
9
 73
5
 74
0
 42
0.0000001
 43
0.0000001
 44
0.0000000001
 40
0.0
 40
0.0
 40
0.0
 40
0.0
 40
0.4928564609
 40
1.0
 40
1.0
 40
1.0
 40
1.0
 10
-1.8367928696
 20
-19.8888659209
 30
0.0
 10
-1.8662836818
 20
-19.8718386221
 30
0.0
 10
-1.9197850082
 20
-19.8262516778
 30
0.0
 10
-1.9606845465
 20
-19.7699293829
 30
0.0
 10
-1.9782048434
 20
-19.7395833384
 30
0.0
  0
SPLINE
  5
34B
100
AcDbEntity
  8
RACCORDO
100
AcDbSpline
 62
7
  6
CONTINUOUS
 70
0
 71
3
 72
9
 73
5
 74
0
 42
0.0000001
 43
0.0000001
 44
0.0000000001
 40
0.0
 40
0.0
 40
0.0
 40
0.0
 40
0.4924578704
 40
1.0
 40
1.0
 40
1.0
 40
1.0
 10
2.8221523829
 20
-18.533738289
 30
0.0
 10
2.8520240572
 20
-18.5170813338
 30
0.0
 10
2.9063494117
 20
-18.4718460109
 30
0.0
 10
2.9479466189
 20
-18.4155791143
 30
0.0
 10
2.9658019194
 20
-18.3851863796
 30
0.0
  0
SPLINE
  5
34C
100
AcDbEntity
  8
RACCORDO
100
AcDbSpline
 62
250
  6
CONTINUOUS
 70
0
 71
3
 72
11
 73
7
 74
0
 42
0.0000001
 43
0.0000001
 44
0.0000000001
 40
0.0
 40
0.0
 40
0.0
 40
0.0
 40
0.2059313908
 40
0.4346585227
 40
0.6989720916
 40
1.0
 40
1.0
 40
1.0
 40
1.0
 10
-3.3195896541
 20
-21.4396270378
 30
0.0
 10
-3.3093229286
 20
-21.4335521439
 30
0.0
 10
-3.2844000071
 20
-21.4257711357
 30
0.0
 10
-3.2433399085
 20
-21.4299987918
 30
0.0
 10
-3.2004741171
 20
-21.4479485554
 30
0.0
 10
-3.1735783202
 20
-21.4670586172
 30
0.0
 10
-3.1602568172
 20
-21.4783115599
 30
0.0
  0
SPLINE
  5
34D
100
AcDbEntity
  8
RACCORDO
100
AcDbSpline
 62
250
  6
CONTINUOUS
 70
0
 71
3
 72
9
 73
5
 74
0
 42
0.0000001
 43
0.0000001
 44
0.0000000001
 40
0.0
 40
0.0
 40
0.0
 40
0.0
 40
0.5186795079
 40
1.0
 40
1.0
 40
1.0
 40
1.0
 10
-3.18945997
 20
-23.6896884355
 30
0.0
 10
-3.1127799328
 20
-23.801871211
 30
0.0
 10
-2.9477933023
 20
-24.0069908559
 30
0.0
 10
-2.749251952
 20
-24.1808500738
 30
0.0
 10
-2.6457010856
 20
-24.2528075621
 30
0.0
  0
SPLINE
  5
34E
100
AcDbEntity
  8
RACCORDO
100
AcDbSpline
 62
250
  6
CONTINUOUS
 70
0
 71
3
 72
10
 73
6
 74
0
 42
0.0000001
 43
0.0000001
 44
0.0000000001
 40
0.0
 40
0.0
 40
0.0
 40
0.0
 40
0.2179378712
 40
0.4516185416
 40
1.0
 40
1.0
 40
1.0
 40
1.0
 10
-0.6433925386
 20
-20.4654474715
 30
0.0
 10
-0.6366661646
 20
-20.4616972456
 30
0.0
 10
-0.6240285902
 20
-20.4513565852
 30
0.0
 10
-0.6050688639
 20
-20.4209968799
 30
0.0
 10
-0.6007332071
 20
-20.392495804
 30
0.0
 10
-0.6005861235
 20
-20.3731184134
 30
0.0
  0
SPLINE
  5
34F
100
AcDbEntity
  8
RACCORDO
100
AcDbSpline
 62
250
  6
CONTINUOUS
 70
0
 71
3
 72
14
 73
10
 74
0
 42
0.0000001
 43
0.0000001
 44
0.0000000001
 40
0.0
 40
0.0
 40
0.0
 40
0.0
 40
0.0930655199
 40
0.19175163
 40
0.2999023259
 40
0.4195535569
 40
0.5509528476
 40
0.6930320785
 40
1.0
 40
1.0
 40
1.0
 40
1.0
 10
-3.3007783217
 20
-21.7750154911
 30
0.0
 10
-3.3452572127
 20
-21.8014700321
 30
0.0
 10
-3.4287594657
 20
-21.8708284809
 30
0.0
 10
-3.5221124138
 20
-22.0113169219
 30
0.0
 10
-3.5834907194
 20
-22.1837621719
 30
0.0
 10
-3.6122120763
 20
-22.3824842976
 30
0.0
 10
-3.6080493242
 20
-22.6018874994
 30
0.0
 10
-3.5578544143
 20
-22.9214332937
 30
0.0
 10
-3.4744615867
 20
-23.1596820809
 30
0.0
 10
-3.4026837508
 20
-23.3145547345
 30
0.0
  0
SPLINE
  5
350
100
AcDbEntity
  8
RACCORDO
100
AcDbSpline
 62
250
  6
CONTINUOUS
 70
0
 71
3
 72
14
 73
10
 74
0
 42
0.0000001
 43
0.0000001
 44
0.0000000001
 40
0.0
 40
0.0
 40
0.0
 40
0.0
 40
0.306962695
 40
0.4489054138
 40
0.5801678002
 40
0.6997408166
 40
0.8079126804
 40
0.9067307647
 40
1.0
 40
1.0
 40
1.0
 40
1.0
 10
-1.9157715104
 20
-22.4349959845
 30
0.0
 10
-2.0139155233
 20
-22.2976349521
 30
0.0
 10
-2.1779123821
 20
-22.1095365439
 30
0.0
 10
-2.4278955119
 20
-21.9101540009
 30
0.0
 10
-2.614248159
 20
-21.7992912151
 30
0.0
 10
-2.7989636182
 20
-21.7266923149
 30
0.0
 10
-2.9772065498
 20
-21.694862298
 30
0.0
 10
-3.1438346978
 20
-21.7059659087
 30
0.0
 10
-3.24463117
 20
-21.7433741871
 30
0.0
 10
-3.2893857362
 20
-21.7684388264
 30
0.0
  0
SPLINE
  5
351
100
AcDbEntity
  8
RACCORDO
100
AcDbSpline
 62
7
  6
CONTINUOUS
 70
0
 71
3
 72
8
 73
4
 74
0
 42
0.0000001
 43
0.0000001
 44
0.0000000001
 40
0.0
 40
0.0
 40
0.0
 40
0.0
 40
1.0
 40
1.0
 40
1.0
 40
1.0
 10
-3.1602568172
 20
-21.4783115599
 30
0.0
 10
-3.1561081349
 20
-21.4750102111
 30
0.0
 10
-3.1517066015
 20
-21.4720089303
 30
0.0
 10
-3.1471417344
 20
-21.4693121809
 30
0.0
  0
SPLINE
  5
352
100
AcDbEntity
  8
RACCORDO
100
AcDbSpline
 62
7
  6
CONTINUOUS
 70
0
 71
3
 72
8
 73
4
 74
0
 42
0.0000001
 43
0.0000001
 44
0.0000000001
 40
0.0
 40
0.0
 40
0.0
 40
0.0
 40
1.0
 40
1.0
 40
1.0
 40
1.0
 10
-1.6470409822
 20
-22.3354515546
 30
0.0
 10
-1.6519048109
 20
-22.3383007549
 30
0.0
 10
-1.6568948549
 20
-22.3409406199
 30
0.0
 10
-1.661963347
 20
-22.3434074315
 30
0.0
  0
SPLINE
  5
353
100
AcDbEntity
  8
RACCORDO
100
AcDbSpline
 62
250
  6
CONTINUOUS
 70
0
 71
3
 72
14
 73
10
 74
0
 42
0.0000001
 43
0.0000001
 44
0.0000000001
 40
0.0
 40
0.0
 40
0.0
 40
0.0
 40
0.0932666023
 40
0.1920811287
 40
0.300251979
 40
0.4198226826
 40
0.5510842595
 40
0.6930283449
 40
1.0
 40
1.0
 40
1.0
 40
1.0
 10
-1.7737788705
 20
-24.3935469196
 30
0.0
 10
-1.7296926821
 20
-24.3673259449
 30
0.0
 10
-1.6468894264
 20
-24.2987505229
 30
0.0
 10
-1.5539519664
 20
-24.160004284
 30
0.0
 10
-1.4923845685
 20
-23.9897318952
 30
0.0
 10
-1.4628957455
 20
-23.7934636728
 30
0.0
 10
-1.4657274496
 20
-23.5766440873
 30
0.0
 10
-1.5134110581
 20
-23.2604517355
 30
0.0
 10
-1.5943207919
 20
-23.0243704443
 30
0.0
 10
-1.6642149913
 20
-22.8706904095
 30
0.0
  0
SPLINE
  5
354
100
AcDbEntity
  8
RACCORDO
100
AcDbSpline
 62
7
  6
CONTINUOUS
 70
0
 71
3
 72
8
 73
4
 74
0
 42
0.0000001
 43
0.0000001
 44
0.0000000001
 40
0.0
 40
0.0
 40
0.0
 40
0.0
 40
1.0
 40
1.0
 40
1.0
 40
1.0
 10
-1.4579546869
 20
-22.6967607957
 30
0.0
 10
-1.4532842467
 20
-22.6936045534
 30
0.0
 10
-1.4485031742
 20
-22.6906027462
 30
0.0
 10
-1.4436039247
 20
-22.6878148739
 30
0.0
  0
SPLINE
  5
355
100
AcDbEntity
  8
RACCORDO
100
AcDbSpline
 62
7
  6
CONTINUOUS
 70
0
 71
3
 72
8
 73
4
 74
0
 42
0.0000001
 43
0.0000001
 44
0.0000000001
 40
0.0
 40
0.0
 40
0.0
 40
0.0
 40
1.0
 40
1.0
 40
1.0
 40
1.0
 10
-1.4436039247
 20
-24.4199262168
 30
0.0
 10
-1.4482216468
 20
-24.4225313758
 30
0.0
 10
-1.4530214372
 20
-24.4248428487
 30
0.0
 10
-1.4579546869
 20
-24.4267853363
 30
0.0
  0
SPLINE
  5
356
100
AcDbEntity
  8
RACCORDO
100
AcDbSpline
 62
250
  6
CONTINUOUS
 70
0
 71
3
 72
9
 73
5
 74
0
 42
0.0000001
 43
0.0000001
 44
0.0000000001
 40
0.0
 40
0.0
 40
0.0
 40
0.0
 40
0.2594279507
 40
1.0
 40
1.0
 40
1.0
 40
1.0
 10
-2.4945156717
 20
-24.345469415
 30
0.0
 10
-2.4783480306
 20
-24.354058936
 30
0.0
 10
-2.4153620044
 20
-24.385880551
 30
0.0
 10
-2.3496301378
 20
-24.4124195371
 30
0.0
 10
-2.2997836358
 20
-24.4281238885
 30
0.0
  0
SPLINE
  5
357
100
AcDbEntity
  8
RACCORDO
100
AcDbSpline
 62
250
  6
CONTINUOUS
 70
0
 71
3
 72
11
 73
7
 74
0
 42
0.0000001
 43
0.0000001
 44
0.0000000001
 40
0.0
 40
0.0
 40
0.0
 40
0.0
 40
0.2754872452
 40
0.5304607625
 40
0.7697238623
 40
1.0
 40
1.0
 40
1.0
 40
1.0
 10
-2.2997836358
 20
-24.4281238885
 30
0.0
 10
-2.2534261869
 20
-24.4427289989
 30
0.0
 10
-2.1618701213
 20
-24.464371762
 30
0.0
 10
-2.0254264369
 20
-24.4716122655
 30
0.0
 10
-1.8981477593
 20
-24.4517073633
 30
0.0
 10
-1.8206182394
 20
-24.4199754322
 30
0.0
 10
-1.7851714559
 20
-24.4001235843
 30
0.0
  0
SPLINE
  5
358
100
AcDbEntity
  8
RACCORDO
100
AcDbSpline
 62
250
  6
CONTINUOUS
 70
0
 71
3
 72
11
 73
7
 74
0
 42
0.0000001
 43
0.0000001
 44
0.0000000001
 40
0.0
 40
0.0
 40
0.0
 40
0.0
 40
0.2177814149
 40
0.4508514804
 40
0.7100853674
 40
1.0
 40
1.0
 40
1.0
 40
1.0
 10
-1.4845559549
 20
18.6980382144
 30
0.0
 10
-1.544524649
 20
18.6629074986
 30
0.0
 10
-1.6825405683
 20
18.6118899518
 30
0.0
 10
-1.9122144786
 20
18.6053728454
 30
0.0
 10
-2.1571569874
 20
18.6640669654
 30
0.0
 10
-2.3164732744
 20
18.7398492946
 30
0.0
 10
-2.3965977169
 20
18.7861121435
 30
0.0
  0
SPLINE
  5
359
100
AcDbEntity
  8
DRAFT
100
AcDbSpline
 62
7
  6
CONTINUOUS
 70
0
 71
3
 72
17
 73
13
 74
0
 42
0.0000001
 43
0.0000001
 44
0.0000000001
 40
0.0
 40
0.0
 40
0.0
 40
0.0
 40
0.0428600608
 40
0.0874279673
 40
0.1351709259
 40
0.1870327861
 40
0.3041340376
 40
0.437749624
 40
0.5821505537
 40
0.7294424384
 40
0.8711814162
 40
1.0
 40
1.0
 40
1.0
 40
1.0
 10
-3.1142573411
 20
-22.0767168727
 30
0.0
 10
-3.1431093643
 20
-22.0929620739
 30
0.0
 10
-3.1978481885
 20
-22.1339958243
 30
0.0
 10
-3.2639480981
 20
-22.216025462
 30
0.0
 10
-3.3134542384
 20
-22.3166814502
 30
0.0
 10
-3.3581863285
 20
-22.4788296431
 30
0.0
 10
-3.3645246737
 20
-22.7157523994
 30
0.0
 10
-3.3038332493
 20
-23.0167405804
 30
0.0
 10
-3.1805777092
 20
-23.3231515635
 30
0.0
 10
-3.0046612795
 20
-23.6099379959
 30
0.0
 10
-2.7907246214
 20
-23.8537115264
 30
0.0
 10
-2.6234619027
 20
-23.9825139458
 30
0.0
 10
-2.5372785961
 20
-24.0322751069
 30
0.0
  0
SPLINE
  5
35A
100
AcDbEntity
  8
RACCORDO
100
AcDbSpline
 62
250
  6
CONTINUOUS
 70
0
 71
3
 72
10
 73
6
 74
0
 42
0.0000001
 43
0.0000001
 44
0.0000000001
 40
0.0
 40
0.0
 40
0.0
 40
0.0
 40
0.2179378722
 40
0.4516185434
 40
1.0
 40
1.0
 40
1.0
 40
1.0
 10
2.9229955043
 20
-19.8104409381
 30
0.0
 10
2.9297218784
 20
-19.8066907121
 30
0.0
 10
2.9423594529
 20
-19.7963500518
 30
0.0
 10
2.961319179
 20
-19.7659903463
 30
0.0
 10
2.9656548358
 20
-19.7374892705
 30
0.0
 10
2.9658019194
 20
-19.71811188
 30
0.0
  0
SPLINE
  5
35B
100
AcDbEntity
  8
RACCORDO
100
AcDbSpline
 62
7
  6
CONTINUOUS
 70
0
 71
3
 72
11
 73
7
 74
0
 42
0.0000001
 43
0.0000001
 44
0.0000000001
 40
0.0
 40
0.0
 40
0.0
 40
0.0
 40
0.2564861221
 40
0.5340844949
 40
0.7911342536
 40
1.0
 40
1.0
 40
1.0
 40
1.0
 10
-2.2410727836
 20
-24.6644587731
 30
0.0
 10
-2.2607228846
 20
-24.6756997161
 30
0.0
 10
-2.3038826756
 20
-24.6951601819
 30
0.0
 10
-2.37049188
 20
-24.7165081648
 30
0.0
 10
-2.434862542
 20
-24.729750452
 30
0.0
 10
-2.476094608
 20
-24.7330660637
 30
0.0
 10
-2.4945156717
 20
-24.7323483955
 30
0.0
  0
SPLINE
  5
35C
100
AcDbEntity
  8
RACCORDO
100
AcDbSpline
 62
7
  6
CONTINUOUS
 70
0
 71
3
 72
9
 73
5
 74
0
 42
0.0000001
 43
0.0000001
 44
0.0000000001
 40
0.0
 40
0.0
 40
0.0
 40
0.0
 40
0.5094864551
 40
1.0
 40
1.0
 40
1.0
 40
1.0
 10
-2.4945156717
 20
-24.345469415
 30
0.0
 10
-2.4768917407
 20
-24.3763002021
 30
0.0
 10
-2.4347873944
 20
-24.4327419707
 30
0.0
 10
-2.377429872
 20
-24.4755492416
 30
0.0
 10
-2.346096758
 20
-24.4892312488
 30
0.0
  0
SPLINE
  5
35D
100
AcDbEntity
  8
RACCORDO
100
AcDbSpline
 62
250
  6
CONTINUOUS
 70
0
 71
3
 72
24
 73
20
 74
0
 42
0.0000001
 43
0.0000001
 44
0.0000000001
 40
0.0
 40
0.0
 40
0.0
 40
0.0
 40
0.0225581805
 40
0.0455223294
 40
0.0940355482
 40
0.1479684558
 40
0.2082907078
 40
0.2748600066
 40
0.3467296857
 40
0.4224101457
 40
0.5000763974
 40
0.5777428211
 40
0.6534237676
 40
0.725294167
 40
0.7918642944
 40
0.8521873297
 40
0.9061210108
 40
0.9546339985
 40
1.0
 40
1.0
 40
1.0
 40
1.0
 10
-1.134571501
 20
18.0648772305
 30
0.0
 10
-1.0925289366
 20
18.0885563059
 30
0.0
 10
-1.0116376211
 20
18.1437736672
 30
0.0
 10
-0.8663560789
 20
18.2840606561
 30
0.0
 10
-0.7220819039
 20
18.5153793549
 30
0.0
 10
-0.6212675936
 20
18.8518112093
 30
0.0
 10
-0.5891089434
 20
19.2395257559
 30
0.0
 10
-0.6257228786
 20
19.6647600725
 30
0.0
 10
-0.7292034253
 20
20.1122838153
 30
0.0
 10
-0.8956252841
 20
20.5655827479
 30
0.0
 10
-1.118713965
 20
21.0076852546
 30
0.0
 10
-1.3900599809
 20
21.4219263149
 30
0.0
 10
-1.6994374489
 20
21.7926885565
 30
0.0
 10
-2.0352740194
 20
22.1060610559
 30
0.0
 10
-2.3852677023
 20
22.3503571193
 30
0.0
 10
-2.7370574889
 20
22.5164077106
 30
0.0
 10
-3.0790557985
 20
22.597127244
 30
0.0
 10
-3.3994647224
 20
22.5867216803
 30
0.0
 10
-3.5917666522
 20
22.5146465243
 30
0.0
 10
-3.6752856676
 20
22.465239782
 30
0.0
  0
SPLINE
  5
35E
100
AcDbEntity
  8
RACCORDO
100
AcDbSpline
 62
250
  6
CONTINUOUS
 70
0
 71
3
 72
11
 73
7
 74
0
 42
0.0000001
 43
0.0000001
 44
0.0000000001
 40
0.0
 40
0.0
 40
0.0
 40
0.0
 40
0.4846145691
 40
0.7486091615
 40
0.880134647
 40
1.0
 40
1.0
 40
1.0
 40
1.0
 10
-2.180869137
 20
-25.2173263434
 30
0.0
 10
-2.1332610878
 20
-25.2509872493
 30
0.0
 10
-2.0495958502
 20
-25.2900009501
 30
0.0
 10
-1.94392456
 20
-25.3070862467
 30
0.0
 10
-1.8818957723
 20
-25.3018664839
 30
0.0
 10
-1.8524501641
 20
-25.2925704274
 30
0.0
 10
-1.8399759117
 20
-25.2853335568
 30
0.0
  0
SPLINE
  5
35F
100
AcDbEntity
  8
RACCORDO
100
AcDbSpline
 62
250
  6
CONTINUOUS
 70
0
 71
3
 72
9
 73
5
 74
0
 42
0.0000001
 43
0.0000001
 44
0.0000000001
 40
0.0
 40
0.0
 40
0.0
 40
0.0
 40
0.5533590801
 40
1.0
 40
1.0
 40
1.0
 40
1.0
 10
-2.9825599053
 20
-24.6252529981
 30
0.0
 10
-2.9925671175
 20
-24.6311751077
 30
0.0
 10
-3.009500694
 20
-24.6450878766
 30
0.0
 10
-3.0168679566
 20
-24.665988341
 30
0.0
 10
-3.0174934719
 20
-24.6753531377
 30
0.0
  0
SPLINE
  5
360
100
AcDbEntity
  8
RACCORDO
100
AcDbSpline
 62
250
  6
CONTINUOUS
 70
0
 71
3
 72
9
 73
5
 74
0
 42
0.0000001
 43
0.0000001
 44
0.0000000001
 40
0.0
 40
0.0
 40
0.0
 40
0.0
 40
0.7400489933
 40
1.0
 40
1.0
 40
1.0
 40
1.0
 10
-3.0174934719
 20
-24.6753531377
 30
0.0
 10
-3.0182289128
 20
-24.6863636677
 30
0.0
 10
-3.014608714
 20
-24.7016468299
 30
0.0
 10
-3.0077008721
 20
-24.7148209745
 30
0.0
 10
-3.0057354483
 20
-24.7181619349
 30
0.0
  0
SPLINE
  5
361
100
AcDbEntity
  8
RACCORDO
100
AcDbSpline
 62
250
  6
CONTINUOUS
 70
0
 71
3
 72
9
 73
5
 74
0
 42
0.0000001
 43
0.0000001
 44
0.0000000001
 40
0.0
 40
0.0
 40
0.0
 40
0.0
 40
0.2328998298
 40
1.0
 40
1.0
 40
1.0
 40
1.0
 10
-3.0009951896
 20
-24.7255760322
 30
0.0
 10
-2.9970207253
 20
-24.7313314298
 30
0.0
 10
-2.9779492374
 20
-24.7546576047
 30
0.0
 10
-2.9534054166
 20
-24.7729464284
 30
0.0
 10
-2.9336995263
 20
-24.7848792519
 30
0.0
  0
SPLINE
  5
362
100
AcDbEntity
  8
RACCORDO
100
AcDbSpline
 62
250
  6
CONTINUOUS
 70
0
 71
3
 72
12
 73
8
 74
0
 42
0.0000001
 43
0.0000001
 44
0.0000000001
 40
0.0
 40
0.0
 40
0.0
 40
0.0
 40
0.3537078987
 40
0.6471217316
 40
0.8677442371
 40
0.9456974635
 40
1.0
 40
1.0
 40
1.0
 40
1.0
 10
-2.893687512
 20
-24.8057556703
 30
0.0
 10
-2.9040641215
 20
-24.807722781
 30
0.0
 10
-2.9230534875
 20
-24.8113525534
 30
0.0
 10
-2.9485867027
 20
-24.8155663614
 30
0.0
 10
-2.9662488315
 20
-24.8175268888
 30
0.0
 10
-2.9767449578
 20
-24.8172194616
 30
0.0
 10
-2.9807219792
 20
-24.816369869
 30
0.0
 10
-2.9821268308
 20
-24.815560289
 30
0.0
  0
SPLINE
  5
363
100
AcDbEntity
  8
RACCORDO
100
AcDbSpline
 62
7
  6
CONTINUOUS
 70
0
 71
3
 72
9
 73
5
 74
0
 42
0.0000001
 43
0.0000001
 44
0.0000000001
 40
0.0
 40
0.0
 40
0.0
 40
0.0
 40
0.2639880564
 40
1.0
 40
1.0
 40
1.0
 40
1.0
 10
-3.2893857362
 20
-23.531609111
 30
0.0
 10
-3.286282537
 20
-23.5377264508
 30
0.0
 10
-3.2756750213
 20
-23.5614985025
 30
0.0
 10
-3.2690416394
 20
-23.5867825275
 30
0.0
 10
-3.2647549022
 20
-23.6054203172
 30
0.0
  0
SPLINE
  5
364
100
AcDbEntity
  8
RACCORDO
100
AcDbSpline
 62
7
  6
CONTINUOUS
 70
0
 71
3
 72
9
 73
5
 74
0
 42
0.0000001
 43
0.0000001
 44
0.0000000001
 40
0.0
 40
0.0
 40
0.0
 40
0.0
 40
0.5647812938
 40
1.0
 40
1.0
 40
1.0
 40
1.0
 10
-3.2647549022
 20
-23.6054203172
 30
0.0
 10
-3.2615021553
 20
-23.6195625449
 30
0.0
 10
-3.2563225341
 20
-23.6446018762
 30
0.0
 10
-3.2476184706
 20
-23.6692971447
 30
0.0
 10
-3.2414734786
 20
-23.6786399151
 30
0.0
  0
SPLINE
  5
365
100
AcDbEntity
  8
RACCORDO
100
AcDbSpline
 62
250
  6
CONTINUOUS
 70
0
 71
3
 72
10
 73
6
 74
0
 42
0.0000001
 43
0.0000001
 44
0.0000000001
 40
0.0
 40
0.0
 40
0.0
 40
0.0
 40
0.2349557201
 40
0.4764784503
 40
1.0
 40
1.0
 40
1.0
 40
1.0
 10
2.1405519797
 20
19.909502768
 30
0.0
 10
2.1940811661
 20
19.9396547428
 30
0.0
 10
2.2963320476
 20
20.0128421824
 30
0.0
 10
2.4735904852
 20
20.2070749689
 30
0.0
 10
2.5615560492
 20
20.3926760117
 30
0.0
 10
2.6025872753
 20
20.5232744446
 30
0.0
  0
SPLINE
  5
366
100
AcDbEntity
  8
RACCORDO
100
AcDbSpline
 62
7
  6
CONTINUOUS
 70
0
 71
3
 72
12
 73
8
 74
0
 42
0.0000001
 43
0.0000001
 44
0.0000000001
 40
0.0
 40
0.0
 40
0.0
 40
0.0
 40
0.0892843823
 40
0.1981704033
 40
0.4623670902
 40
0.746833409
 40
1.0
 40
1.0
 40
1.0
 40
1.0
 10
-1.7737788705
 20
-24.3935469196
 30
0.0
 10
-1.7647922068
 20
-24.3901401619
 30
0.0
 10
-1.7424393702
 20
-24.3898739597
 30
0.0
 10
-1.6948130366
 20
-24.4039343113
 30
0.0
 10
-1.6281295138
 20
-24.4282173767
 30
0.0
 10
-1.5426578563
 20
-24.4433556188
 30
0.0
 10
-1.4833111279
 20
-24.4367695404
 30
0.0
 10
-1.4579546869
 20
-24.4267853363
 30
0.0
  0
SPLINE
  5
367
100
AcDbEntity
  8
RACCORDO
100
AcDbSpline
 62
250
  6
CONTINUOUS
 70
0
 71
3
 72
13
 73
9
 74
0
 42
0.0000001
 43
0.0000001
 44
0.0000000001
 40
0.0
 40
0.0
 40
0.0
 40
0.0
 40
0.1921499034
 40
0.2765661281
 40
0.3610798756
 40
0.5862379225
 40
0.7646828839
 40
1.0
 40
1.0
 40
1.0
 40
1.0
 10
1.6287507551
 20
-19.2881104953
 30
0.0
 10
1.6242595178
 20
-19.2906135516
 30
0.0
 10
1.6172329162
 20
-19.2936495808
 30
0.0
 10
1.6074129222
 20
-19.2937080072
 30
0.0
 10
1.5973103401
 20
-19.2896385844
 30
0.0
 10
1.5905486148
 20
-19.277017804
 30
0.0
 10
1.5874009831
 20
-19.2603816469
 30
0.0
 10
1.5869274761
 20
-19.2492236005
 30
0.0
 10
1.5869758171
 20
-19.242927052
 30
0.0
  0
SPLINE
  5
368
100
AcDbEntity
  8
RACCORDO
100
AcDbSpline
 62
7
  6
CONTINUOUS
 70
0
 71
3
 72
11
 73
7
 74
0
 42
0.0000001
 43
0.0000001
 44
0.0000000001
 40
0.0
 40
0.0
 40
0.0
 40
0.0
 40
0.2481610361
 40
0.4893933169
 40
0.7489256063
 40
1.0
 40
1.0
 40
1.0
 40
1.0
 10
-1.7851714559
 20
-22.6369532997
 30
0.0
 10
-1.7983210224
 20
-22.6110315458
 30
0.0
 10
-1.8137511241
 20
-22.5528636579
 30
0.0
 10
-1.7899320125
 20
-22.4652675196
 30
0.0
 10
-1.7368343813
 20
-22.3934982528
 30
0.0
 10
-1.6884054373
 20
-22.3562766741
 30
0.0
 10
-1.661963347
 20
-22.3434074315
 30
0.0
  0
SPLINE
  5
369
100
AcDbEntity
  8
RACCORDO
100
AcDbSpline
 62
7
  6
CONTINUOUS
 70
0
 71
3
 72
11
 73
7
 74
0
 42
0.0000001
 43
0.0000001
 44
0.0000000001
 40
0.0
 40
0.0
 40
0.0
 40
0.0
 40
0.251070399
 40
0.5106009342
 40
0.7518362681
 40
1.0
 40
1.0
 40
1.0
 40
1.0
 10
-1.4579546869
 20
-22.6967607957
 30
0.0
 10
-1.4823200282
 20
-22.7132266788
 30
0.0
 10
-1.538769149
 20
-22.7365579337
 30
0.0
 10
-1.6274731637
 20
-22.7466561664
 30
0.0
 10
-1.7152439372
 20
-22.723482943
 30
0.0
 10
-1.7579043978
 20
-22.6810351393
 30
0.0
 10
-1.7737788705
 20
-22.6566858365
 30
0.0
  0
SPLINE
  5
36A
100
AcDbEntity
  8
RACCORDO
100
AcDbSpline
 62
7
  6
CONTINUOUS
 70
0
 71
3
 72
9
 73
5
 74
0
 42
0.0000001
 43
0.0000001
 44
0.0000000001
 40
0.0
 40
0.0
 40
0.0
 40
0.0
 40
0.4752092858
 40
1.0
 40
1.0
 40
1.0
 40
1.0
 10
-3.3007783217
 20
-21.7750154911
 30
0.0
 10
-3.319695046
 20
-21.7821866392
 30
0.0
 10
-3.3673367428
 20
-21.7686331867
 30
0.0
 10
-3.3953806972
 20
-21.7337369914
 30
0.0
 10
-3.4032548039
 20
-21.7128294742
 30
0.0
  0
SPLINE
  5
36B
100
AcDbEntity
  8
RACCORDO
100
AcDbSpline
 62
7
  6
CONTINUOUS
 70
0
 71
3
 72
12
 73
8
 74
0
 42
0.0000001
 43
0.0000001
 44
0.0000000001
 40
0.0
 40
0.0
 40
0.0
 40
0.0
 40
0.2531726994
 40
0.5376430369
 40
0.8018365301
 40
0.910718642
 40
1.0
 40
1.0
 40
1.0
 40
1.0
 10
-3.1602568172
 20
-21.4783115599
 30
0.0
 10
-3.1815808448
 20
-21.495280334
 30
0.0
 10
-3.216956354
 20
-21.5433843186
 30
0.0
 10
-3.2465820861
 20
-21.624973756
 30
0.0
 10
-3.2588952402
 20
-21.6948635466
 30
0.0
 10
-3.2705334443
 20
-21.7431373688
 30
0.0
 10
-3.2819417363
 20
-21.7623606063
 30
0.0
 10
-3.2893857362
 20
-21.7684388264
 30
0.0
  0
SPLINE
  5
36C
100
AcDbEntity
  8
RACCORDO
100
AcDbSpline
 62
250
  6
CONTINUOUS
 70
0
 71
3
 72
10
 73
6
 74
0
 42
0.0000001
 43
0.0000001
 44
0.0000000001
 40
0.0
 40
0.0
 40
0.0
 40
0.0
 40
0.2179378712
 40
0.4516185416
 40
1.0
 40
1.0
 40
1.0
 40
1.0
 10
-1.7394080494
 20
-21.1655473523
 30
0.0
 10
-1.7326816754
 20
-21.1617971263
 30
0.0
 10
-1.720044101
 20
-21.151456466
 30
0.0
 10
-1.7010843747
 20
-21.1210967606
 30
0.0
 10
-1.696748718
 20
-21.0925956847
 30
0.0
 10
-1.6966016343
 20
-21.0732182942
 30
0.0
  0
SPLINE
  5
36D
100
AcDbEntity
  8
RACCORDO
100
AcDbSpline
 62
7
  6
CONTINUOUS
 70
0
 71
3
 72
9
 73
5
 74
0
 42
0.0000001
 43
0.0000001
 44
0.0000000001
 40
0.0
 40
0.0
 40
0.0
 40
0.0
 40
0.2512682071
 40
1.0
 40
1.0
 40
1.0
 40
1.0
 10
1.7129181989
 20
21.0341248029
 30
0.0
 10
1.7306442898
 20
21.0288520486
 30
0.0
 10
1.8011447337
 20
21.0077160412
 30
0.0
 10
1.8714093431
 20
20.9857692116
 30
0.0
 10
1.9237276833
 20
20.9684588897
 30
0.0
  0
SPLINE
  5
36E
100
AcDbEntity
  8
RACCORDO
100
AcDbSpline
 62
250
  6
CONTINUOUS
 70
0
 71
3
 72
10
 73
6
 74
0
 42
0.0000001
 43
0.0000001
 44
0.0000000001
 40
0.0
 40
0.0
 40
0.0
 40
0.0
 40
0.5469988357
 40
0.7810306462
 40
1.0
 40
1.0
 40
1.0
 40
1.0
 10
2.8138067405
 20
21.2126458012
 30
0.0
 10
2.7973879492
 20
21.2221785635
 30
0.0
 10
2.7711635639
 20
21.2327152906
 30
0.0
 10
2.7360264243
 20
21.2319831724
 30
0.0
 10
2.7208851424
 20
21.2265745473
 30
0.0
 10
2.714281036
 20
21.2228132472
 30
0.0
  0
SPLINE
  5
36F
100
AcDbEntity
  8
RACCORDO
100
AcDbSpline
 62
7
  6
CONTINUOUS
 70
0
 71
3
 72
11
 73
7
 74
0
 42
0.0000001
 43
0.0000001
 44
0.0000000001
 40
0.0
 40
0.0
 40
0.0
 40
0.0
 40
0.2170009224
 40
0.4559292565
 40
0.7171801445
 40
1.0
 40
1.0
 40
1.0
 40
1.0
 10
3.0957164335
 20
-21.2755221092
 30
0.0
 10
3.078352524
 20
-21.2262752716
 30
0.0
 10
3.0373713487
 20
-21.1244052225
 30
0.0
 10
2.9662749672
 20
-20.9671453271
 30
0.0
 10
2.8875521768
 20
-20.7959924667
 30
0.0
 10
2.836972807
 20
-20.6750780895
 30
0.0
 10
2.8141132244
 20
-20.6109753076
 30
0.0
  0
SPLINE
  5
370
100
AcDbEntity
  8
RACCORDO
100
AcDbSpline
 62
7
  6
CONTINUOUS
 70
0
 71
3
 72
11
 73
7
 74
0
 42
0.0000001
 43
0.0000001
 44
0.0000000001
 40
0.0
 40
0.0
 40
0.0
 40
0.0
 40
0.2354358748
 40
0.4960764384
 40
0.7602082377
 40
1.0
 40
1.0
 40
1.0
 40
1.0
 10
0.4325698849
 20
-20.3320202652
 30
0.0
 10
0.4325698849
 20
-20.3735561086
 30
0.0
 10
0.4183160063
 20
-20.4611507877
 30
0.0
 10
0.3672087494
 20
-20.5861667292
 30
0.0
 10
0.2904969127
 20
-20.6982780287
 30
0.0
 10
0.2224297988
 20
-20.7581271414
 30
0.0
 10
0.1858149442
 20
-20.7793169358
 30
0.0
  0
SPLINE
  5
371
100
AcDbEntity
  8
RACCORDO
100
AcDbSpline
 62
7
  6
CONTINUOUS
 70
0
 71
3
 72
10
 73
6
 74
0
 42
0.0000001
 43
0.0000001
 44
0.0000000001
 40
0.0
 40
0.0
 40
0.0
 40
0.0
 40
0.4499040807
 40
0.7143207596
 40
1.0
 40
1.0
 40
1.0
 40
1.0
 10
-3.0788804849
 20
-22.1561882513
 30
0.0
 10
-3.1268019671
 20
-22.258527444
 30
0.0
 10
-3.1545495166
 20
-22.4433339005
 30
0.0
 10
-3.1318264768
 20
-22.6932362867
 30
0.0
 10
-3.0997458476
 20
-22.8283623335
 30
0.0
 10
-3.0788804849
 20
-22.8970163618
 30
0.0
  0
SPLINE
  5
372
100
AcDbEntity
  8
RACCORDO
100
AcDbSpline
 62
7
  6
CONTINUOUS
 70
0
 71
3
 72
9
 73
5
 74
0
 42
0.0000001
 43
0.0000001
 44
0.0000000001
 40
0.0
 40
0.0
 40
0.0
 40
0.0
 40
0.2721038968
 40
1.0
 40
1.0
 40
1.0
 40
1.0
 10
-2.3251465617
 20
-23.9076551605
 30
0.0
 10
-2.2984050587
 20
-23.9230953692
 30
0.0
 10
-2.197944895
 20
-23.9755887363
 30
0.0
 10
-2.0866480109
 20
-24.0102591236
 30
0.0
 10
-2.0043482452
 20
-24.0173326831
 30
0.0
  0
SPLINE
  5
373
100
AcDbEntity
  8
RACCORDO
100
AcDbSpline
 62
7
  6
CONTINUOUS
 70
0
 71
3
 72
9
 73
5
 74
0
 42
0.0000001
 43
0.0000001
 44
0.0000000001
 40
0.0
 40
0.0
 40
0.0
 40
0.0
 40
0.2640237002
 40
1.0
 40
1.0
 40
1.0
 40
1.0
 10
-2.6459448783
 20
-23.6468828282
 30
0.0
 10
-2.621039272
 20
-23.6735025931
 30
0.0
 10
-2.5235870798
 20
-23.7712589521
 30
0.0
 10
-2.4131482258
 20
-23.8568441026
 30
0.0
 10
-2.3251465617
 20
-23.9076551605
 30
0.0
  0
SPLINE
  5
374
100
AcDbEntity
  8
RACCORDO
100
AcDbSpline
 62
250
  6
CONTINUOUS
 70
0
 71
3
 72
9
 73
5
 74
0
 42
0.0000001
 43
0.0000001
 44
0.0000000001
 40
0.0
 40
0.0
 40
0.0
 40
0.0
 40
0.7454532095
 40
1.0
 40
1.0
 40
1.0
 40
1.0
 10
-3.157348975
 20
-18.1291987862
 30
0.0
 10
-3.1670922388
 20
-18.1349962126
 30
0.0
 10
-3.1819046535
 20
-18.1403085718
 30
0.0
 10
-3.1970844537
 20
-18.1415215463
 30
0.0
 10
-3.2009551881
 20
-18.1415936248
 30
0.0
  0
SPLINE
  5
375
100
AcDbEntity
  8
RACCORDO
100
AcDbSpline
 62
250
  6
CONTINUOUS
 70
0
 71
3
 72
9
 73
5
 74
0
 42
0.0000001
 43
0.0000001
 44
0.0000000001
 40
0.0
 40
0.0
 40
0.0
 40
0.0
 40
0.2347094876
 40
1.0
 40
1.0
 40
1.0
 40
1.0
 10
-3.2009551881
 20
-18.1415936248
 30
0.0
 10
-3.2059534665
 20
-18.1416866997
 30
0.0
 10
-3.2272874435
 20
-18.1403738206
 30
0.0
 10
-3.2478563161
 20
-18.1323114762
 30
0.0
 10
-3.2619005462
 20
-18.1240377674
 30
0.0
  0
SPLINE
  5
376
100
AcDbEntity
  8
RACCORDO
100
AcDbSpline
 62
7
  6
CONTINUOUS
 70
0
 71
3
 72
14
 73
10
 74
0
 42
0.0000001
 43
0.0000001
 44
0.0000000001
 40
0.0
 40
0.0
 40
0.0
 40
0.0
 40
0.1118246345
 40
0.228525881
 40
0.3513574155
 40
0.4780827613
 40
0.6071273841
 40
0.7374882418
 40
1.0
 40
1.0
 40
1.0
 40
1.0
 10
-2.9097693048
 20
-23.0714957861
 30
0.0
 10
-2.9184491062
 20
-23.0764900832
 30
0.0
 10
-2.9401729409
 20
-23.0803212243
 30
0.0
 10
-2.9703116875
 20
-23.0687478465
 30
0.0
 10
-2.9965038864
 20
-23.0486023915
 30
0.0
 10
-3.0190237923
 20
-23.0230517453
 30
0.0
 10
-3.0381711227
 20
-22.9941643937
 30
0.0
 10
-3.0597992876
 20
-22.9526639625
 30
0.0
 10
-3.072044546
 20
-22.9195088893
 30
0.0
 10
-3.0788804849
 20
-22.8970163618
 30
0.0
  0
SPLINE
  5
377
100
AcDbEntity
  8
RACCORDO
100
AcDbSpline
 62
7
  6
CONTINUOUS
 70
0
 71
3
 72
9
 73
5
 74
0
 42
0.0000001
 43
0.0000001
 44
0.0000000001
 40
0.0
 40
0.0
 40
0.0
 40
0.0
 40
0.2294337064
 40
1.0
 40
1.0
 40
1.0
 40
1.0
 10
-3.0788804849
 20
-22.1561882513
 30
0.0
 10
-3.0752629407
 20
-22.1484627692
 30
0.0
 10
-3.0581230948
 20
-22.1154361623
 30
0.0
 10
-3.0350363587
 20
-22.0856244381
 30
0.0
 10
-3.0151911662
 20
-22.0649603659
 30
0.0
  0
SPLINE
  5
378
100
AcDbEntity
  8
RACCORDO
100
AcDbSpline
 62
7
  6
CONTINUOUS
 70
0
 71
3
 72
9
 73
5
 74
0
 42
0.0000001
 43
0.0000001
 44
0.0000000001
 40
0.0
 40
0.0
 40
0.0
 40
0.0
 40
0.2378576008
 40
1.0
 40
1.0
 40
1.0
 40
1.0
 10
-3.0151911662
 20
-22.0649603659
 30
0.0
 10
-3.0124755747
 20
-22.0621327199
 30
0.0
 10
-3.0008894474
 20
-22.0504079349
 30
0.0
 10
-2.9886435818
 20
-22.0393394543
 30
0.0
 10
-2.9790202843
 20
-22.0312651639
 30
0.0
  0
SPLINE
  5
379
100
AcDbEntity
  8
RACCORDO
100
AcDbSpline
 62
7
  6
CONTINUOUS
 70
0
 71
3
 72
9
 73
5
 74
0
 42
0.0000001
 43
0.0000001
 44
0.0000000001
 40
0.0
 40
0.0
 40
0.0
 40
0.0
 40
0.5486445047
 40
1.0
 40
1.0
 40
1.0
 40
1.0
 10
-1.8461166021
 20
-23.9932816018
 30
0.0
 10
-1.8737872682
 20
-24.0033603091
 30
0.0
 10
-1.9260348849
 20
-24.0175394463
 30
0.0
 10
-1.9802102793
 20
-24.0194073103
 30
0.0
 10
-2.0043482452
 20
-24.0173326831
 30
0.0
  0
SPLINE
  5
37A
100
AcDbEntity
  8
RACCORDO
100
AcDbSpline
 62
7
  6
CONTINUOUS
 70
0
 71
3
 72
14
 73
10
 74
0
 42
0.0000001
 43
0.0000001
 44
0.0000000001
 40
0.0
 40
0.0
 40
0.0
 40
0.0
 40
0.262500841
 40
0.3928568806
 40
0.5218964234
 40
0.6486200526
 40
0.7714641259
 40
0.8881735
 40
1.0
 40
1.0
 40
1.0
 40
1.0
 10
-2.6459448783
 20
-23.6468828282
 30
0.0
 10
-2.6620057138
 20
-23.6297165862
 30
0.0
 10
-2.6845960859
 20
-23.6025347523
 30
0.0
 10
-2.7097222734
 20
-23.5630544621
 30
0.0
 10
-2.7251656868
 20
-23.5320287059
 30
0.0
 10
-2.7360357432
 20
-23.4997500724
 30
0.0
 10
-2.7403894784
 20
-23.4669915147
 30
0.0
 10
-2.7353410802
 20
-23.4351016064
 30
0.0
 10
-2.7211629542
 20
-23.4182006417
 30
0.0
 10
-2.7124977416
 20
-23.4131801561
 30
0.0
  0
SPLINE
  5
37B
100
AcDbEntity
  8
RACCORDO
100
AcDbSpline
 62
250
  6
CONTINUOUS
 70
0
 71
3
 72
11
 73
7
 74
0
 42
0.0000001
 43
0.0000001
 44
0.0000000001
 40
0.0
 40
0.0
 40
0.0
 40
0.0
 40
0.2267428417
 40
0.4892232536
 40
0.7574939525
 40
1.0
 40
1.0
 40
1.0
 40
1.0
 10
1.5869651421
 20
-16.3047474142
 30
0.0
 10
1.5905984578
 20
-16.3262743223
 30
0.0
 10
1.6064170347
 20
-16.3713170966
 30
0.0
 10
1.6439387898
 20
-16.4342331271
 30
0.0
 10
1.6927683576
 20
-16.4908917727
 30
0.0
 10
1.7315857472
 20
-16.5218961861
 30
0.0
 10
1.7517045557
 20
-16.5337458122
 30
0.0
  0
SPLINE
  5
37C
100
AcDbEntity
  8
RACCORDO
100
AcDbSpline
 62
250
  6
CONTINUOUS
 70
0
 71
3
 72
11
 73
7
 74
0
 42
0.0000001
 43
0.0000001
 44
0.0000000001
 40
0.0
 40
0.0
 40
0.0
 40
0.0
 40
0.2337364466
 40
0.4925841316
 40
0.7545923243
 40
1.0
 40
1.0
 40
1.0
 40
1.0
 10
-1.5789264874
 20
-19.0957659817
 30
0.0
 10
-1.599564951
 20
-19.0840872633
 30
0.0
 10
-1.6375393359
 20
-19.0496157188
 30
0.0
 10
-1.6768309458
 20
-18.9829562575
 30
0.0
 10
-1.6985641195
 20
-18.9075109037
 30
0.0
 10
-1.699902974
 20
-18.8552564944
 30
0.0
 10
-1.6966016343
 20
-18.8305785542
 30
0.0
  0
SPLINE
  5
37D
100
AcDbEntity
  8
RACCORDO
100
AcDbSpline
 62
250
  6
CONTINUOUS
 70
0
 71
3
 72
11
 73
7
 74
0
 42
0.0000001
 43
0.0000001
 44
0.0000000001
 40
0.0
 40
0.0
 40
0.0
 40
0.0
 40
0.3021818809
 40
0.5644738478
 40
0.7919611001
 40
1.0
 40
1.0
 40
1.0
 40
1.0
 10
-1.6966008741
 20
15.2879125393
 30
0.0
 10
-1.698075505
 20
15.2972639801
 30
0.0
 10
-1.6996001768
 20
15.3149815222
 30
0.0
 10
-1.6968090644
 20
15.3398501561
 30
0.0
 10
-1.688454104
 20
15.3604503067
 30
0.0
 10
-1.6787127145
 20
15.3706211555
 30
0.0
 10
-1.6733078862
 20
15.3742635512
 30
0.0
  0
SPLINE
  5
37E
100
AcDbEntity
  8
RACCORDO
100
AcDbSpline
 62
250
  6
CONTINUOUS
 70
0
 71
3
 72
8
 73
4
 74
0
 42
0.0000001
 43
0.0000001
 44
0.0000000001
 40
0.0
 40
0.0
 40
0.0
 40
0.0
 40
1.0
 40
1.0
 40
1.0
 40
1.0
 10
-1.6733078862
 20
15.3742635512
 30
0.0
 10
-1.670085292
 20
15.3764353063
 30
0.0
 10
-1.6665675178
 20
15.3782131223
 30
0.0
 10
-1.6629225741
 20
15.3795607199
 30
0.0
  0
SPLINE
  5
37F
100
AcDbEntity
  8
RACCORDO
100
AcDbSpline
 62
250
  6
CONTINUOUS
 70
0
 71
3
 72
9
 73
5
 74
0
 42
0.0000001
 43
0.0000001
 44
0.0000000001
 40
0.0
 40
0.0
 40
0.0
 40
0.0
 40
0.5463008582
 40
1.0
 40
1.0
 40
1.0
 40
1.0
 10
-1.6966016459
 20
17.8496837263
 30
0.0
 10
-1.6966827544
 20
17.8665776279
 30
0.0
 10
-1.6929694995
 20
17.8979568706
 30
0.0
 10
-1.6756265486
 20
17.9255196583
 30
0.0
 10
-1.664848202
 20
17.9345018776
 30
0.0
  0
SPLINE
  5
380
100
AcDbEntity
  8
RACCORDO
100
AcDbSpline
 62
250
  6
CONTINUOUS
 70
0
 71
3
 72
9
 73
5
 74
0
 42
0.0000001
 43
0.0000001
 44
0.0000000001
 40
0.0
 40
0.0
 40
0.0
 40
0.0
 40
0.2703161693
 40
1.0
 40
1.0
 40
1.0
 40
1.0
 10
1.7183025018
 20
20.9995718475
 30
0.0
 10
1.7551852897
 20
20.9834183122
 30
0.0
 10
1.8938886173
 20
20.9294859215
 30
0.0
 10
2.0440684021
 20
20.9009772768
 30
0.0
 10
2.1527386568
 20
20.903070972
 30
0.0
  0
SPLINE
  5
381
100
AcDbEntity
  8
RACCORDO
100
AcDbSpline
 62
250
  6
CONTINUOUS
 70
0
 71
3
 72
11
 73
7
 74
0
 42
0.0000001
 43
0.0000001
 44
0.0000000001
 40
0.0
 40
0.0
 40
0.0
 40
0.0
 40
0.2368494237
 40
0.4998593111
 40
0.7629517725
 40
1.0
 40
1.0
 40
1.0
 40
1.0
 10
-0.6005861235
 20
15.5648061668
 30
0.0
 10
-0.6007631135
 20
15.587922698
 30
0.0
 10
-0.6097360283
 20
15.6366680678
 30
0.0
 10
-0.6401316142
 20
15.7052286959
 30
0.0
 10
-0.684308497
 20
15.7658569984
 30
0.0
 10
-0.722054684
 20
15.798023884
 30
0.0
 10
-0.7420020948
 20
15.8097458139
 30
0.0
  0
SPLINE
  5
382
100
AcDbEntity
  8
RACCORDO
100
AcDbSpline
 62
250
  6
CONTINUOUS
 70
0
 71
3
 72
10
 73
6
 74
0
 42
0.0000001
 43
0.0000001
 44
0.0000000001
 40
0.0
 40
0.0
 40
0.0
 40
0.0
 40
0.5482643715
 40
0.7819898344
 40
1.0
 40
1.0
 40
1.0
 40
1.0
 10
-4.0521806218
 20
17.7210014091
 30
0.0
 10
-4.0690340871
 20
17.7305625598
 30
0.0
 10
-4.0958851089
 20
17.7410589935
 30
0.0
 10
-4.1316623786
 20
17.73982521
 30
0.0
 10
-4.1469439712
 20
17.7340500565
 30
0.0
 10
-4.1535572252
 20
17.7300965806
 30
0.0
  0
SPLINE
  5
383
100
AcDbEntity
  8
DRAFT
100
AcDbSpline
 62
7
  6
CONTINUOUS
 70
0
 71
3
 72
11
 73
7
 74
0
 42
0.0000001
 43
0.0000001
 44
0.0000000001
 40
0.0
 40
0.0
 40
0.0
 40
0.0
 40
0.2899107121
 40
0.5492351628
 40
0.7821961699
 40
1.0
 40
1.0
 40
1.0
 40
1.0
 10
-2.5372785961
 20
-24.0322751069
 30
0.0
 10
-2.4859503808
 20
-24.0619113752
 30
0.0
 10
-2.3838499399
 20
-24.1104183279
 30
0.0
 10
-2.2268980391
 20
-24.1479095253
 30
0.0
 10
-2.0797585401
 20
-24.1433686036
 30
0.0
 10
-1.9914571734
 20
-24.1103852533
 30
0.0
 10
-1.9531353894
 20
-24.0877095167
 30
0.0
  0
SPLINE
  5
384
100
AcDbEntity
  8
RACCORDO
100
AcDbSpline
 62
250
  6
CONTINUOUS
 70
0
 71
3
 72
15
 73
11
 74
0
 42
0.0000001
 43
0.0000001
 44
0.0000000001
 40
0.0
 40
0.0
 40
0.0
 40
0.0
 40
0.1480366176
 40
0.2754974058
 40
0.3779906197
 40
0.4678553531
 40
0.5697846797
 40
0.6966229664
 40
0.8443502445
 40
1.0
 40
1.0
 40
1.0
 40
1.0
 10
-3.2893857362
 20
-23.531609111
 30
0.0
 10
-3.2863768807
 20
-23.5384697617
 30
0.0
 10
-3.2821431277
 20
-23.5519373561
 30
0.0
 10
-3.2813965147
 20
-23.571278828
 30
0.0
 10
-3.2872894739
 20
-23.5872762997
 30
0.0
 10
-3.3011886571
 20
-23.5954870332
 30
0.0
 10
-3.3179866875
 20
-23.5928324113
 30
0.0
 10
-3.3343908585
 20
-23.5826689225
 30
0.0
 10
-3.3493638174
 20
-23.5665640949
 30
0.0
 10
-3.357129068
 20
-23.5531491952
 30
0.0
 10
-3.3602741391
 20
-23.5459276243
 30
0.0
  0
SPLINE
  5
385
100
AcDbEntity
  8
RACCORDO
100
AcDbSpline
 62
250
  6
CONTINUOUS
 70
0
 71
3
 72
11
 73
7
 74
0
 42
0.0000001
 43
0.0000001
 44
0.0000000001
 40
0.0
 40
0.0
 40
0.0
 40
0.0
 40
0.3124184636
 40
0.5791234056
 40
0.803246093
 40
1.0
 40
1.0
 40
1.0
 40
1.0
 10
-4.0755040641
 20
-17.6542739106
 30
0.0
 10
-4.0850722646
 20
-17.6488584328
 30
0.0
 10
-4.1035577292
 20
-17.6400139525
 30
0.0
 10
-4.1311675889
 20
-17.6329424364
 30
0.0
 10
-4.1557942164
 20
-17.6335099494
 30
0.0
 10
-4.1697851655
 20
-17.6398963783
 30
0.0
 10
-4.1752111099
 20
-17.6441977228
 30
0.0
  0
SPLINE
  5
386
100
AcDbEntity
  8
RACCORDO
100
AcDbSpline
 62
250
  6
CONTINUOUS
 70
0
 71
3
 72
14
 73
10
 74
0
 42
0.0000001
 43
0.0000001
 44
0.0000000001
 40
0.0
 40
0.0
 40
0.0
 40
0.0
 40
0.2245940051
 40
0.373097846
 40
0.5296617953
 40
0.678559774
 40
0.8066426828
 40
0.909609892
 40
1.0
 40
1.0
 40
1.0
 40
1.0
 10
-3.3007783217
 20
-21.7750154911
 30
0.0
 10
-3.3118461232
 20
-21.7772910534
 30
0.0
 10
-3.3314596927
 20
-21.7674923784
 30
0.0
 10
-3.3491646317
 20
-21.7481313412
 30
0.0
 10
-3.360882003
 20
-21.7281512404
 30
0.0
 10
-3.3674263506
 20
-21.7071437071
 30
0.0
 10
-3.3681466959
 20
-21.6877781293
 30
0.0
 10
-3.3622183688
 20
-21.671867613
 30
0.0
 10
-3.3530871973
 20
-21.6664208889
 30
0.0
 10
-3.3486265444
 20
-21.6655362871
 30
0.0
  0
SPLINE
  5
387
100
AcDbEntity
  8
RACCORDO
100
AcDbSpline
 62
250
  6
CONTINUOUS
 70
0
 71
3
 72
15
 73
11
 74
0
 42
0.0000001
 43
0.0000001
 44
0.0000000001
 40
0.0
 40
0.0
 40
0.0
 40
0.0
 40
0.1480366176
 40
0.2754974058
 40
0.3779906197
 40
0.4678553531
 40
0.5697846797
 40
0.6966229664
 40
0.8443502445
 40
1.0
 40
1.0
 40
1.0
 40
1.0
 10
-1.7851714559
 20
-22.6369532997
 30
0.0
 10
-1.7881803114
 20
-22.6300926491
 30
0.0
 10
-1.7924140644
 20
-22.6166250546
 30
0.0
 10
-1.7931606774
 20
-22.5972835827
 30
0.0
 10
-1.7872677183
 20
-22.581286111
 30
0.0
 10
-1.773368535
 20
-22.5730753775
 30
0.0
 10
-1.7565705047
 20
-22.5757299994
 30
0.0
 10
-1.7401663337
 20
-22.5858934882
 30
0.0
 10
-1.7251933747
 20
-22.6019983158
 30
0.0
 10
-1.7174281241
 20
-22.6154132155
 30
0.0
 10
-1.7142830531
 20
-22.6226347864
 30
0.0
  0
SPLINE
  5
388
100
AcDbEntity
  8
RACCORDO
100
AcDbSpline
 62
250
  6
CONTINUOUS
 70
0
 71
3
 72
14
 73
10
 74
0
 42
0.0000001
 43
0.0000001
 44
0.0000000001
 40
0.0
 40
0.0
 40
0.0
 40
0.0
 40
0.2245940051
 40
0.373097846
 40
0.5296617953
 40
0.678559774
 40
0.8066426828
 40
0.909609892
 40
1.0
 40
1.0
 40
1.0
 40
1.0
 10
-1.7737788705
 20
-24.3935469196
 30
0.0
 10
-1.762711069
 20
-24.3912713573
 30
0.0
 10
-1.7430974994
 20
-24.4010700323
 30
0.0
 10
-1.7253925604
 20
-24.4204310695
 30
0.0
 10
-1.7136751892
 20
-24.4404111703
 30
0.0
 10
-1.7071308416
 20
-24.4614187036
 30
0.0
 10
-1.7064104963
 20
-24.4807842814
 30
0.0
 10
-1.7123388234
 20
-24.4966947977
 30
0.0
 10
-1.7214699949
 20
-24.5021415218
 30
0.0
 10
-1.7259306477
 20
-24.5030261236
 30
0.0
  0
SPLINE
  5
389
100
AcDbEntity
  8
RACCORDO
100
AcDbSpline
 62
250
  6
CONTINUOUS
 70
0
 71
3
 72
13
 73
9
 74
0
 42
0.0000001
 43
0.0000001
 44
0.0000000001
 40
0.0
 40
0.0
 40
0.0
 40
0.0
 40
0.3157576292
 40
0.4574799344
 40
0.5856148718
 40
0.8021561602
 40
0.9004602313
 40
1.0
 40
1.0
 40
1.0
 40
1.0
 10
-3.9229797067
 20
-18.6987189439
 30
0.0
 10
-3.9005828665
 20
-18.7268675182
 30
0.0
 10
-3.8634813283
 20
-18.7645314648
 30
0.0
 10
-3.8070737755
 20
-18.8007574711
 30
0.0
 10
-3.7560415932
 20
-18.8224053166
 30
0.0
 10
-3.7027532891
 20
-18.8271940702
 30
0.0
 10
-3.6587721141
 20
-18.8076936433
 30
0.0
 10
-3.6420902821
 20
-18.7918467842
 30
0.0
 10
-3.6351246646
 20
-18.7828985998
 30
0.0
  0
SPLINE
  5
38A
100
AcDbEntity
  8
RACCORDO
100
AcDbSpline
 62
250
  6
CONTINUOUS
 70
0
 71
3
 72
10
 73
6
 74
0
 42
0.0000001
 43
0.0000001
 44
0.0000000001
 40
0.0
 40
0.0
 40
0.0
 40
0.0
 40
0.4870105658
 40
0.7516052725
 40
1.0
 40
1.0
 40
1.0
 40
1.0
 10
2.8016693425
 20
-17.0567154073
 30
0.0
 10
2.7621309067
 20
-17.0546164418
 30
0.0
 10
2.7010787367
 20
-17.0479404148
 30
0.0
 10
2.6220721874
 20
-17.0288006044
 30
0.0
 10
2.5826964967
 20
-17.0137574507
 30
0.0
 10
2.5653026235
 20
-17.0034971499
 30
0.0
  0
SPLINE
  5
38B
100
AcDbEntity
  8
RACCORDO
100
AcDbSpline
 62
250
  6
CONTINUOUS
 70
0
 71
3
 72
11
 73
7
 74
0
 42
0.0000001
 43
0.0000001
 44
0.0000000001
 40
0.0
 40
0.0
 40
0.0
 40
0.0
 40
0.2267421858
 40
0.489218912
 40
0.7574838935
 40
1.0
 40
1.0
 40
1.0
 40
1.0
 10
-0.6005861235
 20
-19.7945279037
 30
0.0
 10
-0.604219429
 20
-19.7730010565
 30
0.0
 10
-0.6200384922
 20
-19.7279588255
 30
0.0
 10
-0.6575596663
 20
-19.6650438653
 30
0.0
 10
-0.7063871034
 20
-19.6083830935
 30
0.0
 10
-0.7452058927
 20
-19.5773796241
 30
0.0
 10
-0.7653255372
 20
-19.5655295058
 30
0.0
  0
SPLINE
  5
38C
100
AcDbEntity
  8
RACCORDO
100
AcDbSpline
 62
250
  6
CONTINUOUS
 70
0
 71
3
 72
15
 73
11
 74
0
 42
0.0000001
 43
0.0000001
 44
0.0000000001
 40
0.0
 40
0.0
 40
0.0
 40
0.0
 40
0.1450204051
 40
0.2751961454
 40
0.3922889386
 40
0.5014157228
 40
0.6100811882
 40
0.7261234673
 40
0.8553384358
 40
1.0
 40
1.0
 40
1.0
 40
1.0
 10
-3.0963523487
 20
-18.1842647429
 30
0.0
 10
-3.0963530152
 20
-18.2046838188
 30
0.0
 10
-3.0993852994
 20
-18.2435574293
 30
0.0
 10
-3.1147302235
 20
-18.2970930026
 30
0.0
 10
-3.1406638667
 20
-18.3408536508
 30
0.0
 10
-3.1768080556
 20
-18.372530067
 30
0.0
 10
-3.2215503672
 20
-18.3897626924
 30
0.0
 10
-3.272096232
 20
-18.3917561877
 30
0.0
 10
-3.3260422343
 20
-18.3791220971
 30
0.0
 10
-3.3611403272
 20
-18.3625090196
 30
0.0
 10
-3.3787772102
 20
-18.3523198974
 30
0.0
  0
SPLINE
  5
38D
100
AcDbEntity
  8
RACCORDO
100
AcDbSpline
 62
250
  6
CONTINUOUS
 70
0
 71
3
 72
11
 73
7
 74
0
 42
0.0000001
 43
0.0000001
 44
0.0000000001
 40
0.0
 40
0.0
 40
0.0
 40
0.0
 40
0.2369667601
 40
0.4994804319
 40
0.7622819523
 40
1.0
 40
1.0
 40
1.0
 40
1.0
 10
-0.8821893326
 20
15.5655156222
 30
0.0
 10
-0.8821893326
 20
15.5885612034
 30
0.0
 10
-0.873592297
 20
15.6371690765
 30
0.0
 10
-0.8435808533
 20
15.7055511038
 30
0.0
 10
-0.7996152305
 20
15.7660061553
 30
0.0
 10
-0.7619355617
 20
15.7980356185
 30
0.0
 10
-0.7420020948
 20
15.8097458139
 30
0.0
  0
SPLINE
  5
38E
100
AcDbEntity
  8
RACCORDO
100
AcDbSpline
 62
7
  6
CONTINUOUS
 70
0
 71
3
 72
9
 73
5
 74
0
 42
0.0000001
 43
0.0000001
 44
0.0000000001
 40
0.0
 40
0.0
 40
0.0
 40
0.0
 40
0.5357033529
 40
1.0
 40
1.0
 40
1.0
 40
1.0
 10
-0.8722169161
 20
15.8849302198
 30
0.0
 10
-0.9171487894
 20
15.8580613577
 30
0.0
 10
-0.9916832655
 20
15.7927291644
 30
0.0
 10
-1.0536675744
 20
15.716808298
 30
0.0
 10
-1.0788682228
 20
15.6790755485
 30
0.0
  0
SPLINE
  5
38F
100
AcDbEntity
  8
RACCORDO
100
AcDbSpline
 62
250
  6
CONTINUOUS
 70
0
 71
3
 72
11
 73
7
 74
0
 42
0.0000001
 43
0.0000001
 44
0.0000000001
 40
0.0
 40
0.0
 40
0.0
 40
0.0
 40
0.2369726124
 40
0.4994865691
 40
0.7622850398
 40
1.0
 40
1.0
 40
1.0
 40
1.0
 10
-0.8821893326
 20
15.5655156222
 30
0.0
 10
-0.8622309698
 20
15.5539919137
 30
0.0
 10
-0.8158363596
 20
15.537131563
 30
0.0
 10
-0.7416092497
 20
15.5289302577
 30
0.0
 10
-0.6672708609
 20
15.5367787968
 30
0.0
 10
-0.6206934279
 20
15.553397341
 30
0.0
 10
-0.6005861235
 20
15.5648061668
 30
0.0
  0
SPLINE
  5
390
100
AcDbEntity
  8
RACCORDO
100
AcDbSpline
 62
250
  6
CONTINUOUS
 70
0
 71
3
 72
11
 73
7
 74
0
 42
0.0000001
 43
0.0000001
 44
0.0000000001
 40
0.0
 40
0.0
 40
0.0
 40
0.0
 40
0.2369696321
 40
0.4994769056
 40
0.7622725546
 40
1.0
 40
1.0
 40
1.0
 40
1.0
 10
-0.8821893326
 20
14.9869251125
 30
0.0
 10
-0.8622312218
 20
14.9754015494
 30
0.0
 10
-0.8158375803
 20
14.9585413889
 30
0.0
 10
-0.7416117345
 20
14.9503398405
 30
0.0
 10
-0.6672730599
 20
14.9581878437
 30
0.0
 10
-0.620694483
 20
14.9748062326
 30
0.0
 10
-0.6005861235
 20
14.9862156571
 30
0.0
  0
SPLINE
  5
391
100
AcDbEntity
  8
RACCORDO
100
AcDbSpline
 62
250
  6
CONTINUOUS
 70
0
 71
3
 72
10
 73
6
 74
0
 42
0.0000001
 43
0.0000001
 44
0.0000000001
 40
0.0
 40
0.0
 40
0.0
 40
0.0
 40
0.547721883
 40
0.78167508
 40
1.0
 40
1.0
 40
1.0
 40
1.0
 10
-0.8821893326
 20
14.9869251125
 30
0.0
 10
-0.8821893326
 20
14.9678456805
 30
0.0
 10
-0.8781397275
 20
14.9397410532
 30
0.0
 10
-0.8597613437
 20
14.9096331372
 30
0.0
 10
-0.847446124
 20
14.8992445625
 30
0.0
 10
-0.8408648799
 20
14.8954332944
 30
0.0
  0
SPLINE
  5
392
100
AcDbEntity
  8
RACCORDO
100
AcDbSpline
 62
250
  6
CONTINUOUS
 70
0
 71
3
 72
9
 73
5
 74
0
 42
0.0000001
 43
0.0000001
 44
0.0000000001
 40
0.0
 40
0.0
 40
0.0
 40
0.0
 40
0.2844636751
 40
1.0
 40
1.0
 40
1.0
 40
1.0
 10
-1.6957799819
 20
15.4566821567
 30
0.0
 10
-1.695779982
 20
15.4486205088
 30
0.0
 10
-1.6940104284
 20
15.4205091916
 30
0.0
 10
-1.6834894821
 20
15.3915436719
 30
0.0
 10
-1.6694223551
 20
15.3769381936
 30
0.0
  0
SPLINE
  5
393
100
AcDbEntity
  8
RACCORDO
100
AcDbSpline
 62
250
  6
CONTINUOUS
 70
0
 71
3
 72
8
 73
4
 74
0
 42
0.0000001
 43
0.0000001
 44
0.0000000001
 40
0.0
 40
0.0
 40
0.0
 40
0.0
 40
1.0
 40
1.0
 40
1.0
 40
1.0
 10
-1.6694223551
 20
15.3769381936
 30
0.0
 10
-1.6649974323
 20
15.3723439284
 30
0.0
 10
-1.6598965981
 20
15.3683084096
 30
0.0
 10
-1.6543721625
 20
15.3651197068
 30
0.0
  0
SPLINE
  5
394
100
AcDbEntity
  8
RACCORDO
100
AcDbSpline
 62
250
  6
CONTINUOUS
 70
0
 71
3
 72
11
 73
7
 74
0
 42
0.0000001
 43
0.0000001
 44
0.0000000001
 40
0.0
 40
0.0
 40
0.0
 40
0.0
 40
0.2369601141
 40
0.4994513848
 40
0.7622409732
 40
1.0
 40
1.0
 40
1.0
 40
1.0
 10
-1.9782048434
 20
15.2886270022
 30
0.0
 10
-1.9582475372
 20
15.2771039045
 30
0.0
 10
-1.91185649
 20
15.2602441947
 30
0.0
 10
-1.8376338346
 20
15.2520419122
 30
0.0
 10
-1.7632942672
 20
15.2598886889
 30
0.0
 10
-1.7167126622
 20
15.2765066091
 30
0.0
 10
-1.6966016343
 20
15.2879175469
 30
0.0
  0
SPLINE
  5
395
100
AcDbEntity
  8
RACCORDO
100
AcDbSpline
 62
250
  6
CONTINUOUS
 70
0
 71
3
 72
11
 73
7
 74
0
 42
0.0000001
 43
0.0000001
 44
0.0000000001
 40
0.0
 40
0.0
 40
0.0
 40
0.0
 40
0.2369601355
 40
0.4994514163
 40
0.7622409895
 40
1.0
 40
1.0
 40
1.0
 40
1.0
 10
-1.9782048434
 20
-18.8298690988
 30
0.0
 10
-1.9582475356
 20
-18.8413921982
 30
0.0
 10
-1.9118564852
 20
-18.8582519093
 30
0.0
 10
-1.8376338277
 20
-18.8664541912
 30
0.0
 10
-1.7632942622
 20
-18.8586074128
 30
0.0
 10
-1.7167126606
 20
-18.8419894918
 30
0.0
 10
-1.6966016343
 20
-18.8305785542
 30
0.0
  0
SPLINE
  5
396
100
AcDbEntity
  8
RACCORDO
100
AcDbSpline
 62
250
  6
CONTINUOUS
 70
0
 71
3
 72
11
 73
7
 74
0
 42
0.0000001
 43
0.0000001
 44
0.0000000001
 40
0.0
 40
0.0
 40
0.0
 40
0.0
 40
0.232533491
 40
0.4901033122
 40
0.7529908399
 40
1.0
 40
1.0
 40
1.0
 40
1.0
 10
-1.6957799819
 20
-19.3240614041
 30
0.0
 10
-1.6957799933
 20
-19.303619602
 30
0.0
 10
-1.6889135527
 20
-19.2605073159
 30
0.0
 10
-1.6645169723
 20
-19.1985323117
 30
0.0
 10
-1.6276943764
 20
-19.1415107322
 30
0.0
 10
-1.5960298203
 20
-19.1091379509
 30
0.0
 10
-1.5789161866
 20
-19.0957724614
 30
0.0
  0
SPLINE
  5
397
100
AcDbEntity
  8
RACCORDO
100
AcDbSpline
 62
250
  6
CONTINUOUS
 70
0
 71
3
 72
10
 73
6
 74
0
 42
0.0000001
 43
0.0000001
 44
0.0000000001
 40
0.0
 40
0.0
 40
0.0
 40
0.0
 40
0.2333758822
 40
0.4915901143
 40
1.0
 40
1.0
 40
1.0
 40
1.0
 10
-0.8821893326
 20
-19.7938184483
 30
0.0
 10
-0.8821893326
 20
-19.7733607669
 30
0.0
 10
-0.8753571161
 20
-19.7301757888
 30
0.0
 10
-0.8430218251
 20
-19.6484952192
 30
0.0
 10
-0.8004500045
 20
-19.5929612148
 30
0.0
 10
-0.7653255372
 20
-19.5655295058
 30
0.0
  0
SPLINE
  5
398
100
AcDbEntity
  8
RACCORDO
100
AcDbSpline
 62
250
  6
CONTINUOUS
 70
0
 71
3
 72
11
 73
7
 74
0
 42
0.0000001
 43
0.0000001
 44
0.0000000001
 40
0.0
 40
0.0
 40
0.0
 40
0.0
 40
0.2369696321
 40
0.4994769055
 40
0.7622725546
 40
1.0
 40
1.0
 40
1.0
 40
1.0
 10
-0.8821893326
 20
-19.7938184483
 30
0.0
 10
-0.8622312218
 20
-19.8053420114
 30
0.0
 10
-0.8158375803
 20
-19.8222021719
 30
0.0
 10
-0.7416117345
 20
-19.8304037203
 30
0.0
 10
-0.6672730599
 20
-19.8225557171
 30
0.0
 10
-0.620694483
 20
-19.8059373282
 30
0.0
 10
-0.6005861235
 20
-19.7945279037
 30
0.0
  0
SPLINE
  5
399
100
AcDbEntity
  8
RACCORDO
100
AcDbSpline
 62
250
  6
CONTINUOUS
 70
0
 71
3
 72
11
 73
7
 74
0
 42
0.0000001
 43
0.0000001
 44
0.0000000001
 40
0.0
 40
0.0
 40
0.0
 40
0.0
 40
0.2369726124
 40
0.4994865692
 40
0.7622850397
 40
1.0
 40
1.0
 40
1.0
 40
1.0
 10
-0.8821893326
 20
-20.3724089581
 30
0.0
 10
-0.8622309698
 20
-20.3839326666
 30
0.0
 10
-0.8158363596
 20
-20.4007930173
 30
0.0
 10
-0.7416092497
 20
-20.4089943226
 30
0.0
 10
-0.6672708609
 20
-20.4011457835
 30
0.0
 10
-0.6206934279
 20
-20.3845272393
 30
0.0
 10
-0.6005861235
 20
-20.3731184134
 30
0.0
  0
SPLINE
  5
39A
100
AcDbEntity
  8
RACCORDO
100
AcDbSpline
 62
250
  6
CONTINUOUS
 70
0
 71
3
 72
10
 73
6
 74
0
 42
0.0000001
 43
0.0000001
 44
0.0000000001
 40
0.0
 40
0.0
 40
0.0
 40
0.0
 40
0.5476733246
 40
0.7816710477
 40
1.0
 40
1.0
 40
1.0
 40
1.0
 10
-0.8821893326
 20
-20.3724089581
 30
0.0
 10
-0.8821893326
 20
-20.3914992061
 30
0.0
 10
-0.8781341309
 20
-20.4196236166
 30
0.0
 10
-0.859727489
 20
-20.4497429873
 30
0.0
 10
-0.8473937978
 20
-20.4601290957
 30
0.0
 10
-0.8408050805
 20
-20.4639376843
 30
0.0
  0
SPLINE
  5
39B
100
AcDbEntity
  8
RACCORDO
100
AcDbSpline
 62
7
  6
CONTINUOUS
 70
0
 71
3
 72
11
 73
7
 74
0
 42
0.0000001
 43
0.0000001
 44
0.0000000001
 40
0.0
 40
0.0
 40
0.0
 40
0.0
 40
0.2280564339
 40
0.479993936
 40
0.7413813843
 40
1.0
 40
1.0
 40
1.0
 40
1.0
 10
-1.3657093588
 20
16.1698665713
 30
0.0
 10
-1.3863308355
 20
16.1579654246
 30
0.0
 10
-1.4225641851
 20
16.1204713555
 30
0.0
 10
-1.4532063973
 20
16.0480607827
 30
0.0
 10
-1.4604422007
 20
15.9665448825
 30
0.0
 10
-1.4489585721
 20
15.9125245745
 30
0.0
 10
-1.4394325276
 20
15.8872608591
 30
0.0
  0
SPLINE
  5
39C
100
AcDbEntity
  8
RACCORDO
100
AcDbSpline
 62
250
  6
CONTINUOUS
 70
0
 71
3
 72
10
 73
6
 74
0
 42
0.0000001
 43
0.0000001
 44
0.0000000001
 40
0.0
 40
0.0
 40
0.0
 40
0.0
 40
0.5476804679
 40
0.781669694
 40
1.0
 40
1.0
 40
1.0
 40
1.0
 10
-3.0963523487
 20
18.4959929727
 30
0.0
 10
-3.1128908118
 20
18.505542074
 30
0.0
 10
-3.1352277223
 20
18.5231241689
 30
0.0
 10
-3.1521059575
 20
18.5541404538
 30
0.0
 10
-3.1549298857
 20
18.5700211891
 30
0.0
 10
-3.1549309758
 20
18.577634232
 30
0.0
  0
SPLINE
  5
39D
100
AcDbEntity
  8
RACCORDO
100
AcDbSpline
 62
250
  6
CONTINUOUS
 70
0
 71
3
 72
10
 73
6
 74
0
 42
0.0000001
 43
0.0000001
 44
0.0000000001
 40
0.0
 40
0.0
 40
0.0
 40
0.0
 40
0.3479446451
 40
0.6273909042
 40
1.0
 40
1.0
 40
1.0
 40
1.0
 10
-3.2563114818
 20
18.8824987249
 30
0.0
 10
-3.2592936566
 20
18.8770815152
 30
0.0
 10
-3.2641872889
 20
18.866911554
 30
0.0
 10
-3.2697252571
 20
18.8504273782
 30
0.0
 10
-3.2692889022
 20
18.8368721362
 30
0.0
 10
-3.2649135101
 20
18.8319013292
 30
0.0
  0
SPLINE
  5
39E
100
AcDbEntity
  8
RACCORDO
100
AcDbSpline
 62
250
  6
CONTINUOUS
 70
0
 71
3
 72
11
 73
7
 74
0
 42
0.0000001
 43
0.0000001
 44
0.0000000001
 40
0.0
 40
0.0
 40
0.0
 40
0.0
 40
0.2752400278
 40
0.5327478828
 40
0.7719401899
 40
1.0
 40
1.0
 40
1.0
 40
1.0
 10
-1.8182457103
 20
18.0521775716
 30
0.0
 10
-1.8126155444
 20
18.0354486335
 30
0.0
 10
-1.7979382832
 20
18.004152747
 30
0.0
 10
-1.7656128869
 20
17.9658047897
 30
0.0
 10
-1.7256279619
 20
17.9405344871
 30
0.0
 10
-1.6955370519
 20
17.9341707392
 30
0.0
 10
-1.6809147778
 20
17.9338723562
 30
0.0
  0
SPLINE
  5
39F
100
AcDbEntity
  8
RACCORDO
100
AcDbSpline
 62
250
  6
CONTINUOUS
 70
0
 71
3
 72
11
 73
7
 74
0
 42
0.0000001
 43
0.0000001
 44
0.0000000001
 40
0.0
 40
0.0
 40
0.0
 40
0.0
 40
0.2369601346
 40
0.4994514152
 40
0.7622409891
 40
1.0
 40
1.0
 40
1.0
 40
1.0
 10
-1.9782048434
 20
17.8503886168
 30
0.0
 10
-1.9582475357
 20
17.8388655175
 30
0.0
 10
-1.9118564853
 20
17.8220058065
 30
0.0
 10
-1.837633828
 20
17.8138035246
 30
0.0
 10
-1.7632942624
 20
17.8216503029
 30
0.0
 10
-1.7167126607
 20
17.8382682238
 30
0.0
 10
-1.6966016343
 20
17.8496791615
 30
0.0
  0
SPLINE
  5
3A0
100
AcDbEntity
  8
RACCORDO
100
AcDbSpline
 62
7
  6
CONTINUOUS
 70
0
 71
3
 72
9
 73
5
 74
0
 42
0.0000001
 43
0.0000001
 44
0.0000000001
 40
0.0
 40
0.0
 40
0.0
 40
0.0
 40
0.5357033529
 40
1.0
 40
1.0
 40
1.0
 40
1.0
 10
-3.4284733579
 20
17.3608806518
 30
0.0
 10
-3.4734052312
 20
17.3340117897
 30
0.0
 10
-3.5479397073
 20
17.2686795964
 30
0.0
 10
-3.6099240162
 20
17.1927587301
 30
0.0
 10
-3.6351246646
 20
17.1550259805
 30
0.0
  0
SPLINE
  5
3A1
100
AcDbEntity
  8
RACCORDO
100
AcDbSpline
 62
7
  6
CONTINUOUS
 70
0
 71
3
 72
11
 73
7
 74
0
 42
0.0000001
 43
0.0000001
 44
0.0000000001
 40
0.0
 40
0.0
 40
0.0
 40
0.0
 40
0.2280564339
 40
0.479993936
 40
0.7413813843
 40
1.0
 40
1.0
 40
1.0
 40
1.0
 10
-3.9219658005
 20
17.6458170033
 30
0.0
 10
-3.9425872773
 20
17.6339158567
 30
0.0
 10
-3.9788206269
 20
17.5964217876
 30
0.0
 10
-4.0094628391
 20
17.5240112148
 30
0.0
 10
-4.0166986425
 20
17.4424953146
 30
0.0
 10
-4.0052150139
 20
17.3884750065
 30
0.0
 10
-3.9956889693
 20
17.3632112911
 30
0.0
  0
SPLINE
  5
3A2
100
AcDbEntity
  8
RACCORDO
100
AcDbSpline
 62
250
  6
CONTINUOUS
 70
0
 71
3
 72
10
 73
6
 74
0
 42
0.0000001
 43
0.0000001
 44
0.0000000001
 40
0.0
 40
0.0
 40
0.0
 40
0.0
 40
0.5476801998
 40
0.7816695345
 40
1.0
 40
1.0
 40
1.0
 40
1.0
 10
-4.1923678596
 20
-18.4611533629
 30
0.0
 10
-4.1923678596
 20
-18.4802504972
 30
0.0
 10
-4.1883098278
 20
-18.5083857092
 30
0.0
 10
-4.169887686
 20
-18.5385107053
 30
0.0
 10
-4.1575445393
 20
-18.5488945108
 30
0.0
 10
-4.1509513339
 20
-18.5527007326
 30
0.0
  0
SPLINE
  5
3A3
100
AcDbEntity
  8
RACCORDO
100
AcDbSpline
 62
250
  6
CONTINUOUS
 70
0
 71
3
 72
10
 73
6
 74
0
 42
0.0000001
 43
0.0000001
 44
0.0000000001
 40
0.0
 40
0.0
 40
0.0
 40
0.0
 40
0.5476727988
 40
0.7816650986
 40
1.0
 40
1.0
 40
1.0
 40
1.0
 10
-4.1923678596
 20
-18.4611533629
 30
0.0
 10
-4.2089077828
 20
-18.4516034185
 30
0.0
 10
-4.2312461961
 20
-18.4340187946
 30
0.0
 10
-4.2481252689
 20
-18.4029985398
 30
0.0
 10
-4.2509467147
 20
-18.3871152163
 30
0.0
 10
-4.2509465001
 20
-18.3795012343
 30
0.0
  0
SPLINE
  5
3A4
100
AcDbEntity
  8
RACCORDO
100
AcDbSpline
 62
250
  6
CONTINUOUS
 70
0
 71
3
 72
10
 73
6
 74
0
 42
0.0000001
 43
0.0000001
 44
0.0000000001
 40
0.0
 40
0.0
 40
0.0
 40
0.0
 40
0.5476699092
 40
0.7816682097
 40
1.0
 40
1.0
 40
1.0
 40
1.0
 10
-4.1923678596
 20
-17.8825628532
 30
0.0
 10
-4.2089023574
 20
-17.8730160413
 30
0.0
 10
-4.2312336306
 20
-17.8554387266
 30
0.0
 10
-4.2481149321
 20
-17.8244333188
 30
0.0
 10
-4.250942719
 20
-17.8085566851
 30
0.0
 10
-4.2509464851
 20
-17.8009452699
 30
0.0
  0
SPLINE
  5
3A5
100
AcDbEntity
  8
RACCORDO
100
AcDbSpline
 62
250
  6
CONTINUOUS
 70
0
 71
3
 72
10
 73
6
 74
0
 42
0.0000001
 43
0.0000001
 44
0.0000000001
 40
0.0
 40
0.0
 40
0.0
 40
0.0
 40
0.2333758821
 40
0.4915901144
 40
1.0
 40
1.0
 40
1.0
 40
1.0
 10
-4.1923678596
 20
-17.8825628532
 30
0.0
 10
-4.1923678596
 20
-17.8621051717
 30
0.0
 10
-4.185535643
 20
-17.8189201936
 30
0.0
 10
-4.153200352
 20
-17.737239624
 30
0.0
 10
-4.1106285314
 20
-17.6817056196
 30
0.0
 10
-4.0755040641
 20
-17.6542739106
 30
0.0
  0
SPLINE
  5
3A6
100
AcDbEntity
  8
RACCORDO
100
AcDbSpline
 62
250
  6
CONTINUOUS
 70
0
 71
3
 72
11
 73
7
 74
0
 42
0.0000001
 43
0.0000001
 44
0.0000000001
 40
0.0
 40
0.0
 40
0.0
 40
0.0
 40
0.2325334387
 40
0.4901032467
 40
0.7529908217
 40
1.0
 40
1.0
 40
1.0
 40
1.0
 10
-3.3787772102
 20
-18.3523198974
 30
0.0
 10
-3.3787772102
 20
-18.3318781013
 30
0.0
 10
-3.3719107568
 20
-18.2887658278
 30
0.0
 10
-3.3475141705
 20
-18.2267908337
 30
0.0
 10
-3.3106915838
 20
-18.1697692503
 30
0.0
 10
-3.2790270413
 20
-18.1373964535
 30
0.0
 10
-3.2619134148
 20
-18.1240309548
 30
0.0
  0
SPLINE
  5
3A7
100
AcDbEntity
  8
RACCORDO
100
AcDbSpline
 62
250
  6
CONTINUOUS
 70
0
 71
3
 72
10
 73
6
 74
0
 42
0.0000001
 43
0.0000001
 44
0.0000000001
 40
0.0
 40
0.0
 40
0.0
 40
0.0
 40
0.5476809738
 40
0.7816695677
 40
1.0
 40
1.0
 40
1.0
 40
1.0
 10
-3.0963523487
 20
-18.1842647429
 30
0.0
 10
-3.1128912604
 20
-18.1747153833
 30
0.0
 10
-3.1352287688
 20
-18.1571326986
 30
0.0
 10
-3.1521067865
 20
-18.1261151919
 30
0.0
 10
-3.1549302092
 20
-18.1102339269
 30
0.0
 10
-3.1549309761
 20
-18.1026206802
 30
0.0
  0
SPLINE
  5
3A8
100
AcDbEntity
  8
RACCORDO
100
AcDbSpline
 62
250
  6
CONTINUOUS
 70
0
 71
3
 72
10
 73
6
 74
0
 42
0.0000001
 43
0.0000001
 44
0.0000000001
 40
0.0
 40
0.0
 40
0.0
 40
0.0
 40
0.5476804345
 40
0.7816697018
 40
1.0
 40
1.0
 40
1.0
 40
1.0
 10
-3.0963523487
 20
15.9342313581
 30
0.0
 10
-3.1128907823
 20
15.9437804424
 30
0.0
 10
-3.1352276536
 20
15.9613624985
 30
0.0
 10
-3.152105903
 20
15.9923787031
 30
0.0
 10
-3.1549298644
 20
16.0082594035
 30
0.0
 10
-3.1549309757
 20
16.0158724331
 30
0.0
  0
SPLINE
  5
3A9
100
AcDbEntity
  8
RACCORDO
100
AcDbSpline
 62
250
  6
CONTINUOUS
 70
0
 71
3
 72
11
 73
7
 74
0
 42
0.0000001
 43
0.0000001
 44
0.0000000001
 40
0.0
 40
0.0
 40
0.0
 40
0.0
 40
0.288631029
 40
0.5487057091
 40
0.7822991278
 40
1.0
 40
1.0
 40
1.0
 40
1.0
 10
-3.3787772102
 20
16.4284236634
 30
0.0
 10
-3.3787772046
 20
16.4183318934
 30
0.0
 10
-3.3771885104
 20
16.3990869966
 30
0.0
 10
-3.3694357686
 20
16.3726119264
 30
0.0
 10
-3.3563398249
 20
16.3510596022
 30
0.0
 10
-3.3439840227
 20
16.3406828233
 30
0.0
 10
-3.3373932008
 20
16.3368749631
 30
0.0
  0
SPLINE
  5
3AA
100
AcDbEntity
  8
RACCORDO
100
AcDbSpline
 62
250
  6
CONTINUOUS
 70
0
 71
3
 72
10
 73
6
 74
0
 42
0.0000001
 43
0.0000001
 44
0.0000000001
 40
0.0
 40
0.0
 40
0.0
 40
0.0
 40
0.5477410078
 40
0.7816705693
 40
1.0
 40
1.0
 40
1.0
 40
1.0
 10
-4.1923678596
 20
16.8981807077
 30
0.0
 10
-4.1923678596
 20
16.8790814352
 30
0.0
 10
-4.1883099349
 20
16.8509457733
 30
0.0
 10
-4.1698871379
 20
16.8208213688
 30
0.0
 10
-4.157544459
 20
16.8104396406
 30
0.0
 10
-4.1509503253
 20
16.8066350852
 30
0.0
  0
SPLINE
  5
3AB
100
AcDbEntity
  8
RACCORDO
100
AcDbSpline
 62
250
  6
CONTINUOUS
 70
0
 71
3
 72
10
 73
6
 74
0
 42
0.0000001
 43
0.0000001
 44
0.0000000001
 40
0.0
 40
0.0
 40
0.0
 40
0.0
 40
0.547668304
 40
0.7816685593
 40
1.0
 40
1.0
 40
1.0
 40
1.0
 10
-4.1923678596
 20
16.8981807077
 30
0.0
 10
-4.2089009673
 20
16.9077267169
 30
0.0
 10
-4.2312303902
 20
16.9253022016
 30
0.0
 10
-4.2481123615
 20
16.9563038254
 30
0.0
 10
-4.2509417141
 20
16.9721788188
 30
0.0
 10
-4.2509464802
 20
16.9797896037
 30
0.0
  0
SPLINE
  5
3AC
100
AcDbEntity
  8
RACCORDO
100
AcDbSpline
 62
250
  6
CONTINUOUS
 70
0
 71
3
 72
10
 73
6
 74
0
 42
0.0000001
 43
0.0000001
 44
0.0000000001
 40
0.0
 40
0.0
 40
0.0
 40
0.0
 40
0.5476664256
 40
0.7816665008
 40
1.0
 40
1.0
 40
1.0
 40
1.0
 10
-4.1923678596
 20
17.4767712174
 30
0.0
 10
-4.2089022534
 20
17.4863179692
 30
0.0
 10
-4.2312333058
 20
17.5038953126
 30
0.0
 10
-4.2481150475
 20
17.5349005136
 30
0.0
 10
-4.2509427257
 20
17.5507773123
 30
0.0
 10
-4.2509464921
 20
17.5583887877
 30
0.0
  0
SPLINE
  5
3AD
100
AcDbEntity
  8
RACCORDO
100
AcDbSpline
 62
250
  6
CONTINUOUS
 70
0
 71
3
 72
11
 73
7
 74
0
 42
0.0000001
 43
0.0000001
 44
0.0000000001
 40
0.0
 40
0.0
 40
0.0
 40
0.0
 40
0.2369667601
 40
0.4994804319
 40
0.7622819524
 40
1.0
 40
1.0
 40
1.0
 40
1.0
 10
-4.1923678596
 20
17.4767712174
 30
0.0
 10
-4.1923678596
 20
17.4998167986
 30
0.0
 10
-4.1837708239
 20
17.5484246717
 30
0.0
 10
-4.1537593802
 20
17.616806699
 30
0.0
 10
-4.1097937574
 20
17.6772617505
 30
0.0
 10
-4.0721140887
 20
17.7092912137
 30
0.0
 10
-4.0521806218
 20
17.7210014091
 30
0.0
  0
SPLINE
  5
3AE
100
AcDbEntity
  8
RACCORDO
100
AcDbSpline
 62
7
  6
CONTINUOUS
 70
0
 71
3
 72
10
 73
6
 74
0
 42
0.0000001
 43
0.0000001
 44
0.0000000001
 40
0.0
 40
0.0
 40
0.0
 40
0.0
 40
0.4416267603
 40
0.7242589147
 40
1.0
 40
1.0
 40
1.0
 40
1.0
 10
2.9658019194
 20
17.6239904823
 30
0.0
 10
2.9241688253
 20
17.6476120421
 30
0.0
 10
2.8561215121
 20
17.6867547307
 30
0.0
 10
2.7621897347
 20
17.7408389933
 30
0.0
 10
2.7100814362
 20
17.7716246939
 30
0.0
 10
2.6841987103
 20
17.7865690554
 30
0.0
  0
SPLINE
  5
3AF
100
AcDbEntity
  8
RACCORDO
100
AcDbSpline
 62
250
  6
CONTINUOUS
 70
0
 71
3
 72
11
 73
7
 74
0
 42
0.0000001
 43
0.0000001
 44
0.0000000001
 40
0.0
 40
0.0
 40
0.0
 40
0.0
 40
0.2369601279
 40
0.4994514294
 40
0.7622410125
 40
1.0
 40
1.0
 40
1.0
 40
1.0
 10
2.6841987103
 20
20.088112263
 30
0.0
 10
2.7041560213
 20
20.0765891737
 30
0.0
 10
2.7505470746
 20
20.0597294799
 30
0.0
 10
2.824769729
 20
20.0515272075
 30
0.0
 10
2.8991092898
 20
20.0593739773
 30
0.0
 10
2.9456908913
 20
20.0759918809
 30
0.0
 10
2.9658019194
 20
20.0874028076
 30
0.0
  0
SPLINE
  5
3B0
100
AcDbEntity
  8
RACCORDO
100
AcDbSpline
 62
250
  6
CONTINUOUS
 70
0
 71
3
 72
11
 73
7
 74
0
 42
0.0000001
 43
0.0000001
 44
0.0000000001
 40
0.0
 40
0.0
 40
0.0
 40
0.0
 40
0.2369726124
 40
0.4994865692
 40
0.7622850397
 40
1.0
 40
1.0
 40
1.0
 40
1.0
 10
-1.9782048434
 20
-21.0725088388
 30
0.0
 10
-1.9582464807
 20
-21.0840325473
 30
0.0
 10
-1.9118518704
 20
-21.100892898
 30
0.0
 10
-1.8376247605
 20
-21.1090942033
 30
0.0
 10
-1.7632863717
 20
-21.1012456642
 30
0.0
 10
-1.7167089387
 20
-21.08462712
 30
0.0
 10
-1.6966016343
 20
-21.0732182942
 30
0.0
  0
SPLINE
  5
3B1
100
AcDbEntity
  8
RACCORDO
100
AcDbSpline
 62
250
  6
CONTINUOUS
 70
0
 71
3
 72
10
 73
6
 74
0
 42
0.0000001
 43
0.0000001
 44
0.0000000001
 40
0.0
 40
0.0
 40
0.0
 40
0.0
 40
0.5476733247
 40
0.7816710477
 40
1.0
 40
1.0
 40
1.0
 40
1.0
 10
-1.9782048434
 20
-21.0725088388
 30
0.0
 10
-1.9782048434
 20
-21.0915990868
 30
0.0
 10
-1.9741496417
 20
-21.1197234974
 30
0.0
 10
-1.9557429999
 20
-21.149842868
 30
0.0
 10
-1.9434093086
 20
-21.1602289765
 30
0.0
 10
-1.9368205913
 20
-21.164037565
 30
0.0
  0
SPLINE
  5
3B2
100
AcDbEntity
  8
RACCORDO
100
AcDbSpline
 62
250
  6
CONTINUOUS
 70
0
 71
3
 72
10
 73
6
 74
0
 42
0.0000001
 43
0.0000001
 44
0.0000000001
 40
0.0
 40
0.0
 40
0.0
 40
0.0
 40
0.5476898697
 40
0.7816736879
 40
1.0
 40
1.0
 40
1.0
 40
1.0
 10
-2.5372785961
 20
-20.7497066609
 30
0.0
 10
-2.5372785961
 20
-20.7688041171
 30
0.0
 10
-2.5332211766
 20
-20.7969399126
 30
0.0
 10
-2.5147975346
 20
-20.8270638392
 30
0.0
 10
-2.502455112
 20
-20.8374478269
 30
0.0
 10
-2.495862064
 20
-20.8412540194
 30
0.0
  0
SPLINE
  5
3B3
100
AcDbEntity
  8
RACCORDO
100
AcDbSpline
 62
250
  6
CONTINUOUS
 70
0
 71
3
 72
10
 73
6
 74
0
 42
0.0000001
 43
0.0000001
 44
0.0000000001
 40
0.0
 40
0.0
 40
0.0
 40
0.0
 40
0.5343464654
 40
0.773104161
 40
1.0
 40
1.0
 40
1.0
 40
1.0
 10
-3.0963523487
 20
-20.5179296354
 30
0.0
 10
-3.0905366769
 20
-20.5446256809
 30
0.0
 10
-3.0743513856
 20
-20.5829889508
 30
0.0
 10
-3.0361163498
 20
-20.6179594168
 30
0.0
 10
-3.0138177819
 20
-20.6277533247
 30
0.0
 10
-3.0025498574
 20
-20.6305158486
 30
0.0
  0
SPLINE
  5
3B4
100
AcDbEntity
  8
RACCORDO
100
AcDbSpline
 62
250
  6
CONTINUOUS
 70
0
 71
3
 72
10
 73
6
 74
0
 42
0.0000001
 43
0.0000001
 44
0.0000000001
 40
0.0
 40
0.0
 40
0.0
 40
0.0
 40
0.5476209186
 40
0.7816626129
 40
1.0
 40
1.0
 40
1.0
 40
1.0
 10
-3.0963523487
 20
-20.5179296353
 30
0.0
 10
-3.1128727076
 20
-20.5083909871
 30
0.0
 10
-3.1351860909
 20
-20.4908313823
 30
0.0
 10
-3.1520741113
 20
-20.4598613531
 30
0.0
 10
-3.1549158414
 20
-20.4439993091
 30
0.0
 10
-3.1549307579
 20
-20.4363935409
 30
0.0
  0
SPLINE
  5
3B5
100
AcDbEntity
  8
RACCORDO
100
AcDbSpline
 62
250
  6
CONTINUOUS
 70
0
 71
3
 72
9
 73
5
 74
0
 42
0.0000001
 43
0.0000001
 44
0.0000000001
 40
0.0
 40
0.0
 40
0.0
 40
0.0
 40
0.2352371874
 40
1.0
 40
1.0
 40
1.0
 40
1.0
 10
2.9069553312
 20
3.2125286838
 30
0.0
 10
2.916892996
 20
3.2453272753
 30
0.0
 10
2.9529940682
 20
3.3866111131
 30
0.0
 10
2.9657879572
 20
3.5332733167
 30
0.0
 10
2.9658019194
 20
3.644689474
 30
0.0
  0
SPLINE
  5
3B6
100
AcDbEntity
  8
RACCORDO
100
AcDbSpline
 62
250
  6
CONTINUOUS
 70
0
 71
3
 72
9
 73
5
 74
0
 42
0.0000001
 43
0.0000001
 44
0.0000000001
 40
0.0
 40
0.0
 40
0.0
 40
0.0
 40
0.238539208
 40
1.0
 40
1.0
 40
1.0
 40
1.0
 10
2.9658019194
 20
-1.9564745409
 30
0.0
 10
2.9657968953
 20
-1.9163878328
 30
0.0
 10
2.9604191606
 20
-1.7483488236
 30
0.0
 10
2.9349742444
 20
-1.5812181188
 30
0.0
 10
2.9069553312
 20
-1.4563591857
 30
0.0
  0
SPLINE
  5
3B7
100
AcDbEntity
  8
RACCORDO
100
AcDbSpline
 62
250
  6
CONTINUOUS
 70
0
 71
3
 72
9
 73
5
 74
0
 42
0.0000001
 43
0.0000001
 44
0.0000000001
 40
0.0
 40
0.0
 40
0.0
 40
0.0
 40
0.5002401167
 40
1.0
 40
1.0
 40
1.0
 40
1.0
 10
1.8530814267
 20
-19.2381613157
 30
0.0
 10
1.8147605445
 20
-19.2196783377
 30
0.0
 10
1.7283714586
 20
-19.2037002202
 30
0.0
 10
1.6419332172
 20
-19.217864946
 30
0.0
 10
1.6030399534
 20
-19.2350099382
 30
0.0
  0
SPLINE
  5
3B8
100
AcDbEntity
  8
RACCORDO
100
AcDbSpline
 62
250
  6
CONTINUOUS
 70
0
 71
3
 72
9
 73
5
 74
0
 42
0.0000001
 43
0.0000001
 44
0.0000000001
 40
0.0
 40
0.0
 40
0.0
 40
0.0
 40
0.2550415988
 40
1.0
 40
1.0
 40
1.0
 40
1.0
 10
1.8685683512
 20
19.6915639695
 30
0.0
 10
1.8670052147
 20
19.6961231882
 30
0.0
 10
1.8603093052
 20
19.7137973068
 30
0.0
 10
1.8513585474
 20
19.7306393918
 30
0.0
 10
1.8434535735
 20
19.742288624
 30
0.0
  0
SPLINE
  5
3B9
100
AcDbEntity
  8
RACCORDO
100
AcDbSpline
 62
7
  6
CONTINUOUS
 70
0
 71
3
 72
9
 73
5
 74
0
 42
0.0000001
 43
0.0000001
 44
0.0000000001
 40
0.0
 40
0.0
 40
0.0
 40
0.0
 40
0.4747001731
 40
1.0
 40
1.0
 40
1.0
 40
1.0
 10
2.6025872753
 20
20.5232744446
 30
0.0
 10
2.6218413802
 20
20.5341010584
 30
0.0
 10
2.6664259164
 20
20.5497766215
 30
0.0
 10
2.7130554573
 20
20.5546796743
 30
0.0
 10
2.7374990645
 20
20.5547853268
 30
0.0
  0
SPLINE
  5
3BA
100
AcDbEntity
  8
RACCORDO
100
AcDbSpline
 62
250
  6
CONTINUOUS
 70
0
 71
3
 72
9
 73
5
 74
0
 42
0.0000001
 43
0.0000001
 44
0.0000000001
 40
0.0
 40
0.0
 40
0.0
 40
0.0
 40
0.2563888707
 40
1.0
 40
1.0
 40
1.0
 40
1.0
 10
2.6841987103
 20
20.088112263
 30
0.0
 10
2.6940360012
 20
20.127096515
 30
0.0
 10
2.7265066383
 20
20.2806354899
 30
0.0
 10
2.7378513633
 20
20.4381749357
 30
0.0
 10
2.7375038913
 20
20.5547856822
 30
0.0
  0
SPLINE
  5
3BB
100
AcDbEntity
  8
RACCORDO
100
AcDbSpline
 62
250
  6
CONTINUOUS
 70
0
 71
3
 72
9
 73
5
 74
0
 42
0.0000001
 43
0.0000001
 44
0.0000000001
 40
0.0
 40
0.0
 40
0.0
 40
0.0
 40
0.2341274792
 40
1.0
 40
1.0
 40
1.0
 40
1.0
 10
1.8685683512
 20
19.6915639694
 30
0.0
 10
1.8635755327
 20
19.6944467602
 30
0.0
 10
1.8416741916
 20
19.7057543773
 30
0.0
 10
1.8179870265
 20
19.7134160511
 30
0.0
 10
1.7995856838
 20
19.7175470164
 30
0.0
  0
SPLINE
  5
3BC
100
AcDbEntity
  8
RACCORDO
100
AcDbSpline
 62
250
  6
CONTINUOUS
 70
0
 71
3
 72
10
 73
6
 74
0
 42
0.0000001
 43
0.0000001
 44
0.0000000001
 40
0.0
 40
0.0
 40
0.0
 40
0.0
 40
0.5476733246
 40
0.7816710477
 40
1.0
 40
1.0
 40
1.0
 40
1.0
 10
2.6841987103
 20
-19.7174024246
 30
0.0
 10
2.6841987103
 20
-19.7364926726
 30
0.0
 10
2.688253912
 20
-19.7646170832
 30
0.0
 10
2.7066605539
 20
-19.7947364538
 30
0.0
 10
2.7189942451
 20
-19.8051225623
 30
0.0
 10
2.7255829624
 20
-19.8089311508
 30
0.0
  0
SPLINE
  5
3BD
100
AcDbEntity
  8
RACCORDO
100
AcDbSpline
 62
250
  6
CONTINUOUS
 70
0
 71
3
 72
11
 73
7
 74
0
 42
0.0000001
 43
0.0000001
 44
0.0000000001
 40
0.0
 40
0.0
 40
0.0
 40
0.0
 40
0.2369726124
 40
0.4994865692
 40
0.7622850397
 40
1.0
 40
1.0
 40
1.0
 40
1.0
 10
2.6841987103
 20
-19.7174024246
 30
0.0
 10
2.7041570731
 20
-19.7289261331
 30
0.0
 10
2.7505516833
 20
-19.7457864838
 30
0.0
 10
2.8247787932
 20
-19.7539877891
 30
0.0
 10
2.899117182
 20
-19.7461392501
 30
0.0
 10
2.945694615
 20
-19.7295207059
 30
0.0
 10
2.9658019194
 20
-19.71811188
 30
0.0
  0
SPLINE
  5
3BE
100
AcDbEntity
  8
RACCORDO
100
AcDbSpline
 62
250
  6
CONTINUOUS
 70
0
 71
3
 72
11
 73
7
 74
0
 42
0.0000001
 43
0.0000001
 44
0.0000000001
 40
0.0
 40
0.0
 40
0.0
 40
0.0
 40
0.2377274453
 40
0.5005230945
 40
0.7630303679
 40
1.0
 40
1.0
 40
1.0
 40
1.0
 10
1.5869651421
 20
-16.3047474142
 30
0.0
 10
1.6070735015
 20
-16.2933379897
 30
0.0
 10
1.6536520785
 20
-16.2767196009
 30
0.0
 10
1.7279907531
 20
-16.2688715976
 30
0.0
 10
1.8022165989
 20
-16.2770731461
 30
0.0
 10
1.8486102404
 20
-16.2939333066
 30
0.0
 10
1.8685683512
 20
-16.3054568696
 30
0.0
  0
SPLINE
  5
3BF
100
AcDbEntity
  8
RACCORDO
100
AcDbSpline
 62
250
  6
CONTINUOUS
 70
0
 71
3
 72
10
 73
6
 74
0
 42
0.0000001
 43
0.0000001
 44
0.0000000001
 40
0.0
 40
0.0
 40
0.0
 40
0.0
 40
0.5084098857
 40
0.7666241178
 40
1.0
 40
1.0
 40
1.0
 40
1.0
 10
1.7517045557
 20
-16.5337458122
 30
0.0
 10
1.786829023
 20
-16.5063141031
 30
0.0
 10
1.8294008436
 20
-16.4507800988
 30
0.0
 10
1.8617361347
 20
-16.3690995291
 30
0.0
 10
1.8685683512
 20
-16.3259145511
 30
0.0
 10
1.8685683512
 20
-16.3054568696
 30
0.0
  0
SPLINE
  5
3C0
100
AcDbEntity
  8
RACCORDO
100
AcDbSpline
 62
250
  6
CONTINUOUS
 70
0
 71
3
 72
11
 73
7
 74
0
 42
0.0000001
 43
0.0000001
 44
0.0000000001
 40
0.0
 40
0.0
 40
0.0
 40
0.0
 40
0.2369601217
 40
0.4994513961
 40
0.7622409792
 40
1.0
 40
1.0
 40
1.0
 40
1.0
 10
2.6841987103
 20
-1.9557650855
 30
0.0
 10
2.704156017
 20
-1.9672881841
 30
0.0
 10
2.7505470653
 20
-1.9841478948
 30
0.0
 10
2.8247697216
 20
-1.9923501774
 30
0.0
 10
2.8991092885
 20
-1.9845033998
 30
0.0
 10
2.9456908922
 20
-1.967885479
 30
0.0
 10
2.9658019194
 20
-1.956474541
 30
0.0
  0
SPLINE
  5
3C1
100
AcDbEntity
  8
RACCORDO
100
AcDbSpline
 62
250
  6
CONTINUOUS
 70
0
 71
3
 72
11
 73
7
 74
0
 42
0.0000001
 43
0.0000001
 44
0.0000000001
 40
0.0
 40
0.0
 40
0.0
 40
0.0
 40
0.2194772207
 40
0.4810832682
 40
0.7527371788
 40
1.0
 40
1.0
 40
1.0
 40
1.0
 10
2.6312367809
 20
-1.5056612658
 30
0.0
 10
2.6515311913
 20
-1.5103990692
 30
0.0
 10
2.6976284675
 20
-1.5134703501
 30
0.0
 10
2.7689033696
 20
-1.5059252019
 30
0.0
 10
2.8409267638
 20
-1.4874379405
 30
0.0
 10
2.8865636079
 20
-1.4679959687
 30
0.0
 10
2.9069553312
 20
-1.4563591857
 30
0.0
  0
SPLINE
  5
3C2
100
AcDbEntity
  8
RACCORDO
100
AcDbSpline
 62
250
  6
CONTINUOUS
 70
0
 71
3
 72
10
 73
6
 74
0
 42
0.0000001
 43
0.0000001
 44
0.0000000001
 40
0.0
 40
0.0
 40
0.0
 40
0.0
 40
0.2549825925
 40
0.5197272554
 40
1.0
 40
1.0
 40
1.0
 40
1.0
 10
2.6312367809
 20
3.2564542182
 30
0.0
 10
2.6495605994
 20
3.2395720936
 30
0.0
 10
2.6930817154
 20
3.2113968419
 30
0.0
 10
2.7865251787
 20
3.1822929682
 30
0.0
 10
2.8660960375
 20
3.1894449542
 30
0.0
 10
2.9069553312
 20
3.2125286838
 30
0.0
  0
SPLINE
  5
3C3
100
AcDbEntity
  8
RACCORDO
100
AcDbSpline
 62
250
  6
CONTINUOUS
 70
0
 71
3
 72
11
 73
7
 74
0
 42
0.0000001
 43
0.0000001
 44
0.0000000001
 40
0.0
 40
0.0
 40
0.0
 40
0.0
 40
0.2369601355
 40
0.4994514163
 40
0.7622409896
 40
1.0
 40
1.0
 40
1.0
 40
1.0
 10
2.6841987103
 20
3.6453989294
 30
0.0
 10
2.7041560181
 20
3.6338758299
 30
0.0
 10
2.7505470686
 20
3.6170161188
 30
0.0
 10
2.824769726
 20
3.6088138369
 30
0.0
 10
2.8991092915
 20
3.6166606154
 30
0.0
 10
2.9456908931
 20
3.6332785363
 30
0.0
 10
2.9658019194
 20
3.644689474
 30
0.0
  0
SPLINE
  5
3C4
100
AcDbEntity
  8
RACCORDO
100
AcDbSpline
 62
250
  6
CONTINUOUS
 70
0
 71
3
 72
9
 73
5
 74
0
 42
0.0000001
 43
0.0000001
 44
0.0000000001
 40
0.0
 40
0.0
 40
0.0
 40
0.0
 40
0.2229656811
 40
1.0
 40
1.0
 40
1.0
 40
1.0
 10
2.9658019194
 20
-17.0511410353
 30
0.0
 10
2.9589701532
 20
-17.0418737088
 30
0.0
 10
2.9274715897
 20
-17.0009461591
 30
0.0
 10
2.8933369693
 20
-16.9620775169
 30
0.0
 10
2.8657444971
 20
-16.9329471559
 30
0.0
  0
SPLINE
  5
3C5
100
AcDbEntity
  8
RACCORDO
100
AcDbSpline
 62
250
  6
CONTINUOUS
 70
0
 71
3
 72
9
 73
5
 74
0
 42
0.0000001
 43
0.0000001
 44
0.0000000001
 40
0.0
 40
0.0
 40
0.0
 40
0.0
 40
0.2280297441
 40
1.0
 40
1.0
 40
1.0
 40
1.0
 10
2.9658019194
 20
-17.0511410353
 30
0.0
 10
2.9534193541
 20
-17.0527955379
 30
0.0
 10
2.8989175802
 20
-17.0585033144
 30
0.0
 10
2.8439015643
 20
-17.0589705885
 30
0.0
 10
2.8016693425
 20
-17.0567154073
 30
0.0
  0
SPLINE
  5
3C6
100
AcDbEntity
  8
RACCORDO
100
AcDbSpline
 62
250
  6
CONTINUOUS
 70
0
 71
3
 72
10
 73
6
 74
0
 42
0.0000001
 43
0.0000001
 44
0.0000000001
 40
0.0
 40
0.0
 40
0.0
 40
0.0
 40
0.4807597082
 40
0.7469005804
 40
1.0
 40
1.0
 40
1.0
 40
1.0
 10
2.8657444971
 20
-16.9329471559
 30
0.0
 10
2.8392921178
 20
-16.9049992047
 30
0.0
 10
2.7965532455
 20
-16.8630467199
 30
0.0
 10
2.7354811379
 20
-16.811303546
 30
0.0
 10
2.7017227066
 20
-16.7868220488
 30
0.0
 10
2.6843019443
 20
-16.7764810644
 30
0.0
  0
SPLINE
  5
3C7
100
AcDbEntity
  8
RACCORDO
100
AcDbSpline
 62
250
  6
CONTINUOUS
 70
0
 71
3
 72
11
 73
7
 74
0
 42
0.0000001
 43
0.0000001
 44
0.0000000001
 40
0.0
 40
0.0
 40
0.0
 40
0.0
 40
0.2318048846
 40
0.4889759078
 40
0.7519039539
 40
1.0
 40
1.0
 40
1.0
 40
1.0
 10
2.6843019687
 20
-16.7764512368
 30
0.0
 10
2.6840522111
 20
-16.7968209508
 30
0.0
 10
2.6768262323
 20
-16.8397487894
 30
0.0
 10
2.6518453572
 20
-16.9013639067
 30
0.0
 10
2.6145829277
 20
-16.9581469968
 30
0.0
 10
2.582443002
 20
-16.9902075097
 30
0.0
 10
2.5650587031
 20
-17.0033663031
 30
0.0
  0
SPLINE
  5
3C8
100
AcDbEntity
  8
RACCORDO
100
AcDbSpline
 62
250
  6
CONTINUOUS
 70
0
 71
3
 72
9
 73
5
 74
0
 42
0.0000001
 43
0.0000001
 44
0.0000000001
 40
0.0
 40
0.0
 40
0.0
 40
0.0
 40
0.4947304549
 40
1.0
 40
1.0
 40
1.0
 40
1.0
 10
2.6843072939
 20
16.0165836358
 30
0.0
 10
2.6952540434
 20
16.0104496397
 30
0.0
 10
2.7215317655
 20
16.0047365111
 30
0.0
 10
2.7465495124
 20
16.0118713989
 30
0.0
 10
2.7583313223
 20
16.0169138357
 30
0.0
  0
SPLINE
  5
3C9
100
AcDbEntity
  8
RACCORDO
100
AcDbSpline
 62
250
  6
CONTINUOUS
 70
0
 71
3
 72
9
 73
5
 74
0
 42
0.0000001
 43
0.0000001
 44
0.0000000001
 40
0.0
 40
0.0
 40
0.0
 40
0.0
 40
0.4853996081
 40
1.0
 40
1.0
 40
1.0
 40
1.0
 10
2.7583313223
 20
16.0169138357
 30
0.0
 10
2.7796468538
 20
16.0260365615
 30
0.0
 10
2.8189842506
 20
16.0549702341
 30
0.0
 10
2.8507025911
 20
16.0907772821
 30
0.0
 10
2.865743277
 20
16.1102189518
 30
0.0
  0
SPLINE
  5
3CA
100
AcDbEntity
  8
RACCORDO
100
AcDbSpline
 62
250
  6
CONTINUOUS
 70
0
 71
3
 72
9
 73
5
 74
0
 42
0.0000001
 43
0.0000001
 44
0.0000000001
 40
0.0
 40
0.0
 40
0.0
 40
0.0
 40
0.2546750346
 40
1.0
 40
1.0
 40
1.0
 40
1.0
 10
2.8016673896
 20
16.1612756156
 30
0.0
 10
2.8169308391
 20
16.1703000763
 30
0.0
 10
2.8754916244
 20
16.2080282594
 30
0.0
 10
2.9291293855
 20
16.2532296802
 30
0.0
 10
2.9658019194
 20
16.289945138
 30
0.0
  0
SPLINE
  5
3CB
100
AcDbEntity
  8
RACCORDO
100
AcDbSpline
 62
250
  6
CONTINUOUS
 70
0
 71
3
 72
9
 73
5
 74
0
 42
0.0000001
 43
0.0000001
 44
0.0000000001
 40
0.0
 40
0.0
 40
0.0
 40
0.0
 40
0.493196742
 40
1.0
 40
1.0
 40
1.0
 40
1.0
 10
2.865743277
 20
16.1102189518
 30
0.0
 10
2.8864838189
 20
16.1370264479
 30
0.0
 10
2.9235586735
 20
16.1952686314
 30
0.0
 10
2.9528249856
 20
16.2576237318
 30
0.0
 10
2.9658019194
 20
16.289945138
 30
0.0
  0
SPLINE
  5
3CC
100
AcDbEntity
  8
RACCORDO
100
AcDbSpline
 62
250
  6
CONTINUOUS
 70
0
 71
3
 72
15
 73
11
 74
0
 42
0.0000001
 43
0.0000001
 44
0.0000000001
 40
0.0
 40
0.0
 40
0.0
 40
0.0
 40
0.1541211057
 40
0.2904988367
 40
0.4038919573
 40
0.4995696393
 40
0.5953816566
 40
0.7090622459
 40
0.8457132095
 40
1.0
 40
1.0
 40
1.0
 40
1.0
 10
-3.3602741391
 20
-23.5459276243
 30
0.0
 10
-3.3629149125
 20
-23.5398639989
 30
0.0
 10
-3.3668122251
 20
-23.5279027969
 30
0.0
 10
-3.3682565308
 20
-23.51045372
 30
0.0
 10
-3.3648420274
 20
-23.4956348236
 30
0.0
 10
-3.3556366373
 20
-23.4852646746
 30
0.0
 10
-3.342022645
 20
-23.4825820695
 30
0.0
 10
-3.3274798664
 20
-23.4871111667
 30
0.0
 10
-3.3130979316
 20
-23.4971507855
 30
0.0
 10
-3.3046997302
 20
-23.5065419805
 30
0.0
 10
-3.3007783217
 20
-23.5118765742
 30
0.0
  0
SPLINE
  5
3CD
100
AcDbEntity
  8
RACCORDO
100
AcDbSpline
 62
250
  6
CONTINUOUS
 70
0
 71
3
 72
11
 73
7
 74
0
 42
0.0000001
 43
0.0000001
 44
0.0000000001
 40
0.0
 40
0.0
 40
0.0
 40
0.0
 40
0.2144440262
 40
0.4284013161
 40
0.655274231
 40
1.0
 40
1.0
 40
1.0
 40
1.0
 10
-3.3486265444
 20
-21.6655362871
 30
0.0
 10
-3.3390926439
 20
-21.6636455986
 30
0.0
 10
-3.3188484267
 20
-21.6720555288
 30
0.0
 10
-3.2986880357
 20
-21.6940848195
 30
0.0
 10
-3.2822005916
 20
-21.7247610232
 30
0.0
 10
-3.2790073186
 20
-21.7567591838
 30
0.0
 10
-3.2893857362
 20
-21.7684388264
 30
0.0
  0
SPLINE
  5
3CE
100
AcDbEntity
  8
RACCORDO
100
AcDbSpline
 62
250
  6
CONTINUOUS
 70
0
 71
3
 72
15
 73
11
 74
0
 42
0.0000001
 43
0.0000001
 44
0.0000000001
 40
0.0
 40
0.0
 40
0.0
 40
0.0
 40
0.1541211057
 40
0.2904988367
 40
0.4038919573
 40
0.4995696393
 40
0.5953816566
 40
0.7090622459
 40
0.8457132095
 40
1.0
 40
1.0
 40
1.0
 40
1.0
 10
-1.7142830531
 20
-22.6226347864
 30
0.0
 10
-1.7116422796
 20
-22.6286984118
 30
0.0
 10
-1.7077449671
 20
-22.6406596138
 30
0.0
 10
-1.7063006613
 20
-22.6581086907
 30
0.0
 10
-1.7097151647
 20
-22.6729275871
 30
0.0
 10
-1.7189205549
 20
-22.6832977361
 30
0.0
 10
-1.7325345472
 20
-22.6859803412
 30
0.0
 10
-1.7470773258
 20
-22.681451244
 30
0.0
 10
-1.7614592606
 20
-22.6714116252
 30
0.0
 10
-1.769857462
 20
-22.6620204302
 30
0.0
 10
-1.7737788705
 20
-22.6566858365
 30
0.0
  0
SPLINE
  5
3CF
100
AcDbEntity
  8
RACCORDO
100
AcDbSpline
 62
250
  6
CONTINUOUS
 70
0
 71
3
 72
9
 73
5
 74
0
 42
0.0000001
 43
0.0000001
 44
0.0000000001
 40
0.0
 40
0.0
 40
0.0
 40
0.0
 40
0.4273843409
 40
1.0
 40
1.0
 40
1.0
 40
1.0
 10
-1.7259306477
 20
-24.5030261236
 30
0.0
 10
-1.734472697
 20
-24.5047201159
 30
0.0
 10
-1.7557463087
 20
-24.4970199418
 30
0.0
 10
-1.7695345835
 20
-24.4816903802
 30
0.0
 10
-1.7760736985
 20
-24.4720273709
 30
0.0
  0
SPLINE
  5
3D0
100
AcDbEntity
  8
RACCORDO
100
AcDbSpline
 62
250
  6
CONTINUOUS
 70
0
 71
3
 72
10
 73
6
 74
0
 42
0.0000001
 43
0.0000001
 44
0.0000000001
 40
0.0
 40
0.0
 40
0.0
 40
0.0
 40
0.2972750145
 40
0.5762975622
 40
1.0
 40
1.0
 40
1.0
 40
1.0
 10
-1.7760736985
 20
-24.4720273709
 30
0.0
 10
-1.7802919393
 20
-24.4657939739
 30
0.0
 10
-1.7871853982
 20
-24.4526626395
 30
0.0
 10
-1.7940502146
 20
-24.4286798422
 30
0.0
 10
-1.7922970711
 20
-24.4081425946
 30
0.0
 10
-1.7851714559
 20
-24.4001235843
 30
0.0
  0
SPLINE
  5
3D1
100
AcDbEntity
  8
RACCORDO
100
AcDbSpline
 62
250
  6
CONTINUOUS
 70
0
 71
3
 72
18
 73
14
 74
0
 42
0.0000001
 43
0.0000001
 44
0.0000000001
 40
0.0
 40
0.0
 40
0.0
 40
0.0
 40
0.0473527031
 40
0.0927656468
 40
0.1378563708
 40
0.1842992347
 40
0.2335371362
 40
0.286592605
 40
0.4057279409
 40
0.542066435
 40
0.6912411077
 40
0.8464610761
 40
1.0
 40
1.0
 40
1.0
 40
1.0
 10
-3.3062090722
 20
22.3249127666
 30
0.0
 10
-3.3715594103
 20
22.3230513612
 30
0.0
 10
-3.4997721849
 20
22.30671033
 30
0.0
 10
-3.6797484747
 20
22.2396260896
 30
0.0
 10
-3.8374152135
 20
22.1319384499
 30
0.0
 10
-3.9688606728
 20
21.9865259258
 30
0.0
 10
-4.0716642294
 20
21.8071671856
 30
0.0
 10
-4.1724978177
 20
21.5170297917
 30
0.0
 10
-4.2119348702
 20
21.0868752631
 30
0.0
 10
-4.1353828193
 20
20.5301216173
 30
0.0
 10
-3.9437941897
 20
19.9493486951
 30
0.0
 10
-3.6510306687
 20
19.3862640411
 30
0.0
 10
-3.3964943875
 20
19.0415108204
 30
0.0
 10
-3.2563114818
 20
18.8824987249
 30
0.0
  0
ELLIPSE
  5
3D2
100
AcDbEntity
  8
RACCORDO
100
AcDbEllipse
 62
7
  6
CONTINUOUS
 10
4.109519762
 20
-18.9200919738
 30
0.0
 11
-0.1000124468
 21
0.1732154818
 31
0.0
 40
0.5772877058
 41
-3.1503182096
 42
-2.3562808805
  0
ELLIPSE
  5
3D3
100
AcDbEntity
  8
RACCORDO
100
AcDbEllipse
 62
7
  6
CONTINUOUS
 10
0.1836426721
 20
-20.2186977367
 30
0.0
 11
0.1765438454
 21
0.3022157443
 31
0.0
 40
0.580680601
 41
-0.7824069175
 42
-0.3404275006
  0
ELLIPSE
  5
3D4
100
AcDbEntity
  8
RACCORDO
100
AcDbEllipse
 62
7
  6
CONTINUOUS
 10
4.1082909816
 20
20.2570588338
 30
0.0
 11
0.1013244325
 21
0.1724380936
 31
0.0
 40
0.5823475934
 41
5.5022756073
 42
7.0678359463
  0
ELLIPSE
  5
3D5
100
AcDbEntity
  8
RACCORDO
100
AcDbEllipse
 62
7
  6
CONTINUOUS
 10
3.395013373
 20
20.7128229912
 30
0.0
 11
0.1013244325
 21
0.1724380936
 31
0.0
 40
0.5823475934
 41
5.5022756073
 42
7.0672541699
  0
ELLIPSE
  5
3D6
100
AcDbEntity
  8
RACCORDO
100
AcDbEllipse
 62
7
  6
CONTINUOUS
 10
1.7271469949
 20
18.1744299482
 30
0.0
 11
0.1999980281
 21
0.0015249089
 31
0.0
 40
0.5824033911
 41
0.7809575884
 42
2.3430272689
  0
ENDSEC
  0
SECTION
  2
OBJECTS
  0
DICTIONARY
  5
C
100
AcDbDictionary
280
0
281
1
  3
ACAD_GROUP
350
D
  3
ACAD_MLINESTYLE
350
17
  3
ACAD_LAYOUT
350
1A
  3
ACAD_PLOTSETTINGS
350
19
  3
ACAD_PLOTSTYLENAME
350
E
  0
DICTIONARY
  5
D
102
{ACAD_REACTORS
330
C
102
}
100
AcDbDictionary
280
0
281
1
  0
ACDBDICTIONARYWDFLT
  5
E
102
{ACAD_REACTORS
330
C
102
}
100
AcDbDictionary
281
1
  3
Normal
350
F
100
AcDbDictionaryWithDefault
340
F
  0
DICTIONARY
  5
17
102
{ACAD_REACTORS
330
C
102
}
100
AcDbDictionary
280
0
281
1
  3
Standard
350
18
  0
DICTIONARY
  5
19
102
{ACAD_REACTORS
330
C
102
}
100
AcDbDictionary
281
1
  0
DICTIONARY
  5
1A
102
{ACAD_REACTORS
330
C
102
}
100
AcDbDictionary
281
1
  3
Model
350
3D7
  3
Layout1
350
3D8
  0
ACDBPLACEHOLDER
  5
F
102
{ACAD_REACTORS
330
E
102
}
  0
MLINESTYLE
  5
18
102
{ACAD_REACTORS
330
17
102
}
100
AcDbMlineStyle
  2
STANDARD
 70
0
  3

 62
256
 51
90.0
 52
90.0
 71
2
 49
0.5
 62
256
  6
BYLAYER
 49
-0.5
 62
256
  6
BYLAYER
  0
LAYOUT
  5
3D7
102
{ACAD_REACTORS
330
1A
102
}
100
AcDbPlotSettings
  1

  2
none_device
  4
ISO_A4_(297.00_x_210.00_MM)
  6

 40
0.0
 41
0.0
 42
0.0
 43
0.0
 44
297.0
 45
210.0
 46
0.0
 47
0.0
 48
0.0
 49
0.0
140
0.0
141
0.0
142
1.0
143
1.0
 70
1024
 72
1
 73
0
 74
0
  7

 75
0
147
1.0
148
0.0
149
0.0
100
AcDbLayout
  1
Model
 70
0
 71
0
 10
0.0
 20
0.0
 11
297.0
 21
210.0
 12
0.0
 22
0.0
 32
0.0
 14
0.0
 24
0.0
 34
0.0
 15
0.0
 25
0.0
 35
0.0
146
0.0
 13
0.0
 23
0.0
 33
0.0
 16
1.0
 26
0.0
 36
0.0
 17
0.0
 27
1.0
 37
0.0
 76
0
330
20F
345
0
346
0
  0
LAYOUT
  5
3D8
102
{ACAD_REACTORS
330
1A
102
}
100
AcDbPlotSettings
  1

  2
none_device
  4
ISO_A4_(297.00_x_210.00_MM)
  6

 40
0.0
 41
0.0
 42
0.0
 43
0.0
 44
297.0
 45
210.0
 46
0.0
 47
0.0
 48
0.0
 49
0.0
140
0.0
141
0.0
142
1.0
143
1.0
 70
0
 72
1
 73
0
 74
0
  7

 75
0
147
1.0
148
0.0
149
0.0
100
AcDbLayout
  1
Layout1
 70
0
 71
1
 10
0.0
 20
0.0
 11
297.0
 21
210.0
 12
0.0
 22
0.0
 32
0.0
 14
0.0
 24
0.0
 34
0.0
 15
0.0
 25
0.0
 35
0.0
146
0.0
 13
0.0
 23
0.0
 33
0.0
 16
1.0
 26
0.0
 36
0.0
 17
0.0
 27
1.0
 37
0.0
 76
0
330
210
345
0
346
0
  0
ENDSEC
  0
EOF
