  0
SECTION
  2
HEADER
  9
$ACADVER
  1
AC1015
  9
$DWGCODEPAGE
  3
ANSI_1252
  9
$EXTMAX
 10
297.0
 20
210.0
 30
0.0
  9
$EXTMIN
 10
0.0
 20
0.0
 30
0.0
  9
$LIMMIN
 10
0.0
 20
0.0
  9
$LIMMAX
 10
297.0
 20
210.0
  9
$VIEWCTR
 10
148.5
 20
105.0
  9
$VIEWSIZE
 40
210.0
  9
$CLAYER
  8
0
  9
$LTSCALE
 40
16.335
  9
$CELTYPE
  6
BYLAYER
  9
$DIMSCALE
 40
1.0
  9
$DIMASZ
 40
3.0
  9
$DIMEXO
 40
0.5
  9
$DIMDLI
 40
11.286
  9
$DIMEXE
 40
1.5
  9
$DIMCEN
 40
2.673
  9
$DIMLFAC
 40
1.0
  9
$DIMBLK
  1
_FILLED
  9
$DIMTXT
 40
3.0
  9
$DIMTOL
 70
1
  9
$DIMLIM
 70
0
  9
$DIMTFAC
 40
1.0
  9
$DIMTP
 40
0.01
  9
$DIMTM
 40
0.01
  9
$DIMGAP
 40
0.625
  9
$DIMDSEP
 70
44
  9
$PDMODE
 70
3
  9
$PDSIZE
 40
3.0
  9
$HANDSEED
  5
581
  9
$TILEMODE
 70
1
  9
$MEASUREMENT
 70
1
  9
$INSUNITS
 70
4
  0
ENDSEC
  0
SECTION
  2
CLASSES
  0
CLASS
  1
ACDBDICTIONARYWDFLT
  2
AcDbDictionaryWithDefault
  3
AutoCAD 2000
 90
0
280
0
281
0
  0
CLASS
  1
ACDBPLACEHOLDER
  2
AcDbPlaceHolder
  3
AutoCAD 2000
 90
0
280
0
281
0
  0
CLASS
  1
LAYOUT
  2
AcDbLayout
  3
AutoCAD 2000
 90
0
280
0
281
0
  0
ENDSEC
  0
SECTION
  2
TABLES
  0
TABLE
  2
VPORT
  5
8
100
AcDbSymbolTable
 70
2
  0
VPORT
  5
1F4
100
AcDbSymbolTableRecord
100
AcDbViewportTableRecord
  2
*ACTIVE
 70
0
 10
0.0
 20
0.0
 11
1.0
 21
1.0
 12
148.5
 22
105.0
 13
0.0
 23
0.0
 14
1.0
 24
1.0
 15
0.0
 25
0.0
 16
0.0
 26
0.0
 36
1.0
 17
0.0
 27
0.0
 37
0.0
 40
210.0
 41
1.4142857143
 42
50.0
 43
0.0
 44
0.0
 50
0.0
 51
0.0
 71
0
 72
100
 73
1
 74
1
 75
0
 76
0
 77
0
 78
0
  0
ENDTAB
  0
TABLE
  2
LTYPE
  5
5
100
AcDbSymbolTable
 70
6
  0
LTYPE
  5
14
100
AcDbSymbolTableRecord
100
AcDbLinetypeTableRecord
  2
BYBLOCK
 70
0
  3

 72
65
 73
0
 40
0.0
  0
LTYPE
  5
15
100
AcDbSymbolTableRecord
100
AcDbLinetypeTableRecord
  2
BYLAYER
 70
0
  3

 72
65
 73
0
 40
0.0
  0
LTYPE
  5
16
100
AcDbSymbolTableRecord
100
AcDbLinetypeTableRecord
  2
CONTINUOUS
 70
64
  3
Solid line
 72
65
 73
0
 40
0.0
  0
LTYPE
  5
1F5
100
AcDbSymbolTableRecord
100
AcDbLinetypeTableRecord
  2
CENTER
 70
64
  3
____ _ ____ _ ____ _ ____ _ ____ _ ____ _ ____
 72
65
 73
4
 40
0.6
 49
0.375
 74
0
 49
-0.075
 74
0
 49
0.075
 74
0
 49
-0.075
 74
0
  0
LTYPE
  5
1F6
100
AcDbSymbolTableRecord
100
AcDbLinetypeTableRecord
  2
HIDDEN
 70
64
  3
- - - - - - - - - - - - - - - - - - - -
 72
65
 73
2
 40
0.2
 49
0.1
 74
0
 49
-0.1
 74
0
  0
LTYPE
  5
1F7
100
AcDbSymbolTableRecord
100
AcDbLinetypeTableRecord
  2
PHANTOM
 70
64
  3
_____ _ _ _____ _ _ _____ _ _ _____
 72
65
 73
6
 40
0.8
 49
0.45
 74
0
 49
-0.05
 74
0
 49
0.1
 74
0
 49
-0.05
 74
0
 49
0.1
 74
0
 49
-0.05
 74
0
  0
LTYPE
  5
1F8
100
AcDbSymbolTableRecord
100
AcDbLinetypeTableRecord
  2
DOT
 70
64
  3
. . . . . . . . . . . . . . . . . . . .
 72
65
 73
2
 40
0.2
 49
0.1
 74
0
 49
-0.1
 74
0
  0
LTYPE
  5
1F9
100
AcDbSymbolTableRecord
100
AcDbLinetypeTableRecord
  2
DASHED
 70
64
  3
- - - - - - - - - - - - - - - - - - - -
 72
65
 73
2
 40
0.2
 49
0.1
 74
0
 49
-0.1
 74
0
  0
ENDTAB
  0
TABLE
  2
LAYER
  5
2
100
AcDbSymbolTable
 70
36
  0
LAYER
  5
10
100
AcDbSymbolTableRecord
100
AcDbLayerTableRecord
  2
0
 70
0
 62
7
  6
CONTINUOUS
370
-3
390
F
  0
LAYER
  5
1FA
100
AcDbSymbolTableRecord
100
AcDbLayerTableRecord
  2
DEFAULT_1
 70
0
 62
7
  6
CENTER
370
-3
390
F
  0
LAYER
  5
1FB
100
AcDbSymbolTableRecord
100
AcDbLayerTableRecord
  2
DEFAULT_2
 70
0
 62
7
  6
HIDDEN
370
-3
390
F
  0
LAYER
  5
1FC
100
AcDbSymbolTableRecord
100
AcDbLayerTableRecord
  2
DEFAULT_3
 70
0
 62
7
  6
PHANTOM
370
-3
390
F
  0
LAYER
  5
1FD
100
AcDbSymbolTableRecord
100
AcDbLayerTableRecord
  2
ASSI
 70
0
 62
7
  6
CONTINUOUS
370
-3
390
F
  0
LAYER
  5
1FE
100
AcDbSymbolTableRecord
100
AcDbLayerTableRecord
  2
COORDINATE
 70
0
 62
7
  6
CONTINUOUS
370
-3
390
F
  0
LAYER
  5
1FF
100
AcDbSymbolTableRecord
100
AcDbLayerTableRecord
  2
COPY_PUBLISH
 70
0
 62
7
  6
CONTINUOUS
370
-3
390
F
  0
LAYER
  5
200
100
AcDbSymbolTableRecord
100
AcDbLayerTableRecord
  2
COSMETICI
 70
0
 62
7
  6
CONTINUOUS
370
-3
390
F
  0
LAYER
  5
201
100
AcDbSymbolTableRecord
100
AcDbLayerTableRecord
  2
CURVE
 70
0
 62
7
  6
CONTINUOUS
370
-3
390
F
  0
LAYER
  5
202
100
AcDbSymbolTableRecord
100
AcDbLayerTableRecord
  2
DRAFT
 70
0
 62
7
  6
CONTINUOUS
370
-3
390
F
  0
LAYER
  5
203
100
AcDbSymbolTableRecord
100
AcDbLayerTableRecord
  2
IMPORT_IGES
 70
0
 62
7
  6
CONTINUOUS
370
-3
390
F
  0
LAYER
  5
204
100
AcDbSymbolTableRecord
100
AcDbLayerTableRecord
  2
NOTE
 70
0
 62
7
  6
CONTINUOUS
370
-3
390
F
  0
LAYER
  5
205
100
AcDbSymbolTableRecord
100
AcDbLayerTableRecord
  2
PIANI
 70
0
 62
7
  6
CONTINUOUS
370
-3
390
F
  0
LAYER
  5
206
100
AcDbSymbolTableRecord
100
AcDbLayerTableRecord
  2
PUNTI
 70
0
 62
7
  6
CONTINUOUS
370
-3
390
F
  0
LAYER
  5
207
100
AcDbSymbolTableRecord
100
AcDbLayerTableRecord
  2
RACCORDO
 70
0
 62
7
  6
CONTINUOUS
370
-3
390
F
  0
LAYER
  5
208
100
AcDbSymbolTableRecord
100
AcDbLayerTableRecord
  2
SIMBOLI
 70
0
 62
7
  6
CONTINUOUS
370
-3
390
F
  0
LAYER
  5
209
100
AcDbSymbolTableRecord
100
AcDbLayerTableRecord
  2
SMUSSO
 70
0
 62
7
  6
CONTINUOUS
370
-3
390
F
  0
LAYER
  5
20A
100
AcDbSymbolTableRecord
100
AcDbLayerTableRecord
  2
SNAPLINE
 70
0
 62
7
  6
CONTINUOUS
370
-3
390
F
  0
LAYER
  5
20B
100
AcDbSymbolTableRecord
100
AcDbLayerTableRecord
  2
SUPERFICI
 70
0
 62
7
  6
CONTINUOUS
370
-3
390
F
  0
LAYER
  5
20C
100
AcDbSymbolTableRecord
100
AcDbLayerTableRecord
  2
TRASH
 70
0
 62
7
  6
CONTINUOUS
370
-3
390
F
  0
ENDTAB
  0
TABLE
  2
STYLE
  5
3
100
AcDbSymbolTable
 70
1
  0
STYLE
  5
11
100
AcDbSymbolTableRecord
100
AcDbTextStyleTableRecord
  2
STANDARD
 70
0
 40
0.0
 41
0.8
 50
0.0
 71
0
 42
0.2
  3
txt
  4

  0
STYLE
  5
20D
100
AcDbSymbolTableRecord
100
AcDbTextStyleTableRecord
  2
TEXTSTYLE_1
 70
0
 40
0.0
 41
0.8
 50
0.0
 71
0
 42
0.2
  3
gdt
  4

  0
ENDTAB
  0
TABLE
  2
VIEW
  5
6
100
AcDbSymbolTable
 70
0
  0
ENDTAB
  0
TABLE
  2
UCS
  5
7
100
AcDbSymbolTable
 70
0
  0
ENDTAB
  0
TABLE
  2
APPID
  5
9
100
AcDbSymbolTable
 70
1
  0
APPID
  5
20E
100
AcDbSymbolTableRecord
100
AcDbRegAppTableRecord
  2
ACAD
 70
0
  0
ENDTAB
  0
TABLE
  2
BLOCK_RECORD
  5
1
100
AcDbSymbolTable
 70
0
  0
BLOCK_RECORD
  5
20F
100
AcDbSymbolTableRecord
100
AcDbBlockTableRecord
  2
*Model_Space
  0
BLOCK_RECORD
  5
210
100
AcDbSymbolTableRecord
100
AcDbBlockTableRecord
  2
*Paper_Space
  0
ENDTAB
  0
TABLE
  2
DIMSTYLE
  5
A
100
AcDbSymbolTable
 70
1
100
AcDbDimStyleTable
 71
0
  0
DIMSTYLE
105
211
100
AcDbSymbolTableRecord
100
AcDbDimStyleTableRecord
  2
STANDARD
 70
0
  3

  4

 40
1.0
 41
3.0
 42
0.5
 43
0.38
 44
1.5
 45
0.0
 46
0.0
 47
0.01
 48
0.01
140
3.0
141
0.09
142
0.0
143
25.4
144
1.0
145
0.0
146
1.0
147
0.625
 71
1.0
 72
0.0
 73
0
 74
0
 75
0
 76
0
 77
1
 78
8
170
0
171
2
172
0
173
0
174
0
175
0
176
0
177
0
178
0
270
2
271
2
272
2
273
2
274
2
275
0
280
0
281
0
282
0
283
1
284
8
285
0
286
0
287
3
288
0
340
11
278
44
  0
ENDTAB
  0
ENDSEC
  0
SECTION
  2
BLOCKS
  0
BLOCK
  5
20
100
AcDbEntity
  8
0
100
AcDbBlockBegin
  2
*Model_Space
 70
0
 10
0.0
 20
0.0
 30
0.0
  3
*Model_Space
  1

  0
ENDBLK
  5
21
100
AcDbEntity
  8
0
100
AcDbBlockEnd
  0
BLOCK
  5
1C
100
AcDbEntity
  8
0
100
AcDbBlockBegin
  2
*Paper_Space
 70
0
 10
0.0
 20
0.0
 30
0.0
  3
*Paper_Space
  1

  0
ENDBLK
  5
1D
100
AcDbEntity
  8
0
100
AcDbBlockEnd
  0
ENDSEC
  0
SECTION
  2
ENTITIES
  0
LINE
  5
212
100
AcDbEntity
  8
RACCORDO
100
AcDbLine
 62
7
  6
CONTINUOUS
 10
-92.1637098904
 20
72.6345867346
 11
-91.1030497186
 21
73.2469986246
  0
LINE
  5
213
100
AcDbEntity
  8
RACCORDO
100
AcDbLine
 62
253
  6
CONTINUOUS
 10
-87.163468289
 20
72.1391749578
 11
-86.1028081172
 21
72.7515868478
  0
LINE
  5
214
100
AcDbEntity
  8
ASSI
100
AcDbLine
 62
7
  6
CONTINUOUS
 10
-98.3358170488
 20
53.4660126035
 11
-98.0529127192
 21
53.7283778221
  0
LINE
  5
215
100
AcDbEntity
  8
ASSI
100
AcDbLine
 62
7
  6
CONTINUOUS
 10
-99.9280033198
 20
53.5059221
 11
-98.867343148
 21
54.11833399
  0
LINE
  5
216
100
AcDbEntity
  8
ASSI
100
AcDbLine
 62
7
  6
CONTINUOUS
 10
-100.6765418432
 20
52.2138626146
 11
-101.0581165393
 21
51.9935461673
  0
LINE
  5
217
100
AcDbEntity
  8
ASSI
100
AcDbLine
 62
7
  6
CONTINUOUS
 10
-96.9922525475
 20
54.3407897121
 11
-98.0529127192
 21
53.7283778221
  0
LINE
  5
218
100
AcDbEntity
  8
ASSI
100
AcDbLine
 62
7
  6
CONTINUOUS
 10
-97.7700083897
 20
47.050745688
 11
-98.0529127192
 21
46.7883804693
  0
LINE
  5
219
100
AcDbEntity
  8
ASSI
100
AcDbLine
 62
7
  6
CONTINUOUS
 10
-97.7700083897
 20
53.139321775
 11
-96.7093482179
 21
53.751733665
  0
LINE
  5
21A
100
AcDbEntity
  8
ASSI
100
AcDbLine
 62
7
  6
CONTINUOUS
 10
-68.6738835913
 20
68.527231285
 11
-67.6132234195
 21
69.139643175
  0
LINE
  5
21B
100
AcDbEntity
  8
ASSI
100
AcDbLine
 62
7
  6
CONTINUOUS
 10
-69.8039968108
 20
67.0148553524
 11
-69.4224443375
 21
67.2351589685
  0
LINE
  5
21C
100
AcDbEntity
  8
ASSI
100
AcDbLine
 62
7
  6
CONTINUOUS
 10
-66.7987929908
 20
68.7496870071
 11
-65.738132819
 21
69.3620988971
  0
LINE
  5
21D
100
AcDbEntity
  8
ASSI
100
AcDbLine
 62
7
  6
CONTINUOUS
 10
-66.5158886613
 20
68.16063096
 11
-65.4552284895
 21
68.77304285
  0
LINE
  5
21E
100
AcDbEntity
  8
ASSI
100
AcDbLine
 62
7
  6
CONTINUOUS
 10
-94.7492077418
 20
51.2086256305
 11
-95.8098679136
 21
50.5962137405
  0
LINE
  5
21F
100
AcDbEntity
  8
ASSI
100
AcDbLine
 62
7
  6
CONTINUOUS
 10
-97.6715242583
 20
47.0085893868
 11
-98.0529127192
 21
46.7883804693
  0
LINE
  5
220
100
AcDbEntity
  8
ASSI
100
AcDbLine
 62
7
  6
CONTINUOUS
 10
-69.8039968108
 20
67.0148553524
 11
-69.4353087105
 21
67.1286387217
  0
LINE
  5
221
100
AcDbEntity
  8
ASSI
100
AcDbLine
 62
7
  6
CONTINUOUS
 10
-67.0816973203
 20
68.4873217885
 11
-66.7987929908
 21
68.7496870071
  0
LINE
  5
222
100
AcDbEntity
  8
ASSI
100
AcDbLine
 62
7
  6
CONTINUOUS
 10
-96.1778221187
 20
47.0108361914
 11
-95.7171708068
 21
47.2768104856
  0
LINE
  5
223
100
AcDbEntity
  8
ASSI
100
AcDbLine
 62
7
  6
CONTINUOUS
 10
-64.1622772711
 20
64.0840564551
 11
-63.1016170993
 21
64.6964683451
  0
LINE
  5
224
100
AcDbEntity
  8
ASSI
100
AcDbLine
 62
7
  6
CONTINUOUS
 10
-62.732928999
 20
64.1569331991
 11
-63.7935891708
 21
63.5445213091
  0
LINE
  5
225
100
AcDbEntity
  8
ASSI
100
AcDbLine
 62
7
  6
CONTINUOUS
 10
-64.9237023903
 20
62.0321453765
 11
-63.8630422185
 21
62.6445572665
  0
LINE
  5
226
100
AcDbEntity
  8
ASSI
100
AcDbLine
 62
7
  6
CONTINUOUS
 10
-64.3239192566
 20
60.1767293733
 11
-65.3845794284
 21
59.5643174833
  0
LINE
  5
227
100
AcDbEntity
  8
0
100
AcDbLine
 62
7
  6
CONTINUOUS
 10
-73.8698608027
 20
54.4488229574
 11
-73.7284394464
 21
54.5304778761
  0
LINE
  5
228
100
AcDbEntity
  8
0
100
AcDbLine
 62
7
  6
CONTINUOUS
 10
-74.9010582095
 20
53.4807696681
 11
-74.7596368532
 21
53.5624245868
  0
LINE
  5
229
100
AcDbEntity
  8
0
100
AcDbLine
 62
7
  6
CONTINUOUS
 10
-75.0483720871
 20
53.3052512352
 11
-74.9069507308
 21
53.3869061538
  0
LINE
  5
22A
100
AcDbEntity
  8
0
100
AcDbLine
 62
7
  6
CONTINUOUS
 10
-72.7650064571
 20
53.8108939053
 11
-72.6235851008
 21
53.892548824
  0
LINE
  5
22B
100
AcDbEntity
  8
ASSI
100
AcDbLine
 62
7
  6
CONTINUOUS
 10
-63.7935891708
 20
63.5445213091
 11
-64.1622772711
 21
63.4307379398
  0
LINE
  5
22C
100
AcDbEntity
  8
ASSI
100
AcDbLine
 62
7
  6
CONTINUOUS
 10
-101.0581165393
 20
51.9935461673
 11
-100.689428439
 21
52.1073295366
  0
LINE
  5
22D
100
AcDbEntity
  8
0
100
AcDbLine
 62
7
  6
CONTINUOUS
 10
-70.3711552344
 20
50.7784019184
 11
-70.2606697999
 21
50.8883260879
  0
LINE
  5
22E
100
AcDbEntity
  8
0
100
AcDbLine
 62
7
  6
CONTINUOUS
 10
-72.0284367528
 20
53.6027541138
 11
-72.2494078327
 21
53.4263351919
  0
LINE
  5
22F
100
AcDbEntity
  8
0
100
AcDbLine
 62
7
  6
CONTINUOUS
 10
-72.0057199193
 20
53.5896376989
 11
-72.1079864764
 21
53.5079901105
  0
LINE
  5
230
100
AcDbEntity
  8
0
100
AcDbLine
 62
7
  6
CONTINUOUS
 10
-72.2494078327
 20
53.0789009513
 11
-72.0284367528
 21
53.2553199949
  0
LINE
  5
231
100
AcDbEntity
  8
0
100
AcDbLine
 62
7
  6
CONTINUOUS
 10
-68.0509615301
 20
51.1759219751
 11
-68.1982748809
 21
51.0872617981
  0
LINE
  5
232
100
AcDbEntity
  8
0
100
AcDbLine
 62
7
  6
CONTINUOUS
 10
-68.0494332191
 20
51.1733826094
 11
-68.0568535247
 21
51.1689167168
  0
LINE
  5
233
100
AcDbEntity
  8
0
100
AcDbLine
 62
7
  6
CONTINUOUS
 10
-67.240734729
 20
50.1000973449
 11
-67.3143914044
 21
50.0557672564
  0
LINE
  5
234
100
AcDbEntity
  8
0
100
AcDbLine
 62
7
  6
CONTINUOUS
 10
-67.0993133728
 20
50.1817522636
 11
-67.1729700482
 21
50.1374221751
  0
LINE
  5
235
100
AcDbEntity
  8
0
100
AcDbLine
 62
7
  6
CONTINUOUS
 10
-72.2494078327
 20
53.4263351919
 11
-72.1079864764
 21
53.5079901105
  0
LINE
  5
236
100
AcDbEntity
  8
0
100
AcDbLine
 62
7
  6
CONTINUOUS
 10
-73.5015759505
 20
52.4121505318
 11
-73.3601545943
 21
52.4938054505
  0
LINE
  5
237
100
AcDbEntity
  8
0
100
AcDbLine
 62
7
  6
CONTINUOUS
 10
-72.0284367528
 20
53.2553199949
 11
-71.8870153966
 21
53.3369749136
  0
LINE
  5
238
100
AcDbEntity
  8
0
100
AcDbLine
 62
7
  6
CONTINUOUS
 10
-71.3286958078
 20
52.9815861376
 11
-71.1872744515
 21
53.0632410563
  0
LINE
  5
239
100
AcDbEntity
  8
0
100
AcDbLine
 62
7
  6
CONTINUOUS
 10
-71.5128383392
 20
52.1758930436
 11
-71.371416983
 21
52.2575479623
  0
LINE
  5
23A
100
AcDbEntity
  8
0
100
AcDbLine
 62
7
  6
CONTINUOUS
 10
-71.2550387109
 20
52.0270427692
 11
-71.1136173547
 21
52.1086976879
  0
LINE
  5
23B
100
AcDbEntity
  8
0
100
AcDbLine
 62
7
  6
CONTINUOUS
 10
-72.0284367528
 20
51.5615784218
 11
-71.8870153966
 21
51.6432333405
  0
LINE
  5
23C
100
AcDbEntity
  8
0
100
AcDbLine
 62
7
  6
CONTINUOUS
 10
-71.1077249387
 20
52.072273438
 11
-70.9663035824
 21
52.1539283567
  0
LINE
  5
23D
100
AcDbEntity
  8
0
100
AcDbLine
 62
7
  6
CONTINUOUS
 10
-70.9604111664
 20
52.030645577
 11
-70.8189898102
 21
52.1123004957
  0
LINE
  5
23E
100
AcDbEntity
  8
0
100
AcDbLine
 62
7
  6
CONTINUOUS
 10
-71.4391812423
 20
51.5687838245
 11
-71.2977598861
 21
51.6504387432
  0
LINE
  5
23F
100
AcDbEntity
  8
0
100
AcDbLine
 62
7
  6
CONTINUOUS
 10
-70.7394402973
 20
51.9030597666
 11
-70.598018941
 21
51.9847146853
  0
LINE
  5
240
100
AcDbEntity
  8
0
100
AcDbLine
 62
7
  6
CONTINUOUS
 10
-70.5921261035
 20
51.7745731326
 11
-70.4615337683
 21
51.8499755102
  0
LINE
  5
241
100
AcDbEntity
  8
0
100
AcDbLine
 62
7
  6
CONTINUOUS
 10
-71.3286958078
 20
51.3312738446
 11
-71.1982343064
 21
51.4066006805
  0
LINE
  5
242
100
AcDbEntity
  8
0
100
AcDbLine
 62
7
  6
CONTINUOUS
 10
-69.8923851585
 20
52.1522783699
 11
-69.7509638022
 21
52.2339332886
  0
LINE
  5
243
100
AcDbEntity
  8
0
100
AcDbLine
 62
7
  6
CONTINUOUS
 10
-70.481640669
 20
51.6239216976
 11
-70.3511791742
 21
51.6992485297
  0
LINE
  5
244
100
AcDbEntity
  8
0
100
AcDbLine
 62
7
  6
CONTINUOUS
 10
-71.1445532763
 20
51.0946644489
 11
-71.0031319201
 21
51.1763193675
  0
LINE
  5
245
100
AcDbEntity
  8
0
100
AcDbLine
 62
7
  6
CONTINUOUS
 10
-70.4079839936
 20
51.4511054618
 11
-70.2779159279
 21
51.5262051328
  0
LINE
  5
246
100
AcDbEntity
  8
0
100
AcDbLine
 62
7
  6
CONTINUOUS
 10
-70.3711552344
 20
51.2995531424
 11
-70.2297338782
 21
51.3812080611
  0
LINE
  5
247
100
AcDbEntity
  8
0
100
AcDbLine
 62
7
  6
CONTINUOUS
 10
-70.9604111664
 20
50.9449138337
 11
-70.8189898102
 21
51.0265687524
  0
LINE
  5
248
100
AcDbEntity
  8
0
100
AcDbLine
 62
7
  6
CONTINUOUS
 10
-70.3711552344
 20
51.2126946127
 11
-70.2297338782
 21
51.2943495313
  0
LINE
  5
249
100
AcDbEntity
  8
0
100
AcDbLine
 62
7
  6
CONTINUOUS
 10
-70.4079839936
 20
51.1036712821
 11
-70.2665626374
 21
51.1853262007
  0
LINE
  5
24A
100
AcDbEntity
  8
0
100
AcDbLine
 62
7
  6
CONTINUOUS
 10
-70.481640669
 20
51.0159118983
 11
-70.3402193127
 21
51.0975668169
  0
LINE
  5
24B
100
AcDbEntity
  8
0
100
AcDbLine
 62
7
  6
CONTINUOUS
 10
-70.7394402973
 20
50.8173280233
 11
-70.598018941
 21
50.898982942
  0
LINE
  5
24C
100
AcDbEntity
  8
0
100
AcDbLine
 62
7
  6
CONTINUOUS
 10
-70.5552977658
 20
50.7544357022
 11
-70.4138764096
 21
50.8360906209
  0
LINE
  5
24D
100
AcDbEntity
  8
0
100
AcDbLine
 62
7
  6
CONTINUOUS
 10
-68.7875308129
 20
51.5143493179
 11
-68.6461094566
 21
51.5960042365
  0
LINE
  5
24E
100
AcDbEntity
  8
0
100
AcDbLine
 62
7
  6
CONTINUOUS
 10
-68.1982748809
 20
51.0872617981
 11
-68.0568535247
 21
51.1689167168
  0
LINE
  5
24F
100
AcDbEntity
  8
0
100
AcDbLine
 62
7
  6
CONTINUOUS
 10
-68.2351036401
 20
50.9348092026
 11
-68.0936822838
 21
51.0164641213
  0
LINE
  5
250
100
AcDbEntity
  8
0
100
AcDbLine
 62
7
  6
CONTINUOUS
 10
-69.5241005171
 20
50.115606066
 11
-69.3826791609
 21
50.1972609847
  0
LINE
  5
251
100
AcDbEntity
  8
0
100
AcDbLine
 62
7
  6
CONTINUOUS
 10
-67.9773040118
 20
50.9162467229
 11
-67.8358826556
 21
50.9979016415
  0
LINE
  5
252
100
AcDbEntity
  8
0
100
AcDbLine
 62
7
  6
CONTINUOUS
 10
-67.8668185772
 20
50.9393123474
 11
-67.725397221
 21
51.020967266
  0
LINE
  5
253
100
AcDbEntity
  8
0
100
AcDbLine
 62
7
  6
CONTINUOUS
 10
-67.6826764673
 20
50.8764202658
 11
-67.541255111
 21
50.9580751845
  0
LINE
  5
254
100
AcDbEntity
  8
0
100
AcDbLine
 62
7
  6
CONTINUOUS
 10
-67.5353622736
 20
50.7913628966
 11
-67.3939409173
 21
50.8730178153
  0
LINE
  5
255
100
AcDbEntity
  8
0
100
AcDbLine
 62
7
  6
CONTINUOUS
 10
-67.3512201636
 20
50.6416122853
 11
-67.2142892755
 21
50.7206744639
  0
LINE
  5
256
100
AcDbEntity
  8
0
100
AcDbLine
 62
7
  6
CONTINUOUS
 10
-67.240734729
 20
50.4909608504
 11
-67.1104845398
 21
50.5661656772
  0
LINE
  5
257
100
AcDbEntity
  8
0
100
AcDbLine
 62
7
  6
CONTINUOUS
 10
-68.2351036401
 20
49.7187895735
 11
-68.122278343
 21
49.783933486
  0
LINE
  5
258
100
AcDbEntity
  8
0
100
AcDbLine
 62
7
  6
CONTINUOUS
 10
-67.1670780536
 20
50.3181446145
 11
-67.0256566974
 21
50.3997995332
  0
LINE
  5
259
100
AcDbEntity
  8
0
100
AcDbLine
 62
7
  6
CONTINUOUS
 10
-67.6826764673
 20
50.0078348468
 11
-67.541255111
 21
50.0894897655
  0
LINE
  5
25A
100
AcDbEntity
  8
0
100
AcDbLine
 62
7
  6
CONTINUOUS
 10
-67.1670780536
 20
50.2312859631
 11
-67.0256566974
 21
50.3129408818
  0
LINE
  5
25B
100
AcDbEntity
  8
0
100
AcDbLine
 62
7
  6
CONTINUOUS
 10
-67.3143914044
 20
50.0557672564
 11
-67.0993133728
 21
50.1817522636
  0
LINE
  5
25C
100
AcDbEntity
  8
0
100
AcDbLine
 62
7
  6
CONTINUOUS
 10
-67.5353622736
 20
49.9227774777
 11
-67.3939409173
 21
50.0044323963
  0
LINE
  5
25D
100
AcDbEntity
  8
0
100
AcDbLine
 62
7
  6
CONTINUOUS
 10
-68.1614469647
 20
49.5459733377
 11
-68.0317723281
 21
49.6208458476
  0
LINE
  5
25E
100
AcDbEntity
  8
0
100
AcDbLine
 62
7
  6
CONTINUOUS
 10
-68.0509615301
 20
49.3953218875
 11
-67.9264787405
 21
49.4671966901
  0
LINE
  5
25F
100
AcDbEntity
  8
0
100
AcDbLine
 62
7
  6
CONTINUOUS
 10
-67.240734729
 20
49.8395217557
 11
-67.0993133728
 21
49.9211766744
  0
LINE
  5
260
100
AcDbEntity
  8
0
100
AcDbLine
 62
7
  6
CONTINUOUS
 10
-67.3143914044
 20
49.7517624024
 11
-67.2129254416
 21
49.8103475777
  0
LINE
  5
261
100
AcDbEntity
  8
0
100
AcDbLine
 62
7
  6
CONTINUOUS
 10
-67.9036473364
 20
49.2234059772
 11
-67.7622259802
 21
49.3050608959
  0
LINE
  5
262
100
AcDbEntity
  8
0
100
AcDbLine
 62
7
  6
CONTINUOUS
 10
-67.2039059699
 20
49.6011109674
 11
-67.0810787903
 21
49.6720298415
  0
LINE
  5
263
100
AcDbEntity
  8
0
100
AcDbLine
 62
7
  6
CONTINUOUS
 10
-71.1136173547
 20
52.1086976879
 11
-70.9663035824
 21
52.1539283567
  0
LINE
  5
264
100
AcDbEntity
  8
0
100
AcDbLine
 62
7
  6
CONTINUOUS
 10
-71.2550387109
 20
52.0270427692
 11
-71.1077249387
 21
52.072273438
  0
LINE
  5
265
100
AcDbEntity
  8
RACCORDO
100
AcDbLine
 62
7
  6
CONTINUOUS
 10
-94.2345361008
 20
68.0572181232
 11
-94.2345361008
 21
49.6866368953
  0
LINE
  5
266
100
AcDbEntity
  8
ASSI
100
AcDbLine
 62
7
  6
CONTINUOUS
 10
-94.2345361008
 20
46.4207557881
 11
-94.2345361008
 21
9.0672406249
  0
LINE
  5
267
100
AcDbEntity
  8
RACCORDO
100
AcDbLine
 62
7
  6
CONTINUOUS
 10
-94.2345361008
 20
5.3931243793
 11
-94.2345361008
 21
-12.7733392793
  0
LINE
  5
268
100
AcDbEntity
  8
0
100
AcDbLine
 62
7
  6
CONTINUOUS
 10
-72.7650064571
 20
53.8108939053
 11
-73.5015759505
 21
52.4121505318
  0
LINE
  5
269
100
AcDbEntity
  8
0
100
AcDbLine
 62
7
  6
CONTINUOUS
 10
-72.6235851008
 20
53.892548824
 11
-73.3601545943
 21
52.4938054505
  0
LINE
  5
26A
100
AcDbEntity
  8
0
100
AcDbLine
 62
7
  6
CONTINUOUS
 10
-73.2806050814
 20
52.2845647214
 11
-72.5440355879
 21
53.6833080949
  0
LINE
  5
26B
100
AcDbEntity
  8
0
100
AcDbLine
 62
7
  6
CONTINUOUS
 10
-70.4079839936
 20
51.1036712821
 11
-70.481640669
 21
51.0159118983
  0
LINE
  5
26C
100
AcDbEntity
  8
0
100
AcDbLine
 62
7
  6
CONTINUOUS
 10
-70.2665626374
 20
51.1853262007
 11
-70.3402193127
 21
51.0975668169
  0
LINE
  5
26D
100
AcDbEntity
  8
0
100
AcDbLine
 62
7
  6
CONTINUOUS
 10
-68.0509615301
 20
50.8284878562
 11
-67.9773040118
 21
50.9162467229
  0
LINE
  5
26E
100
AcDbEntity
  8
0
100
AcDbLine
 62
7
  6
CONTINUOUS
 10
-67.0934205353
 20
49.8847521811
 11
-67.0197638599
 21
49.9725115345
  0
LINE
  5
26F
100
AcDbEntity
  8
0
100
AcDbLine
 62
7
  6
CONTINUOUS
 10
-67.0565926191
 20
48.9080442856
 11
-66.9829351008
 21
48.9958031523
  0
LINE
  5
270
100
AcDbEntity
  8
0
100
AcDbLine
 62
7
  6
CONTINUOUS
 10
-67.1670780536
 20
49.1455542807
 11
-67.240734729
 21
49.1012241618
  0
LINE
  5
271
100
AcDbEntity
  8
0
100
AcDbLine
 62
7
  6
CONTINUOUS
 10
-67.0256566974
 20
49.2272091994
 11
-67.0993133728
 21
49.1828790804
  0
LINE
  5
272
100
AcDbEntity
  8
0
100
AcDbLine
 62
7
  6
CONTINUOUS
 10
-67.7563331427
 20
49.0949193394
 11
-67.6149117864
 21
49.176574258
  0
LINE
  5
273
100
AcDbEntity
  8
0
100
AcDbLine
 62
7
  6
CONTINUOUS
 10
-67.1302492945
 20
49.3848654059
 11
-66.9888279382
 21
49.4665203246
  0
LINE
  5
274
100
AcDbEntity
  8
0
100
AcDbLine
 62
7
  6
CONTINUOUS
 10
-67.1302492945
 20
49.2111483464
 11
-66.9888279382
 21
49.2928032651
  0
LINE
  5
275
100
AcDbEntity
  8
0
100
AcDbLine
 62
7
  6
CONTINUOUS
 10
-67.240734729
 20
49.1012241618
 11
-67.0256566974
 21
49.2272091994
  0
LINE
  5
276
100
AcDbEntity
  8
0
100
AcDbLine
 62
7
  6
CONTINUOUS
 10
-67.4617055982
 20
48.9248050877
 11
-67.3202842419
 21
49.0064600064
  0
LINE
  5
277
100
AcDbEntity
  8
0
100
AcDbLine
 62
7
  6
CONTINUOUS
 10
-67.3143914044
 20
48.8831769872
 11
-67.1729700482
 21
48.9648319059
  0
LINE
  5
278
100
AcDbEntity
  8
0
100
AcDbLine
 62
7
  6
CONTINUOUS
 10
-67.1670780536
 20
48.8849786459
 11
-67.0256566974
 21
48.9666335645
  0
LINE
  5
279
100
AcDbEntity
  8
0
100
AcDbLine
 62
7
  6
CONTINUOUS
 10
-67.0993133728
 20
49.9211766744
 11
-67.0501907304
 21
49.9362589822
  0
LINE
  5
27A
100
AcDbEntity
  8
0
100
AcDbLine
 62
7
  6
CONTINUOUS
 10
-67.240734729
 20
49.8395217557
 11
-67.0934205353
 21
49.8847521811
  0
LINE
  5
27B
100
AcDbEntity
  8
0
100
AcDbLine
 62
7
  6
CONTINUOUS
 10
-74.7537442791
 20
53.1351368314
 11
-74.1644886633
 21
54.8360837159
  0
LINE
  5
27C
100
AcDbEntity
  8
0
100
AcDbLine
 62
7
  6
CONTINUOUS
 10
-74.3854595324
 20
54.9636695263
 11
-74.9010582095
 21
53.4807696681
  0
LINE
  5
27D
100
AcDbEntity
  8
0
100
AcDbLine
 62
7
  6
CONTINUOUS
 10
-74.2913269174
 20
54.9093185342
 11
-74.7596368532
 21
53.5624245868
  0
LINE
  5
27E
100
AcDbEntity
  8
0
100
AcDbLine
 62
7
  6
CONTINUOUS
 10
-70.2606697999
 20
50.8883260879
 11
-70.1870131245
 21
51.0629440014
  0
LINE
  5
27F
100
AcDbEntity
  8
0
100
AcDbLine
 62
7
  6
CONTINUOUS
 10
-68.7875308129
 20
51.5143493179
 11
-69.5241005171
 21
50.115606066
  0
LINE
  5
280
100
AcDbEntity
  8
0
100
AcDbLine
 62
7
  6
CONTINUOUS
 10
-68.6461094566
 20
51.5960042365
 11
-69.3826791609
 21
50.1972609847
  0
LINE
  5
281
100
AcDbEntity
  8
0
100
AcDbLine
 62
7
  6
CONTINUOUS
 10
-69.303129648
 20
49.9880202556
 11
-68.5665599438
 21
51.3867635075
  0
LINE
  5
282
100
AcDbEntity
  8
0
100
AcDbLine
 62
7
  6
CONTINUOUS
 10
-67.1670780536
 20
50.2312859631
 11
-67.240734729
 21
50.1000973449
  0
LINE
  5
283
100
AcDbEntity
  8
0
100
AcDbLine
 62
7
  6
CONTINUOUS
 10
-67.0256566974
 20
50.3129408818
 11
-67.0993133728
 21
50.1817522636
  0
LINE
  5
284
100
AcDbEntity
  8
0
100
AcDbLine
 62
7
  6
CONTINUOUS
 10
-67.1302492945
 20
49.2111483464
 11
-67.1670780536
 21
49.1455542807
  0
LINE
  5
285
100
AcDbEntity
  8
0
100
AcDbLine
 62
7
  6
CONTINUOUS
 10
-66.9888279382
 20
49.2928032651
 11
-67.0256566974
 21
49.2272091994
  0
LINE
  5
286
100
AcDbEntity
  8
0
100
AcDbLine
 62
7
  6
CONTINUOUS
 10
-70.3711552344
 20
51.2126946127
 11
-70.4079839936
 21
51.1036712821
  0
LINE
  5
287
100
AcDbEntity
  8
0
100
AcDbLine
 62
7
  6
CONTINUOUS
 10
-70.2297338782
 20
51.2943495313
 11
-70.2665626374
 21
51.1853262007
  0
LINE
  5
288
100
AcDbEntity
  8
0
100
AcDbLine
 62
7
  6
CONTINUOUS
 10
-66.9829351008
 20
48.9958031523
 11
-66.9461071845
 21
49.104827
  0
LINE
  5
289
100
AcDbEntity
  8
0
100
AcDbLine
 62
7
  6
CONTINUOUS
 10
-83.2639801135
 20
22.6957325956
 11
-83.7589548603
 21
22.4099403803
  0
LINE
  5
28A
100
AcDbEntity
  8
0
100
AcDbLine
 62
7
  6
CONTINUOUS
 10
-81.779736035
 20
21.8795169436
 11
-80.7609399263
 21
22.4677570482
  0
LINE
  5
28B
100
AcDbEntity
  8
RACCORDO
100
AcDbLine
 62
7
  6
CONTINUOUS
 10
-87.163468289
 20
-25.0207879805
 11
-68.3190725703
 21
-35.9013058927
  0
LINE
  5
28C
100
AcDbEntity
  8
ASSI
100
AcDbLine
 62
7
  6
CONTINUOUS
 10
-65.2785134112
 20
-37.656886644
 11
-22.251065776
 21
-62.500395648
  0
LINE
  5
28D
100
AcDbEntity
  8
RACCORDO
100
AcDbLine
 62
7
  6
CONTINUOUS
 10
-19.4226386513
 20
-64.1334940213
 11
-0.4721769155
 21
-75.0752531225
  0
LINE
  5
28E
100
AcDbEntity
  8
0
100
AcDbLine
 62
7
  6
CONTINUOUS
 10
-68.1982748809
 20
51.0872617981
 11
-68.2351036401
 21
50.9348092026
  0
LINE
  5
28F
100
AcDbEntity
  8
0
100
AcDbLine
 62
7
  6
CONTINUOUS
 10
-68.0568535247
 20
51.1689167168
 11
-68.0936822838
 21
51.0164641213
  0
LINE
  5
290
100
AcDbEntity
  8
0
100
AcDbLine
 62
7
  6
CONTINUOUS
 10
-67.0197638599
 20
49.9725115345
 11
-66.9829351008
 21
50.12496413
  0
LINE
  5
291
100
AcDbEntity
  8
ASSI
100
AcDbLine
 62
7
  6
CONTINUOUS
 10
-92.2919430689
 20
8.8066061632
 11
-93.0375380616
 21
8.376108959
  0
LINE
  5
292
100
AcDbEntity
  8
ASSI
100
AcDbLine
 62
7
  6
CONTINUOUS
 10
-93.1738759291
 20
6.0055362693
 11
-94.2345361008
 21
5.3931243793
  0
LINE
  5
293
100
AcDbEntity
  8
0
100
AcDbLine
 62
7
  6
CONTINUOUS
 10
-12.8073025741
 20
-58.8711929328
 11
-12.5637594423
 21
-59.0118116848
  0
LINE
  5
294
100
AcDbEntity
  8
0
100
AcDbLine
 62
7
  6
CONTINUOUS
 10
-11.6923309447
 20
-59.5149635778
 11
-11.4487878129
 21
-59.6555823298
  0
LINE
  5
295
100
AcDbEntity
  8
0
100
AcDbLine
 62
7
  6
CONTINUOUS
 10
-11.0692029933
 20
-59.8747498473
 11
-10.8185244469
 21
-60.0194884982
  0
LINE
  5
296
100
AcDbEntity
  8
0
100
AcDbLine
 62
7
  6
CONTINUOUS
 10
-9.7287632956
 20
-60.6487029291
 11
-9.4628635687
 21
-60.8022300989
  0
LINE
  5
297
100
AcDbEntity
  8
0
100
AcDbLine
 62
7
  6
CONTINUOUS
 10
-9.2392990319
 20
-60.9313134605
 11
-8.0819929195
 21
-61.5995275054
  0
LINE
  5
298
100
AcDbEntity
  8
0
100
AcDbLine
 62
7
  6
CONTINUOUS
 10
-7.6700622072
 20
-61.8373711359
 11
-7.4265190755
 21
-61.9779898879
  0
LINE
  5
299
100
AcDbEntity
  8
0
100
AcDbLine
 62
7
  6
CONTINUOUS
 10
-12.6658812179
 20
-58.7895380142
 11
-12.5637594423
 21
-58.8485018475
  0
LINE
  5
29A
100
AcDbEntity
  8
0
100
AcDbLine
 62
7
  6
CONTINUOUS
 10
-11.5509095885
 20
-59.4333086591
 11
-11.4487878129
 21
-59.4922724924
  0
LINE
  5
29B
100
AcDbEntity
  8
0
100
AcDbLine
 62
7
  6
CONTINUOUS
 10
-10.927781637
 20
-59.7930949287
 11
-10.7677462868
 21
-59.8854973341
  0
LINE
  5
29C
100
AcDbEntity
  8
0
100
AcDbLine
 62
7
  6
CONTINUOUS
 10
-9.5873419393
 20
-60.5670480104
 11
-9.5140638118
 21
-60.6093578829
  0
LINE
  5
29D
100
AcDbEntity
  8
0
100
AcDbLine
 62
7
  6
CONTINUOUS
 10
-9.0978776757
 20
-60.8496585419
 11
-8.0819929195
 21
-61.4362176681
  0
LINE
  5
29E
100
AcDbEntity
  8
0
100
AcDbLine
 62
7
  6
CONTINUOUS
 10
-7.528640851
 20
-61.7557162173
 11
-7.4265190755
 21
-61.8146800506
  0
LINE
  5
29F
100
AcDbEntity
  8
0
100
AcDbLine
 62
7
  6
CONTINUOUS
 10
-8.0819929195
 20
-61.3501734005
 11
-8.995755193
 21
-60.8225785159
  0
LINE
  5
2A0
100
AcDbEntity
  8
0
100
AcDbLine
 62
7
  6
CONTINUOUS
 10
-10.6301589786
 20
-59.5224380276
 11
-9.9071401735
 21
-59.9399000241
  0
LINE
  5
2A1
100
AcDbEntity
  8
0
100
AcDbLine
 62
7
  6
CONTINUOUS
 10
-10.4887376224
 20
-59.4407831089
 11
-9.7657188173
 21
-59.8582451054
  0
LINE
  5
2A2
100
AcDbEntity
  8
0
100
AcDbLine
 62
7
  6
CONTINUOUS
 10
-9.9946630225
 20
-59.6400105067
 11
-10.5550034273
 21
-59.3164769797
  0
LINE
  5
2A3
100
AcDbEntity
  8
0
100
AcDbLine
 62
7
  6
CONTINUOUS
 10
-12.3021405399
 20
-57.3311544684
 11
-11.6923309447
 21
-57.6832508859
  0
LINE
  5
2A4
100
AcDbEntity
  8
0
100
AcDbLine
 62
7
  6
CONTINUOUS
 10
-11.4487878129
 20
-57.8238696379
 11
-10.8385023348
 21
-58.1762408243
  0
LINE
  5
2A5
100
AcDbEntity
  8
0
100
AcDbLine
 62
7
  6
CONTINUOUS
 10
-12.1607191837
 20
-57.2494995497
 11
-11.5509095885
 21
-57.6015959672
  0
LINE
  5
2A6
100
AcDbEntity
  8
0
100
AcDbLine
 62
7
  6
CONTINUOUS
 10
-11.3073664567
 20
-57.7422147192
 11
-10.8385023348
 21
-58.0129309869
  0
LINE
  5
2A7
100
AcDbEntity
  8
0
100
AcDbLine
 62
7
  6
CONTINUOUS
 10
-6.7463099291
 20
-60.2891178427
 11
-7.032188251
 21
-60.1240552826
  0
LINE
  5
2A8
100
AcDbEntity
  8
0
100
AcDbLine
 62
7
  6
CONTINUOUS
 10
-8.0667710318
 20
-59.5267001513
 11
-8.3502706465
 21
-59.3630110269
  0
LINE
  5
2A9
100
AcDbEntity
  8
0
100
AcDbLine
 62
7
  6
CONTINUOUS
 10
-8.995755193
 20
-58.9903163395
 11
-9.2392990319
 21
-58.8496971793
  0
LINE
  5
2AA
100
AcDbEntity
  8
0
100
AcDbLine
 62
7
  6
CONTINUOUS
 10
-10.1154835298
 20
-58.3437992314
 11
-10.3913725541
 21
-58.1845043664
  0
LINE
  5
2AB
100
AcDbEntity
  8
0
100
AcDbLine
 62
7
  6
CONTINUOUS
 10
-10.8385023348
 20
-57.9263372349
 11
-12.3021405399
 21
-57.081250879
  0
LINE
  5
2AC
100
AcDbEntity
  8
0
100
AcDbLine
 62
7
  6
CONTINUOUS
 10
-12.5637594423
 20
-56.9301954036
 11
-12.8073025741
 21
-56.7895766516
  0
LINE
  5
2AD
100
AcDbEntity
  8
0
100
AcDbLine
 62
7
  6
CONTINUOUS
 10
-14.8888361404
 20
-54.2365967688
 11
-14.6533794818
 21
-54.3725464926
  0
LINE
  5
2AE
100
AcDbEntity
  8
0
100
AcDbLine
 62
7
  6
CONTINUOUS
 10
-14.1458387403
 20
-54.6655941557
 11
-13.9046743158
 21
-54.8048394719
  0
LINE
  5
2AF
100
AcDbEntity
  8
0
100
AcDbLine
 62
7
  6
CONTINUOUS
 10
-13.3976094572
 20
-55.0976123663
 11
-13.1621527985
 21
-55.23356209
  0
LINE
  5
2B0
100
AcDbEntity
  8
0
100
AcDbLine
 62
7
  6
CONTINUOUS
 10
-12.9461981449
 20
-55.3582516004
 11
-12.6950444229
 21
-55.5032646119
  0
LINE
  5
2B1
100
AcDbEntity
  8
0
100
AcDbLine
 62
7
  6
CONTINUOUS
 10
-11.6052832715
 20
-56.1324790428
 11
-11.3393835446
 21
-56.2860062126
  0
LINE
  5
2B2
100
AcDbEntity
  8
0
100
AcDbLine
 62
7
  6
CONTINUOUS
 10
-11.1034510031
 20
-56.4222307051
 11
-10.37281961
 21
-56.8440881145
  0
LINE
  5
2B3
100
AcDbEntity
  8
0
100
AcDbLine
 62
7
  6
CONTINUOUS
 10
-9.2783037491
 20
-57.4760478551
 11
-7.9478533489
 21
-58.2442332417
  0
LINE
  5
2B4
100
AcDbEntity
  8
0
100
AcDbLine
 62
7
  6
CONTINUOUS
 10
-6.9560809339
 20
-58.8168702043
 11
-6.7125378021
 21
-58.9574889563
  0
LINE
  5
2B5
100
AcDbEntity
  8
0
100
AcDbLine
 62
7
  6
CONTINUOUS
 10
-6.2958503826
 20
-59.19807905
 11
-6.0599178411
 21
-59.3343035425
  0
LINE
  5
2B6
100
AcDbEntity
  8
0
100
AcDbLine
 62
7
  6
CONTINUOUS
 10
-5.1385442702
 20
-59.8662930948
 11
-4.8645580701
 21
-60.0244892929
  0
LINE
  5
2B7
100
AcDbEntity
  8
0
100
AcDbLine
 62
7
  6
CONTINUOUS
 10
-14.7474147842
 20
-54.1549418502
 11
-14.6533794818
 21
-54.2092366552
  0
LINE
  5
2B8
100
AcDbEntity
  8
0
100
AcDbLine
 62
7
  6
CONTINUOUS
 10
-14.0044173841
 20
-54.583939237
 11
-13.8573071019
 21
-54.6688788702
  0
LINE
  5
2B9
100
AcDbEntity
  8
0
100
AcDbLine
 62
7
  6
CONTINUOUS
 10
-13.256188101
 20
-55.0159574476
 11
-13.1621527985
 21
-55.0702522527
  0
LINE
  5
2BA
100
AcDbEntity
  8
0
100
AcDbLine
 62
7
  6
CONTINUOUS
 10
-12.8047767887
 20
-55.2765966818
 11
-12.6442662628
 21
-55.3692734478
  0
LINE
  5
2BB
100
AcDbEntity
  8
0
100
AcDbLine
 62
7
  6
CONTINUOUS
 10
-11.4638619153
 20
-56.0508241241
 11
-11.3905973066
 21
-56.0931261909
  0
LINE
  5
2BC
100
AcDbEntity
  8
0
100
AcDbLine
 62
7
  6
CONTINUOUS
 10
-10.9620296469
 20
-56.3405757864
 11
-10.2313982663
 21
-56.7624331886
  0
LINE
  5
2BD
100
AcDbEntity
  8
0
100
AcDbLine
 62
7
  6
CONTINUOUS
 10
-9.1368823928
 20
-57.3943929364
 11
-7.9478533489
 21
-58.0809234044
  0
LINE
  5
2BE
100
AcDbEntity
  8
0
100
AcDbLine
 62
7
  6
CONTINUOUS
 10
-6.8146595777
 20
-58.7352152856
 11
-6.7125378021
 21
-58.7941791189
  0
LINE
  5
2BF
100
AcDbEntity
  8
0
100
AcDbLine
 62
7
  6
CONTINUOUS
 10
-6.1544290264
 20
-59.1164241313
 11
-6.0599178411
 21
-59.1709937052
  0
LINE
  5
2C0
100
AcDbEntity
  8
0
100
AcDbLine
 62
7
  6
CONTINUOUS
 10
-4.9971229139
 20
-59.7846381762
 11
-4.8645580701
 21
-59.8611794556
  0
LINE
  5
2C1
100
AcDbEntity
  8
0
100
AcDbLine
 62
7
  6
CONTINUOUS
 10
-10.4056444216
 20
-56.5845690444
 11
-10.8594319885
 21
-56.3225577906
  0
LINE
  5
2C2
100
AcDbEntity
  8
0
100
AcDbLine
 62
7
  6
CONTINUOUS
 10
-7.9478533489
 20
-57.9948791368
 11
-9.0347606173
 21
-57.3673125022
  0
LINE
  5
2C3
100
AcDbEntity
  8
0
100
AcDbLine
 62
7
  6
CONTINUOUS
 10
-12.5066789545
 20
-55.0062141412
 11
-11.7836594423
 21
-55.423676546
  0
LINE
  5
2C4
100
AcDbEntity
  8
0
100
AcDbLine
 62
7
  6
CONTINUOUS
 10
-12.3652575983
 20
-54.9245592226
 11
-11.6422380861
 21
-55.3420216274
  0
LINE
  5
2C5
100
AcDbEntity
  8
0
100
AcDbLine
 62
7
  6
CONTINUOUS
 10
-11.8716588813
 20
-55.1235118515
 11
-12.4310475203
 21
-54.8005278621
  0
LINE
  5
2C6
100
AcDbEntity
  8
0
100
AcDbLine
 62
7
  6
CONTINUOUS
 10
-9.0347606173
 20
-56.6719753886
 11
-8.0482200854
 21
-57.2415915275
  0
LINE
  5
2C7
100
AcDbEntity
  8
0
100
AcDbLine
 62
7
  6
CONTINUOUS
 10
-8.893339261
 20
-56.59032047
 11
-8.0482200854
 21
-57.0782816901
  0
LINE
  5
2C8
100
AcDbEntity
  8
0
100
AcDbLine
 62
7
  6
CONTINUOUS
 10
-8.0482200854
 20
-56.9922366061
 11
-9.0347606173
 21
-56.4226204673
  0
LINE
  5
2C9
100
AcDbEntity
  8
0
100
AcDbLine
 62
7
  6
CONTINUOUS
 10
-73.8698608027
 20
54.6659692817
 11
-73.8698608027
 21
54.4488229574
  0
LINE
  5
2CA
100
AcDbEntity
  8
0
100
AcDbLine
 62
7
  6
CONTINUOUS
 10
-73.7284394464
 20
54.5843143631
 11
-73.7284394464
 21
54.5304778761
  0
LINE
  5
2CB
100
AcDbEntity
  8
0
100
AcDbLine
 62
7
  6
CONTINUOUS
 10
-72.5440355879
 20
53.6833080949
 11
-72.5440355879
 21
53.9004544192
  0
LINE
  5
2CC
100
AcDbEntity
  8
0
100
AcDbLine
 62
7
  6
CONTINUOUS
 10
-72.2494078327
 20
53.4263351919
 11
-72.2494078327
 21
53.0789009513
  0
LINE
  5
2CD
100
AcDbEntity
  8
0
100
AcDbLine
 62
7
  6
CONTINUOUS
 10
-72.1079864764
 20
53.5079901105
 11
-72.1079864764
 21
53.1918090315
  0
LINE
  5
2CE
100
AcDbEntity
  8
0
100
AcDbLine
 62
7
  6
CONTINUOUS
 10
-72.0284367528
 20
53.2553199949
 11
-72.0284367528
 21
51.5615784218
  0
LINE
  5
2CF
100
AcDbEntity
  8
0
100
AcDbLine
 62
7
  6
CONTINUOUS
 10
-71.8870153966
 20
53.3369749136
 11
-71.8870153966
 21
51.6432333405
  0
LINE
  5
2D0
100
AcDbEntity
  8
0
100
AcDbLine
 62
7
  6
CONTINUOUS
 10
-71.8074658837
 20
51.4339926114
 11
-71.8074658837
 21
53.4751683034
  0
LINE
  5
2D1
100
AcDbEntity
  8
0
100
AcDbLine
 62
7
  6
CONTINUOUS
 10
-71.5128383392
 20
53.3050540518
 11
-71.5128383392
 21
52.1758930436
  0
LINE
  5
2D2
100
AcDbEntity
  8
0
100
AcDbLine
 62
7
  6
CONTINUOUS
 10
-71.371416983
 20
53.2233991331
 11
-71.371416983
 21
52.2575479623
  0
LINE
  5
2D3
100
AcDbEntity
  8
0
100
AcDbLine
 62
7
  6
CONTINUOUS
 10
-71.3286958078
 20
52.2867177781
 11
-71.3286958078
 21
52.9815861376
  0
LINE
  5
2D4
100
AcDbEntity
  8
0
100
AcDbLine
 62
7
  6
CONTINUOUS
 10
-70.3711552344
 20
51.2995531424
 11
-70.3711552344
 21
51.2126946127
  0
LINE
  5
2D5
100
AcDbEntity
  8
0
100
AcDbLine
 62
7
  6
CONTINUOUS
 10
-70.2606697999
 20
52.3649213062
 11
-70.2606697999
 21
52.5820676305
  0
LINE
  5
2D6
100
AcDbEntity
  8
0
100
AcDbLine
 62
7
  6
CONTINUOUS
 10
-70.2297338782
 20
51.3812080611
 11
-70.2297338782
 21
51.2943495313
  0
LINE
  5
2D7
100
AcDbEntity
  8
0
100
AcDbLine
 62
7
  6
CONTINUOUS
 10
-70.1870131245
 20
51.0629440014
 11
-70.1870131245
 21
51.2366610608
  0
LINE
  5
2D8
100
AcDbEntity
  8
0
100
AcDbLine
 62
7
  6
CONTINUOUS
 10
-69.8923851585
 20
52.3694246943
 11
-69.8923851585
 21
52.1522783699
  0
LINE
  5
2D9
100
AcDbEntity
  8
0
100
AcDbLine
 62
7
  6
CONTINUOUS
 10
-69.7509638022
 20
52.2877697756
 11
-69.7509638022
 21
52.2339332886
  0
LINE
  5
2DA
100
AcDbEntity
  8
0
100
AcDbLine
 62
7
  6
CONTINUOUS
 10
-68.5665599438
 20
51.3867635075
 11
-68.5665599438
 21
51.6039098318
  0
LINE
  5
2DB
100
AcDbEntity
  8
ASSI
100
AcDbLine
 62
7
  6
CONTINUOUS
 10
-68.3190725703
 20
-35.9013058927
 11
-68.3190725703
 21
-34.5729536542
  0
LINE
  5
2DC
100
AcDbEntity
  8
ASSI
100
AcDbLine
 62
7
  6
CONTINUOUS
 10
-68.2130065532
 20
61.1974158566
 11
-68.2130065532
 21
63.5062759132
  0
LINE
  5
2DD
100
AcDbEntity
  8
0
100
AcDbLine
 62
7
  6
CONTINUOUS
 10
-67.6826764673
 20
50.1815519063
 11
-67.6826764673
 21
50.0078348468
  0
LINE
  5
2DE
100
AcDbEntity
  8
ASSI
100
AcDbLine
 62
7
  6
CONTINUOUS
 10
-91.9768778899
 20
5.3144046034
 11
-93.0375380616
 21
4.7019927134
  0
LINE
  5
2DF
100
AcDbEntity
  8
0
100
AcDbLine
 62
7
  6
CONTINUOUS
 10
-9.0347606173
 20
-55.7849539152
 11
-7.9649780609
 21
-56.4026329557
  0
LINE
  5
2E0
100
AcDbEntity
  8
0
100
AcDbLine
 62
7
  6
CONTINUOUS
 10
-10.8594319885
 20
-54.7226238644
 11
-10.4056431373
 21
-54.9846358598
  0
LINE
  5
2E1
100
AcDbEntity
  8
0
100
AcDbLine
 62
7
  6
CONTINUOUS
 10
-8.893339261
 20
-55.7032989965
 11
-7.9649780609
 21
-56.2393231184
  0
LINE
  5
2E2
100
AcDbEntity
  8
0
100
AcDbLine
 62
7
  6
CONTINUOUS
 10
-10.7180106322
 20
-54.6409689457
 11
-10.2642217016
 21
-54.902980987
  0
LINE
  5
2E3
100
AcDbEntity
  8
0
100
AcDbLine
 62
7
  6
CONTINUOUS
 10
-4.8645580701
 20
-57.9434224961
 11
-5.1009664945
 21
-57.8069232348
  0
LINE
  5
2E4
100
AcDbEntity
  8
0
100
AcDbLine
 62
7
  6
CONTINUOUS
 10
-6.0071181777
 20
-57.2837226096
 11
-6.2958503826
 21
-57.1170122532
  0
LINE
  5
2E5
100
AcDbEntity
  8
0
100
AcDbLine
 62
7
  6
CONTINUOUS
 10
-6.7125378021
 20
-56.8764221595
 11
-6.9560809339
 21
-56.7358034075
  0
LINE
  5
2E6
100
AcDbEntity
  8
0
100
AcDbLine
 62
7
  6
CONTINUOUS
 10
-7.9649780609
 20
-56.1532788508
 11
-9.2783037491
 21
-55.3949810583
  0
LINE
  5
2E7
100
AcDbEntity
  8
0
100
AcDbLine
 62
7
  6
CONTINUOUS
 10
-10.3728186215
 20
-54.7630218885
 11
-11.1034510031
 21
-54.3411639083
  0
LINE
  5
2E8
100
AcDbEntity
  8
0
100
AcDbLine
 62
7
  6
CONTINUOUS
 10
-11.9920035057
 20
-53.8281248295
 11
-12.2678925301
 21
-53.6688299645
  0
LINE
  5
2E9
100
AcDbEntity
  8
0
100
AcDbLine
 62
7
  6
CONTINUOUS
 10
-13.1621527985
 20
-53.1524952932
 11
-13.508440667
 21
-52.952553018
  0
LINE
  5
2EA
100
AcDbEntity
  8
0
100
AcDbLine
 62
7
  6
CONTINUOUS
 10
-14.5401695648
 20
-52.356845683
 11
-14.8888361404
 21
-52.1555299721
  0
LINE
  5
2EB
100
AcDbEntity
  8
0
100
AcDbLine
 62
7
  6
CONTINUOUS
 10
-27.9079200255
 20
-38.4142068432
 11
-43.110715821
 21
-29.6363030866
  0
LINE
  5
2EC
100
AcDbEntity
  8
0
100
AcDbLine
 62
7
  6
CONTINUOUS
 10
-44.5249293834
 20
-28.8197539
 11
-59.7277251789
 21
-20.0418501434
  0
LINE
  5
2ED
100
AcDbEntity
  8
ASSI
100
AcDbLine
 62
7
  6
CONTINUOUS
 10
-98.0529127192
 20
46.7883804693
 11
-98.3358170488
 21
47.3774365164
  0
LINE
  5
2EE
100
AcDbEntity
  8
ASSI
100
AcDbLine
 62
7
  6
CONTINUOUS
 10
-98.0529127192
 20
53.7283778221
 11
-97.7700083897
 21
53.139321775
  0
LINE
  5
2EF
100
AcDbEntity
  8
ASSI
100
AcDbLine
 62
7
  6
CONTINUOUS
 10
-96.9922525475
 20
54.3407897121
 11
-96.7093482179
 21
53.751733665
  0
LINE
  5
2F0
100
AcDbEntity
  8
0
100
AcDbLine
 62
7
  6
CONTINUOUS
 10
-67.541255111
 20
50.0964945371
 11
-67.541255111
 21
50.0894897655
  0
LINE
  5
2F1
100
AcDbEntity
  8
ASSI
100
AcDbLine
 62
7
  6
CONTINUOUS
 10
-67.2584123986
 20
-35.2888940027
 11
-67.2584123986
 21
-33.9605417643
  0
LINE
  5
2F2
100
AcDbEntity
  8
0
100
AcDbLine
 62
7
  6
CONTINUOUS
 10
-67.1670780536
 20
50.3181446145
 11
-67.1670780536
 21
50.2312859631
  0
LINE
  5
2F3
100
AcDbEntity
  8
0
100
AcDbLine
 62
7
  6
CONTINUOUS
 10
-67.1302492945
 20
49.3848654059
 11
-67.1302492945
 21
49.2111483464
  0
LINE
  5
2F4
100
AcDbEntity
  8
0
100
AcDbLine
 62
7
  6
CONTINUOUS
 10
-67.0256566974
 20
50.3997995332
 11
-67.0256566974
 21
50.3129408818
  0
LINE
  5
2F5
100
AcDbEntity
  8
0
100
AcDbLine
 62
7
  6
CONTINUOUS
 10
-66.9888279382
 20
49.4665203246
 11
-66.9888279382
 21
49.2928032651
  0
LINE
  5
2F6
100
AcDbEntity
  8
0
100
AcDbLine
 62
7
  6
CONTINUOUS
 10
-66.9829351008
 20
50.12496413
 11
-66.9829351008
 21
50.2118227814
  0
LINE
  5
2F7
100
AcDbEntity
  8
0
100
AcDbLine
 62
7
  6
CONTINUOUS
 10
-66.9461071845
 20
49.104827
 11
-66.9461071845
 21
49.2785440595
  0
LINE
  5
2F8
100
AcDbEntity
  8
ASSI
100
AcDbLine
 62
7
  6
CONTINUOUS
 10
-65.3845794284
 20
61.8731775399
 11
-65.3845794284
 21
59.5643174833
  0
LINE
  5
2F9
100
AcDbEntity
  8
ASSI
100
AcDbLine
 62
7
  6
CONTINUOUS
 10
-65.2785134112
 20
-37.656886644
 11
-65.2785134112
 21
-36.3285344056
  0
LINE
  5
2FA
100
AcDbEntity
  8
ASSI
100
AcDbLine
 62
7
  6
CONTINUOUS
 10
-64.3239192566
 20
62.3784526408
 11
-64.3239192566
 21
60.1767293733
  0
LINE
  5
2FB
100
AcDbEntity
  8
0
100
AcDbLine
 62
7
  6
CONTINUOUS
 10
-42.5803857352
 20
23.2921383734
 11
-41.5197255634
 21
23.9045502634
  0
LINE
  5
2FC
100
AcDbEntity
  8
ASSI
100
AcDbLine
 62
7
  6
CONTINUOUS
 10
-21.2964716214
 20
35.3332203693
 11
-22.3571317932
 21
34.7208084793
  0
LINE
  5
2FD
100
AcDbEntity
  8
RACCORDO
100
AcDbLine
 62
253
  6
CONTINUOUS
 10
-61.6254219414
 20
11.4674923588
 11
-62.6860821132
 21
10.8550804688
  0
LINE
  5
2FE
100
AcDbEntity
  8
ASSI
100
AcDbLine
 62
7
  6
CONTINUOUS
 10
-61.3742684289
 20
10.9780477887
 11
-60.3136082571
 21
11.5904596787
  0
LINE
  5
2FF
100
AcDbEntity
  8
ASSI
100
AcDbLine
 62
7
  6
CONTINUOUS
 10
-21.2964716214
 20
34.0048681308
 11
-22.3571317932
 21
33.3924562409
  0
LINE
  5
300
100
AcDbEntity
  8
0
100
AcDbLine
 62
7
  6
CONTINUOUS
 10
-58.6670650071
 20
-19.4294382534
 11
-44.8091598874
 21
-27.4308189892
  0
LINE
  5
301
100
AcDbEntity
  8
0
100
AcDbLine
 62
7
  6
CONTINUOUS
 10
-42.3358135069
 20
-28.858898191
 11
-26.8472598538
 21
-37.8017949532
  0
LINE
  5
302
100
AcDbEntity
  8
ASSI
100
AcDbLine
 62
7
  6
CONTINUOUS
 10
-93.0375380616
 20
4.7019927134
 11
-94.2345361008
 21
5.3931243793
  0
LINE
  5
303
100
AcDbEntity
  8
ASSI
100
AcDbLine
 62
7
  6
CONTINUOUS
 10
8.1742227092
 20
-53.5322919052
 11
6.5988908964
 21
-52.62271506
  0
LINE
  5
304
100
AcDbEntity
  8
ASSI
100
AcDbLine
 62
7
  6
CONTINUOUS
 10
-91.9768778899
 20
5.3144046034
 11
-93.1738759291
 21
6.0055362693
  0
LINE
  5
305
100
AcDbEntity
  8
ASSI
100
AcDbLine
 62
7
  6
CONTINUOUS
 10
-23.4733679334
 20
-67.0201346198
 11
-23.8420560337
 21
-66.4805994738
  0
LINE
  5
306
100
AcDbEntity
  8
ASSI
100
AcDbLine
 62
7
  6
CONTINUOUS
 10
-18.2559124623
 20
33.577639618
 11
-19.3165726341
 21
32.965227728
  0
LINE
  5
307
100
AcDbEntity
  8
RACCORDO
100
AcDbLine
 62
253
  6
CONTINUOUS
 10
-57.1662315718
 20
8.2803406538
 11
-56.1055714
 21
8.8927525438
  0
LINE
  5
308
100
AcDbEntity
  8
RACCORDO
100
AcDbLine
 62
253
  6
CONTINUOUS
 10
-56.0622614635
 20
7.0305694416
 11
-55.0016012917
 21
7.6429813316
  0
LINE
  5
309
100
AcDbEntity
  8
0
100
AcDbLine
 62
7
  6
CONTINUOUS
 10
-5.8559091695
 20
-24.8155951083
 11
-3.8766903441
 21
-25.346018545
  0
LINE
  5
30A
100
AcDbEntity
  8
ASSI
100
AcDbLine
 62
7
  6
CONTINUOUS
 10
6.5988908964
 20
-49.3568339529
 11
8.1742227092
 21
-50.266410798
  0
LINE
  5
30B
100
AcDbEntity
  8
ASSI
100
AcDbLine
 62
7
  6
CONTINUOUS
 10
-94.2345361008
 20
9.0672406249
 11
-93.0375380616
 21
8.376108959
  0
LINE
  5
30C
100
AcDbEntity
  8
ASSI
100
AcDbLine
 62
7
  6
CONTINUOUS
 10
7.6595510681
 20
-48.7444220629
 11
9.1421857741
 21
-49.6004767603
  0
LINE
  5
30D
100
AcDbEntity
  8
ASSI
100
AcDbLine
 62
7
  6
CONTINUOUS
 10
-18.2003364939
 20
-69.411398371
 11
-17.8316483936
 21
-69.9509335171
  0
LINE
  5
30E
100
AcDbEntity
  8
ASSI
100
AcDbLine
 62
7
  6
CONTINUOUS
 10
-100.689428439
 20
51.4540110213
 11
-101.0581165393
 21
51.9935461673
  0
LINE
  5
30F
100
AcDbEntity
  8
ASSI
100
AcDbLine
 62
7
  6
CONTINUOUS
 10
-17.1396763222
 20
-68.798986481
 11
-16.7709882218
 21
-69.3385216271
  0
LINE
  5
310
100
AcDbEntity
  8
0
100
AcDbLine
 62
7
  6
CONTINUOUS
 10
-74.9010582095
 20
53.4807696681
 11
-75.4166568865
 21
55.5590699546
  0
LINE
  5
311
100
AcDbEntity
  8
0
100
AcDbLine
 62
7
  6
CONTINUOUS
 10
-75.6376277556
 20
55.6866557651
 11
-75.0483720871
 21
53.3052512352
  0
LINE
  5
312
100
AcDbEntity
  8
0
100
AcDbLine
 62
7
  6
CONTINUOUS
 10
-75.4490613899
 20
55.5777799088
 11
-74.9069507308
 21
53.3869061538
  0
LINE
  5
313
100
AcDbEntity
  8
0
100
AcDbLine
 62
7
  6
CONTINUOUS
 10
-70.4079839936
 20
51.4511054618
 11
-70.3711552344
 21
51.2995531424
  0
LINE
  5
314
100
AcDbEntity
  8
0
100
AcDbLine
 62
7
  6
CONTINUOUS
 10
-68.2719323992
 20
49.8703418625
 11
-68.2351036401
 21
49.7187895735
  0
LINE
  5
315
100
AcDbEntity
  8
0
100
AcDbLine
 62
7
  6
CONTINUOUS
 10
-66.9461071845
 20
49.2785440595
 11
-66.9829351008
 21
49.473525157
  0
LINE
  5
316
100
AcDbEntity
  8
0
100
AcDbLine
 62
7
  6
CONTINUOUS
 10
-66.9829351008
 20
50.2118227814
 11
-67.0197638599
 21
50.4068043048
  0
LINE
  5
317
100
AcDbEntity
  8
0
100
AcDbLine
 62
7
  6
CONTINUOUS
 10
-44.5249293834
 20
26.7002249219
 11
-45.0552594693
 21
24.72109945
  0
LINE
  5
318
100
AcDbEntity
  8
RACCORDO
100
AcDbLine
 62
253
  6
CONTINUOUS
 10
-56.9490158537
 20
4.323406903
 11
-57.1662315718
 21
4.1979892698
  0
LINE
  5
319
100
AcDbEntity
  8
ASSI
100
AcDbLine
 62
7
  6
CONTINUOUS
 10
-57.3740751478
 20
4.049956153
 11
-56.8544861333
 21
4.349960338
  0
LINE
  5
31A
100
AcDbEntity
  8
0
100
AcDbLine
 62
7
  6
CONTINUOUS
 10
-83.7589548603
 20
20.7769998267
 11
-81.779736035
 21
19.0218709748
  0
LINE
  5
31B
100
AcDbEntity
  8
ASSI
100
AcDbLine
 62
7
  6
CONTINUOUS
 10
-20.8368522137
 20
-71.6857651718
 11
-21.1197565432
 21
-71.0967091247
  0
LINE
  5
31C
100
AcDbEntity
  8
0
100
AcDbLine
 62
7
  6
CONTINUOUS
 10
-71.5128383392
 20
51.785029599
 11
-71.4391812423
 21
51.5687838245
  0
LINE
  5
31D
100
AcDbEntity
  8
0
100
AcDbLine
 62
7
  6
CONTINUOUS
 10
-71.3021726241
 20
51.6633938554
 11
-71.2977598861
 21
51.6504387432
  0
LINE
  5
31E
100
AcDbEntity
  8
0
100
AcDbLine
 62
7
  6
CONTINUOUS
 10
-71.2182103732
 20
51.4411980141
 11
-71.2918674701
 21
51.6574437886
  0
LINE
  5
31F
100
AcDbEntity
  8
0
100
AcDbLine
 62
7
  6
CONTINUOUS
 10
-68.0509615301
 20
49.6558975223
 11
-68.0877894464
 21
49.7640200293
  0
LINE
  5
320
100
AcDbEntity
  8
0
100
AcDbLine
 62
7
  6
CONTINUOUS
 10
-67.2039059699
 20
49.6011109674
 11
-67.1302492945
 21
49.3848654059
  0
LINE
  5
321
100
AcDbEntity
  8
0
100
AcDbLine
 62
7
  6
CONTINUOUS
 10
-67.0241558918
 20
49.5702381902
 11
-66.9888279382
 21
49.4665203246
  0
LINE
  5
322
100
AcDbEntity
  8
0
100
AcDbLine
 62
7
  6
CONTINUOUS
 10
-70.1870131245
 20
51.2366610608
 11
-70.2606697999
 21
51.4963358872
  0
LINE
  5
323
100
AcDbEntity
  8
0
100
AcDbLine
 62
7
  6
CONTINUOUS
 10
-45.0552594693
 20
-26.2282165381
 11
-44.5249293834
 21
-28.8197539
  0
LINE
  5
324
100
AcDbEntity
  8
0
100
AcDbLine
 62
7
  6
CONTINUOUS
 10
-45.0552594693
 20
-26.2282165381
 11
-45.0552594693
 21
-4.5776999773
  0
LINE
  5
325
100
AcDbEntity
  8
0
100
AcDbLine
 62
7
  6
CONTINUOUS
 10
-45.0552594693
 20
3.0705828892
 11
-45.0552594693
 21
24.72109945
  0
LINE
  5
326
100
AcDbEntity
  8
0
100
AcDbLine
 62
7
  6
CONTINUOUS
 10
-42.5803857352
 20
23.2921383734
 11
-42.5803857352
 21
1.6416218126
  0
LINE
  5
327
100
AcDbEntity
  8
0
100
AcDbLine
 62
7
  6
CONTINUOUS
 10
-42.5803857352
 20
-6.0066610539
 11
-42.5803857352
 21
-27.6571776147
  0
LINE
  5
328
100
AcDbEntity
  8
0
100
AcDbLine
 62
7
  6
CONTINUOUS
 10
-46.3179434029
 20
2.86201819
 11
-45.2572832312
 21
3.47443008
  0
LINE
  5
329
100
AcDbEntity
  8
0
100
AcDbLine
 62
7
  6
CONTINUOUS
 10
-14.6323402266
 20
19.071537043
 11
-14.4909188704
 21
19.1531919616
  0
LINE
  5
32A
100
AcDbEntity
  8
0
100
AcDbLine
 62
7
  6
CONTINUOUS
 10
-14.8097236195
 20
18.537852163
 11
-14.6683022633
 21
18.6195070816
  0
LINE
  5
32B
100
AcDbEntity
  8
0
100
AcDbLine
 62
7
  6
CONTINUOUS
 10
-42.5803857352
 20
1.6416218126
 11
-41.5197255634
 21
2.2540337026
  0
LINE
  5
32C
100
AcDbEntity
  8
0
100
AcDbLine
 62
7
  6
CONTINUOUS
 10
-12.7792926603
 20
18.6982156943
 11
-12.6378713041
 21
18.7798706129
  0
LINE
  5
32D
100
AcDbEntity
  8
0
100
AcDbLine
 62
7
  6
CONTINUOUS
 10
-13.779480353
 20
17.9430026129
 11
-13.6380589968
 21
18.0246575315
  0
LINE
  5
32E
100
AcDbEntity
  8
0
100
AcDbLine
 62
7
  6
CONTINUOUS
 10
-13.2118928109
 20
17.6152846796
 11
-13.0704714546
 21
17.6969395982
  0
LINE
  5
32F
100
AcDbEntity
  8
0
100
AcDbLine
 62
7
  6
CONTINUOUS
 10
-12.3185659233
 20
18.0073018197
 11
-12.1771445671
 21
18.0889567384
  0
LINE
  5
330
100
AcDbEntity
  8
0
100
AcDbLine
 62
7
  6
CONTINUOUS
 10
-11.8560099011
 20
18.1595677203
 11
-11.7145885448
 21
18.241222639
  0
LINE
  5
331
100
AcDbEntity
  8
0
100
AcDbLine
 62
7
  6
CONTINUOUS
 10
-12.3464542148
 20
17.1155912807
 11
-12.2627588129
 21
17.1639159567
  0
LINE
  5
332
100
AcDbEntity
  8
0
100
AcDbLine
 62
7
  6
CONTINUOUS
 10
-10.6353661129
 20
17.6077865593
 11
-10.4939447567
 21
17.6894414779
  0
LINE
  5
333
100
AcDbEntity
  8
0
100
AcDbLine
 62
7
  6
CONTINUOUS
 10
-11.7802052257
 20
16.7886462112
 11
-11.6387838695
 21
16.8703011298
  0
LINE
  5
334
100
AcDbEntity
  8
0
100
AcDbLine
 62
7
  6
CONTINUOUS
 10
-11.3613236538
 20
16.5467892414
 11
-11.2199022976
 21
16.62844416
  0
LINE
  5
335
100
AcDbEntity
  8
0
100
AcDbLine
 62
7
  6
CONTINUOUS
 10
-10.8945525681
 20
16.6847295275
 11
-10.7531312118
 21
16.7663844462
  0
LINE
  5
336
100
AcDbEntity
  8
RACCORDO
100
AcDbLine
 62
7
  6
CONTINUOUS
 10
-5.8559091695
 20
-24.8155951083
 11
-24.9495630913
 21
-13.7911586335
  0
LINE
  5
337
100
AcDbEntity
  8
0
100
AcDbLine
 62
7
  6
CONTINUOUS
 10
-31.573383741
 20
-9.9666476064
 11
-40.5059122774
 21
-4.8091175803
  0
LINE
  5
338
100
AcDbEntity
  8
0
100
AcDbLine
 62
7
  6
CONTINUOUS
 10
-47.1297329271
 20
-0.9846065531
 11
-56.0622614635
 21
4.1729234729
  0
LINE
  5
339
100
AcDbEntity
  8
RACCORDO
100
AcDbLine
 62
7
  6
CONTINUOUS
 10
-62.6860821132
 20
7.9974345001
 11
-81.779736035
 21
19.0218709748
  0
LINE
  5
33A
100
AcDbEntity
  8
RACCORDO
100
AcDbLine
 62
7
  6
CONTINUOUS
 10
-81.779736035
 20
21.8795169436
 11
-62.6860821132
 21
10.8550804688
  0
LINE
  5
33B
100
AcDbEntity
  8
0
100
AcDbLine
 62
7
  6
CONTINUOUS
 10
-56.0622614635
 20
7.0305694416
 11
-47.1297329271
 21
1.8730394156
  0
LINE
  5
33C
100
AcDbEntity
  8
0
100
AcDbLine
 62
7
  6
CONTINUOUS
 10
-40.5059122774
 20
-1.9514716116
 11
-31.573383741
 21
-7.1090016376
  0
LINE
  5
33D
100
AcDbEntity
  8
RACCORDO
100
AcDbLine
 62
7
  6
CONTINUOUS
 10
-24.9495630913
 20
-10.9335126648
 11
-5.8559091695
 21
-21.9579491395
  0
LINE
  5
33E
100
AcDbEntity
  8
0
100
AcDbLine
 62
7
  6
CONTINUOUS
 10
-71.4391812423
 20
51.5687838245
 11
-71.3286958078
 21
51.3312738446
  0
LINE
  5
33F
100
AcDbEntity
  8
0
100
AcDbLine
 62
7
  6
CONTINUOUS
 10
-71.2977598861
 20
51.6504387432
 11
-71.2668443114
 21
51.5839796887
  0
LINE
  5
340
100
AcDbEntity
  8
0
100
AcDbLine
 62
7
  6
CONTINUOUS
 10
-70.2606697999
 20
51.4963358872
 11
-70.3711552344
 21
51.7338458519
  0
LINE
  5
341
100
AcDbEntity
  8
0
100
AcDbLine
 62
7
  6
CONTINUOUS
 10
-70.481640669
 20
51.6239216976
 11
-70.4079839936
 21
51.4511054618
  0
LINE
  5
342
100
AcDbEntity
  8
0
100
AcDbLine
 62
7
  6
CONTINUOUS
 10
-68.2351036401
 20
49.7187895735
 11
-68.1614469647
 21
49.5459733377
  0
LINE
  5
343
100
AcDbEntity
  8
0
100
AcDbLine
 62
7
  6
CONTINUOUS
 10
-66.9829351008
 20
49.473525157
 11
-67.0565926191
 21
49.6463418796
  0
LINE
  5
344
100
AcDbEntity
  8
0
100
AcDbLine
 62
7
  6
CONTINUOUS
 10
-67.240734729
 20
50.4909608504
 11
-67.1670780536
 21
50.3181446145
  0
LINE
  5
345
100
AcDbEntity
  8
0
100
AcDbLine
 62
7
  6
CONTINUOUS
 10
-67.0550927707
 20
50.4688636249
 11
-67.0256566974
 21
50.3997995332
  0
LINE
  5
346
100
AcDbEntity
  8
0
100
AcDbLine
 62
7
  6
CONTINUOUS
 10
-41.5197255634
 20
23.9045502634
 11
-41.5197255634
 21
2.2540337026
  0
LINE
  5
347
100
AcDbEntity
  8
0
100
AcDbLine
 62
7
  6
CONTINUOUS
 10
-41.5197255634
 20
-5.8961669475
 11
-41.5197255634
 21
-27.0447657247
  0
LINE
  5
348
100
AcDbEntity
  8
0
100
AcDbLine
 62
7
  6
CONTINUOUS
 10
-10.46582312
 20
16.7524689643
 11
-10.3244017638
 21
16.8341238829
  0
LINE
  5
349
100
AcDbEntity
  8
0
100
AcDbLine
 62
7
  6
CONTINUOUS
 10
-9.4440430246
 20
17.1330377789
 11
-9.3026216684
 21
17.2146926976
  0
LINE
  5
34A
100
AcDbEntity
  8
0
100
AcDbLine
 62
7
  6
CONTINUOUS
 10
-10.3920860249
 20
16.3946116429
 11
-10.2506646686
 21
16.4762665615
  0
LINE
  5
34B
100
AcDbEntity
  8
RACCORDO
100
AcDbLine
 62
253
  6
CONTINUOUS
 10
-0.4721769155
 20
22.0847098158
 11
0.5884832563
 21
22.6971217058
  0
LINE
  5
34C
100
AcDbEntity
  8
0
100
AcDbLine
 62
253
  6
CONTINUOUS
 10
-9.1549935474
 20
16.9781586116
 11
-9.0135721912
 21
17.0598135303
  0
LINE
  5
34D
100
AcDbEntity
  8
0
100
AcDbLine
 62
7
  6
CONTINUOUS
 10
-10.2965049871
 20
15.9319762885
 11
-10.1550836308
 21
16.0136312072
  0
LINE
  5
34E
100
AcDbEntity
  8
0
100
AcDbLine
 62
253
  6
CONTINUOUS
 10
-8.9465735915
 20
16.6026861855
 11
-8.8051522353
 21
16.6843411041
  0
LINE
  5
34F
100
AcDbEntity
  8
0
100
AcDbLine
 62
7
  6
CONTINUOUS
 10
-9.4318087573
 20
16.2314307124
 11
-9.290387401
 21
16.313085631
  0
LINE
  5
350
100
AcDbEntity
  8
0
100
AcDbLine
 62
7
  6
CONTINUOUS
 10
-9.0209373349
 20
16.4107105496
 11
-8.8795159787
 21
16.4923654682
  0
LINE
  5
351
100
AcDbEntity
  8
0
100
AcDbLine
 62
253
  6
CONTINUOUS
 10
-9.2339794618
 20
16.1172065565
 11
-9.0925581056
 21
16.1988614752
  0
LINE
  5
352
100
AcDbEntity
  8
0
100
AcDbLine
 62
7
  6
CONTINUOUS
 10
-40.5059122774
 20
-1.9514716116
 11
-39.4452521056
 21
-1.3390597216
  0
LINE
  5
353
100
AcDbEntity
  8
0
100
AcDbLine
 62
7
  6
CONTINUOUS
 10
-9.7992874432
 20
15.6448893777
 11
-9.657866087
 21
15.7265442963
  0
LINE
  5
354
100
AcDbEntity
  8
0
100
AcDbLine
 62
7
  6
CONTINUOUS
 10
-8.850700942
 20
16.0619496407
 11
-8.7092795857
 21
16.1436045594
  0
LINE
  5
355
100
AcDbEntity
  8
0
100
AcDbLine
 62
253
  6
CONTINUOUS
 10
-9.0281309553
 20
15.8185191596
 11
-8.8867095991
 21
15.9001740783
  0
LINE
  5
356
100
AcDbEntity
  8
0
100
AcDbLine
 62
7
  6
CONTINUOUS
 10
-8.8667923835
 20
15.1064784171
 11
-8.7253710273
 21
15.1881333358
  0
LINE
  5
357
100
AcDbEntity
  8
0
100
AcDbLine
 62
7
  6
CONTINUOUS
 10
-41.3177018015
 20
-5.7980963547
 11
-40.2570416298
 21
-5.1856844647
  0
LINE
  5
358
100
AcDbEntity
  8
0
100
AcDbLine
 62
7
  6
CONTINUOUS
 10
-80.5625895057
 20
22.401575572
 11
-61.6254219414
 21
11.4674923588
  0
LINE
  5
359
100
AcDbEntity
  8
0
100
AcDbLine
 62
7
  6
CONTINUOUS
 10
-55.0016012917
 20
7.6429813316
 11
-46.5035707795
 21
2.7363250192
  0
LINE
  5
35A
100
AcDbEntity
  8
0
100
AcDbLine
 62
7
  6
CONTINUOUS
 10
-39.4452521056
 20
-1.3390597216
 11
-30.5127235692
 21
-6.4965897476
  0
LINE
  5
35B
100
AcDbEntity
  8
0
100
AcDbLine
 62
7
  6
CONTINUOUS
 10
-23.8889029195
 20
-10.3211007748
 11
-4.9517353552
 21
-21.255183988
  0
LINE
  5
35C
100
AcDbEntity
  8
0
100
AcDbLine
 62
7
  6
CONTINUOUS
 10
-67.9773040118
 20
49.5265100343
 11
-68.0509615301
 21
49.6558975223
  0
LINE
  5
35D
100
AcDbEntity
  8
0
100
AcDbLine
 62
7
  6
CONTINUOUS
 10
-67.0197638599
 20
50.4068043048
 11
-67.1670780536
 21
50.6655787335
  0
LINE
  5
35E
100
AcDbEntity
  8
0
100
AcDbLine
 62
7
  6
CONTINUOUS
 10
-42.5803857352
 20
23.2921383734
 11
-43.110715821
 21
25.8836757353
  0
LINE
  5
35F
100
AcDbEntity
  8
0
100
AcDbLine
 62
7
  6
CONTINUOUS
 10
-41.5197255634
 20
23.9045502634
 11
-41.5550809024
 21
24.0773194208
  0
LINE
  5
360
100
AcDbEntity
  8
0
100
AcDbLine
 62
7
  6
CONTINUOUS
 10
-43.110715821
 20
-29.6363030866
 11
-42.5803857352
 21
-27.6571776147
  0
LINE
  5
361
100
AcDbEntity
  8
0
100
AcDbLine
 62
7
  6
CONTINUOUS
 10
-41.5550809024
 20
-27.1767074229
 11
-41.5197255634
 21
-27.0447657247
  0
LINE
  5
362
100
AcDbEntity
  8
0
100
AcDbLine
 62
7
  6
CONTINUOUS
 10
-42.5450303961
 20
-29.309683412
 11
-41.5550809024
 21
-27.1767074229
  0
LINE
  5
363
100
AcDbEntity
  8
0
100
AcDbLine
 62
253
  6
CONTINUOUS
 10
-59.7277251789
 20
-20.0418501434
 11
-58.6670650071
 21
-19.4294382534
  0
LINE
  5
364
100
AcDbEntity
  8
RACCORDO
100
AcDbLine
 62
253
  6
CONTINUOUS
 10
-30.5127235692
 20
-6.4965897476
 11
-31.573383741
 21
-7.1090016376
  0
LINE
  5
365
100
AcDbEntity
  8
ASSI
100
AcDbLine
 62
7
  6
CONTINUOUS
 10
-30.2615700567
 20
-6.9860343177
 11
-29.2009098849
 21
-6.3736224277
  0
LINE
  5
366
100
AcDbEntity
  8
0
100
AcDbLine
 62
7
  6
CONTINUOUS
 10
-81.779736035
 20
21.8795169436
 11
-83.7589548603
 21
22.4099403803
  0
LINE
  5
367
100
AcDbEntity
  8
0
100
AcDbLine
 62
7
  6
CONTINUOUS
 10
-3.8766903441
 20
-23.7130779914
 11
-5.8559091695
 21
-21.9579491395
  0
LINE
  5
368
100
AcDbEntity
  8
0
100
AcDbLine
 62
7
  6
CONTINUOUS
 10
-71.3286958078
 20
51.3312738446
 11
-71.1445532763
 21
51.0946644489
  0
LINE
  5
369
100
AcDbEntity
  8
0
100
AcDbLine
 62
7
  6
CONTINUOUS
 10
-71.0588624688
 20
51.247928959
 11
-71.0031319201
 21
51.1763193675
  0
LINE
  5
36A
100
AcDbEntity
  8
0
100
AcDbLine
 62
7
  6
CONTINUOUS
 10
-70.3711552344
 20
51.7338458519
 11
-70.5552977658
 21
51.9704552363
  0
LINE
  5
36B
100
AcDbEntity
  8
0
100
AcDbLine
 62
7
  6
CONTINUOUS
 10
-71.1077249387
 20
51.2905465792
 11
-71.2182103732
 21
51.4411980141
  0
LINE
  5
36C
100
AcDbEntity
  8
0
100
AcDbLine
 62
7
  6
CONTINUOUS
 10
-70.5921261035
 20
51.7745731326
 11
-70.481640669
 21
51.6239216976
  0
LINE
  5
36D
100
AcDbEntity
  8
0
100
AcDbLine
 62
7
  6
CONTINUOUS
 10
-68.1614469647
 20
49.5459733377
 11
-68.0509615301
 21
49.3953218875
  0
LINE
  5
36E
100
AcDbEntity
  8
0
100
AcDbLine
 62
7
  6
CONTINUOUS
 10
-67.3143914044
 20
49.7517624024
 11
-67.2039059699
 21
49.6011109674
  0
LINE
  5
36F
100
AcDbEntity
  8
0
100
AcDbLine
 62
7
  6
CONTINUOUS
 10
-67.3512201636
 20
50.6416122853
 11
-67.240734729
 21
50.4909608504
  0
LINE
  5
370
100
AcDbEntity
  8
ASSI
100
AcDbLine
 62
7
  6
CONTINUOUS
 10
-66.7987929908
 20
68.7496870071
 11
-66.5158886613
 21
68.16063096
  0
LINE
  5
371
100
AcDbEntity
  8
ASSI
100
AcDbLine
 62
7
  6
CONTINUOUS
 10
-65.738132819
 20
69.3620988971
 11
-65.4552284895
 21
68.77304285
  0
LINE
  5
372
100
AcDbEntity
  8
0
100
AcDbLine
 62
7
  6
CONTINUOUS
 10
-42.1308652499
 20
25.3179222959
 11
-41.5550809024
 21
24.0773194208
  0
LINE
  5
373
100
AcDbEntity
  8
0
100
AcDbLine
 62
7
  6
CONTINUOUS
 10
-8.3502706465
 20
-59.3630110269
 11
-7.6700622072
 21
-60.999782039
  0
LINE
  5
374
100
AcDbEntity
  8
0
100
AcDbLine
 62
7
  6
CONTINUOUS
 10
-8.1195548351
 20
-59.4962234448
 11
-7.528640851
 21
-60.9181271203
  0
LINE
  5
375
100
AcDbEntity
  8
0
100
AcDbLine
 62
7
  6
CONTINUOUS
 10
-6.0599178411
 20
-57.6434809616
 11
-5.1385442702
 21
-59.8662930948
  0
LINE
  5
376
100
AcDbEntity
  8
0
100
AcDbLine
 62
7
  6
CONTINUOUS
 10
-5.9184964849
 20
-57.5618260429
 11
-4.9971229139
 21
-59.7846381762
  0
LINE
  5
377
100
AcDbEntity
  8
0
100
AcDbLine
 62
7
  6
CONTINUOUS
 10
-5.1009664945
 20
-59.4970158913
 11
-6.0071181777
 21
-57.2837226096
  0
LINE
  5
378
100
AcDbEntity
  8
0
100
AcDbLine
 62
7
  6
CONTINUOUS
 10
-7.5497175828
 20
-60.825404991
 11
-8.0667710318
 21
-59.5267001513
  0
LINE
  5
379
100
AcDbEntity
  8
RACCORDO
100
AcDbLine
 62
253
  6
CONTINUOUS
 10
6.5988908964
 20
9.8372611146
 11
7.6595510681
 21
10.4496730046
  0
LINE
  5
37A
100
AcDbEntity
  8
RACCORDO
100
AcDbLine
 62
253
  6
CONTINUOUS
 10
-26.0535331995
 20
-9.6837414526
 11
-24.9928730278
 21
-9.0713295627
  0
LINE
  5
37B
100
AcDbEntity
  8
ASSI
100
AcDbLine
 62
7
  6
CONTINUOUS
 10
-67.2584123986
 20
-33.9605417643
 11
-68.3190725703
 21
-34.5729536542
  0
LINE
  5
37C
100
AcDbEntity
  8
ASSI
100
AcDbLine
 62
7
  6
CONTINUOUS
 10
-67.2584123986
 20
-35.2888940027
 11
-68.3190725703
 21
-35.9013058927
  0
LINE
  5
37D
100
AcDbEntity
  8
RACCORDO
100
AcDbLine
 62
253
  6
CONTINUOUS
 10
-24.9495630913
 20
-10.9335126648
 11
-23.8889029195
 21
-10.3211007748
  0
LINE
  5
37E
100
AcDbEntity
  8
ASSI
100
AcDbLine
 62
7
  6
CONTINUOUS
 10
-64.4147573038
 20
-35.8298124545
 11
-65.2785134112
 21
-36.3285344056
  0
LINE
  5
37F
100
AcDbEntity
  8
RACCORDO
100
AcDbLine
 62
253
  6
CONTINUOUS
 10
-25.8363174815
 20
-13.6406752034
 11
-26.0535331995
 21
-13.7660928366
  0
LINE
  5
380
100
AcDbEntity
  8
ASSI
100
AcDbLine
 62
7
  6
CONTINUOUS
 10
-26.2613767756
 20
-13.9141259535
 11
-25.7417877611
 21
-13.6141217685
  0
LINE
  5
381
100
AcDbEntity
  8
ASSI
100
AcDbLine
 62
7
  6
CONTINUOUS
 10
6.5988908964
 20
-12.0033187896
 11
5.4018928572
 21
-11.3121871237
  0
LINE
  5
382
100
AcDbEntity
  8
ASSI
100
AcDbLine
 62
7
  6
CONTINUOUS
 10
-94.2345361008
 20
46.4207557881
 11
-95.8098679136
 21
47.3303326333
  0
LINE
  5
383
100
AcDbEntity
  8
ASSI
100
AcDbLine
 62
7
  6
CONTINUOUS
 10
7.6595510681
 20
-11.3909068996
 11
6.4625530289
 21
-10.6997752337
  0
LINE
  5
384
100
AcDbEntity
  8
ASSI
100
AcDbLine
 62
7
  6
CONTINUOUS
 10
-95.8098679136
 20
50.5962137405
 11
-94.2345361008
 21
49.6866368953
  0
LINE
  5
385
100
AcDbEntity
  8
ASSI
100
AcDbLine
 62
7
  6
CONTINUOUS
 10
6.5988908964
 20
-8.329202544
 11
5.4018928572
 21
-7.6380708781
  0
LINE
  5
386
100
AcDbEntity
  8
ASSI
100
AcDbLine
 62
7
  6
CONTINUOUS
 10
-94.7492077418
 20
51.2086256305
 11
-94.2345361008
 21
50.9114606753
  0
LINE
  5
387
100
AcDbEntity
  8
0
100
AcDbLine
 62
7
  6
CONTINUOUS
 10
-67.0565926191
 20
49.6463418796
 11
-67.240734729
 21
49.8395217557
  0
LINE
  5
388
100
AcDbEntity
  8
0
100
AcDbLine
 62
7
  6
CONTINUOUS
 10
-68.0509615301
 20
49.3953218875
 11
-67.9036473364
 21
49.2234059772
  0
LINE
  5
389
100
AcDbEntity
  8
0
100
AcDbLine
 62
7
  6
CONTINUOUS
 10
-67.9036473364
 20
49.4405523282
 11
-67.9773040118
 21
49.5265100343
  0
LINE
  5
38A
100
AcDbEntity
  8
0
100
AcDbLine
 62
7
  6
CONTINUOUS
 10
-67.8201249482
 20
49.3726290884
 11
-67.7622259802
 21
49.3050608959
  0
LINE
  5
38B
100
AcDbEntity
  8
0
100
AcDbLine
 62
7
  6
CONTINUOUS
 10
-67.1670780536
 20
50.6655787335
 11
-67.3143914044
 21
50.8374941457
  0
LINE
  5
38C
100
AcDbEntity
  8
ASSI
100
AcDbLine
 62
7
  6
CONTINUOUS
 10
13.0537832345
 20
-54.390089186
 11
13.4224713348
 21
-54.9296243321
  0
LINE
  5
38D
100
AcDbEntity
  8
ASSI
100
AcDbLine
 62
7
  6
CONTINUOUS
 10
-69.4353087105
 20
66.4753202063
 11
-69.8039968108
 21
67.0148553524
  0
LINE
  5
38E
100
AcDbEntity
  8
ASSI
100
AcDbLine
 62
7
  6
CONTINUOUS
 10
14.1144434063
 20
-53.777677296
 11
14.4831315066
 21
-54.3172124421
  0
LINE
  5
38F
100
AcDbEntity
  8
ASSI
100
AcDbLine
 62
7
  6
CONTINUOUS
 10
-64.1622772711
 20
64.0840564551
 11
-63.7935891708
 21
63.5445213091
  0
LINE
  5
390
100
AcDbEntity
  8
0
100
AcDbLine
 62
7
  6
CONTINUOUS
 10
-11.3393835446
 20
-56.2860062126
 11
-11.9920035057
 21
-53.8281248295
  0
LINE
  5
391
100
AcDbEntity
  8
0
100
AcDbLine
 62
7
  6
CONTINUOUS
 10
-9.4628635687
 20
-60.8022300989
 11
-10.1154835298
 21
-58.3437992314
  0
LINE
  5
392
100
AcDbEntity
  8
0
100
AcDbLine
 62
7
  6
CONTINUOUS
 10
-11.7836594423
 20
-55.423676546
 11
-11.6052832715
 21
-56.1324790428
  0
LINE
  5
393
100
AcDbEntity
  8
0
100
AcDbLine
 62
7
  6
CONTINUOUS
 10
-11.6422380861
 20
-55.3420216274
 11
-11.4638619153
 21
-56.0508241241
  0
LINE
  5
394
100
AcDbEntity
  8
0
100
AcDbLine
 62
7
  6
CONTINUOUS
 10
-9.9071401735
 20
-59.9399000241
 11
-9.7287632956
 21
-60.6487029291
  0
LINE
  5
395
100
AcDbEntity
  8
0
100
AcDbLine
 62
7
  6
CONTINUOUS
 10
-9.7657188173
 20
-59.8582451054
 11
-9.5873419393
 21
-60.5670480104
  0
LINE
  5
396
100
AcDbEntity
  8
0
100
AcDbLine
 62
7
  6
CONTINUOUS
 10
-14.0228707498
 20
-54.4237074093
 11
-14.5401695648
 21
-52.356845683
  0
LINE
  5
397
100
AcDbEntity
  8
0
100
AcDbLine
 62
7
  6
CONTINUOUS
 10
-14.6533794818
 20
-52.627613977
 11
-14.1458387403
 21
-54.6655941557
  0
LINE
  5
398
100
AcDbEntity
  8
0
100
AcDbLine
 62
7
  6
CONTINUOUS
 10
-14.5119581255
 20
-52.5459590583
 11
-14.0044173841
 21
-54.583939237
  0
LINE
  5
399
100
AcDbEntity
  8
0
100
AcDbLine
 62
7
  6
CONTINUOUS
 10
-10.2635495684
 20
-58.5599927072
 11
-9.9946630225
 21
-59.6400105067
  0
LINE
  5
39A
100
AcDbEntity
  8
0
100
AcDbLine
 62
7
  6
CONTINUOUS
 10
-10.1221282122
 20
-58.4783377885
 11
-9.8532416662
 21
-59.558355588
  0
LINE
  5
39B
100
AcDbEntity
  8
0
100
AcDbLine
 62
7
  6
CONTINUOUS
 10
-12.1353224068
 20
-54.0262949
 11
-11.8716588813
 21
-55.1235118515
  0
LINE
  5
39C
100
AcDbEntity
  8
0
100
AcDbLine
 62
7
  6
CONTINUOUS
 10
-11.9939010506
 20
-53.9446399813
 11
-11.730237525
 21
-55.0418569329
  0
LINE
  5
39D
100
AcDbEntity
  8
ASSI
100
AcDbLine
 62
7
  6
CONTINUOUS
 10
-22.3571317932
 20
34.7208084793
 11
-22.3571317932
 21
33.3924562409
  0
LINE
  5
39E
100
AcDbEntity
  8
ASSI
100
AcDbLine
 62
7
  6
CONTINUOUS
 10
-22.251065776
 20
-64.8092557046
 11
-22.251065776
 21
-62.500395648
  0
LINE
  5
39F
100
AcDbEntity
  8
ASSI
100
AcDbLine
 62
7
  6
CONTINUOUS
 10
-21.2964716214
 20
35.3332203693
 11
-21.2964716214
 21
34.0048681308
  0
LINE
  5
3A0
100
AcDbEntity
  8
ASSI
100
AcDbLine
 62
7
  6
CONTINUOUS
 10
-19.4226386513
 20
-64.1334940213
 11
-19.4226386513
 21
-66.4423540779
  0
LINE
  5
3A1
100
AcDbEntity
  8
ASSI
100
AcDbLine
 62
7
  6
CONTINUOUS
 10
-19.3165726341
 20
32.965227728
 11
-19.3165726341
 21
31.6368754895
  0
LINE
  5
3A2
100
AcDbEntity
  8
ASSI
100
AcDbLine
 62
7
  6
CONTINUOUS
 10
-18.3619784795
 20
-64.7459059113
 11
-18.3619784795
 21
-65.829942188
  0
LINE
  5
3A3
100
AcDbEntity
  8
0
100
AcDbLine
 62
7
  6
CONTINUOUS
 10
-14.2851147346
 20
20.2759097115
 11
-14.6323402266
 21
19.071537043
  0
LINE
  5
3A4
100
AcDbEntity
  8
0
100
AcDbLine
 62
7
  6
CONTINUOUS
 10
-14.1840571778
 20
20.2175603448
 11
-14.4909188704
 21
19.1531919616
  0
LINE
  5
3A5
100
AcDbEntity
  8
0
100
AcDbLine
 62
7
  6
CONTINUOUS
 10
-10.8068981972
 20
18.2676310752
 11
-11.3613236538
 21
16.5467892414
  0
LINE
  5
3A6
100
AcDbEntity
  8
0
100
AcDbLine
 62
7
  6
CONTINUOUS
 10
-10.709839849
 20
18.2115908013
 11
-11.2199022976
 21
16.62844416
  0
LINE
  5
3A7
100
AcDbEntity
  8
0
100
AcDbLine
 62
7
  6
CONTINUOUS
 10
-14.4845747083
 20
18.3501152567
 11
-13.9164030959
 21
20.0630202324
  0
LINE
  5
3A8
100
AcDbEntity
  8
0
100
AcDbLine
 62
7
  6
CONTINUOUS
 10
-11.9496025546
 20
18.9274142497
 11
-12.3185659233
 21
18.0073018197
  0
LINE
  5
3A9
100
AcDbEntity
  8
0
100
AcDbLine
 62
7
  6
CONTINUOUS
 10
-11.8613564124
 20
18.8764620331
 11
-12.1771445671
 21
18.0889567384
  0
LINE
  5
3AA
100
AcDbEntity
  8
0
100
AcDbLine
 62
7
  6
CONTINUOUS
 10
-12.2947067263
 20
17.0857129294
 11
-11.8560099011
 21
18.1595677203
  0
LINE
  5
3AB
100
AcDbEntity
  8
0
100
AcDbLine
 62
7
  6
CONTINUOUS
 10
-42.5803857352
 20
-27.6571776147
 11
-41.5197255634
 21
-27.0447657247
  0
LINE
  5
3AC
100
AcDbEntity
  8
0
100
AcDbLine
 62
7
  6
CONTINUOUS
 10
-42.5450303961
 20
-29.309683412
 11
-43.110715821
 21
-29.6363030866
  0
LINE
  5
3AD
100
AcDbEntity
  8
0
100
AcDbLine
 62
7
  6
CONTINUOUS
 10
-59.7277251789
 20
35.4781286785
 11
-44.5249293834
 21
26.7002249219
  0
LINE
  5
3AE
100
AcDbEntity
  8
0
100
AcDbLine
 62
7
  6
CONTINUOUS
 10
-43.110715821
 20
25.8836757353
 11
-27.9079200255
 21
17.1057719787
  0
LINE
  5
3AF
100
AcDbEntity
  8
0
100
AcDbLine
 62
7
  6
CONTINUOUS
 10
-67.5353622736
 20
49.9227774777
 11
-67.3143914044
 21
49.7517624024
  0
LINE
  5
3B0
100
AcDbEntity
  8
0
100
AcDbLine
 62
7
  6
CONTINUOUS
 10
-67.3939409173
 20
50.0044323963
 11
-67.2064418644
 21
49.859322026
  0
LINE
  5
3B1
100
AcDbEntity
  8
0
100
AcDbLine
 62
7
  6
CONTINUOUS
 10
-71.1445532763
 20
51.0946644489
 11
-70.9604111664
 21
50.9449138337
  0
LINE
  5
3B2
100
AcDbEntity
  8
0
100
AcDbLine
 62
7
  6
CONTINUOUS
 10
-71.0031319201
 20
51.1763193675
 11
-70.8189898102
 21
51.0265687524
  0
LINE
  5
3B3
100
AcDbEntity
  8
0
100
AcDbLine
 62
7
  6
CONTINUOUS
 10
-67.7195052264
 20
49.2908017168
 11
-67.9036473364
 21
49.4405523282
  0
LINE
  5
3B4
100
AcDbEntity
  8
0
100
AcDbLine
 62
7
  6
CONTINUOUS
 10
-70.5552977658
 20
51.9704552363
 11
-70.7394402973
 21
52.1202060909
  0
LINE
  5
3B5
100
AcDbEntity
  8
0
100
AcDbLine
 62
7
  6
CONTINUOUS
 10
-67.5353622736
 20
50.7913628966
 11
-67.3512201636
 21
50.6416122853
  0
LINE
  5
3B6
100
AcDbEntity
  8
0
100
AcDbLine
 62
7
  6
CONTINUOUS
 10
-67.3939409173
 20
50.8730178153
 11
-67.2319406387
 21
50.7412736924
  0
LINE
  5
3B7
100
AcDbEntity
  8
0
100
AcDbLine
 62
7
  6
CONTINUOUS
 10
-70.9604111664
 20
51.1620601885
 11
-71.1077249387
 21
51.2905465792
  0
LINE
  5
3B8
100
AcDbEntity
  8
0
100
AcDbLine
 62
7
  6
CONTINUOUS
 10
-67.9036473364
 20
49.2234059772
 11
-67.7563331427
 21
49.0949193394
  0
LINE
  5
3B9
100
AcDbEntity
  8
0
100
AcDbLine
 62
7
  6
CONTINUOUS
 10
-67.7622259802
 20
49.3050608959
 11
-67.6149117864
 21
49.176574258
  0
LINE
  5
3BA
100
AcDbEntity
  8
0
100
AcDbLine
 62
7
  6
CONTINUOUS
 10
-70.7394402973
 20
51.9030597666
 11
-70.5921261035
 21
51.7745731326
  0
LINE
  5
3BB
100
AcDbEntity
  8
0
100
AcDbLine
 62
7
  6
CONTINUOUS
 10
-70.598018941
 20
51.9847146853
 11
-70.4995671735
 21
51.8988455921
  0
LINE
  5
3BC
100
AcDbEntity
  8
ASSI
100
AcDbLine
 62
7
  6
CONTINUOUS
 10
-63.1016170993
 20
64.6964683451
 11
-62.732928999
 21
64.1569331991
  0
LINE
  5
3BD
100
AcDbEntity
  8
ASSI
100
AcDbLine
 62
7
  6
CONTINUOUS
 10
10.4172675148
 20
-56.6644559868
 11
10.1343631853
 21
-56.0753999397
  0
LINE
  5
3BE
100
AcDbEntity
  8
0
100
AcDbLine
 62
7
  6
CONTINUOUS
 10
-14.8888361404
 20
-52.1555299721
 11
-14.8888361404
 21
-54.2365967688
  0
LINE
  5
3BF
100
AcDbEntity
  8
0
100
AcDbLine
 62
7
  6
CONTINUOUS
 10
-14.7474147842
 20
-52.2371848907
 11
-14.7474147842
 21
-54.1549418502
  0
LINE
  5
3C0
100
AcDbEntity
  8
0
100
AcDbLine
 62
7
  6
CONTINUOUS
 10
-14.6533794818
 20
-54.3725464926
 11
-14.6533794818
 21
-52.627613977
  0
LINE
  5
3C1
100
AcDbEntity
  8
0
100
AcDbLine
 62
7
  6
CONTINUOUS
 10
-13.779480353
 20
19.9840852272
 11
-13.779480353
 21
17.9430026129
  0
LINE
  5
3C2
100
AcDbEntity
  8
0
100
AcDbLine
 62
7
  6
CONTINUOUS
 10
-13.6380589968
 20
19.9024303086
 11
-13.6380589968
 21
18.0246575315
  0
LINE
  5
3C3
100
AcDbEntity
  8
0
100
AcDbLine
 62
7
  6
CONTINUOUS
 10
-13.4105169844
 20
17.729967788
 11
-13.4105169844
 21
19.7710504024
  0
LINE
  5
3C4
100
AcDbEntity
  8
0
100
AcDbLine
 62
7
  6
CONTINUOUS
 10
-13.3976094572
 20
-53.3493845766
 11
-13.3976094572
 21
-55.0976123663
  0
LINE
  5
3C5
100
AcDbEntity
  8
0
100
AcDbLine
 62
7
  6
CONTINUOUS
 10
-13.256188101
 20
-53.267729658
 11
-13.256188101
 21
-55.0159574476
  0
LINE
  5
3C6
100
AcDbEntity
  8
0
100
AcDbLine
 62
7
  6
CONTINUOUS
 10
-13.1621527985
 20
-55.23356209
 11
-13.1621527985
 21
-53.1524952932
  0
LINE
  5
3C7
100
AcDbEntity
  8
0
100
AcDbLine
 62
7
  6
CONTINUOUS
 10
-12.8073025741
 20
-56.7895766516
 11
-12.8073025741
 21
-58.8711929328
  0
LINE
  5
3C8
100
AcDbEntity
  8
0
100
AcDbLine
 62
7
  6
CONTINUOUS
 10
-12.6658812179
 20
-56.8712315702
 11
-12.6658812179
 21
-58.7895380142
  0
LINE
  5
3C9
100
AcDbEntity
  8
0
100
AcDbLine
 62
7
  6
CONTINUOUS
 10
-12.5637594423
 20
-59.0118116848
 11
-12.5637594423
 21
-56.9301954036
  0
LINE
  5
3CA
100
AcDbEntity
  8
0
100
AcDbLine
 62
7
  6
CONTINUOUS
 10
-12.3021405399
 20
-57.081250879
 11
-12.3021405399
 21
-57.3311544684
  0
LINE
  5
3CB
100
AcDbEntity
  8
0
100
AcDbLine
 62
7
  6
CONTINUOUS
 10
-12.1607191837
 20
-57.1629057976
 11
-12.1607191837
 21
-57.2494995497
  0
LINE
  5
3CC
100
AcDbEntity
  8
0
100
AcDbLine
 62
7
  6
CONTINUOUS
 10
-11.6923309447
 20
-57.6832508859
 11
-11.6923309447
 21
-59.5149635778
  0
LINE
  5
3CD
100
AcDbEntity
  8
0
100
AcDbLine
 62
7
  6
CONTINUOUS
 10
-11.5509095885
 20
-57.6015959672
 11
-11.5509095885
 21
-59.4333086591
  0
LINE
  5
3CE
100
AcDbEntity
  8
0
100
AcDbLine
 62
7
  6
CONTINUOUS
 10
-11.4487878129
 20
-59.6555823298
 11
-11.4487878129
 21
-57.8238696379
  0
LINE
  5
3CF
100
AcDbEntity
  8
0
100
AcDbLine
 62
7
  6
CONTINUOUS
 10
-11.1034510031
 20
-54.3411639083
 11
-11.1034510031
 21
-56.4222307051
  0
LINE
  5
3D0
100
AcDbEntity
  8
0
100
AcDbLine
 62
7
  6
CONTINUOUS
 10
-10.9620296469
 20
-54.422818827
 11
-10.9620296469
 21
-56.3405757864
  0
LINE
  5
3D1
100
AcDbEntity
  8
0
100
AcDbLine
 62
7
  6
CONTINUOUS
 10
-12.8589150052
 20
17.4114797184
 11
-12.7792926603
 21
18.6982156943
  0
LINE
  5
3D2
100
AcDbEntity
  8
0
100
AcDbLine
 62
7
  6
CONTINUOUS
 10
-13.0522903251
 20
19.5640923484
 11
-13.2118928109
 21
17.6152846796
  0
LINE
  5
3D3
100
AcDbEntity
  8
0
100
AcDbLine
 62
7
  6
CONTINUOUS
 10
-12.9236397503
 20
19.4898111189
 11
-13.0704714546
 21
17.6969395982
  0
LINE
  5
3D4
100
AcDbEntity
  8
0
100
AcDbLine
 62
7
  6
CONTINUOUS
 10
-10.8190795258
 20
16.9564347856
 11
-10.6353661129
 21
17.6077865593
  0
LINE
  5
3D5
100
AcDbEntity
  8
0
100
AcDbLine
 62
7
  6
CONTINUOUS
 10
-10.9963632166
 20
16.336065659
 11
-10.8945525681
 21
16.6847295275
  0
LINE
  5
3D6
100
AcDbEntity
  8
ASSI
100
AcDbLine
 62
7
  6
CONTINUOUS
 10
7.6595510681
 20
-7.716790654
 11
6.5988908964
 21
-8.329202544
  0
LINE
  5
3D7
100
AcDbEntity
  8
0
100
AcDbLine
 62
7
  6
CONTINUOUS
 10
-75.0483720871
 20
53.3052512352
 11
-74.7537442791
 21
53.1351368314
  0
LINE
  5
3D8
100
AcDbEntity
  8
0
100
AcDbLine
 62
7
  6
CONTINUOUS
 10
-73.5015759505
 20
52.4121505318
 11
-73.2806050814
 21
52.2845647214
  0
LINE
  5
3D9
100
AcDbEntity
  8
0
100
AcDbLine
 62
7
  6
CONTINUOUS
 10
-72.0284367528
 20
51.5615784218
 11
-71.8074658837
 21
51.4339926114
  0
LINE
  5
3DA
100
AcDbEntity
  8
0
100
AcDbLine
 62
7
  6
CONTINUOUS
 10
-70.9604111664
 20
50.9449138337
 11
-70.7394402973
 21
50.8173280233
  0
LINE
  5
3DB
100
AcDbEntity
  8
0
100
AcDbLine
 62
7
  6
CONTINUOUS
 10
-69.5241005171
 20
50.115606066
 11
-69.303129648
 21
49.9880202556
  0
LINE
  5
3DC
100
AcDbEntity
  8
0
100
AcDbLine
 62
7
  6
CONTINUOUS
 10
-67.7563331427
 20
49.0949193394
 11
-67.4617055982
 21
48.9248050877
  0
LINE
  5
3DD
100
AcDbEntity
  8
0
100
AcDbLine
 62
7
  6
CONTINUOUS
 10
-14.8097236195
 20
18.537852163
 11
-14.4845747083
 21
18.3501152567
  0
LINE
  5
3DE
100
AcDbEntity
  8
0
100
AcDbLine
 62
7
  6
CONTINUOUS
 10
-13.779480353
 20
17.9430026129
 11
-13.4105169844
 21
17.729967788
  0
LINE
  5
3DF
100
AcDbEntity
  8
0
100
AcDbLine
 62
7
  6
CONTINUOUS
 10
-13.2118928109
 20
17.6152846796
 11
-12.8589150052
 21
17.4114797184
  0
LINE
  5
3E0
100
AcDbEntity
  8
0
100
AcDbLine
 62
7
  6
CONTINUOUS
 10
-12.3464542148
 20
17.1155912807
 11
-12.2947067263
 21
17.0857129294
  0
LINE
  5
3E1
100
AcDbEntity
  8
0
100
AcDbLine
 62
7
  6
CONTINUOUS
 10
-11.7802052257
 20
16.7886462112
 11
-11.419261155
 21
16.5802416284
  0
LINE
  5
3E2
100
AcDbEntity
  8
0
100
AcDbLine
 62
7
  6
CONTINUOUS
 10
-11.3613236538
 20
16.5467892414
 11
-10.9963632166
 21
16.336065659
  0
LINE
  5
3E3
100
AcDbEntity
  8
0
100
AcDbLine
 62
7
  6
CONTINUOUS
 10
-10.2965049871
 20
15.9319762885
 11
-9.907633027
 21
15.7074464924
  0
LINE
  5
3E4
100
AcDbEntity
  8
0
100
AcDbLine
 62
7
  6
CONTINUOUS
 10
-9.7992874432
 20
15.6448893777
 11
-9.4318087573
 21
15.43271179
  0
LINE
  5
3E5
100
AcDbEntity
  8
0
100
AcDbLine
 62
7
  6
CONTINUOUS
 10
-8.8667923835
 20
15.1064784171
 11
-8.5118925921
 21
14.9015637255
  0
LINE
  5
3E6
100
AcDbEntity
  8
0
100
AcDbLine
 62
7
  6
CONTINUOUS
 10
-74.9069507308
 20
53.3869061538
 11
-74.7065992739
 21
53.2712257336
  0
LINE
  5
3E7
100
AcDbEntity
  8
0
100
AcDbLine
 62
7
  6
CONTINUOUS
 10
-73.3601545943
 20
52.4938054505
 11
-73.2146582023
 21
52.4097976573
  0
LINE
  5
3E8
100
AcDbEntity
  8
0
100
AcDbLine
 62
7
  6
CONTINUOUS
 10
-71.8870153966
 20
51.6432333405
 11
-71.8074658837
 21
51.5973024488
  0
LINE
  5
3E9
100
AcDbEntity
  8
0
100
AcDbLine
 62
7
  6
CONTINUOUS
 10
-70.8189898102
 20
51.0265687524
 11
-70.598018941
 21
50.898982942
  0
LINE
  5
3EA
100
AcDbEntity
  8
0
100
AcDbLine
 62
7
  6
CONTINUOUS
 10
-69.3826791609
 20
50.1972609847
 11
-69.23718275
 21
50.1132531806
  0
LINE
  5
3EB
100
AcDbEntity
  8
0
100
AcDbLine
 62
7
  6
CONTINUOUS
 10
-67.6149117864
 20
49.176574258
 11
-67.3202842419
 21
49.0064600064
  0
LINE
  5
3EC
100
AcDbEntity
  8
0
100
AcDbLine
 62
7
  6
CONTINUOUS
 10
-14.6683022633
 20
18.6195070816
 11
-14.4391117855
 21
18.4871753722
  0
LINE
  5
3ED
100
AcDbEntity
  8
0
100
AcDbLine
 62
7
  6
CONTINUOUS
 10
-13.6380589968
 20
18.0246575315
 11
-13.4105169844
 21
17.8932776253
  0
LINE
  5
3EE
100
AcDbEntity
  8
0
100
AcDbLine
 62
7
  6
CONTINUOUS
 10
-13.0704714546
 20
17.6969395982
 11
-12.8491581018
 21
17.569156042
  0
LINE
  5
3EF
100
AcDbEntity
  8
0
100
AcDbLine
 62
7
  6
CONTINUOUS
 10
-11.6387838695
 20
16.8703011298
 11
-11.4324868962
 21
16.7511878429
  0
LINE
  5
3F0
100
AcDbEntity
  8
0
100
AcDbLine
 62
7
  6
CONTINUOUS
 10
-11.2199022976
 20
16.62844416
 11
-10.9555563457
 21
16.4758141204
  0
LINE
  5
3F1
100
AcDbEntity
  8
0
100
AcDbLine
 62
7
  6
CONTINUOUS
 10
-10.1550836308
 20
16.0136312072
 11
-9.9510288001
 21
15.8958125053
  0
LINE
  5
3F2
100
AcDbEntity
  8
0
100
AcDbLine
 62
7
  6
CONTINUOUS
 10
-9.657866087
 20
15.7265442963
 11
-9.4318087573
 21
15.5960216273
  0
LINE
  5
3F3
100
AcDbEntity
  8
0
100
AcDbLine
 62
7
  6
CONTINUOUS
 10
-8.7253710273
 20
15.1881333358
 11
-8.5491620373
 21
15.0863924734
  0
LINE
  5
3F4
100
AcDbEntity
  8
0
100
AcDbLine
 62
7
  6
CONTINUOUS
 10
-67.4985343573
 20
49.1632159064
 11
-67.7195052264
 21
49.2908017168
  0
LINE
  5
3F5
100
AcDbEntity
  8
0
100
AcDbLine
 62
7
  6
CONTINUOUS
 10
-70.7394402973
 20
51.0344743781
 11
-70.9604111664
 21
51.1620601885
  0
LINE
  5
3F6
100
AcDbEntity
  8
0
100
AcDbLine
 62
7
  6
CONTINUOUS
 10
-10.8945525681
 20
16.6847295275
 11
-10.3920860249
 21
16.3946116429
  0
LINE
  5
3F7
100
AcDbEntity
  8
0
100
AcDbLine
 62
7
  6
CONTINUOUS
 10
-68.0877894464
 20
49.7640200293
 11
-68.2719323992
 21
49.8703418625
  0
LINE
  5
3F8
100
AcDbEntity
  8
0
100
AcDbLine
 62
7
  6
CONTINUOUS
 10
-71.2918674701
 20
51.6574437886
 11
-71.5128383392
 21
51.785029599
  0
LINE
  5
3F9
100
AcDbEntity
  8
0
100
AcDbLine
 62
7
  6
CONTINUOUS
 10
-10.7531312118
 20
16.7663844462
 11
-10.2506646686
 21
16.4762665615
  0
LINE
  5
3FA
100
AcDbEntity
  8
0
100
AcDbLine
 62
7
  6
CONTINUOUS
 10
-10.46582312
 20
16.7524689643
 11
-10.8190795258
 21
16.9564347856
  0
LINE
  5
3FB
100
AcDbEntity
  8
0
100
AcDbLine
 62
7
  6
CONTINUOUS
 10
-9.4318087573
 20
16.2314307124
 11
-9.2339794618
 21
16.1172065565
  0
LINE
  5
3FC
100
AcDbEntity
  8
0
100
AcDbLine
 62
7
  6
CONTINUOUS
 10
-71.5128383392
 20
52.1758930436
 11
-71.2550387109
 21
52.0270427692
  0
LINE
  5
3FD
100
AcDbEntity
  8
0
100
AcDbLine
 62
7
  6
CONTINUOUS
 10
-67.6826764673
 20
50.0078348468
 11
-67.5353622736
 21
49.9227774777
  0
LINE
  5
3FE
100
AcDbEntity
  8
0
100
AcDbLine
 62
7
  6
CONTINUOUS
 10
-9.290387401
 20
16.313085631
 11
-9.0925581056
 21
16.1988614752
  0
LINE
  5
3FF
100
AcDbEntity
  8
0
100
AcDbLine
 62
7
  6
CONTINUOUS
 10
-71.371416983
 20
52.2575479623
 11
-71.1136173547
 21
52.1086976879
  0
LINE
  5
400
100
AcDbEntity
  8
0
100
AcDbLine
 62
7
  6
CONTINUOUS
 10
-70.9604111664
 20
52.030645577
 11
-70.7394402973
 21
51.9030597666
  0
LINE
  5
401
100
AcDbEntity
  8
0
100
AcDbLine
 62
7
  6
CONTINUOUS
 10
-67.541255111
 20
50.0894897655
 11
-67.3939409173
 21
50.0044323963
  0
LINE
  5
402
100
AcDbEntity
  8
0
100
AcDbLine
 62
7
  6
CONTINUOUS
 10
-67.5353622736
 20
50.0964945371
 11
-67.6826764673
 21
50.1815519063
  0
LINE
  5
403
100
AcDbEntity
  8
0
100
AcDbLine
 62
7
  6
CONTINUOUS
 10
-9.2331841681
 20
16.4510072613
 11
-9.4440430246
 21
16.5727545224
  0
LINE
  5
404
100
AcDbEntity
  8
0
100
AcDbLine
 62
7
  6
CONTINUOUS
 10
-67.3143914044
 20
50.8374941457
 11
-67.5721910327
 21
51.0297736849
  0
LINE
  5
405
100
AcDbEntity
  8
ASSI
100
AcDbLine
 62
7
  6
CONTINUOUS
 10
10.4172675148
 20
-49.724458634
 11
10.7001718443
 21
-50.3135146811
  0
LINE
  5
406
100
AcDbEntity
  8
ASSI
100
AcDbLine
 62
7
  6
CONTINUOUS
 10
11.4779276866
 20
-49.112046744
 11
11.7608320161
 21
-49.7011027912
  0
LINE
  5
407
100
AcDbEntity
  8
0
100
AcDbLine
 62
7
  6
CONTINUOUS
 10
-15.3700809949
 20
20.9023556324
 11
-14.8097236195
 21
18.537852163
  0
LINE
  5
408
100
AcDbEntity
  8
0
100
AcDbLine
 62
7
  6
CONTINUOUS
 10
-14.6323402266
 20
19.071537043
 11
-14.9692730723
 21
20.6709341612
  0
LINE
  5
409
100
AcDbEntity
  8
0
100
AcDbLine
 62
7
  6
CONTINUOUS
 10
-11.419261155
 20
16.5802416284
 11
-11.5845494865
 21
18.7166371833
  0
LINE
  5
40A
100
AcDbEntity
  8
0
100
AcDbLine
 62
7
  6
CONTINUOUS
 10
-11.8560099011
 20
18.1595677203
 11
-11.7802052257
 21
16.7886462112
  0
LINE
  5
40B
100
AcDbEntity
  8
0
100
AcDbLine
 62
7
  6
CONTINUOUS
 10
-11.7145885448
 20
18.241222639
 11
-11.6387838695
 21
16.8703011298
  0
LINE
  5
40C
100
AcDbEntity
  8
0
100
AcDbLine
 62
7
  6
CONTINUOUS
 10
-10.8594319885
 20
-56.3225577906
 11
-10.8594319885
 21
-54.7226238644
  0
LINE
  5
40D
100
AcDbEntity
  8
0
100
AcDbLine
 62
7
  6
CONTINUOUS
 10
-10.8385023348
 20
-58.1762408243
 11
-10.8385023348
 21
-57.9263372349
  0
LINE
  5
40E
100
AcDbEntity
  8
0
100
AcDbLine
 62
7
  6
CONTINUOUS
 10
-9.7992874432
 20
17.6620039919
 11
-9.7992874432
 21
15.6448893777
  0
LINE
  5
40F
100
AcDbEntity
  8
0
100
AcDbLine
 62
7
  6
CONTINUOUS
 10
-9.657866087
 20
17.6023839366
 11
-9.657866087
 21
15.7265442963
  0
LINE
  5
410
100
AcDbEntity
  8
0
100
AcDbLine
 62
7
  6
CONTINUOUS
 10
-9.4440430246
 20
16.5727545224
 11
-9.4440430246
 21
17.1330377789
  0
LINE
  5
411
100
AcDbEntity
  8
0
100
AcDbLine
 62
7
  6
CONTINUOUS
 10
-9.4318087573
 20
15.43271179
 11
-9.4318087573
 21
16.2314307124
  0
LINE
  5
412
100
AcDbEntity
  8
0
100
AcDbLine
 62
7
  6
CONTINUOUS
 10
-9.2783037491
 20
-55.3949810583
 11
-9.2783037491
 21
-57.4760478551
  0
LINE
  5
413
100
AcDbEntity
  8
0
100
AcDbLine
 62
7
  6
CONTINUOUS
 10
-9.2392990319
 20
-58.8496971793
 11
-9.2392990319
 21
-60.9313134605
  0
LINE
  5
414
100
AcDbEntity
  8
0
100
AcDbLine
 62
7
  6
CONTINUOUS
 10
-9.1368823928
 20
-55.476635977
 11
-9.1368823928
 21
-57.3943929364
  0
LINE
  5
415
100
AcDbEntity
  8
0
100
AcDbLine
 62
7
  6
CONTINUOUS
 10
-9.0978776757
 20
-58.9313520979
 11
-9.0978776757
 21
-60.8496585419
  0
LINE
  5
416
100
AcDbEntity
  8
0
100
AcDbLine
 62
7
  6
CONTINUOUS
 10
-9.0347606173
 20
-57.3673125022
 11
-9.0347606173
 21
-56.6719753886
  0
LINE
  5
417
100
AcDbEntity
  8
0
100
AcDbLine
 62
7
  6
CONTINUOUS
 10
-9.0347606173
 20
-56.4226204673
 11
-9.0347606173
 21
-55.7849539152
  0
LINE
  5
418
100
AcDbEntity
  8
0
100
AcDbLine
 62
7
  6
CONTINUOUS
 10
-8.995755193
 20
-60.8225785159
 11
-8.995755193
 21
-58.9903163395
  0
LINE
  5
419
100
AcDbEntity
  8
0
100
AcDbLine
 62
7
  6
CONTINUOUS
 10
-8.850700942
 20
16.0498893477
 11
-8.850700942
 21
16.0619496407
  0
LINE
  5
41A
100
AcDbEntity
  8
0
100
AcDbLine
 62
7
  6
CONTINUOUS
 10
-8.0819929195
 20
-61.5995275054
 11
-8.0819929195
 21
-61.3501734005
  0
LINE
  5
41B
100
AcDbEntity
  8
0
100
AcDbLine
 62
7
  6
CONTINUOUS
 10
-8.0482200854
 20
-57.2415915275
 11
-8.0482200854
 21
-56.9922366061
  0
LINE
  5
41C
100
AcDbEntity
  8
0
100
AcDbLine
 62
7
  6
CONTINUOUS
 10
-7.9649780609
 20
-56.4026329557
 11
-7.9649780609
 21
-56.1532788508
  0
LINE
  5
41D
100
AcDbEntity
  8
0
100
AcDbLine
 62
7
  6
CONTINUOUS
 10
-7.9478533489
 20
-58.2442332417
 11
-7.9478533489
 21
-57.9948791368
  0
LINE
  5
41E
100
AcDbEntity
  8
0
100
AcDbLine
 62
7
  6
CONTINUOUS
 10
-7.6700622072
 20
-60.999782039
 11
-7.6700622072
 21
-61.8373711359
  0
LINE
  5
41F
100
AcDbEntity
  8
0
100
AcDbLine
 62
7
  6
CONTINUOUS
 10
-7.528640851
 20
-60.9181271203
 11
-7.528640851
 21
-61.7557162173
  0
LINE
  5
420
100
AcDbEntity
  8
0
100
AcDbLine
 62
7
  6
CONTINUOUS
 10
-7.4265190755
 20
-61.9779898879
 11
-7.4265190755
 21
-61.1404007909
  0
LINE
  5
421
100
AcDbEntity
  8
0
100
AcDbLine
 62
7
  6
CONTINUOUS
 10
-6.9560809339
 20
-56.7358034075
 11
-6.9560809339
 21
-58.8168702043
  0
LINE
  5
422
100
AcDbEntity
  8
0
100
AcDbLine
 62
7
  6
CONTINUOUS
 10
-6.8146595777
 20
-56.8174583262
 11
-6.8146595777
 21
-58.7352152856
  0
LINE
  5
423
100
AcDbEntity
  8
0
100
AcDbLine
 62
7
  6
CONTINUOUS
 10
-6.7125378021
 20
-58.9574889563
 11
-6.7125378021
 21
-56.8764221595
  0
LINE
  5
424
100
AcDbEntity
  8
0
100
AcDbLine
 62
7
  6
CONTINUOUS
 10
-6.2958503826
 20
-57.1170122532
 11
-6.2958503826
 21
-59.19807905
  0
LINE
  5
425
100
AcDbEntity
  8
0
100
AcDbLine
 62
7
  6
CONTINUOUS
 10
-6.1544290264
 20
-57.1986671719
 11
-6.1544290264
 21
-59.1164241313
  0
LINE
  5
426
100
AcDbEntity
  8
0
100
AcDbLine
 62
7
  6
CONTINUOUS
 10
-6.0599178411
 20
-59.3343035425
 11
-6.0599178411
 21
-57.6434809616
  0
LINE
  5
427
100
AcDbEntity
  8
0
100
AcDbLine
 62
7
  6
CONTINUOUS
 10
-5.1009664945
 20
-57.8069232348
 11
-5.1009664945
 21
-59.4970158913
  0
LINE
  5
428
100
AcDbEntity
  8
0
100
AcDbLine
 62
7
  6
CONTINUOUS
 10
-4.9595451383
 20
-57.8885781535
 11
-4.9595451383
 21
-59.4153609726
  0
LINE
  5
429
100
AcDbEntity
  8
0
100
AcDbLine
 62
7
  6
CONTINUOUS
 10
-4.8645580701
 20
-60.0244892929
 11
-4.8645580701
 21
-57.9434224961
  0
LINE
  5
42A
100
AcDbEntity
  8
ASSI
100
AcDbLine
 62
7
  6
CONTINUOUS
 10
6.4625530289
 20
-10.6997752337
 11
5.4018928572
 21
-11.3121871237
  0
LINE
  5
42B
100
AcDbEntity
  8
ASSI
100
AcDbLine
 62
7
  6
CONTINUOUS
 10
7.6595510681
 20
-11.3909068996
 11
6.5988908964
 21
-12.0033187896
  0
LINE
  5
42C
100
AcDbEntity
  8
0
100
AcDbLine
 62
7
  6
CONTINUOUS
 10
-5.8559091695
 20
-21.9579491395
 11
-4.8371130608
 21
-21.3697090349
  0
LINE
  5
42D
100
AcDbEntity
  8
0
100
AcDbLine
 62
7
  6
CONTINUOUS
 10
-70.8189898102
 20
52.1123004957
 11
-70.598018941
 21
51.9847146853
  0
LINE
  5
42E
100
AcDbEntity
  8
0
100
AcDbLine
 62
7
  6
CONTINUOUS
 10
-70.7394402973
 20
52.1202060909
 11
-70.9604111664
 21
52.2477919014
  0
LINE
  5
42F
100
AcDbEntity
  8
0
100
AcDbLine
 62
7
  6
CONTINUOUS
 10
-68.2351036401
 20
50.9348092026
 11
-68.0509615301
 21
50.8284878562
  0
LINE
  5
430
100
AcDbEntity
  8
0
100
AcDbLine
 62
7
  6
CONTINUOUS
 10
-68.0936822838
 20
51.0164641213
 11
-67.9487079263
 21
50.9327577442
  0
LINE
  5
431
100
AcDbEntity
  8
0
100
AcDbLine
 62
7
  6
CONTINUOUS
 10
-73.8698608027
 20
54.4488229574
 11
-72.7650064571
 21
53.8108939053
  0
LINE
  5
432
100
AcDbEntity
  8
0
100
AcDbLine
 62
7
  6
CONTINUOUS
 10
-71.3286958078
 20
52.9815861376
 11
-70.2606697999
 21
52.3649213062
  0
LINE
  5
433
100
AcDbEntity
  8
0
100
AcDbLine
 62
7
  6
CONTINUOUS
 10
-69.8923851585
 20
52.1522783699
 11
-68.7875308129
 21
51.5143493179
  0
LINE
  5
434
100
AcDbEntity
  8
0
100
AcDbLine
 62
7
  6
CONTINUOUS
 10
-67.6826764673
 20
50.8764202658
 11
-67.5353622736
 21
50.7913628966
  0
LINE
  5
435
100
AcDbEntity
  8
0
100
AcDbLine
 62
7
  6
CONTINUOUS
 10
-73.7284394464
 20
54.5304778761
 11
-72.6235851008
 21
53.892548824
  0
LINE
  5
436
100
AcDbEntity
  8
0
100
AcDbLine
 62
7
  6
CONTINUOUS
 10
-71.1872744515
 20
53.0632410563
 11
-70.2606697999
 21
52.5282311435
  0
LINE
  5
437
100
AcDbEntity
  8
0
100
AcDbLine
 62
7
  6
CONTINUOUS
 10
-69.7509638022
 20
52.2339332886
 11
-68.6461094566
 21
51.5960042365
  0
LINE
  5
438
100
AcDbEntity
  8
0
100
AcDbLine
 62
7
  6
CONTINUOUS
 10
-67.541255111
 20
50.9580751845
 11
-67.3939409173
 21
50.8730178153
  0
LINE
  5
439
100
AcDbEntity
  8
0
100
AcDbLine
 62
7
  6
CONTINUOUS
 10
-67.5721910327
 20
51.0297736849
 11
-67.6458477081
 21
51.0723021261
  0
LINE
  5
43A
100
AcDbEntity
  8
0
100
AcDbLine
 62
7
  6
CONTINUOUS
 10
-68.5665599438
 20
51.6039098318
 11
-69.8923851585
 21
52.3694246943
  0
LINE
  5
43B
100
AcDbEntity
  8
0
100
AcDbLine
 62
7
  6
CONTINUOUS
 10
-70.2606697999
 20
52.5820676305
 11
-71.5128383392
 21
53.3050540518
  0
LINE
  5
43C
100
AcDbEntity
  8
0
100
AcDbLine
 62
7
  6
CONTINUOUS
 10
-71.8074658837
 20
53.4751683034
 11
-72.0284367528
 21
53.6027541138
  0
LINE
  5
43D
100
AcDbEntity
  8
0
100
AcDbLine
 62
7
  6
CONTINUOUS
 10
-72.5440355879
 20
53.9004544192
 11
-73.8698608027
 21
54.6659692817
  0
LINE
  5
43E
100
AcDbEntity
  8
0
100
AcDbLine
 62
7
  6
CONTINUOUS
 10
-74.1644886633
 20
54.8360837159
 11
-74.3854595324
 21
54.9636695263
  0
LINE
  5
43F
100
AcDbEntity
  8
0
100
AcDbLine
 62
7
  6
CONTINUOUS
 10
-75.4166568865
 20
55.5590699546
 11
-75.6376277556
 21
55.6866557651
  0
LINE
  5
440
100
AcDbEntity
  8
0
100
AcDbLine
 62
7
  6
CONTINUOUS
 10
-10.4499704931
 20
18.0615454921
 11
-10.8068981972
 21
18.2676310752
  0
LINE
  5
441
100
AcDbEntity
  8
0
100
AcDbLine
 62
7
  6
CONTINUOUS
 10
-11.5845494865
 20
18.7166371833
 11
-11.9496025546
 21
18.9274142497
  0
LINE
  5
442
100
AcDbEntity
  8
0
100
AcDbLine
 62
7
  6
CONTINUOUS
 10
-12.6836317194
 20
19.3512334899
 11
-13.0522903251
 21
19.5640923484
  0
LINE
  5
443
100
AcDbEntity
  8
0
100
AcDbLine
 62
7
  6
CONTINUOUS
 10
-13.9164030959
 20
20.0630202324
 11
-14.2851147346
 21
20.2759097115
  0
LINE
  5
444
100
AcDbEntity
  8
0
100
AcDbLine
 62
7
  6
CONTINUOUS
 10
-14.9692730723
 20
20.6709341612
 11
-15.3700809949
 21
20.9023556324
  0
LINE
  5
445
100
AcDbEntity
  8
0
100
AcDbLine
 62
7
  6
CONTINUOUS
 10
-13.4105169844
 20
19.7710504024
 11
-13.779480353
 21
19.9840852272
  0
LINE
  5
446
100
AcDbEntity
  8
0
100
AcDbLine
 62
7
  6
CONTINUOUS
 10
-12.7792926603
 20
18.6982156943
 11
-12.3464542148
 21
17.1155912807
  0
LINE
  5
447
100
AcDbEntity
  8
0
100
AcDbLine
 62
7
  6
CONTINUOUS
 10
-12.6378713041
 20
18.7798706129
 11
-12.2227211316
 21
17.2619213525
  0
LINE
  5
448
100
AcDbEntity
  8
0
100
AcDbLine
 62
7
  6
CONTINUOUS
 10
-12.3185659233
 20
18.0073018197
 11
-12.6836317194
 21
19.3512334899
  0
LINE
  5
449
100
AcDbEntity
  8
0
100
AcDbLine
 62
7
  6
CONTINUOUS
 10
-15.1838219812
 20
20.7948120123
 11
-14.6683022633
 21
18.6195070816
  0
LINE
  5
44A
100
AcDbEntity
  8
0
100
AcDbLine
 62
7
  6
CONTINUOUS
 10
-9.907633027
 20
15.7074464924
 11
-10.4499704931
 21
18.0615454921
  0
LINE
  5
44B
100
AcDbEntity
  8
0
100
AcDbLine
 62
7
  6
CONTINUOUS
 10
-10.3920860249
 20
16.3946116429
 11
-10.2965049871
 21
15.9319762885
  0
LINE
  5
44C
100
AcDbEntity
  8
0
100
AcDbLine
 62
7
  6
CONTINUOUS
 10
-10.2506646686
 20
16.4762665615
 11
-10.1550836308
 21
16.0136312072
  0
LINE
  5
44D
100
AcDbEntity
  8
0
100
AcDbLine
 62
7
  6
CONTINUOUS
 10
-10.6353661129
 20
17.6077865593
 11
-10.46582312
 21
16.7524689643
  0
LINE
  5
44E
100
AcDbEntity
  8
0
100
AcDbLine
 62
7
  6
CONTINUOUS
 10
-10.4939447567
 20
17.6894414779
 11
-10.3244017638
 21
16.8341238829
  0
LINE
  5
44F
100
AcDbEntity
  8
0
100
AcDbLine
 62
253
  6
CONTINUOUS
 10
-27.9079200255
 20
-38.4142068432
 11
-26.8472598538
 21
-37.8017949532
  0
LINE
  5
450
100
AcDbEntity
  8
0
100
AcDbLine
 62
7
  6
CONTINUOUS
 10
-67.4617055982
 20
48.9248050877
 11
-67.3143914044
 21
48.8831769872
  0
LINE
  5
451
100
AcDbEntity
  8
0
100
AcDbLine
 62
7
  6
CONTINUOUS
 10
-67.3202842419
 20
49.0064600064
 11
-67.1729700482
 21
48.9648319059
  0
LINE
  5
452
100
AcDbEntity
  8
0
100
AcDbLine
 62
7
  6
CONTINUOUS
 10
-70.5921261035
 20
50.9928462738
 11
-70.7394402973
 21
51.0344743781
  0
LINE
  5
453
100
AcDbEntity
  8
0
100
AcDbLine
 62
7
  6
CONTINUOUS
 10
-71.1077249387
 20
52.072273438
 11
-70.9604111664
 21
52.030645577
  0
LINE
  5
454
100
AcDbEntity
  8
0
100
AcDbLine
 62
7
  6
CONTINUOUS
 10
-70.9663035824
 20
52.1539283567
 11
-70.8189898102
 21
52.1123004957
  0
LINE
  5
455
100
AcDbEntity
  8
0
100
AcDbLine
 62
7
  6
CONTINUOUS
 10
-67.3143914044
 20
49.1003233381
 11
-67.4985343573
 21
49.1632159064
  0
LINE
  5
456
100
AcDbEntity
  8
0
100
AcDbLine
 62
7
  6
CONTINUOUS
 10
-70.7394402973
 20
50.8173280233
 11
-70.5552977658
 21
50.7544357022
  0
LINE
  5
457
100
AcDbEntity
  8
0
100
AcDbLine
 62
7
  6
CONTINUOUS
 10
-70.598018941
 20
50.898982942
 11
-70.4138764096
 21
50.8360906209
  0
LINE
  5
458
100
AcDbEntity
  8
0
100
AcDbLine
 62
7
  6
CONTINUOUS
 10
-67.8668185772
 20
50.9393123474
 11
-67.6826764673
 21
50.8764202658
  0
LINE
  5
459
100
AcDbEntity
  8
0
100
AcDbLine
 62
7
  6
CONTINUOUS
 10
-67.725397221
 20
51.020967266
 11
-67.541255111
 21
50.9580751845
  0
LINE
  5
45A
100
AcDbEntity
  8
0
100
AcDbLine
 62
7
  6
CONTINUOUS
 10
-70.9604111664
 20
52.2477919014
 11
-71.1445532763
 21
52.3106839829
  0
LINE
  5
45B
100
AcDbEntity
  8
0
100
AcDbLine
 62
7
  6
CONTINUOUS
 10
-67.6458477081
 20
51.0723021261
 11
-67.9036473364
 21
51.1777231357
  0
LINE
  5
45C
100
AcDbEntity
  8
RACCORDO
100
AcDbLine
 62
7
  6
CONTINUOUS
 10
-0.4721769155
 20
22.0847098158
 11
-19.3165726341
 21
32.965227728
  0
LINE
  5
45D
100
AcDbEntity
  8
ASSI
100
AcDbLine
 62
7
  6
CONTINUOUS
 10
-22.3571317932
 20
34.7208084793
 11
-65.3845794284
 21
59.5643174833
  0
LINE
  5
45E
100
AcDbEntity
  8
RACCORDO
100
AcDbLine
 62
7
  6
CONTINUOUS
 10
-68.2130065532
 20
61.1974158566
 11
-87.163468289
 21
72.1391749578
  0
LINE
  5
45F
100
AcDbEntity
  8
RACCORDO
100
AcDbLine
 62
7
  6
CONTINUOUS
 10
0.5884832563
 20
22.6971217058
 11
-18.2559124623
 21
33.577639618
  0
LINE
  5
460
100
AcDbEntity
  8
ASSI
100
AcDbLine
 62
7
  6
CONTINUOUS
 10
-21.2964716214
 20
35.3332203693
 11
-64.3239192566
 21
60.1767293733
  0
LINE
  5
461
100
AcDbEntity
  8
RACCORDO
100
AcDbLine
 62
7
  6
CONTINUOUS
 10
-68.2130065532
 20
62.4222396366
 11
-86.1028081172
 21
72.7515868478
  0
LINE
  5
462
100
AcDbEntity
  8
RACCORDO
100
AcDbLine
 62
7
  6
CONTINUOUS
 10
6.5988908964
 20
-70.9932962879
 11
6.5988908964
 21
-52.62271506
  0
LINE
  5
463
100
AcDbEntity
  8
ASSI
100
AcDbLine
 62
7
  6
CONTINUOUS
 10
6.5988908964
 20
-49.3568339529
 11
6.5988908964
 21
-12.0033187896
  0
LINE
  5
464
100
AcDbEntity
  8
RACCORDO
100
AcDbLine
 62
7
  6
CONTINUOUS
 10
6.5988908964
 20
-8.329202544
 11
6.5988908964
 21
9.8372611146
  0
LINE
  5
465
100
AcDbEntity
  8
RACCORDO
100
AcDbLine
 62
7
  6
CONTINUOUS
 10
7.6595510681
 20
-70.3808843979
 11
7.6595510681
 21
-53.23512695
  0
LINE
  5
466
100
AcDbEntity
  8
ASSI
100
AcDbLine
 62
7
  6
CONTINUOUS
 10
7.6595510681
 20
-48.7444220629
 11
7.6595510681
 21
-11.3909068996
  0
LINE
  5
467
100
AcDbEntity
  8
RACCORDO
100
AcDbLine
 62
7
  6
CONTINUOUS
 10
7.6595510681
 20
-7.716790654
 11
7.6595510681
 21
10.4496730046
  0
LINE
  5
468
100
AcDbEntity
  8
0
100
AcDbLine
 62
7
  6
CONTINUOUS
 10
-13.9046743158
 20
-54.8048394719
 11
-13.3976094572
 21
-53.3493845766
  0
LINE
  5
469
100
AcDbEntity
  8
0
100
AcDbLine
 62
7
  6
CONTINUOUS
 10
-13.508440667
 20
-52.952553018
 11
-14.0228707498
 21
-54.4237074093
  0
LINE
  5
46A
100
AcDbEntity
  8
0
100
AcDbLine
 62
7
  6
CONTINUOUS
 10
-13.4145322897
 20
-53.0067745381
 11
-13.8814493935
 21
-54.3420524906
  0
LINE
  5
46B
100
AcDbEntity
  8
0
100
AcDbLine
 62
7
  6
CONTINUOUS
 10
-12.6950444229
 20
-55.5032646119
 11
-12.5066789545
 21
-55.0062141412
  0
LINE
  5
46C
100
AcDbEntity
  8
0
100
AcDbLine
 62
7
  6
CONTINUOUS
 10
-10.8185244469
 20
-60.0194884982
 11
-10.6301589786
 21
-59.5224380276
  0
LINE
  5
46D
100
AcDbEntity
  8
0
100
AcDbLine
 62
7
  6
CONTINUOUS
 10
-12.4310475203
 20
-54.8005278621
 11
-12.1353224068
 21
-54.0262949
  0
LINE
  5
46E
100
AcDbEntity
  8
0
100
AcDbLine
 62
7
  6
CONTINUOUS
 10
-12.2678925301
 20
-53.6688299645
 11
-12.9461981449
 21
-55.3582516004
  0
LINE
  5
46F
100
AcDbEntity
  8
0
100
AcDbLine
 62
7
  6
CONTINUOUS
 10
-12.1797005943
 20
-53.7197508829
 11
-12.8047767887
 21
-55.2765966818
  0
LINE
  5
470
100
AcDbEntity
  8
0
100
AcDbLine
 62
7
  6
CONTINUOUS
 10
-67.3143914044
 20
48.8831769872
 11
-67.1670780536
 21
48.8849786459
  0
LINE
  5
471
100
AcDbEntity
  8
0
100
AcDbLine
 62
7
  6
CONTINUOUS
 10
-67.1729700482
 20
48.9648319059
 11
-67.0256566974
 21
48.9666335645
  0
LINE
  5
472
100
AcDbEntity
  8
0
100
AcDbLine
 62
7
  6
CONTINUOUS
 10
-67.240734729
 20
49.1012241618
 11
-67.3143914044
 21
49.1003233381
  0
LINE
  5
473
100
AcDbEntity
  8
0
100
AcDbLine
 62
7
  6
CONTINUOUS
 10
-67.3143914044
 20
50.0557672564
 11
-67.5353622736
 21
50.0964945371
  0
LINE
  5
474
100
AcDbEntity
  8
0
100
AcDbLine
 62
7
  6
CONTINUOUS
 10
-10.5550034273
 20
-59.3164769797
 11
-10.2635495684
 21
-58.5599927072
  0
LINE
  5
475
100
AcDbEntity
  8
0
100
AcDbLine
 62
7
  6
CONTINUOUS
 10
-10.3913725541
 20
-58.1845043664
 11
-11.0692029933
 21
-59.8747498473
  0
LINE
  5
476
100
AcDbEntity
  8
0
100
AcDbLine
 62
7
  6
CONTINUOUS
 10
-10.3031292883
 20
-58.2354549222
 11
-10.927781637
 21
-59.7930949287
  0
LINE
  5
477
100
AcDbEntity
  8
0
100
AcDbLine
 62
7
  6
CONTINUOUS
 10
-67.1670780536
 20
48.8849786459
 11
-67.0565926191
 21
48.9080442856
  0
LINE
  5
478
100
AcDbEntity
  8
0
100
AcDbLine
 62
7
  6
CONTINUOUS
 10
-67.0256566974
 20
48.9666335645
 11
-67.0035428146
 21
48.9712501989
  0
LINE
  5
479
100
AcDbEntity
  8
0
100
AcDbLine
 62
7
  6
CONTINUOUS
 10
-67.9773040118
 20
50.9162467229
 11
-67.8668185772
 21
50.9393123474
  0
LINE
  5
47A
100
AcDbEntity
  8
0
100
AcDbLine
 62
7
  6
CONTINUOUS
 10
-67.8358826556
 20
50.9979016415
 11
-67.725397221
 21
51.020967266
  0
LINE
  5
47B
100
AcDbEntity
  8
0
100
AcDbLine
 62
7
  6
CONTINUOUS
 10
-70.481640669
 20
51.0159118983
 11
-70.5921261035
 21
50.9928462738
  0
LINE
  5
47C
100
AcDbEntity
  8
0
100
AcDbLine
 62
7
  6
CONTINUOUS
 10
-70.5552977658
 20
50.7544357022
 11
-70.3711552344
 21
50.7784019184
  0
LINE
  5
47D
100
AcDbEntity
  8
0
100
AcDbLine
 62
7
  6
CONTINUOUS
 10
-70.4138764096
 20
50.8360906209
 11
-70.2980156665
 21
50.8511699379
  0
LINE
  5
47E
100
AcDbEntity
  8
0
100
AcDbLine
 62
7
  6
CONTINUOUS
 10
-71.1445532763
 20
52.3106839829
 11
-71.3286958078
 21
52.2867177781
  0
LINE
  5
47F
100
AcDbEntity
  8
0
100
AcDbLine
 62
7
  6
CONTINUOUS
 10
-67.9036473364
 20
51.1777231357
 11
-68.0509615301
 21
51.1759219751
  0
LINE
  5
480
100
AcDbEntity
  8
0
100
AcDbLine
 62
7
  6
CONTINUOUS
 10
-14.6533794818
 20
-52.627613977
 11
-14.5119581255
 21
-52.5459590583
  0
LINE
  5
481
100
AcDbEntity
  8
0
100
AcDbLine
 62
7
  6
CONTINUOUS
 10
-13.3976094572
 20
-53.3493845766
 11
-13.256188101
 21
-53.267729658
  0
LINE
  5
482
100
AcDbEntity
  8
0
100
AcDbLine
 62
7
  6
CONTINUOUS
 10
-14.8888361404
 20
-54.2365967688
 11
-14.7474147842
 21
-54.1549418502
  0
LINE
  5
483
100
AcDbEntity
  8
0
100
AcDbLine
 62
7
  6
CONTINUOUS
 10
-14.0228707498
 20
-54.4237074093
 11
-13.8814493935
 21
-54.3420524906
  0
LINE
  5
484
100
AcDbEntity
  8
0
100
AcDbLine
 62
7
  6
CONTINUOUS
 10
-14.1458387403
 20
-54.6655941557
 11
-14.0044173841
 21
-54.583939237
  0
LINE
  5
485
100
AcDbEntity
  8
0
100
AcDbLine
 62
7
  6
CONTINUOUS
 10
-12.1353224068
 20
-54.0262949
 11
-11.9939010506
 21
-53.9446399813
  0
LINE
  5
486
100
AcDbEntity
  8
0
100
AcDbLine
 62
7
  6
CONTINUOUS
 10
-13.3976094572
 20
-55.0976123663
 11
-13.256188101
 21
-55.0159574476
  0
LINE
  5
487
100
AcDbEntity
  8
0
100
AcDbLine
 62
7
  6
CONTINUOUS
 10
-12.5066789545
 20
-55.0062141412
 11
-12.3652575983
 21
-54.9245592226
  0
LINE
  5
488
100
AcDbEntity
  8
0
100
AcDbLine
 62
7
  6
CONTINUOUS
 10
-12.9461981449
 20
-55.3582516004
 11
-12.8047767887
 21
-55.2765966818
  0
LINE
  5
489
100
AcDbEntity
  8
0
100
AcDbLine
 62
7
  6
CONTINUOUS
 10
-11.8716588813
 20
-55.1235118515
 11
-11.730237525
 21
-55.0418569329
  0
LINE
  5
48A
100
AcDbEntity
  8
0
100
AcDbLine
 62
7
  6
CONTINUOUS
 10
-10.8594319885
 20
-54.7226238644
 11
-10.7180106322
 21
-54.6409689457
  0
LINE
  5
48B
100
AcDbEntity
  8
0
100
AcDbLine
 62
7
  6
CONTINUOUS
 10
-11.7836594423
 20
-55.423676546
 11
-11.6422380861
 21
-55.3420216274
  0
LINE
  5
48C
100
AcDbEntity
  8
0
100
AcDbLine
 62
253
  6
CONTINUOUS
 10
-10.4056426761
 20
-54.984636126
 11
-10.2642213199
 21
-54.9029812074
  0
LINE
  5
48D
100
AcDbEntity
  8
0
100
AcDbLine
 62
7
  6
CONTINUOUS
 10
-11.6052832715
 20
-56.1324790428
 11
-11.4638619153
 21
-56.0508241241
  0
LINE
  5
48E
100
AcDbEntity
  8
0
100
AcDbLine
 62
7
  6
CONTINUOUS
 10
-7.032188251
 20
-60.1240552826
 11
-7.5497175828
 21
-60.825404991
  0
LINE
  5
48F
100
AcDbEntity
  8
0
100
AcDbLine
 62
7
  6
CONTINUOUS
 10
-6.9752706115
 20
-60.1569188143
 11
-7.4082962266
 21
-60.7437500723
  0
LINE
  5
490
100
AcDbEntity
  8
0
100
AcDbLine
 62
7
  6
CONTINUOUS
 10
-7.4265190755
 20
-61.1404007909
 11
-6.7463099291
 21
-60.2891178427
  0
LINE
  5
491
100
AcDbEntity
  8
ASSI
100
AcDbLine
 62
7
  6
CONTINUOUS
 10
-20.5539478841
 20
-71.4233999532
 11
-20.8368522137
 21
-71.6857651718
  0
LINE
  5
492
100
AcDbEntity
  8
0
100
AcDbLine
 62
7
  6
CONTINUOUS
 10
-9.8506180908
 20
-56.9063559878
 11
-9.8337478207
 21
-56.8953373535
  0
LINE
  5
493
100
AcDbEntity
  8
0
100
AcDbLine
 62
7
  6
CONTINUOUS
 10
-11.1034510031
 20
-56.4222307051
 11
-10.9620296469
 21
-56.3405757864
  0
LINE
  5
494
100
AcDbEntity
  8
0
100
AcDbLine
 62
7
  6
CONTINUOUS
 10
-12.3021405399
 20
-57.3311544684
 11
-12.1607191837
 21
-57.2494995497
  0
LINE
  5
495
100
AcDbEntity
  8
0
100
AcDbLine
 62
7
  6
CONTINUOUS
 10
-9.7237183957
 20
-56.0090636046
 11
-9.8651397519
 21
-56.0907185232
  0
LINE
  5
496
100
AcDbEntity
  8
0
100
AcDbLine
 62
7
  6
CONTINUOUS
 10
-9.8651396528
 20
-56.102646843
 11
-9.7237182965
 21
-56.0209919244
  0
LINE
  5
497
100
AcDbEntity
  8
0
100
AcDbLine
 62
7
  6
CONTINUOUS
 10
-9.0347606173
 20
-55.7849539152
 11
-8.893339261
 21
-55.7032989965
  0
LINE
  5
498
100
AcDbEntity
  8
0
100
AcDbLine
 62
7
  6
CONTINUOUS
 10
-10.0409114359
 20
-56.6358829738
 11
-9.8994900797
 21
-56.5542280552
  0
LINE
  5
499
100
AcDbEntity
  8
0
100
AcDbLine
 62
7
  6
CONTINUOUS
 10
-10.3728216077
 20
-56.844086961
 11
-10.2314002515
 21
-56.7624320424
  0
LINE
  5
49A
100
AcDbEntity
  8
0
100
AcDbLine
 62
7
  6
CONTINUOUS
 10
-11.6923309447
 20
-57.6832508859
 11
-11.5509095885
 21
-57.6015959672
  0
LINE
  5
49B
100
AcDbEntity
  8
0
100
AcDbLine
 62
7
  6
CONTINUOUS
 10
-11.4487878129
 20
-57.8238696379
 11
-11.3073664567
 21
-57.7422147192
  0
LINE
  5
49C
100
AcDbEntity
  8
0
100
AcDbLine
 62
7
  6
CONTINUOUS
 10
-9.0347606173
 20
-56.6719753886
 11
-8.893339261
 21
-56.59032047
  0
LINE
  5
49D
100
AcDbEntity
  8
0
100
AcDbLine
 62
7
  6
CONTINUOUS
 10
-12.8073025741
 20
-58.8711929328
 11
-12.6658812179
 21
-58.7895380142
  0
LINE
  5
49E
100
AcDbEntity
  8
ASSI
100
AcDbLine
 62
7
  6
CONTINUOUS
 10
-22.7119428142
 20
-64.9682235412
 11
-22.251065776
 21
-64.7021189155
  0
LINE
  5
49F
100
AcDbEntity
  8
0
100
AcDbLine
 62
7
  6
CONTINUOUS
 10
-9.2783037491
 20
-57.4760478551
 11
-9.1368823928
 21
-57.3943929364
  0
LINE
  5
4A0
100
AcDbEntity
  8
0
100
AcDbLine
 62
7
  6
CONTINUOUS
 10
-10.2635495684
 20
-58.5599927072
 11
-10.1221282122
 21
-58.4783377885
  0
LINE
  5
4A1
100
AcDbEntity
  8
ASSI
100
AcDbLine
 62
7
  6
CONTINUOUS
 10
-23.4606121005
 20
-66.2603585274
 11
-23.8420560337
 21
-66.4805994738
  0
LINE
  5
4A2
100
AcDbEntity
  8
0
100
AcDbLine
 62
7
  6
CONTINUOUS
 10
-11.6923309447
 20
-59.5149635778
 11
-11.5509095885
 21
-59.4333086591
  0
LINE
  5
4A3
100
AcDbEntity
  8
ASSI
100
AcDbLine
 62
7
  6
CONTINUOUS
 10
7.6595510681
 20
-48.7444220629
 11
6.5988908964
 21
-49.3568339529
  0
LINE
  5
4A4
100
AcDbEntity
  8
0
100
AcDbLine
 62
7
  6
CONTINUOUS
 10
-10.6301589786
 20
-59.5224380276
 11
-10.4887376224
 21
-59.4407831089
  0
LINE
  5
4A5
100
AcDbEntity
  8
0
100
AcDbLine
 62
7
  6
CONTINUOUS
 10
-11.0692029933
 20
-59.8747498473
 11
-10.927781637
 21
-59.7930949287
  0
LINE
  5
4A6
100
AcDbEntity
  8
0
100
AcDbLine
 62
7
  6
CONTINUOUS
 10
-9.9946630225
 20
-59.6400105067
 11
-9.8532416662
 21
-59.558355588
  0
LINE
  5
4A7
100
AcDbEntity
  8
0
100
AcDbLine
 62
7
  6
CONTINUOUS
 10
-6.0599178411
 20
-57.6434809616
 11
-5.9184964849
 21
-57.5618260429
  0
LINE
  5
4A8
100
AcDbEntity
  8
0
100
AcDbLine
 62
7
  6
CONTINUOUS
 10
-9.9071401735
 20
-59.9399000241
 11
-9.7657188173
 21
-59.8582451054
  0
LINE
  5
4A9
100
AcDbEntity
  8
0
100
AcDbLine
 62
7
  6
CONTINUOUS
 10
-6.9560809339
 20
-58.8168702043
 11
-6.8146595777
 21
-58.7352152856
  0
LINE
  5
4AA
100
AcDbEntity
  8
ASSI
100
AcDbLine
 62
7
  6
CONTINUOUS
 10
8.5421769143
 20
-49.9469143561
 11
9.602837086
 21
-49.3345024661
  0
LINE
  5
4AB
100
AcDbEntity
  8
0
100
AcDbLine
 62
7
  6
CONTINUOUS
 10
-9.7287632956
 20
-60.6487029291
 11
-9.5873419393
 21
-60.5670480104
  0
LINE
  5
4AC
100
AcDbEntity
  8
ASSI
100
AcDbLine
 62
7
  6
CONTINUOUS
 10
-18.3619784795
 20
-65.829942188
 11
-19.4226386513
 21
-66.4423540779
  0
LINE
  5
4AD
100
AcDbEntity
  8
0
100
AcDbLine
 62
7
  6
CONTINUOUS
 10
-6.2958503826
 20
-59.19807905
 11
-6.1544290264
 21
-59.1164241313
  0
LINE
  5
4AE
100
AcDbEntity
  8
0
100
AcDbLine
 62
7
  6
CONTINUOUS
 10
-9.2392990319
 20
-60.9313134605
 11
-9.0978776757
 21
-60.8496585419
  0
LINE
  5
4AF
100
AcDbEntity
  8
ASSI
100
AcDbLine
 62
7
  6
CONTINUOUS
 10
11.4779276866
 20
-49.112046744
 11
10.4172675148
 21
-49.724458634
  0
LINE
  5
4B0
100
AcDbEntity
  8
0
100
AcDbLine
 62
7
  6
CONTINUOUS
 10
-7.5497175828
 20
-60.825404991
 11
-7.4082962266
 21
-60.7437500723
  0
LINE
  5
4B1
100
AcDbEntity
  8
ASSI
100
AcDbLine
 62
7
  6
CONTINUOUS
 10
10.7001718443
 20
-50.3135146811
 11
11.7608320161
 21
-49.7011027912
  0
LINE
  5
4B2
100
AcDbEntity
  8
0
100
AcDbLine
 62
7
  6
CONTINUOUS
 10
-5.1009664945
 20
-59.4970158913
 11
-4.9595451383
 21
-59.4153609726
  0
LINE
  5
4B3
100
AcDbEntity
  8
0
100
AcDbLine
 62
7
  6
CONTINUOUS
 10
-7.6700622072
 20
-60.999782039
 11
-7.528640851
 21
-60.9181271203
  0
LINE
  5
4B4
100
AcDbEntity
  8
0
100
AcDbLine
 62
7
  6
CONTINUOUS
 10
-5.1385442702
 20
-59.8662930948
 11
-4.9971229139
 21
-59.7846381762
  0
LINE
  5
4B5
100
AcDbEntity
  8
ASSI
100
AcDbLine
 62
7
  6
CONTINUOUS
 10
13.4224713348
 20
-54.9296243321
 11
13.0537832345
 21
-55.0434077013
  0
LINE
  5
4B6
100
AcDbEntity
  8
ASSI
100
AcDbLine
 62
7
  6
CONTINUOUS
 10
-23.8420560337
 20
-66.4805994738
 11
-23.4733679334
 21
-66.3668161045
  0
LINE
  5
4B7
100
AcDbEntity
  8
ASSI
100
AcDbLine
 62
7
  6
CONTINUOUS
 10
10.1343631853
 20
-49.9868238527
 11
10.4172675148
 21
-49.724458634
  0
LINE
  5
4B8
100
AcDbEntity
  8
0
100
AcDbLine
 62
7
  6
CONTINUOUS
 10
-7.6700622072
 20
-61.8373711359
 11
-7.528640851
 21
-61.7557162173
  0
LINE
  5
4B9
100
AcDbEntity
  8
ASSI
100
AcDbLine
 62
7
  6
CONTINUOUS
 10
-18.2003364939
 20
-69.411398371
 11
-17.1396763222
 21
-68.798986481
  0
LINE
  5
4BA
100
AcDbEntity
  8
ASSI
100
AcDbLine
 62
7
  6
CONTINUOUS
 10
-20.4553346189
 20
-71.4654816941
 11
-20.8368522137
 21
-71.6857651718
  0
LINE
  5
4BB
100
AcDbEntity
  8
ASSI
100
AcDbLine
 62
7
  6
CONTINUOUS
 10
-16.7709882218
 20
-69.3385216271
 11
-17.8316483936
 21
-69.9509335171
  0
LINE
  5
4BC
100
AcDbEntity
  8
ASSI
100
AcDbLine
 62
7
  6
CONTINUOUS
 10
-18.9617616131
 20
-71.4633094497
 11
-17.9011014414
 21
-70.8508975597
  0
LINE
  5
4BD
100
AcDbEntity
  8
ASSI
100
AcDbLine
 62
7
  6
CONTINUOUS
 10
13.0537832345
 20
-54.390089186
 11
14.1144434063
 21
-53.777677296
  0
LINE
  5
4BE
100
AcDbEntity
  8
ASSI
100
AcDbLine
 62
7
  6
CONTINUOUS
 10
10.7987943464
 20
-56.4441671758
 11
10.4172675148
 21
-56.6644559868
  0
LINE
  5
4BF
100
AcDbEntity
  8
ASSI
100
AcDbLine
 62
7
  6
CONTINUOUS
 10
14.4831315066
 20
-54.3172124421
 11
13.4224713348
 21
-54.9296243321
  0
LINE
  5
4C0
100
AcDbEntity
  8
ASSI
100
AcDbLine
 62
7
  6
CONTINUOUS
 10
12.2923581153
 20
-56.4420002647
 11
13.3530182871
 21
-55.8295883747
  0
LINE
  5
4C1
100
AcDbEntity
  8
ASSI
100
AcDbLine
 62
7
  6
CONTINUOUS
 10
-17.8316483936
 20
-69.9509335171
 11
-18.2003364939
 21
-70.0647168864
  0
LINE
  5
4C2
100
AcDbEntity
  8
ASSI
100
AcDbLine
 62
7
  6
CONTINUOUS
 10
10.7001718443
 20
-56.4020907682
 11
10.4172675148
 21
-56.6644559868
  0
LINE
  5
4C3
100
AcDbEntity
  8
RACCORDO
100
AcDbLine
 62
253
  6
CONTINUOUS
 10
6.5988908964
 20
-70.9932962879
 11
7.6595510681
 21
-70.3808843979
  0
LINE
  5
4C4
100
AcDbEntity
  8
RACCORDO
100
AcDbLine
 62
7
  6
CONTINUOUS
 10
4.5280646859
 20
-75.5706648993
 11
5.5887248577
 21
-74.9582530093
  0
ARC
  5
4C5
100
AcDbEntity
  8
0
100
AcDbCircle
 62
7
  6
CONTINUOUS
 10
-15.5490850009
 20
-29.6012277729
 40
11.4120703259
100
AcDbArc
 50
294.0142941924
 51
296.8578089681
  0
ARC
  5
4C6
100
AcDbEntity
  8
0
100
AcDbCircle
 62
7
  6
CONTINUOUS
 10
-69.9646849997
 20
27.9039390355
 40
11.4002255054
100
AcDbArc
 50
123.0297050998
 51
126.1506472449
  0
ARC
  5
4C7
100
AcDbEntity
  8
ASSI
100
AcDbCircle
 62
7
  6
CONTINUOUS
 10
-20.8278519893
 20
32.4414789374
 40
1.7065359264
100
AcDbArc
 50
148.1985618108
 51
148.7237476662
  0
ARC
  5
4C8
100
AcDbEntity
  8
0
100
AcDbCircle
 62
7
  6
CONTINUOUS
 10
-44.4188993149
 20
2.0216367395
 40
1.6773459728
100
AcDbArc
 50
112.3127168015
 51
119.9887290331
  0
ARC
  5
4C9
100
AcDbEntity
  8
0
100
AcDbCircle
 62
7
  6
CONTINUOUS
 10
-41.09606703
 20
-3.733302766
 40
1.6773102456
100
AcDbArc
 50
300.0147364144
 51
307.6772683206
  0
ARC
  5
4CA
100
AcDbEntity
  8
ASSI
100
AcDbCircle
 62
7
  6
CONTINUOUS
 10
-1.3546177297
 20
12.4718219264
 40
1.4863378398
100
AcDbArc
 50
237.1841548972
 51
239.9671041723
  0
ARC
  5
4CB
100
AcDbEntity
  8
ASSI
100
AcDbCircle
 62
7
  6
CONTINUOUS
 10
-1.3546177297
 20
-61.010502985
 40
1.4863378398
100
AcDbArc
 50
237.1841548972
 51
239.9671041723
  0
ARC
  5
4CC
100
AcDbEntity
  8
ASSI
100
AcDbCircle
 62
7
  6
CONTINUOUS
 10
-82.6718975661
 20
59.4234001591
 40
1.4863378398
100
AcDbArc
 50
237.1841548972
 51
239.9671041723
  0
ARC
  5
4CD
100
AcDbEntity
  8
ASSI
100
AcDbCircle
 62
7
  6
CONTINUOUS
 10
-82.6718975661
 20
-14.0589247523
 40
1.4863378398
100
AcDbArc
 50
237.1841548972
 51
239.9671041723
  0
ARC
  5
4CE
100
AcDbEntity
  8
0
100
AcDbCircle
 62
7
  6
CONTINUOUS
 10
-26.4681926768
 20
-9.7940613087
 40
1.4647010345
100
AcDbArc
 50
237.1635956722
 51
239.9876633973
  0
ARC
  5
4CF
100
AcDbEntity
  8
0
100
AcDbCircle
 62
7
  6
CONTINUOUS
 10
-57.580891049
 20
8.1700207978
 40
1.4647010345
100
AcDbArc
 50
237.1635956722
 51
239.9876633973
  0
ARC
  5
4D0
100
AcDbEntity
  8
RACCORDO
100
AcDbCircle
 62
7
  6
CONTINUOUS
 10
-29.5843552794
 20
-8.1568156882
 40
1.3525318034
100
AcDbArc
 50
120.041011343
 51
130.8720158702
  0
ARC
  5
4D1
100
AcDbEntity
  8
RACCORDO
100
AcDbCircle
 62
7
  6
CONTINUOUS
 10
-60.6970536516
 20
9.8072664182
 40
1.3525318034
100
AcDbArc
 50
120.041011343
 51
130.8720158701
  0
ARC
  5
4D2
100
AcDbEntity
  8
RACCORDO
100
AcDbCircle
 62
7
  6
CONTINUOUS
 10
-58.0512899251
 20
5.2207375235
 40
1.3525318034
100
AcDbArc
 50
300.041011343
 51
310.8720158701
  0
ARC
  5
4D3
100
AcDbEntity
  8
RACCORDO
100
AcDbCircle
 62
7
  6
CONTINUOUS
 10
-26.9385915528
 20
-12.743344583
 40
1.3525318034
100
AcDbArc
 50
300.041011343
 51
310.8720158702
  0
ARC
  5
4D4
100
AcDbEntity
  8
RACCORDO
100
AcDbCircle
 62
7
  6
CONTINUOUS
 10
-62.024595634
 20
11.3413531513
 40
0.6762091411
100
AcDbArc
 50
300.0313375656
 51
310.8710740708
  0
ARC
  5
4D5
100
AcDbEntity
  8
RACCORDO
100
AcDbCircle
 62
7
  6
CONTINUOUS
 10
-30.9118972618
 20
-6.6227289551
 40
0.6762091411
100
AcDbArc
 50
300.0313375656
 51
310.8710740708
  0
ARC
  5
4D6
100
AcDbEntity
  8
RACCORDO
100
AcDbCircle
 62
7
  6
CONTINUOUS
 10
-56.7237479427
 20
3.6866507904
 40
0.6762091411
100
AcDbArc
 50
120.0313375656
 51
130.8710740708
  0
ARC
  5
4D7
100
AcDbEntity
  8
RACCORDO
100
AcDbCircle
 62
7
  6
CONTINUOUS
 10
-25.6110495705
 20
-14.277431316
 40
0.6762091411
100
AcDbArc
 50
120.0313375656
 51
130.8710740708
  0
SPLINE
  5
4D8
100
AcDbEntity
  8
ASSI
100
AcDbSpline
 62
7
  6
CONTINUOUS
 70
0
 71
3
 72
11
 73
7
 74
0
 42
0.0000001
 43
0.0000001
 44
0.0000000001
 40
0.0
 40
0.0
 40
0.0
 40
0.0
 40
0.2333645707
 40
0.483080534
 40
0.7414887298
 40
1.0
 40
1.0
 40
1.0
 40
1.0
 10
-69.4353087105
 20
66.4753202063
 30
0.0
 10
-69.4131059077
 20
66.2235797917
 30
0.0
 10
-69.319600909
 20
65.7061167155
 30
0.0
 10
-69.0621077429
 20
64.94304066
 30
0.0
 10
-68.6940365507
 20
64.1963575859
 30
0.0
 10
-68.3832511991
 20
63.7285114391
 30
0.0
 10
-68.2130065532
 20
63.5062759132
 30
0.0
  0
SPLINE
  5
4D9
100
AcDbEntity
  8
ASSI
100
AcDbSpline
 62
7
  6
CONTINUOUS
 70
0
 71
3
 72
9
 73
5
 74
0
 42
0.0000001
 43
0.0000001
 44
0.0000000001
 40
0.0
 40
0.0
 40
0.0
 40
0.0
 40
0.5059427757
 40
1.0
 40
1.0
 40
1.0
 40
1.0
 10
-65.3845794284
 20
61.8731775399
 30
0.0
 10
-65.3029011032
 20
61.8854794627
 30
0.0
 10
-65.1431701942
 20
61.9238723528
 30
0.0
 10
-64.9934722964
 20
61.9918547159
 30
0.0
 10
-64.9236232531
 20
62.0321908897
 30
0.0
  0
SPLINE
  5
4DA
100
AcDbEntity
  8
ASSI
100
AcDbSpline
 62
7
  6
CONTINUOUS
 70
0
 71
3
 72
18
 73
14
 74
0
 42
0.0000001
 43
0.0000001
 44
0.0000000001
 40
0.0
 40
0.0
 40
0.0
 40
0.0
 40
0.1505535987
 40
0.300973112
 40
0.446343382
 40
0.5822708889
 40
0.7054797891
 40
0.7618647806
 40
0.8147446589
 40
0.8643849064
 40
0.9112826044
 40
0.9561735541
 40
1.0
 40
1.0
 40
1.0
 40
1.0
 10
-19.3165726341
 20
31.6368754895
 30
0.0
 10
-19.1370264716
 20
31.4010640614
 30
0.0
 10
-18.809236173
 20
30.9051242468
 30
0.0
 10
-18.4207506424
 20
30.1144490484
 30
0.0
 10
-18.1485089836
 20
29.3064055977
 30
0.0
 10
-18.0057174789
 20
28.5199560838
 30
0.0
 10
-18.0004605195
 20
27.8944171973
 30
0.0
 10
-18.0725808505
 20
27.4415091491
 30
0.0
 10
-18.1597369563
 20
27.1401170106
 30
0.0
 10
-18.2806814181
 20
26.8707872131
 30
0.0
 10
-18.4343394402
 20
26.6370040271
 30
0.0
 10
-18.61898794
 20
26.4421858082
 30
0.0
 10
-18.7620435555
 20
26.3397635788
 30
0.0
 10
-18.8367614873
 20
26.2966225412
 30
0.0
  0
SPLINE
  5
4DB
100
AcDbEntity
  8
ASSI
100
AcDbSpline
 62
7
  6
CONTINUOUS
 70
0
 71
3
 72
9
 73
5
 74
0
 42
0.0000001
 43
0.0000001
 44
0.0000000001
 40
0.0
 40
0.0
 40
0.0
 40
0.0
 40
0.5042135807
 40
1.0
 40
1.0
 40
1.0
 40
1.0
 10
5.4018928572
 20
-11.3121871237
 30
0.0
 10
5.3528012241
 20
-11.3671603327
 30
0.0
 10
5.2470405333
 20
-11.4690294102
 30
0.0
 10
5.1262667787
 20
-11.552663724
 30
0.0
 10
5.0635076448
 20
-11.5889028471
 30
0.0
  0
SPLINE
  5
4DC
100
AcDbEntity
  8
ASSI
100
AcDbSpline
 62
7
  6
CONTINUOUS
 70
0
 71
3
 72
9
 73
5
 74
0
 42
0.0000001
 43
0.0000001
 44
0.0000000001
 40
0.0
 40
0.0
 40
0.0
 40
0.0
 40
0.5059379463
 40
1.0
 40
1.0
 40
1.0
 40
1.0
 10
8.1742227092
 20
-50.266410798
 30
0.0
 10
8.225696586
 20
-50.2018629711
 30
0.0
 10
8.3387638274
 20
-50.0827937313
 30
0.0
 10
8.4724195998
 20
-49.987186242
 30
0.0
 10
8.5422404784
 20
-49.9468774468
 30
0.0
  0
SPLINE
  5
4DD
100
AcDbEntity
  8
ASSI
100
AcDbSpline
 62
7
  6
CONTINUOUS
 70
0
 71
3
 72
11
 73
7
 74
0
 42
0.0000001
 43
0.0000001
 44
0.0000000001
 40
0.0
 40
0.0
 40
0.0
 40
0.0
 40
0.2333696411
 40
0.4830876227
 40
0.7414942211
 40
1.0
 40
1.0
 40
1.0
 40
1.0
 10
10.1343631853
 20
-56.0753999397
 30
0.0
 10
9.927446489
 20
-55.9302922494
 30
0.0
 10
9.5260555848
 20
-55.5905688592
 30
0.0
 10
8.9939496099
 20
-54.9860206918
 30
0.0
 10
8.5313350316
 20
-54.2939153313
 30
0.0
 10
8.2815607314
 20
-53.7908441782
 30
0.0
 10
8.1742227092
 20
-53.5322919052
 30
0.0
  0
SPLINE
  5
4DE
100
AcDbEntity
  8
RACCORDO
100
AcDbSpline
 62
7
  6
CONTINUOUS
 70
0
 71
3
 72
14
 73
10
 74
0
 42
0.0000001
 43
0.0000001
 44
0.0000000001
 40
0.0
 40
0.0
 40
0.0
 40
0.0
 40
0.2892776307
 40
0.4225436655
 40
0.5485047944
 40
0.6679004454
 40
0.7818732725
 40
0.8919553206
 40
1.0
 40
1.0
 40
1.0
 40
1.0
 10
-0.4721769155
 20
-75.0752531225
 30
0.0
 10
-0.0332071428
 20
-75.3287087677
 30
0.0
 10
0.6407318625
 20
-75.6495010869
 30
0.0
 10
1.5649939782
 20
-75.9190251001
 30
0.0
 10
2.2210314797
 20
-76.0291042252
 30
0.0
 10
2.8522763355
 20
-76.0510718711
 30
0.0
 10
3.4527371896
 20
-75.9841066001
 30
0.0
 10
4.0160001388
 20
-75.8283493241
 30
0.0
 10
4.364108918
 20
-75.6653272993
 30
0.0
 10
4.528063342
 20
-75.5706620613
 30
0.0
  0
SPLINE
  5
4DF
100
AcDbEntity
  8
ASSI
100
AcDbSpline
 62
7
  6
CONTINUOUS
 70
0
 71
3
 72
15
 73
11
 74
0
 42
0.0000001
 43
0.0000001
 44
0.0000000001
 40
0.0
 40
0.0
 40
0.0
 40
0.0
 40
0.1168182433
 40
0.2404960719
 40
0.3690072402
 40
0.5000053428
 40
0.631002739
 40
0.759511772
 40
0.8831862718
 40
1.0
 40
1.0
 40
1.0
 40
1.0
 10
-21.1197565432
 20
-71.0967091247
 30
0.0
 10
-21.2740087962
 20
-70.9885342478
 30
0.0
 10
-21.5766011285
 20
-70.7439931518
 30
0.0
 10
-21.9941755697
 20
-70.3184189533
 30
0.0
 10
-22.3791974882
 20
-69.8336283311
 30
0.0
 10
-22.7207491216
 20
-69.30329647
 30
0.0
 10
-23.0092527052
 20
-68.7423412545
 30
0.0
 10
-23.2365780403
 20
-68.1665159635
 30
0.0
 10
-23.3963408301
 20
-67.5921131702
 30
0.0
 10
-23.4568162374
 20
-67.2078015033
 30
0.0
 10
-23.4733679334
 20
-67.0201346198
 30
0.0
  0
SPLINE
  5
4E0
100
AcDbEntity
  8
ASSI
100
AcDbSpline
 62
7
  6
CONTINUOUS
 70
0
 71
3
 72
11
 73
7
 74
0
 42
0.0000001
 43
0.0000001
 44
0.0000000001
 40
0.0
 40
0.0
 40
0.0
 40
0.0
 40
0.2833190674
 40
0.5403787185
 40
0.7762259045
 40
1.0
 40
1.0
 40
1.0
 40
1.0
 10
-23.4733679334
 20
-66.3668161045
 30
0.0
 10
-23.4581333892
 20
-66.2116758568
 30
0.0
 10
-23.4060095528
 20
-65.9170991799
 30
0.0
 10
-23.2491321039
 20
-65.5162694812
 30
0.0
 10
-23.0195821689
 20
-65.1903127917
 30
0.0
 10
-22.8186445609
 20
-65.0298410949
 30
0.0
 10
-22.7120219514
 20
-64.9682690544
 30
0.0
  0
SPLINE
  5
4E1
100
AcDbEntity
  8
RACCORDO
100
AcDbSpline
 62
7
  6
CONTINUOUS
 70
0
 71
3
 72
15
 73
11
 74
0
 42
0.0000001
 43
0.0000001
 44
0.0000000001
 40
0.0
 40
0.0
 40
0.0
 40
0.0
 40
0.1141517219
 40
0.2373209385
 40
0.3669696851
 40
0.4999939487
 40
0.6330190538
 40
0.762670259
 40
0.8858433486
 40
1.0
 40
1.0
 40
1.0
 40
1.0
 10
-94.2345361008
 20
-12.7733392793
 30
0.0
 10
-94.2345361008
 20
-13.3322797043
 30
0.0
 10
-94.1321573669
 20
-14.495399946
 30
0.0
 10
-93.7240188229
 20
-16.2501048652
 30
0.0
 10
-93.0702036509
 20
-18.0275022764
 30
0.0
 10
-92.1951404278
 20
-19.7607552745
 30
0.0
 10
-91.1316237607
 20
-21.3852183819
 30
0.0
 10
-89.9192413492
 20
-22.8401674349
 30
0.0
 10
-88.6036622047
 20
-24.0710269719
 30
0.0
 10
-87.6475380024
 20
-24.7412921948
 30
0.0
 10
-87.163468289
 20
-25.0207879805
 30
0.0
  0
SPLINE
  5
4E2
100
AcDbEntity
  8
ASSI
100
AcDbSpline
 62
7
  6
CONTINUOUS
 70
0
 71
3
 72
15
 73
11
 74
0
 42
0.0000001
 43
0.0000001
 44
0.0000000001
 40
0.0
 40
0.0
 40
0.0
 40
0.0
 40
0.1168182682
 40
0.2404960568
 40
0.3690072089
 40
0.5000053048
 40
0.6310026841
 40
0.7595117283
 40
0.8831861455
 40
1.0
 40
1.0
 40
1.0
 40
1.0
 10
-98.3358170488
 20
47.3774365164
 30
0.0
 10
-98.4900693348
 20
47.4856114165
 30
0.0
 10
-98.7926616729
 20
47.7301524713
 30
0.0
 10
-99.2102360083
 20
48.1557267006
 30
0.0
 10
-99.5952579424
 20
48.6405171789
 30
0.0
 10
-99.936809507
 20
49.1708490084
 30
0.0
 10
-100.2253131623
 20
49.7318041676
 30
0.0
 10
-100.45263834
 20
50.3076293641
 30
0.0
 10
-100.6124013563
 20
50.8820321837
 30
0.0
 10
-100.6728767251
 20
51.2663439349
 30
0.0
 10
-100.689428439
 20
51.4540110213
 30
0.0
  0
SPLINE
  5
4E3
100
AcDbEntity
  8
ASSI
100
AcDbSpline
 62
7
  6
CONTINUOUS
 70
0
 71
3
 72
11
 73
7
 74
0
 42
0.0000001
 43
0.0000001
 44
0.0000000001
 40
0.0
 40
0.0
 40
0.0
 40
0.0
 40
0.2833199492
 40
0.5403772089
 40
0.7762235967
 40
1.0
 40
1.0
 40
1.0
 40
1.0
 10
-100.689428439
 20
52.1073295366
 30
0.0
 10
-100.6741930162
 20
52.2624787314
 30
0.0
 10
-100.6220660553
 20
52.5570709317
 30
0.0
 10
-100.4651708469
 20
52.9579181166
 30
0.0
 10
-100.2355958946
 20
53.2838838851
 30
0.0
 10
-100.0346367039
 20
53.4443533369
 30
0.0
 10
-99.928003064
 20
53.5059222476
 30
0.0
  0
SPLINE
  5
4E4
100
AcDbEntity
  8
ASSI
100
AcDbSpline
 62
7
  6
CONTINUOUS
 70
0
 71
3
 72
17
 73
13
 74
0
 42
0.0000001
 43
0.0000001
 44
0.0000000001
 40
0.0
 40
0.0
 40
0.0
 40
0.0
 40
0.128680765
 40
0.2702710017
 40
0.4174276103
 40
0.5617760395
 40
0.6954482586
 40
0.8127145551
 40
0.8646793292
 40
0.9125126133
 40
0.9571411002
 40
1.0
 40
1.0
 40
1.0
 40
1.0
 10
-2.0985225122
 20
11.184922367
 30
0.0
 10
-2.0985225122
 20
11.3131295724
 30
0.0
 10
-2.1343951411
 20
11.5827122264
 30
0.0
 10
-2.2682623088
 20
11.9785460381
 30
0.0
 10
-2.4745709314
 20
12.3598657803
 30
0.0
 10
-2.7367073493
 20
12.6954014268
 30
0.0
 10
-3.0332658506
 20
12.9580433514
 30
0.0
 10
-3.3016829915
 20
13.104813114
 30
0.0
 10
-3.5116511029
 20
13.1606803473
 30
0.0
 10
-3.6561601102
 20
13.1713050634
 30
0.0
 10
-3.79072084
 20
13.1515842695
 30
0.0
 10
-3.8722374173
 20
13.1176997253
 30
0.0
 10
-3.9092170947
 20
13.0963480569
 30
0.0
  0
SPLINE
  5
4E5
100
AcDbEntity
  8
ASSI
100
AcDbSpline
 62
7
  6
CONTINUOUS
 70
0
 71
3
 72
17
 73
13
 74
0
 42
0.0000001
 43
0.0000001
 44
0.0000000001
 40
0.0
 40
0.0
 40
0.0
 40
0.0
 40
0.128680765
 40
0.2702710017
 40
0.4174276103
 40
0.5617760395
 40
0.6954482586
 40
0.8127145551
 40
0.8646793292
 40
0.9125126133
 40
0.9571411002
 40
1.0
 40
1.0
 40
1.0
 40
1.0
 10
-2.0985225122
 20
-62.2974025444
 30
0.0
 10
-2.0985225122
 20
-62.1691953389
 30
0.0
 10
-2.1343951411
 20
-61.899612685
 30
0.0
 10
-2.2682623088
 20
-61.5037788733
 30
0.0
 10
-2.4745709314
 20
-61.1224591311
 30
0.0
 10
-2.7367073493
 20
-60.7869234845
 30
0.0
 10
-3.0332658506
 20
-60.52428156
 30
0.0
 10
-3.3016829915
 20
-60.3775117974
 30
0.0
 10
-3.5116511029
 20
-60.321644564
 30
0.0
 10
-3.6561601102
 20
-60.3110198479
 30
0.0
 10
-3.79072084
 20
-60.3307406418
 30
0.0
 10
-3.8722374173
 20
-60.364625186
 30
0.0
 10
-3.9092170947
 20
-60.3859768545
 30
0.0
  0
SPLINE
  5
4E6
100
AcDbEntity
  8
ASSI
100
AcDbSpline
 62
7
  6
CONTINUOUS
 70
0
 71
3
 72
17
 73
13
 74
0
 42
0.0000001
 43
0.0000001
 44
0.0000000001
 40
0.0
 40
0.0
 40
0.0
 40
0.0
 40
0.128680765
 40
0.2702710017
 40
0.4174276103
 40
0.5617760395
 40
0.6954482586
 40
0.8127145551
 40
0.8646793292
 40
0.9125126133
 40
0.9571411002
 40
1.0
 40
1.0
 40
1.0
 40
1.0
 10
-83.4158023487
 20
58.1365005997
 30
0.0
 10
-83.4158023487
 20
58.2647078051
 30
0.0
 10
-83.4516749776
 20
58.5342904591
 30
0.0
 10
-83.5855421452
 20
58.9301242708
 30
0.0
 10
-83.7918507679
 20
59.311444013
 30
0.0
 10
-84.0539871858
 20
59.6469796595
 30
0.0
 10
-84.3505456871
 20
59.9096215841
 30
0.0
 10
-84.618962828
 20
60.0563913466
 30
0.0
 10
-84.8289309393
 20
60.11225858
 30
0.0
 10
-84.9734399467
 20
60.1228832961
 30
0.0
 10
-85.1080006764
 20
60.1031625022
 30
0.0
 10
-85.1895172537
 20
60.069277958
 30
0.0
 10
-85.2264969311
 20
60.0479262896
 30
0.0
  0
SPLINE
  5
4E7
100
AcDbEntity
  8
ASSI
100
AcDbSpline
 62
7
  6
CONTINUOUS
 70
0
 71
3
 72
17
 73
13
 74
0
 42
0.0000001
 43
0.0000001
 44
0.0000000001
 40
0.0
 40
0.0
 40
0.0
 40
0.0
 40
0.128680765
 40
0.2702710017
 40
0.4174276103
 40
0.5617760395
 40
0.6954482586
 40
0.8127145551
 40
0.8646793292
 40
0.9125126133
 40
0.9571411002
 40
1.0
 40
1.0
 40
1.0
 40
1.0
 10
-83.4158023487
 20
-15.3458243117
 30
0.0
 10
-83.4158023487
 20
-15.2176171062
 30
0.0
 10
-83.4516749776
 20
-14.9480344523
 30
0.0
 10
-83.5855421452
 20
-14.5522006406
 30
0.0
 10
-83.7918507679
 20
-14.1708808984
 30
0.0
 10
-84.0539871858
 20
-13.8353452519
 30
0.0
 10
-84.3505456871
 20
-13.5727033273
 30
0.0
 10
-84.618962828
 20
-13.4259335647
 30
0.0
 10
-84.8289309393
 20
-13.3700663313
 30
0.0
 10
-84.9734399467
 20
-13.3594416152
 30
0.0
 10
-85.1080006764
 20
-13.3791624091
 30
0.0
 10
-85.1895172537
 20
-13.4130469533
 30
0.0
 10
-85.2264969311
 20
-13.4343986218
 30
0.0
  0
SPLINE
  5
4E8
100
AcDbEntity
  8
0
100
AcDbSpline
 62
7
  6
CONTINUOUS
 70
0
 71
3
 72
11
 73
7
 74
0
 42
0.0000001
 43
0.0000001
 44
0.0000000001
 40
0.0
 40
0.0
 40
0.0
 40
0.0
 40
0.2898086367
 40
0.5490452335
 40
0.7822282854
 40
1.0
 40
1.0
 40
1.0
 40
1.0
 10
-58.3135116166
 20
6.9015900809
 30
0.0
 10
-58.3135116166
 20
6.8255678405
 30
0.0
 10
-58.3249889345
 20
6.6810446808
 30
0.0
 10
-58.3835877928
 20
6.4824963079
 30
0.0
 10
-58.4820708333
 20
6.3213594843
 30
0.0
 10
-58.574665988
 20
6.2435524199
 30
0.0
 10
-58.6241373777
 20
6.214988171
 30
0.0
  0
SPLINE
  5
4E9
100
AcDbEntity
  8
0
100
AcDbSpline
 62
7
  6
CONTINUOUS
 70
0
 71
3
 72
11
 73
7
 74
0
 42
0.0000001
 43
0.0000001
 44
0.0000000001
 40
0.0
 40
0.0
 40
0.0
 40
0.0
 40
0.2898086367
 40
0.5490452335
 40
0.7822282854
 40
1.0
 40
1.0
 40
1.0
 40
1.0
 10
-27.2008132443
 20
-11.0624920256
 30
0.0
 10
-27.2008132443
 20
-11.138514266
 30
0.0
 10
-27.2122905623
 20
-11.2830374256
 30
0.0
 10
-27.2708894206
 20
-11.4815857985
 30
0.0
 10
-27.3693724611
 20
-11.6427226221
 30
0.0
 10
-27.4619676157
 20
-11.7205296865
 30
0.0
 10
-27.5114390055
 20
-11.7490939355
 30
0.0
  0
SPLINE
  5
4EA
100
AcDbEntity
  8
0
100
AcDbSpline
 62
7
  6
CONTINUOUS
 70
0
 71
3
 72
11
 73
7
 74
0
 42
0.0000001
 43
0.0000001
 44
0.0000000001
 40
0.0
 40
0.0
 40
0.0
 40
0.0
 40
0.2461928452
 40
0.5000034167
 40
0.7538122393
 40
1.0
 40
1.0
 40
1.0
 40
1.0
 10
-45.0552594693
 20
-4.5776999773
 30
0.0
 10
-45.2973283332
 20
-4.3334991998
 30
0.0
 10
-45.7542129075
 20
-3.8021792797
 30
0.0
 10
-46.3365581588
 20
-2.9220485764
 30
0.0
 10
-46.8075983327
 20
-1.9776639803
 30
0.0
 10
-47.0392875494
 20
-1.3163385303
 30
0.0
 10
-47.1297329271
 20
-0.9846065531
 30
0.0
  0
SPLINE
  5
4EB
100
AcDbEntity
  8
0
100
AcDbSpline
 62
7
  6
CONTINUOUS
 70
0
 71
3
 72
10
 73
6
 74
0
 42
0.0000001
 43
0.0000001
 44
0.0000000001
 40
0.0
 40
0.0
 40
0.0
 40
0.0
 40
0.5188334627
 40
0.7620640369
 40
1.0
 40
1.0
 40
1.0
 40
1.0
 10
-47.1297329271
 20
1.8730394156
 30
0.0
 10
-47.0465711733
 20
2.0820236965
 30
0.0
 10
-46.8820348137
 20
2.3767466466
 30
0.0
 10
-46.5785631421
 20
2.6888621532
 30
0.0
 10
-46.4072709327
 20
2.8104393275
 30
0.0
 10
-46.3179425667
 20
2.8620164131
 30
0.0
  0
SPLINE
  5
4EC
100
AcDbEntity
  8
0
100
AcDbSpline
 62
7
  6
CONTINUOUS
 70
0
 71
3
 72
11
 73
7
 74
0
 42
0.0000001
 43
0.0000001
 44
0.0000000001
 40
0.0
 40
0.0
 40
0.0
 40
0.0
 40
0.2723923626
 40
0.5264900217
 40
0.7675845781
 40
1.0
 40
1.0
 40
1.0
 40
1.0
 10
-8.8887424882
 20
17.1147786105
 30
0.0
 10
-8.957531611
 20
17.1831922082
 30
0.0
 10
-9.1041796575
 20
17.3017174217
 30
0.0
 10
-9.3362316723
 20
17.4468471864
 30
0.0
 10
-9.5674900706
 20
17.5644453058
 30
0.0
 10
-9.7226295177
 20
17.6307645972
 30
0.0
 10
-9.7992874432
 20
17.6620039919
 30
0.0
  0
SPLINE
  5
4ED
100
AcDbEntity
  8
0
100
AcDbSpline
 62
7
  6
CONTINUOUS
 70
0
 71
3
 72
9
 73
5
 74
0
 42
0.0000001
 43
0.0000001
 44
0.0000000001
 40
0.0
 40
0.0
 40
0.0
 40
0.0
 40
0.4997796482
 40
1.0
 40
1.0
 40
1.0
 40
1.0
 10
-8.5118925921
 20
14.9015637255
 30
0.0
 10
-8.5334404511
 20
15.0056133712
 30
0.0
 10
-8.5744202209
 20
15.2142391212
 30
0.0
 10
-8.6164025189
 20
15.4226632618
 30
0.0
 10
-8.638026165
 20
15.5267928819
 30
0.0
  0
SPLINE
  5
4EE
100
AcDbEntity
  8
0
100
AcDbSpline
 62
7
  6
CONTINUOUS
 70
0
 71
3
 72
11
 73
7
 74
0
 42
0.0000001
 43
0.0000001
 44
0.0000000001
 40
0.0
 40
0.0
 40
0.0
 40
0.0
 40
0.2339894271
 40
0.4889078396
 40
0.750659109
 40
1.0
 40
1.0
 40
1.0
 40
1.0
 10
-8.638026165
 20
15.5267928819
 30
0.0
 10
-8.6470869301
 20
15.5704274523
 30
0.0
 10
-8.6653807719
 20
15.6617541804
 30
0.0
 10
-8.705191353
 20
15.7993639203
 30
0.0
 10
-8.7622372778
 20
15.9340393012
 30
0.0
 10
-8.8177497159
 20
16.0156922532
 30
0.0
 10
-8.850700942
 20
16.0498893477
 30
0.0
  0
SPLINE
  5
4EF
100
AcDbEntity
  8
0
100
AcDbSpline
 62
7
  6
CONTINUOUS
 70
0
 71
3
 72
35
 73
31
 74
0
 42
0.0000001
 43
0.0000001
 44
0.0000000001
 40
0.0
 40
0.0
 40
0.0
 40
0.0
 40
0.0552747339
 40
0.110623179
 40
0.1688225092
 40
0.1978720185
 40
0.2275024567
 40
0.2580586775
 40
0.2884508157
 40
0.3190511477
 40
0.3506228879
 40
0.3822175585
 40
0.4138439376
 40
0.4463130596
 40
0.4788919499
 40
0.5114447913
 40
0.5445838973
 40
0.5778017526
 40
0.6109664942
 40
0.6443995299
 40
0.6778377633
 40
0.7112447583
 40
0.7446346974
 40
0.7777797861
 40
0.810450044
 40
0.8428896594
 40
0.87540231
 40
0.9075477859
 40
0.9390914248
 40
1.0
 40
1.0
 40
1.0
 40
1.0
 10
-9.6155409
 20
-56.2407979013
 30
0.0
 10
-9.6174494976
 20
-56.2131658937
 30
0.0
 10
-9.6174838594
 20
-56.1577073087
 30
0.0
 10
-9.617284752
 20
-56.0729609141
 30
0.0
 10
-9.6282768656
 20
-56.0021867657
 30
0.0
 10
-9.6336392069
 20
-55.9438732213
 30
0.0
 10
-9.6401623092
 20
-55.8995886755
 30
0.0
 10
-9.6503043105
 20
-55.8553247673
 30
0.0
 10
-9.6585374649
 20
-55.810202486
 30
0.0
 10
-9.6676725633
 20
-55.7646814364
 30
0.0
 10
-9.6815415623
 20
-55.7197444115
 30
0.0
 10
-9.6940965966
 20
-55.67395305
 30
0.0
 10
-9.7066351423
 20
-55.6276161649
 30
0.0
 10
-9.7245014206
 20
-55.582528917
 30
0.0
 10
-9.7412600891
 20
-55.5366086346
 30
0.0
 10
-9.7579092541
 20
-55.4902024537
 30
0.0
 10
-9.7799855824
 20
-55.4457610546
 30
0.0
 10
-9.800464456
 20
-55.4003147221
 30
0.0
 10
-9.8215754677
 20
-55.3549065652
 30
0.0
 10
-9.8475569396
 20
-55.3119808856
 30
0.0
 10
-9.87197187
 20
-55.2680731963
 30
0.0
 10
-9.89693384
 20
-55.2244676005
 30
0.0
 10
-9.9244493543
 20
-55.1825902976
 30
0.0
 10
-9.9537153554
 20
-55.1423786823
 30
0.0
 10
-9.9848700989
 20
-55.1042345916
 30
0.0
 10
-10.0166376489
 20
-55.0670356564
 30
0.0
 10
-10.0472565316
 20
-55.0292157122
 30
0.0
 10
-10.0792576613
 20
-54.9931325065
 30
0.0
 10
-10.1231257405
 20
-54.9486720681
 30
0.0
 10
-10.158111034
 20
-54.9181796297
 30
0.0
 10
-10.181884813
 20
-54.8990397615
 30
0.0
  0
SPLINE
  5
4F0
100
AcDbEntity
  8
0
100
AcDbSpline
 62
7
  6
CONTINUOUS
 70
0
 71
3
 72
8
 73
4
 74
0
 42
0.0000001
 43
0.0000001
 44
0.0000000001
 40
0.0
 40
0.0
 40
0.0
 40
0.0
 40
1.0
 40
1.0
 40
1.0
 40
1.0
 10
-10.181884813
 20
-54.8990397615
 30
0.0
 10
-10.1984474837
 20
-54.8857054349
 30
0.0
 10
-10.2152833332
 20
-54.8727086142
 30
0.0
 10
-10.2322636167
 20
-54.8599103214
 30
0.0
  0
SPLINE
  5
4F1
100
AcDbEntity
  8
0
100
AcDbSpline
 62
7
  6
CONTINUOUS
 70
0
 71
3
 72
9
 73
5
 74
0
 42
0.0000001
 43
0.0000001
 44
0.0000000001
 40
0.0
 40
0.0
 40
0.0
 40
0.0
 40
0.2547041624
 40
1.0
 40
1.0
 40
1.0
 40
1.0
 10
-10.2322636167
 20
-54.8599103214
 30
0.0
 10
-10.243840076
 20
-54.8511849714
 30
0.0
 10
-10.2896196079
 20
-54.8173701602
 30
0.0
 10
-10.3367945323
 20
-54.7854176799
 30
0.0
 10
-10.3728186162
 20
-54.7630217336
 30
0.0
  0
SPLINE
  5
4F2
100
AcDbEntity
  8
0
100
AcDbSpline
 62
7
  6
CONTINUOUS
 70
0
 71
3
 72
11
 73
7
 74
0
 42
0.0000001
 43
0.0000001
 44
0.0000000001
 40
0.0
 40
0.0
 40
0.0
 40
0.0
 40
0.2152615089
 40
0.449375916
 40
0.711277051
 40
1.0
 40
1.0
 40
1.0
 40
1.0
 10
-10.040911414
 20
-56.6358829612
 30
0.0
 10
-10.0647990223
 20
-56.6496753708
 30
0.0
 10
-10.1211160779
 20
-56.668092311
 30
0.0
 10
-10.2135480629
 20
-56.6646767982
 30
0.0
 10
-10.3104131798
 20
-56.6349978062
 30
0.0
 10
-10.3736048218
 20
-56.6030682512
 30
0.0
 10
-10.4056444216
 20
-56.5845688953
 30
0.0
  0
SPLINE
  5
4F3
100
AcDbEntity
  8
ASSI
100
AcDbSpline
 62
7
  6
CONTINUOUS
 70
0
 71
3
 72
11
 73
7
 74
0
 42
0.0000001
 43
0.0000001
 44
0.0000000001
 40
0.0
 40
0.0
 40
0.0
 40
0.0
 40
0.2333696907
 40
0.4830876496
 40
0.7414942086
 40
1.0
 40
1.0
 40
1.0
 40
1.0
 10
-96.7093482179
 20
53.751733665
 30
0.0
 10
-96.5024314777
 20
53.6066259439
 30
0.0
 10
-96.1010405565
 20
53.2669025266
 30
0.0
 10
-95.5689346027
 20
52.6623543598
 30
0.0
 10
-95.1063200563
 20
51.9702490433
 30
0.0
 10
-94.8565457693
 20
51.467177916
 30
0.0
 10
-94.7492077418
 20
51.2086256305
 30
0.0
  0
LINE
  5
4F4
100
AcDbEntity
  8
0
100
AcDbLine
 62
7
  6
CONTINUOUS
 10
-9.8340765146
 20
-56.8947681063
 11
-9.8280058541
 21
-56.8911282013
  0
SPLINE
  5
4F5
100
AcDbEntity
  8
0
100
AcDbSpline
 62
7
  6
CONTINUOUS
 70
0
 71
3
 72
8
 73
4
 74
0
 42
0.0000001
 43
0.0000001
 44
0.0000000001
 40
0.0
 40
0.0
 40
0.0
 40
0.0
 40
1.0
 40
1.0
 40
1.0
 40
1.0
 10
-9.8280058541
 20
-56.8911282013
 30
0.0
 10
-9.8216478141
 20
-56.8871448156
 30
0.0
 10
-9.815636411
 20
-56.8825328772
 30
0.0
 10
-9.8101889992
 20
-56.8773736391
 30
0.0
  0
SPLINE
  5
4F6
100
AcDbEntity
  8
0
100
AcDbSpline
 62
7
  6
CONTINUOUS
 70
0
 71
3
 72
9
 73
5
 74
0
 42
0.0000001
 43
0.0000001
 44
0.0000000001
 40
0.0
 40
0.0
 40
0.0
 40
0.0
 40
0.5016291981
 40
1.0
 40
1.0
 40
1.0
 40
1.0
 10
-9.8101889992
 20
-56.8773736391
 30
0.0
 10
-9.8030762811
 20
-56.8706371913
 30
0.0
 10
-9.7903427459
 20
-56.855750638
 30
0.0
 10
-9.7756521127
 20
-56.8428371691
 30
0.0
 10
-9.7686757693
 20
-56.8360505358
 30
0.0
  0
SPLINE
  5
4F7
100
AcDbEntity
  8
0
100
AcDbSpline
 62
7
  6
CONTINUOUS
 70
0
 71
3
 72
24
 73
20
 74
0
 42
0.0000001
 43
0.0000001
 44
0.0000000001
 40
0.0
 40
0.0
 40
0.0
 40
0.0
 40
0.0259389573
 40
0.0526835676
 40
0.1074784053
 40
0.161635977
 40
0.2186215286
 40
0.2480365534
 40
0.2770596454
 40
0.3351119295
 40
0.3966971765
 40
0.4589670607
 40
0.5211393067
 40
0.5868178269
 40
0.6531642227
 40
0.7191529906
 40
0.7878926881
 40
0.8589587344
 40
1.0
 40
1.0
 40
1.0
 40
1.0
 10
-9.7686757693
 20
-56.8360505358
 30
0.0
 10
-9.7647849422
 20
-56.8322655133
 30
0.0
 10
-9.7571258024
 20
-56.8242813569
 30
0.0
 10
-9.7443097244
 20
-56.8057283492
 30
0.0
 10
-9.7303535298
 20
-56.780987727
 30
0.0
 10
-9.7091231186
 20
-56.7532841241
 30
0.0
 10
-9.6974343146
 20
-56.7260666923
 30
0.0
 10
-9.6889573564
 20
-56.7034684233
 30
0.0
 10
-9.6792534797
 20
-56.6811064371
 30
0.0
 10
-9.6660539204
 20
-56.6528151664
 30
0.0
 10
-9.6573876955
 20
-56.6155934594
 30
0.0
 10
-9.6477640286
 20
-56.5779298096
 30
0.0
 10
-9.6366704632
 20
-56.5396195819
 30
0.0
 10
-9.6319823176
 20
-56.4991524129
 30
0.0
 10
-9.6266753065
 20
-56.4580849395
 30
0.0
 10
-9.6199303234
 20
-56.416512327
 30
0.0
 10
-9.6175419558
 20
-56.3734464902
 30
0.0
 10
-9.6173118777
 20
-56.314695672
 30
0.0
 10
-9.6177500668
 20
-56.2702303542
 30
0.0
 10
-9.6155409
 20
-56.2407979013
 30
0.0
  0
LINE
  5
4F8
100
AcDbEntity
  8
0
100
AcDbLine
 62
7
  6
CONTINUOUS
 10
-9.8831821406
 20
-56.9240010773
 11
-9.8516261823
 21
-56.9046099512
  0
SPLINE
  5
4F9
100
AcDbEntity
  8
0
100
AcDbSpline
 62
7
  6
CONTINUOUS
 70
0
 71
3
 72
18
 73
14
 74
0
 42
0.0000001
 43
0.0000001
 44
0.0000000001
 40
0.0
 40
0.0
 40
0.0
 40
0.0
 40
0.0427211017
 40
0.0874843929
 40
0.1352949382
 40
0.1862419194
 40
0.2979207025
 40
0.4228237143
 40
0.5592088818
 40
0.705142076
 40
0.8542785178
 40
0.9282491965
 40
1.0
 40
1.0
 40
1.0
 40
1.0
 10
-8.7394126759
 20
16.0911340795
 30
0.0
 10
-8.7253294934
 20
16.0992655313
 30
0.0
 10
-8.6980506923
 20
16.1189828592
 30
0.0
 10
-8.6647427496
 20
16.1588282108
 30
0.0
 10
-8.6382350433
 20
16.2069033777
 30
0.0
 10
-8.6113002509
 20
16.2826652642
 30
0.0
 10
-8.5969619356
 20
16.3922575373
 30
0.0
 10
-8.6040821963
 20
16.5345695974
 30
0.0
 10
-8.6365100553
 20
16.6868881802
 30
0.0
 10
-8.6965912446
 20
16.8404497349
 30
0.0
 10
-8.7667761886
 20
16.9627650856
 30
0.0
 10
-8.8328675002
 20
17.0535603017
 30
0.0
 10
-8.8693709915
 20
17.0955245758
 30
0.0
 10
-8.8887424882
 20
17.1147786105
 30
0.0
  0
SPLINE
  5
4FA
100
AcDbEntity
  8
0
100
AcDbSpline
 62
7
  6
CONTINUOUS
 70
0
 71
3
 72
11
 73
7
 74
0
 42
0.0000001
 43
0.0000001
 44
0.0000000001
 40
0.0
 40
0.0
 40
0.0
 40
0.0
 40
0.2086119884
 40
0.4460558468
 40
0.7146761078
 40
1.0
 40
1.0
 40
1.0
 40
1.0
 10
-9.0209371782
 20
16.4107106401
 30
0.0
 10
-9.0344234672
 20
16.4029237903
 30
0.0
 10
-9.0682035278
 20
16.3946941015
 30
0.0
 10
-9.1215762042
 20
16.4024554709
 30
0.0
 10
-9.1774803311
 20
16.4221773174
 30
0.0
 10
-9.2145338521
 20
16.4407197988
 30
0.0
 10
-9.2331841681
 20
16.4510072613
 30
0.0
  0
SPLINE
  5
4FB
100
AcDbEntity
  8
ASSI
100
AcDbSpline
 62
7
  6
CONTINUOUS
 70
0
 71
3
 72
15
 73
11
 74
0
 42
0.0000001
 43
0.0000001
 44
0.0000000001
 40
0.0
 40
0.0
 40
0.0
 40
0.0
 40
0.1432450262
 40
0.2869875934
 40
0.4278131204
 40
0.5625035214
 40
0.6883380672
 40
0.8034001503
 40
0.9069687966
 40
1.0
 40
1.0
 40
1.0
 40
1.0
 10
-67.2584123986
 20
-33.9605417643
 30
0.0
 10
-67.4109014384
 20
-33.7602664827
 30
0.0
 10
-67.6938249025
 20
-33.3413171037
 30
0.0
 10
-68.0451376338
 20
-32.6750742652
 30
0.0
 10
-68.3154433675
 20
-31.9879796881
 30
0.0
 10
-68.4951549989
 20
-31.3041154712
 30
0.0
 10
-68.5780025456
 20
-30.6471369483
 30
0.0
 10
-68.5605739409
 20
-30.0391108701
 30
0.0
 10
-68.442582107
 20
-29.5005793878
 30
0.0
 10
-68.289732404
 20
-29.1854231642
 30
0.0
 10
-68.1970972931
 20
-29.0507206289
 30
0.0
  0
SPLINE
  5
4FC
100
AcDbEntity
  8
0
100
AcDbSpline
 62
7
  6
CONTINUOUS
 70
0
 71
3
 72
10
 73
6
 74
0
 42
0.0000001
 43
0.0000001
 44
0.0000000001
 40
0.0
 40
0.0
 40
0.0
 40
0.0
 40
0.2379311761
 40
0.4811592019
 40
1.0
 40
1.0
 40
1.0
 40
1.0
 10
-41.3177026378
 20
-5.7980945778
 30
0.0
 10
-41.4070513016
 20
-5.8496833831
 30
0.0
 10
-41.5980281981
 20
-5.9372653905
 30
0.0
 10
-42.020169819
 20
-6.0440460166
 30
0.0
 10
-42.3577631953
 20
-6.0391567941
 30
0.0
 10
-42.5803857352
 20
-6.0066610539
 30
0.0
  0
SPLINE
  5
4FD
100
AcDbEntity
  8
RACCORDO
100
AcDbSpline
 62
7
  6
CONTINUOUS
 70
0
 71
3
 72
11
 73
7
 74
0
 42
0.0000001
 43
0.0000001
 44
0.0000000001
 40
0.0
 40
0.0
 40
0.0
 40
0.0
 40
0.2177759905
 40
0.4509569663
 40
0.7101948341
 40
1.0
 40
1.0
 40
1.0
 40
1.0
 10
-25.9494743885
 20
-13.6920020333
 30
0.0
 10
-25.883505326
 20
-13.6539252345
 30
0.0
 10
-25.7319165756
 20
-13.5989094184
 30
0.0
 10
-25.4801962259
 20
-13.5926478152
 30
0.0
 10
-25.2118733094
 20
-13.6573744522
 30
0.0
 10
-25.0373439114
 20
-13.7404750882
 30
0.0
 10
-24.9495630913
 20
-13.7911586335
 30
0.0
  0
SPLINE
  5
4FE
100
AcDbEntity
  8
ASSI
100
AcDbSpline
 62
7
  6
CONTINUOUS
 70
0
 71
3
 72
11
 73
7
 74
0
 42
0.0000001
 43
0.0000001
 44
0.0000000001
 40
0.0
 40
0.0
 40
0.0
 40
0.0
 40
0.2809196176
 40
0.5372494944
 40
0.7740980859
 40
1.0
 40
1.0
 40
1.0
 40
1.0
 10
-17.1521567011
 20
-69.5591397819
 30
0.0
 10
-17.1716211976
 20
-69.7023749871
 30
0.0
 10
-17.2299550097
 20
-69.9742804502
 30
0.0
 10
-17.388028935
 20
-70.3431027176
 30
0.0
 10
-17.6102594134
 20
-70.6435967868
 30
0.0
 10
-17.8004348124
 20
-70.7927738976
 30
0.0
 10
-17.9011012325
 20
-70.8508974391
 30
0.0
  0
SPLINE
  5
4FF
100
AcDbEntity
  8
ASSI
100
AcDbSpline
 62
7
  6
CONTINUOUS
 70
0
 71
3
 72
11
 73
7
 74
0
 42
0.0000001
 43
0.0000001
 44
0.0000000001
 40
0.0
 40
0.0
 40
0.0
 40
0.0
 40
0.2585112383
 40
0.5169194903
 40
0.7666354667
 40
1.0
 40
1.0
 40
1.0
 40
1.0
 10
-18.3619784795
 20
-65.829942188
 30
0.0
 10
-18.1917338543
 20
-66.0521776867
 30
0.0
 10
-17.8809484698
 20
-66.5200238426
 30
0.0
 10
-17.5128772459
 20
-67.2667069518
 30
0.0
 10
-17.2553841137
 20
-68.029783057
 30
0.0
 10
-17.1618791215
 20
-68.5472461064
 30
0.0
 10
-17.1396763222
 20
-68.798986481
 30
0.0
  0
SPLINE
  5
500
100
AcDbEntity
  8
RACCORDO
100
AcDbSpline
 62
7
  6
CONTINUOUS
 70
0
 71
3
 72
14
 73
10
 74
0
 42
0.0000001
 43
0.0000001
 44
0.0000000001
 40
0.0
 40
0.0
 40
0.0
 40
0.0
 40
0.289272196
 40
0.4225367008
 40
0.5484973399
 40
0.66789359
 40
0.7818680298
 40
0.8919524815
 40
1.0
 40
1.0
 40
1.0
 40
1.0
 10
7.6595510681
 20
-70.3808843979
 30
0.0
 10
7.6595510681
 20
-70.8876856865
 30
0.0
 10
7.6003861384
 20
-71.6316043903
 30
0.0
 10
7.3716884433
 20
-72.5666432324
 30
0.0
 10
7.1390282221
 20
-73.1897287657
 30
0.0
 10
6.8424708656
 20
-73.7473040544
 30
0.0
 10
6.4842999268
 20
-74.2337719119
 30
0.0
 10
6.0678431876
 20
-74.6436503165
 30
0.0
 10
5.752657667
 20
-74.8635966375
 30
0.0
 10
5.5887235138
 20
-74.9582501714
 30
0.0
  0
SPLINE
  5
501
100
AcDbEntity
  8
RACCORDO
100
AcDbSpline
 62
7
  6
CONTINUOUS
 70
0
 71
3
 72
11
 73
7
 74
0
 42
0.0000001
 43
0.0000001
 44
0.0000000001
 40
0.0
 40
0.0
 40
0.0
 40
0.0
 40
0.2177759905
 40
0.4509569663
 40
0.7101948341
 40
1.0
 40
1.0
 40
1.0
 40
1.0
 10
-57.0621727607
 20
4.2720800731
 30
0.0
 10
-56.9962036982
 20
4.3101568719
 30
0.0
 10
-56.8446149478
 20
4.3651726881
 30
0.0
 10
-56.5928945981
 20
4.3714342912
 30
0.0
 10
-56.3245716816
 20
4.3067076542
 30
0.0
 10
-56.1500422836
 20
4.2236070182
 30
0.0
 10
-56.0622614635
 20
4.1729234729
 30
0.0
  0
SPLINE
  5
502
100
AcDbEntity
  8
ASSI
100
AcDbSpline
 62
7
  6
CONTINUOUS
 70
0
 71
3
 72
11
 73
7
 74
0
 42
0.0000001
 43
0.0000001
 44
0.0000000001
 40
0.0
 40
0.0
 40
0.0
 40
0.0
 40
0.2809196452
 40
0.5372495414
 40
0.7740981442
 40
1.0
 40
1.0
 40
1.0
 40
1.0
 10
14.1019631002
 20
-54.5378300502
 30
0.0
 10
14.0824986054
 20
-54.6810654273
 30
0.0
 10
14.0241647741
 20
-54.9529712238
 30
0.0
 10
13.8660906052
 20
-55.3217938936
 30
0.0
 10
13.6438597835
 20
-55.6222882205
 30
0.0
 10
13.4536840441
 20
-55.7714652751
 30
0.0
 10
13.3530175158
 20
-55.82958882
 30
0.0
  0
SPLINE
  5
503
100
AcDbEntity
  8
ASSI
100
AcDbSpline
 62
7
  6
CONTINUOUS
 70
0
 71
3
 72
15
 73
11
 74
0
 42
0.0000001
 43
0.0000001
 44
0.0000000001
 40
0.0
 40
0.0
 40
0.0
 40
0.0
 40
0.1168182266
 40
0.2404959796
 40
0.3690071068
 40
0.5000052005
 40
0.6310026039
 40
0.7595116983
 40
0.8831861471
 40
1.0
 40
1.0
 40
1.0
 40
1.0
 10
11.7608320161
 20
-49.7011027912
 30
0.0
 10
11.9150842472
 20
-49.8092776527
 30
0.0
 10
12.2176764917
 20
-50.0538186233
 30
0.0
 10
12.6352507378
 20
-50.4793927081
 30
0.0
 10
13.0202726448
 20
-50.9641830786
 30
0.0
 10
13.3618242436
 20
-51.4945148802
 30
0.0
 10
13.650327987
 20
-52.0554701252
 30
0.0
 10
13.8776532541
 20
-52.631295471
 30
0.0
 10
14.0374163169
 20
-53.2056984129
 30
0.0
 10
14.0978916926
 20
-53.5900102122
 30
0.0
 10
14.1144434063
 20
-53.777677296
 30
0.0
  0
SPLINE
  5
504
100
AcDbEntity
  8
RACCORDO
100
AcDbSpline
 62
7
  6
CONTINUOUS
 70
0
 71
3
 72
14
 73
10
 74
0
 42
0.0000001
 43
0.0000001
 44
0.0000000001
 40
0.0
 40
0.0
 40
0.0
 40
0.0
 40
0.1080446794
 40
0.2181267275
 40
0.3320995546
 40
0.4514952056
 40
0.5774563345
 40
0.7107223693
 40
1.0
 40
1.0
 40
1.0
 40
1.0
 10
-91.1030483747
 20
73.2469957866
 30
0.0
 10
-90.9390939507
 20
73.3416610246
 30
0.0
 10
-90.5909851715
 20
73.5046830494
 30
0.0
 10
-90.0277222223
 20
73.6604403254
 30
0.0
 10
-89.4272613682
 20
73.7274055963
 30
0.0
 10
-88.7960165124
 20
73.7054379505
 30
0.0
 10
-88.1399790109
 20
73.5953588254
 30
0.0
 10
-87.2157168952
 20
73.3258348122
 30
0.0
 10
-86.5417778899
 20
73.005042493
 30
0.0
 10
-86.1028081172
 20
72.7515868478
 30
0.0
  0
SPLINE
  5
505
100
AcDbEntity
  8
RACCORDO
100
AcDbSpline
 62
7
  6
CONTINUOUS
 70
0
 71
3
 72
14
 73
10
 74
0
 42
0.0000001
 43
0.0000001
 44
0.0000000001
 40
0.0
 40
0.0
 40
0.0
 40
0.0
 40
0.1080475185
 40
0.2181319702
 40
0.33210641
 40
0.4515026601
 40
0.5774632992
 40
0.710727804
 40
1.0
 40
1.0
 40
1.0
 40
1.0
 10
-92.1637085465
 20
72.6345838966
 30
0.0
 10
-92.3276426997
 20
72.5399303628
 30
0.0
 10
-92.6428282203
 20
72.3199840418
 30
0.0
 10
-93.0592849595
 20
71.9101056372
 30
0.0
 10
-93.4174558982
 20
71.4236377797
 30
0.0
 10
-93.7140132548
 20
70.866062491
 30
0.0
 10
-93.946673476
 20
70.2429769577
 30
0.0
 10
-94.1753711711
 20
69.3079381156
 30
0.0
 10
-94.2345361008
 20
68.5640194118
 30
0.0
 10
-94.2345361008
 20
68.0572181232
 30
0.0
  0
SPLINE
  5
506
100
AcDbEntity
  8
RACCORDO
100
AcDbSpline
 62
7
  6
CONTINUOUS
 70
0
 71
3
 72
15
 73
11
 74
0
 42
0.0000001
 43
0.0000001
 44
0.0000000001
 40
0.0
 40
0.0
 40
0.0
 40
0.0
 40
0.1141566514
 40
0.237329741
 40
0.3669809462
 40
0.5000060513
 40
0.6330303149
 40
0.7626790615
 40
0.8858482781
 40
1.0
 40
1.0
 40
1.0
 40
1.0
 10
0.5884832563
 20
22.6971217058
 30
0.0
 10
1.0725529697
 20
22.4176259201
 30
0.0
 10
2.028677172
 20
21.7473606972
 30
0.0
 10
3.3442563165
 20
20.5165011602
 30
0.0
 10
4.556638728
 20
19.0615521072
 30
0.0
 10
5.6201553951
 20
17.4370889998
 30
0.0
 10
6.4952186182
 20
15.7038360017
 30
0.0
 10
7.1490337902
 20
13.9264385905
 30
0.0
 10
7.5571723342
 20
12.1717336712
 30
0.0
 10
7.6595510681
 20
11.0086134296
 30
0.0
 10
7.6595510681
 20
10.4496730046
 30
0.0
  0
SPLINE
  5
507
100
AcDbEntity
  8
0
100
AcDbSpline
 62
7
  6
CONTINUOUS
 70
0
 71
3
 72
12
 73
8
 74
0
 42
0.0000001
 43
0.0000001
 44
0.0000000001
 40
0.0
 40
0.0
 40
0.0
 40
0.0
 40
0.2406017875
 40
0.5032682062
 40
0.7640156493
 40
0.8863732124
 40
1.0
 40
1.0
 40
1.0
 40
1.0
 10
-27.2624153532
 20
-11.0247357013
 30
0.0
 10
-27.4058979279
 20
-10.9322466712
 30
0.0
 10
-27.6751982292
 20
-10.6901240916
 30
0.0
 10
-27.9885637604
 20
-10.2436692271
 30
0.0
 10
-28.169819738
 20
-9.8180737798
 30
0.0
 10
-28.2472871973
 20
-9.4734766232
 30
0.0
 10
-28.2614734161
 20
-9.3058753925
 30
0.0
 10
-28.2614734161
 20
-9.2252563556
 30
0.0
  0
SPLINE
  5
508
100
AcDbEntity
  8
ASSI
100
AcDbSpline
 62
7
  6
CONTINUOUS
 70
0
 71
3
 72
11
 73
7
 74
0
 42
0.0000001
 43
0.0000001
 44
0.0000000001
 40
0.0
 40
0.0
 40
0.0
 40
0.0
 40
0.2809188999
 40
0.5372548416
 40
0.7741030565
 40
1.0
 40
1.0
 40
1.0
 40
1.0
 10
-63.1140749165
 20
63.9364777952
 30
0.0
 10
-63.1335311198
 20
63.793233334
 30
0.0
 10
-63.191855069
 20
63.5213066473
 30
0.0
 10
-63.3499101994
 20
63.1524480834
 30
0.0
 10
-63.5721358912
 20
62.8519227007
 30
0.0
 10
-63.7623101566
 20
62.7027257313
 30
0.0
 10
-63.8629770953
 20
62.644594655
 30
0.0
  0
SPLINE
  5
509
100
AcDbEntity
  8
0
100
AcDbSpline
 62
7
  6
CONTINUOUS
 70
0
 71
3
 72
17
 73
13
 74
0
 42
0.0000001
 43
0.0000001
 44
0.0000000001
 40
0.0
 40
0.0
 40
0.0
 40
0.0
 40
0.0428588998
 40
0.0874873867
 40
0.1353206708
 40
0.1872854449
 40
0.3045517414
 40
0.4382239605
 40
0.5825723897
 40
0.7297289983
 40
0.871319235
 40
1.0
 40
1.0
 40
1.0
 40
1.0
 10
-29.0115078268
 20
-9.1510663357
 30
0.0
 10
-28.9745281494
 20
-9.1297146672
 30
0.0
 10
-28.8930115721
 20
-9.095830123
 30
0.0
 10
-28.7584508424
 20
-9.0761093291
 30
0.0
 10
-28.613941835
 20
-9.0867340452
 30
0.0
 10
-28.4039737236
 20
-9.1426012786
 30
0.0
 10
-28.1355565827
 20
-9.2893710411
 30
0.0
 10
-27.8389980814
 20
-9.5520129657
 30
0.0
 10
-27.5768616635
 20
-9.8875486122
 30
0.0
 10
-27.3705530409
 20
-10.2688683545
 30
0.0
 10
-27.2366858732
 20
-10.6647021662
 30
0.0
 10
-27.2008132443
 20
-10.9342848201
 30
0.0
 10
-27.2008132443
 20
-11.0624920256
 30
0.0
  0
SPLINE
  5
50A
100
AcDbEntity
  8
ASSI
100
AcDbSpline
 62
7
  6
CONTINUOUS
 70
0
 71
3
 72
15
 73
11
 74
0
 42
0.0000001
 43
0.0000001
 44
0.0000000001
 40
0.0
 40
0.0
 40
0.0
 40
0.0
 40
0.1168182631
 40
0.2404960805
 40
0.3690072808
 40
0.5000054001
 40
0.6310027779
 40
0.7595117991
 40
0.8831861835
 40
1.0
 40
1.0
 40
1.0
 40
1.0
 10
-65.4552284895
 20
68.77304285
 30
0.0
 10
-65.3009762103
 20
68.6648679547
 30
0.0
 10
-64.9983838418
 20
68.4203268768
 30
0.0
 10
-64.5808094309
 20
67.9947525579
 30
0.0
 10
-64.1957874146
 20
67.5099619367
 30
0.0
 10
-63.8542358185
 20
66.9796299927
 30
0.0
 10
-63.5657321997
 20
66.4186748167
 30
0.0
 10
-63.3384070951
 20
65.8428496909
 30
0.0
 10
-63.1786441527
 20
65.2684470087
 30
0.0
 10
-63.1181688078
 20
64.8841353704
 30
0.0
 10
-63.1016170993
 20
64.6964683451
 30
0.0
  0
SPLINE
  5
50B
100
AcDbEntity
  8
0
100
AcDbSpline
 62
7
  6
CONTINUOUS
 70
0
 71
3
 72
12
 73
8
 74
0
 42
0.0000001
 43
0.0000001
 44
0.0000000001
 40
0.0
 40
0.0
 40
0.0
 40
0.0
 40
0.2406017875
 40
0.5032682062
 40
0.7640156493
 40
0.8863732124
 40
1.0
 40
1.0
 40
1.0
 40
1.0
 10
-58.3751137255
 20
6.9393464052
 30
0.0
 10
-58.5185963001
 20
7.0318354352
 30
0.0
 10
-58.7878966014
 20
7.2739580148
 30
0.0
 10
-59.1012621326
 20
7.7204128793
 30
0.0
 10
-59.2825181103
 20
8.1460083266
 30
0.0
 10
-59.3599855695
 20
8.4906054832
 30
0.0
 10
-59.3741717883
 20
8.6582067139
 30
0.0
 10
-59.3741717883
 20
8.7388257508
 30
0.0
  0
SPLINE
  5
50C
100
AcDbEntity
  8
0
100
AcDbSpline
 62
7
  6
CONTINUOUS
 70
0
 71
3
 72
17
 73
13
 74
0
 42
0.0000001
 43
0.0000001
 44
0.0000000001
 40
0.0
 40
0.0
 40
0.0
 40
0.0
 40
0.0428588998
 40
0.0874873867
 40
0.1353206708
 40
0.1872854449
 40
0.3045517414
 40
0.4382239605
 40
0.5825723897
 40
0.7297289983
 40
0.871319235
 40
1.0
 40
1.0
 40
1.0
 40
1.0
 10
-60.124206199
 20
8.8130157708
 30
0.0
 10
-60.0872265216
 20
8.8343674392
 30
0.0
 10
-60.0057099443
 20
8.8682519834
 30
0.0
 10
-59.8711492146
 20
8.8879727773
 30
0.0
 10
-59.7266402072
 20
8.8773480612
 30
0.0
 10
-59.5166720958
 20
8.8214808278
 30
0.0
 10
-59.248254955
 20
8.6747110653
 30
0.0
 10
-58.9516964537
 20
8.4120691407
 30
0.0
 10
-58.6895600357
 20
8.0765334942
 30
0.0
 10
-58.4832514131
 20
7.695213752
 30
0.0
 10
-58.3493842454
 20
7.2993799403
 30
0.0
 10
-58.3135116166
 20
7.0297972863
 30
0.0
 10
-58.3135116166
 20
6.9015900809
 30
0.0
  0
SPLINE
  5
50D
100
AcDbEntity
  8
RACCORDO
100
AcDbSpline
 62
7
  6
CONTINUOUS
 70
0
 71
3
 72
18
 73
14
 74
0
 42
0.0000001
 43
0.0000001
 44
0.0000000001
 40
0.0
 40
0.0
 40
0.0
 40
0.0
 40
0.0443780525
 40
0.0897078933
 40
0.1368523628
 40
0.1864984152
 40
0.2391370595
 40
0.2950595802
 40
0.4169052186
 40
0.5513882627
 40
0.6959453568
 40
0.8469078389
 40
1.0
 40
1.0
 40
1.0
 40
1.0
 10
-26.2614874086
 20
-13.9141871245
 30
0.0
 10
-26.3316941448
 20
-13.9547208941
 30
0.0
 10
-26.4815020236
 20
-14.0237438741
 30
0.0
 10
-26.7247656526
 20
-14.0863947579
 30
0.0
 10
-26.9846022896
 20
-14.1082580499
 30
0.0
 10
-27.2578626451
 20
-14.0893695396
 30
0.0
 10
-27.541584202
 20
-14.0302867055
 30
0.0
 10
-27.9410953073
 20
-13.8951606994
 30
0.0
 10
-28.4479259174
 20
-13.6249776729
 30
0.0
 10
-29.0289641539
 20
-13.1748506259
 30
0.0
 10
-29.576827477
 20
-12.6085372052
 30
0.0
 10
-30.0682375008
 20
-11.9502729736
 30
0.0
 10
-30.3453171866
 20
-11.4670392252
 30
0.0
 10
-30.4694136327
 20
-11.2164188185
 30
0.0
  0
SPLINE
  5
50E
100
AcDbEntity
  8
RACCORDO
100
AcDbSpline
 62
7
  6
CONTINUOUS
 70
0
 71
3
 72
18
 73
14
 74
0
 42
0.0000001
 43
0.0000001
 44
0.0000000001
 40
0.0
 40
0.0
 40
0.0
 40
0.0
 40
0.044379964
 40
0.0897090387
 40
0.1368537411
 40
0.1865003906
 40
0.239139465
 40
0.2950621336
 40
0.4169078066
 40
0.5513910952
 40
0.6959474018
 40
0.8469077524
 40
1.0
 40
1.0
 40
1.0
 40
1.0
 10
-29.2007403555
 20
-6.3735299891
 30
0.0
 10
-29.1305299653
 20
-6.3329975452
 30
0.0
 10
-28.980718916
 20
-6.2639805367
 30
0.0
 10
-28.7374524063
 20
-6.2013439736
 30
0.0
 10
-28.4776184368
 20
-6.1794877869
 30
0.0
 10
-28.2043596184
 20
-6.1983877358
 30
0.0
 10
-27.9206422537
 20
-6.25748264
 30
0.0
 10
-27.5211372838
 20
-6.3926130843
 30
0.0
 10
-27.0143140658
 20
-6.6627975662
 30
0.0
 10
-26.4332938793
 20
-7.1129312895
 30
0.0
 10
-25.8854388895
 20
-7.6792319561
 30
0.0
 10
-25.3940427782
 20
-8.3374879108
 30
0.0
 10
-25.1169680283
 20
-8.8207120753
 30
0.0
 10
-24.9928730278
 20
-9.0713295627
 30
0.0
  0
SPLINE
  5
50F
100
AcDbEntity
  8
ASSI
100
AcDbSpline
 62
7
  6
CONTINUOUS
 70
0
 71
3
 72
12
 73
8
 74
0
 42
0.0000001
 43
0.0000001
 44
0.0000000001
 40
0.0
 40
0.0
 40
0.0
 40
0.0
 40
0.1136267876
 40
0.2359843507
 40
0.4967317938
 40
0.7593982125
 40
1.0
 40
1.0
 40
1.0
 40
1.0
 10
-3.159182684
 20
13.022158037
 30
0.0
 10
-3.159182684
 20
12.941539
 30
0.0
 10
-3.1449964652
 20
12.7739377693
 30
0.0
 10
-3.0675290059
 20
12.4293406128
 30
0.0
 10
-2.8862730283
 20
12.0037451654
 30
0.0
 10
-2.5729074971
 20
11.5572903009
 30
0.0
 10
-2.3036071958
 20
11.3151677213
 30
0.0
 10
-2.1601246211
 20
11.2226786913
 30
0.0
  0
SPLINE
  5
510
100
AcDbEntity
  8
ASSI
100
AcDbSpline
 62
7
  6
CONTINUOUS
 70
0
 71
3
 72
12
 73
8
 74
0
 42
0.0000001
 43
0.0000001
 44
0.0000000001
 40
0.0
 40
0.0
 40
0.0
 40
0.0
 40
0.1136267876
 40
0.2359843507
 40
0.4967317938
 40
0.7593982125
 40
1.0
 40
1.0
 40
1.0
 40
1.0
 10
-3.159182684
 20
-60.4601668744
 30
0.0
 10
-3.159182684
 20
-60.5407859113
 30
0.0
 10
-3.1449964652
 20
-60.708387142
 30
0.0
 10
-3.0675290059
 20
-61.0529842986
 30
0.0
 10
-2.8862730283
 20
-61.478579746
 30
0.0
 10
-2.5729074971
 20
-61.9250346104
 30
0.0
 10
-2.3036071958
 20
-62.1671571901
 30
0.0
 10
-2.1601246211
 20
-62.2596462201
 30
0.0
  0
SPLINE
  5
511
100
AcDbEntity
  8
ASSI
100
AcDbSpline
 62
7
  6
CONTINUOUS
 70
0
 71
3
 72
12
 73
8
 74
0
 42
0.0000001
 43
0.0000001
 44
0.0000000001
 40
0.0
 40
0.0
 40
0.0
 40
0.0
 40
0.1136267876
 40
0.2359843507
 40
0.4967317938
 40
0.7593982125
 40
1.0
 40
1.0
 40
1.0
 40
1.0
 10
-84.4764625205
 20
59.9737362697
 30
0.0
 10
-84.4764625205
 20
59.8931172327
 30
0.0
 10
-84.4622763016
 20
59.725516002
 30
0.0
 10
-84.3848088424
 20
59.3809188455
 30
0.0
 10
-84.2035528648
 20
58.9553233981
 30
0.0
 10
-83.8901873335
 20
58.5088685336
 30
0.0
 10
-83.6208870322
 20
58.266745954
 30
0.0
 10
-83.4774044576
 20
58.174256924
 30
0.0
  0
SPLINE
  5
512
100
AcDbEntity
  8
RACCORDO
100
AcDbSpline
 62
7
  6
CONTINUOUS
 70
0
 71
3
 72
18
 73
14
 74
0
 42
0.0000001
 43
0.0000001
 44
0.0000000001
 40
0.0
 40
0.0
 40
0.0
 40
0.0
 40
0.0443780525
 40
0.0897078933
 40
0.1368523628
 40
0.1864984152
 40
0.2391370595
 40
0.2950595802
 40
0.4169052186
 40
0.5513882627
 40
0.6959453568
 40
0.8469078389
 40
1.0
 40
1.0
 40
1.0
 40
1.0
 10
-57.3741857808
 20
4.049894982
 30
0.0
 10
-57.444392517
 20
4.0093612123
 30
0.0
 10
-57.5942003959
 20
3.9403382324
 30
0.0
 10
-57.8374640249
 20
3.8776873486
 30
0.0
 10
-58.0973006618
 20
3.8558240565
 30
0.0
 10
-58.3705610174
 20
3.8747125668
 30
0.0
 10
-58.6542825742
 20
3.9337954009
 30
0.0
 10
-59.0537936795
 20
4.068921407
 30
0.0
 10
-59.5606242896
 20
4.3391044335
 30
0.0
 10
-60.1416625261
 20
4.7892314805
 30
0.0
 10
-60.6895258492
 20
5.3555449012
 30
0.0
 10
-61.180935873
 20
6.0138091328
 30
0.0
 10
-61.4580155588
 20
6.4970428812
 30
0.0
 10
-61.5821120049
 20
6.7476632879
 30
0.0
  0
SPLINE
  5
513
100
AcDbEntity
  8
ASSI
100
AcDbSpline
 62
7
  6
CONTINUOUS
 70
0
 71
3
 72
12
 73
8
 74
0
 42
0.0000001
 43
0.0000001
 44
0.0000000001
 40
0.0
 40
0.0
 40
0.0
 40
0.0
 40
0.1136267876
 40
0.2359843507
 40
0.4967317938
 40
0.7593982125
 40
1.0
 40
1.0
 40
1.0
 40
1.0
 10
-84.4764625205
 20
-13.5085886417
 30
0.0
 10
-84.4764625205
 20
-13.5892076787
 30
0.0
 10
-84.4622763016
 20
-13.7568089094
 30
0.0
 10
-84.3848088424
 20
-14.1014060659
 30
0.0
 10
-84.2035528648
 20
-14.5270015133
 30
0.0
 10
-83.8901873335
 20
-14.9734563777
 30
0.0
 10
-83.6208870322
 20
-15.2155789574
 30
0.0
 10
-83.4774044576
 20
-15.3080679874
 30
0.0
  0
SPLINE
  5
514
100
AcDbEntity
  8
RACCORDO
100
AcDbSpline
 62
7
  6
CONTINUOUS
 70
0
 71
3
 72
18
 73
14
 74
0
 42
0.0000001
 43
0.0000001
 44
0.0000000001
 40
0.0
 40
0.0
 40
0.0
 40
0.0
 40
0.044379964
 40
0.0897090387
 40
0.1368537411
 40
0.1865003906
 40
0.239139465
 40
0.2950621336
 40
0.4169078066
 40
0.5513910952
 40
0.6959474018
 40
0.8469077524
 40
1.0
 40
1.0
 40
1.0
 40
1.0
 10
-60.3134387277
 20
11.5905521173
 30
0.0
 10
-60.2432283375
 20
11.6310845612
 30
0.0
 10
-60.0934172882
 20
11.7001015697
 30
0.0
 10
-59.8501507786
 20
11.7627381329
 30
0.0
 10
-59.590316809
 20
11.7845943195
 30
0.0
 10
-59.3170579906
 20
11.7656943707
 30
0.0
 10
-59.0333406259
 20
11.7065994664
 30
0.0
 10
-58.633835656
 20
11.5714690221
 30
0.0
 10
-58.127012438
 20
11.3012845402
 30
0.0
 10
-57.5459922515
 20
10.8511508169
 30
0.0
 10
-56.9981372617
 20
10.2848501503
 30
0.0
 10
-56.5067411504
 20
9.6265941956
 30
0.0
 10
-56.2296664005
 20
9.1433700311
 30
0.0
 10
-56.1055714
 20
8.8927525438
 30
0.0
  0
SPLINE
  5
515
100
AcDbEntity
  8
ASSI
100
AcDbSpline
 62
7
  6
CONTINUOUS
 70
0
 71
3
 72
15
 73
11
 74
0
 42
0.0000001
 43
0.0000001
 44
0.0000000001
 40
0.0
 40
0.0
 40
0.0
 40
0.0
 40
0.0931919481
 40
0.1967081282
 40
0.3115249589
 40
0.4370152905
 40
0.5713963688
 40
0.7120999141
 40
0.8560613485
 40
1.0
 40
1.0
 40
1.0
 40
1.0
 10
-88.2399929952
 20
2.1550000353
 30
0.0
 10
-88.3996201009
 20
2.1423397445
 30
0.0
 10
-88.7413309961
 20
2.1658400575
 30
0.0
 10
-89.2558525507
 20
2.3255843185
 30
0.0
 10
-89.7806923943
 20
2.6029262173
 30
0.0
 10
-90.2991741422
 20
2.9881047778
 30
0.0
 10
-90.7948495892
 20
3.4681388693
 30
0.0
 10
-91.2512601489
 20
4.0270095662
 30
0.0
 10
-91.6530719875
 20
4.6457853434
 30
0.0
 10
-91.8773388188
 20
5.08799472
 30
0.0
 10
-91.9768778899
 20
5.3144046034
 30
0.0
  0
SPLINE
  5
516
100
AcDbEntity
  8
ASSI
100
AcDbSpline
 62
7
  6
CONTINUOUS
 70
0
 71
3
 72
25
 73
21
 74
0
 42
0.0000001
 43
0.0000001
 44
0.0000000001
 40
0.0
 40
0.0
 40
0.0
 40
0.0
 40
0.0225437172
 40
0.0455136223
 40
0.0940793909
 40
0.1480752401
 40
0.2084341759
 40
0.2749990657
 40
0.3468222294
 40
0.4224236798
 40
0.4999933086
 40
0.5775632752
 40
0.6531657638
 40
0.7249908135
 40
0.7915576257
 40
0.8519192482
 40
0.9059171802
 40
0.9544846334
 40
0.9774549189
 40
1.0
 40
1.0
 40
1.0
 40
1.0
 10
-92.6991528493
 20
8.6528246824
 30
0.0
 10
-92.6335803167
 20
8.6906883516
 30
0.0
 10
-92.494337427
 20
8.7558873962
 30
0.0
 10
-92.1885889607
 20
8.8405544784
 30
0.0
 10
-91.7603531502
 20
8.8519637815
 30
0.0
 10
-91.2239044255
 20
8.7222431435
 30
0.0
 10
-90.6719830454
 20
8.4597292874
 30
0.0
 10
-90.1232882824
 20
8.075041927
 30
0.0
 10
-89.5968703749
 20
7.5826538027
 30
0.0
 10
-89.1119497622
 20
7.0007327286
 30
0.0
 10
-88.6864992297
 20
6.3509720715
 30
0.0
 10
-88.336443238
 20
5.6576725583
 30
0.0
 10
-88.0748775296
 20
4.9467724072
 30
0.0
 10
-87.9115774554
 20
4.2446903745
 30
0.0
 10
-87.8527118708
 20
3.5771477397
 30
0.0
 10
-87.901241894
 20
2.9678831234
 30
0.0
 10
-88.0570652171
 20
2.4384061767
 30
0.0
 10
-88.2810025731
 20
2.0731931274
 30
0.0
 10
-88.50717617
 20
1.8507004204
 30
0.0
 10
-88.6332464866
 20
1.7626795015
 30
0.0
 10
-88.6988228829
 20
1.7248133623
 30
0.0
  0
SPLINE
  5
517
100
AcDbEntity
  8
ASSI
100
AcDbSpline
 62
7
  6
CONTINUOUS
 70
0
 71
3
 72
23
 73
19
 74
0
 42
0.0000001
 43
0.0000001
 44
0.0000000001
 40
0.0
 40
0.0
 40
0.0
 40
0.0
 40
0.0459562578
 40
0.096099316
 40
0.1513122393
 40
0.2117665839
 40
0.2770768235
 40
0.3464482063
 40
0.4187982001
 40
0.4928567506
 40
0.5672537812
 40
0.6405999508
 40
0.7115662363
 40
0.7789675768
 40
0.8418558935
 40
0.8996300952
 40
0.952171334
 40
1.0
 40
1.0
 40
1.0
 40
1.0
 10
5.7172128124
 20
-11.1308510466
 30
0.0
 10
5.5821412918
 20
-11.1591906268
 30
0.0
 10
5.2904234906
 20
-11.1783359714
 30
0.0
 10
4.8394209048
 20
-11.1010586496
 30
0.0
 10
4.3712869393
 20
-10.9239442011
 30
0.0
 10
3.8981182062
 20
-10.6527366855
 30
0.0
 10
3.4319382234
 20
-10.2951457436
 30
0.0
 10
2.985166711
 20
-9.8609425734
 30
0.0
 10
2.5699066466
 20
-9.3620100526
 30
0.0
 10
2.197544834
 20
-8.8120599735
 30
0.0
 10
1.8783401388
 20
-8.2262518866
 30
0.0
 10
1.6210982069
 20
-7.6207413764
 30
0.0
 10
1.4329067111
 20
-7.0121894566
 30
0.0
 10
1.3189601836
 20
-6.4172241722
 30
0.0
 10
1.282448716
 20
-5.8519501827
 30
0.0
 10
1.3248177913
 20
-5.3312737928
 30
0.0
 10
1.4456082919
 20
-4.869180414
 30
0.0
 10
1.5835364766
 20
-4.5974192487
 30
0.0
 10
1.6649150808
 20
-4.4790608951
 30
0.0
  0
SPLINE
  5
518
100
AcDbEntity
  8
ASSI
100
AcDbSpline
 62
7
  6
CONTINUOUS
 70
0
 71
3
 72
18
 73
14
 74
0
 42
0.0000001
 43
0.0000001
 44
0.0000000001
 40
0.0
 40
0.0
 40
0.0
 40
0.0
 40
0.0439665735
 40
0.0889664532
 40
0.1359179934
 40
0.1855444586
 40
0.2383419912
 40
0.2945844078
 40
0.4173936098
 40
0.5529140286
 40
0.6980734301
 40
0.848682081
 40
1.0
 40
1.0
 40
1.0
 40
1.0
 10
1.0631776784
 20
-4.6608915271
 30
0.0
 10
1.1366427009
 20
-4.6184702151
 30
0.0
 10
1.2939579041
 20
-4.5467677178
 30
0.0
 10
1.5500410592
 20
-4.4841434252
 30
0.0
 10
1.823912001
 20
-4.4662691003
 30
0.0
 10
2.1119436286
 20
-4.4929830759
 30
0.0
 10
2.410752608
 20
-4.5635550369
 30
0.0
 10
2.8311105209
 20
-4.719291695
 30
0.0
 10
3.3614311362
 20
-5.0232396374
 30
0.0
 10
3.9635385865
 20
-5.5213282614
 30
0.0
 10
4.5233939232
 20
-6.1406322331
 30
0.0
 10
5.0149416019
 20
-6.8521878185
 30
0.0
 10
5.2843868674
 20
-7.370793746
 30
0.0
 10
5.4018928572
 20
-7.6380708781
 30
0.0
  0
SPLINE
  5
519
100
AcDbEntity
  8
ASSI
100
AcDbSpline
 62
7
  6
CONTINUOUS
 70
0
 71
3
 72
11
 73
7
 74
0
 42
0.0000001
 43
0.0000001
 44
0.0000000001
 40
0.0
 40
0.0
 40
0.0
 40
0.0
 40
0.2237709161
 40
0.4596147516
 40
0.7166738998
 40
1.0
 40
1.0
 40
1.0
 40
1.0
 10
12.2923578595
 20
-56.4420004123
 30
0.0
 10
12.1857088919
 20
-56.5035781732
 30
0.0
 10
11.9462245434
 20
-56.5974016606
 30
0.0
 10
11.5490779404
 20
-56.6332407895
 30
0.0
 10
11.1234130346
 20
-56.5686703364
 30
0.0
 10
10.8421772373
 20
-56.4664887056
 30
0.0
 10
10.7001718443
 20
-56.4020907682
 30
0.0
  0
SPLINE
  5
51A
100
AcDbEntity
  8
ASSI
100
AcDbSpline
 62
7
  6
CONTINUOUS
 70
0
 71
3
 72
11
 73
7
 74
0
 42
0.0000001
 43
0.0000001
 44
0.0000000001
 40
0.0
 40
0.0
 40
0.0
 40
0.0
 40
0.2258896253
 40
0.4627343273
 40
0.7190726952
 40
1.0
 40
1.0
 40
1.0
 40
1.0
 10
9.6029019532
 20
-49.3344648014
 30
0.0
 10
9.7035956184
 20
-49.2763327818
 30
0.0
 10
9.9279376586
 20
-49.1862099932
 30
0.0
 10
10.2993984632
 20
-49.1440188954
 30
0.0
 10
10.6979625706
 20
-49.1916019645
 30
0.0
 10
10.9626817811
 20
-49.2770959855
 30
0.0
 10
11.0964946727
 20
-49.3318931333
 30
0.0
  0
SPLINE
  5
51B
100
AcDbEntity
  8
0
100
AcDbSpline
 62
7
  6
CONTINUOUS
 70
0
 71
3
 72
11
 73
7
 74
0
 42
0.0000001
 43
0.0000001
 44
0.0000000001
 40
0.0
 40
0.0
 40
0.0
 40
0.0
 40
0.2461929219
 40
0.5000035187
 40
0.7538123071
 40
1.0
 40
1.0
 40
1.0
 40
1.0
 10
-41.5197255634
 20
2.2540337026
 30
0.0
 10
-41.277656624
 20
2.009832849
 30
0.0
 10
-40.8207719693
 20
1.4785128077
 30
0.0
 10
-40.2384267009
 20
0.5983820019
 30
0.0
 10
-39.7673866143
 20
-0.3460025173
 30
0.0
 10
-39.5356974584
 20
-1.0073278357
 30
0.0
 10
-39.4452521056
 20
-1.3390597216
 30
0.0
  0
SPLINE
  5
51C
100
AcDbEntity
  8
ASSI
100
AcDbSpline
 62
7
  6
CONTINUOUS
 70
0
 71
3
 72
11
 73
7
 74
0
 42
0.0000001
 43
0.0000001
 44
0.0000000001
 40
0.0
 40
0.0
 40
0.0
 40
0.0
 40
0.2237687949
 40
0.4596131128
 40
0.7166747135
 40
1.0
 40
1.0
 40
1.0
 40
1.0
 10
-96.1778856829
 20
47.0107992821
 30
0.0
 10
-96.284532236
 20
46.9492303911
 30
0.0
 10
-96.5240092052
 20
46.8554225416
 30
0.0
 10
-96.9211396648
 20
46.819597049
 30
0.0
 10
-97.3467854906
 20
46.8841732327
 30
0.0
 10
-97.6280095837
 20
46.9863507376
 30
0.0
 10
-97.7700083897
 20
47.050745688
 30
0.0
  0
SPLINE
  5
51D
100
AcDbEntity
  8
ASSI
100
AcDbSpline
 62
7
  6
CONTINUOUS
 70
0
 71
3
 72
11
 73
7
 74
0
 42
0.0000001
 43
0.0000001
 44
0.0000000001
 40
0.0
 40
0.0
 40
0.0
 40
0.0
 40
0.225894598
 40
0.4627396805
 40
0.7190719871
 40
1.0
 40
1.0
 40
1.0
 40
1.0
 10
-98.8673423767
 20
54.1183344352
 30
0.0
 10
-98.7666555131
 20
54.1764697214
 30
0.0
 10
-98.5423301191
 20
54.2666032418
 30
0.0
 10
-98.1708941658
 20
54.3088139956
 30
0.0
 10
-97.7723522507
 20
54.2612652891
 30
0.0
 10
-97.5076465973
 20
54.1757904317
 30
0.0
 10
-97.3738376305
 20
54.1210051084
 30
0.0
  0
SPLINE
  5
51E
100
AcDbEntity
  8
ASSI
100
AcDbSpline
 62
7
  6
CONTINUOUS
 70
0
 71
3
 72
11
 73
7
 74
0
 42
0.0000001
 43
0.0000001
 44
0.0000000001
 40
0.0
 40
0.0
 40
0.0
 40
0.0
 40
0.223770913
 40
0.4596147449
 40
0.7166739825
 40
1.0
 40
1.0
 40
1.0
 40
1.0
 10
-18.9617616848
 20
-71.4633094911
 30
0.0
 10
-19.0684106605
 20
-71.5248872658
 30
0.0
 10
-19.3078950251
 20
-71.618710766
 30
0.0
 10
-19.7050417167
 20
-71.6545500657
 30
0.0
 10
-20.1307066683
 20
-71.5899794691
 30
0.0
 10
-20.4119425146
 20
-71.48779788
 30
0.0
 10
-20.5539478841
 20
-71.4233999532
 30
0.0
  0
SPLINE
  5
51F
100
AcDbEntity
  8
ASSI
100
AcDbSpline
 62
7
  6
CONTINUOUS
 70
0
 71
3
 72
11
 73
7
 74
0
 42
0.0000001
 43
0.0000001
 44
0.0000000001
 40
0.0
 40
0.0
 40
0.0
 40
0.0
 40
0.2258945397
 40
0.4627396335
 40
0.7190719595
 40
1.0
 40
1.0
 40
1.0
 40
1.0
 10
-67.6132236284
 20
69.1396430544
 30
0.0
 10
-67.5125367079
 20
69.1977784326
 30
0.0
 10
-67.2882111924
 20
69.2879122758
 30
0.0
 10
-66.9167748444
 20
69.3301231981
 30
0.0
 10
-66.5182324591
 20
69.2825745015
 30
0.0
 10
-66.2535265075
 20
69.1970994942
 30
0.0
 10
-66.1197173927
 20
69.1423140833
 30
0.0
  0
SPLINE
  5
520
100
AcDbEntity
  8
ASSI
100
AcDbSpline
 62
7
  6
CONTINUOUS
 70
0
 71
3
 72
11
 73
7
 74
0
 42
0.0000001
 43
0.0000001
 44
0.0000000001
 40
0.0
 40
0.0
 40
0.0
 40
0.0
 40
0.2237764509
 40
0.4596228246
 40
0.7166803377
 40
1.0
 40
1.0
 40
1.0
 40
1.0
 10
-68.6738835197
 20
68.5272313264
 30
0.0
 10
-68.7805171646
 20
68.4656624034
 30
0.0
 10
-68.9814762539
 20
68.3051928622
 30
0.0
 10
-69.2110513897
 20
67.9792270912
 30
0.0
 10
-69.3679462716
 20
67.5783798468
 30
0.0
 10
-69.4200733051
 20
67.2837877394
 30
0.0
 10
-69.4353087105
 20
67.1286387217
 30
0.0
  0
SPLINE
  5
521
100
AcDbEntity
  8
ASSI
100
AcDbSpline
 62
7
  6
CONTINUOUS
 70
0
 71
3
 72
22
 73
18
 74
0
 42
0.0000001
 43
0.0000001
 44
0.0000000001
 40
0.0
 40
0.0
 40
0.0
 40
0.0
 40
0.0471419598
 40
0.0986953624
 40
0.1551729562
 40
0.2165241433
 40
0.282265246
 40
0.3515944861
 40
0.4234863898
 40
0.4967712079
 40
0.6423763374
 40
0.7124128626
 40
0.7790875248
 40
0.8415375805
 40
0.8991942008
 40
0.9518925056
 40
1.0
 40
1.0
 40
1.0
 40
1.0
 10
-18.3779630175
 20
26.726850353
 30
0.0
 10
-18.5145330939
 20
26.7160274926
 30
0.0
 10
-18.8039444111
 20
26.7297683476
 30
0.0
 10
-19.2427730746
 20
26.8436097846
 30
0.0
 10
-19.6933291296
 20
27.0468218824
 30
0.0
 10
-20.1447885796
 20
27.3338669327
 30
0.0
 10
-20.5864727045
 20
27.6974395424
 30
0.0
 10
-21.0074869891
 20
28.1284270161
 30
0.0
 10
-21.3974324803
 20
28.6161030958
 30
0.0
 10
-21.8613123471
 20
29.3234255649
 30
0.0
 10
-22.2248979116
 20
30.0868885717
 30
0.0
 10
-22.4660154649
 20
30.8722641808
 30
0.0
 10
-22.5766542262
 20
31.4416487434
 30
0.0
 10
-22.6165660402
 20
31.9844114105
 30
0.0
 10
-22.5844199982
 20
32.487478225
 30
0.0
 10
-22.4805299549
 20
32.9384074254
 30
0.0
 10
-22.3589662509
 20
33.2079660115
 30
0.0
 10
-22.2863840197
 20
33.3274525174
 30
0.0
  0
SPLINE
  5
522
100
AcDbEntity
  8
ASSI
100
AcDbSpline
 62
7
  6
CONTINUOUS
 70
0
 71
3
 72
9
 73
5
 74
0
 42
0.0000001
 43
0.0000001
 44
0.0000000001
 40
0.0
 40
0.0
 40
0.0
 40
0.0
 40
0.2535241783
 40
1.0
 40
1.0
 40
1.0
 40
1.0
 10
-22.2782018303
 20
33.3407843397
 30
0.0
 10
-22.2691452536
 20
33.3553900607
 30
0.0
 10
-22.2325520744
 20
33.4124548859
 30
0.0
 10
-22.1924297867
 20
33.4672695166
 30
0.0
 10
-22.1605422067
 20
33.5065594605
 30
0.0
  0
SPLINE
  5
523
100
AcDbEntity
  8
0
100
AcDbSpline
 62
7
  6
CONTINUOUS
 70
0
 71
3
 72
15
 73
11
 74
0
 42
0.0000001
 43
0.0000001
 44
0.0000000001
 40
0.0
 40
0.0
 40
0.0
 40
0.0
 40
0.1476575492
 40
0.287809968
 40
0.4205696603
 40
0.5463464684
 40
0.6658953427
 40
0.7803316801
 40
0.8911183219
 40
1.0
 40
1.0
 40
1.0
 40
1.0
 10
-3.8766903441
 20
-25.346018545
 30
0.0
 10
-3.8984085979
 20
-26.1857370599
 30
0.0
 10
-4.0078981602
 20
-27.8218694446
 30
0.0
 10
-4.3891643385
 20
-30.1875792235
 30
0.0
 10
-4.9805497329
 20
-32.3818995973
 30
0.0
 10
-5.7778748971
 20
-34.3852506301
 30
0.0
 10
-6.7753152031
 20
-36.1794753282
 30
0.0
 10
-7.9654964929
 20
-37.7475625166
 30
0.0
 10
-9.3380326539
 20
-39.0732399694
 30
0.0
 10
-10.3705665173
 20
-39.7888123141
 30
0.0
 10
-10.9069806369
 20
-40.0985354469
 30
0.0
  0
SPLINE
  5
524
100
AcDbEntity
  8
0
100
AcDbSpline
 62
7
  6
CONTINUOUS
 70
0
 71
3
 72
15
 73
11
 74
0
 42
0.0000001
 43
0.0000001
 44
0.0000000001
 40
0.0
 40
0.0
 40
0.0
 40
0.0
 40
0.1471692516
 40
0.2873230093
 40
0.4204682041
 40
0.5468531324
 40
0.6670101695
 40
0.7817758277
 40
0.8922966799
 40
1.0
 40
1.0
 40
1.0
 40
1.0
 10
-26.8472598538
 20
-37.8017949532
 30
0.0
 10
-26.1393436463
 20
-38.2105368991
 30
0.0
 10
-24.7260043493
 20
-38.9562476129
 30
0.0
 10
-22.5718366228
 20
-39.8662990437
 30
0.0
 10
-20.4506424601
 20
-40.5337945117
 30
0.0
 10
-18.3792912046
 20
-40.9526573681
 30
0.0
 10
-16.3742549533
 20
-41.1186430316
 30
0.0
 10
-14.4516656542
 20
-41.0290724781
 30
0.0
 10
-12.6283254326
 20
-40.6834998358
 30
0.0
 10
-11.4794230773
 20
-40.2797789319
 30
0.0
 10
-10.9323358986
 20
-40.0377497697
 30
0.0
  0
LINE
  5
525
100
AcDbEntity
  8
0
100
AcDbLine
 62
7
  6
CONTINUOUS
 10
-10.9323358986
 20
-40.0377497697
 11
-10.9047770229
 21
-40.0255144405
  0
SPLINE
  5
526
100
AcDbEntity
  8
0
100
AcDbSpline
 62
7
  6
CONTINUOUS
 70
0
 71
3
 72
21
 73
17
 74
0
 42
0.0000001
 43
0.0000001
 44
0.0000000001
 40
0.0
 40
0.0
 40
0.0
 40
0.0
 40
0.0556928438
 40
0.1138387957
 40
0.1742110267
 40
0.2365261106
 40
0.300458668
 40
0.3656492869
 40
0.4981984288
 40
0.6309974023
 40
0.6964955457
 40
0.7608503426
 40
0.8236938844
 40
0.8846895682
 40
0.9435397309
 40
1.0
 40
1.0
 40
1.0
 40
1.0
 10
-27.9079200255
 20
17.1057719787
 30
0.0
 10
-27.1178455097
 20
16.6495928553
 30
0.0
 10
-25.5420332111
 20
15.6480318081
 30
0.0
 10
-23.2546302277
 20
13.9376943769
 30
0.0
 10
-21.010291869
 20
12.000798069
 30
0.0
 10
-18.8297897454
 20
9.8552652497
 30
0.0
 10
-16.7329631965
 20
7.5207329449
 30
0.0
 10
-14.0604135409
 20
4.1667416834
 30
0.0
 10
-11.0544387792
 20
-0.3512976738
 30
0.0
 10
-8.5607177188
 20
-5.1765834595
 30
0.0
 10
-6.916264457
 20
-9.1546616383
 30
0.0
 10
-5.8818921845
 20
-12.1390121394
 30
0.0
 10
-5.0505077996
 20
-15.1096718725
 30
0.0
 10
-4.4297732723
 20
-18.039534323
 30
0.0
 10
-4.025423107
 20
-20.9014778164
 30
0.0
 10
-3.8999102886
 20
-22.788484024
 30
0.0
 10
-3.8766903441
 20
-23.7130779914
 30
0.0
  0
SPLINE
  5
527
100
AcDbEntity
  8
ASSI
100
AcDbSpline
 62
7
  6
CONTINUOUS
 70
0
 71
3
 72
9
 73
5
 74
0
 42
0.0000001
 43
0.0000001
 44
0.0000000001
 40
0.0
 40
0.0
 40
0.0
 40
0.0
 40
0.4943429035
 40
1.0
 40
1.0
 40
1.0
 40
1.0
 10
-22.8369606507
 20
33.2247056914
 30
0.0
 10
-22.7641165386
 20
33.2667664014
 30
0.0
 10
-22.6082910821
 20
33.3379236109
 30
0.0
 10
-22.4421100412
 20
33.3789786913
 30
0.0
 10
-22.3571317932
 20
33.3924562409
 30
0.0
  0
SPLINE
  5
528
100
AcDbEntity
  8
ASSI
100
AcDbSpline
 62
7
  6
CONTINUOUS
 70
0
 71
3
 72
25
 73
21
 74
0
 42
0.0000001
 43
0.0000001
 44
0.0000000001
 40
0.0
 40
0.0
 40
0.0
 40
0.0
 40
0.0225449786
 40
0.0455150825
 40
0.0940816465
 40
0.1480785937
 40
0.2084386849
 40
0.2750046774
 40
0.3468288015
 40
0.4224307453
 40
0.5000006318
 40
0.5775705142
 40
0.653172452
 40
0.7249965455
 40
0.7915625189
 40
0.8519225861
 40
0.9059195059
 40
0.9544860906
 40
0.9774563676
 40
1.0
 40
1.0
 40
1.0
 40
1.0
 10
-68.7988837172
 20
-29.2327007059
 30
0.0
 10
-68.733306092
 20
-29.1948371473
 30
0.0
 10
-68.5940563047
 20
-29.1296404565
 30
0.0
 10
-68.2882957442
 20
-29.0449855696
 30
0.0
 10
-67.8600515174
 20
-29.0336028513
 30
0.0
 10
-67.3235979774
 20
-29.1633468938
 30
0.0
 10
-66.7716738545
 20
-29.4258834571
 30
0.0
 10
-66.2229798679
 20
-29.8105926683
 30
0.0
 10
-65.6965694311
 20
-30.303002541
 30
0.0
 10
-65.2116518323
 20
-30.8849352303
 30
0.0
 10
-64.7862192191
 20
-31.5347119528
 30
0.0
 10
-64.4361742733
 20
-32.2280164709
 30
0.0
 10
-64.1746248096
 20
-32.9389189978
 30
0.0
 10
-64.0113522635
 20
-33.6409997168
 30
0.0
 10
-63.9524945509
 20
-34.3085335793
 30
0.0
 10
-64.001058923
 20
-34.917785097
 30
0.0
 10
-64.1568969612
 20
-35.4472465278
 30
0.0
 10
-64.3808543946
 20
-35.8124414112
 30
0.0
 10
-64.6070380636
 20
-36.0349140296
 30
0.0
 10
-64.7331114636
 20
-36.122921486
 30
0.0
 10
-64.7986845537
 20
-36.1607838561
 30
0.0
  0
SPLINE
  5
529
100
AcDbEntity
  8
ASSI
100
AcDbSpline
 62
7
  6
CONTINUOUS
 70
0
 71
3
 72
11
 73
7
 74
0
 42
0.0000001
 43
0.0000001
 44
0.0000000001
 40
0.0
 40
0.0
 40
0.0
 40
0.0
 40
0.2177717146
 40
0.4509547665
 40
0.7101913633
 40
1.0
 40
1.0
 40
1.0
 40
1.0
 10
-83.7264281098
 20
-16.0324262216
 30
0.0
 10
-83.6769567201
 20
-16.0038619726
 30
0.0
 10
-83.5843615655
 20
-15.9260549083
 30
0.0
 10
-83.4858785249
 20
-15.7649180846
 30
0.0
 10
-83.4272796666
 20
-15.5663697117
 30
0.0
 10
-83.4158023487
 20
-15.4218465521
 30
0.0
 10
-83.4158023487
 20
-15.3458243117
 30
0.0
  0
SPLINE
  5
52A
100
AcDbEntity
  8
ASSI
100
AcDbSpline
 62
7
  6
CONTINUOUS
 70
0
 71
3
 72
11
 73
7
 74
0
 42
0.0000001
 43
0.0000001
 44
0.0000000001
 40
0.0
 40
0.0
 40
0.0
 40
0.0
 40
0.2177717146
 40
0.4509547665
 40
0.7101913633
 40
1.0
 40
1.0
 40
1.0
 40
1.0
 10
-83.7264281098
 20
57.4498986898
 30
0.0
 10
-83.6769567201
 20
57.4784629387
 30
0.0
 10
-83.5843615655
 20
57.5562700031
 30
0.0
 10
-83.4858785249
 20
57.7174068267
 30
0.0
 10
-83.4272796666
 20
57.9159551996
 30
0.0
 10
-83.4158023487
 20
58.0604783593
 30
0.0
 10
-83.4158023487
 20
58.1365005997
 30
0.0
  0
SPLINE
  5
52B
100
AcDbEntity
  8
ASSI
100
AcDbSpline
 62
7
  6
CONTINUOUS
 70
0
 71
3
 72
11
 73
7
 74
0
 42
0.0000001
 43
0.0000001
 44
0.0000000001
 40
0.0
 40
0.0
 40
0.0
 40
0.0
 40
0.2177717146
 40
0.4509547665
 40
0.7101913633
 40
1.0
 40
1.0
 40
1.0
 40
1.0
 10
-2.4091482734
 20
-62.9840044543
 30
0.0
 10
-2.3596768836
 20
-62.9554402053
 30
0.0
 10
-2.267081729
 20
-62.877633141
 30
0.0
 10
-2.1685986885
 20
-62.7164963173
 30
0.0
 10
-2.1099998302
 20
-62.5179479444
 30
0.0
 10
-2.0985225122
 20
-62.3734247848
 30
0.0
 10
-2.0985225122
 20
-62.2974025444
 30
0.0
  0
SPLINE
  5
52C
100
AcDbEntity
  8
ASSI
100
AcDbSpline
 62
7
  6
CONTINUOUS
 70
0
 71
3
 72
11
 73
7
 74
0
 42
0.0000001
 43
0.0000001
 44
0.0000000001
 40
0.0
 40
0.0
 40
0.0
 40
0.0
 40
0.2177717146
 40
0.4509547665
 40
0.7101913633
 40
1.0
 40
1.0
 40
1.0
 40
1.0
 10
-2.4091482734
 20
10.4983204571
 30
0.0
 10
-2.3596768836
 20
10.526884706
 30
0.0
 10
-2.267081729
 20
10.6046917704
 30
0.0
 10
-2.1685986885
 20
10.7658285941
 30
0.0
 10
-2.1099998302
 20
10.9643769669
 30
0.0
 10
-2.0985225122
 20
11.1089001266
 30
0.0
 10
-2.0985225122
 20
11.184922367
 30
0.0
  0
SPLINE
  5
52D
100
AcDbEntity
  8
0
100
AcDbSpline
 62
7
  6
CONTINUOUS
 70
0
 71
3
 72
15
 73
11
 74
0
 42
0.0000001
 43
0.0000001
 44
0.0000000001
 40
0.0
 40
0.0
 40
0.0
 40
0.0
 40
0.1080100237
 40
0.2180566612
 40
0.3319927138
 40
0.4513500885
 40
0.5772702356
 40
0.7104950174
 40
0.8513899719
 40
1.0
 40
1.0
 40
1.0
 40
1.0
 10
-76.7286645676
 20
37.1624572821
 30
0.0
 10
-76.1712167111
 20
37.4843252013
 30
0.0
 10
-74.9876462993
 20
38.0386217087
 30
0.0
 10
-73.0725385274
 20
38.5682161832
 30
0.0
 10
-71.030970456
 20
38.7959212611
 30
0.0
 10
-68.8846732786
 20
38.7212254207
 30
0.0
 10
-66.6543237933
 20
38.3470019297
 30
0.0
 10
-64.3608321594
 20
37.67828238
 30
0.0
 10
-62.0255734292
 20
36.7225274502
 30
0.0
 10
-60.4947154011
 20
35.9209792201
 30
0.0
 10
-59.7277251789
 20
35.4781286785
 30
0.0
  0
SPLINE
  5
52E
100
AcDbEntity
  8
0
100
AcDbSpline
 62
7
  6
CONTINUOUS
 70
0
 71
3
 72
15
 73
11
 74
0
 42
0.0000001
 43
0.0000001
 44
0.0000000001
 40
0.0
 40
0.0
 40
0.0
 40
0.0
 40
0.1081628928
 40
0.2190622191
 40
0.3340774125
 40
0.4543258819
 40
0.5806343707
 40
0.7135414089
 40
0.853318531
 40
1.0
 40
1.0
 40
1.0
 40
1.0
 10
-76.6897961175
 20
37.1092647781
 30
0.0
 10
-77.1621993764
 20
36.7641889814
 30
0.0
 10
-78.0665024984
 20
35.9904809965
 30
0.0
 10
-79.2558358858
 20
34.6224416727
 30
0.0
 10
-80.2810530822
 20
33.0491433499
 30
0.0
 10
-81.1345280921
 20
31.2843053817
 30
0.0
 10
-81.8107268596
 20
29.3421601804
 30
0.0
 10
-82.3052341978
 20
27.2379327678
 30
0.0
 10
-82.6148806676
 20
24.9880331192
 30
0.0
 10
-82.6948808303
 20
23.4387502996
 30
0.0
 10
-82.7057377397
 20
22.6454766465
 30
0.0
  0
SPLINE
  5
52F
100
AcDbEntity
  8
0
100
AcDbSpline
 62
7
  6
CONTINUOUS
 70
0
 71
3
 72
20
 73
16
 74
0
 42
0.0000001
 43
0.0000001
 44
0.0000000001
 40
0.0
 40
0.0
 40
0.0
 40
0.0
 40
0.0576274639
 40
0.1174242922
 40
0.1791367891
 40
0.2424711959
 40
0.3726292587
 40
0.505100491
 40
0.636866706
 40
0.7015754749
 40
0.765011657
 40
0.8268477556
 40
0.886787821
 40
0.9445740912
 40
1.0
 40
1.0
 40
1.0
 40
1.0
 10
-82.6190733341
 20
19.7654524915
 30
0.0
 10
-82.5536375121
 20
18.855046766
 30
0.0
 10
-82.3503822911
 20
17.0044366707
 30
0.0
 10
-81.8489625354
 20
14.209842136
 30
0.0
 10
-81.1492797273
 20
11.3649410174
 30
0.0
 10
-79.9492121768
 20
7.5029688481
 30
0.0
 10
-77.9924894967
 20
2.7125144641
 30
0.0
 10
-75.0183079614
 20
-2.7933222198
 30
0.0
 10
-72.0636481098
 20
-7.0983204827
 30
0.0
 10
-69.4590856848
 20
-10.2886896411
 30
0.0
 10
-67.4246619033
 20
-12.5082545945
 30
0.0
 10
-65.3153342096
 20
-14.5496185136
 30
0.0
 10
-63.1489041912
 20
-16.3954541591
 30
0.0
 10
-60.9439834443
 20
-18.0299052067
 30
0.0
 10
-59.4273227376
 20
-18.9904749682
 30
0.0
 10
-58.6670650071
 20
-19.4294382534
 30
0.0
  0
LINE
  5
530
100
AcDbEntity
  8
0
100
AcDbLine
 62
7
  6
CONTINUOUS
 10
-4.8371130608
 20
-21.3697090349
 11
-4.9517353552
 21
-21.255183988
  0
LINE
  5
531
100
AcDbEntity
  8
0
100
AcDbLine
 62
7
  6
CONTINUOUS
 10
-80.7609399263
 20
22.4677570482
 11
-80.5625895057
 21
22.401575572
  0
SPLINE
  5
532
100
AcDbEntity
  8
0
100
AcDbSpline
 62
7
  6
CONTINUOUS
 70
0
 71
3
 72
9
 73
5
 74
0
 42
0.0000001
 43
0.0000001
 44
0.0000000001
 40
0.0
 40
0.0
 40
0.0
 40
0.0
 40
0.2501037786
 40
1.0
 40
1.0
 40
1.0
 40
1.0
 10
-83.2639801135
 20
22.6957325956
 30
0.0
 10
-83.0552963076
 20
22.6768427164
 30
0.0
 10
-82.2209170959
 20
22.6012080834
 30
0.0
 10
-81.3865787609
 20
22.5251221483
 30
0.0
 10
-80.7609399263
 20
22.4677570482
 30
0.0
  0
SPLINE
  5
533
100
AcDbEntity
  8
0
100
AcDbSpline
 62
7
  6
CONTINUOUS
 70
0
 71
3
 72
8
 73
4
 74
0
 42
0.0000001
 43
0.0000001
 44
0.0000000001
 40
0.0
 40
0.0
 40
0.0
 40
0.0
 40
1.0
 40
1.0
 40
1.0
 40
1.0
 10
-3.9212343165
 20
-22.6635318641
 30
0.0
 10
-4.2262508578
 20
-22.2320620798
 30
0.0
 10
-4.5315285979
 20
-21.8007767806
 30
0.0
 10
-4.8371130608
 20
-21.3697090349
 30
0.0
  0
SPLINE
  5
534
100
AcDbEntity
  8
RACCORDO
100
AcDbSpline
 62
7
  6
CONTINUOUS
 70
0
 71
3
 72
11
 73
7
 74
0
 42
0.0000001
 43
0.0000001
 44
0.0000000001
 40
0.0
 40
0.0
 40
0.0
 40
0.0
 40
0.2817455306
 40
0.5410519147
 40
0.7792125784
 40
1.0
 40
1.0
 40
1.0
 40
1.0
 10
-61.6254219414
 20
11.4674923588
 30
0.0
 10
-61.5580486788
 20
11.4285918814
 30
0.0
 10
-61.4238461847
 20
11.3617116254
 30
0.0
 10
-61.2182183246
 20
11.2952507423
 30
0.0
 10
-61.0205440291
 20
11.2683876139
 30
0.0
 10
-60.8928916457
 20
11.2781927726
 30
0.0
 10
-60.8331509216
 20
11.2903495955
 30
0.0
  0
SPLINE
  5
535
100
AcDbEntity
  8
RACCORDO
100
AcDbSpline
 62
7
  6
CONTINUOUS
 70
0
 71
3
 72
11
 73
7
 74
0
 42
0.0000001
 43
0.0000001
 44
0.0000000001
 40
0.0
 40
0.0
 40
0.0
 40
0.0
 40
0.2277629582
 40
0.4751789645
 40
0.7353578162
 40
1.0
 40
1.0
 40
1.0
 40
1.0
 10
-62.6860821132
 20
7.9974345001
 30
0.0
 10
-62.5750509073
 20
7.9333264733
 30
0.0
 10
-62.3566431388
 20
7.7761026351
 30
0.0
 10
-62.0615695151
 20
7.4839043741
 30
0.0
 10
-61.7966423652
 20
7.1377012785
 30
0.0
 10
-61.6482154609
 20
6.8811632836
 30
0.0
 10
-61.5821120049
 20
6.7476632879
 30
0.0
  0
SPLINE
  5
536
100
AcDbEntity
  8
RACCORDO
100
AcDbSpline
 62
7
  6
CONTINUOUS
 70
0
 71
3
 72
11
 73
7
 74
0
 42
0.0000001
 43
0.0000001
 44
0.0000000001
 40
0.0
 40
0.0
 40
0.0
 40
0.0
 40
0.2646421838
 40
0.5248210355
 40
0.7722370418
 40
1.0
 40
1.0
 40
1.0
 40
1.0
 10
-56.1055714
 20
8.8927525438
 30
0.0
 10
-56.039467944
 20
8.7592525481
 30
0.0
 10
-55.8910410397
 20
8.5027145532
 30
0.0
 10
-55.6261138898
 20
8.1565114576
 30
0.0
 10
-55.3310402661
 20
7.8643131966
 30
0.0
 10
-55.1126324976
 20
7.7070893584
 30
0.0
 10
-55.0016012917
 20
7.6429813316
 30
0.0
  0
SPLINE
  5
537
100
AcDbEntity
  8
RACCORDO
100
AcDbSpline
 62
7
  6
CONTINUOUS
 70
0
 71
3
 72
11
 73
7
 74
0
 42
0.0000001
 43
0.0000001
 44
0.0000000001
 40
0.0
 40
0.0
 40
0.0
 40
0.0
 40
0.2277629582
 40
0.4751789645
 40
0.7353578162
 40
1.0
 40
1.0
 40
1.0
 40
1.0
 10
-31.573383741
 20
-9.9666476064
 30
0.0
 10
-31.4623525351
 20
-10.0307556331
 30
0.0
 10
-31.2439447666
 20
-10.1879794713
 30
0.0
 10
-30.9488711429
 20
-10.4801777323
 30
0.0
 10
-30.683943993
 20
-10.8263808279
 30
0.0
 10
-30.5355170887
 20
-11.0829188228
 30
0.0
 10
-30.4694136327
 20
-11.2164188185
 30
0.0
  0
SPLINE
  5
538
100
AcDbEntity
  8
RACCORDO
100
AcDbSpline
 62
7
  6
CONTINUOUS
 70
0
 71
3
 72
11
 73
7
 74
0
 42
0.0000001
 43
0.0000001
 44
0.0000000001
 40
0.0
 40
0.0
 40
0.0
 40
0.0
 40
0.2817455306
 40
0.5410519147
 40
0.7792125784
 40
1.0
 40
1.0
 40
1.0
 40
1.0
 10
-30.5127235692
 20
-6.4965897476
 30
0.0
 10
-30.4453503066
 20
-6.535490225
 30
0.0
 10
-30.3111478125
 20
-6.602370481
 30
0.0
 10
-30.1055199524
 20
-6.6688313641
 30
0.0
 10
-29.9078456569
 20
-6.6956944925
 30
0.0
 10
-29.7801932735
 20
-6.6858893338
 30
0.0
 10
-29.7204525494
 20
-6.6737325109
 30
0.0
  0
SPLINE
  5
539
100
AcDbEntity
  8
RACCORDO
100
AcDbSpline
 62
7
  6
CONTINUOUS
 70
0
 71
3
 72
11
 73
7
 74
0
 42
0.0000001
 43
0.0000001
 44
0.0000000001
 40
0.0
 40
0.0
 40
0.0
 40
0.0
 40
0.2646421838
 40
0.5248210355
 40
0.7722370418
 40
1.0
 40
1.0
 40
1.0
 40
1.0
 10
-24.9928730278
 20
-9.0713295627
 30
0.0
 10
-24.9267695718
 20
-9.2048295583
 30
0.0
 10
-24.7783426675
 20
-9.4613675532
 30
0.0
 10
-24.5134155176
 20
-9.8075706488
 30
0.0
 10
-24.2183418939
 20
-10.0997689098
 30
0.0
 10
-23.9999341254
 20
-10.256992748
 30
0.0
 10
-23.8889029195
 20
-10.3211007748
 30
0.0
  0
LINE
  5
53A
100
AcDbEntity
  8
0
100
AcDbLine
 62
7
  6
CONTINUOUS
 10
-9.7238677263
 20
-56.0141590714
 11
-9.7240944405
 21
-56.0211814633
  0
SPLINE
  5
53B
100
AcDbEntity
  8
0
100
AcDbSpline
 62
7
  6
CONTINUOUS
 70
0
 71
3
 72
9
 73
5
 74
0
 42
0.0000001
 43
0.0000001
 44
0.0000000001
 40
0.0
 40
0.0
 40
0.0
 40
0.0
 40
0.2189828991
 40
1.0
 40
1.0
 40
1.0
 40
1.0
 10
-9.7240944405
 20
-56.0211814633
 30
0.0
 10
-9.7243026574
 20
-56.0275345094
 30
0.0
 10
-9.7252844207
 20
-56.0565450119
 30
0.0
 10
-9.7263116503
 20
-56.0855547284
 30
0.0
 10
-9.7273050736
 20
-56.1082036804
 30
0.0
  0
SPLINE
  5
53C
100
AcDbEntity
  8
0
100
AcDbSpline
 62
7
  6
CONTINUOUS
 70
0
 71
3
 72
15
 73
11
 74
0
 42
0.0000001
 43
0.0000001
 44
0.0000000001
 40
0.0
 40
0.0
 40
0.0
 40
0.0
 40
0.1453059763
 40
0.2666009809
 40
0.4093098382
 40
0.5397688708
 40
0.6625270563
 40
0.7805727977
 40
0.892498567
 40
1.0
 40
1.0
 40
1.0
 40
1.0
 10
-9.7273050736
 20
-56.1082036804
 30
0.0
 10
-9.7283570611
 20
-56.1321878333
 30
0.0
 10
-9.7307681801
 20
-56.1762219855
 30
0.0
 10
-9.7405141802
 20
-56.2431759831
 30
0.0
 10
-9.751488558
 20
-56.3074514301
 30
0.0
 10
-9.7687825069
 20
-56.3706903462
 30
0.0
 10
-9.791987837
 20
-56.4276278024
 30
0.0
 10
-9.8204169802
 20
-56.4786841955
 30
0.0
 10
-9.8550695507
 20
-56.5228167594
 30
0.0
 10
-9.8841086144
 20
-56.5453469832
 30
0.0
 10
-9.8994900217
 20
-56.5542280217
 30
0.0
  0
SPLINE
  5
53D
100
AcDbEntity
  8
ASSI
100
AcDbSpline
 62
7
  6
CONTINUOUS
 70
0
 71
3
 72
15
 73
11
 74
0
 42
0.0000001
 43
0.0000001
 44
0.0000000001
 40
0.0
 40
0.0
 40
0.0
 40
0.0
 40
0.1168137282
 40
0.240488228
 40
0.368997261
 40
0.4999946572
 40
0.6309927598
 40
0.7595039281
 40
0.8831817567
 40
1.0
 40
1.0
 40
1.0
 40
1.0
 10
-64.1622772711
 20
64.0840564551
 30
0.0
 10
-64.1788289671
 20
64.2717233386
 30
0.0
 10
-64.2393043744
 20
64.6560350055
 30
0.0
 10
-64.3990671642
 20
65.2304377988
 30
0.0
 10
-64.6263924992
 20
65.8062630898
 30
0.0
 10
-64.9148960829
 20
66.3672183053
 30
0.0
 10
-65.2564477163
 20
66.8975501664
 30
0.0
 10
-65.6414696348
 20
67.3823407886
 30
0.0
 10
-66.059044076
 20
67.8079149871
 30
0.0
 10
-66.3616364082
 20
68.052456083
 30
0.0
 10
-66.5158886613
 20
68.16063096
 30
0.0
  0
SPLINE
  5
53E
100
AcDbEntity
  8
0
100
AcDbSpline
 62
7
  6
CONTINUOUS
 70
0
 71
3
 72
10
 73
6
 74
0
 42
0.0000001
 43
0.0000001
 44
0.0000000001
 40
0.0
 40
0.0
 40
0.0
 40
0.0
 40
0.2379311761
 40
0.4811592019
 40
1.0
 40
1.0
 40
1.0
 40
1.0
 10
-46.3179425667
 20
2.8620164131
 30
0.0
 10
-46.2285939029
 20
2.9136052184
 30
0.0
 10
-46.0376170063
 20
3.0011872258
 30
0.0
 10
-45.6154753855
 20
3.1079678519
 30
0.0
 10
-45.2778820092
 20
3.1030786294
 30
0.0
 10
-45.0552594693
 20
3.0705828892
 30
0.0
  0
SPLINE
  5
53F
100
AcDbEntity
  8
RACCORDO
100
AcDbSpline
 62
7
  6
CONTINUOUS
 70
0
 71
3
 72
11
 73
7
 74
0
 42
0.0000001
 43
0.0000001
 44
0.0000000001
 40
0.0
 40
0.0
 40
0.0
 40
0.0
 40
0.2177759905
 40
0.4509569663
 40
0.7101948341
 40
1.0
 40
1.0
 40
1.0
 40
1.0
 10
-30.5734724438
 20
-7.2081582378
 30
0.0
 10
-30.6394415062
 20
-7.2462350366
 30
0.0
 10
-30.7910302567
 20
-7.3012508528
 30
0.0
 10
-31.0427506063
 20
-7.3075124559
 30
0.0
 10
-31.3110735228
 20
-7.2427858189
 30
0.0
 10
-31.4856029209
 20
-7.159685183
 30
0.0
 10
-31.573383741
 20
-7.1090016376
 30
0.0
  0
SPLINE
  5
540
100
AcDbEntity
  8
ASSI
100
AcDbSpline
 62
7
  6
CONTINUOUS
 70
0
 71
3
 72
18
 73
14
 74
0
 42
0.0000001
 43
0.0000001
 44
0.0000000001
 40
0.0
 40
0.0
 40
0.0
 40
0.0
 40
0.1505535987
 40
0.300973112
 40
0.446343382
 40
0.5822708889
 40
0.7054797891
 40
0.7618647806
 40
0.8147446589
 40
0.8643849064
 40
0.9112826044
 40
0.9561735541
 40
1.0
 40
1.0
 40
1.0
 40
1.0
 10
-68.3190725703
 20
-34.5729536542
 30
0.0
 10
-68.4986187329
 20
-34.3371422261
 30
0.0
 10
-68.8264090315
 20
-33.8412024115
 30
0.0
 10
-69.2148945621
 20
-33.0505272131
 30
0.0
 10
-69.4871362208
 20
-32.2424837624
 30
0.0
 10
-69.6299277256
 20
-31.4560342485
 30
0.0
 10
-69.635184685
 20
-30.830495362
 30
0.0
 10
-69.5630643539
 20
-30.3775873138
 30
0.0
 10
-69.4759082481
 20
-30.0761951753
 30
0.0
 10
-69.3549637864
 20
-29.8068653778
 30
0.0
 10
-69.2013057643
 20
-29.5730821918
 30
0.0
 10
-69.0166572644
 20
-29.3782639729
 30
0.0
 10
-68.873601649
 20
-29.2758417435
 30
0.0
 10
-68.7988837172
 20
-29.2327007059
 30
0.0
  0
SPLINE
  5
541
100
AcDbEntity
  8
RACCORDO
100
AcDbSpline
 62
7
  6
CONTINUOUS
 70
0
 71
3
 72
11
 73
7
 74
0
 42
0.0000001
 43
0.0000001
 44
0.0000000001
 40
0.0
 40
0.0
 40
0.0
 40
0.0
 40
0.2177759905
 40
0.4509569663
 40
0.7101948341
 40
1.0
 40
1.0
 40
1.0
 40
1.0
 10
-61.686170816
 20
10.7559238686
 30
0.0
 10
-61.7521398784
 20
10.7178470698
 30
0.0
 10
-61.9037286289
 20
10.6628312537
 30
0.0
 10
-62.1554489786
 20
10.6565696505
 30
0.0
 10
-62.423771895
 20
10.7212962875
 30
0.0
 10
-62.5983012931
 20
10.8043969235
 30
0.0
 10
-62.6860821132
 20
10.8550804688
 30
0.0
  0
SPLINE
  5
542
100
AcDbEntity
  8
RACCORDO
100
AcDbSpline
 62
7
  6
CONTINUOUS
 70
0
 71
3
 72
14
 73
10
 74
0
 42
0.0000001
 43
0.0000001
 44
0.0000000001
 40
0.0
 40
0.0
 40
0.0
 40
0.0
 40
0.1080475185
 40
0.2181319702
 40
0.33210641
 40
0.4515026601
 40
0.5774632992
 40
0.710727804
 40
1.0
 40
1.0
 40
1.0
 40
1.0
 10
4.528063342
 20
-75.5706620613
 30
0.0
 10
4.6919974953
 20
-75.4760085275
 30
0.0
 10
5.0071830158
 20
-75.2560622065
 30
0.0
 10
5.4236397551
 20
-74.8461838019
 30
0.0
 10
5.7818106938
 20
-74.3597159444
 30
0.0
 10
6.0783680503
 20
-73.8021406557
 30
0.0
 10
6.3110282715
 20
-73.1790551224
 30
0.0
 10
6.5397259666
 20
-72.2440162803
 30
0.0
 10
6.5988908964
 20
-71.5000975765
 30
0.0
 10
6.5988908964
 20
-70.9932962879
 30
0.0
  0
SPLINE
  5
543
100
AcDbEntity
  8
RACCORDO
100
AcDbSpline
 62
7
  6
CONTINUOUS
 70
0
 71
3
 72
14
 73
10
 74
0
 42
0.0000001
 43
0.0000001
 44
0.0000000001
 40
0.0
 40
0.0
 40
0.0
 40
0.0
 40
0.2892776307
 40
0.4225436655
 40
0.5485047944
 40
0.6679004454
 40
0.7818732725
 40
0.8919553206
 40
1.0
 40
1.0
 40
1.0
 40
1.0
 10
-87.163468289
 20
72.1391749578
 30
0.0
 10
-87.6024380617
 20
72.392630603
 30
0.0
 10
-88.2763770669
 20
72.7134229222
 30
0.0
 10
-89.2006391827
 20
72.9829469354
 30
0.0
 10
-89.8566766842
 20
73.0930260605
 30
0.0
 10
-90.48792154
 20
73.1149937063
 30
0.0
 10
-91.0883823941
 20
73.0480284354
 30
0.0
 10
-91.6516453433
 20
72.8922711594
 30
0.0
 10
-91.9997541224
 20
72.7292491346
 30
0.0
 10
-92.1637085465
 20
72.6345838966
 30
0.0
  0
SPLINE
  5
544
100
AcDbEntity
  8
ASSI
100
AcDbSpline
 62
7
  6
CONTINUOUS
 70
0
 71
3
 72
9
 73
5
 74
0
 42
0.0000001
 43
0.0000001
 44
0.0000000001
 40
0.0
 40
0.0
 40
0.0
 40
0.0
 40
0.5042135807
 40
1.0
 40
1.0
 40
1.0
 40
1.0
 10
-93.0375380616
 20
8.376108959
 30
0.0
 10
-92.9884464285
 20
8.4310821679
 30
0.0
 10
-92.8826857378
 20
8.5329512455
 30
0.0
 10
-92.7619119832
 20
8.6165855593
 30
0.0
 10
-92.6991528493
 20
8.6528246824
 30
0.0
  0
SPLINE
  5
545
100
AcDbEntity
  8
0
100
AcDbSpline
 62
7
  6
CONTINUOUS
 70
0
 71
3
 72
17
 73
13
 74
0
 42
0.0000001
 43
0.0000001
 44
0.0000000001
 40
0.0
 40
0.0
 40
0.0
 40
0.0
 40
0.0428588998
 40
0.0874873867
 40
0.1353206708
 40
0.1872854449
 40
0.3045517414
 40
0.4382239605
 40
0.5825723897
 40
0.7297289983
 40
0.871319235
 40
1.0
 40
1.0
 40
1.0
 40
1.0
 10
-27.5114390055
 20
-11.7490939355
 30
0.0
 10
-27.5484186828
 20
-11.7704456039
 30
0.0
 10
-27.6299352601
 20
-11.8043301481
 30
0.0
 10
-27.7644959899
 20
-11.824050942
 30
0.0
 10
-27.9090049973
 20
-11.8134262259
 30
0.0
 10
-28.1189731086
 20
-11.7575589925
 30
0.0
 10
-28.3873902495
 20
-11.61078923
 30
0.0
 10
-28.6839487508
 20
-11.3481473054
 30
0.0
 10
-28.9460851687
 20
-11.0126116589
 30
0.0
 10
-29.1523937914
 20
-10.6312919167
 30
0.0
 10
-29.286260959
 20
-10.235458105
 30
0.0
 10
-29.3221335879
 20
-9.965875451
 30
0.0
 10
-29.3221335879
 20
-9.8376682456
 30
0.0
  0
SPLINE
  5
546
100
AcDbEntity
  8
ASSI
100
AcDbSpline
 62
7
  6
CONTINUOUS
 70
0
 71
3
 72
15
 73
11
 74
0
 42
0.0000001
 43
0.0000001
 44
0.0000000001
 40
0.0
 40
0.0
 40
0.0
 40
0.0
 40
0.1168182682
 40
0.2404960568
 40
0.3690072089
 40
0.5000053048
 40
0.6310026841
 40
0.7595117283
 40
0.8831861455
 40
1.0
 40
1.0
 40
1.0
 40
1.0
 10
10.7001718443
 20
-50.3135146811
 30
0.0
 10
10.8544241304
 20
-50.4216895813
 30
0.0
 10
11.1570164684
 20
-50.666230636
 30
0.0
 10
11.5745908038
 20
-51.0918048653
 30
0.0
 10
11.959612738
 20
-51.5765953436
 30
0.0
 10
12.3011643025
 20
-52.1069271731
 30
0.0
 10
12.5896679578
 20
-52.6678823323
 30
0.0
 10
12.8169931355
 20
-53.2437075288
 30
0.0
 10
12.9767561518
 20
-53.8181103484
 30
0.0
 10
13.0372315206
 20
-54.2024220996
 30
0.0
 10
13.0537832345
 20
-54.390089186
 30
0.0
  0
SPLINE
  5
547
100
AcDbEntity
  8
0
100
AcDbSpline
 62
7
  6
CONTINUOUS
 70
0
 71
3
 72
17
 73
13
 74
0
 42
0.0000001
 43
0.0000001
 44
0.0000000001
 40
0.0
 40
0.0
 40
0.0
 40
0.0
 40
0.0428588998
 40
0.0874873867
 40
0.1353206708
 40
0.1872854449
 40
0.3045517414
 40
0.4382239605
 40
0.5825723897
 40
0.7297289983
 40
0.871319235
 40
1.0
 40
1.0
 40
1.0
 40
1.0
 10
-58.6241373777
 20
6.214988171
 30
0.0
 10
-58.6611170551
 20
6.1936365025
 30
0.0
 10
-58.7426336323
 20
6.1597519583
 30
0.0
 10
-58.8771943621
 20
6.1400311644
 30
0.0
 10
-59.0217033695
 20
6.1506558805
 30
0.0
 10
-59.2316714808
 20
6.2065231139
 30
0.0
 10
-59.5000886217
 20
6.3532928764
 30
0.0
 10
-59.796647123
 20
6.615934801
 30
0.0
 10
-60.0587835409
 20
6.9514704475
 30
0.0
 10
-60.2650921636
 20
7.3327901898
 30
0.0
 10
-60.3989593312
 20
7.7286240015
 30
0.0
 10
-60.4348319601
 20
7.9982066554
 30
0.0
 10
-60.4348319601
 20
8.1264138608
 30
0.0
  0
SPLINE
  5
548
100
AcDbEntity
  8
RACCORDO
100
AcDbSpline
 62
7
  6
CONTINUOUS
 70
0
 71
3
 72
18
 73
14
 74
0
 42
0.0000001
 43
0.0000001
 44
0.0000000001
 40
0.0
 40
0.0
 40
0.0
 40
0.0
 40
0.0443780525
 40
0.0897078933
 40
0.1368523628
 40
0.1864984152
 40
0.2391370595
 40
0.2950595802
 40
0.4169052186
 40
0.5513882627
 40
0.6959453568
 40
0.8469078389
 40
1.0
 40
1.0
 40
1.0
 40
1.0
 10
-30.2614594236
 20
-6.9859731467
 30
0.0
 10
-30.1912526875
 20
-6.945439377
 30
0.0
 10
-30.0414448086
 20
-6.8764163971
 30
0.0
 10
-29.7981811796
 20
-6.8137655133
 30
0.0
 10
-29.5383445426
 20
-6.7919022212
 30
0.0
 10
-29.2650841871
 20
-6.8107907315
 30
0.0
 10
-28.9813626302
 20
-6.8698735656
 30
0.0
 10
-28.581851525
 20
-7.0049995717
 30
0.0
 10
-28.0750209149
 20
-7.2751825982
 30
0.0
 10
-27.4939826783
 20
-7.7253096452
 30
0.0
 10
-26.9461193552
 20
-8.2916230659
 30
0.0
 10
-26.4547093314
 20
-8.9498872975
 30
0.0
 10
-26.1776296457
 20
-9.4331210459
 30
0.0
 10
-26.0535331995
 20
-9.6837414526
 30
0.0
  0
SPLINE
  5
549
100
AcDbEntity
  8
ASSI
100
AcDbSpline
 62
7
  6
CONTINUOUS
 70
0
 71
3
 72
9
 73
5
 74
0
 42
0.0000001
 43
0.0000001
 44
0.0000000001
 40
0.0
 40
0.0
 40
0.0
 40
0.0
 40
0.5059379463
 40
1.0
 40
1.0
 40
1.0
 40
1.0
 10
-95.8098679136
 20
47.3303326333
 30
0.0
 10
-95.8613417904
 20
47.2657848064
 30
0.0
 10
-95.9744090318
 20
47.1467155666
 30
0.0
 10
-96.1080648043
 20
47.0511080773
 30
0.0
 10
-96.1778856829
 20
47.0107992821
 30
0.0
  0
SPLINE
  5
54A
100
AcDbEntity
  8
RACCORDO
100
AcDbSpline
 62
7
  6
CONTINUOUS
 70
0
 71
3
 72
18
 73
14
 74
0
 42
0.0000001
 43
0.0000001
 44
0.0000000001
 40
0.0
 40
0.0
 40
0.0
 40
0.0
 40
0.0443780525
 40
0.0897078933
 40
0.1368523628
 40
0.1864984152
 40
0.2391370595
 40
0.2950595802
 40
0.4169052186
 40
0.5513882627
 40
0.6959453568
 40
0.8469078389
 40
1.0
 40
1.0
 40
1.0
 40
1.0
 10
-61.3741577958
 20
10.9781089597
 30
0.0
 10
-61.3039510597
 20
11.0186427294
 30
0.0
 10
-61.1541431808
 20
11.0876657094
 30
0.0
 10
-60.9108795518
 20
11.1503165932
 30
0.0
 10
-60.6510429149
 20
11.1721798852
 30
0.0
 10
-60.3777825593
 20
11.1532913749
 30
0.0
 10
-60.0940610024
 20
11.0942085408
 30
0.0
 10
-59.6945498972
 20
10.9590825347
 30
0.0
 10
-59.1877192871
 20
10.6888995082
 30
0.0
 10
-58.6066810505
 20
10.2387724612
 30
0.0
 10
-58.0588177274
 20
9.6724590405
 30
0.0
 10
-57.5674077037
 20
9.0141948089
 30
0.0
 10
-57.2903280179
 20
8.5309610605
 30
0.0
 10
-57.1662315718
 20
8.2803406538
 30
0.0
  0
SPLINE
  5
54B
100
AcDbEntity
  8
ASSI
100
AcDbSpline
 62
7
  6
CONTINUOUS
 70
0
 71
3
 72
18
 73
14
 74
0
 42
0.0000001
 43
0.0000001
 44
0.0000000001
 40
0.0
 40
0.0
 40
0.0
 40
0.0
 40
0.0439665735
 40
0.0889664532
 40
0.1359179934
 40
0.1855444586
 40
0.2383419912
 40
0.2945844078
 40
0.4173936098
 40
0.5529140286
 40
0.6980734301
 40
0.848682081
 40
1.0
 40
1.0
 40
1.0
 40
1.0
 10
-88.6988228829
 20
1.7248133623
 30
0.0
 10
-88.7722879054
 20
1.6823920504
 30
0.0
 10
-88.9296031086
 20
1.6106895531
 30
0.0
 10
-89.1856862636
 20
1.5480652605
 30
0.0
 10
-89.4595572055
 20
1.5301909356
 30
0.0
 10
-89.747588833
 20
1.5569049112
 30
0.0
 10
-90.0463978125
 20
1.6274768722
 30
0.0
 10
-90.4667557254
 20
1.7832135302
 30
0.0
 10
-90.9970763407
 20
2.0871614727
 30
0.0
 10
-91.599183791
 20
2.5852500967
 30
0.0
 10
-92.1590391277
 20
3.2045540684
 30
0.0
 10
-92.6505868063
 20
3.9161096538
 30
0.0
 10
-92.9200320719
 20
4.4347155813
 30
0.0
 10
-93.0375380616
 20
4.7019927134
 30
0.0
  0
SPLINE
  5
54C
100
AcDbEntity
  8
ASSI
100
AcDbSpline
 62
7
  6
CONTINUOUS
 70
0
 71
3
 72
11
 73
7
 74
0
 42
0.0000001
 43
0.0000001
 44
0.0000000001
 40
0.0
 40
0.0
 40
0.0
 40
0.0
 40
0.2833199492
 40
0.5403772089
 40
0.7762235967
 40
1.0
 40
1.0
 40
1.0
 40
1.0
 10
13.0537832345
 20
-55.0434077013
 30
0.0
 10
13.0385478117
 20
-55.1985568961
 30
0.0
 10
12.9864208509
 20
-55.4931490964
 30
0.0
 10
12.8295256424
 20
-55.8939962813
 30
0.0
 10
12.5999506902
 20
-56.2199620498
 30
0.0
 10
12.3989914995
 20
-56.3804315016
 30
0.0
 10
12.2923578595
 20
-56.4420004123
 30
0.0
  0
SPLINE
  5
54D
100
AcDbEntity
  8
ASSI
100
AcDbSpline
 62
7
  6
CONTINUOUS
 70
0
 71
3
 72
25
 73
21
 74
0
 42
0.0000001
 43
0.0000001
 44
0.0000000001
 40
0.0
 40
0.0
 40
0.0
 40
0.0
 40
0.0225437172
 40
0.0455136223
 40
0.0940793909
 40
0.1480752401
 40
0.2084341759
 40
0.2749990657
 40
0.3468222294
 40
0.4224236798
 40
0.4999933086
 40
0.5775632752
 40
0.6531657638
 40
0.7249908135
 40
0.7915576257
 40
0.8519192482
 40
0.9059171802
 40
0.9544846334
 40
0.9774549189
 40
1.0
 40
1.0
 40
1.0
 40
1.0
 10
5.0635076448
 20
-11.5889028471
 30
0.0
 10
4.9979351122
 20
-11.6267665163
 30
0.0
 10
4.8586922225
 20
-11.6919655609
 30
0.0
 10
4.5529437562
 20
-11.7766326431
 30
0.0
 10
4.1247079458
 20
-11.7880419462
 30
0.0
 10
3.588259221
 20
-11.6583213082
 30
0.0
 10
3.036337841
 20
-11.3958074521
 30
0.0
 10
2.487643078
 20
-11.0111200917
 30
0.0
 10
1.9612251704
 20
-10.5187319674
 30
0.0
 10
1.4763045577
 20
-9.9368108933
 30
0.0
 10
1.0508540252
 20
-9.2870502362
 30
0.0
 10
0.7007980336
 20
-8.593750723
 30
0.0
 10
0.4392323251
 20
-7.8828505719
 30
0.0
 10
0.275932251
 20
-7.1807685392
 30
0.0
 10
0.2170666664
 20
-6.5132259044
 30
0.0
 10
0.2655966895
 20
-5.9039612881
 30
0.0
 10
0.4214200126
 20
-5.3744843414
 30
0.0
 10
0.6453573686
 20
-5.0092712921
 30
0.0
 10
0.8715309656
 20
-4.7867785851
 30
0.0
 10
0.9976012822
 20
-4.6987576662
 30
0.0
 10
1.0631776784
 20
-4.6608915271
 30
0.0
  0
SPLINE
  5
54E
100
AcDbEntity
  8
0
100
AcDbSpline
 62
7
  6
CONTINUOUS
 70
0
 71
3
 72
10
 73
6
 74
0
 42
0.0000001
 43
0.0000001
 44
0.0000000001
 40
0.0
 40
0.0
 40
0.0
 40
0.0
 40
0.2356074691
 40
0.4806650841
 40
1.0
 40
1.0
 40
1.0
 40
1.0
 10
-9.4440430246
 20
17.1330377789
 30
0.0
 10
-9.4199106389
 20
17.1238587332
 30
0.0
 10
-9.3709990615
 20
17.1042048494
 30
0.0
 10
-9.2725588148
 20
17.0558691695
 30
0.0
 10
-9.2013672653
 20
17.0111494439
 30
0.0
 10
-9.1549935474
 20
16.9781586116
 30
0.0
  0
SPLINE
  5
54F
100
AcDbEntity
  8
0
100
AcDbSpline
 62
7
  6
CONTINUOUS
 70
0
 71
3
 72
11
 73
7
 74
0
 42
0.0000001
 43
0.0000001
 44
0.0000000001
 40
0.0
 40
0.0
 40
0.0
 40
0.0
 40
0.2413629477
 40
0.5033335929
 40
0.764823587
 40
1.0
 40
1.0
 40
1.0
 40
1.0
 10
-9.1549935474
 20
16.9781586116
 30
0.0
 10
-9.1259607422
 20
16.9575034076
 30
0.0
 10
-9.0708204271
 20
16.9067074153
 30
0.0
 10
-9.0040946234
 20
16.8145435324
 30
0.0
 10
-8.9605174694
 20
16.7104938251
 30
0.0
 10
-8.9470401637
 20
16.6374004001
 30
0.0
 10
-8.9465735915
 20
16.6026861855
 30
0.0
  0
SPLINE
  5
550
100
AcDbEntity
  8
0
100
AcDbSpline
 62
7
  6
CONTINUOUS
 70
0
 71
3
 72
10
 73
6
 74
0
 42
0.0000001
 43
0.0000001
 44
0.0000000001
 40
0.0
 40
0.0
 40
0.0
 40
0.0
 40
0.287839501
 40
0.5553666415
 40
1.0
 40
1.0
 40
1.0
 40
1.0
 10
-8.9465735915
 20
16.6026861855
 30
0.0
 10
-8.9463030726
 20
16.5822868229
 30
0.0
 10
-8.9488198056
 20
16.5426381459
 30
0.0
 10
-8.9645592123
 20
16.4741033628
 30
0.0
 10
-8.9936455421
 20
16.4264685605
 30
0.0
 10
-9.0209371782
 20
16.4107106401
 30
0.0
  0
SPLINE
  5
551
100
AcDbEntity
  8
ASSI
100
AcDbSpline
 62
7
  6
CONTINUOUS
 70
0
 71
3
 72
11
 73
7
 74
0
 42
0.0000001
 43
0.0000001
 44
0.0000000001
 40
0.0
 40
0.0
 40
0.0
 40
0.0
 40
0.2237687949
 40
0.4596131128
 40
0.7166747135
 40
1.0
 40
1.0
 40
1.0
 40
1.0
 10
8.5422404784
 20
-49.9468774468
 30
0.0
 10
8.6488870315
 20
-49.8853085558
 30
0.0
 10
8.8883640007
 20
-49.7915007063
 30
0.0
 10
9.2854944603
 20
-49.7556752137
 30
0.0
 10
9.7111402861
 20
-49.8202513974
 30
0.0
 10
9.9923643792
 20
-49.9224289023
 30
0.0
 10
10.1343631853
 20
-49.9868238527
 30
0.0
  0
SPLINE
  5
552
100
AcDbEntity
  8
0
100
AcDbSpline
 62
7
  6
CONTINUOUS
 70
0
 71
3
 72
10
 73
6
 74
0
 42
0.0000001
 43
0.0000001
 44
0.0000000001
 40
0.0
 40
0.0
 40
0.0
 40
0.0
 40
0.2278023571
 40
0.6123988689
 40
1.0
 40
1.0
 40
1.0
 40
1.0
 10
-9.2339794618
 20
16.1172065565
 30
0.0
 10
-9.209611615
 20
16.1031368672
 30
0.0
 10
-9.148970176
 20
16.0564087254
 30
0.0
 10
-9.0765352208
 20
15.953982266
 30
0.0
 10
-9.0407682551
 20
15.8646974687
 30
0.0
 10
-9.0281309553
 20
15.8185191596
 30
0.0
  0
SPLINE
  5
553
100
AcDbEntity
  8
0
100
AcDbSpline
 62
7
  6
CONTINUOUS
 70
0
 71
3
 72
9
 73
5
 74
0
 42
0.0000001
 43
0.0000001
 44
0.0000000001
 40
0.0
 40
0.0
 40
0.0
 40
0.0
 40
0.5015506077
 40
1.0
 40
1.0
 40
1.0
 40
1.0
 10
-9.0281309553
 20
15.8185191596
 30
0.0
 10
-8.9958850678
 20
15.7007937428
 30
0.0
 10
-8.9458215646
 20
15.4624239824
 30
0.0
 10
-8.8925961274
 20
15.2250092483
 30
0.0
 10
-8.8667923835
 20
15.1064784171
 30
0.0
  0
SPLINE
  5
554
100
AcDbEntity
  8
ASSI
100
AcDbSpline
 62
7
  6
CONTINUOUS
 70
0
 71
3
 72
11
 73
7
 74
0
 42
0.0000001
 43
0.0000001
 44
0.0000000001
 40
0.0
 40
0.0
 40
0.0
 40
0.0
 40
0.2237709161
 40
0.4596147516
 40
0.7166738998
 40
1.0
 40
1.0
 40
1.0
 40
1.0
 10
-99.928003064
 20
53.5059222476
 30
0.0
 10
-99.8213540964
 20
53.5675000085
 30
0.0
 10
-99.5818697478
 20
53.6613234959
 30
0.0
 10
-99.1847231449
 20
53.6971626248
 30
0.0
 10
-98.759058239
 20
53.6325921717
 30
0.0
 10
-98.4778224417
 20
53.5304105409
 30
0.0
 10
-98.3358170488
 20
53.4660126035
 30
0.0
  0
SPLINE
  5
555
100
AcDbEntity
  8
0
100
AcDbSpline
 62
7
  6
CONTINUOUS
 70
0
 71
3
 72
13
 73
9
 74
0
 42
0.0000001
 43
0.0000001
 44
0.0000000001
 40
0.0
 40
0.0
 40
0.0
 40
0.0
 40
0.14273953
 40
0.2711512812
 40
0.3963782196
 40
0.5205710459
 40
0.7632532067
 40
1.0
 40
1.0
 40
1.0
 40
1.0
 10
-8.850700942
 20
16.0619496407
 30
0.0
 10
-8.845516165
 20
16.0597284893
 30
0.0
 10
-8.8349514213
 20
16.0568973349
 30
0.0
 10
-8.8191201186
 20
16.0578220602
 30
0.0
 10
-8.8047221483
 20
16.0619690728
 30
0.0
 10
-8.7865409346
 20
16.0688588558
 30
0.0
 10
-8.7644401006
 20
16.0778652264
 30
0.0
 10
-8.7475144917
 20
16.0864561933
 30
0.0
 10
-8.7394126759
 20
16.0911340795
 30
0.0
  0
SPLINE
  5
556
100
AcDbEntity
  8
ASSI
100
AcDbSpline
 62
7
  6
CONTINUOUS
 70
0
 71
3
 72
9
 73
5
 74
0
 42
0.0000001
 43
0.0000001
 44
0.0000000001
 40
0.0
 40
0.0
 40
0.0
 40
0.0
 40
0.4940572243
 40
1.0
 40
1.0
 40
1.0
 40
1.0
 10
-22.7120219514
 20
-64.9682690544
 30
0.0
 10
-22.6421729081
 20
-64.9279328806
 30
0.0
 10
-22.4924750103
 20
-64.8599505175
 30
0.0
 10
-22.3327441013
 20
-64.8215576274
 30
0.0
 10
-22.251065776
 20
-64.8092557046
 30
0.0
  0
SPLINE
  5
557
100
AcDbEntity
  8
ASSI
100
AcDbSpline
 62
7
  6
CONTINUOUS
 70
0
 71
3
 72
11
 73
7
 74
0
 42
0.0000001
 43
0.0000001
 44
0.0000000001
 40
0.0
 40
0.0
 40
0.0
 40
0.0
 40
0.2237740955
 40
0.4596212815
 40
0.7166809326
 40
1.0
 40
1.0
 40
1.0
 40
1.0
 10
-64.9236232531
 20
62.0321908897
 30
0.0
 10
-64.8170006435
 20
62.0937629302
 30
0.0
 10
-64.6160630356
 20
62.254234627
 30
0.0
 10
-64.3865131006
 20
62.5801913164
 30
0.0
 10
-64.2296356516
 20
62.9810210152
 30
0.0
 10
-64.1775118153
 20
63.275597692
 30
0.0
 10
-64.1622772711
 20
63.4307379398
 30
0.0
  0
SPLINE
  5
558
100
AcDbEntity
  8
ASSI
100
AcDbSpline
 62
7
  6
CONTINUOUS
 70
0
 71
3
 72
25
 73
21
 74
0
 42
0.0000001
 43
0.0000001
 44
0.0000000001
 40
0.0
 40
0.0
 40
0.0
 40
0.0
 40
0.0225449786
 40
0.0455150825
 40
0.0940816465
 40
0.1480785937
 40
0.2084386849
 40
0.2750046774
 40
0.3468288015
 40
0.4224307453
 40
0.5000006318
 40
0.5775705142
 40
0.653172452
 40
0.7249965455
 40
0.7915625189
 40
0.8519225861
 40
0.9059195059
 40
0.9544860906
 40
0.9774563676
 40
1.0
 40
1.0
 40
1.0
 40
1.0
 10
-18.8367614873
 20
26.2966225412
 30
0.0
 10
-18.9023391124
 20
26.2587589826
 30
0.0
 10
-19.0415888998
 20
26.1935622918
 30
0.0
 10
-19.3473494602
 20
26.1089074049
 30
0.0
 10
-19.7755936871
 20
26.0975246866
 30
0.0
 10
-20.3120472271
 20
26.2272687291
 30
0.0
 10
-20.8639713499
 20
26.4898052924
 30
0.0
 10
-21.4126653366
 20
26.8745145036
 30
0.0
 10
-21.9390757733
 20
27.3669243763
 30
0.0
 10
-22.4239933722
 20
27.9488570656
 30
0.0
 10
-22.8494259854
 20
28.5986337881
 30
0.0
 10
-23.1994709312
 20
29.2919383061
 30
0.0
 10
-23.4610203949
 20
30.0028408331
 30
0.0
 10
-23.624292941
 20
30.7049215521
 30
0.0
 10
-23.6831506536
 20
31.3724554146
 30
0.0
 10
-23.6345862815
 20
31.9817069323
 30
0.0
 10
-23.4787482432
 20
32.5111683631
 30
0.0
 10
-23.2547908099
 20
32.8763632465
 30
0.0
 10
-23.0286071409
 20
33.0988358649
 30
0.0
 10
-22.9025337409
 20
33.1868433213
 30
0.0
 10
-22.8369606507
 20
33.2247056914
 30
0.0
  0
SPLINE
  5
559
100
AcDbEntity
  8
ASSI
100
AcDbSpline
 62
7
  6
CONTINUOUS
 70
0
 71
3
 72
9
 73
5
 74
0
 42
0.0000001
 43
0.0000001
 44
0.0000000001
 40
0.0
 40
0.0
 40
0.0
 40
0.0
 40
0.4943429035
 40
1.0
 40
1.0
 40
1.0
 40
1.0
 10
-64.7986845537
 20
-36.1607838561
 30
0.0
 10
-64.8715286659
 20
-36.2028445662
 30
0.0
 10
-65.0273541224
 20
-36.2740017756
 30
0.0
 10
-65.1935351632
 20
-36.315056856
 30
0.0
 10
-65.2785134112
 20
-36.3285344056
 30
0.0
  0
SPLINE
  5
55A
100
AcDbEntity
  8
ASSI
100
AcDbSpline
 62
7
  6
CONTINUOUS
 70
0
 71
3
 72
11
 73
7
 74
0
 42
0.0000001
 43
0.0000001
 44
0.0000000001
 40
0.0
 40
0.0
 40
0.0
 40
0.0
 40
0.2333696411
 40
0.4830876227
 40
0.7414942211
 40
1.0
 40
1.0
 40
1.0
 40
1.0
 10
-97.7700083897
 20
53.139321775
 30
0.0
 10
-97.5630916934
 20
52.9942140847
 30
0.0
 10
-97.1617007893
 20
52.6544906945
 30
0.0
 10
-96.6295948143
 20
52.0499425271
 30
0.0
 10
-96.1669802361
 20
51.3578371666
 30
0.0
 10
-95.9172059359
 20
50.8547660135
 30
0.0
 10
-95.8098679136
 20
50.5962137405
 30
0.0
  0
SPLINE
  5
55B
100
AcDbEntity
  8
0
100
AcDbSpline
 62
7
  6
CONTINUOUS
 70
0
 71
3
 72
21
 73
17
 74
0
 42
0.0000001
 43
0.0000001
 44
0.0000000001
 40
0.0
 40
0.0
 40
0.0
 40
0.0
 40
0.0556928438
 40
0.1138387957
 40
0.1742110267
 40
0.2365261106
 40
0.300458668
 40
0.3656492869
 40
0.4981984288
 40
0.6309974023
 40
0.6964955457
 40
0.7608503426
 40
0.8236938844
 40
0.8846895682
 40
0.9435397309
 40
1.0
 40
1.0
 40
1.0
 40
1.0
 10
-59.7277251789
 20
-20.0418501434
 30
0.0
 10
-60.5177996947
 20
-19.58567102
 30
0.0
 10
-62.0936119934
 20
-18.5841099728
 30
0.0
 10
-64.3810149768
 20
-16.8737725416
 30
0.0
 10
-66.6253533354
 20
-14.9368762337
 30
0.0
 10
-68.8058554591
 20
-12.7913434144
 30
0.0
 10
-70.902682008
 20
-10.4568111096
 30
0.0
 10
-73.5752316636
 20
-7.1028198481
 30
0.0
 10
-76.5812064253
 20
-2.5847804909
 30
0.0
 10
-79.0749274856
 20
2.2405052948
 30
0.0
 10
-80.7193807475
 20
6.2185834736
 30
0.0
 10
-81.7537530199
 20
9.2029339747
 30
0.0
 10
-82.5851374048
 20
12.1735937078
 30
0.0
 10
-83.2058719322
 20
15.1034561583
 30
0.0
 10
-83.6102220975
 20
17.9653996517
 30
0.0
 10
-83.7357349159
 20
19.8524058593
 30
0.0
 10
-83.7589548603
 20
20.7769998267
 30
0.0
  0
SPLINE
  5
55C
100
AcDbEntity
  8
0
100
AcDbSpline
 62
7
  6
CONTINUOUS
 70
0
 71
3
 72
15
 73
11
 74
0
 42
0.0000001
 43
0.0000001
 44
0.0000000001
 40
0.0
 40
0.0
 40
0.0
 40
0.0
 40
0.1476575492
 40
0.287809968
 40
0.4205696603
 40
0.5463464684
 40
0.6658953427
 40
0.7803316801
 40
0.8911183219
 40
1.0
 40
1.0
 40
1.0
 40
1.0
 10
-83.7589548603
 20
22.4099403803
 30
0.0
 10
-83.7372366066
 20
23.2496588952
 30
0.0
 10
-83.6277470442
 20
24.8857912799
 30
0.0
 10
-83.246480866
 20
27.2515010588
 30
0.0
 10
-82.6550954716
 20
29.4458214326
 30
0.0
 10
-81.8577703074
 20
31.4491724654
 30
0.0
 10
-80.8603300013
 20
33.2433971635
 30
0.0
 10
-79.6701487116
 20
34.8114843519
 30
0.0
 10
-78.2976125505
 20
36.1371618047
 30
0.0
 10
-77.2650786872
 20
36.8527341494
 30
0.0
 10
-76.7286645676
 20
37.1624572821
 30
0.0
  0
SPLINE
  5
55D
100
AcDbEntity
  8
ASSI
100
AcDbSpline
 62
7
  6
CONTINUOUS
 70
0
 71
3
 72
11
 73
7
 74
0
 42
0.0000001
 43
0.0000001
 44
0.0000000001
 40
0.0
 40
0.0
 40
0.0
 40
0.0
 40
0.2177717146
 40
0.4509547665
 40
0.7101913633
 40
1.0
 40
1.0
 40
1.0
 40
1.0
 10
-85.2264969311
 20
-13.4343986218
 30
0.0
 10
-85.2759683208
 20
-13.4629628707
 30
0.0
 10
-85.3685634754
 20
-13.5407699351
 30
0.0
 10
-85.467046516
 20
-13.7019067588
 30
0.0
 10
-85.5256453743
 20
-13.9004551316
 30
0.0
 10
-85.5371226922
 20
-14.0449782913
 30
0.0
 10
-85.5371226922
 20
-14.1210005317
 30
0.0
  0
SPLINE
  5
55E
100
AcDbEntity
  8
ASSI
100
AcDbSpline
 62
7
  6
CONTINUOUS
 70
0
 71
3
 72
11
 73
7
 74
0
 42
0.0000001
 43
0.0000001
 44
0.0000000001
 40
0.0
 40
0.0
 40
0.0
 40
0.0
 40
0.2177717146
 40
0.4509547665
 40
0.7101913633
 40
1.0
 40
1.0
 40
1.0
 40
1.0
 10
-85.2264969311
 20
60.0479262896
 30
0.0
 10
-85.2759683208
 20
60.0193620406
 30
0.0
 10
-85.3685634754
 20
59.9415549763
 30
0.0
 10
-85.467046516
 20
59.7804181526
 30
0.0
 10
-85.5256453743
 20
59.5818697797
 30
0.0
 10
-85.5371226922
 20
59.4373466201
 30
0.0
 10
-85.5371226922
 20
59.3613243797
 30
0.0
  0
SPLINE
  5
55F
100
AcDbEntity
  8
ASSI
100
AcDbSpline
 62
7
  6
CONTINUOUS
 70
0
 71
3
 72
11
 73
7
 74
0
 42
0.0000001
 43
0.0000001
 44
0.0000000001
 40
0.0
 40
0.0
 40
0.0
 40
0.0
 40
0.2177717146
 40
0.4509547665
 40
0.7101913633
 40
1.0
 40
1.0
 40
1.0
 40
1.0
 10
-3.9092170947
 20
-60.3859768545
 30
0.0
 10
-3.9586884844
 20
-60.4145411034
 30
0.0
 10
-4.051283639
 20
-60.4923481678
 30
0.0
 10
-4.1497666795
 20
-60.6534849914
 30
0.0
 10
-4.2083655378
 20
-60.8520333643
 30
0.0
 10
-4.2198428558
 20
-60.996556524
 30
0.0
 10
-4.2198428558
 20
-61.0725787644
 30
0.0
  0
SPLINE
  5
560
100
AcDbEntity
  8
ASSI
100
AcDbSpline
 62
7
  6
CONTINUOUS
 70
0
 71
3
 72
11
 73
7
 74
0
 42
0.0000001
 43
0.0000001
 44
0.0000000001
 40
0.0
 40
0.0
 40
0.0
 40
0.0
 40
0.2177717146
 40
0.4509547665
 40
0.7101913633
 40
1.0
 40
1.0
 40
1.0
 40
1.0
 10
-3.9092170947
 20
13.0963480569
 30
0.0
 10
-3.9586884844
 20
13.0677838079
 30
0.0
 10
-4.051283639
 20
12.9899767436
 30
0.0
 10
-4.1497666795
 20
12.8288399199
 30
0.0
 10
-4.2083655378
 20
12.630291547
 30
0.0
 10
-4.2198428558
 20
12.4857683874
 30
0.0
 10
-4.2198428558
 20
12.409746147
 30
0.0
  0
SPLINE
  5
561
100
AcDbEntity
  8
0
100
AcDbSpline
 62
7
  6
CONTINUOUS
 70
0
 71
3
 72
15
 73
11
 74
0
 42
0.0000001
 43
0.0000001
 44
0.0000000001
 40
0.0
 40
0.0
 40
0.0
 40
0.0
 40
0.1080100237
 40
0.2180566612
 40
0.3319927138
 40
0.4513500885
 40
0.5772702356
 40
0.7104950174
 40
0.8513899719
 40
1.0
 40
1.0
 40
1.0
 40
1.0
 10
-10.9069806369
 20
-40.0985354469
 30
0.0
 10
-11.4644284934
 20
-40.420403366
 30
0.0
 10
-12.6479989052
 20
-40.9746998734
 30
0.0
 10
-14.5631066771
 20
-41.5042943479
 30
0.0
 10
-16.6046747484
 20
-41.7319994258
 30
0.0
 10
-18.7509719259
 20
-41.6573035854
 30
0.0
 10
-20.9813214111
 20
-41.2830800944
 30
0.0
 10
-23.2748130451
 20
-40.6143605447
 30
0.0
 10
-25.6100717753
 20
-39.6586056149
 30
0.0
 10
-27.1409298034
 20
-38.8570573848
 30
0.0
 10
-27.9079200255
 20
-38.4142068432
 30
0.0
  0
SPLINE
  5
562
100
AcDbEntity
  8
ASSI
100
AcDbSpline
 62
7
  6
CONTINUOUS
 70
0
 71
3
 72
11
 73
7
 74
0
 42
0.0000001
 43
0.0000001
 44
0.0000000001
 40
0.0
 40
0.0
 40
0.0
 40
0.0
 40
0.2833260175
 40
0.5403852551
 40
0.776229087
 40
1.0
 40
1.0
 40
1.0
 40
1.0
 10
-67.0816973203
 20
68.4873217885
 30
0.0
 10
-67.2237026898
 20
68.5517197153
 30
0.0
 10
-67.5049385361
 20
68.6539013044
 30
0.0
 10
-67.9306034878
 20
68.718471901
 30
0.0
 10
-68.3277501794
 20
68.6826326013
 30
0.0
 10
-68.567234544
 20
68.5888091011
 30
0.0
 10
-68.6738835197
 20
68.5272313264
 30
0.0
  0
SPLINE
  5
563
100
AcDbEntity
  8
ASSI
100
AcDbSpline
 62
7
  6
CONTINUOUS
 70
0
 71
3
 72
17
 73
13
 74
0
 42
0.0000001
 43
0.0000001
 44
0.0000000001
 40
0.0
 40
0.0
 40
0.0
 40
0.0
 40
0.128680765
 40
0.2702710017
 40
0.4174276103
 40
0.5617760395
 40
0.6954482586
 40
0.8127145551
 40
0.8646793292
 40
0.9125126133
 40
0.9571411002
 40
1.0
 40
1.0
 40
1.0
 40
1.0
 10
-4.2198428558
 20
12.409746147
 30
0.0
 10
-4.2198428558
 20
12.2815389415
 30
0.0
 10
-4.1839702269
 20
12.0119562876
 30
0.0
 10
-4.0501030592
 20
11.6161224759
 30
0.0
 10
-3.8437944366
 20
11.2348027337
 30
0.0
 10
-3.5816580187
 20
10.8992670872
 30
0.0
 10
-3.2850995174
 20
10.6366251626
 30
0.0
 10
-3.0166823765
 20
10.4898554
 30
0.0
 10
-2.8067142652
 20
10.4339881666
 30
0.0
 10
-2.6622052578
 20
10.4233634505
 30
0.0
 10
-2.527644528
 20
10.4430842444
 30
0.0
 10
-2.4461279507
 20
10.4769687886
 30
0.0
 10
-2.4091482734
 20
10.4983204571
 30
0.0
  0
SPLINE
  5
564
100
AcDbEntity
  8
ASSI
100
AcDbSpline
 62
7
  6
CONTINUOUS
 70
0
 71
3
 72
17
 73
13
 74
0
 42
0.0000001
 43
0.0000001
 44
0.0000000001
 40
0.0
 40
0.0
 40
0.0
 40
0.0
 40
0.128680765
 40
0.2702710017
 40
0.4174276103
 40
0.5617760395
 40
0.6954482586
 40
0.8127145551
 40
0.8646793292
 40
0.9125126133
 40
0.9571411002
 40
1.0
 40
1.0
 40
1.0
 40
1.0
 10
-4.2198428558
 20
-61.0725787644
 30
0.0
 10
-4.2198428558
 20
-61.2007859698
 30
0.0
 10
-4.1839702269
 20
-61.4703686238
 30
0.0
 10
-4.0501030592
 20
-61.8662024355
 30
0.0
 10
-3.8437944366
 20
-62.2475221777
 30
0.0
 10
-3.5816580187
 20
-62.5830578242
 30
0.0
 10
-3.2850995174
 20
-62.8456997488
 30
0.0
 10
-3.0166823765
 20
-62.9924695114
 30
0.0
 10
-2.8067142652
 20
-63.0483367447
 30
0.0
 10
-2.6622052578
 20
-63.0589614608
 30
0.0
 10
-2.527644528
 20
-63.0392406669
 30
0.0
 10
-2.4461279507
 20
-63.0053561227
 30
0.0
 10
-2.4091482734
 20
-62.9840044543
 30
0.0
  0
SPLINE
  5
565
100
AcDbEntity
  8
ASSI
100
AcDbSpline
 62
7
  6
CONTINUOUS
 70
0
 71
3
 72
17
 73
13
 74
0
 42
0.0000001
 43
0.0000001
 44
0.0000000001
 40
0.0
 40
0.0
 40
0.0
 40
0.0
 40
0.128680765
 40
0.2702710017
 40
0.4174276103
 40
0.5617760395
 40
0.6954482586
 40
0.8127145551
 40
0.8646793292
 40
0.9125126133
 40
0.9571411002
 40
1.0
 40
1.0
 40
1.0
 40
1.0
 10
-85.5371226922
 20
59.3613243797
 30
0.0
 10
-85.5371226922
 20
59.2331171742
 30
0.0
 10
-85.5012500633
 20
58.9635345203
 30
0.0
 10
-85.3673828957
 20
58.5677007086
 30
0.0
 10
-85.1610742731
 20
58.1863809663
 30
0.0
 10
-84.8989378551
 20
57.8508453198
 30
0.0
 10
-84.6023793538
 20
57.5882033952
 30
0.0
 10
-84.3339622129
 20
57.4414336327
 30
0.0
 10
-84.1239941016
 20
57.3855663993
 30
0.0
 10
-83.9794850942
 20
57.3749416832
 30
0.0
 10
-83.8449243645
 20
57.3946624771
 30
0.0
 10
-83.7634077872
 20
57.4285470213
 30
0.0
 10
-83.7264281098
 20
57.4498986898
 30
0.0
  0
SPLINE
  5
566
100
AcDbEntity
  8
ASSI
100
AcDbSpline
 62
7
  6
CONTINUOUS
 70
0
 71
3
 72
11
 73
7
 74
0
 42
0.0000001
 43
0.0000001
 44
0.0000000001
 40
0.0
 40
0.0
 40
0.0
 40
0.0
 40
0.2585112702
 40
0.516919466
 40
0.7666354293
 40
1.0
 40
1.0
 40
1.0
 40
1.0
 10
-19.4226386513
 20
-66.4423540779
 30
0.0
 10
-19.2523940053
 20
-66.6645896038
 30
0.0
 10
-18.9416086537
 20
-67.1324357506
 30
0.0
 10
-18.5735374615
 20
-67.8791188247
 30
0.0
 10
-18.3160442955
 20
-68.6421948802
 30
0.0
 10
-18.2225392968
 20
-69.1596579564
 30
0.0
 10
-18.2003364939
 20
-69.411398371
 30
0.0
  0
SPLINE
  5
567
100
AcDbEntity
  8
ASSI
100
AcDbSpline
 62
7
  6
CONTINUOUS
 70
0
 71
3
 72
17
 73
13
 74
0
 42
0.0000001
 43
0.0000001
 44
0.0000000001
 40
0.0
 40
0.0
 40
0.0
 40
0.0
 40
0.128680765
 40
0.2702710017
 40
0.4174276103
 40
0.5617760395
 40
0.6954482586
 40
0.8127145551
 40
0.8646793292
 40
0.9125126133
 40
0.9571411002
 40
1.0
 40
1.0
 40
1.0
 40
1.0
 10
-85.5371226922
 20
-14.1210005317
 30
0.0
 10
-85.5371226922
 20
-14.2492077371
 30
0.0
 10
-85.5012500633
 20
-14.5187903911
 30
0.0
 10
-85.3673828957
 20
-14.9146242028
 30
0.0
 10
-85.1610742731
 20
-15.295943945
 30
0.0
 10
-84.8989378551
 20
-15.6314795915
 30
0.0
 10
-84.6023793538
 20
-15.8941215161
 30
0.0
 10
-84.3339622129
 20
-16.0408912787
 30
0.0
 10
-84.1239941016
 20
-16.0967585121
 30
0.0
 10
-83.9794850942
 20
-16.1073832281
 30
0.0
 10
-83.8449243645
 20
-16.0876624342
 30
0.0
 10
-83.7634077872
 20
-16.05377789
 30
0.0
 10
-83.7264281098
 20
-16.0324262216
 30
0.0
  0
SPLINE
  5
568
100
AcDbEntity
  8
0
100
AcDbSpline
 62
7
  6
CONTINUOUS
 70
0
 71
3
 72
11
 73
7
 74
0
 42
0.0000001
 43
0.0000001
 44
0.0000000001
 40
0.0
 40
0.0
 40
0.0
 40
0.0
 40
0.2898086367
 40
0.5490452335
 40
0.7822282854
 40
1.0
 40
1.0
 40
1.0
 40
1.0
 10
-60.4348319601
 20
8.1264138608
 30
0.0
 10
-60.4348319601
 20
8.2024361013
 30
0.0
 10
-60.4233546421
 20
8.3469592609
 30
0.0
 10
-60.3647557839
 20
8.5455076338
 30
0.0
 10
-60.2662727433
 20
8.7066444574
 30
0.0
 10
-60.1736775887
 20
8.7844515218
 30
0.0
 10
-60.124206199
 20
8.8130157708
 30
0.0
  0
SPLINE
  5
569
100
AcDbEntity
  8
0
100
AcDbSpline
 62
7
  6
CONTINUOUS
 70
0
 71
3
 72
11
 73
7
 74
0
 42
0.0000001
 43
0.0000001
 44
0.0000000001
 40
0.0
 40
0.0
 40
0.0
 40
0.0
 40
0.2898086367
 40
0.5490452335
 40
0.7822282854
 40
1.0
 40
1.0
 40
1.0
 40
1.0
 10
-29.3221335879
 20
-9.8376682456
 30
0.0
 10
-29.3221335879
 20
-9.7616460052
 30
0.0
 10
-29.3106562699
 20
-9.6171228455
 30
0.0
 10
-29.2520574117
 20
-9.4185744726
 30
0.0
 10
-29.1535743711
 20
-9.257437649
 30
0.0
 10
-29.0609792165
 20
-9.1796305846
 30
0.0
 10
-29.0115078268
 20
-9.1510663357
 30
0.0
  0
SPLINE
  5
56A
100
AcDbEntity
  8
ASSI
100
AcDbSpline
 62
7
  6
CONTINUOUS
 70
0
 71
3
 72
11
 73
7
 74
0
 42
0.0000001
 43
0.0000001
 44
0.0000000001
 40
0.0
 40
0.0
 40
0.0
 40
0.0
 40
0.2833196623
 40
0.5403771754
 40
0.7762235491
 40
1.0
 40
1.0
 40
1.0
 40
1.0
 10
-18.2003364939
 20
-70.0647168864
 30
0.0
 10
-18.2155718993
 20
-70.2198659041
 30
0.0
 10
-18.2676989329
 20
-70.5144580115
 30
0.0
 10
-18.4245938148
 20
-70.9153052559
 30
0.0
 10
-18.6541689505
 20
-71.2412710269
 30
0.0
 10
-18.8551280399
 20
-71.4017405681
 30
0.0
 10
-18.9617616848
 20
-71.4633094911
 30
0.0
  0
SPLINE
  5
56B
100
AcDbEntity
  8
0
100
AcDbSpline
 62
7
  6
CONTINUOUS
 70
0
 71
3
 72
10
 73
6
 74
0
 42
0.0000001
 43
0.0000001
 44
0.0000000001
 40
0.0
 40
0.0
 40
0.0
 40
0.0
 40
0.5188334627
 40
0.7620640369
 40
1.0
 40
1.0
 40
1.0
 40
1.0
 10
-40.5059122774
 20
-4.8091175803
 30
0.0
 10
-40.5890740312
 20
-5.0181018612
 30
0.0
 10
-40.7536103908
 20
-5.3128248113
 30
0.0
 10
-41.0570820624
 20
-5.6249403179
 30
0.0
 10
-41.2283742717
 20
-5.7465174922
 30
0.0
 10
-41.3177026378
 20
-5.7980945778
 30
0.0
  0
SPLINE
  5
56C
100
AcDbEntity
  8
RACCORDO
100
AcDbSpline
 62
7
  6
CONTINUOUS
 70
0
 71
3
 72
11
 73
7
 74
0
 42
0.0000001
 43
0.0000001
 44
0.0000000001
 40
0.0
 40
0.0
 40
0.0
 40
0.0
 40
0.2277629582
 40
0.4751789645
 40
0.7353578162
 40
1.0
 40
1.0
 40
1.0
 40
1.0
 10
-56.0622614635
 20
7.0305694416
 30
0.0
 10
-56.1732926694
 20
7.0946774684
 30
0.0
 10
-56.3917004379
 20
7.2519013066
 30
0.0
 10
-56.6867740616
 20
7.5440995676
 30
0.0
 10
-56.9517012115
 20
7.8903026632
 30
0.0
 10
-57.1001281158
 20
8.1468406581
 30
0.0
 10
-57.1662315718
 20
8.2803406538
 30
0.0
  0
SPLINE
  5
56D
100
AcDbEntity
  8
0
100
AcDbSpline
 62
7
  6
CONTINUOUS
 70
0
 71
3
 72
19
 73
15
 74
0
 42
0.0000001
 43
0.0000001
 44
0.0000000001
 40
0.0
 40
0.0
 40
0.0
 40
0.0
 40
0.1130661229
 40
0.2359433034
 40
0.3666947098
 40
0.433089482
 40
0.4990126116
 40
0.5641249714
 40
0.6281264821
 40
0.6899314383
 40
0.7507623659
 40
0.812495649
 40
0.8637106806
 40
1.0
 40
1.0
 40
1.0
 40
1.0
 10
-10.2642217016
 20
-54.9029810338
 30
0.0
 10
-10.2221133952
 20
-54.9272938115
 30
0.0
 10
-10.1379363853
 20
-54.9847808816
 30
0.0
 10
-10.0231469742
 20
-55.0938840577
 30
0.0
 10
-9.9396618698
 20
-55.2040961694
 30
0.0
 10
-9.8821251911
 20
-55.3016151441
 30
0.0
 10
-9.8452006754
 20
-55.3781813181
 30
0.0
 10
-9.8144987012
 20
-55.4562960382
 30
0.0
 10
-9.7888337117
 20
-55.5343244579
 30
0.0
 10
-9.7678270321
 20
-55.6118312608
 30
0.0
 10
-9.7517620152
 20
-55.6895327528
 30
0.0
 10
-9.7410599441
 20
-55.7635082466
 30
0.0
 10
-9.7275851374
 20
-55.8698830692
 30
0.0
 10
-9.7259142925
 20
-55.950661102
 30
0.0
 10
-9.7240691303
 20
-56.0092422663
 30
0.0
  0
LINE
  5
56E
100
AcDbEntity
  8
0
100
AcDbLine
 62
7
  6
CONTINUOUS
 10
-9.7240691303
 20
-56.0092422663
 11
-9.7238900711
 21
-56.0149935978
  0
SPLINE
  5
56F
100
AcDbEntity
  8
RACCORDO
100
AcDbSpline
 62
7
  6
CONTINUOUS
 70
0
 71
3
 72
11
 73
7
 74
0
 42
0.0000001
 43
0.0000001
 44
0.0000000001
 40
0.0
 40
0.0
 40
0.0
 40
0.0
 40
0.2277629582
 40
0.4751789645
 40
0.7353578162
 40
1.0
 40
1.0
 40
1.0
 40
1.0
 10
-24.9495630913
 20
-10.9335126648
 30
0.0
 10
-25.0605942972
 20
-10.869404638
 30
0.0
 10
-25.2790020657
 20
-10.7121807998
 30
0.0
 10
-25.5740756894
 20
-10.4199825388
 30
0.0
 10
-25.8390028393
 20
-10.0737794432
 30
0.0
 10
-25.9874297436
 20
-9.8172414483
 30
0.0
 10
-26.0535331995
 20
-9.6837414526
 30
0.0
  0
SPLINE
  5
570
100
AcDbEntity
  8
0
100
AcDbSpline
 62
7
  6
CONTINUOUS
 70
0
 71
3
 72
17
 73
13
 74
0
 42
0.0000001
 43
0.0000001
 44
0.0000000001
 40
0.0
 40
0.0
 40
0.0
 40
0.0
 40
0.1403611332
 40
0.2773702751
 40
0.4112115233
 40
0.5412569537
 40
0.664536908
 40
0.7796475625
 40
0.8348941914
 40
0.8901904827
 40
0.945606363
 40
1.0
 40
1.0
 40
1.0
 40
1.0
 10
-10.231398263
 20
-56.7624332907
 30
0.0
 10
-10.2131299564
 20
-56.7721718004
 30
0.0
 10
-10.1766091589
 20
-56.790637756
 30
0.0
 10
-10.121343831
 20
-56.815670767
 30
0.0
 10
-10.0664954531
 20
-56.8377721133
 30
0.0
 10
-10.0126813247
 20
-56.8570326937
 30
0.0
 10
-9.9596125363
 20
-56.8694546081
 30
0.0
 10
-9.9161662758
 20
-56.8726226663
 30
0.0
 10
-9.8829451005
 20
-56.8704084914
 30
0.0
 10
-9.8584923651
 20
-56.8693107043
 30
0.0
 10
-9.8341427537
 20
-56.8688116464
 30
0.0
 10
-9.8179947582
 20
-56.8671988867
 30
0.0
 10
-9.810069445
 20
-56.8659536697
 30
0.0
  0
SPLINE
  5
571
100
AcDbEntity
  8
0
100
AcDbSpline
 62
7
  6
CONTINUOUS
 70
0
 71
3
 72
18
 73
14
 74
0
 42
0.0000001
 43
0.0000001
 44
0.0000000001
 40
0.0
 40
0.0
 40
0.0
 40
0.0
 40
0.1439803055
 40
0.283882202
 40
0.4198231513
 40
0.5489430187
 40
0.6099324193
 40
0.6683783333
 40
0.7251752925
 40
0.7821467907
 40
0.8387332046
 40
0.8937798917
 40
1.0
 40
1.0
 40
1.0
 40
1.0
 10
-10.3728196067
 20
-56.844088216
 30
0.0
 10
-10.3510095752
 20
-56.8557147562
 30
0.0
 10
-10.3074211361
 20
-56.8775670435
 30
0.0
 10
-10.2413218632
 20
-56.9063444386
 30
0.0
 10
-10.1765241284
 20
-56.9315575518
 30
0.0
 10
-10.1224680044
 20
-56.9468713839
 30
0.0
 10
-10.0801501137
 20
-56.9528126135
 30
0.0
 10
-10.0498488333
 20
-56.9538867049
 30
0.0
 10
-10.0203451258
 20
-56.9516949227
 30
0.0
 10
-9.9911236534
 20
-56.9508752769
 30
0.0
 10
-9.9621655509
 20
-56.9496512978
 30
0.0
 10
-9.9252414704
 20
-56.9432845814
 30
0.0
 10
-9.8989723861
 20
-56.9331187619
 30
0.0
 10
-9.8831821406
 20
-56.9240010773
 30
0.0
  0
SPLINE
  5
572
100
AcDbEntity
  8
0
100
AcDbSpline
 62
7
  6
CONTINUOUS
 70
0
 71
3
 72
19
 73
15
 74
0
 42
0.0000001
 43
0.0000001
 44
0.0000000001
 40
0.0
 40
0.0
 40
0.0
 40
0.0
 40
0.1130734673
 40
0.2359658727
 40
0.3667307939
 40
0.4331270076
 40
0.4990476374
 40
0.5641558549
 40
0.6281473997
 40
0.6899329004
 40
0.750778098
 40
0.8124816105
 40
0.8635346894
 40
1.0
 40
1.0
 40
1.0
 40
1.0
 10
-10.4056431373
 20
-54.9846359066
 30
0.0
 10
-10.3634991634
 20
-55.0089692729
 30
0.0
 10
-10.2792512074
 20
-55.0665126068
 30
0.0
 10
-10.1643828974
 20
-55.1757367029
 30
0.0
 10
-10.0808589607
 20
-55.2860725419
 30
0.0
 10
-10.0233155881
 20
-55.3836969164
 30
0.0
 10
-9.9864023285
 20
-55.4603398646
 30
0.0
 10
-9.9557142323
 20
-55.5385226951
 30
0.0
 10
-9.9300650942
 20
-55.6166087138
 30
0.0
 10
-9.9090800036
 20
-55.6941799412
 30
0.0
 10
-9.893054528
 20
-55.7719375222
 30
0.0
 10
-9.8823838154
 20
-55.8458991248
 30
0.0
 10
-9.8689321879
 20
-55.9523546489
 30
0.0
 10
-9.8673013104
 20
-56.0332031921
 30
0.0
 10
-9.8654587637
 20
-56.0919060737
 30
0.0
  0
LINE
  5
573
100
AcDbEntity
  8
0
100
AcDbLine
 62
7
  6
CONTINUOUS
 10
-9.8664252202
 20
-56.1284340563
 11
-9.8653547548
 21
-56.0965585124
  0
LINE
  5
574
100
AcDbEntity
  8
0
100
AcDbLine
 62
7
  6
CONTINUOUS
 10
-9.8669169916
 20
-56.1433628331
 11
-9.8664252202
 21
-56.1284340563
  0
SPLINE
  5
575
100
AcDbEntity
  8
0
100
AcDbSpline
 62
7
  6
CONTINUOUS
 70
0
 71
3
 72
18
 73
14
 74
0
 42
0.0000001
 43
0.0000001
 44
0.0000000001
 40
0.0
 40
0.0
 40
0.0
 40
0.0
 40
0.07742371
 40
0.1741938799
 40
0.2701814509
 40
0.3305903665
 40
0.3815406583
 40
0.4418517034
 40
0.5712457153
 40
0.6872467632
 40
0.7974599673
 40
0.901417401
 40
1.0
 40
1.0
 40
1.0
 40
1.0
 10
-9.8669169916
 20
-56.1433628331
 30
0.0
 10
-9.8663738028
 20
-56.1268196778
 30
0.0
 10
-9.8640383086
 20
-56.0590816761
 30
0.0
 10
-9.867689115
 20
-56.1670276625
 30
0.0
 10
-9.8693550445
 20
-56.207843266
 30
0.0
 10
-9.8724348901
 20
-56.2542449738
 30
0.0
 10
-9.8770524625
 20
-56.2902477193
 30
0.0
 10
-9.8844621486
 20
-56.3413089639
 30
0.0
 10
-9.896180003
 20
-56.4056261294
 30
0.0
 10
-9.9192781742
 20
-56.4783463211
 30
0.0
 10
-9.9501081814
 20
-56.5420841731
 30
0.0
 10
-9.9886026927
 20
-56.5973132895
 30
0.0
 10
-10.0226597603
 20
-56.6253446821
 30
0.0
 10
-10.040911414
 20
-56.6358829612
 30
0.0
  0
SPLINE
  5
576
100
AcDbEntity
  8
RACCORDO
100
AcDbSpline
 62
7
  6
CONTINUOUS
 70
0
 71
3
 72
15
 73
11
 74
0
 42
0.0000001
 43
0.0000001
 44
0.0000000001
 40
0.0
 40
0.0
 40
0.0
 40
0.0
 40
0.1141517219
 40
0.2373209385
 40
0.3669696851
 40
0.4999939487
 40
0.6330190538
 40
0.762670259
 40
0.8858433486
 40
1.0
 40
1.0
 40
1.0
 40
1.0
 10
6.5988908964
 20
9.8372611146
 30
0.0
 10
6.5988908964
 20
10.3962015396
 30
0.0
 10
6.4965121624
 20
11.5593217813
 30
0.0
 10
6.0883736184
 20
13.3140267005
 30
0.0
 10
5.4345584464
 20
15.0914241117
 30
0.0
 10
4.5594952234
 20
16.8246771098
 30
0.0
 10
3.4959785562
 20
18.4491402172
 30
0.0
 10
2.2835961447
 20
19.9040892702
 30
0.0
 10
0.9680170002
 20
21.1349488072
 30
0.0
 10
0.0118927979
 20
21.8052140301
 30
0.0
 10
-0.4721769155
 20
22.0847098158
 30
0.0
  0
SPLINE
  5
577
100
AcDbEntity
  8
0
100
AcDbSpline
 62
7
  6
CONTINUOUS
 70
0
 71
3
 72
10
 73
6
 74
0
 42
0.0000001
 43
0.0000001
 44
0.0000000001
 40
0.0
 40
0.0
 40
0.0
 40
0.0
 40
0.4727501252
 40
0.7358259656
 40
1.0
 40
1.0
 40
1.0
 40
1.0
 10
-9.0925581056
 20
16.1988614752
 30
0.0
 10
-9.0501007044
 20
16.1743471039
 30
0.0
 10
-8.992602261
 20
16.1202840812
 30
0.0
 10
-8.9376412141
 20
16.0322124206
 30
0.0
 10
-8.9149270756
 20
15.9822435946
 30
0.0
 10
-8.9051872021
 20
15.9566373561
 30
0.0
  0
SPLINE
  5
578
100
AcDbEntity
  8
0
100
AcDbSpline
 62
7
  6
CONTINUOUS
 70
0
 71
3
 72
9
 73
5
 74
0
 42
0.0000001
 43
0.0000001
 44
0.0000000001
 40
0.0
 40
0.0
 40
0.0
 40
0.0
 40
0.2556559795
 40
1.0
 40
1.0
 40
1.0
 40
1.0
 10
-8.9051872021
 20
15.9566373561
 30
0.0
 10
-8.9033868757
 20
15.9519042773
 30
0.0
 10
-8.8965633371
 20
15.9333087476
 30
0.0
 10
-8.890601286
 20
15.9143947999
 30
0.0
 10
-8.8867095991
 20
15.9001740783
 30
0.0
  0
SPLINE
  5
579
100
AcDbEntity
  8
0
100
AcDbSpline
 62
7
  6
CONTINUOUS
 70
0
 71
3
 72
9
 73
5
 74
0
 42
0.0000001
 43
0.0000001
 44
0.0000000001
 40
0.0
 40
0.0
 40
0.0
 40
0.0
 40
0.5015506077
 40
1.0
 40
1.0
 40
1.0
 40
1.0
 10
-8.8867095991
 20
15.9001740783
 30
0.0
 10
-8.8544637116
 20
15.7824486615
 30
0.0
 10
-8.8044002084
 20
15.5440789011
 30
0.0
 10
-8.7511747712
 20
15.3066641669
 30
0.0
 10
-8.7253710273
 20
15.1881333358
 30
0.0
  0
SPLINE
  5
57A
100
AcDbEntity
  8
0
100
AcDbSpline
 62
7
  6
CONTINUOUS
 70
0
 71
3
 72
9
 73
5
 74
0
 42
0.0000001
 43
0.0000001
 44
0.0000000001
 40
0.0
 40
0.0
 40
0.0
 40
0.0
 40
0.2738321968
 40
1.0
 40
1.0
 40
1.0
 40
1.0
 10
-8.7092795857
 20
16.1436045594
 30
0.0
 10
-8.7069135442
 20
16.1425909504
 30
0.0
 10
-8.6980472561
 20
16.1394139174
 30
0.0
 10
-8.6883609485
 20
16.1387395375
 30
0.0
 10
-8.6815767879
 20
16.1394937751
 30
0.0
  0
SPLINE
  5
57B
100
AcDbEntity
  8
0
100
AcDbSpline
 62
7
  6
CONTINUOUS
 70
0
 71
3
 72
10
 73
6
 74
0
 42
0.0000001
 43
0.0000001
 44
0.0000000001
 40
0.0
 40
0.0
 40
0.0
 40
0.0
 40
0.2356074691
 40
0.4806650841
 40
1.0
 40
1.0
 40
1.0
 40
1.0
 10
-9.3026216684
 20
17.2146926976
 30
0.0
 10
-9.2784892827
 20
17.2055136519
 30
0.0
 10
-9.2295777052
 20
17.1858597681
 30
0.0
 10
-9.1311374585
 20
17.1375240882
 30
0.0
 10
-9.0599459091
 20
17.0928043625
 30
0.0
 10
-9.0135721912
 20
17.0598135303
 30
0.0
  0
SPLINE
  5
57C
100
AcDbEntity
  8
0
100
AcDbSpline
 62
7
  6
CONTINUOUS
 70
0
 71
3
 72
11
 73
7
 74
0
 42
0.0000001
 43
0.0000001
 44
0.0000000001
 40
0.0
 40
0.0
 40
0.0
 40
0.0
 40
0.2413629477
 40
0.5033335929
 40
0.764823587
 40
1.0
 40
1.0
 40
1.0
 40
1.0
 10
-9.0135721912
 20
17.0598135303
 30
0.0
 10
-8.9845393859
 20
17.0391583263
 30
0.0
 10
-8.9293990709
 20
16.988362334
 30
0.0
 10
-8.8626732671
 20
16.8961984511
 30
0.0
 10
-8.8190961132
 20
16.7921487438
 30
0.0
 10
-8.8056188075
 20
16.7190553187
 30
0.0
 10
-8.8051522353
 20
16.6843411041
 30
0.0
  0
SPLINE
  5
57D
100
AcDbEntity
  8
0
100
AcDbSpline
 62
7
  6
CONTINUOUS
 70
0
 71
3
 72
10
 73
6
 74
0
 42
0.0000001
 43
0.0000001
 44
0.0000000001
 40
0.0
 40
0.0
 40
0.0
 40
0.0
 40
0.287839562
 40
0.5553667238
 40
1.0
 40
1.0
 40
1.0
 40
1.0
 10
-8.8051522353
 20
16.6843411041
 30
0.0
 10
-8.8048817161
 20
16.6639417195
 30
0.0
 10
-8.8073984558
 20
16.6242930013
 30
0.0
 10
-8.8231378913
 20
16.5557581647
 30
0.0
 10
-8.8522243037
 20
16.5081233331
 30
0.0
 10
-8.8795159923
 20
16.4923654604
 30
0.0
  0
SPLINE
  5
57E
100
AcDbEntity
  8
0
100
AcDbSpline
 62
7
  6
CONTINUOUS
 70
0
 71
3
 72
11
 73
7
 74
0
 42
0.0000001
 43
0.0000001
 44
0.0000000001
 40
0.0
 40
0.0
 40
0.0
 40
0.0
 40
0.2461928452
 40
0.5000034167
 40
0.7538122393
 40
1.0
 40
1.0
 40
1.0
 40
1.0
 10
-42.5803857352
 20
1.6416218126
 30
0.0
 10
-42.3383168713
 20
1.3974210351
 30
0.0
 10
-41.8814322969
 20
0.866101115
 30
0.0
 10
-41.2990870457
 20
-0.0140295883
 30
0.0
 10
-40.8280468718
 20
-0.9584141844
 30
0.0
 10
-40.5963576551
 20
-1.6197396344
 30
0.0
 10
-40.5059122774
 20
-1.9514716116
 30
0.0
  0
ENDSEC
  0
SECTION
  2
OBJECTS
  0
DICTIONARY
  5
C
100
AcDbDictionary
280
0
281
1
  3
ACAD_GROUP
350
D
  3
ACAD_MLINESTYLE
350
17
  3
ACAD_LAYOUT
350
1A
  3
ACAD_PLOTSETTINGS
350
19
  3
ACAD_PLOTSTYLENAME
350
E
  0
DICTIONARY
  5
D
102
{ACAD_REACTORS
330
C
102
}
100
AcDbDictionary
280
0
281
1
  0
ACDBDICTIONARYWDFLT
  5
E
102
{ACAD_REACTORS
330
C
102
}
100
AcDbDictionary
281
1
  3
Normal
350
F
100
AcDbDictionaryWithDefault
340
F
  0
DICTIONARY
  5
17
102
{ACAD_REACTORS
330
C
102
}
100
AcDbDictionary
280
0
281
1
  3
Standard
350
18
  0
DICTIONARY
  5
19
102
{ACAD_REACTORS
330
C
102
}
100
AcDbDictionary
281
1
  0
DICTIONARY
  5
1A
102
{ACAD_REACTORS
330
C
102
}
100
AcDbDictionary
281
1
  3
Model
350
57F
  3
Layout1
350
580
  0
ACDBPLACEHOLDER
  5
F
102
{ACAD_REACTORS
330
E
102
}
  0
MLINESTYLE
  5
18
102
{ACAD_REACTORS
330
17
102
}
100
AcDbMlineStyle
  2
STANDARD
 70
0
  3

 62
256
 51
90.0
 52
90.0
 71
2
 49
0.5
 62
256
  6
BYLAYER
 49
-0.5
 62
256
  6
BYLAYER
  0
LAYOUT
  5
57F
102
{ACAD_REACTORS
330
1A
102
}
100
AcDbPlotSettings
  1

  2
none_device
  4
ISO_A4_(297.00_x_210.00_MM)
  6

 40
0.0
 41
0.0
 42
0.0
 43
0.0
 44
297.0
 45
210.0
 46
0.0
 47
0.0
 48
0.0
 49
0.0
140
0.0
141
0.0
142
1.0
143
1.0
 70
1024
 72
1
 73
0
 74
0
  7

 75
0
147
1.0
148
0.0
149
0.0
100
AcDbLayout
  1
Model
 70
0
 71
0
 10
0.0
 20
0.0
 11
297.0
 21
210.0
 12
0.0
 22
0.0
 32
0.0
 14
0.0
 24
0.0
 34
0.0
 15
0.0
 25
0.0
 35
0.0
146
0.0
 13
0.0
 23
0.0
 33
0.0
 16
1.0
 26
0.0
 36
0.0
 17
0.0
 27
1.0
 37
0.0
 76
0
330
20F
345
0
346
0
  0
LAYOUT
  5
580
102
{ACAD_REACTORS
330
1A
102
}
100
AcDbPlotSettings
  1

  2
none_device
  4
ISO_A4_(297.00_x_210.00_MM)
  6

 40
0.0
 41
0.0
 42
0.0
 43
0.0
 44
297.0
 45
210.0
 46
0.0
 47
0.0
 48
0.0
 49
0.0
140
0.0
141
0.0
142
1.0
143
1.0
 70
0
 72
1
 73
0
 74
0
  7

 75
0
147
1.0
148
0.0
149
0.0
100
AcDbLayout
  1
Layout1
 70
0
 71
1
 10
0.0
 20
0.0
 11
297.0
 21
210.0
 12
0.0
 22
0.0
 32
0.0
 14
0.0
 24
0.0
 34
0.0
 15
0.0
 25
0.0
 35
0.0
146
0.0
 13
0.0
 23
0.0
 33
0.0
 16
1.0
 26
0.0
 36
0.0
 17
0.0
 27
1.0
 37
0.0
 76
0
330
210
345
0
346
0
  0
ENDSEC
  0
EOF
