  0
SECTION
  2
HEADER
  9
$ACADVER
  1
AC1024
  9
$DWGCODEPAGE
  3
ANSI_1252
  9
$EXTMAX
 10
297.0
 20
210.0
 30
0.0
  9
$EXTMIN
 10
0.0
 20
0.0
 30
0.0
  9
$LIMMIN
 10
0.0
 20
0.0
  9
$LIMMAX
 10
297.0
 20
210.0
  9
$VIEWCTR
 10
148.5
 20
105.0
  9
$VIEWSIZE
 40
210.0
  9
$CLAYER
  8
0
  9
$LTSCALE
 40
16.335
  9
$CELTYPE
  6
BYLAYER
  9
$DIMSCALE
 40
1.0
  9
$DIMASZ
 40
3.0
  9
$DIMEXO
 40
0.5
  9
$DIMDLI
 40
11.286
  9
$DIMEXE
 40
1.5
  9
$DIMCEN
 40
2.673
  9
$DIMLFAC
 40
1.0
  9
$DIMBLK
  1
_FILLED
  9
$DIMALT
 70
0
  9
$DIMALTF
 40
0.0393700787
  9
$DIMTXT
 40
3.0
  9
$DIMTOL
 70
1
  9
$DIMLIM
 70
0
  9
$DIMTFAC
 40
1.0
  9
$DIMTP
 40
0.01
  9
$DIMTM
 40
0.01
  9
$DIMGAP
 40
0.625
  9
$DIMDSEP
 70
44
  9
$AUNITS
 70
0
  9
$PDMODE
 70
3
  9
$PDSIZE
 40
3.0
  9
$HANDSEED
  5
3AA
  9
$TILEMODE
 70
1
  9
$MEASUREMENT
 70
1
  9
$INSUNITS
 70
4
  0
ENDSEC
  0
SECTION
  2
CLASSES
  0
CLASS
  1
ACDBDICTIONARYWDFLT
  2
AcDbDictionaryWithDefault
  3
AutoCAD 2000
 90
0
 91
1
280
0
281
0
  0
CLASS
  1
ACDBPLACEHOLDER
  2
AcDbPlaceHolder
  3
AutoCAD 2000
 90
0
 91
1
280
0
281
0
  0
CLASS
  1
LAYOUT
  2
AcDbLayout
  3
AutoCAD 2000
 90
0
 91
0
280
0
281
0
  0
ENDSEC
  0
SECTION
  2
TABLES
  0
TABLE
  2
VPORT
  5
8
100
AcDbSymbolTable
 70
2
  0
VPORT
  5
1F4
100
AcDbSymbolTableRecord
100
AcDbViewportTableRecord
  2
*ACTIVE
 70
0
 10
0.0
 20
0.0
 11
1.0
 21
1.0
 12
148.5
 22
105.0
 13
0.0
 23
0.0
 14
1.0
 24
1.0
 15
0.0
 25
0.0
 16
0.0
 26
0.0
 36
1.0
 17
0.0
 27
0.0
 37
0.0
 40
210.0
 41
1.4142857143
 42
50.0
 43
0.0
 44
0.0
 50
0.0
 51
0.0
 71
0
 72
100
 73
1
 74
1
 75
0
 76
0
 77
0
 78
0
  0
ENDTAB
  0
TABLE
  2
LTYPE
  5
5
100
AcDbSymbolTable
 70
6
  0
LTYPE
  5
14
100
AcDbSymbolTableRecord
100
AcDbLinetypeTableRecord
  2
BYBLOCK
 70
0
  3

 72
65
 73
0
 40
0.0
  0
LTYPE
  5
15
100
AcDbSymbolTableRecord
100
AcDbLinetypeTableRecord
  2
BYLAYER
 70
0
  3

 72
65
 73
0
 40
0.0
  0
LTYPE
  5
16
100
AcDbSymbolTableRecord
100
AcDbLinetypeTableRecord
  2
CONTINUOUS
 70
64
  3
Solid line
 72
65
 73
0
 40
0.0
  0
LTYPE
  5
1F5
100
AcDbSymbolTableRecord
100
AcDbLinetypeTableRecord
  2
CENTER
 70
64
  3
____ _ ____ _ ____ _ ____ _ ____ _ ____ _ ____
 72
65
 73
4
 40
0.6
 49
0.375
 74
0
 49
-0.075
 74
0
 49
0.075
 74
0
 49
-0.075
 74
0
  0
LTYPE
  5
1F6
100
AcDbSymbolTableRecord
100
AcDbLinetypeTableRecord
  2
HIDDEN
 70
64
  3
- - - - - - - - - - - - - - - - - - - -
 72
65
 73
2
 40
0.2
 49
0.1
 74
0
 49
-0.1
 74
0
  0
LTYPE
  5
1F7
100
AcDbSymbolTableRecord
100
AcDbLinetypeTableRecord
  2
PHANTOM
 70
64
  3
_____ _ _ _____ _ _ _____ _ _ _____
 72
65
 73
6
 40
0.8
 49
0.45
 74
0
 49
-0.05
 74
0
 49
0.1
 74
0
 49
-0.05
 74
0
 49
0.1
 74
0
 49
-0.05
 74
0
  0
LTYPE
  5
1F8
100
AcDbSymbolTableRecord
100
AcDbLinetypeTableRecord
  2
DOT
 70
64
  3
. . . . . . . . . . . . . . . . . . . .
 72
65
 73
2
 40
0.2
 49
0.1
 74
0
 49
-0.1
 74
0
  0
LTYPE
  5
1F9
100
AcDbSymbolTableRecord
100
AcDbLinetypeTableRecord
  2
DASHED
 70
64
  3
- - - - - - - - - - - - - - - - - - - -
 72
65
 73
2
 40
0.2
 49
0.1
 74
0
 49
-0.1
 74
0
  0
ENDTAB
  0
TABLE
  2
LAYER
  5
2
100
AcDbSymbolTable
 70
36
  0
LAYER
  5
10
100
AcDbSymbolTableRecord
100
AcDbLayerTableRecord
  2
0
 70
0
 62
7
  6
CONTINUOUS
370
-3
390
F
  0
LAYER
  5
1FA
100
AcDbSymbolTableRecord
100
AcDbLayerTableRecord
  2
DEFAULT_1
 70
0
 62
7
  6
CENTER
370
-3
390
F
  0
LAYER
  5
1FB
100
AcDbSymbolTableRecord
100
AcDbLayerTableRecord
  2
DEFAULT_2
 70
0
 62
7
  6
HIDDEN
370
-3
390
F
  0
LAYER
  5
1FC
100
AcDbSymbolTableRecord
100
AcDbLayerTableRecord
  2
DEFAULT_3
 70
0
 62
7
  6
PHANTOM
370
-3
390
F
  0
LAYER
  5
1FD
100
AcDbSymbolTableRecord
100
AcDbLayerTableRecord
  2
ASSI
 70
0
 62
7
  6
CONTINUOUS
370
-3
390
F
  0
LAYER
  5
1FE
100
AcDbSymbolTableRecord
100
AcDbLayerTableRecord
  2
COLOR5
 70
0
 62
7
  6
CONTINUOUS
370
-3
390
F
  0
LAYER
  5
1FF
100
AcDbSymbolTableRecord
100
AcDbLayerTableRecord
  2
COORDINATE
 70
0
 62
7
  6
CONTINUOUS
370
-3
390
F
  0
LAYER
  5
200
100
AcDbSymbolTableRecord
100
AcDbLayerTableRecord
  2
COORD_ORIGINE
 70
0
 62
7
  6
CONTINUOUS
370
-3
390
F
  0
LAYER
  5
201
100
AcDbSymbolTableRecord
100
AcDbLayerTableRecord
  2
COPY_PUBLISH
 70
0
 62
7
  6
CONTINUOUS
370
-3
390
F
  0
LAYER
  5
202
100
AcDbSymbolTableRecord
100
AcDbLayerTableRecord
  2
COSMETICI
 70
0
 62
7
  6
CONTINUOUS
370
-3
390
F
  0
LAYER
  5
203
100
AcDbSymbolTableRecord
100
AcDbLayerTableRecord
  2
CURVE
 70
0
 62
7
  6
CONTINUOUS
370
-3
390
F
  0
LAYER
  5
204
100
AcDbSymbolTableRecord
100
AcDbLayerTableRecord
  2
DRAFT
 70
0
 62
7
  6
CONTINUOUS
370
-3
390
F
  0
LAYER
  5
205
100
AcDbSymbolTableRecord
100
AcDbLayerTableRecord
  2
IMPORT_IGES
 70
0
 62
7
  6
CONTINUOUS
370
-3
390
F
  0
LAYER
  5
206
100
AcDbSymbolTableRecord
100
AcDbLayerTableRecord
  2
INTF_1
 70
0
 62
7
  6
CONTINUOUS
370
-3
390
F
  0
LAYER
  5
207
100
AcDbSymbolTableRecord
100
AcDbLayerTableRecord
  2
NOTE
 70
0
 62
7
  6
CONTINUOUS
370
-3
390
F
  0
LAYER
  5
208
100
AcDbSymbolTableRecord
100
AcDbLayerTableRecord
  2
PIANI
 70
0
 62
7
  6
CONTINUOUS
370
-3
390
F
  0
LAYER
  5
209
100
AcDbSymbolTableRecord
100
AcDbLayerTableRecord
  2
PIANI_ORIGINE
 70
0
 62
7
  6
CONTINUOUS
370
-3
390
F
  0
LAYER
  5
20A
100
AcDbSymbolTableRecord
100
AcDbLayerTableRecord
  2
PUNTI
 70
0
 62
7
  6
CONTINUOUS
370
-3
390
F
  0
LAYER
  5
20B
100
AcDbSymbolTableRecord
100
AcDbLayerTableRecord
  2
RACCORDO
 70
0
 62
7
  6
CONTINUOUS
370
-3
390
F
  0
LAYER
  5
20C
100
AcDbSymbolTableRecord
100
AcDbLayerTableRecord
  2
SIMBOLI
 70
0
 62
7
  6
CONTINUOUS
370
-3
390
F
  0
LAYER
  5
20D
100
AcDbSymbolTableRecord
100
AcDbLayerTableRecord
  2
SMUSSO
 70
0
 62
7
  6
CONTINUOUS
370
-3
390
F
  0
LAYER
  5
20E
100
AcDbSymbolTableRecord
100
AcDbLayerTableRecord
  2
SUPERFICI
 70
0
 62
7
  6
CONTINUOUS
370
-3
390
F
  0
LAYER
  5
20F
100
AcDbSymbolTableRecord
100
AcDbLayerTableRecord
  2
TRASH
 70
0
 62
7
  6
CONTINUOUS
370
-3
390
F
  0
ENDTAB
  0
TABLE
  2
STYLE
  5
3
100
AcDbSymbolTable
 70
1
  0
STYLE
  5
11
100
AcDbSymbolTableRecord
100
AcDbTextStyleTableRecord
  2
STANDARD
 70
0
 40
0.0
 41
0.8
 50
0.0
 71
0
 42
0.2
  3
txt
  4

  0
STYLE
  5
210
100
AcDbSymbolTableRecord
100
AcDbTextStyleTableRecord
  2
TEXTSTYLE_1
 70
0
 40
0.0
 41
0.8
 50
0.0
 71
0
 42
0.2
  3
gdt
  4

  0
ENDTAB
  0
TABLE
  2
VIEW
  5
6
100
AcDbSymbolTable
 70
0
  0
ENDTAB
  0
TABLE
  2
UCS
  5
7
100
AcDbSymbolTable
 70
0
  0
ENDTAB
  0
TABLE
  2
APPID
  5
9
100
AcDbSymbolTable
 70
1
  0
APPID
  5
211
100
AcDbSymbolTableRecord
100
AcDbRegAppTableRecord
  2
ACAD
 70
0
  0
ENDTAB
  0
TABLE
  2
BLOCK_RECORD
  5
1
100
AcDbSymbolTable
 70
0
  0
BLOCK_RECORD
  5
212
100
AcDbSymbolTableRecord
100
AcDbBlockTableRecord
  2
*Model_Space
  0
BLOCK_RECORD
  5
213
100
AcDbSymbolTableRecord
100
AcDbBlockTableRecord
  2
*Paper_Space
  0
BLOCK_RECORD
  5
214
100
AcDbSymbolTableRecord
100
AcDbBlockTableRecord
  2
_FILLED
  0
ENDTAB
  0
TABLE
  2
DIMSTYLE
  5
A
100
AcDbSymbolTable
 70
1
100
AcDbDimStyleTable
 71
0
  0
DIMSTYLE
105
215
100
AcDbSymbolTableRecord
100
AcDbDimStyleTableRecord
  2
STANDARD
 70
0
  3

  4

 40
1.0
 41
3.0
 42
0.5
 43
0.38
 44
1.5
 45
0.0
 46
0.0
 47
0.01
 48
0.01
140
3.0
141
0.09
142
0.0
143
25.4
144
1.0
145
0.0
146
1.0
147
0.625
 71
1.0
 72
0.0
 73
0
 74
0
 75
0
 76
0
 77
1
 78
8
 79
2
170
0
171
1
172
0
173
0
174
0
175
0
176
0
177
0
178
0
270
2
179
2
271
2
272
2
273
2
274
2
275
0
280
0
281
0
282
0
283
1
284
8
285
0
286
0
287
3
288
0
340
11
278
44
341
214
342
214
343
214
344
214
  0
ENDTAB
  0
ENDSEC
  0
SECTION
  2
BLOCKS
  0
BLOCK
  5
20
100
AcDbEntity
  8
0
100
AcDbBlockBegin
  2
*Model_Space
 70
0
 10
0.0
 20
0.0
 30
0.0
  3
*Model_Space
  1

  0
ENDBLK
  5
21
100
AcDbEntity
  8
0
100
AcDbBlockEnd
  0
BLOCK
  5
1C
100
AcDbEntity
  8
0
100
AcDbBlockBegin
  2
*Paper_Space
 70
0
 10
0.0
 20
0.0
 30
0.0
  3
*Paper_Space
  1

  0
ENDBLK
  5
1D
100
AcDbEntity
  8
0
100
AcDbBlockEnd
  0
BLOCK
  5
216
100
AcDbEntity
  8
0
100
AcDbBlockBegin
  2
_FILLED
 70
64
 10
0.0
 20
0.0
  3
_FILLED
  1

  0
SOLID
  5
217
100
AcDbEntity
  8
0
  6
BYBLOCK
 62
0
100
AcDbTrace
 10
0.0
 20
0.0
 11
-1.0
 21
0.3166666667
 12
-1.0
 22
-0.3166666667
 13
-1.0
 23
-0.3166666667
  0
ENDBLK
  5
218
100
AcDbEntity
  8
0
  6
BYBLOCK
 62
0
100
AcDbBlockEnd
  0
ENDSEC
  0
SECTION
  2
ENTITIES
  0
LINE
  5
219
100
AcDbEntity
  8
RACCORDO
100
AcDbLine
 62
7
  6
CONTINUOUS
 10
137.0287488143
 20
159.305152353
 11
141.7815661431
 21
160.8308963766
  0
LINE
  5
21A
100
AcDbEntity
  8
RACCORDO
100
AcDbLine
 62
250
  6
CONTINUOUS
 10
137.6181381956
 20
159.2296027924
 11
142.332492153
 21
160.7429993482
  0
LINE
  5
21B
100
AcDbEntity
  8
RACCORDO
100
AcDbLine
 62
7
  6
CONTINUOUS
 10
135.9190093192
 20
158.6971232599
 11
136.4895234744
 21
159.1040718117
  0
LINE
  5
21C
100
AcDbEntity
  8
RACCORDO
100
AcDbLine
 62
250
  6
CONTINUOUS
 10
136.6976278803
 20
158.7238283599
 11
137.2336528914
 21
159.1061757565
  0
LWPOLYLINE
  5
21D
100
AcDbEntity
  8
0
100
AcDbPolyline
 62
7
  6
CONTINUOUS
 90
13
 70
0
 10
130.7207927004
 20
154.1699536596
 10
130.7168258976
 20
154.1675957244
 10
130.7126050775
 20
154.1642400084
 10
130.7073728007
 20
154.1589003688
 10
130.7011606446
 20
154.150858452
 10
130.6945354486
 20
154.1400635074
 10
130.6878570523
 20
154.126388787
 10
130.6815018592
 20
154.1098828973
 10
130.6757968569
 20
154.0906776803
 10
130.6709763392
 20
154.0687612657
 10
130.6672735785
 20
154.044162933
 10
130.6649243852
 20
154.0171374393
 10
130.6641085851
 20
153.9879246992
  0
LWPOLYLINE
  5
21E
100
AcDbEntity
  8
0
100
AcDbPolyline
 62
7
  6
CONTINUOUS
 90
15
 70
0
 10
130.4973294875
 20
154.6172390329
 10
130.4888971192
 20
154.6129308184
 10
130.4464953474
 20
154.5882355712
 10
130.4061384532
 20
154.5594465972
 10
130.3681582953
 20
154.526698437
 10
130.3324898597
 20
154.4897531081
 10
130.2993711212
 20
154.4485381495
 10
130.2692455817
 20
154.4032657405
 10
130.2423814463
 20
154.3539972798
 10
130.2189433898
 20
154.3005525797
 10
130.1993389594
 20
154.2432846973
 10
130.183987618
 20
154.1831098553
 10
130.1729918405
 20
154.1204939014
 10
130.1663420494
 20
154.0553701465
 10
130.1641085851
 20
153.9879246992
  0
LWPOLYLINE
  5
21F
100
AcDbEntity
  8
0
100
AcDbPolyline
 62
250
  6
CONTINUOUS
 90
22
 70
0
 10
130.5908852804
 20
153.8995363515
 10
130.5691674579
 20
153.889872741
 10
130.5453527302
 20
153.8815351151
 10
130.5197631505
 20
153.8746362258
 10
130.4927447741
 20
153.8692693687
 10
130.4646629782
 20
153.8655071214
 10
130.4358975208
 20
153.8634003619
 10
130.4068374054
 20
153.8629775804
 10
130.3778756203
 20
153.8642444943
 10
130.3494038238
 20
153.8671839709
 10
130.3218070483
 20
153.8717562586
 10
130.2954584927
 20
153.8778995253
 10
130.270714476
 20
153.8855306936
 10
130.2479096187
 20
153.8945465653
 10
130.2273523173
 20
153.904825216
 10
130.209320574
 20
153.9162276446
 10
130.1940582373
 20
153.9285996529
 10
130.181771704
 20
153.9417739307
 10
130.1726271285
 20
153.9555723185
 10
130.1667481755
 20
153.9698082167
 10
130.1642143476
 20
153.9842891093
 10
130.1641085851
 20
153.9879246992
  0
LWPOLYLINE
  5
220
100
AcDbEntity
  8
0
100
AcDbPolyline
 62
250
  6
CONTINUOUS
 90
7
 70
0
 10
130.944438671
 20
154.58878506
 10
130.9649611927
 20
154.5975823824
 10
130.9852061825
 20
154.603332859
 10
131.0048998617
 20
154.6059587247
 10
131.0237759069
 20
154.6054244691
 10
131.0415790522
 20
154.601737317
 10
131.0562420699
 20
154.5958855068
  0
LWPOLYLINE
  5
221
100
AcDbEntity
  8
RACCORDO
100
AcDbPolyline
 62
250
  6
CONTINUOUS
 90
31
 70
0
 10
171.3476264584
 20
42.257670023
 10
171.4040375248
 20
42.231439599
 10
171.4596136854
 20
42.2090208225
 10
171.5143549401
 20
42.1904136934
 10
171.5682678557
 20
42.1756503445
 10
171.6213458656
 20
42.164698643
 10
171.6735692691
 20
42.157462191
 10
171.7250767306
 20
42.1539071546
 10
171.7757295857
 20
42.1540673677
 10
171.8250921409
 20
42.1579479328
 10
171.8731393031
 20
42.1655802826
 10
171.9198961653
 20
42.1769329845
 10
171.9650023136
 20
42.1919168433
 10
172.0084475206
 20
42.2105597291
 10
172.0502420136
 20
42.2328337717
 10
172.0900560612
 20
42.2585661656
 10
172.1278779874
 20
42.2877902535
 10
172.1637194682
 20
42.3204726926
 10
172.1972857999
 20
42.356340649
 10
172.2285133526
 20
42.3952919992
 10
172.2574657562
 20
42.4374288666
 10
172.2840391968
 20
42.4827847873
 10
172.3083103894
 20
42.5314585105
 10
172.3302026191
 20
42.5833512869
 10
172.349381927
 20
42.6382004049
 10
172.3658321046
 20
42.6961182936
 10
172.3795693604
 20
42.756992524
 10
172.3903083609
 20
42.8202230973
 10
172.3979539952
 20
42.8856100141
 10
172.4026013742
 20
42.9533532739
 10
172.404250498
 20
43.0234528767
  0
LWPOLYLINE
  5
222
100
AcDbEntity
  8
RACCORDO
100
AcDbPolyline
 62
250
  6
CONTINUOUS
 90
22
 70
0
 10
172.404250498
 20
43.0234528767
 10
172.4817633352
 20
42.9873420304
 10
172.5641806411
 20
42.9540568969
 10
172.651091274
 20
42.9237635202
 10
172.7420616767
 20
42.8966130201
 10
172.8366380398
 20
42.8727408379
 10
172.9343485654
 20
42.8522660609
 10
173.0347058207
 20
42.8352908283
 10
173.1372091698
 20
42.8218998218
 10
173.2413472705
 20
42.8121598429
 10
173.346600626
 20
42.8061194799
 10
173.4524441758
 20
42.8038088653
 10
173.5583499152
 20
42.8052395257
 10
173.6637895292
 20
42.8104043243
 10
173.7682370283
 20
42.8192774963
 10
173.871171372
 20
42.8318147774
 10
173.9720790684
 20
42.8479536249
 10
174.0704567354
 20
42.8676135297
 10
174.1658136122
 20
42.8906964174
 10
174.2576740074
 20
42.9170871383
 10
174.3455796717
 20
42.9466540411
 10
174.4290920843
 20
42.9792496302
  0
LWPOLYLINE
  5
223
100
AcDbEntity
  8
RACCORDO
100
AcDbPolyline
 62
250
  6
CONTINUOUS
 90
37
 70
0
 10
155.0760646398
 20
52.6709081746
 10
155.2146063763
 20
52.6060802347
 10
155.3527714652
 20
52.5503146905
 10
155.4901811943
 20
52.5037649857
 10
155.6264602224
 20
52.4665589989
 10
155.761233552
 20
52.4387998416
 10
155.8941277214
 20
52.4205646331
 10
156.0247770024
 20
52.4119031845
 10
156.1528248889
 20
52.4128387516
 10
156.2779210895
 20
52.4233686273
 10
156.3997228708
 20
52.4434639008
 10
156.5178962761
 20
52.4730694116
 10
156.6321176427
 20
52.5121040219
 10
156.7420739663
 20
52.56046075
 10
156.8474638104
 20
52.6180070149
 10
156.9479983435
 20
52.6845850849
 10
157.0434019788
 20
52.7600124305
 10
157.1334132715
 20
52.8440823243
 10
157.2177856338
 20
52.9365644653
 10
157.2962878622
 20
53.0372054901
 10
157.3687046884
 20
53.1457294894
 10
157.4348375184
 20
53.2618388643
 10
157.4945050645
 20
53.3852152905
 10
157.5475438271
 20
53.5155206538
 10
157.593808449
 20
53.6523978209
 10
157.6331721253
 20
53.7954716163
 10
157.665526968
 20
53.9443498852
 10
157.6907843047
 20
54.0986246046
 10
157.708874906
 20
54.2578729345
 10
157.7197491827
 20
54.4216583769
 10
157.7233773269
 20
54.5895320152
 10
157.7197493911
 20
54.7610337269
 10
157.7088753163
 20
54.9356934359
 10
157.6907849056
 20
55.113032405
 10
157.665527744
 20
55.2925645494
 10
157.6331730566
 20
55.4737977979
 10
157.5938095166
 20
55.6562354339
  0
LWPOLYLINE
  5
224
100
AcDbEntity
  8
RACCORDO
100
AcDbPolyline
 62
250
  6
CONTINUOUS
 90
64
 70
0
 10
155.1274905876
 20
52.3723928849
 10
155.2727758162
 20
52.3042031544
 10
155.4171275047
 20
52.245246474
 10
155.5605456532
 20
52.1955228435
 10
155.7034401579
 20
52.1549316817
 10
155.8454011225
 20
52.1235735698
 10
155.9851988587
 20
52.1017502519
 10
156.1227438698
 20
52.0895582131
 10
156.2581256525
 20
52.0869009682
 10
156.3903830085
 20
52.0937908058
 10
156.5195124979
 20
52.1102964787
 10
156.6455175606
 20
52.136349234
 10
156.7674473178
 20
52.1717551016
 10
156.8852647982
 20
52.2165829255
 10
156.9990069732
 20
52.2707638617
 10
157.1078338781
 20
52.3338974073
 10
157.2117115074
 20
52.406051375
 10
157.3106738666
 20
52.4871579521
 10
157.403983008
 20
52.5766131979
 10
157.4915958777
 20
52.674478958
 10
157.5735555295
 20
52.7806933867
 10
157.6492531771
 20
52.8944670066
 10
157.7186421468
 20
53.0158559444
 10
157.7817691123
 20
53.1448040733
 10
157.8381653086
 20
53.280353535
 10
157.8877806963
 20
53.4225535325
 10
157.9306653149
 20
53.5713548628
 10
157.966500518
 20
53.7256520576
 10
157.9952338256
 20
53.8854861605
 10
158.0169177179
 20
54.0508161279
 10
158.0313909887
 20
54.2204133611
 10
158.0385999032
 20
54.3943096743
 10
158.0385981964
 20
54.5724732531
 10
158.0313858669
 20
54.7535800558
 10
158.0169091755
 20
54.9376520196
 10
157.9952218614
 20
55.1246672073
 10
157.966485141
 20
55.3132357646
 10
157.9306465265
 20
55.5033691322
 10
157.8877585058
 20
55.6950558695
 10
157.8381397589
 20
55.8868718008
 10
157.7817402486
 20
56.0788177411
 10
157.7186100121
 20
56.2708928754
 10
157.6492178406
 20
56.4616705832
 10
157.5735170467
 20
56.6511414338
 10
157.4915543178
 20
56.8393148578
 10
157.4039385065
 20
57.0247925267
 10
157.3106266192
 20
57.2075555513
 10
157.2116616495
 20
57.3876228208
 10
157.1077814317
 20
57.5636526741
 10
156.9989519486
 20
57.7356113656
 10
156.8852072173
 20
57.9035326409
 10
156.7673871234
 20
58.0661760767
 10
156.6454542815
 20
58.2235101829
 10
156.5194460769
 20
58.3755664495
 10
156.3903145514
 20
58.5211989232
 10
156.2580571222
 20
58.6603414031
 10
156.1226763719
 20
58.7930600901
 10
155.9851320902
 20
58.9184076337
 10
155.8453316595
 20
59.0363789723
 10
155.7033676973
 20
59.1469791674
 10
155.5604778448
 20
59.2492760529
 10
155.4170746493
 20
59.3429589066
 10
155.2727455635
 20
59.4283384506
 10
155.1274905876
 20
59.5054146849
  0
LWPOLYLINE
  5
225
100
AcDbEntity
  8
RACCORDO
100
AcDbPolyline
 62
7
  6
CONTINUOUS
 90
15
 70
0
 10
171.7376413737
 20
41.4462717921
 10
171.8000545166
 20
41.4160690979
 10
171.9385170583
 20
41.3560302628
 10
172.077491441
 20
41.305123544
 10
172.2164641828
 20
41.2633189412
 10
172.3551632807
 20
41.2304714175
 10
172.4934728851
 20
41.2064088342
 10
172.6309412569
 20
41.1910405437
 10
172.7671592189
 20
41.184230184
 10
172.9019604533
 20
41.1858140024
 10
173.0348413005
 20
41.195632516
 10
173.1653714658
 20
41.2134903246
 10
173.2934277872
 20
41.2392122882
 10
173.418655337
 20
41.272591668
 10
173.4569549738
 20
41.2844949003
  0
LINE
  5
226
100
AcDbEntity
  8
RACCORDO
100
AcDbLine
 62
7
  6
CONTINUOUS
 10
136.1192501121
 20
59.2554673848
 11
171.7374662836
 21
41.4463592991
  0
LINE
  5
227
100
AcDbEntity
  8
RACCORDO
100
AcDbLine
 62
250
  6
CONTINUOUS
 10
136.1192229905
 20
59.2554809465
 11
136.1192501121
 21
59.2554673848
  0
LINE
  5
228
100
AcDbEntity
  8
RACCORDO
100
AcDbLine
 62
250
  6
CONTINUOUS
 10
135.7294103336
 20
60.0667780854
 11
171.3476264584
 21
42.257670023
  0
LWPOLYLINE
  5
229
100
AcDbEntity
  8
RACCORDO
100
AcDbPolyline
 62
250
  6
CONTINUOUS
 90
14
 70
0
 10
135.7294103336
 20
60.0667780854
 10
135.6658661221
 20
60.1005790924
 10
135.6066221681
 20
60.1362801033
 10
135.5519052787
 20
60.1737445948
 10
135.5019244665
 20
60.2128296972
 10
135.4568717105
 20
60.2533855457
 10
135.4169207083
 20
60.2952557095
 10
135.3822248994
 20
60.3382787151
 10
135.3529155311
 20
60.3822910513
 10
135.3291033095
 20
60.4271266629
 10
135.3108788714
 20
60.4726170972
 10
135.2983142549
 20
60.518585421
 10
135.2914586816
 20
60.5648490578
 10
135.2900705053
 20
60.5971081713
  0
LWPOLYLINE
  5
22A
100
AcDbEntity
  8
RACCORDO
100
AcDbPolyline
 62
250
  6
CONTINUOUS
 90
61
 70
0
 10
155.0760646398
 20
59.1554734474
 10
154.9375229033
 20
59.2203013873
 10
154.7993578145
 20
59.2760669315
 10
154.6619480854
 20
59.3226166364
 10
154.5256690573
 20
59.3598226231
 10
154.3908957277
 20
59.3875817804
 10
154.2580015583
 20
59.4058169889
 10
154.1273522773
 20
59.4144784375
 10
153.9993043907
 20
59.4135428705
 10
153.8742081902
 20
59.4030129948
 10
153.7524064089
 20
59.3829177212
 10
153.6342330036
 20
59.3533122104
 10
153.520011637
 20
59.3142776001
 10
153.4100553134
 20
59.2659208721
 10
153.3046654693
 20
59.2083746071
 10
153.2041309362
 20
59.1417965371
 10
153.1087273009
 20
59.0663691916
 10
153.0187160082
 20
58.9822992978
 10
152.9343436459
 20
58.8898171567
 10
152.8558414175
 20
58.7891761319
 10
152.7834245913
 20
58.6806521326
 10
152.7172917612
 20
58.5645427577
 10
152.6576242152
 20
58.4411663315
 10
152.6045854526
 20
58.3108609682
 10
152.5583208307
 20
58.1739838012
 10
152.5189571544
 20
58.0309100058
 10
152.4866023117
 20
57.8820317369
 10
152.461344975
 20
57.7277570175
 10
152.4432543737
 20
57.5685086875
 10
152.432380097
 20
57.4047232451
 10
152.4287519528
 20
57.2368496068
 10
152.4323798886
 20
57.0653478951
 10
152.4432539634
 20
56.8906881862
 10
152.4613443741
 20
56.713349217
 10
152.4866015357
 20
56.5338170726
 10
152.5189562231
 20
56.3525838241
 10
152.5583197631
 20
56.1701461881
 10
152.6045842643
 20
55.9870042264
 10
152.6576229269
 20
55.8036599031
 10
152.7172904055
 20
55.6206156796
 10
152.7834232234
 20
55.4383731236
 10
152.8558400818
 20
55.2574318993
 10
152.9343423391
 20
55.0782883156
 10
153.0187146983
 20
54.9014335919
 10
153.108725967
 20
54.7273522508
 10
153.2041295594
 20
54.5565211632
 10
153.3046640048
 20
54.3894085327
 10
153.4100537314
 20
54.2264724364
 10
153.5200099839
 20
54.0681593224
 10
153.6342313439
 20
53.9149031978
 10
153.7524048003
 20
53.7671240735
 10
153.8742067417
 20
53.6252267051
 10
153.9993032667
 20
53.4896001756
 10
154.1273516005
 20
53.3606162037
 10
154.2580013528
 20
53.2386278992
 10
154.3908960756
 20
53.1239684656
 10
154.5256699764
 20
53.0169538827
 10
154.6619492936
 20
52.9178807017
 10
154.7993589198
 20
52.8270208209
 10
154.937523606
 20
52.7446215748
 10
155.0760646398
 20
52.6709081746
  0
LWPOLYLINE
  5
22B
100
AcDbEntity
  8
RACCORDO
100
AcDbPolyline
 62
250
  6
CONTINUOUS
 90
64
 70
0
 10
155.1274905876
 20
59.5054146849
 10
154.982205359
 20
59.5736044153
 10
154.8378536704
 20
59.6325610958
 10
154.6944355219
 20
59.6822847262
 10
154.5515410173
 20
59.7228758881
 10
154.4095800527
 20
59.7542339999
 10
154.2697823164
 20
59.7760573179
 10
154.1322373053
 20
59.7882493567
 10
153.9968555226
 20
59.7909066015
 10
153.8645981666
 20
59.784016764
 10
153.7354686772
 20
59.7675110911
 10
153.6094636146
 20
59.7414583357
 10
153.4875338573
 20
59.7060524682
 10
153.3697163769
 20
59.6612246442
 10
153.2559742019
 20
59.6070437081
 10
153.147147297
 20
59.5439101625
 10
153.0432696677
 20
59.4717561948
 10
152.9443073085
 20
59.3906496176
 10
152.8509981672
 20
59.3011943718
 10
152.7633852975
 20
59.2033286118
 10
152.6814256457
 20
59.097114183
 10
152.605727998
 20
58.9833405632
 10
152.5363390283
 20
58.8619516253
 10
152.4732120629
 20
58.7330034964
 10
152.4168158665
 20
58.5974540348
 10
152.3672004788
 20
58.4552540372
 10
152.3243158603
 20
58.3064527069
 10
152.2884806571
 20
58.1521555121
 10
152.2597473495
 20
57.9923214092
 10
152.2380634573
 20
57.8269914418
 10
152.2235901865
 20
57.6573942087
 10
152.2163812719
 20
57.4834978955
 10
152.2163829787
 20
57.3053343166
 10
152.2235953082
 20
57.124227514
 10
152.2380719996
 20
56.9401555501
 10
152.2597593138
 20
56.7531403625
 10
152.2884960341
 20
56.5645718052
 10
152.3243346486
 20
56.3744384376
 10
152.3672226693
 20
56.1827517003
 10
152.4168414163
 20
55.990935769
 10
152.4732409265
 20
55.7989898287
 10
152.536371163
 20
55.6069146943
 10
152.6057633346
 20
55.4161369865
 10
152.6814641284
 20
55.226666136
 10
152.7634268574
 20
55.0384927119
 10
152.8510426686
 20
54.853015043
 10
152.944354556
 20
54.6702520184
 10
153.0433195256
 20
54.490184749
 10
153.1471997435
 20
54.3141548956
 10
153.2560292266
 20
54.1421962042
 10
153.3697739578
 20
53.9742749289
 10
153.4875940517
 20
53.8116314931
 10
153.6095268936
 20
53.6542973869
 10
153.7355350982
 20
53.5022411203
 10
153.8646666238
 20
53.3566086465
 10
153.996924053
 20
53.2174661666
 10
154.1323048032
 20
53.0847474796
 10
154.269849085
 20
52.9593999361
 10
154.4096495156
 20
52.8414285975
 10
154.5516134779
 20
52.7308284024
 10
154.6945033303
 20
52.6285315169
 10
154.8379065259
 20
52.5348486632
 10
154.9822356116
 20
52.4494691192
 10
155.1274905876
 20
52.3723928849
  0
LINE
  5
22C
100
AcDbEntity
  8
RACCORDO
100
AcDbLine
 62
250
  6
CONTINUOUS
 10
153.4070798632
 20
61.2877432188
 11
135.7294103336
 21
70.1265779836
  0
LINE
  5
22D
100
AcDbEntity
  8
RACCORDO
100
AcDbLine
 62
250
  6
CONTINUOUS
 10
152.967740035
 20
63.7697255531
 11
136.6976278803
 21
71.9047816305
  0
LWPOLYLINE
  5
22E
100
AcDbEntity
  8
RACCORDO
100
AcDbPolyline
 62
250
  6
CONTINUOUS
 90
14
 70
0
 10
135.7294103336
 20
70.1265779836
 10
135.6658855561
 20
70.1603679906
 10
135.6066586446
 20
70.1960565837
 10
135.5519561011
 20
70.2335073368
 10
135.5019870414
 20
70.2725771606
 10
135.4569426921
 20
70.3131166234
 10
135.4169955611
 20
70.3549704942
 10
135.3822983473
 20
70.3979787592
 10
135.3529837065
 20
70.4419769569
 10
135.3291638453
 20
70.4867965394
 10
135.3109297806
 20
70.532265865
 10
135.2983509291
 20
70.5782113322
 10
135.2914751951
 20
70.6244577382
 10
135.2900705106
 20
70.6568450581
  0
LWPOLYLINE
  5
22F
100
AcDbEntity
  8
RACCORDO
100
AcDbPolyline
 62
250
  6
CONTINUOUS
 90
13
 70
0
 10
136.6976278803
 20
71.9047816305
 10
136.6230778044
 20
71.9328975121
 10
136.5492359201
 20
71.955602111
 10
136.4764153796
 20
71.9727991403
 10
136.4049250044
 20
71.98441567
 10
136.3350679743
 20
71.9904024361
 10
136.2671405427
 20
71.9907340497
 10
136.2014307798
 20
71.9854091043
 10
136.138217351
 20
71.9744501824
 10
136.0777683349
 20
71.957903759
 10
136.0203400867
 20
71.9358400049
 10
135.9661761513
 20
71.9083524893
 10
135.9190093192
 20
71.8780765305
  0
LWPOLYLINE
  5
230
100
AcDbEntity
  8
0
100
AcDbPolyline
 62
250
  6
CONTINUOUS
 90
7
 70
0
 10
131.0562420699
 20
76.1339839239
 10
131.0415790522
 20
76.1398357341
 10
131.0237759069
 20
76.1435228862
 10
131.0048998617
 20
76.1440571419
 10
130.9852061825
 20
76.1414312762
 10
130.9649611927
 20
76.1356807995
 10
130.944438671
 20
76.1268834771
  0
LWPOLYLINE
  5
231
100
AcDbEntity
  8
RACCORDO
100
AcDbPolyline
 62
250
  6
CONTINUOUS
 90
11
 70
0
 10
142.9108554867
 20
73.9252844364
 10
142.8761493798
 20
73.9411888685
 10
142.8224877479
 20
73.9605113722
 10
142.7666043153
 20
73.9745707264
 10
142.7087086438
 20
73.983314844
 10
142.648999659
 20
73.9867105495
 10
142.5877266776
 20
73.9847406266
 10
142.525189082
 20
73.9774228786
 10
142.4616512855
 20
73.9648069395
 10
142.3973368109
 20
73.9469555454
 10
142.332492153
 20
73.9239526189
  0
LINE
  5
232
100
AcDbEntity
  8
RACCORDO
100
AcDbLine
 62
7
  6
CONTINUOUS
 10
152.967740035
 20
64.4200854553
 11
137.2336528914
 21
72.2871290271
  0
LINE
  5
233
100
AcDbEntity
  8
0
100
AcDbLine
 62
7
  6
CONTINUOUS
 10
130.8326352721
 20
75.6867703284
 11
137.1537251554
 21
72.5262253868
  0
LINE
  5
234
100
AcDbEntity
  8
RACCORDO
100
AcDbLine
 62
7
  6
CONTINUOUS
 10
152.967740035
 20
64.7357551433
 11
137.6181381956
 21
72.410556063
  0
LINE
  5
235
100
AcDbEntity
  8
0
100
AcDbLine
 62
7
  6
CONTINUOUS
 10
131.0562420699
 20
76.1339839239
 11
137.8346071891
 21
72.7448013643
  0
LINE
  5
236
100
AcDbEntity
  8
RACCORDO
100
AcDbLine
 62
250
  6
CONTINUOUS
 10
142.332492153
 20
73.9239526189
 11
152.967740035
 21
68.6063286779
  0
LWPOLYLINE
  5
237
100
AcDbEntity
  8
0
100
AcDbPolyline
 62
7
  6
CONTINUOUS
 90
19
 70
0
 10
130.1641085851
 20
76.825061222
 10
130.1667407217
 20
76.7499300569
 10
130.1744995946
 20
76.6741551229
 10
130.1871823935
 20
76.5981359044
 10
130.2046052562
 20
76.5222044665
 10
130.2265802996
 20
76.4467524846
 10
130.2528758452
 20
76.3722817021
 10
130.2832519434
 20
76.2992427749
 10
130.3175307514
 20
76.2279232482
 10
130.3555512118
 20
76.1586144751
 10
130.3971403765
 20
76.0916552126
 10
130.4420891447
 20
76.0274432081
 10
130.4902055225
 20
75.9663422001
 10
130.5414063176
 20
75.9086012282
 10
130.5954140583
 20
75.8547080117
 10
130.6517605976
 20
75.8052656248
 10
130.7101678526
 20
75.7606263275
 10
130.7705309331
 20
75.7210166662
 10
130.8326352721
 20
75.6867703284
  0
LWPOLYLINE
  5
238
100
AcDbEntity
  8
0
100
AcDbPolyline
 62
250
  6
CONTINUOUS
 90
8
 70
0
 10
130.6641085851
 20
153.9879246992
 10
130.6631572596
 20
153.9770302313
 10
130.6589437405
 20
153.9626475026
 10
130.651419246
 20
153.9486066046
 10
130.6406855319
 20
153.9350974164
 10
130.6268877532
 20
153.9223026266
 10
130.6102125013
 20
153.9103952628
 10
130.5908852804
 20
153.8995363515
  0
LINE
  5
239
100
AcDbEntity
  8
RACCORDO
100
AcDbLine
 62
250
  6
CONTINUOUS
 10
172.3158440051
 20
140.9147202974
 11
172.9546537378
 21
141.2456753333
  0
LINE
  5
23A
100
AcDbEntity
  8
RACCORDO
100
AcDbLine
 62
250
  6
CONTINUOUS
 10
173.2772752148
 20
141.4000342828
 11
177.2330878817
 21
143.2927014839
  0
LINE
  5
23B
100
AcDbEntity
  8
RACCORDO
100
AcDbLine
 62
7
  6
CONTINUOUS
 10
142.9108699212
 20
73.9252772193
 11
152.967740035
 21
68.8968421624
  0
LWPOLYLINE
  5
23C
100
AcDbEntity
  8
RACCORDO
100
AcDbPolyline
 62
250
  6
CONTINUOUS
 90
11
 70
0
 10
156.3997244794
 20
58.0592575486
 10
156.277922538
 20
58.201154917
 10
156.152826013
 20
58.3367814465
 10
156.0247776792
 20
58.4657654184
 10
155.8941279269
 20
58.5877537228
 10
155.7612332041
 20
58.7024131564
 10
155.6264593033
 20
58.8094277393
 10
155.4901799861
 20
58.9085009204
 10
155.3527703599
 20
58.9993608011
 10
155.2146056737
 20
59.0817600473
 10
155.0760646398
 20
59.1554734474
  0
LWPOLYLINE
  5
23D
100
AcDbEntity
  8
0
100
AcDbPolyline
 62
7
  6
CONTINUOUS
 90
22
 70
0
 10
130.6641085851
 20
76.825061222
 10
130.665111335
 20
76.7912896302
 10
130.6682191648
 20
76.7553840554
 10
130.6735566477
 20
76.7176249993
 10
130.6812201825
 20
76.6782943101
 10
130.6912567955
 20
76.6377703763
 10
130.7036513775
 20
76.5965023361
 10
130.7183803096
 20
76.5548278024
 10
130.7353700106
 20
76.5131407081
 10
130.7544483947
 20
76.4719596508
 10
130.7754648181
 20
76.4316410878
 10
130.7982390443
 20
76.3925337193
 10
130.8224709991
 20
76.3551078768
 10
130.8479107315
 20
76.3196624703
 10
130.8742980128
 20
76.286456925
 10
130.9012457297
 20
76.2558415492
 10
130.9284305908
 20
76.228011162
 10
130.955561483
 20
76.2030781849
 10
130.9822399238
 20
76.181199991
 10
131.008102908
 20
76.1624324816
 10
131.032866405
 20
76.1467227589
 10
131.0562420699
 20
76.1339839239
  0
LINE
  5
23E
100
AcDbEntity
  8
0
100
AcDbLine
 62
7
  6
CONTINUOUS
 10
130.1641085851
 20
153.9879246992
 11
130.1641085851
 21
76.825061222
  0
LINE
  5
23F
100
AcDbEntity
  8
0
100
AcDbLine
 62
7
  6
CONTINUOUS
 10
130.6641085851
 20
153.9879246992
 11
130.6641085851
 21
76.825061222
  0
LWPOLYLINE
  5
240
100
AcDbEntity
  8
0
100
AcDbPolyline
 62
250
  6
CONTINUOUS
 90
8
 70
0
 10
130.6641085851
 20
76.825061222
 10
130.6631572596
 20
76.8141667541
 10
130.6589437405
 20
76.7997840254
 10
130.651419246
 20
76.7857431274
 10
130.6406855319
 20
76.7722339392
 10
130.6268877532
 20
76.7594391494
 10
130.6102125013
 20
76.7475317856
 10
130.5908852804
 20
76.7366728743
  0
LINE
  5
241
100
AcDbEntity
  8
RACCORDO
100
AcDbLine
 62
250
  6
CONTINUOUS
 10
174.4290920843
 20
137.2699065108
 11
175.067901817
 21
137.6008615467
  0
LINE
  5
242
100
AcDbEntity
  8
RACCORDO
100
AcDbLine
 62
250
  6
CONTINUOUS
 10
175.067901817
 20
137.9458473711
 11
175.0503326338
 21
137.9369295446
  0
LINE
  5
243
100
AcDbEntity
  8
RACCORDO
100
AcDbLine
 62
250
  6
CONTINUOUS
 10
175.390523294
 20
137.7552204962
 11
179.3463359609
 21
139.6478876973
  0
LWPOLYLINE
  5
244
100
AcDbEntity
  8
RACCORDO
100
AcDbPolyline
 62
250
  6
CONTINUOUS
 90
10
 70
0
 10
141.7815661431
 20
74.0118496472
 10
141.8398856726
 20
74.0270231952
 10
141.8981981507
 20
74.0355316417
 10
141.9579603699
 20
74.0378828152
 10
142.0189188876
 20
74.0340667447
 10
142.0808151875
 20
74.0240996136
 10
142.1433867769
 20
74.0080236909
 10
142.2063682988
 20
73.9859071523
 10
142.2694926579
 20
73.9578437908
 10
142.332492153
 20
73.9239526189
  0
LWPOLYLINE
  5
245
100
AcDbEntity
  8
RACCORDO
100
AcDbPolyline
 62
250
  6
CONTINUOUS
 90
16
 70
0
 10
135.7294103336
 20
60.0667780854
 10
135.7314379518
 20
59.987506934
 10
135.7375130892
 20
59.9105661533
 10
135.7476125705
 20
59.8362499464
 10
135.7616978645
 20
59.7648423523
 10
135.7797151527
 20
59.6966165793
 10
135.8015954579
 20
59.6318338964
 10
135.827255116
 20
59.5707419561
 10
135.8565959934
 20
59.5135743498
 10
135.8895056452
 20
59.4605499956
 10
135.9258579385
 20
59.4118717803
 10
135.9655139799
 20
59.3677253837
 10
136.0083225189
 20
59.3282790947
 10
136.0541212534
 20
59.2936828262
 10
136.1027339083
 20
59.2640700716
 10
136.1192229905
 20
59.2554809465
  0
LWPOLYLINE
  5
246
100
AcDbEntity
  8
RACCORDO
100
AcDbPolyline
 62
250
  6
CONTINUOUS
 90
16
 70
0
 10
135.7294103336
 20
146.8858248148
 10
135.7314379518
 20
146.8065536634
 10
135.7375130892
 20
146.7296128827
 10
135.7476125705
 20
146.6552966758
 10
135.7616978645
 20
146.5838890817
 10
135.7797151527
 20
146.5156633087
 10
135.8015954579
 20
146.4508806258
 10
135.827255116
 20
146.3897886855
 10
135.8565959934
 20
146.3326210792
 10
135.8895056452
 20
146.279596725
 10
135.9258579385
 20
146.2309185096
 10
135.9655139799
 20
146.1867721131
 10
136.0083225189
 20
146.1473258241
 10
136.0541212534
 20
146.1127295556
 10
136.1027339083
 20
146.0831168009
 10
136.1192229905
 20
146.0745276759
  0
LINE
  5
247
100
AcDbEntity
  8
RACCORDO
100
AcDbLine
 62
250
  6
CONTINUOUS
 10
135.2900705106
 20
70.6568450581
 11
135.2900705053
 21
70.6569080695
  0
LINE
  5
248
100
AcDbEntity
  8
RACCORDO
100
AcDbLine
 62
7
  6
CONTINUOUS
 10
135.2900705053
 20
157.4759547989
 11
135.2900705053
 21
147.4161549007
  0
LINE
  5
249
100
AcDbEntity
  8
RACCORDO
100
AcDbLine
 62
7
  6
CONTINUOUS
 10
135.2900705053
 20
70.6569080695
 11
135.2900705053
 21
60.5971081713
  0
LINE
  5
24A
100
AcDbEntity
  8
RACCORDO
100
AcDbLine
 62
250
  6
CONTINUOUS
 10
135.2900705106
 20
157.4758917875
 11
135.2900705053
 21
157.4759547989
  0
LINE
  5
24B
100
AcDbEntity
  8
RACCORDO
100
AcDbLine
 62
250
  6
CONTINUOUS
 10
135.7294103336
 20
156.945624713
 11
135.7294103336
 21
146.8858248148
  0
LINE
  5
24C
100
AcDbEntity
  8
RACCORDO
100
AcDbLine
 62
250
  6
CONTINUOUS
 10
135.7294103336
 20
70.1265779836
 11
135.7294103336
 21
60.0667780854
  0
LWPOLYLINE
  5
24D
100
AcDbEntity
  8
RACCORDO
100
AcDbPolyline
 62
250
  6
CONTINUOUS
 90
25
 70
0
 10
135.7294103336
 20
156.945624713
 10
135.7314392348
 20
157.0269494971
 10
135.7375182687
 20
157.1099930084
 10
135.7476243156
 20
157.1944375906
 10
135.7617190118
 20
157.2799610891
 10
135.7797484823
 20
157.3662354577
 10
135.801643145
 20
157.45292795
 10
135.8273182461
 20
157.539704463
 10
135.8566758983
 20
157.6262354214
 10
135.889605399
 20
157.7121943052
 10
135.9259836143
 20
157.7972577325
 10
135.9656696298
 20
157.881094434
 10
136.00850548
 20
157.9633716751
 10
136.0543211894
 20
158.0437667424
 10
136.1029449976
 20
158.1219817604
 10
136.1541993605
 20
158.1977316053
 10
136.2078992372
 20
158.2707397473
 10
136.263830105
 20
158.340711614
 10
136.3217550909
 20
158.407353186
 10
136.3814632661
 20
158.470425631
 10
136.4427130015
 20
158.5296774266
 10
136.5052048993
 20
158.584832261
 10
136.5686743528
 20
158.6356801227
 10
136.6328973849
 20
158.6820646679
 10
136.6976278803
 20
158.7238283599
  0
LWPOLYLINE
  5
24E
100
AcDbEntity
  8
RACCORDO
100
AcDbPolyline
 62
250
  6
CONTINUOUS
 90
25
 70
0
 10
135.7294103336
 20
70.1265779836
 10
135.7314392348
 20
70.2079027677
 10
135.7375182687
 20
70.2909462791
 10
135.7476243156
 20
70.3753908612
 10
135.7617190118
 20
70.4609143598
 10
135.7797484823
 20
70.5471887284
 10
135.801643145
 20
70.6338812206
 10
135.8273182461
 20
70.7206577336
 10
135.8566758983
 20
70.807188692
 10
135.889605399
 20
70.8931475759
 10
135.9259836143
 20
70.9782110031
 10
135.9656696298
 20
71.0620477046
 10
136.00850548
 20
71.1443249457
 10
136.0543211894
 20
71.224720013
 10
136.1029449976
 20
71.302935031
 10
136.1541993605
 20
71.378684876
 10
136.2078992372
 20
71.4516930179
 10
136.263830105
 20
71.5216648846
 10
136.3217550909
 20
71.5883064566
 10
136.3814632661
 20
71.6513789016
 10
136.4427130015
 20
71.7106306973
 10
136.5052048993
 20
71.7657855316
 10
136.5686743529
 20
71.8166333933
 10
136.6328973851
 20
71.8630179385
 10
136.6976278806
 20
71.9047816303
  0
LWPOLYLINE
  5
24F
100
AcDbEntity
  8
RACCORDO
100
AcDbPolyline
 62
250
  6
CONTINUOUS
 90
15
 70
0
 10
157.5938095166
 20
55.6562354339
 10
157.5475450154
 20
55.8393773957
 10
157.4945063528
 20
56.0227217189
 10
157.4348388742
 20
56.2057659424
 10
157.3687060563
 20
56.3880084985
 10
157.2962891978
 20
56.5689497228
 10
157.2177869406
 20
56.7480933064
 10
157.1334145814
 20
56.9249480301
 10
157.0434033127
 20
57.0990293712
 10
156.9479997203
 20
57.2698604588
 10
156.8474652749
 20
57.4369730893
 10
156.7420755483
 20
57.5999091857
 10
156.6321192958
 20
57.7582222997
 10
156.5178979358
 20
57.9114784242
 10
156.3997244794
 20
58.0592575486
  0
LWPOLYLINE
  5
250
100
AcDbEntity
  8
RACCORDO
100
AcDbPolyline
 62
7
  6
CONTINUOUS
 90
13
 70
0
 10
152.967777263
 20
137.6587400782
 10
152.9679785114
 20
137.6615605043
 10
152.9724753841
 20
137.6749226207
 10
152.9831885157
 20
137.6923508671
 10
153.0006968077
 20
137.7140038227
 10
153.0252984698
 20
137.7400563319
 10
153.0569706316
 20
137.7706729711
 10
153.0963041738
 20
137.8057735188
 10
153.1435412547
 20
137.8453605484
 10
153.1980294577
 20
137.8895301463
 10
153.2597381724
 20
137.9381083971
 10
153.3293255318
 20
137.9907147816
 10
153.4070798632
 20
138.04699005
  0
LWPOLYLINE
  5
251
100
AcDbEntity
  8
DRAFT
100
AcDbPolyline
 62
7
  6
CONTINUOUS
 90
22
 70
0
 10
154.7584108059
 20
94.9866006615
 10
154.7586569998
 20
94.9866704093
 10
154.7596403897
 20
94.9867192751
 10
154.7606927535
 20
94.9864652827
 10
154.7616309157
 20
94.9858597412
 10
154.7623912965
 20
94.9847779896
 10
154.7630374757
 20
94.9833446887
 10
154.7635770179
 20
94.9818851303
 10
154.7639903044
 20
94.9805044897
 10
154.7642969537
 20
94.9790975916
 10
154.7645633858
 20
94.9776742014
 10
154.7648026277
 20
94.9762924244
 10
154.7650016524
 20
94.9748941553
 10
154.7651877982
 20
94.9733148437
 10
154.7653744929
 20
94.9714677511
 10
154.7655483089
 20
94.9694396159
 10
154.7656963011
 20
94.9673261029
 10
154.7658133123
 20
94.9650851581
 10
154.7659044999
 20
94.9627588354
 10
154.7659723906
 20
94.960568961
 10
154.7660136042
 20
94.9586052426
 10
154.7660315211
 20
94.9567779724
  0
LWPOLYLINE
  5
252
100
AcDbEntity
  8
IMPORT_IGES
100
AcDbPolyline
 62
7
  6
CONTINUOUS
 90
9
 70
0
 10
154.3657452383
 20
94.7967264164
 10
154.3386560676
 20
94.7980847587
 10
154.3114370013
 20
94.7999696551
 10
154.2841011794
 20
94.8023285894
 10
154.2566617418
 20
94.8051090454
 10
154.2291318285
 20
94.8082585072
 10
154.2015245793
 20
94.8117244584
 10
154.1738531343
 20
94.815454383
 10
154.1461306333
 20
94.8193957649
  0
LWPOLYLINE
  5
253
100
AcDbEntity
  8
RACCORDO
100
AcDbPolyline
 62
7
  6
CONTINUOUS
 90
6
 70
0
 10
154.1945420294
 20
94.6878813139
 10
154.1401198048
 20
94.691753478
 10
154.084454767
 20
94.6968508999
 10
154.027546916
 20
94.7031735794
 10
153.9693053321
 20
94.7111093142
 10
153.8493664835
 20
94.7294931642
  0
LWPOLYLINE
  5
254
100
AcDbEntity
  8
RACCORDO
100
AcDbPolyline
 62
7
  6
CONTINUOUS
 90
6
 70
0
 10
154.3658787216
 20
94.7967210838
 10
154.3104816271
 20
94.8007321325
 10
154.2538090185
 20
94.8059813548
 10
154.1958608957
 20
94.8124687506
 10
154.1365480643
 20
94.8205916527
 10
154.0143634423
 20
94.839359979
  0
LWPOLYLINE
  5
255
100
AcDbEntity
  8
RACCORDO
100
AcDbPolyline
 62
7
  6
CONTINUOUS
 90
7
 70
0
 10
153.662455562
 20
94.7563695338
 10
153.6509665289
 20
94.7573230454
 10
153.639970506
 20
94.756913468
 10
153.6294674932
 20
94.7551408015
 10
153.6193591421
 20
94.7519557504
 10
153.6097438011
 20
94.7474076103
 10
153.6041839062
 20
94.7439847398
  0
LINE
  5
256
100
AcDbEntity
  8
RACCORDO
100
AcDbLine
 62
7
  6
CONTINUOUS
 10
153.7434665641
 20
96.3177651187
 11
155.5518333179
 21
96.0931331287
  0
LINE
  5
257
100
AcDbEntity
  8
IMPORT_IGES
100
AcDbLine
 62
7
  6
CONTINUOUS
 10
155.8436341934
 20
96.1474199787
 11
155.7819046756
 21
96.1550879057
  0
LINE
  5
258
100
AcDbEntity
  8
RACCORDO
100
AcDbLine
 62
7
  6
CONTINUOUS
 10
154.0143634423
 20
94.839359979
 11
153.8237946111
 21
94.8666667836
  0
LINE
  5
259
100
AcDbEntity
  8
RACCORDO
100
AcDbLine
 62
7
  6
CONTINUOUS
 10
153.8493664835
 20
94.7294931642
 11
153.662455562
 21
94.7563695338
  0
LINE
  5
25A
100
AcDbEntity
  8
IMPORT_IGES
100
AcDbLine
 62
7
  6
CONTINUOUS
 10
153.7684264686
 20
94.8745243756
 11
153.7225687949
 21
94.8811997765
  0
LWPOLYLINE
  5
25B
100
AcDbEntity
  8
IMPORT_IGES
100
AcDbPolyline
 62
7
  6
CONTINUOUS
 90
3
 70
0
 10
154.0072121868
 20
94.840436468
 10
153.9474438315
 20
94.8492066336
 10
153.7684264686
 20
94.8745243756
  0
LINE
  5
25C
100
AcDbEntity
  8
IMPORT_IGES
100
AcDbLine
 62
7
  6
CONTINUOUS
 10
154.1461306333
 20
94.8193957649
 11
154.0905850232
 21
94.8277028357
  0
LINE
  5
25D
100
AcDbEntity
  8
IMPORT_IGES
100
AcDbLine
 62
7
  6
CONTINUOUS
 10
154.0905850232
 20
94.8277028357
 11
154.0072121868
 21
94.840436468
  0
LINE
  5
25E
100
AcDbEntity
  8
RACCORDO
100
AcDbLine
 62
7
  6
CONTINUOUS
 10
153.9846979591
 20
96.8005471482
 11
153.6653083449
 21
96.8542869375
  0
LINE
  5
25F
100
AcDbEntity
  8
RACCORDO
100
AcDbLine
 62
7
  6
CONTINUOUS
 10
153.9846979591
 20
96.9383039728
 11
153.8266190834
 21
96.9649019744
  0
LINE
  5
260
100
AcDbEntity
  8
IMPORT_IGES
100
AcDbLine
 62
7
  6
CONTINUOUS
 10
153.7225691154
 20
96.9824091916
 11
153.9846979591
 21
96.9383039728
  0
LINE
  5
261
100
AcDbEntity
  8
RACCORDO
100
AcDbLine
 62
7
  6
CONTINUOUS
 10
154.0304610405
 20
94.2043831555
 11
154.1157651288
 21
94.1898745806
  0
LINE
  5
262
100
AcDbEntity
  8
RACCORDO
100
AcDbLine
 62
7
  6
CONTINUOUS
 10
153.9458797976
 20
94.2191808153
 11
154.0304610405
 21
94.2043831555
  0
LWPOLYLINE
  5
263
100
AcDbEntity
  8
DRAFT
100
AcDbPolyline
 62
7
  6
CONTINUOUS
 90
19
 70
0
 10
154.1157651288
 20
94.1898745806
 10
154.13808482
 20
94.1859186274
 10
154.1596182495
 20
94.1823408893
 10
154.1803654172
 20
94.1791413666
 10
154.2002796106
 20
94.1762732287
 10
154.2194075423
 20
94.1737833062
 10
154.2378893495
 20
94.1718120896
 10
154.2557168701
 20
94.1704098651
 10
154.2728982664
 20
94.1695263466
 10
154.2895981617
 20
94.169151167
 10
154.3058279587
 20
94.169268063
 10
154.3215762549
 20
94.1698932979
 10
154.3369734664
 20
94.1710652952
 10
154.3520348939
 20
94.1727538987
 10
154.3667452368
 20
94.1749892646
 10
154.3811890097
 20
94.177900285
 10
154.3954363045
 20
94.1814718543
 10
154.4094170293
 20
94.1857190781
 10
154.415085189
 20
94.1877117332
  0
LINE
  5
264
100
AcDbEntity
  8
RACCORDO
100
AcDbLine
 62
7
  6
CONTINUOUS
 10
153.7376110561
 20
94.2567535895
 11
153.9458797976
 21
94.2191808153
  0
LINE
  5
265
100
AcDbEntity
  8
DRAFT
100
AcDbLine
 62
7
  6
CONTINUOUS
 10
155.1435295194
 20
96.5924334121
 11
154.2814223573
 21
96.7505878475
  0
LINE
  5
266
100
AcDbEntity
  8
DRAFT
100
AcDbLine
 62
7
  6
CONTINUOUS
 10
154.9306850468
 20
96.7718624616
 11
154.4736650095
 21
96.8557032521
  0
LINE
  5
267
100
AcDbEntity
  8
IMPORT_IGES
100
AcDbLine
 62
7
  6
CONTINUOUS
 10
154.4736650095
 20
96.8557032521
 11
154.9306850468
 21
96.7718624616
  0
LWPOLYLINE
  5
268
100
AcDbEntity
  8
IMPORT_IGES
100
AcDbPolyline
 62
7
  6
CONTINUOUS
 90
11
 70
0
 10
155.2897102898
 20
94.2246549129
 10
155.2877854297
 20
94.2250382606
 10
155.2858582103
 20
94.2254399574
 10
155.283928762
 20
94.225859981
 10
155.281997215
 20
94.2262983089
 10
155.2800636997
 20
94.2267549187
 10
155.2781283465
 20
94.227229788
 10
155.2761912857
 20
94.2277228944
 10
155.2742526477
 20
94.2282342155
 10
155.2723125627
 20
94.2287637289
 10
155.2703711611
 20
94.2293114122
  0
LWPOLYLINE
  5
269
100
AcDbEntity
  8
0
100
AcDbPolyline
 62
7
  6
CONTINUOUS
 90
4
 70
0
 10
155.2897566786
 20
94.2247930399
 10
155.2723265668
 20
94.2287699412
 10
155.2511243868
 20
94.2357442075
 10
155.2296283695
 20
94.2449222363
  0
LWPOLYLINE
  5
26A
100
AcDbEntity
  8
IMPORT_IGES
100
AcDbPolyline
 62
7
  6
CONTINUOUS
 90
16
 70
0
 10
155.2703711611
 20
94.2293114122
 10
155.2676579157
 20
94.2301066506
 10
155.2649427117
 20
94.2309372226
 10
155.2622259041
 20
94.2318030671
 10
155.2595078481
 20
94.232704123
 10
155.2567888985
 20
94.2336403294
 10
155.2540694106
 20
94.2346116251
 10
155.2513497392
 20
94.2356179491
 10
155.2486302394
 20
94.2366592405
 10
155.2459112663
 20
94.2377354381
 10
155.2431931749
 20
94.2388464808
 10
155.2404763203
 20
94.2399923078
 10
155.2377610573
 20
94.2411728579
 10
155.2350477412
 20
94.24238807
 10
155.2323367269
 20
94.2436378832
 10
155.2296283695
 20
94.2449222363
  0
LWPOLYLINE
  5
26B
100
AcDbEntity
  8
IMPORT_IGES
100
AcDbPolyline
 62
7
  6
CONTINUOUS
 90
58
 70
0
 10
155.2296283695
 20
94.2449222363
 10
155.2197945757
 20
94.2497574421
 10
155.2099323958
 20
94.2548234301
 10
155.2000523439
 20
94.2601283815
 10
155.1901649342
 20
94.265680477
 10
155.180280681
 20
94.2714878975
 10
155.1704100986
 20
94.2775588239
 10
155.1605637012
 20
94.2839014371
 10
155.150752003
 20
94.290523918
 10
155.1409855183
 20
94.2974344475
 10
155.1312747613
 20
94.3046412065
 10
155.1216302463
 20
94.3121523759
 10
155.1120624876
 20
94.3199761365
 10
155.1025819993
 20
94.3281206692
 10
155.0931992957
 20
94.336594155
 10
155.0839248911
 20
94.3454047747
 10
155.0747692998
 20
94.3545607093
 10
155.0665001542
 20
94.3632504224
 10
155.0583506518
 20
94.3722233989
 10
155.0503320185
 20
94.3814665607
 10
155.0424554801
 20
94.3909668297
 10
155.0347322624
 20
94.400711128
 10
155.0271735913
 20
94.4106863774
 10
155.0197906925
 20
94.4208795
 10
155.012594792
 20
94.4312774176
 10
155.0055971155
 20
94.4418670524
 10
154.9988088889
 20
94.4526353261
 10
154.9922413381
 20
94.4635691608
 10
154.9859056888
 20
94.4746554784
 10
154.9798131669
 20
94.4858812009
 10
154.9739749982
 20
94.4972332503
 10
154.9681615048
 20
94.5092039202
 10
154.9626316997
 20
94.5212879651
 10
154.9573799181
 20
94.5334753735
 10
154.9524004953
 20
94.5457561339
 10
154.9476877664
 20
94.5581202347
 10
154.9432360666
 20
94.5705576644
 10
154.9390397312
 20
94.5830584114
 10
154.9350930953
 20
94.5956124643
 10
154.9313904941
 20
94.6082098115
 10
154.927926263
 20
94.6208404413
 10
154.924694737
 20
94.6334943424
 10
154.9216902514
 20
94.6461615032
 10
154.9189071413
 20
94.658831912
 10
154.916339742
 20
94.6714955575
 10
154.9139823888
 20
94.684142428
 10
154.9118294167
 20
94.6967625119
 10
154.909875161
 20
94.7093457979
 10
154.9081139569
 20
94.7218822743
 10
154.9065401396
 20
94.7343619295
 10
154.9051480444
 20
94.7467747522
 10
154.9039320064
 20
94.7591107306
 10
154.9028863608
 20
94.7713598533
 10
154.9020054428
 20
94.7835121087
 10
154.9012835877
 20
94.7955574853
 10
154.9007151306
 20
94.8074859716
 10
154.9002944067
 20
94.819287556
 10
154.9000157514
 20
94.830952227
  0
LINE
  5
26C
100
AcDbEntity
  8
DRAFT
100
AcDbLine
 62
7
  6
CONTINUOUS
 10
154.5191405222
 20
94.2824880685
 11
154.5640575038
 21
94.2600295777
  0
LINE
  5
26D
100
AcDbEntity
  8
RACCORDO
100
AcDbLine
 62
7
  6
CONTINUOUS
 10
153.7021412617
 20
95.5639677236
 11
154.3913257927
 21
95.219375458
  0
LINE
  5
26E
100
AcDbEntity
  8
DRAFT
100
AcDbLine
 62
7
  6
CONTINUOUS
 10
154.7077730993
 20
95.079132171
 11
155.3028269981
 21
94.7816052216
  0
LINE
  5
26F
100
AcDbEntity
  8
RACCORDO
100
AcDbLine
 62
7
  6
CONTINUOUS
 10
155.5057167782
 20
95.1643695805
 11
153.7021412617
 21
96.0661573387
  0
LINE
  5
270
100
AcDbEntity
  8
RACCORDO
100
AcDbLine
 62
7
  6
CONTINUOUS
 10
155.6961248647
 20
95.2648840838
 11
153.8634520001
 21
96.1812205161
  0
LINE
  5
271
100
AcDbEntity
  8
IMPORT_IGES
100
AcDbLine
 62
7
  6
CONTINUOUS
 10
155.8188528754
 20
95.2035200784
 11
153.7225687949
 21
96.2516621187
  0
LWPOLYLINE
  5
272
100
AcDbEntity
  8
DRAFT
100
AcDbPolyline
 62
7
  6
CONTINUOUS
 90
62
 70
0
 10
155.0528516742
 20
94.1565338887
 10
155.0262817149
 20
94.1701497846
 10
155.0010083515
 20
94.1846515694
 10
154.977031584
 20
94.2000392429
 10
154.9543590697
 20
94.2163688815
 10
154.9329831512
 20
94.2335844089
 10
154.9128808566
 20
94.2515175964
 10
154.8940399435
 20
94.2702891737
 10
154.8764726543
 20
94.2897784111
 10
154.8601927447
 20
94.3094548913
 10
154.8452361181
 20
94.3292847142
 10
154.8315668711
 20
94.3493017798
 10
154.8190910492
 20
94.369077371
 10
154.8078483836
 20
94.3885328291
 10
154.7977991431
 20
94.4077468128
 10
154.78873018
 20
94.4265265808
 10
154.7806593622
 20
94.44483425
 10
154.7735688217
 20
94.4627077035
 10
154.7671918072
 20
94.4800678499
 10
154.7615060449
 20
94.4968965657
 10
154.7565338086
 20
94.5132119744
 10
154.7520751689
 20
94.5289893548
 10
154.7481118458
 20
94.5442161131
 10
154.7446621194
 20
94.558904843
 10
154.7415808996
 20
94.5730686051
 10
154.7388549479
 20
94.5866985597
 10
154.7364975029
 20
94.5998035464
 10
154.734403191
 20
94.6124231446
 10
154.7325621171
 20
94.6245522608
 10
154.7309841762
 20
94.6361959884
 10
154.7295936799
 20
94.6474091872
 10
154.7283827282
 20
94.6581993472
 10
154.727359221
 20
94.6685589783
 10
154.7264711689
 20
94.6785204696
 10
154.7257179342
 20
94.6879495163
 10
154.7251001545
 20
94.6969804233
 10
154.7245677536
 20
94.7060484943
 10
154.7241037246
 20
94.7153625763
 10
154.7237250743
 20
94.7247138224
 10
154.7234327464
 20
94.7339109955
 10
154.7232325852
 20
94.7429403428
 10
154.7231187464
 20
94.7518156171
 10
154.7230746404
 20
94.7603868392
 10
154.7231015612
 20
94.7685977091
 10
154.723198215
 20
94.7765045268
 10
154.7233441303
 20
94.784126213
 10
154.72353773
 20
94.7914605242
 10
154.7237805914
 20
94.7985097039
 10
154.7240569753
 20
94.8052994035
 10
154.7243656221
 20
94.8118301123
 10
154.7247077915
 20
94.818101341
 10
154.7250715233
 20
94.8241372729
 10
154.7254558098
 20
94.8299380322
 10
154.7258616588
 20
94.8355034947
 10
154.7262801329
 20
94.8408574713
 10
154.7267104312
 20
94.8460002477
 10
154.7271533545
 20
94.8509315382
 10
154.7276023681
 20
94.8556742959
 10
154.7280568396
 20
94.8602289165
 10
154.7285174015
 20
94.8645950043
 10
154.7289794157
 20
94.868794326
 10
154.7294423865
 20
94.8728273455
  0
LWPOLYLINE
  5
273
100
AcDbEntity
  8
DRAFT
100
AcDbPolyline
 62
7
  6
CONTINUOUS
 90
22
 70
0
 10
155.2296283695
 20
94.2449222363
 10
155.1988034375
 20
94.2607697485
 10
155.1694942329
 20
94.2781013817
 10
155.1417007559
 20
94.296917136
 10
155.1154639451
 20
94.317187975
 10
155.0907428618
 20
94.3389429351
 10
155.0674146898
 20
94.3622691251
 10
155.0453483771
 20
94.3873988351
 10
155.0246749757
 20
94.414099775
 10
155.0056648256
 20
94.4417621834
 10
154.9884710185
 20
94.4700326163
 10
154.9729404628
 20
94.4992645177
 10
154.9588842229
 20
94.5299084587
 10
154.946229637
 20
94.5621083947
 10
154.935049367
 20
94.5957203702
 10
154.9253724636
 20
94.6307630902
 10
154.917168762
 20
94.6673776478
 10
154.9104684269
 20
94.7054229499
 10
154.9053910037
 20
94.7444944225
 10
154.901976341
 20
94.7844572074
 10
154.9001845902
 20
94.8254461626
 10
154.9000157514
 20
94.8674612883
  0
LWPOLYLINE
  5
274
100
AcDbEntity
  8
RACCORDO
100
AcDbPolyline
 62
7
  6
CONTINUOUS
 90
16
 70
0
 10
155.6961248647
 20
95.2648840838
 10
155.7097536772
 20
95.257262339
 10
155.7230633875
 20
95.2482589728
 10
155.7360539957
 20
95.2378739852
 10
155.748875678
 20
95.2259441127
 10
155.7613782583
 20
95.2126326188
 10
155.7731112078
 20
95.198429294
 10
155.7839766646
 20
95.1834193217
 10
155.7940724907
 20
95.1675175185
 10
155.8032417434
 20
95.1509581239
 10
155.8115293215
 20
95.1335900747
 10
155.8188903264
 20
95.1155644342
 10
155.8250331193
 20
95.0975686312
 10
155.8298604874
 20
95.0798318089
 10
155.8334696437
 20
95.0621248242
 10
155.835860588
 20
95.044447677
  0
LWPOLYLINE
  5
275
100
AcDbEntity
  8
RACCORDO
100
AcDbPolyline
 62
7
  6
CONTINUOUS
 90
19
 70
0
 10
153.5612580564
 20
94.5119179836
 10
153.5620269917
 20
94.4938647586
 10
153.5641388713
 20
94.4756707297
 10
153.5675936952
 20
94.4573358968
 10
153.5724165899
 20
94.4387293988
 10
153.5785824288
 20
94.4199820968
 10
153.5860158327
 20
94.4014865742
 10
153.5948079086
 20
94.383127867
 10
153.6048675495
 20
94.3650209392
 10
153.6158460552
 20
94.3479032665
 10
153.6278057961
 20
94.3318382614
 10
153.6406844018
 20
94.3167625114
 10
153.6539460611
 20
94.3032232553
 10
153.6675187431
 20
94.2913508681
 10
153.6814744786
 20
94.2810149747
 10
153.6954935496
 20
94.2723716888
 10
153.7094693831
 20
94.2654730482
 10
153.7235085519
 20
94.2602670151
 10
153.7376110561
 20
94.2567535895
  0
LWPOLYLINE
  5
276
100
AcDbEntity
  8
RACCORDO
100
AcDbPolyline
 62
7
  6
CONTINUOUS
 90
13
 70
0
 10
152.9677400352
 20
62.7366139856
 10
152.9679329989
 20
62.709695047
 10
152.9724272388
 20
62.6018987887
 10
152.9831885157
 20
62.4883176648
 10
153.0006487174
 20
62.3688277699
 10
153.0251672275
 20
62.244034485
 10
153.0569706316
 20
62.1150836473
 10
153.0963090873
 20
61.9820288935
 10
153.1433619899
 20
61.8454348493
 10
153.1980294577
 20
61.7072175344
 10
153.26022062
 20
61.568231272
 10
153.3299449912
 20
61.4282899397
 10
153.4070798632
 20
61.2877432188
  0
LWPOLYLINE
  5
277
100
AcDbEntity
  8
DRAFT
100
AcDbPolyline
 62
7
  6
CONTINUOUS
 90
3
 70
0
 10
154.7660315211
 20
94.9567779724
 10
154.7660394592
 20
94.9534383962
 10
154.7660294804
 20
94.9519260901
  0
LINE
  5
278
100
AcDbEntity
  8
RACCORDO
100
AcDbLine
 62
7
  6
CONTINUOUS
 10
152.967740035
 20
137.6587614823
 11
152.967740035
 21
62.7366319582
  0
LINE
  5
279
100
AcDbEntity
  8
RACCORDO
100
AcDbLine
 62
250
  6
CONTINUOUS
 10
153.4070798632
 20
138.04699005
 11
153.4070798632
 21
61.2877432188
  0
LINE
  5
27A
100
AcDbEntity
  8
RACCORDO
100
AcDbLine
 62
7
  6
CONTINUOUS
 10
153.5612580564
 20
95.9640529582
 11
153.5612580564
 21
95.8069553094
  0
LINE
  5
27B
100
AcDbEntity
  8
RACCORDO
100
AcDbLine
 62
7
  6
CONTINUOUS
 10
153.5612580564
 20
94.6414095836
 11
153.5612580564
 21
94.5119179836
  0
LINE
  5
27C
100
AcDbEntity
  8
RACCORDO
100
AcDbLine
 62
7
  6
CONTINUOUS
 10
153.5612583769
 20
103.3790659956
 11
153.5612583769
 21
103.1809635608
  0
LINE
  5
27D
100
AcDbEntity
  8
RACCORDO
100
AcDbLine
 62
7
  6
CONTINUOUS
 10
153.5612583769
 20
101.8136328398
 11
153.5612583769
 21
101.6543536302
  0
LINE
  5
27E
100
AcDbEntity
  8
RACCORDO
100
AcDbLine
 62
7
  6
CONTINUOUS
 10
153.5612583769
 20
100.9613949899
 11
153.5612583769
 21
100.8309238543
  0
LINE
  5
27F
100
AcDbEntity
  8
RACCORDO
100
AcDbLine
 62
7
  6
CONTINUOUS
 10
153.5612583769
 20
98.8875654867
 11
153.5612583769
 21
98.7466005988
  0
LINE
  5
280
100
AcDbEntity
  8
RACCORDO
100
AcDbLine
 62
7
  6
CONTINUOUS
 10
153.5612583769
 20
98.1904731806
 11
153.5612583769
 21
98.0589008724
  0
LINE
  5
281
100
AcDbEntity
  8
RACCORDO
100
AcDbLine
 62
7
  6
CONTINUOUS
 10
153.5612583769
 20
96.7397673772
 11
153.5612583769
 21
96.5738252219
  0
LINE
  5
282
100
AcDbEntity
  8
IMPORT_IGES
100
AcDbLine
 62
7
  6
CONTINUOUS
 10
153.7225687949
 20
96.2516621187
 11
153.7225687949
 21
96.1512196094
  0
LINE
  5
283
100
AcDbEntity
  8
IMPORT_IGES
100
AcDbLine
 62
7
  6
CONTINUOUS
 10
153.7225687949
 20
94.8811997765
 11
153.7225687949
 21
94.8249558875
  0
LINE
  5
284
100
AcDbEntity
  8
IMPORT_IGES
100
AcDbLine
 62
7
  6
CONTINUOUS
 10
153.7225691154
 20
102.1012420003
 11
153.7225691154
 21
102.0007994909
  0
LINE
  5
285
100
AcDbEntity
  8
IMPORT_IGES
100
AcDbLine
 62
7
  6
CONTINUOUS
 10
153.7225691154
 20
96.9235495873
 11
153.7225691154
 21
96.9824091916
  0
LINE
  5
286
100
AcDbEntity
  8
IMPORT_IGES
100
AcDbLine
 62
7
  6
CONTINUOUS
 10
153.7225691154
 20
98.3830121914
 11
153.7225691154
 21
98.4978040328
  0
LINE
  5
287
100
AcDbEntity
  8
IMPORT_IGES
100
AcDbLine
 62
7
  6
CONTINUOUS
 10
153.7225691154
 20
99.0738046752
 11
153.7225691154
 21
99.1629615654
  0
LINE
  5
288
100
AcDbEntity
  8
IMPORT_IGES
100
AcDbLine
 62
7
  6
CONTINUOUS
 10
153.7225691154
 20
99.9191108621
 11
153.7225691154
 21
99.995162615
  0
LINE
  5
289
100
AcDbEntity
  8
IMPORT_IGES
100
AcDbLine
 62
7
  6
CONTINUOUS
 10
153.7225691154
 20
101.1499449009
 11
153.7225691154
 21
101.267073341
  0
LINE
  5
28A
100
AcDbEntity
  8
IMPORT_IGES
100
AcDbLine
 62
7
  6
CONTINUOUS
 10
153.7225691154
 20
103.5623773739
 11
153.7225691154
 21
103.6153618451
  0
LINE
  5
28B
100
AcDbEntity
  8
DRAFT
100
AcDbLine
 62
7
  6
CONTINUOUS
 10
153.9846979591
 20
97.5677509407
 11
153.9846979591
 21
96.8005471482
  0
LINE
  5
28C
100
AcDbEntity
  8
DRAFT
100
AcDbLine
 62
7
  6
CONTINUOUS
 10
154.2814223573
 20
96.7505878475
 11
154.2814223573
 21
97.3191944446
  0
LINE
  5
28D
100
AcDbEntity
  8
DRAFT
100
AcDbLine
 62
7
  6
CONTINUOUS
 10
154.3913257927
 20
95.219375458
 11
154.3913257927
 21
94.9096893322
  0
LINE
  5
28E
100
AcDbEntity
  8
IMPORT_IGES
100
AcDbLine
 62
7
  6
CONTINUOUS
 10
154.4736650095
 20
97.1571328419
 11
154.4736650095
 21
96.8557032521
  0
LINE
  5
28F
100
AcDbEntity
  8
DRAFT
100
AcDbLine
 62
7
  6
CONTINUOUS
 10
154.4736650095
 20
96.8557032521
 11
154.4736650095
 21
97.1571328419
  0
LINE
  5
290
100
AcDbEntity
  8
DRAFT
100
AcDbLine
 62
7
  6
CONTINUOUS
 10
154.7077730993
 20
94.5660534995
 11
154.7077730993
 21
95.079132171
  0
LWPOLYLINE
  5
291
100
AcDbEntity
  8
DRAFT
100
AcDbPolyline
 62
7
  6
CONTINUOUS
 90
7
 70
0
 10
154.7660294804
 20
94.9519260901
 10
154.7659808037
 20
94.9485349786
 10
154.7659421057
 20
94.9466561732
 10
154.7658909409
 20
94.9446803044
 10
154.7658274861
 20
94.9426139006
 10
154.7657515646
 20
94.9404504335
 10
154.7656601112
 20
94.938173928
  0
LWPOLYLINE
  5
292
100
AcDbEntity
  8
DRAFT
100
AcDbPolyline
 62
7
  6
CONTINUOUS
 90
17
 70
0
 10
154.3913257927
 20
94.9096893322
 10
154.3909755211
 20
94.8924270707
 10
154.3898992649
 20
94.8756533589
 10
154.3880970242
 20
94.8593681969
 10
154.3855800073
 20
94.8435108545
 10
154.3823370058
 20
94.8281420618
 10
154.3783343944
 20
94.8134440096
 10
154.3735520245
 20
94.7994072592
 10
154.3680100447
 20
94.7860412493
 10
154.3617352747
 20
94.7735564872
 10
154.3546949404
 20
94.762028319
 10
154.346921816
 20
94.7513813985
 10
154.338541044
 20
94.7416001954
 10
154.3295708707
 20
94.7327037493
 10
154.3199930498
 20
94.7246730205
 10
154.3098779845
 20
94.7174353592
 10
154.3087369347
 20
94.716686287
  0
LINE
  5
293
100
AcDbEntity
  8
DRAFT
100
AcDbLine
 62
7
  6
CONTINUOUS
 10
154.7656601112
 20
94.938173928
 11
154.7654310494
 21
94.9332834202
  0
LWPOLYLINE
  5
294
100
AcDbEntity
  8
DRAFT
100
AcDbPolyline
 62
7
  6
CONTINUOUS
 90
3
 70
0
 10
154.7654310494
 20
94.9332834202
 10
154.7651290573
 20
94.927887881
 10
154.764949362
 20
94.9249941148
  0
LWPOLYLINE
  5
295
100
AcDbEntity
  8
DRAFT
100
AcDbPolyline
 62
7
  6
CONTINUOUS
 90
4
 70
0
 10
154.764949362
 20
94.9249941148
 10
154.7645173395
 20
94.9187296224
 10
154.7642650123
 20
94.9153588962
 10
154.7639847338
 20
94.9118253701
  0
LINE
  5
296
100
AcDbEntity
  8
DRAFT
100
AcDbLine
 62
7
  6
CONTINUOUS
 10
154.7639847338
 20
94.9118253701
 11
154.7633234565
 21
94.9041081987
  0
LINE
  5
297
100
AcDbEntity
  8
DRAFT
100
AcDbLine
 62
7
  6
CONTINUOUS
 10
154.7633234565
 20
94.9041081987
 11
154.7626128318
 21
94.8964580598
  0
LINE
  5
298
100
AcDbEntity
  8
DRAFT
100
AcDbLine
 62
7
  6
CONTINUOUS
 10
154.7626128318
 20
94.8964580598
 11
154.7616006583
 21
94.8864027066
  0
LINE
  5
299
100
AcDbEntity
  8
DRAFT
100
AcDbLine
 62
7
  6
CONTINUOUS
 10
154.7616006583
 20
94.8864027066
 11
154.7606722452
 21
94.8778582916
  0
LINE
  5
29A
100
AcDbEntity
  8
DRAFT
100
AcDbLine
 62
7
  6
CONTINUOUS
 10
154.7606722452
 20
94.8778582916
 11
154.7599108308
 21
94.871161676
  0
LWPOLYLINE
  5
29B
100
AcDbEntity
  8
DRAFT
100
AcDbPolyline
 62
7
  6
CONTINUOUS
 90
3
 70
0
 10
154.7599108308
 20
94.871161676
 10
154.7590517578
 20
94.8638997669
 10
154.7585789166
 20
94.8600208552
  0
LWPOLYLINE
  5
29C
100
AcDbEntity
  8
DRAFT
100
AcDbPolyline
 62
7
  6
CONTINUOUS
 90
3
 70
0
 10
154.7294423865
 20
94.8728273455
 10
154.7303695349
 20
94.880413461
 10
154.7308301761
 20
94.8839874324
  0
LINE
  5
29D
100
AcDbEntity
  8
RACCORDO
100
AcDbLine
 62
7
  6
CONTINUOUS
 10
153.8000081368
 20
99.8558532323
 11
153.9330789747
 21
99.9662505987
  0
LINE
  5
29E
100
AcDbEntity
  8
RACCORDO
100
AcDbLine
 62
250
  6
CONTINUOUS
 10
153.8560944535
 20
99.8739135862
 11
153.9891652913
 21
99.9843109526
  0
LINE
  5
29F
100
AcDbEntity
  8
RACCORDO
100
AcDbLine
 62
7
  6
CONTINUOUS
 10
153.6024737849
 20
101.0629500242
 11
153.7637845234
 21
101.1798005941
  0
LINE
  5
2A0
100
AcDbEntity
  8
RACCORDO
100
AcDbLine
 62
250
  6
CONTINUOUS
 10
153.7148109297
 20
101.0564655864
 11
153.8761216682
 21
101.1733161563
  0
LINE
  5
2A1
100
AcDbEntity
  8
RACCORDO
100
AcDbLine
 62
7
  6
CONTINUOUS
 10
153.6029243266
 20
101.9154566943
 11
153.7642350651
 21
102.0305198716
  0
LINE
  5
2A2
100
AcDbEntity
  8
RACCORDO
100
AcDbLine
 62
250
  6
CONTINUOUS
 10
153.7021415822
 20
101.9157372203
 11
153.8634523207
 21
102.0308003976
  0
LINE
  5
2A3
100
AcDbEntity
  8
RACCORDO
100
AcDbLine
 62
7
  6
CONTINUOUS
 10
153.6042598739
 20
103.481709999
 11
153.7655706124
 21
103.5916972972
  0
LINE
  5
2A4
100
AcDbEntity
  8
RACCORDO
100
AcDbLine
 62
250
  6
CONTINUOUS
 10
153.65956705
 20
103.4943903207
 11
153.8208777885
 21
103.6043776189
  0
LINE
  5
2A5
100
AcDbEntity
  8
RACCORDO
100
AcDbLine
 62
250
  6
CONTINUOUS
 10
155.4679338038
 20
103.2923378574
 11
155.6601764559
 21
103.3988690705
  0
LINE
  5
2A6
100
AcDbEntity
  8
RACCORDO
100
AcDbLine
 62
250
  6
CONTINUOUS
 10
155.6513915413
 20
103.0361303271
 11
155.8436341934
 21
103.1426615402
  0
LINE
  5
2A7
100
AcDbEntity
  8
RACCORDO
100
AcDbLine
 62
250
  6
CONTINUOUS
 10
155.5106356152
 20
101.0114902038
 11
155.7028782674
 21
101.1110874243
  0
LINE
  5
2A8
100
AcDbEntity
  8
RACCORDO
100
AcDbLine
 62
250
  6
CONTINUOUS
 10
155.6515188205
 20
100.768502618
 11
155.8437614726
 21
100.8680998385
  0
LINE
  5
2A9
100
AcDbEntity
  8
RACCORDO
100
AcDbLine
 62
250
  6
CONTINUOUS
 10
155.5491709724
 20
101.7757181758
 11
155.7414136245
 21
101.8706659033
  0
LINE
  5
2AA
100
AcDbEntity
  8
RACCORDO
100
AcDbLine
 62
250
  6
CONTINUOUS
 10
155.6513915413
 20
101.5586864728
 11
155.8436341934
 21
101.6536342003
  0
LINE
  5
2AB
100
AcDbEntity
  8
RACCORDO
100
AcDbLine
 62
250
  6
CONTINUOUS
 10
155.6513915413
 20
102.8543254104
 11
155.8436341934
 21
102.9205715512
  0
LINE
  5
2AC
100
AcDbEntity
  8
RACCORDO
100
AcDbLine
 62
7
  6
CONTINUOUS
 10
155.5905669581
 20
102.7427287378
 11
155.7828096103
 21
102.8089748785
  0
LINE
  5
2AD
100
AcDbEntity
  8
RACCORDO
100
AcDbLine
 62
7
  6
CONTINUOUS
 10
155.5866911414
 20
101.3108096875
 11
155.7789337935
 21
101.3654800158
  0
LINE
  5
2AE
100
AcDbEntity
  8
RACCORDO
100
AcDbLine
 62
250
  6
CONTINUOUS
 10
155.6513915413
 20
101.4239755243
 11
155.8436341934
 21
101.4786458526
  0
LINE
  5
2AF
100
AcDbEntity
  8
RACCORDO
100
AcDbLine
 62
7
  6
CONTINUOUS
 10
155.0029258419
 20
99.8272323948
 11
153.8560944535
 21
99.8739135862
  0
LINE
  5
2B0
100
AcDbEntity
  8
RACCORDO
100
AcDbLine
 62
7
  6
CONTINUOUS
 10
154.7899481007
 20
99.9517154935
 11
153.9891652913
 21
99.9843109526
  0
LINE
  5
2B1
100
AcDbEntity
  8
IMPORT_IGES
100
AcDbLine
 62
7
  6
CONTINUOUS
 10
153.7225691154
 20
99.995162615
 11
154.7899481007
 21
99.9517154935
  0
LINE
  5
2B2
100
AcDbEntity
  8
RACCORDO
100
AcDbLine
 62
7
  6
CONTINUOUS
 10
154.4450834226
 20
99.4162365832
 11
155.5596280505
 21
99.366753897
  0
LINE
  5
2B3
100
AcDbEntity
  8
IMPORT_IGES
100
AcDbLine
 62
7
  6
CONTINUOUS
 10
155.8436341934
 20
99.4301715441
 11
155.7829482381
 21
99.432865832
  0
LINE
  5
2B4
100
AcDbEntity
  8
RACCORDO
100
AcDbLine
 62
7
  6
CONTINUOUS
 10
153.7152585224
 20
98.4978040328
 11
155.5236252763
 21
97.8007282472
  0
LINE
  5
2B5
100
AcDbEntity
  8
IMPORT_IGES
100
AcDbLine
 62
7
  6
CONTINUOUS
 10
155.8436341934
 20
97.8148800135
 11
155.7519624475
 21
97.8502169573
  0
LINE
  5
2B6
100
AcDbEntity
  8
RACCORDO
100
AcDbLine
 62
7
  6
CONTINUOUS
 10
154.9966412159
 20
98.4473579983
 11
153.6928701336
 21
98.9939315476
  0
LINE
  5
2B7
100
AcDbEntity
  8
RACCORDO
100
AcDbLine
 62
7
  6
CONTINUOUS
 10
154.6656146069
 20
98.7676132344
 11
153.8541808721
 21
99.1077866149
  0
LINE
  5
2B8
100
AcDbEntity
  8
IMPORT_IGES
100
AcDbLine
 62
7
  6
CONTINUOUS
 10
153.7225691154
 20
99.1629615654
 11
154.6656146069
 21
98.7676132344
  0
LINE
  5
2B9
100
AcDbEntity
  8
RACCORDO
100
AcDbLine
 62
7
  6
CONTINUOUS
 10
153.7021415822
 20
101.4113660445
 11
155.5106356152
 21
100.507119028
  0
LINE
  5
2BA
100
AcDbEntity
  8
IMPORT_IGES
100
AcDbLine
 62
7
  6
CONTINUOUS
 10
155.7458743839
 20
100.5473344877
 11
155.8437614726
 21
100.4983909433
  0
LINE
  5
2BB
100
AcDbEntity
  8
RACCORDO
100
AcDbLine
 62
7
  6
CONTINUOUS
 10
155.5106356152
 20
101.0114902038
 11
153.7021415822
 21
101.9157372203
  0
LINE
  5
2BC
100
AcDbEntity
  8
RACCORDO
100
AcDbLine
 62
7
  6
CONTINUOUS
 10
155.7028782674
 20
101.1110874243
 11
153.8634523207
 21
102.0308003976
  0
LINE
  5
2BD
100
AcDbEntity
  8
IMPORT_IGES
100
AcDbLine
 62
7
  6
CONTINUOUS
 10
155.8437614726
 20
101.0406458216
 11
153.7225691154
 21
102.1012420003
  0
LINE
  5
2BE
100
AcDbEntity
  8
RACCORDO
100
AcDbLine
 62
7
  6
CONTINUOUS
 10
153.6924458264
 20
100.5931932515
 11
155.0029258419
 21
99.8272323948
  0
LINE
  5
2BF
100
AcDbEntity
  8
RACCORDO
100
AcDbLine
 62
7
  6
CONTINUOUS
 10
155.5231776836
 20
99.9523004484
 11
153.7148109297
 21
101.0564655864
  0
LINE
  5
2C0
100
AcDbEntity
  8
RACCORDO
100
AcDbLine
 62
7
  6
CONTINUOUS
 10
155.7154203357
 20
100.0502643955
 11
153.8761216682
 21
101.1733161563
  0
LINE
  5
2C1
100
AcDbEntity
  8
IMPORT_IGES
100
AcDbLine
 62
7
  6
CONTINUOUS
 10
153.7225691154
 20
101.267073341
 11
155.8436341934
 21
99.9719786874
  0
LINE
  5
2C2
100
AcDbEntity
  8
DRAFT
100
AcDbLine
 62
7
  6
CONTINUOUS
 10
154.2814223573
 20
97.3191944446
 11
155.1435295194
 21
96.5924334121
  0
LINE
  5
2C3
100
AcDbEntity
  8
RACCORDO
100
AcDbLine
 62
7
  6
CONTINUOUS
 10
153.6630867006
 20
97.8422031449
 11
153.9846979591
 21
97.5677509407
  0
LINE
  5
2C4
100
AcDbEntity
  8
RACCORDO
100
AcDbLine
 62
7
  6
CONTINUOUS
 10
155.5526727686
 20
96.664704364
 11
153.7443060148
 21
98.2635864086
  0
LINE
  5
2C5
100
AcDbEntity
  8
RACCORDO
100
AcDbLine
 62
7
  6
CONTINUOUS
 10
155.7449154207
 20
96.7592701529
 11
153.9056167533
 21
98.3855008983
  0
LINE
  5
2C6
100
AcDbEntity
  8
IMPORT_IGES
100
AcDbLine
 62
7
  6
CONTINUOUS
 10
153.8275610282
 20
98.4545144969
 11
155.8436341934
 21
96.6719871542
  0
LINE
  5
2C7
100
AcDbEntity
  8
RACCORDO
100
AcDbLine
 62
7
  6
CONTINUOUS
 10
155.5600878015
 20
98.345311979
 11
154.4450834226
 21
99.4162365832
  0
LINE
  5
2C8
100
AcDbEntity
  8
RACCORDO
100
AcDbLine
 62
7
  6
CONTINUOUS
 10
155.7523304537
 20
98.4390821512
 11
154.7490045138
 21
99.4027433308
  0
LINE
  5
2C9
100
AcDbEntity
  8
IMPORT_IGES
100
AcDbLine
 62
7
  6
CONTINUOUS
 10
154.7490045138
 20
99.4027433308
 11
155.8436341934
 21
98.3513879473
  0
LINE
  5
2CA
100
AcDbEntity
  8
RACCORDO
100
AcDbLine
 62
7
  6
CONTINUOUS
 10
153.8553259835
 20
99.5515356362
 11
154.9966412159
 21
98.4473579983
  0
LINE
  5
2CB
100
AcDbEntity
  8
IMPORT_IGES
100
AcDbLine
 62
7
  6
CONTINUOUS
 10
153.7942076744
 20
99.8498033714
 11
153.7225691154
 21
99.9191108621
  0
LWPOLYLINE
  5
2CC
100
AcDbEntity
  8
DRAFT
100
AcDbPolyline
 62
7
  6
CONTINUOUS
 90
48
 70
0
 10
154.6042529629
 20
94.1602734029
 10
154.6099157352
 20
94.1491894024
 10
154.6158138679
 20
94.1378200408
 10
154.6219467021
 20
94.1261418109
 10
154.6283148967
 20
94.1141782198
 10
154.6349627314
 20
94.1019224139
 10
154.6418800545
 20
94.0893715971
 10
154.6490770177
 20
94.0765285655
 10
154.6566283552
 20
94.0633948537
 10
154.6645257003
 20
94.0499631086
 10
154.6727774198
 20
94.0362406834
 10
154.6814833478
 20
94.0222511728
 10
154.6906541125
 20
94.0079839427
 10
154.7002790859
 20
93.9934496272
 10
154.7104262172
 20
93.9787037236
 10
154.7210983823
 20
93.9637543597
 10
154.7322927054
 20
93.9485934077
 10
154.7440685091
 20
93.9332519816
 10
154.7564258329
 20
93.9177218347
 10
154.7693646373
 20
93.9020112136
 10
154.782944127
 20
93.8861759728
 10
154.7971691887
 20
93.8701990665
 10
154.8120349357
 20
93.8540975403
 10
154.8275859132
 20
93.8379783863
 10
154.8438066192
 20
93.8218405719
 10
154.8607125556
 20
93.8056851297
 10
154.8783947734
 20
93.7896221486
 10
154.8968689171
 20
93.7736281567
 10
154.916119342
 20
93.7577266259
 10
154.9361901659
 20
93.7420980613
 10
154.9570866414
 20
93.7267345846
 10
154.9788035158
 20
93.7116440741
 10
155.0013691481
 20
93.6970306694
 10
155.024767804
 20
93.6828870158
 10
155.0490152178
 20
93.669220468
 10
155.0741869513
 20
93.6562572306
 10
155.1003367139
 20
93.6439003509
 10
155.1274107963
 20
93.6322467815
 10
155.1553236326
 20
93.6218135844
 10
155.1841328961
 20
93.6124840328
 10
155.2137809136
 20
93.6043748534
 10
155.2440090999
 20
93.5983532885
 10
155.275052624
 20
93.5944582264
 10
155.3066763169
 20
93.5926507789
 10
155.3379160865
 20
93.593681524
 10
155.3688053557
 20
93.5978168948
 10
155.3993107016
 20
93.6047904583
 10
155.4209550556
 20
93.6117288491
  0
LWPOLYLINE
  5
2CD
100
AcDbEntity
  8
DRAFT
100
AcDbPolyline
 62
7
  6
CONTINUOUS
 90
10
 70
0
 10
154.5640575038
 20
94.2600295777
 10
154.5658265597
 20
94.2510807235
 10
154.5681835027
 20
94.2418832339
 10
154.5711283329
 20
94.2324371088
 10
154.5747484462
 20
94.2227197408
 10
154.5789564466
 20
94.2127537375
 10
154.5834901458
 20
94.2026069212
 10
154.5883063616
 20
94.1923109572
 10
154.5934482761
 20
94.1818341803
 10
154.6042529629
 20
94.1602734029
  0
LWPOLYLINE
  5
2CE
100
AcDbEntity
  8
DRAFT
100
AcDbPolyline
 62
7
  6
CONTINUOUS
 90
10
 70
0
 10
155.3028269981
 20
94.7816052216
 10
155.3100063865
 20
94.7278099239
 10
155.315824133
 20
94.6749667771
 10
155.3202802374
 20
94.6230757812
 10
155.3233903907
 20
94.5721908446
 10
155.325138902
 20
94.5222580589
 10
155.3254786984
 20
94.4731156982
 10
155.324394089
 20
94.4247098538
 10
155.3219007647
 20
94.3770944344
 10
155.3179987254
 20
94.33026944
  0
LWPOLYLINE
  5
2CF
100
AcDbEntity
  8
RACCORDO
100
AcDbPolyline
 62
7
  6
CONTINUOUS
 90
16
 70
0
 10
155.6454985562
 20
94.9434663596
 10
155.6431374365
 20
94.9611659018
 10
155.6395521209
 20
94.9789000685
 10
155.6347426095
 20
94.9966688599
 10
155.6286111041
 20
95.0147034779
 10
155.6212554029
 20
95.0327727206
 10
155.6129689002
 20
95.0501829815
 10
155.6037966638
 20
95.0667814771
 10
155.593693626
 20
95.0827209911
 10
155.5828179775
 20
95.0977662683
 10
155.5710720359
 20
95.1120025522
 10
155.5585534835
 20
95.1253445994
 10
155.5457135578
 20
95.1373014244
 10
155.5327026713
 20
95.1477093653
 10
155.5193704114
 20
95.156732084
 10
155.5057167782
 20
95.1643695805
  0
LINE
  5
2D0
100
AcDbEntity
  8
RACCORDO
100
AcDbLine
 62
7
  6
CONTINUOUS
 10
155.6513915413
 20
96.2083100267
 11
155.6513915413
 21
96.4507079307
  0
LINE
  5
2D1
100
AcDbEntity
  8
RACCORDO
100
AcDbLine
 62
7
  6
CONTINUOUS
 10
155.6513915413
 20
97.9086416079
 11
155.6513915413
 21
98.1381518084
  0
LINE
  5
2D2
100
AcDbEntity
  8
RACCORDO
100
AcDbLine
 62
7
  6
CONTINUOUS
 10
155.6513915413
 20
99.4825910335
 11
155.6513915413
 21
99.7163466466
  0
LINE
  5
2D3
100
AcDbEntity
  8
RACCORDO
100
AcDbLine
 62
7
  6
CONTINUOUS
 10
155.6513915413
 20
101.4239755243
 11
155.6513915413
 21
101.5586864728
  0
LINE
  5
2D4
100
AcDbEntity
  8
RACCORDO
100
AcDbLine
 62
7
  6
CONTINUOUS
 10
155.6513915413
 20
102.8543254104
 11
155.6513915413
 21
103.0361303271
  0
LINE
  5
2D5
100
AcDbEntity
  8
RACCORDO
100
AcDbLine
 62
7
  6
CONTINUOUS
 10
155.6515188205
 20
100.6092234084
 11
155.6515188205
 21
100.768502618
  0
LINE
  5
2D6
100
AcDbEntity
  8
IMPORT_IGES
100
AcDbLine
 62
7
  6
CONTINUOUS
 10
155.8436341934
 20
103.3783709677
 11
155.8436341934
 21
102.7893143444
  0
LINE
  5
2D7
100
AcDbEntity
  8
IMPORT_IGES
100
AcDbLine
 62
7
  6
CONTINUOUS
 10
155.8436341934
 20
101.7838268077
 11
155.8436341934
 21
101.2419417222
  0
LINE
  5
2D8
100
AcDbEntity
  8
IMPORT_IGES
100
AcDbLine
 62
7
  6
CONTINUOUS
 10
155.8436341934
 20
99.9719786874
 11
155.8436341934
 21
99.4301715441
  0
LINE
  5
2D9
100
AcDbEntity
  8
IMPORT_IGES
100
AcDbLine
 62
7
  6
CONTINUOUS
 10
155.8436341934
 20
98.3513879473
 11
155.8436341934
 21
97.8148800135
  0
LINE
  5
2DA
100
AcDbEntity
  8
IMPORT_IGES
100
AcDbLine
 62
7
  6
CONTINUOUS
 10
155.8436341934
 20
96.6719871542
 11
155.8436341934
 21
96.1474199787
  0
LINE
  5
2DB
100
AcDbEntity
  8
RACCORDO
100
AcDbLine
 62
7
  6
CONTINUOUS
 10
155.8436341934
 20
96.2749638158
 11
155.8436341934
 21
96.5452737196
  0
LINE
  5
2DC
100
AcDbEntity
  8
RACCORDO
100
AcDbLine
 62
7
  6
CONTINUOUS
 10
155.8436341934
 20
97.9720437653
 11
155.8436341934
 21
98.2319219807
  0
LINE
  5
2DD
100
AcDbEntity
  8
RACCORDO
100
AcDbLine
 62
7
  6
CONTINUOUS
 10
155.8436341934
 20
99.5500827248
 11
155.8436341934
 21
99.8143105937
  0
LINE
  5
2DE
100
AcDbEntity
  8
RACCORDO
100
AcDbLine
 62
7
  6
CONTINUOUS
 10
155.8436341934
 20
101.4786458526
 11
155.8436341934
 21
101.6536342003
  0
LINE
  5
2DF
100
AcDbEntity
  8
RACCORDO
100
AcDbLine
 62
7
  6
CONTINUOUS
 10
155.8436341934
 20
102.9205715512
 11
155.8436341934
 21
103.1426615402
  0
LINE
  5
2E0
100
AcDbEntity
  8
RACCORDO
100
AcDbLine
 62
7
  6
CONTINUOUS
 10
155.8437614726
 20
100.6709369264
 11
155.8437614726
 21
100.8680998385
  0
LINE
  5
2E1
100
AcDbEntity
  8
IMPORT_IGES
100
AcDbLine
 62
7
  6
CONTINUOUS
 10
155.8437614726
 20
100.4983909433
 11
155.8437614726
 21
101.0406458216
  0
LINE
  5
2E2
100
AcDbEntity
  8
DRAFT
100
AcDbLine
 62
7
  6
CONTINUOUS
 10
154.7585789166
 20
94.8600208552
 11
154.7575418859
 21
94.8517437416
  0
LINE
  5
2E3
100
AcDbEntity
  8
DRAFT
100
AcDbLine
 62
7
  6
CONTINUOUS
 10
154.7575418859
 20
94.8517437416
 11
154.7563626944
 21
94.8426836196
  0
LINE
  5
2E4
100
AcDbEntity
  8
DRAFT
100
AcDbLine
 62
7
  6
CONTINUOUS
 10
154.7563626944
 20
94.8426836196
 11
154.7550261672
 21
94.8327726236
  0
LWPOLYLINE
  5
2E5
100
AcDbEntity
  8
DRAFT
100
AcDbPolyline
 62
7
  6
CONTINUOUS
 90
3
 70
0
 10
154.7308301761
 20
94.8839874324
 10
154.7317443733
 20
94.890715075
 10
154.7321956388
 20
94.8938881331
  0
LINE
  5
2E6
100
AcDbEntity
  8
DRAFT
100
AcDbLine
 62
7
  6
CONTINUOUS
 10
154.7550261672
 20
94.8327726236
 11
154.7535053046
 21
94.821884852
  0
LWPOLYLINE
  5
2E7
100
AcDbEntity
  8
0
100
AcDbPolyline
 62
7
  6
CONTINUOUS
 90
11
 70
0
 10
155.3179987254
 20
94.33026944
 10
155.3140368272
 20
94.3022922437
 10
155.3084841105
 20
94.2762777404
 10
155.3013405753
 20
94.2522259299
 10
155.2924365375
 20
94.2299739137
 10
155.2819416813
 20
94.2096845903
 10
155.2703650591
 20
94.1918466559
 10
155.257910588
 20
94.1767198447
 10
155.244374351
 20
94.1640444225
 10
155.2296536494
 20
94.1535298825
 10
155.2192743983
 20
94.1477090408
  0
LINE
  5
2E8
100
AcDbEntity
  8
DRAFT
100
AcDbLine
 62
7
  6
CONTINUOUS
 10
154.7535053046
 20
94.821884852
 11
154.7517657706
 21
94.8098740023
  0
LINE
  5
2E9
100
AcDbEntity
  8
DRAFT
100
AcDbLine
 62
7
  6
CONTINUOUS
 10
154.7517657706
 20
94.8098740023
 11
154.749832781
 21
94.7969455772
  0
LWPOLYLINE
  5
2EA
100
AcDbEntity
  8
DRAFT
100
AcDbPolyline
 62
7
  6
CONTINUOUS
 90
3
 70
0
 10
154.7321956388
 20
94.8938881331
 10
154.7330860056
 20
94.8998690302
 10
154.7335237818
 20
94.9026947125
  0
LINE
  5
2EB
100
AcDbEntity
  8
DRAFT
100
AcDbLine
 62
7
  6
CONTINUOUS
 10
154.749832781
 20
94.7969455772
 11
154.7468108266
 21
94.7775097298
  0
LINE
  5
2EC
100
AcDbEntity
  8
DRAFT
100
AcDbLine
 62
7
  6
CONTINUOUS
 10
154.7335237818
 20
94.9026947125
 11
154.7343845712
 21
94.9080313316
  0
LINE
  5
2ED
100
AcDbEntity
  8
DRAFT
100
AcDbLine
 62
7
  6
CONTINUOUS
 10
154.7468108266
 20
94.7775097298
 11
154.7441736148
 21
94.7611683618
  0
LINE
  5
2EE
100
AcDbEntity
  8
DRAFT
100
AcDbLine
 62
7
  6
CONTINUOUS
 10
154.7441736148
 20
94.7611683618
 11
154.74103882
 21
94.7423573013
  0
LINE
  5
2EF
100
AcDbEntity
  8
DRAFT
100
AcDbLine
 62
7
  6
CONTINUOUS
 10
154.7343845712
 20
94.9080313316
 11
154.7352242402
 21
94.9129914286
  0
LINE
  5
2F0
100
AcDbEntity
  8
DRAFT
100
AcDbLine
 62
7
  6
CONTINUOUS
 10
154.74103882
 20
94.7423573013
 11
154.7374120924
 21
94.7212842201
  0
LINE
  5
2F1
100
AcDbEntity
  8
DRAFT
100
AcDbLine
 62
7
  6
CONTINUOUS
 10
154.7352242402
 20
94.9129914286
 11
154.7360433564
 21
94.9176174515
  0
LINE
  5
2F2
100
AcDbEntity
  8
DRAFT
100
AcDbLine
 62
7
  6
CONTINUOUS
 10
154.7374120924
 20
94.7212842201
 11
154.7332292314
 21
94.6977401691
  0
LINE
  5
2F3
100
AcDbEntity
  8
DRAFT
100
AcDbLine
 62
7
  6
CONTINUOUS
 10
154.7332292314
 20
94.6977401691
 11
154.7284039891
 21
94.6714169638
  0
LINE
  5
2F4
100
AcDbEntity
  8
DRAFT
100
AcDbLine
 62
7
  6
CONTINUOUS
 10
154.7360433564
 20
94.9176174515
 11
154.7368425493
 21
94.9219366173
  0
LINE
  5
2F5
100
AcDbEntity
  8
DRAFT
100
AcDbLine
 62
7
  6
CONTINUOUS
 10
154.7284039891
 20
94.6714169638
 11
154.7229899095
 21
94.642764906
  0
LINE
  5
2F6
100
AcDbEntity
  8
DRAFT
100
AcDbLine
 62
7
  6
CONTINUOUS
 10
154.7368425493
 20
94.9219366173
 11
154.7376232918
 21
94.925988047
  0
LINE
  5
2F7
100
AcDbEntity
  8
DRAFT
100
AcDbLine
 62
7
  6
CONTINUOUS
 10
154.7229899095
 20
94.642764906
 11
154.7169982515
 21
94.6119432577
  0
LINE
  5
2F8
100
AcDbEntity
  8
DRAFT
100
AcDbLine
 62
7
  6
CONTINUOUS
 10
154.7169982515
 20
94.6119432577
 11
154.7103460717
 21
94.578694504
  0
LINE
  5
2F9
100
AcDbEntity
  8
DRAFT
100
AcDbLine
 62
7
  6
CONTINUOUS
 10
154.7376232918
 20
94.925988047
 11
154.738389134
 21
94.9298103361
  0
LINE
  5
2FA
100
AcDbEntity
  8
DRAFT
100
AcDbLine
 62
7
  6
CONTINUOUS
 10
154.7103460717
 20
94.578694504
 11
154.7077730993
 21
94.5660534995
  0
LINE
  5
2FB
100
AcDbEntity
  8
DRAFT
100
AcDbLine
 62
7
  6
CONTINUOUS
 10
154.738389134
 20
94.9298103361
 11
154.7391389114
 21
94.9334118466
  0
LINE
  5
2FC
100
AcDbEntity
  8
DRAFT
100
AcDbLine
 62
7
  6
CONTINUOUS
 10
154.7391389114
 20
94.9334118466
 11
154.7398445152
 21
94.9366878226
  0
LWPOLYLINE
  5
2FD
100
AcDbEntity
  8
DRAFT
100
AcDbPolyline
 62
7
  6
CONTINUOUS
 90
31
 70
0
 10
154.7398445152
 20
94.9366878226
 10
154.7406170996
 20
94.9401375688
 10
154.7410397459
 20
94.9419787263
 10
154.7415161304
 20
94.9439898946
 10
154.7420669533
 20
94.9462582476
 10
154.7426715143
 20
94.9486966115
 10
154.7432972559
 20
94.9511399376
 10
154.7439438724
 20
94.9535726677
 10
154.7446116696
 20
94.95601036
 10
154.7452690065
 20
94.9583346409
 10
154.7459053786
 20
94.9605022084
 10
154.7465312905
 20
94.9625563644
 10
154.7471466156
 20
94.9645086406
 10
154.7477527258
 20
94.9663631547
 10
154.7483482493
 20
94.9681157891
 10
154.7489289439
 20
94.9697657222
 10
154.7494917014
 20
94.9713050513
 10
154.7500396302
 20
94.9727416792
 10
154.7505778123
 20
94.9740984928
 10
154.7510901801
 20
94.9753493814
 10
154.7515928013
 20
94.9765204557
 10
154.752138962
 20
94.9777129351
 10
154.7527513491
 20
94.9789888707
 10
154.7534072756
 20
94.9802862115
 10
154.7540919664
 20
94.9815200236
 10
154.754804852
 20
94.9826897188
 10
154.7555465018
 20
94.9837958853
 10
154.7563038483
 20
94.9847553545
 10
154.7570547764
 20
94.9855924571
 10
154.7578214012
 20
94.9862828622
 10
154.7584108059
 20
94.9866006615
  0
LWPOLYLINE
  5
2FE
100
AcDbEntity
  8
RACCORDO
100
AcDbPolyline
 62
7
  6
CONTINUOUS
 90
28
 70
0
 10
155.6051976381
 20
93.8018000788
 10
155.6161608966
 20
93.8364694504
 10
155.6260547233
 20
93.8720956908
 10
155.6348791184
 20
93.9086788
 10
155.6425593077
 20
93.9463422584
 10
155.6491700654
 20
93.9849625856
 10
155.6549357131
 20
94.0241693403
 10
155.659858498
 20
94.0639265914
 10
155.6639361729
 20
94.1042702701
 10
155.6673863183
 20
94.144937728
 10
155.6702472811
 20
94.1858896099
 10
155.6724807143
 20
94.2271652711
 10
155.6741891583
 20
94.2686201289
 10
155.6753851295
 20
94.3101799523
 10
155.6760561113
 20
94.3519189723
 10
155.6762670953
 20
94.3939153
 10
155.6760265773
 20
94.4361088855
 10
155.6753260614
 20
94.4785597785
 10
155.6742050512
 20
94.52152624
 10
155.6726733627
 20
94.5649915747
 10
155.6707211798
 20
94.6089724779
 10
155.6683585582
 20
94.6537772956
 10
155.6655920043
 20
94.6993998743
 10
155.6624150116
 20
94.7458463676
 10
155.6588181168
 20
94.7934435821
 10
155.6547981654
 20
94.8423004534
 10
155.6503583119
 20
94.8923080459
 10
155.6454985562
 20
94.9434663596
  0
LWPOLYLINE
  5
2FF
100
AcDbEntity
  8
RACCORDO
100
AcDbPolyline
 62
7
  6
CONTINUOUS
 90
28
 70
0
 10
155.7965213541
 20
93.8764829621
 10
155.8077324885
 20
93.9119294705
 10
155.8178421106
 20
93.9483605764
 10
155.8268502206
 20
93.9857762798
 10
155.8346800932
 20
94.0243039656
 10
155.8414084536
 20
94.0638162489
 10
155.8472654773
 20
94.1039309753
 10
155.8522523715
 20
94.1446108889
 10
155.856367929
 20
94.1858932454
 10
155.8598387032
 20
94.2275076577
 10
155.8627056812
 20
94.2694135788
 10
155.8649278758
 20
94.3116515557
 10
155.8666088788
 20
94.3540728409
 10
155.8677609639
 20
94.3966010842
 10
155.8683718573
 20
94.4393126359
 10
155.868508329
 20
94.4822877996
 10
155.8681789924
 20
94.5254660478
 10
155.8673752341
 20
94.568907908
 10
155.8661379834
 20
94.6128752658
 10
155.8644770626
 20
94.6573511716
 10
155.8623826493
 20
94.7023525749
 10
155.8598662059
 20
94.7481922097
 10
155.8569340435
 20
94.7948636043
 10
155.853579851
 20
94.8423732303
 10
155.8497961563
 20
94.8910532357
 10
155.845580469
 20
94.9410143367
 10
155.8409352796
 20
94.9921458171
 10
155.835860588
 20
95.044447677
  0
LWPOLYLINE
  5
300
100
AcDbEntity
  8
IMPORT_IGES
100
AcDbPolyline
 62
7
  6
CONTINUOUS
 90
32
 70
0
 10
155.7965213541
 20
93.8764829621
 10
155.8053420142
 20
93.9034616844
 10
155.8134042686
 20
93.9311209692
 10
155.8207449078
 20
93.9594158053
 10
155.8274007218
 20
93.9883011815
 10
155.8334085009
 20
94.0177320868
 10
155.8388050352
 20
94.04766351
 10
155.843627115
 20
94.07805044
 10
155.8479115305
 20
94.1088478655
 10
155.8516950718
 20
94.1400107754
 10
155.8550145293
 20
94.1714941587
 10
155.857906693
 20
94.2032530041
 10
155.8604083532
 20
94.2352423005
 10
155.8635009139
 20
94.2837110018
 10
155.8658253934
 20
94.332577804
 10
155.867413812
 20
94.381821342
 10
155.8682981901
 20
94.4314202507
 10
155.8685105482
 20
94.481353165
 10
155.8680829066
 20
94.5315987197
 10
155.8670472857
 20
94.5821355497
 10
155.865435706
 20
94.6329422899
 10
155.8632801877
 20
94.6839975752
 10
155.8606127514
 20
94.7352800404
 10
155.8574654174
 20
94.7867683204
 10
155.853870206
 20
94.8384410501
 10
155.8498591378
 20
94.8902768643
 10
155.845464233
 20
94.942254398
 10
155.8407175122
 20
94.994352286
 10
155.8356509956
 20
95.0465491631
 10
155.8302967037
 20
95.0988236643
 10
155.8246866568
 20
95.1511544245
 10
155.8188528754
 20
95.2035200784
  0
LINE
  5
301
100
AcDbEntity
  8
RACCORDO
100
AcDbLine
 62
7
  6
CONTINUOUS
 10
153.6012511302
 20
98.2913231916
 11
153.7625618686
 21
98.4132376813
  0
LINE
  5
302
100
AcDbEntity
  8
RACCORDO
100
AcDbLine
 62
250
  6
CONTINUOUS
 10
153.7443060148
 20
98.2635864086
 11
153.9056167533
 21
98.3855008983
  0
LWPOLYLINE
  5
303
100
AcDbEntity
  8
RACCORDO
100
AcDbPolyline
 62
7
  6
CONTINUOUS
 90
11
 70
0
 10
153.6041839062
 20
94.7439847398
 10
153.600916516
 20
94.7416442676
 10
153.5929479847
 20
94.7346786169
 10
153.5857675091
 20
94.7264977636
 10
153.5794580409
 20
94.7172109103
 10
153.5740027945
 20
94.7067460362
 10
153.5694185553
 20
94.6951751621
 10
153.5658386312
 20
94.6828235533
 10
153.5633074579
 20
94.6697996315
 10
153.5617805997
 20
94.6559949749
 10
153.5612580564
 20
94.6414095836
  0
LINE
  5
304
100
AcDbEntity
  8
RACCORDO
100
AcDbLine
 62
7
  6
CONTINUOUS
 10
153.6029240061
 20
96.0658768127
 11
153.7642347446
 21
96.1809399901
  0
LINE
  5
305
100
AcDbEntity
  8
RACCORDO
100
AcDbLine
 62
250
  6
CONTINUOUS
 10
153.7021412617
 20
96.0661573387
 11
153.8634520001
 21
96.1812205161
  0
LINE
  5
306
100
AcDbEntity
  8
RACCORDO
100
AcDbLine
 62
7
  6
CONTINUOUS
 10
153.6032346073
 20
98.9895769382
 11
153.7645453457
 21
99.1034320055
  0
LINE
  5
307
100
AcDbEntity
  8
RACCORDO
100
AcDbLine
 62
250
  6
CONTINUOUS
 10
153.6928701336
 20
98.9939315476
 11
153.8541808721
 21
99.1077866149
  0
LINE
  5
308
100
AcDbEntity
  8
RACCORDO
100
AcDbLine
 62
7
  6
CONTINUOUS
 10
153.6040901231
 20
96.8423054108
 11
153.7654008616
 21
96.9529204477
  0
LINE
  5
309
100
AcDbEntity
  8
RACCORDO
100
AcDbLine
 62
250
  6
CONTINUOUS
 10
153.6653083449
 20
96.8542869375
 11
153.8266190834
 21
96.9649019744
  0
LINE
  5
30A
100
AcDbEntity
  8
RACCORDO
100
AcDbLine
 62
7
  6
CONTINUOUS
 10
153.7654847309
 20
94.8543013455
 11
153.6041749188
 21
94.7440006946
  0
LINE
  5
30B
100
AcDbEntity
  8
RACCORDO
100
AcDbLine
 62
250
  6
CONTINUOUS
 10
153.662455562
 20
94.7563695338
 11
153.8237946111
 21
94.8666667836
  0
LWPOLYLINE
  5
30C
100
AcDbEntity
  8
RACCORDO
100
AcDbPolyline
 62
7
  6
CONTINUOUS
 90
7
 70
0
 10
153.7654936737
 20
94.85428547
 10
153.7710696778
 20
94.8577174112
 10
153.7806876113
 20
94.8622639076
 10
153.7907985856
 20
94.8654468776
 10
153.8013042199
 20
94.8672170394
 10
153.812302895
 20
94.8676236748
 10
153.8237946111
 20
94.8666667836
  0
LINE
  5
30D
100
AcDbEntity
  8
DRAFT
100
AcDbLine
 62
7
  6
CONTINUOUS
 10
154.4736650095
 20
96.8557032521
 11
154.2814223573
 21
96.7505878475
  0
LINE
  5
30E
100
AcDbEntity
  8
RACCORDO
100
AcDbLine
 62
250
  6
CONTINUOUS
 10
155.5231776836
 20
99.9523004484
 11
155.7154203357
 21
100.0502643955
  0
LINE
  5
30F
100
AcDbEntity
  8
RACCORDO
100
AcDbLine
 62
250
  6
CONTINUOUS
 10
155.6513915413
 20
99.7163466466
 11
155.8436341934
 21
99.8143105937
  0
LINE
  5
310
100
AcDbEntity
  8
RACCORDO
100
AcDbLine
 62
250
  6
CONTINUOUS
 10
155.5526727686
 20
96.664704364
 11
155.7449154207
 21
96.7592701529
  0
LINE
  5
311
100
AcDbEntity
  8
RACCORDO
100
AcDbLine
 62
250
  6
CONTINUOUS
 10
155.6513915413
 20
96.4507079307
 11
155.8436341934
 21
96.5452737196
  0
LINE
  5
312
100
AcDbEntity
  8
RACCORDO
100
AcDbLine
 62
250
  6
CONTINUOUS
 10
155.5600878015
 20
98.345311979
 11
155.7523304537
 21
98.4390821512
  0
LINE
  5
313
100
AcDbEntity
  8
RACCORDO
100
AcDbLine
 62
250
  6
CONTINUOUS
 10
155.6513915413
 20
98.1381518084
 11
155.8436341934
 21
98.2319219807
  0
LINE
  5
314
100
AcDbEntity
  8
RACCORDO
100
AcDbLine
 62
250
  6
CONTINUOUS
 10
155.6513915413
 20
99.4825910335
 11
155.8436341934
 21
99.5500827248
  0
LINE
  5
315
100
AcDbEntity
  8
RACCORDO
100
AcDbLine
 62
7
  6
CONTINUOUS
 10
155.5909618464
 20
99.3711461322
 11
155.7832044985
 21
99.4386378235
  0
LINE
  5
316
100
AcDbEntity
  8
RACCORDO
100
AcDbLine
 62
250
  6
CONTINUOUS
 10
155.6513915413
 20
96.2083100267
 11
155.8436341934
 21
96.2749638158
  0
LINE
  5
317
100
AcDbEntity
  8
RACCORDO
100
AcDbLine
 62
7
  6
CONTINUOUS
 10
155.5906966725
 20
96.0967634063
 11
155.7829393246
 21
96.1634171955
  0
LINE
  5
318
100
AcDbEntity
  8
RACCORDO
100
AcDbLine
 62
250
  6
CONTINUOUS
 10
155.6513915413
 20
97.9086416079
 11
155.8436341934
 21
97.9720437653
  0
LINE
  5
319
100
AcDbEntity
  8
RACCORDO
100
AcDbLine
 62
7
  6
CONTINUOUS
 10
155.5896491616
 20
97.7966855875
 11
155.7818918137
 21
97.8600877449
  0
LINE
  5
31A
100
AcDbEntity
  8
RACCORDO
100
AcDbLine
 62
250
  6
CONTINUOUS
 10
155.6515188205
 20
100.6092234084
 11
155.8437614726
 21
100.6709369264
  0
LINE
  5
31B
100
AcDbEntity
  8
RACCORDO
100
AcDbLine
 62
7
  6
CONTINUOUS
 10
155.5892208661
 20
100.4970457532
 11
155.7814635182
 21
100.5587592712
  0
LINE
  5
31C
100
AcDbEntity
  8
RACCORDO
100
AcDbLine
 62
7
  6
CONTINUOUS
 10
155.4679338038
 20
103.2923378574
 11
153.65956705
 21
103.4943903207
  0
LINE
  5
31D
100
AcDbEntity
  8
RACCORDO
100
AcDbLine
 62
7
  6
CONTINUOUS
 10
155.6601764559
 20
103.3988690705
 11
153.8208777885
 21
103.6043776189
  0
LINE
  5
31E
100
AcDbEntity
  8
IMPORT_IGES
100
AcDbLine
 62
7
  6
CONTINUOUS
 10
153.7225691154
 20
103.6153618451
 11
155.8436341934
 21
103.3783709677
  0
LINE
  5
31F
100
AcDbEntity
  8
RACCORDO
100
AcDbLine
 62
7
  6
CONTINUOUS
 10
154.1497208675
 20
102.9645883094
 11
155.5481076945
 21
102.7396797857
  0
LINE
  5
320
100
AcDbEntity
  8
IMPORT_IGES
100
AcDbLine
 62
7
  6
CONTINUOUS
 10
155.8436341934
 20
102.7893143444
 11
155.7632661678
 21
102.8022402771
  0
LINE
  5
321
100
AcDbEntity
  8
RACCORDO
100
AcDbLine
 62
7
  6
CONTINUOUS
 10
155.5491709724
 20
101.7757181758
 11
154.1497208675
 21
102.9645883094
  0
LINE
  5
322
100
AcDbEntity
  8
RACCORDO
100
AcDbLine
 62
7
  6
CONTINUOUS
 10
155.7414136245
 20
101.8706659033
 11
154.5247257237
 21
102.9042746773
  0
LINE
  5
323
100
AcDbEntity
  8
IMPORT_IGES
100
AcDbLine
 62
7
  6
CONTINUOUS
 10
154.5247257237
 20
102.9042746773
 11
155.8436341934
 21
101.7838268077
  0
LINE
  5
324
100
AcDbEntity
  8
RACCORDO
100
AcDbLine
 62
7
  6
CONTINUOUS
 10
153.6590286371
 20
102.9678102742
 11
155.4673953909
 21
101.351705443
  0
LINE
  5
325
100
AcDbEntity
  8
IMPORT_IGES
100
AcDbLine
 62
7
  6
CONTINUOUS
 10
155.8436341934
 20
101.2419417222
 11
155.7231501381
 21
101.3496161546
  0
LINE
  5
326
100
AcDbEntity
  8
DRAFT
100
AcDbLine
 62
250
  6
CONTINUOUS
 10
154.3658787162
 20
94.7967210995
 11
154.194542024
 21
94.6878813296
  0
LWPOLYLINE
  5
327
100
AcDbEntity
  8
DRAFT
100
AcDbPolyline
 62
7
  6
CONTINUOUS
 90
10
 70
0
 10
154.3087369347
 20
94.716686287
 10
154.2992475635
 20
94.7109730091
 10
154.2880798981
 20
94.7053037265
 10
154.2763797258
 20
94.7004081305
 10
154.2641657918
 20
94.6962561271
 10
154.2514193508
 20
94.6928778103
 10
154.238088904
 20
94.6903440805
 10
154.224157285
 20
94.6886785713
 10
154.2096416601
 20
94.687857649
 10
154.1945420294
 20
94.6878813139
  0
LINE
  5
328
100
AcDbEntity
  8
RACCORDO
100
AcDbLine
 62
250
  6
CONTINUOUS
 10
155.6454985562
 20
94.9434663596
 11
155.835860588
 21
95.044447677
  0
LINE
  5
329
100
AcDbEntity
  8
RACCORDO
100
AcDbLine
 62
250
  6
CONTINUOUS
 10
155.5057167782
 20
95.1643695805
 11
155.6961248647
 21
95.2648840838
  0
LINE
  5
32A
100
AcDbEntity
  8
0
100
AcDbLine
 62
250
  6
CONTINUOUS
 10
155.2296283695
 20
94.2449222363
 11
155.0528516742
 21
94.1565338887
  0
LWPOLYLINE
  5
32B
100
AcDbEntity
  8
0
100
AcDbPolyline
 62
7
  6
CONTINUOUS
 90
10
 70
0
 10
155.2192743983
 20
94.1477090408
 10
155.2137065297
 20
94.1450656543
 10
155.1965749454
 20
94.1387623084
 10
155.1782820587
 20
94.1346610491
 10
155.1585145547
 20
94.1327699013
 10
155.1375857484
 20
94.1330808401
 10
155.1164587465
 20
94.1356109953
 10
155.0954545846
 20
94.1403660768
 10
155.0742522272
 20
94.1473403746
 10
155.0528516742
 20
94.1565338887
  0
LWPOLYLINE
  5
32C
100
AcDbEntity
  8
DRAFT
100
AcDbPolyline
 62
7
  6
CONTINUOUS
 90
10
 70
0
 10
155.6067093745
 20
93.680191929
 10
155.6331653364
 20
93.6915789842
 10
155.6627060495
 20
93.7080892695
 10
155.689823342
 20
93.7270560057
 10
155.7144089412
 20
93.7486827968
 10
155.7365711198
 20
93.7727660388
 10
155.7559040346
 20
93.7977438632
 10
155.7722724048
 20
93.8230956472
 10
155.7858115113
 20
93.8493420135
 10
155.7965213541
 20
93.8764829621
  0
LWPOLYLINE
  5
32D
100
AcDbEntity
  8
DRAFT
100
AcDbPolyline
 62
7
  6
CONTINUOUS
 90
11
 70
0
 10
154.415085189
 20
94.1877117332
 10
154.423005423
 20
94.1908161663
 10
154.436224812
 20
94.1967490732
 10
154.4490518699
 20
94.2035318445
 10
154.4612908567
 20
94.2113808264
 10
154.4729818326
 20
94.2203240517
 10
154.4840847374
 20
94.2303334877
 10
154.4942836507
 20
94.2415413826
 10
154.503473266
 20
94.253991819
 10
154.5117588898
 20
94.2676407143
 10
154.5191405222
 20
94.2824880685
  0
LINE
  5
32E
100
AcDbEntity
  8
DRAFT
100
AcDbLine
 62
250
  6
CONTINUOUS
 10
155.7965213541
 20
93.8764829621
 11
155.6051976381
 21
93.8018000788
  0
LWPOLYLINE
  5
32F
100
AcDbEntity
  8
IMPORT_IGES
100
AcDbPolyline
 62
7
  6
CONTINUOUS
 90
31
 70
0
 10
155.6067091483
 20
93.6801924321
 10
155.6159844031
 20
93.683786179
 10
155.6251194875
 20
93.687676838
 10
155.6341097159
 20
93.6918634306
 10
155.6429504024
 20
93.6963449783
 10
155.6516368616
 20
93.7011205028
 10
155.659976999
 20
93.7060728484
 10
155.6681633276
 20
93.7113025017
 10
155.6761939646
 20
93.7168066552
 10
155.6840670269
 20
93.7225825016
 10
155.6917806315
 20
93.7286272334
 10
155.6993328954
 20
93.7349380431
 10
155.7067219356
 20
93.7415121234
 10
155.713945869
 20
93.7483466667
 10
155.7210028127
 20
93.7554388657
 10
155.7278908837
 20
93.7627859128
 10
155.7346081989
 20
93.7703850008
 10
155.7411528753
 20
93.778233322
 10
155.74752303
 20
93.7863280692
 10
155.7524272904
 20
93.7928933509
 10
155.7572124884
 20
93.7996152441
 10
155.7618695573
 20
93.8064984541
 10
155.7663894302
 20
93.813547686
 10
155.7707630405
 20
93.8207676452
 10
155.7749813215
 20
93.8281630368
 10
155.7790352063
 20
93.8357385661
 10
155.7829156284
 20
93.8434989384
 10
155.786613521
 20
93.8514488589
 10
155.7901198172
 20
93.8595930329
 10
155.7934254505
 20
93.8679361655
 10
155.7965213541
 20
93.8764829621
  0
LWPOLYLINE
  5
330
100
AcDbEntity
  8
DRAFT
100
AcDbPolyline
 62
7
  6
CONTINUOUS
 90
11
 70
0
 10
155.4209550556
 20
93.6117288491
 10
155.4283677637
 20
93.614553493
 10
155.4557733363
 20
93.6272958128
 10
155.481730625
 20
93.6428276039
 10
155.5057848871
 20
93.6605307039
 10
155.5279341628
 20
93.6805438875
 10
155.5481804119
 20
93.70272838
 10
155.5660747703
 20
93.7260496941
 10
155.5814676168
 20
93.7501630007
 10
155.5945085728
 20
93.775413129
 10
155.6051976381
 20
93.8018000788
  0
LINE
  5
331
100
AcDbEntity
  8
DRAFT
100
AcDbLine
 62
7
  6
CONTINUOUS
 10
155.4209635971
 20
93.6117097563
 11
155.6067091483
 21
93.6801924321
  0
LINE
  5
332
100
AcDbEntity
  8
DRAFT
100
AcDbLine
 62
7
  6
CONTINUOUS
 10
154.4852389438
 20
94.2134384554
 11
154.5677326009
 21
94.2436427862
  0
LINE
  5
333
100
AcDbEntity
  8
RACCORDO
100
AcDbLine
 62
7
  6
CONTINUOUS
 10
135.9190093192
 20
71.8780765305
 11
136.4895234744
 21
72.2850250823
  0
LINE
  5
334
100
AcDbEntity
  8
RACCORDO
100
AcDbLine
 62
250
  6
CONTINUOUS
 10
136.6976278803
 20
71.9047816305
 11
137.2336528914
 21
72.2871290271
  0
LWPOLYLINE
  5
335
100
AcDbEntity
  8
0
100
AcDbPolyline
 62
250
  6
CONTINUOUS
 90
23
 70
0
 10
130.944438671
 20
76.1268834771
 10
130.9239161493
 20
76.1151582778
 10
130.9036711595
 20
76.1006637647
 10
130.8839774803
 20
76.0835959512
 10
130.8651014351
 20
76.0641856503
 10
130.8472982898
 20
76.0426953529
 10
130.8308088016
 20
76.0194156785
 10
130.8158559624
 20
75.9946614448
 10
130.8026419838
 20
75.9687674102
 10
130.7913455621
 20
75.9420837472
 10
130.782119462
 20
75.9149713065
 10
130.7750884509
 20
75.8877967375
 10
130.7703476109
 20
75.8609275294
 10
130.7679610539
 20
75.8347270424
 10
130.7679610539
 20
75.8095495929
 10
130.7703476109
 20
75.7857356628
 10
130.7750884509
 20
75.7636072948
 10
130.782119462
 20
75.7434637369
 10
130.7913455621
 20
75.7255773962
 10
130.8026419838
 20
75.7101901549
 10
130.8158559624
 20
75.697510099
 10
130.8308088016
 20
75.6877087044
 10
130.8326352721
 20
75.6867703284
  0
LWPOLYLINE
  5
336
100
AcDbEntity
  8
0
100
AcDbPolyline
 62
250
  6
CONTINUOUS
 90
22
 70
0
 10
130.5908852804
 20
76.7366728743
 10
130.5691674579
 20
76.7270092639
 10
130.5453527302
 20
76.7186716379
 10
130.5197631505
 20
76.7117727486
 10
130.4927447741
 20
76.7064058915
 10
130.4646629782
 20
76.7026436442
 10
130.4358975208
 20
76.7005368847
 10
130.4068374054
 20
76.7001141032
 10
130.3778756203
 20
76.7013810171
 10
130.3494038238
 20
76.7043204937
 10
130.3218070483
 20
76.7088927814
 10
130.2954584927
 20
76.7150360481
 10
130.270714476
 20
76.7226672164
 10
130.2479096187
 20
76.7316830881
 10
130.2273523173
 20
76.7419617388
 10
130.209320574
 20
76.7533641674
 10
130.1940582373
 20
76.7657361757
 10
130.181771704
 20
76.7789104536
 10
130.1726271285
 20
76.7927088413
 10
130.1667481755
 20
76.8069447396
 10
130.1642143476
 20
76.8214256321
 10
130.1641085851
 20
76.825061222
  0
LWPOLYLINE
  5
337
100
AcDbEntity
  8
RACCORDO
100
AcDbPolyline
 62
250
  6
CONTINUOUS
 90
15
 70
0
 10
157.5938086868
 20
141.3927539513
 10
157.5475441017
 20
141.5758957424
 10
157.4945053746
 20
141.7592398735
 10
157.4348378632
 20
141.9422838527
 10
157.3687050676
 20
142.1245260647
 10
157.2962882751
 20
142.305466899
 10
157.217786078
 20
142.4846101665
 10
157.1334137417
 20
142.6614646945
 10
157.0434024714
 20
142.8355459109
 10
156.9479988604
 20
143.0063769167
 10
156.8474643591
 20
143.1734895317
 10
156.7420745503
 20
143.3364256491
 10
156.6321182544
 20
143.4947387217
 10
156.5178969008
 20
143.6479947396
 10
156.3997234988
 20
143.7957737069
  0
LWPOLYLINE
  5
338
100
AcDbEntity
  8
RACCORDO
100
AcDbPolyline
 62
250
  6
CONTINUOUS
 90
14
 70
0
 10
171.3476264584
 20
42.257670023
 10
171.3502720291
 20
42.1672996769
 10
171.3581955282
 20
42.0800256898
 10
171.3713574323
 20
41.9962834321
 10
171.3896920863
 20
41.9164906561
 10
171.4131080304
 20
41.841045413
 10
171.4414884567
 20
41.7703240663
 10
171.4746917917
 20
41.7046794145
 10
171.5125524022
 20
41.6444389314
 10
171.5548814217
 20
41.5899031329
 10
171.601467693
 20
41.5413440759
 10
171.6520788211
 20
41.499004003
 10
171.7064623314
 20
41.4630941336
 10
171.7374662836
 20
41.4463592991
  0
LINE
  5
339
100
AcDbEntity
  8
RACCORDO
100
AcDbLine
 62
250
  6
CONTINUOUS
 10
172.404250498
 20
43.0234528767
 11
172.404250498
 21
137.3141097573
  0
LWPOLYLINE
  5
33A
100
AcDbEntity
  8
RACCORDO
100
AcDbPolyline
 62
250
  6
CONTINUOUS
 90
22
 70
0
 10
171.3476264584
 20
139.1365166506
 10
171.3502720307
 20
139.2295327354
 10
171.3581955502
 20
139.3247303781
 10
171.3713574899
 20
139.4216346816
 10
171.3896921912
 20
139.5197622351
 10
171.4131081905
 20
139.6186235253
 10
171.4414886763
 20
139.7177253789
 10
171.4746920714
 20
139.8165734224
 10
171.5125527394
 20
139.9146745484
 10
171.5548818109
 20
140.0115393758
 10
171.6014681256
 20
140.1066846905
 10
171.6520792859
 20
140.1996358564
 10
171.706462816
 20
140.289929183
 10
171.7643474216
 20
140.3771142384
 10
171.8254443431
 20
140.4607560968
 10
171.8894487961
 20
140.5404375073
 10
171.9560414918
 20
140.6157609762
 10
172.0248902301
 20
140.6863507494
 10
172.0956515563
 20
140.751854687
 10
172.1679724747
 20
140.8119460201
 10
172.2414922097
 20
140.8663249808
 10
172.3158440051
 20
140.9147202974
  0
LWPOLYLINE
  5
33B
100
AcDbEntity
  8
RACCORDO
100
AcDbPolyline
 62
250
  6
CONTINUOUS
 90
31
 70
0
 10
174.4290920843
 20
137.2699065108
 10
174.4210103361
 20
137.406343752
 10
174.4073936794
 20
137.544517776
 10
174.3883980527
 20
137.6840030613
 10
174.36426336
 20
137.8240422943
 10
174.3351176552
 20
137.9645623262
 10
174.3008575842
 20
138.1062099073
 10
174.2614654457
 20
138.2490031067
 10
174.2171306677
 20
138.3921895525
 10
174.1679821563
 20
138.5352857721
 10
174.1141711742
 20
138.6778733051
 10
174.0558372684
 20
138.8196205801
 10
173.9931155395
 20
138.9601748907
 10
173.9261690679
 20
139.0991710437
 10
173.8551827193
 20
139.2362369307
 10
173.7803367419
 20
139.3710140309
 10
173.7018146836
 20
139.5031615828
 10
173.6198366779
 20
139.6323113816
 10
173.5346537883
 20
139.7580762274
 10
173.4467078641
 20
139.8798361151
 10
173.3560256109
 20
139.9975767531
 10
173.2622016512
 20
140.1117559319
 10
173.1652240643
 20
140.2222234771
 10
173.0655214068
 20
140.3283225033
 10
172.9633240128
 20
140.4296676684
 10
172.8587640366
 20
140.5259636098
 10
172.752221177
 20
140.6167121978
 10
172.6443254628
 20
140.7012862712
 10
172.5354881021
 20
140.7792981313
 10
172.4258922925
 20
140.8505372044
 10
172.3158440051
 20
140.9147202974
  0
LWPOLYLINE
  5
33C
100
AcDbEntity
  8
RACCORDO
100
AcDbPolyline
 62
250
  6
CONTINUOUS
 90
31
 70
0
 10
172.404250498
 20
137.3141097573
 10
172.4026378281
 20
137.3840052565
 10
172.39825381
 20
137.4542638832
 10
172.3910984436
 20
137.5248856373
 10
172.3811428118
 20
137.5958930202
 10
172.3684158318
 20
137.6672635305
 10
172.353004255
 20
137.7389296645
 10
172.3348790969
 20
137.8110757429
 10
172.314069342
 20
137.8835174449
 10
172.2907486951
 20
137.9556343047
 10
172.2649017357
 20
138.0274032998
 10
172.2365438844
 20
138.0988474527
 10
172.205895107
 20
138.1694153652
 10
172.172936823
 20
138.2391038016
 10
172.137687613
 20
138.3079159975
 10
172.1004231845
 20
138.3753102624
 10
172.0611210799
 20
138.4412835249
 10
172.0198037569
 20
138.5058388562
 10
171.9768142956
 20
138.5684437794
 10
171.9322620563
 20
138.6289656841
 10
171.8860376789
 20
138.6875371806
 10
171.838156163
 20
138.7440236236
 10
171.7885055616
 20
138.798574943
 10
171.7371978217
 20
138.851041209
 10
171.6845837847
 20
138.9008379865
 10
171.6305782697
 20
138.9479880146
 10
171.5752664576
 20
138.9924685542
 10
171.519254732
 20
139.0336269529
 10
171.4627452209
 20
139.0712456597
 10
171.4055357964
 20
139.1055422256
 10
171.3476264584
 20
139.1365166506
  0
LINE
  5
33D
100
AcDbEntity
  8
RACCORDO
100
AcDbLine
 62
250
  6
CONTINUOUS
 10
174.4290920843
 20
42.9792496302
 11
174.4290920843
 21
137.2699065108
  0
LINE
  5
33E
100
AcDbEntity
  8
RACCORDO
100
AcDbLine
 62
7
  6
CONTINUOUS
 10
175.067901817
 20
43.1843196055
 11
175.067901817
 21
137.9458473711
  0
LINE
  5
33F
100
AcDbEntity
  8
RACCORDO
100
AcDbLine
 62
7
  6
CONTINUOUS
 10
175.390523294
 20
43.4144459602
 11
175.390523294
 21
137.7552204962
  0
LINE
  5
340
100
AcDbEntity
  8
RACCORDO
100
AcDbLine
 62
7
  6
CONTINUOUS
 10
137.0287488143
 20
72.4861056236
 11
141.7815661431
 21
74.0118496472
  0
LINE
  5
341
100
AcDbEntity
  8
RACCORDO
100
AcDbLine
 62
250
  6
CONTINUOUS
 10
137.6181381956
 20
72.410556063
 11
142.332492153
 21
73.9239526189
  0
LWPOLYLINE
  5
342
100
AcDbEntity
  8
0
100
AcDbPolyline
 62
250
  6
CONTINUOUS
 90
21
 70
0
 10
130.8158559624
 20
154.1594116819
 10
130.8026419838
 20
154.1720917378
 10
130.7913455621
 20
154.1874789791
 10
130.782119462
 20
154.2053653198
 10
130.7750884509
 20
154.2255088776
 10
130.7703476109
 20
154.2476372457
 10
130.7679610539
 20
154.2714511758
 10
130.7679610539
 20
154.2966286252
 10
130.7703476109
 20
154.3228291123
 10
130.7750884509
 20
154.3496983203
 10
130.782119462
 20
154.3768728894
 10
130.7913455621
 20
154.4039853301
 10
130.8026419838
 20
154.4306689931
 10
130.8158559624
 20
154.4565630276
 10
130.8308088016
 20
154.4813172614
 10
130.8472982898
 20
154.5045969358
 10
130.8651014351
 20
154.5260872331
 10
130.8839774803
 20
154.5454975341
 10
130.9036711595
 20
154.5625653475
 10
130.9239161493
 20
154.5770598607
 10
130.944438671
 20
154.58878506
  0
LWPOLYLINE
  5
343
100
AcDbEntity
  8
RACCORDO
100
AcDbPolyline
 62
7
  6
CONTINUOUS
 90
25
 70
0
 10
179.6972692732
 20
140.1298468782
 10
179.6959354845
 20
140.2210840326
 10
179.6868094814
 20
140.3868621747
 10
179.6692327127
 20
140.5528109656
 10
179.6433410107
 20
140.7189094278
 10
179.6093015428
 20
140.8847703357
 10
179.5673950699
 20
141.0495191045
 10
179.5177733499
 20
141.2129863548
 10
179.4605495114
 20
141.3749254318
 10
179.3961502338
 20
141.5342795491
 10
179.3247233628
 20
141.6908360129
 10
179.2463751096
 20
141.8443600932
 10
179.1616611468
 20
141.9937969065
 10
179.0707191538
 20
142.1389265484
 10
178.9736602155
 20
142.2795252045
 10
178.8710994191
 20
142.4146381997
 10
178.7631829486
 20
142.5440588106
 10
178.6499731574
 20
142.6675895373
 10
178.5320482763
 20
142.7845016379
 10
178.4095244803
 20
142.8945772697
 10
178.2824312541
 20
142.9976191986
 10
178.1512354874
 20
143.0930741093
 10
178.0161552005
 20
143.180611392
 10
177.8772011537
 20
143.2600346756
 10
177.8113501991
 20
143.2940837932
  0
LWPOLYLINE
  5
344
100
AcDbEntity
  8
RACCORDO
100
AcDbPolyline
 62
250
  6
CONTINUOUS
 90
16
 70
0
 10
179.3463359609
 20
46.2361327165
 10
179.3476574962
 20
46.1028624199
 10
179.3428507473
 20
45.9737247201
 10
179.3320506717
 20
45.8490010625
 10
179.3154504767
 20
45.7292372515
 10
179.2932031904
 20
45.6143616611
 10
179.2652710972
 20
45.5037849596
 10
179.231616017
 20
45.3975229803
 10
179.1923811357
 20
45.296154213
 10
179.1476972609
 20
45.2000001569
 10
179.0976900575
 20
45.1093269976
 10
179.0424789639
 20
45.0243521236
 10
178.9822135545
 20
44.9452982457
 10
178.917054246
 20
44.8723760622
 10
178.8471674932
 20
44.8057735018
 10
178.7727814846
 20
44.7457025384
  0
LINE
  5
345
100
AcDbEntity
  8
RACCORDO
100
AcDbLine
 62
250
  6
CONTINUOUS
 10
179.3463359609
 20
139.6478876973
 11
179.3463359609
 21
46.2361327165
  0
LINE
  5
346
100
AcDbEntity
  8
RACCORDO
100
AcDbLine
 62
7
  6
CONTINUOUS
 10
179.6972692963
 20
140.1299784046
 11
179.6972692963
 21
46.7182233854
  0
LWPOLYLINE
  5
347
100
AcDbEntity
  8
RACCORDO
100
AcDbPolyline
 62
250
  6
CONTINUOUS
 90
11
 70
0
 10
179.6972692732
 20
140.1298468783
 10
179.69435617
 20
140.0832587819
 10
179.6840265728
 20
140.0305389749
 10
179.6662802289
 20
139.9783152253
 10
179.6412056667
 20
139.9268480535
 10
179.6089279715
 20
139.8763942053
 10
179.569608162
 20
139.8272053718
 10
179.5234423865
 20
139.7795269334
 10
179.4706609448
 20
139.7335967358
 10
179.4115271392
 20
139.6896439036
 10
179.3463359609
 20
139.6478876973
  0
LWPOLYLINE
  5
348
100
AcDbEntity
  8
RACCORDO
100
AcDbPolyline
 62
250
  6
CONTINUOUS
 90
11
 70
0
 10
179.6972692901
 20
46.7181554024
 10
179.6943562078
 20
46.6715040669
 10
179.6840266493
 20
46.6187842438
 10
179.666280337
 20
46.5665604723
 10
179.6412057975
 20
46.515093274
 10
179.6089281141
 20
46.4646393954
 10
179.5696083037
 20
46.4154505283
 10
179.5234425142
 20
46.3677720551
 10
179.4706610449
 20
46.3218418225
 10
179.4115271968
 20
46.2778889559
 10
179.3463359609
 20
46.2361327165
  0
LWPOLYLINE
  5
349
100
AcDbEntity
  8
RACCORDO
100
AcDbPolyline
 62
250
  6
CONTINUOUS
 90
11
 70
0
 10
156.3997234988
 20
143.7957737069
 10
156.2779217187
 20
143.9376708125
 10
156.152825509
 20
144.0732969479
 10
156.0247776111
 20
144.2022804591
 10
155.8941283508
 20
144.3242683168
 10
155.7612343037
 20
144.4389272204
 10
155.6264611334
 20
144.5459413226
 10
155.4901821301
 20
144.6450144072
 10
155.3527722296
 20
144.7358746003
 10
155.2146068285
 20
144.8182743704
 10
155.0760646398
 20
144.8919884221
  0
LWPOLYLINE
  5
34A
100
AcDbEntity
  8
RACCORDO
100
AcDbPolyline
 62
250
  6
CONTINUOUS
 90
37
 70
0
 10
155.0760646398
 20
138.4074231493
 10
155.2146051146
 20
138.3425957593
 10
155.3527694158
 20
138.2868304261
 10
155.4901788322
 20
138.2402806832
 10
155.6264581826
 20
138.2030744625
 10
155.7612322837
 20
138.1753150342
 10
155.8941271636
 20
138.1570796647
 10
156.0247769514
 20
138.1484181607
 10
156.1528252829
 20
138.1493537441
 10
156.2779218054
 20
138.1598836907
 10
156.3997237515
 20
138.1799790579
 10
156.5178972128
 20
138.2095846629
 10
156.6321185903
 20
138.248619366
 10
156.7420748809
 20
138.2969761744
 10
156.8474646552
 20
138.3545224989
 10
156.947999143
 20
138.421100639
 10
157.0434027662
 20
138.4965280825
 10
157.1334140624
 20
138.5805980996
 10
157.2177864531
 20
138.6730804114
 10
157.2962887482
 20
138.7737216927
 10
157.3687056469
 20
138.8822460182
 10
157.4348385053
 20
138.9983557176
 10
157.4945060234
 20
139.1217324236
 10
157.5475447258
 20
139.2520380466
 10
157.5938092676
 20
139.388915472
 10
157.6331728488
 20
139.5319895362
 10
157.6655275777
 20
139.6808680683
 10
157.690784781
 20
139.8351430247
 10
157.7088752333
 20
139.9943915595
 10
157.7197493497
 20
140.1581771725
 10
157.7233773269
 20
140.3260509302
 10
157.7197492237
 20
140.4975526971
 10
157.7088749877
 20
140.6722124033
 10
157.6907844264
 20
140.8495513247
 10
157.6655271292
 20
141.0290833736
 10
157.6331723253
 20
141.2103164809
 10
157.5938086868
 20
141.3927539513
  0
LWPOLYLINE
  5
34B
100
AcDbEntity
  8
RACCORDO
100
AcDbPolyline
 62
250
  6
CONTINUOUS
 90
64
 70
0
 10
155.1274905876
 20
138.1089078595
 10
155.2727446843
 20
138.0407294228
 10
155.4170731579
 20
137.9817800744
 10
155.5604760085
 20
137.9320598143
 10
155.703365888
 20
137.8914667739
 10
155.8453301444
 20
137.8601028219
 10
155.9851308221
 20
137.8382735636
 10
156.1226751909
 20
137.8260767289
 10
156.2580559809
 20
137.8234145881
 10
156.3903134276
 20
137.8302995569
 10
156.5194449378
 20
137.8468004061
 10
156.6454531045
 20
137.872848365
 10
156.7673859425
 20
137.9082495367
 10
156.8852061019
 20
137.953072808
 10
156.9989509325
 20
138.0072492922
 10
157.1077804985
 20
138.0703784328
 10
157.2116607572
 20
138.1425279805
 10
157.3106257513
 20
138.2236301845
 10
157.403937673
 20
138.3130812357
 10
157.4915535412
 20
138.4109430266
 10
157.5735163369
 20
138.5171536647
 10
157.6492171959
 20
138.6309236634
 10
157.7186094257
 20
138.7523091349
 10
157.7817397188
 20
138.8812539671
 10
157.8381392872
 20
139.0168003368
 10
157.8877580958
 20
139.1589974692
 10
157.9306461799
 20
139.3077961391
 10
157.9664848578
 20
139.4620908485
 10
157.9952216411
 20
139.6219226435
 10
158.0169090183
 20
139.787250478
 10
158.0313857726
 20
139.9568457155
 10
158.038598165
 20
140.1307401585
 10
158.0385999345
 20
140.3089020045
 10
158.031391082
 20
140.4900072105
 10
158.0169178724
 20
140.6740776971
 10
157.9952340408
 20
140.8610915436
 10
157.9665007929
 20
141.0496589443
 10
157.9306656488
 20
141.2397913348
 10
157.8877810883
 20
141.4314772795
 10
157.8381657566
 20
141.6232926668
 10
157.7817696127
 20
141.8152383362
 10
157.7186426976
 20
142.0073134481
 10
157.6492537787
 20
142.1980913718
 10
157.573556186
 20
142.3875626458
 10
157.4915965895
 20
142.5757367315
 10
157.4039837666
 20
142.7612153819
 10
157.3106746536
 20
142.9439798224
 10
157.2117123142
 20
143.1240488276
 10
157.107834717
 20
143.3000804742
 10
156.9990078764
 20
143.4720409256
 10
156.8852657779
 20
143.6399640184
 10
156.7674483468
 20
143.8026093393
 10
156.6455185841
 20
143.9599450517
 10
156.5195134887
 20
144.1120029922
 10
156.390383982
 20
144.2576382571
 10
156.2581266296
 20
144.3967855174
 10
156.122744866
 20
144.529510102
 10
155.9851999151
 20
144.6548630944
 10
155.8454023754
 20
144.7728374529
 10
155.7034416484
 20
144.8834402192
 10
155.5605471632
 20
144.9857436021
 10
155.4171287296
 20
145.0794383379
 10
155.2727765377
 20
145.1648336904
 10
155.1274905876
 20
145.2419296596
  0
LINE
  5
34C
100
AcDbEntity
  8
RACCORDO
100
AcDbLine
 62
250
  6
CONTINUOUS
 10
136.1192229905
 20
146.0745276759
 11
136.1192501121
 21
146.0745141142
  0
LINE
  5
34D
100
AcDbEntity
  8
RACCORDO
100
AcDbLine
 62
7
  6
CONTINUOUS
 10
136.1192501121
 20
146.0745141142
 11
152.9643431032
 21
137.6519676187
  0
LINE
  5
34E
100
AcDbEntity
  8
RACCORDO
100
AcDbLine
 62
250
  6
CONTINUOUS
 10
135.7294103336
 20
146.8858248148
 11
153.4070798632
 21
138.04699005
  0
LWPOLYLINE
  5
34F
100
AcDbEntity
  8
RACCORDO
100
AcDbPolyline
 62
250
  6
CONTINUOUS
 90
14
 70
0
 10
135.7294103336
 20
146.8858248148
 10
135.6658661221
 20
146.9196258218
 10
135.6066221681
 20
146.9553268327
 10
135.5519052787
 20
146.9927913242
 10
135.5019244665
 20
147.0318764266
 10
135.4568717105
 20
147.0724322751
 10
135.4169207083
 20
147.1143024389
 10
135.3822248994
 20
147.1573254444
 10
135.3529155311
 20
147.2013377807
 10
135.3291033095
 20
147.2461733923
 10
135.3108788714
 20
147.2916638266
 10
135.2983142549
 20
147.3376321504
 10
135.2914586816
 20
147.3838957872
 10
135.2900705053
 20
147.4161549007
  0
LWPOLYLINE
  5
350
100
AcDbEntity
  8
0
100
AcDbPolyline
 62
7
  6
CONTINUOUS
 90
12
 70
0
 10
131.0562420699
 20
154.5958855068
 10
130.9994558687
 20
154.6216688923
 10
130.9431350589
 20
154.6421611249
 10
130.8875169546
 20
154.6574929019
 10
130.832909383
 20
154.6677998545
 10
130.7794361567
 20
154.6732720449
 10
130.7270920817
 20
154.6740786612
 10
130.6762297224
 20
154.6703694452
 10
130.6269926729
 20
154.6623173637
 10
130.5791566646
 20
154.649976347
 10
130.5330427966
 20
154.6334675583
 10
130.4973294875
 20
154.6172390329
  0
LWPOLYLINE
  5
351
100
AcDbEntity
  8
0
100
AcDbPolyline
 62
7
  6
CONTINUOUS
 90
10
 70
0
 10
130.8326352721
 20
154.1486719113
 10
130.8123299995
 20
154.1579927395
 10
130.7934412517
 20
154.1650742702
 10
130.7763295661
 20
154.1699998627
 10
130.7613020361
 20
154.1729536925
 10
130.7485845099
 20
154.1742133044
 10
130.7383126088
 20
154.1741357129
 10
130.7307996651
 20
154.1732013016
 10
130.7254963433
 20
154.1718693487
 10
130.7207927004
 20
154.1699536596
  0
LINE
  5
352
100
AcDbEntity
  8
0
100
AcDbLine
 62
7
  6
CONTINUOUS
 10
135.2900705053
 20
151.9199542947
 11
130.8326352721
 21
154.1486719113
  0
LINE
  5
353
100
AcDbEntity
  8
0
100
AcDbLine
 62
7
  6
CONTINUOUS
 10
135.2900705053
 20
152.4789712891
 11
131.0562420699
 21
154.5958855068
  0
LWPOLYLINE
  5
354
100
AcDbEntity
  8
0
100
AcDbPolyline
 62
250
  6
CONTINUOUS
 90
3
 70
0
 10
130.8326352721
 20
154.1486719113
 10
130.8308088016
 20
154.1496102873
 10
130.8158559624
 20
154.1594116819
  0
LWPOLYLINE
  5
355
100
AcDbEntity
  8
RACCORDO
100
AcDbPolyline
 62
250
  6
CONTINUOUS
 90
22
 70
0
 10
172.404250498
 20
137.3141097573
 10
172.4817631816
 20
137.2779989882
 10
172.5641803335
 20
137.244713913
 10
172.6510908169
 20
137.2144205769
 10
172.7420610795
 20
137.187270101
 10
172.8366373162
 20
137.1633979281
 10
172.9343477325
 20
137.1429231472
 10
173.0347048994
 20
137.1259478995
 10
173.1372081829
 20
137.1125568689
 10
173.241346242
 20
137.1028168593
 10
173.3465995812
 20
137.0967764612
 10
173.4524431406
 20
137.0944658095
 10
173.5583489133
 20
137.0958964333
 10
173.6637885841
 20
137.1010611977
 10
173.768236162
 20
137.10993434
 10
173.871170602
 20
137.1224715977
 10
173.9720784103
 20
137.1386104298
 10
174.0704562021
 20
137.1582703285
 10
174.1658132104
 20
137.1813532201
 10
174.2576737399
 20
137.2077439554
 10
174.3455795392
 20
137.237310884
 10
174.4290920843
 20
137.2699065108
  0
LWPOLYLINE
  5
356
100
AcDbEntity
  8
RACCORDO
100
AcDbPolyline
 62
250
  6
CONTINUOUS
 90
61
 70
0
 10
155.0760646398
 20
144.8919884221
 10
154.9375241651
 20
144.9568158121
 10
154.7993598639
 20
145.0125811453
 10
154.6619504475
 20
145.0591308881
 10
154.5256710971
 20
145.0963371089
 10
154.3908969959
 20
145.1240965372
 10
154.2580021161
 20
145.1423319066
 10
154.1273523283
 20
145.1509934106
 10
153.9993039968
 20
145.1500578273
 10
153.8742074743
 20
145.1395278806
 10
153.7524055282
 20
145.1194325135
 10
153.6342320669
 20
145.0898269084
 10
153.5200106894
 20
145.0507922053
 10
153.4100543988
 20
145.002435397
 10
153.3046646244
 20
144.9448890725
 10
153.2041301366
 20
144.8783109323
 10
153.1087265135
 20
144.8028834889
 10
153.0187152173
 20
144.7188134718
 10
152.9343428266
 20
144.6263311599
 10
152.8558405315
 20
144.5256898786
 10
152.7834236327
 20
144.4171655532
 10
152.7172907744
 20
144.3010558538
 10
152.6576232563
 20
144.1776791478
 10
152.6045845539
 20
144.0473735248
 10
152.5583200121
 20
143.9104960994
 10
152.5189564309
 20
143.7674220352
 10
152.486601702
 20
143.618543503
 10
152.4613444987
 20
143.4642685466
 10
152.4432540464
 20
143.3050200119
 10
152.43237993
 20
143.1412343988
 10
152.4287519528
 20
142.9733606412
 10
152.432380056
 20
142.8018588743
 10
152.443254292
 20
142.627199168
 10
152.4613448533
 20
142.4498602466
 10
152.4866021504
 20
142.2703281978
 10
152.5189569544
 20
142.0890950905
 10
152.5583205929
 20
141.90665762
 10
152.604585178
 20
141.7235158289
 10
152.6576239051
 20
141.5401716978
 10
152.7172914165
 20
141.3571277186
 10
152.7834242121
 20
141.1748855067
 10
152.8558410046
 20
140.9939446724
 10
152.9343432017
 20
140.8148014048
 10
153.018715538
 20
140.6379468768
 10
153.1087268083
 20
140.4638656605
 10
153.2041304193
 20
140.2930346547
 10
153.3046649206
 20
140.1259220396
 10
153.4100547294
 20
139.9629859223
 10
153.5200110253
 20
139.8046728496
 10
153.6342323789
 20
139.6514168317
 10
153.7524057809
 20
139.5036378645
 10
153.874207561
 20
139.3617407588
 10
153.9993037707
 20
139.2261146235
 10
154.1273516686
 20
139.0971311123
 10
154.2580009289
 20
138.9751432545
 10
154.390894976
 20
138.8604843509
 10
154.5256681463
 20
138.7534702488
 10
154.6619471496
 20
138.6543971642
 10
154.7993570501
 20
138.5635369711
 10
154.9375224512
 20
138.481137201
 10
155.0760646398
 20
138.4074231493
  0
LWPOLYLINE
  5
357
100
AcDbEntity
  8
RACCORDO
100
AcDbPolyline
 62
250
  6
CONTINUOUS
 90
64
 70
0
 10
155.1274905876
 20
145.2419296596
 10
154.9822364909
 20
145.3101080962
 10
154.8379080172
 20
145.3690574446
 10
154.6945051666
 20
145.4187777048
 10
154.5516152871
 20
145.4593707451
 10
154.4096510307
 20
145.4907346972
 10
154.269850353
 20
145.5125639555
 10
154.1323059843
 20
145.5247607901
 10
153.9969251942
 20
145.527422931
 10
153.8646677475
 20
145.5205379622
 10
153.7355362374
 20
145.5040371129
 10
153.6095280706
 20
145.4779891541
 10
153.4875952326
 20
145.4425879823
 10
153.3697750732
 20
145.397764711
 10
153.2560302426
 20
145.3435882268
 10
153.1472006766
 20
145.2804590863
 10
153.0433204179
 20
145.2083095386
 10
152.9443554238
 20
145.1272073346
 10
152.8510435021
 20
145.0377562833
 10
152.763427634
 20
144.9398944925
 10
152.6814648382
 20
144.8336838544
 10
152.6057639793
 20
144.7199138557
 10
152.5363717494
 20
144.5985283842
 10
152.4732414564
 20
144.469583552
 10
152.4168418879
 20
144.3340371823
 10
152.3672230793
 20
144.1918400499
 10
152.3243349953
 20
144.04304138
 10
152.2884963174
 20
143.8887466706
 10
152.259759534
 20
143.7289148756
 10
152.2380721569
 20
143.5635870411
 10
152.2235954025
 20
143.3939918036
 10
152.2163830102
 20
143.2200973606
 10
152.2163812406
 20
143.0419355145
 10
152.2235900931
 20
142.8608303086
 10
152.2380633027
 20
142.676759822
 10
152.2597471343
 20
142.4897459755
 10
152.2884803823
 20
142.3011785748
 10
152.3243155264
 20
142.1110461843
 10
152.3672000868
 20
141.9193602396
 10
152.4168154186
 20
141.7275448523
 10
152.4732115624
 20
141.5355991829
 10
152.5363384775
 20
141.3435240709
 10
152.6057273965
 20
141.1527461473
 10
152.6814249892
 20
140.9632748733
 10
152.7633845856
 20
140.7751007875
 10
152.8509974085
 20
140.5896221371
 10
152.9443065215
 20
140.4068576966
 10
153.0432688609
 20
140.2267886915
 10
153.1471464582
 20
140.0507570449
 10
153.2559732988
 20
139.8787965935
 10
153.3697153972
 20
139.7108735007
 10
153.4875328284
 20
139.5482281798
 10
153.609462591
 20
139.3908924674
 10
153.7354676864
 20
139.2388345268
 10
153.8645971932
 20
139.0931992619
 10
153.9968545455
 20
138.9540520017
 10
154.1322363091
 20
138.8213274171
 10
154.26978126
 20
138.6959744247
 10
154.4095787998
 20
138.5780000662
 10
154.5515395267
 20
138.4673972999
 10
154.6944340119
 20
138.365093917
 10
154.8378524456
 20
138.2713991811
 10
154.9822046375
 20
138.1860038286
 10
155.1274905876
 20
138.1089078595
  0
LINE
  5
358
100
AcDbEntity
  8
RACCORDO
100
AcDbLine
 62
250
  6
CONTINUOUS
 10
171.3476264584
 20
139.1365166506
 11
135.7294103336
 21
156.945624713
  0
LINE
  5
359
100
AcDbEntity
  8
RACCORDO
100
AcDbLine
 62
250
  6
CONTINUOUS
 10
172.3158440051
 20
140.9147202974
 11
136.6976278803
 21
158.7238283599
  0
LWPOLYLINE
  5
35A
100
AcDbEntity
  8
RACCORDO
100
AcDbPolyline
 62
250
  6
CONTINUOUS
 90
14
 70
0
 10
135.7294103336
 20
156.945624713
 10
135.6658855561
 20
156.97941472
 10
135.6066586446
 20
157.0151033131
 10
135.5519561011
 20
157.0525540662
 10
135.5019870414
 20
157.09162389
 10
135.4569426921
 20
157.1321633528
 10
135.4169955611
 20
157.1740172236
 10
135.3822983473
 20
157.2170254886
 10
135.3529837065
 20
157.2610236863
 10
135.3291638453
 20
157.3058432688
 10
135.3109297806
 20
157.3513125944
 10
135.2983509291
 20
157.3972580616
 10
135.2914751951
 20
157.4435044676
 10
135.2900705106
 20
157.4758917875
  0
LWPOLYLINE
  5
35B
100
AcDbEntity
  8
RACCORDO
100
AcDbPolyline
 62
250
  6
CONTINUOUS
 90
13
 70
0
 10
136.6976278803
 20
158.7238283599
 10
136.6230778044
 20
158.7519442415
 10
136.5492359201
 20
158.7746488404
 10
136.4764153796
 20
158.7918458697
 10
136.4049250044
 20
158.8034623994
 10
136.3350679743
 20
158.8094491655
 10
136.2671405427
 20
158.809780779
 10
136.2014307798
 20
158.8044558337
 10
136.138217351
 20
158.7934969118
 10
136.0777683349
 20
158.7769504884
 10
136.0203400867
 20
158.7548867343
 10
135.9661761513
 20
158.7273992187
 10
135.9190093192
 20
158.6971232599
  0
LWPOLYLINE
  5
35C
100
AcDbEntity
  8
RACCORDO
100
AcDbPolyline
 62
250
  6
CONTINUOUS
 90
10
 70
0
 10
177.8113501991
 20
143.2940837932
 10
177.7845848191
 20
143.3065918523
 10
177.7234878874
 20
143.3291368348
 10
177.6594834141
 20
143.3448138344
 10
177.5928906872
 20
143.3535446438
 10
177.5240419072
 20
143.3552857072
 10
177.4532805302
 20
143.3500283374
 10
177.380959553
 20
143.3377987598
 10
177.3074397512
 20
143.3186579809
 10
177.2330878817
 20
143.2927014839
  0
LINE
  5
35D
100
AcDbEntity
  8
RACCORDO
100
AcDbLine
 62
7
  6
CONTINUOUS
 10
137.2336528914
 20
159.1061757565
 11
172.9546537378
 21
141.2456753333
  0
LINE
  5
35E
100
AcDbEntity
  8
RACCORDO
100
AcDbLine
 62
7
  6
CONTINUOUS
 10
173.2772752148
 20
141.4000342828
 11
137.6181381956
 21
159.2296027924
  0
LINE
  5
35F
100
AcDbEntity
  8
RACCORDO
100
AcDbLine
 62
250
  6
CONTINUOUS
 10
142.332492153
 20
160.7429993482
 11
177.3499199699
 21
143.2348452912
  0
LINE
  5
360
100
AcDbEntity
  8
RACCORDO
100
AcDbLine
 62
7
  6
CONTINUOUS
 10
142.9108699212
 20
160.7443239487
 11
177.8114656802
 21
143.2940260693
  0
LWPOLYLINE
  5
361
100
AcDbEntity
  8
RACCORDO
100
AcDbPolyline
 62
250
  6
CONTINUOUS
 90
30
 70
0
 10
177.3499199699
 20
143.2348452912
 10
177.4653524562
 20
143.1702485438
 10
177.5790769933
 20
143.0992336055
 10
177.6905216935
 20
143.0223289098
 10
177.7997014188
 20
142.9397121134
 10
177.9071711517
 20
142.851052308
 10
178.0129101525
 20
142.7563159974
 10
178.1163448479
 20
142.6559706278
 10
178.2171705363
 20
142.5503273699
 10
178.3151022264
 20
142.4396846495
 10
178.4098909387
 20
142.3243160492
 10
178.501301281
 20
142.2045215258
 10
178.5890882232
 20
142.0806209928
 10
178.6730172189
 20
141.9529372146
 10
178.7528812536
 20
141.8217883611
 10
178.8284882423
 20
141.6874850582
 10
178.8996110877
 20
141.5504148847
 10
178.9660155481
 20
141.4110282367
 10
179.0273904276
 20
141.27004506
 10
179.083753787
 20
141.1275047595
 10
179.1352878712
 20
140.9828172399
 10
179.1818401961
 20
140.8360585104
 10
179.2230775352
 20
140.6878979798
 10
179.2588051588
 20
140.5386286039
 10
179.2888441655
 20
140.3884796569
 10
179.3129361692
 20
140.2380756895
 10
179.3308340314
 20
140.0883187854
 10
179.3424130922
 20
139.9398076201
 10
179.347605384
 20
139.79284468
 10
179.3463359609
 20
139.6478876973
  0
LWPOLYLINE
  5
362
100
AcDbEntity
  8
RACCORDO
100
AcDbPolyline
 62
250
  6
CONTINUOUS
 90
11
 70
0
 10
142.9108554867
 20
160.7443311657
 10
142.8761493798
 20
160.7602355979
 10
142.8224877479
 20
160.7795581016
 10
142.7666043153
 20
160.7936174558
 10
142.7087086438
 20
160.8023615734
 10
142.648999659
 20
160.8057572789
 10
142.5877266776
 20
160.803787356
 10
142.525189082
 20
160.796469608
 10
142.4616512855
 20
160.7838536689
 10
142.3973368109
 20
160.7660022747
 10
142.332492153
 20
160.7429993482
  0
LWPOLYLINE
  5
363
100
AcDbEntity
  8
RACCORDO
100
AcDbPolyline
 62
7
  6
CONTINUOUS
 90
18
 70
0
 10
178.7552068008
 20
44.732928211
 10
178.7864264517
 20
44.7556205135
 10
178.8898514079
 20
44.8374921352
 10
178.9886481804
 20
44.9264417709
 10
179.0824061418
 20
45.0222664289
 10
179.1708496582
 20
45.1248963301
 10
179.2535522951
 20
45.2340807402
 10
179.3300964768
 20
45.349484151
 10
179.4002386561
 20
45.4709974442
 10
179.4636460342
 20
45.5983785218
 10
179.5199783776
 20
45.7312601676
 10
179.5690123629
 20
45.8694792338
 10
179.6104884638
 20
46.0128156347
 10
179.6441520466
 20
46.1609696695
 10
179.6697972541
 20
46.3138264154
 10
179.6871877084
 20
46.4712581189
 10
179.6960838446
 20
46.6329584356
 10
179.6972692901
 20
46.7181554024
  0
LINE
  5
364
100
AcDbEntity
  8
RACCORDO
100
AcDbLine
 62
250
  6
CONTINUOUS
 10
175.390523294
 20
43.4144459602
 11
179.3463359609
 21
46.2361327165
  0
LINE
  5
365
100
AcDbEntity
  8
RACCORDO
100
AcDbLine
 62
7
  6
CONTINUOUS
 10
174.7655340487
 20
41.8870881425
 11
178.7558358953
 21
44.7333760794
  0
LWPOLYLINE
  5
366
100
AcDbEntity
  8
RACCORDO
100
AcDbPolyline
 62
250
  6
CONTINUOUS
 90
20
 70
0
 10
173.4569053317
 20
41.2844770837
 10
173.5113299533
 20
41.303572513
 10
173.5973224975
 20
41.3405493002
 10
173.6801531581
 20
41.3848240345
 10
173.7596024952
 20
41.4362821031
 10
173.8354669321
 20
41.4947971109
 10
173.9075361773
 20
41.5602103834
 10
173.9755967964
 20
41.632323777
 10
174.0393216122
 20
41.7107436089
 10
174.0987084782
 20
41.7954215158
 10
174.1539677228
 20
41.8867735344
 10
174.2049738131
 20
41.9849006789
 10
174.2513647902
 20
42.0894521244
 10
174.2929202789
 20
42.2002586479
 10
174.3294522602
 20
42.3172426041
 10
174.3607084403
 20
42.4400580274
 10
174.3864327769
 20
42.5680470599
 10
174.406473574
 20
42.7007453591
 10
174.4207300515
 20
42.837934842
 10
174.4290920843
 20
42.9792496302
  0
LINE
  5
367
100
AcDbEntity
  8
RACCORDO
100
AcDbLine
 62
250
  6
CONTINUOUS
 10
174.4290920843
 20
42.9792496302
 11
175.067901817
 21
43.1843196055
  0
LINE
  5
368
100
AcDbEntity
  8
RACCORDO
100
AcDbLine
 62
7
  6
CONTINUOUS
 10
173.4561602898
 20
41.2842376207
 11
174.1334325005
 21
41.501654777
  0
LWPOLYLINE
  5
369
100
AcDbEntity
  8
RACCORDO
100
AcDbPolyline
 62
250
  6
CONTINUOUS
 90
10
 70
0
 10
141.7815661431
 20
160.8308963766
 10
141.8398856726
 20
160.8460699246
 10
141.8981981507
 20
160.8545783711
 10
141.9579603699
 20
160.8569295446
 10
142.0189188876
 20
160.8531134741
 10
142.0808151875
 20
160.843146343
 10
142.1433867769
 20
160.8270704203
 10
142.2063682988
 20
160.8049538817
 10
142.2694926579
 20
160.7768905202
 10
142.332492153
 20
160.7429993482
  0
ARC
  5
36A
100
AcDbEntity
  8
RACCORDO
100
AcDbCircle
 62
7
  6
CONTINUOUS
 10
136.7900705053
 20
147.4161549007
 40
1.5
100
AcDbArc
 50
179.9975110136
 51
243.4337905604
  0
ARC
  5
36B
100
AcDbEntity
  8
RACCORDO
100
AcDbCircle
 62
7
  6
CONTINUOUS
 10
136.7900705053
 20
157.4759547989
 40
1.5
100
AcDbArc
 50
125.50031682
 51
180.0024068574
  0
ARC
  5
36C
100
AcDbEntity
  8
RACCORDO
100
AcDbCircle
 62
7
  6
CONTINUOUS
 10
136.7900705053
 20
60.5971081713
 40
1.5
100
AcDbArc
 50
179.9975110136
 51
243.4337905604
  0
ARC
  5
36D
100
AcDbEntity
  8
RACCORDO
100
AcDbCircle
 62
7
  6
CONTINUOUS
 10
136.7900705053
 20
70.6569080695
 40
1.5
100
AcDbArc
 50
125.50031682
 51
180.0024068574
  0
ARC
  5
36E
100
AcDbEntity
  8
RACCORDO
100
AcDbCircle
 62
7
  6
CONTINUOUS
 10
142.240049528
 20
72.5836364328
 40
1.5
100
AcDbArc
 50
63.4355652575
 51
107.797610103
  0
ARC
  5
36F
100
AcDbEntity
  8
RACCORDO
100
AcDbCircle
 62
7
  6
CONTINUOUS
 10
142.240049528
 20
159.4026831622
 40
1.5
100
AcDbArc
 50
63.4355652575
 51
107.797610103
  0
ELLIPSE
  5
370
100
AcDbEntity
  8
RACCORDO
100
AcDbEllipse
 62
7
  6
CONTINUOUS
 10
137.2417405731
 20
70.9790849661
 30
0.0
 11
-0.6778635083
 21
1.3507776998
 31
0.0
 40
0.6078300731
 41
-0.6825681068
 42
0.0943738105
  0
ELLIPSE
  5
371
100
AcDbEntity
  8
RACCORDO
100
AcDbEllipse
 62
7
  6
CONTINUOUS
 10
137.2417405731
 20
157.7981316955
 30
0.0
 11
-0.6778635083
 21
1.3507776998
 31
0.0
 40
0.6078300731
 41
-0.6825681068
 42
0.0943738105
  0
ELLIPSE
  5
372
100
AcDbEntity
  8
RACCORDO
100
AcDbEllipse
 62
7
  6
CONTINUOUS
 10
172.9384783744
 20
44.2688420202
 30
0.0
 11
-1.3557270166
 21
2.7015553996
 31
0.0
 40
0.6078300731
 41
-3.2359664621
 42
-2.2609606302
  0
ELLIPSE
  5
373
100
AcDbEntity
  8
RACCORDO
100
AcDbEllipse
 62
7
  6
CONTINUOUS
 10
172.9384783744
 20
138.6457625746
 30
0.0
 11
-1.337683002
 21
2.6855183452
 31
0.0
 40
0.6169456102
 41
-2.2500213442
 42
-0.6868212139
  0
ELLIPSE
  5
374
100
AcDbEntity
  8
RACCORDO
100
AcDbEllipse
 62
7
  6
CONTINUOUS
 10
153.7032199398
 20
101.5846935617
 30
0.0
 11
-0.0891788668
 21
0.1790345563
 31
0.0
 40
0.6169456102
 41
0.8915713094
 42
2.4547714397
  0
ELLIPSE
  5
375
100
AcDbEntity
  8
RACCORDO
100
AcDbEllipse
 62
7
  6
CONTINUOUS
 10
153.7032199398
 20
103.1109455159
 30
0.0
 11
-0.0895574858
 21
0.178831973
 31
0.0
 40
0.6159291164
 41
0.8881387209
 42
2.1423842212
  0
ELLIPSE
  5
376
100
AcDbEntity
  8
RACCORDO
100
AcDbEllipse
 62
7
  6
CONTINUOUS
 10
153.7032196192
 20
95.7372952408
 30
0.0
 11
-0.0891788668
 21
0.1790345563
 31
0.0
 40
0.6169456102
 41
0.8915713094
 42
2.4547714397
  0
ELLIPSE
  5
377
100
AcDbEntity
  8
RACCORDO
100
AcDbEllipse
 62
7
  6
CONTINUOUS
 10
153.7032199398
 20
97.9889136214
 30
0.0
 11
-0.08952762
 21
0.1788450965
 31
0.0
 40
0.6160196583
 41
0.8884098336
 42
2.1725932133
  0
ELLIPSE
  5
378
100
AcDbEntity
  8
RACCORDO
100
AcDbEllipse
 62
7
  6
CONTINUOUS
 10
153.7032199398
 20
96.5046311494
 30
0.0
 11
-0.0885828916
 21
0.1794618812
 31
0.0
 40
0.6181430683
 41
0.896955292
 42
2.7551973391
  0
ELLIPSE
  5
379
100
AcDbEntity
  8
RACCORDO
100
AcDbEllipse
 62
7
  6
CONTINUOUS
 10
153.7032199398
 20
98.6770697937
 30
0.0
 11
-0.0890252349
 21
0.1791345788
 31
0.0
 40
0.6172925818
 41
0.8929614349
 42
2.5486614372
  0
ELLIPSE
  5
37A
100
AcDbEntity
  8
RACCORDO
100
AcDbEllipse
 62
7
  6
CONTINUOUS
 10
153.7032199398
 20
100.7611758155
 30
0.0
 11
-0.0892782874
 21
0.178974633
 31
0.0
 40
0.6167032586
 41
0.8906708777
 42
2.3854995753
  0
ELLIPSE
  5
37B
100
AcDbEntity
  8
RACCORDO
100
AcDbEllipse
 62
7
  6
CONTINUOUS
 10
153.8645306783
 20
101.0058194402
 30
0.0
 11
-0.0903503316
 21
0.180298656
 31
0.0
 40
0.607316868
 41
-0.7716166554
 42
0.0991561072
  0
ELLIPSE
  5
37C
100
AcDbEntity
  8
RACCORDO
100
AcDbEllipse
 62
7
  6
CONTINUOUS
 10
153.7032199398
 20
101.7413313455
 30
0.0
 11
-0.0903818011
 21
0.1801036933
 31
0.0
 40
0.6078300731
 41
-0.6825681068
 42
0.8806320234
  0
ELLIPSE
  5
37D
100
AcDbEntity
  8
RACCORDO
100
AcDbEllipse
 62
7
  6
CONTINUOUS
 10
153.8645306783
 20
98.9292032947
 30
0.0
 11
-0.0903987617
 21
0.1799791235
 31
0.0
 40
0.6081729582
 41
-0.6173488104
 42
0.0911350869
  0
ELLIPSE
  5
37E
100
AcDbEntity
  8
RACCORDO
100
AcDbEllipse
 62
7
  6
CONTINUOUS
 10
153.7032196192
 20
95.8917514639
 30
0.0
 11
-0.0903818011
 21
0.1801036933
 31
0.0
 40
0.6078300731
 41
-0.6825681068
 42
0.8806320234
  0
ELLIPSE
  5
37F
100
AcDbEntity
  8
RACCORDO
100
AcDbEllipse
 62
7
  6
CONTINUOUS
 10
155.5094299785
 20
96.2802670626
 30
0.0
 11
-0.0904289761
 21
0.1796312262
 31
0.0
 40
0.6092118725
 41
2.7543232421
 42
4.0217936699
  0
ELLIPSE
  5
380
100
AcDbEntity
  8
RACCORDO
100
AcDbEllipse
 62
7
  6
CONTINUOUS
 10
153.7032199398
 20
96.6677760277
 30
0.0
 11
-0.0904269226
 21
0.1796738953
 31
0.0
 40
0.6090766408
 41
-0.4202404404
 42
0.8802197814
  0
ELLIPSE
  5
381
100
AcDbEntity
  8
RACCORDO
100
AcDbEllipse
 62
7
  6
CONTINUOUS
 10
155.5094299785
 20
101.6286707253
 30
0.0
 11
-0.0895246848
 21
0.1788464177
 31
0.0
 40
0.6160284442
 41
-2.2531561778
 42
-0.9660934713
  0
ELLIPSE
  5
382
100
AcDbEntity
  8
RACCORDO
100
AcDbEllipse
 62
7
  6
CONTINUOUS
 10
155.5094299785
 20
96.5207188138
 30
0.0
 11
-0.0895505852
 21
0.1788349529
 31
0.0
 40
0.6159502249
 41
-2.2533912855
 42
-0.992123004
  0
ELLIPSE
  5
383
100
AcDbEntity
  8
RACCORDO
100
AcDbEllipse
 62
7
  6
CONTINUOUS
 10
155.5094299785
 20
103.1053069258
 30
0.0
 11
-0.0885582775
 21
0.1794814917
 31
0.0
 40
0.6181850136
 41
-2.2444154989
 42
-0.3769822144
  0
ELLIPSE
  5
384
100
AcDbEntity
  8
RACCORDO
100
AcDbEllipse
 62
7
  6
CONTINUOUS
 10
153.7032199398
 20
103.3071184149
 30
0.0
 11
-0.0904294383
 21
0.1796196403
 31
0.0
 40
0.6092490417
 41
-0.3780370716
 42
0.8801967924
  0
ELLIPSE
  5
385
100
AcDbEntity
  8
RACCORDO
100
AcDbEllipse
 62
7
  6
CONTINUOUS
 10
153.8645306783
 20
96.7783910646
 30
0.0
 11
-0.0904269226
 21
0.1796738953
 31
0.0
 40
0.6090766408
 41
-0.4202404404
 42
0.0824242487
  0
ELLIPSE
  5
386
100
AcDbEntity
  8
RACCORDO
100
AcDbEllipse
 62
7
  6
CONTINUOUS
 10
153.7032199398
 20
98.1176939813
 30
0.0
 11
-0.090220391
 21
0.1809195826
 31
0.0
 40
0.6058244323
 41
-0.982308371
 42
0.8821055639
  0
ELLIPSE
  5
387
100
AcDbEntity
  8
RACCORDO
100
AcDbEllipse
 62
7
  6
CONTINUOUS
 10
153.8645306783
 20
98.239608471
 30
0.0
 11
-0.090220391
 21
0.1809195826
 31
0.0
 40
0.6058244323
 41
-0.982308371
 42
0.112642986
  0
ELLIPSE
  5
388
100
AcDbEntity
  8
RACCORDO
100
AcDbEllipse
 62
7
  6
CONTINUOUS
 10
155.5094299785
 20
97.9808253626
 30
0.0
 11
-0.0904045363
 21
0.1799311964
 31
0.0
 40
0.6083084468
 41
2.5513819957
 42
4.0220169792
  0
ELLIPSE
  5
389
100
AcDbEntity
  8
RACCORDO
100
AcDbEllipse
 62
7
  6
CONTINUOUS
 10
155.5094299785
 20
99.554489647
 30
0.0
 11
-0.0904311146
 21
0.1795608262
 31
0.0
 40
0.6094408836
 41
2.8123982434
 42
4.0217741284
  0
ELLIPSE
  5
38A
100
AcDbEntity
  8
RACCORDO
100
AcDbEllipse
 62
7
  6
CONTINUOUS
 10
155.5095572577
 20
100.6815249028
 30
0.0
 11
-0.0903818011
 21
0.1801036933
 31
0.0
 40
0.6078300731
 41
2.4590245468
 42
4.022224677
  0
ELLIPSE
  5
38B
100
AcDbEntity
  8
RACCORDO
100
AcDbEllipse
 62
7
  6
CONTINUOUS
 10
155.5094299785
 20
98.2082181655
 30
0.0
 11
-0.0896033173
 21
0.178813017
 31
0.0
 40
0.6157859257
 41
-2.2538700943
 42
-1.0479587209
  0
ELLIPSE
  5
38C
100
AcDbEntity
  8
RACCORDO
100
AcDbEllipse
 62
7
  6
CONTINUOUS
 10
155.5095572577
 20
100.8381626865
 30
0.0
 11
-0.0891788668
 21
0.1790345563
 31
0.0
 40
0.6169456102
 41
-2.2500213442
 42
-0.6868212139
  0
ELLIPSE
  5
38D
100
AcDbEntity
  8
RACCORDO
100
AcDbEllipse
 62
7
  6
CONTINUOUS
 10
153.8645306783
 20
101.8563945228
 30
0.0
 11
-0.0903818011
 21
0.1801036933
 31
0.0
 40
0.6078300731
 41
-0.6825681068
 42
0.0943737773
  0
ELLIPSE
  5
38E
100
AcDbEntity
  8
RACCORDO
100
AcDbEllipse
 62
7
  6
CONTINUOUS
 10
155.5094299785
 20
102.9263108694
 30
0.0
 11
-0.090427317
 21
0.179666501
 31
0.0
 40
0.6090998937
 41
2.726953059
 42
4.0218088309
  0
ELLIPSE
  5
38F
100
AcDbEntity
  8
RACCORDO
100
AcDbEllipse
 62
7
  6
CONTINUOUS
 10
155.5094299785
 20
101.4967681021
 30
0.0
 11
-0.0902142961
 21
0.1809450894
 31
0.0
 40
0.6057667572
 41
2.1523522455
 42
4.0237538238
  0
ELLIPSE
  5
390
100
AcDbEntity
  8
RACCORDO
100
AcDbEllipse
 62
7
  6
CONTINUOUS
 10
153.8645306783
 20
103.4171057131
 30
0.0
 11
-0.0904294383
 21
0.1796196403
 31
0.0
 40
0.6092490417
 41
-0.3780370716
 42
0.0807319187
  0
ELLIPSE
  5
391
100
AcDbEntity
  8
RACCORDO
100
AcDbEllipse
 62
7
  6
CONTINUOUS
 10
154.0416815882
 20
99.796482784
 30
0.0
 11
-0.0957455296
 21
0.1784348603
 31
0.0
 40
0.6153323063
 41
-0.3483475162
 42
0.1241266556
  0
ELLIPSE
  5
392
100
AcDbEntity
  8
RACCORDO
100
AcDbEllipse
 62
7
  6
CONTINUOUS
 10
155.5094299785
 20
99.7861205944
 30
0.0
 11
-0.0893067764
 21
0.1789582432
 31
0.0
 40
0.6166309388
 41
-2.2511799148
 42
-0.7773766339
  0
ELLIPSE
  5
393
100
AcDbEntity
  8
RACCORDO
100
AcDbEllipse
 62
7
  6
CONTINUOUS
 10
153.7032199398
 20
100.8889688704
 30
0.0
 11
-0.0903503316
 21
0.180298656
 31
0.0
 40
0.607316868
 41
-0.7716166554
 42
0.8809194545
  0
ELLIPSE
  5
394
100
AcDbEntity
  8
RACCORDO
100
AcDbEllipse
 62
7
  6
CONTINUOUS
 10
155.7016726306
 20
98.0442275199
 30
0.0
 11
-0.0904045363
 21
0.1799311964
 31
0.0
 40
0.6083084468
 41
-3.2314381599
 42
-2.261168328
  0
ELLIPSE
  5
395
100
AcDbEntity
  8
RACCORDO
100
AcDbEllipse
 62
7
  6
CONTINUOUS
 10
155.7016726306
 20
98.3019883378
 30
0.0
 11
-0.0896033173
 21
0.178813017
 31
0.0
 40
0.6157859257
 41
-2.2538700943
 42
-1.0479587209
  0
ELLIPSE
  5
396
100
AcDbEntity
  8
RACCORDO
100
AcDbEllipse
 62
7
  6
CONTINUOUS
 10
155.7016726306
 20
99.6219813383
 30
0.0
 11
-0.0904311146
 21
0.1795608262
 31
0.0
 40
0.6094408836
 41
-3.2204298752
 42
-2.2614111788
  0
ELLIPSE
  5
397
100
AcDbEntity
  8
RACCORDO
100
AcDbEllipse
 62
7
  6
CONTINUOUS
 10
153.9086107503
 20
99.6860854177
 30
0.0
 11
-0.0957455296
 21
0.1784348603
 31
0.0
 40
0.6153323063
 41
-0.3483475162
 42
2.0499931727
  0
ELLIPSE
  5
398
100
AcDbEntity
  8
RACCORDO
100
AcDbEllipse
 62
7
  6
CONTINUOUS
 10
155.7016726306
 20
99.8840845415
 30
0.0
 11
-0.0893067764
 21
0.1789582432
 31
0.0
 40
0.6166309388
 41
-2.2511799148
 42
-0.7773766339
  0
ELLIPSE
  5
399
100
AcDbEntity
  8
RACCORDO
100
AcDbEllipse
 62
7
  6
CONTINUOUS
 10
155.7017999098
 20
100.937759907
 30
0.0
 11
-0.0891788668
 21
0.1790345563
 31
0.0
 40
0.6169456102
 41
-2.2500213442
 42
-0.6868212139
  0
ELLIPSE
  5
39A
100
AcDbEntity
  8
RACCORDO
100
AcDbEllipse
 62
7
  6
CONTINUOUS
 10
153.7032199398
 20
98.8153482274
 30
0.0
 11
-0.0903987617
 21
0.1799791235
 31
0.0
 40
0.6081729582
 41
-0.6173488104
 42
0.8804770829
  0
ELLIPSE
  5
39B
100
AcDbEntity
  8
RACCORDO
100
AcDbEllipse
 62
7
  6
CONTINUOUS
 10
155.7017999098
 20
100.7432384207
 30
0.0
 11
-0.0903818011
 21
0.1801036933
 31
0.0
 40
0.6078300731
 41
-3.235966388
 42
-2.2609606302
  0
ELLIPSE
  5
39C
100
AcDbEntity
  8
RACCORDO
100
AcDbEllipse
 62
7
  6
CONTINUOUS
 10
155.7016726306
 20
103.211838139
 30
0.0
 11
-0.0885582775
 21
0.1794814917
 31
0.0
 40
0.6181850136
 41
-2.2444154989
 42
-0.3769822144
  0
ELLIPSE
  5
39D
100
AcDbEntity
  8
RACCORDO
100
AcDbEllipse
 62
7
  6
CONTINUOUS
 10
155.7016726306
 20
102.9925570102
 30
0.0
 11
-0.090427317
 21
0.179666501
 31
0.0
 40
0.6090998937
 41
-3.2237891366
 42
-2.2613764763
  0
ELLIPSE
  5
39E
100
AcDbEntity
  8
RACCORDO
100
AcDbEllipse
 62
7
  6
CONTINUOUS
 10
155.7016726306
 20
101.7236184528
 30
0.0
 11
-0.0895246848
 21
0.1788464177
 31
0.0
 40
0.6160284442
 41
-2.2531561778
 42
-0.9660934713
  0
ELLIPSE
  5
39F
100
AcDbEntity
  8
RACCORDO
100
AcDbEllipse
 62
7
  6
CONTINUOUS
 10
155.7016726306
 20
101.5514384304
 30
0.0
 11
-0.0902142961
 21
0.1809450894
 31
0.0
 40
0.6057667572
 41
-3.2547447022
 42
-2.2594314834
  0
ELLIPSE
  5
3A0
100
AcDbEntity
  8
RACCORDO
100
AcDbEllipse
 62
7
  6
CONTINUOUS
 10
155.7016726306
 20
96.6152846027
 30
0.0
 11
-0.0895505852
 21
0.1788349529
 31
0.0
 40
0.6159502249
 41
-2.2533912855
 42
-0.992123004
  0
ELLIPSE
  5
3A1
100
AcDbEntity
  8
RACCORDO
100
AcDbEllipse
 62
7
  6
CONTINUOUS
 10
155.7016726306
 20
96.3469208517
 30
0.0
 11
-0.0904289761
 21
0.1796312262
 31
0.0
 40
0.6092118725
 41
-3.2226903373
 42
-2.2613916373
  0
ELLIPSE
  5
3A2
100
AcDbEntity
  8
RACCORDO
100
AcDbEllipse
 62
7
  6
CONTINUOUS
 10
153.8645303577
 20
96.0068146413
 30
0.0
 11
-0.0903818011
 21
0.1801036933
 31
0.0
 40
0.6078300731
 41
-0.6825681068
 42
0.0943737773
  0
ELLIPSE
  5
3A3
100
AcDbEntity
  8
RACCORDO
100
AcDbEllipse
 62
7
  6
CONTINUOUS
 10
173.2610998513
 20
44.4989683749
 30
0.0
 11
-1.3557270166
 21
2.7015553996
 31
0.0
 40
0.6078300731
 41
3.1293507006
 42
4.022224677
  0
ELLIPSE
  5
3A4
100
AcDbEntity
  8
RACCORDO
100
AcDbEllipse
 62
7
  6
CONTINUOUS
 10
137.6262258773
 20
157.9215587314
 30
0.0
 11
-0.6778635083
 21
1.3507776998
 31
0.0
 40
0.6078300731
 41
-0.6825681068
 42
0.1255953557
  0
ELLIPSE
  5
3A5
100
AcDbEntity
  8
RACCORDO
100
AcDbEllipse
 62
7
  6
CONTINUOUS
 10
173.2610998513
 20
138.8001215241
 30
0.0
 11
-1.337683002
 21
2.6855183452
 31
0.0
 40
0.6169456102
 41
-2.2500213442
 42
-0.6868212139
  0
ELLIPSE
  5
3A6
100
AcDbEntity
  8
RACCORDO
100
AcDbEllipse
 62
7
  6
CONTINUOUS
 10
173.2990573318
 20
138.8276310134
 30
0.0
 11
-1.1175126485
 21
2.2363630501
 31
0.0
 40
0.6131036171
 41
-2.2546379553
 42
-0.8160747561
  0
ELLIPSE
  5
3A7
100
AcDbEntity
  8
RACCORDO
100
AcDbEllipse
 62
7
  6
CONTINUOUS
 10
137.6262258773
 20
71.102512002
 30
0.0
 11
-0.6778635083
 21
1.3507776998
 31
0.0
 40
0.6078300731
 41
-0.6825681068
 42
0.1255953557
  0
ENDSEC
  0
SECTION
  2
OBJECTS
  0
DICTIONARY
  5
C
100
AcDbDictionary
280
0
281
1
  3
ACAD_GROUP
350
D
  3
ACAD_MLINESTYLE
350
17
  3
ACAD_LAYOUT
350
1A
  3
ACAD_PLOTSETTINGS
350
19
  3
ACAD_PLOTSTYLENAME
350
E
  0
DICTIONARY
  5
D
102
{ACAD_REACTORS
330
C
102
}
100
AcDbDictionary
280
0
281
1
  0
ACDBDICTIONARYWDFLT
  5
E
102
{ACAD_REACTORS
330
C
102
}
100
AcDbDictionary
281
1
  3
Normal
350
F
100
AcDbDictionaryWithDefault
340
F
  0
DICTIONARY
  5
17
102
{ACAD_REACTORS
330
C
102
}
100
AcDbDictionary
280
0
281
1
  3
Standard
350
18
  0
DICTIONARY
  5
19
102
{ACAD_REACTORS
330
C
102
}
100
AcDbDictionary
281
1
  0
DICTIONARY
  5
1A
102
{ACAD_REACTORS
330
C
102
}
100
AcDbDictionary
281
1
  3
Model
350
3A8
  3
Layout1
350
3A9
  0
ACDBPLACEHOLDER
  5
F
102
{ACAD_REACTORS
330
E
102
}
  0
MLINESTYLE
  5
18
102
{ACAD_REACTORS
330
17
102
}
100
AcDbMlineStyle
  2
STANDARD
 70
0
  3

 62
256
 51
90.0
 52
90.0
 71
2
 49
0.5
 62
256
  6
BYLAYER
 49
-0.5
 62
256
  6
BYLAYER
  0
LAYOUT
  5
3A8
102
{ACAD_REACTORS
330
1A
102
}
100
AcDbPlotSettings
  1

  2
none_device
  4
ISO_A4_(297.00_x_210.00_MM)
  6

 40
0.0
 41
0.0
 42
0.0
 43
0.0
 44
297.0
 45
210.0
 46
0.0
 47
0.0
 48
0.0
 49
0.0
140
0.0
141
0.0
142
1.0
143
1.0
 70
1024
 72
1
 73
0
 74
0
  7

 75
0
147
1.0
148
0.0
149
0.0
100
AcDbLayout
  1
Model
 70
0
 71
0
 10
0.0
 20
0.0
 11
297.0
 21
210.0
 12
0.0
 22
0.0
 32
0.0
 14
0.0
 24
0.0
 34
0.0
 15
0.0
 25
0.0
 35
0.0
146
0.0
 13
0.0
 23
0.0
 33
0.0
 16
1.0
 26
0.0
 36
0.0
 17
0.0
 27
1.0
 37
0.0
 76
0
330
212
345
0
346
0
  0
LAYOUT
  5
3A9
102
{ACAD_REACTORS
330
1A
102
}
100
AcDbPlotSettings
  1

  2
none_device
  4
ISO_A4_(297.00_x_210.00_MM)
  6

 40
0.0
 41
0.0
 42
0.0
 43
0.0
 44
297.0
 45
210.0
 46
0.0
 47
0.0
 48
0.0
 49
0.0
140
0.0
141
0.0
142
1.0
143
1.0
 70
0
 72
1
 73
0
 74
0
  7

 75
0
147
1.0
148
0.0
149
0.0
100
AcDbLayout
  1
Layout1
 70
0
 71
1
 10
0.0
 20
0.0
 11
297.0
 21
210.0
 12
0.0
 22
0.0
 32
0.0
 14
0.0
 24
0.0
 34
0.0
 15
0.0
 25
0.0
 35
0.0
146
0.0
 13
0.0
 23
0.0
 33
0.0
 16
1.0
 26
0.0
 36
0.0
 17
0.0
 27
1.0
 37
0.0
 76
0
330
213
345
0
346
0
  0
ENDSEC
  0
EOF
