  0
SECTION
  2
HEADER
  9
$ACADVER
  1
AC1015
  9
$DWGCODEPAGE
  3
ANSI_1252
  9
$EXTMAX
 10
297.0
 20
210.0
 30
0.0
  9
$EXTMIN
 10
0.0
 20
0.0
 30
0.0
  9
$LIMMIN
 10
0.0
 20
0.0
  9
$LIMMAX
 10
297.0
 20
210.0
  9
$VIEWCTR
 10
148.5
 20
105.0
  9
$VIEWSIZE
 40
210.0
  9
$CLAYER
  8
0
  9
$LTSCALE
 40
16.335
  9
$CELTYPE
  6
BYLAYER
  9
$DIMSCALE
 40
1.0
  9
$DIMASZ
 40
3.0
  9
$DIMEXO
 40
1.85625
  9
$DIMDLI
 40
11.286
  9
$DIMEXE
 40
5.346
  9
$DIMCEN
 40
2.673
  9
$DIMLFAC
 40
1.0
  9
$DIMBLK
  1
_FILLED
  9
$DIMTXT
 40
3.0
  9
$DIMTOL
 70
1
  9
$DIMLIM
 70
0
  9
$DIMTFAC
 40
1.0
  9
$DIMTP
 40
0.01
  9
$DIMTM
 40
0.01
  9
$PDMODE
 70
3
  9
$PDSIZE
 40
3.0
  9
$HANDSEED
  5
2C6
  9
$TILEMODE
 70
1
  9
$MEASUREMENT
 70
1
  9
$INSUNITS
 70
4
  0
ENDSEC
  0
SECTION
  2
CLASSES
  0
CLASS
  1
ACDBDICTIONARYWDFLT
  2
AcDbDictionaryWithDefault
  3
AutoCAD 2000
 90
0
280
0
281
0
  0
CLASS
  1
ACDBPLACEHOLDER
  2
AcDbPlaceHolder
  3
AutoCAD 2000
 90
0
280
0
281
0
  0
CLASS
  1
LAYOUT
  2
AcDbLayout
  3
AutoCAD 2000
 90
0
280
0
281
0
  0
ENDSEC
  0
SECTION
  2
TABLES
  0
TABLE
  2
VPORT
  5
8
100
AcDbSymbolTable
 70
2
  0
VPORT
  5
1F4
100
AcDbSymbolTableRecord
100
AcDbViewportTableRecord
  2
*ACTIVE
 70
0
 10
0.0
 20
0.0
 11
1.0
 21
1.0
 12
148.5
 22
105.0
 13
0.0
 23
0.0
 14
1.0
 24
1.0
 15
0.0
 25
0.0
 16
0.0
 26
0.0
 36
1.0
 17
0.0
 27
0.0
 37
0.0
 40
210.0
 41
1.4142857143
 42
50.0
 43
0.0
 44
0.0
 50
0.0
 51
0.0
 71
0
 72
100
 73
1
 74
1
 75
0
 76
0
 77
0
 78
0
  0
ENDTAB
  0
TABLE
  2
LTYPE
  5
5
100
AcDbSymbolTable
 70
6
  0
LTYPE
  5
14
100
AcDbSymbolTableRecord
100
AcDbLinetypeTableRecord
  2
BYBLOCK
 70
0
  3

 72
65
 73
0
 40
0.0
  0
LTYPE
  5
15
100
AcDbSymbolTableRecord
100
AcDbLinetypeTableRecord
  2
BYLAYER
 70
0
  3

 72
65
 73
0
 40
0.0
  0
LTYPE
  5
16
100
AcDbSymbolTableRecord
100
AcDbLinetypeTableRecord
  2
CONTINUOUS
 70
64
  3
Solid line
 72
65
 73
0
 40
0.0
  0
LTYPE
  5
1F5
100
AcDbSymbolTableRecord
100
AcDbLinetypeTableRecord
  2
CENTER
 70
64
  3
____ _ ____ _ ____ _ ____ _ ____ _ ____ _ ____
 72
65
 73
4
 40
0.6
 49
0.375
 74
0
 49
-0.075
 74
0
 49
0.075
 74
0
 49
-0.075
 74
0
  0
LTYPE
  5
1F6
100
AcDbSymbolTableRecord
100
AcDbLinetypeTableRecord
  2
HIDDEN
 70
64
  3
- - - - - - - - - - - - - - - - - - - -
 72
65
 73
2
 40
0.2
 49
0.1
 74
0
 49
-0.1
 74
0
  0
LTYPE
  5
1F7
100
AcDbSymbolTableRecord
100
AcDbLinetypeTableRecord
  2
PHANTOM
 70
64
  3
_____ _ _ _____ _ _ _____ _ _ _____
 72
65
 73
6
 40
0.8
 49
0.45
 74
0
 49
-0.05
 74
0
 49
0.1
 74
0
 49
-0.05
 74
0
 49
0.1
 74
0
 49
-0.05
 74
0
  0
LTYPE
  5
1F8
100
AcDbSymbolTableRecord
100
AcDbLinetypeTableRecord
  2
DOT
 70
64
  3
. . . . . . . . . . . . . . . . . . . .
 72
65
 73
2
 40
0.2
 49
0.1
 74
0
 49
-0.1
 74
0
  0
LTYPE
  5
1F9
100
AcDbSymbolTableRecord
100
AcDbLinetypeTableRecord
  2
DASHED
 70
64
  3
- - - - - - - - - - - - - - - - - - - -
 72
65
 73
2
 40
0.2
 49
0.1
 74
0
 49
-0.1
 74
0
  0
ENDTAB
  0
TABLE
  2
LAYER
  5
2
100
AcDbSymbolTable
 70
36
  0
LAYER
  5
10
100
AcDbSymbolTableRecord
100
AcDbLayerTableRecord
  2
0
 70
0
 62
7
  6
CONTINUOUS
370
-3
390
F
  0
LAYER
  5
1FA
100
AcDbSymbolTableRecord
100
AcDbLayerTableRecord
  2
DEFAULT_1
 70
0
 62
7
  6
CENTER
370
-3
390
F
  0
LAYER
  5
1FB
100
AcDbSymbolTableRecord
100
AcDbLayerTableRecord
  2
DEFAULT_2
 70
0
 62
7
  6
HIDDEN
370
-3
390
F
  0
LAYER
  5
1FC
100
AcDbSymbolTableRecord
100
AcDbLayerTableRecord
  2
DEFAULT_3
 70
0
 62
7
  6
PHANTOM
370
-3
390
F
  0
LAYER
  5
1FD
100
AcDbSymbolTableRecord
100
AcDbLayerTableRecord
  2
ASSI
 70
0
 62
7
  6
CONTINUOUS
370
-3
390
F
  0
LAYER
  5
1FE
100
AcDbSymbolTableRecord
100
AcDbLayerTableRecord
  2
COORDINATE
 70
0
 62
7
  6
CONTINUOUS
370
-3
390
F
  0
LAYER
  5
1FF
100
AcDbSymbolTableRecord
100
AcDbLayerTableRecord
  2
COPY_PUBLISH
 70
0
 62
7
  6
CONTINUOUS
370
-3
390
F
  0
LAYER
  5
200
100
AcDbSymbolTableRecord
100
AcDbLayerTableRecord
  2
COSMETIC
 70
0
 62
7
  6
CONTINUOUS
370
-3
390
F
  0
LAYER
  5
201
100
AcDbSymbolTableRecord
100
AcDbLayerTableRecord
  2
CURVE
 70
0
 62
7
  6
CONTINUOUS
370
-3
390
F
  0
LAYER
  5
202
100
AcDbSymbolTableRecord
100
AcDbLayerTableRecord
  2
DRAFT
 70
0
 62
7
  6
CONTINUOUS
370
-3
390
F
  0
LAYER
  5
203
100
AcDbSymbolTableRecord
100
AcDbLayerTableRecord
  2
IMPORT_IGES
 70
0
 62
7
  6
CONTINUOUS
370
-3
390
F
  0
LAYER
  5
204
100
AcDbSymbolTableRecord
100
AcDbLayerTableRecord
  2
PIANI
 70
0
 62
7
  6
CONTINUOUS
370
-3
390
F
  0
LAYER
  5
205
100
AcDbSymbolTableRecord
100
AcDbLayerTableRecord
  2
RACCORDO
 70
0
 62
7
  6
CONTINUOUS
370
-3
390
F
  0
LAYER
  5
206
100
AcDbSymbolTableRecord
100
AcDbLayerTableRecord
  2
SNAPLINE
 70
0
 62
7
  6
CONTINUOUS
370
-3
390
F
  0
LAYER
  5
207
100
AcDbSymbolTableRecord
100
AcDbLayerTableRecord
  2
TRASH
 70
0
 62
7
  6
CONTINUOUS
370
-3
390
F
  0
ENDTAB
  0
TABLE
  2
STYLE
  5
3
100
AcDbSymbolTable
 70
1
  0
STYLE
  5
11
100
AcDbSymbolTableRecord
100
AcDbTextStyleTableRecord
  2
STANDARD
 70
0
 40
0.0
 41
0.8
 50
0.0
 71
0
 42
0.2
  3
txt
  4

  0
STYLE
  5
208
100
AcDbSymbolTableRecord
100
AcDbTextStyleTableRecord
  2
TEXTSTYLE_1
 70
0
 40
0.0
 41
0.8
 50
0.0
 71
0
 42
0.2
  3
gdt
  4

  0
ENDTAB
  0
TABLE
  2
VIEW
  5
6
100
AcDbSymbolTable
 70
0
  0
ENDTAB
  0
TABLE
  2
UCS
  5
7
100
AcDbSymbolTable
 70
0
  0
ENDTAB
  0
TABLE
  2
APPID
  5
9
100
AcDbSymbolTable
 70
1
  0
APPID
  5
209
100
AcDbSymbolTableRecord
100
AcDbRegAppTableRecord
  2
ACAD
 70
0
  0
ENDTAB
  0
TABLE
  2
BLOCK_RECORD
  5
1
100
AcDbSymbolTable
 70
0
  0
BLOCK_RECORD
  5
20A
100
AcDbSymbolTableRecord
100
AcDbBlockTableRecord
  2
*Model_Space
  0
BLOCK_RECORD
  5
20B
100
AcDbSymbolTableRecord
100
AcDbBlockTableRecord
  2
*Paper_Space
  0
ENDTAB
  0
TABLE
  2
DIMSTYLE
  5
A
100
AcDbSymbolTable
 70
1
100
AcDbDimStyleTable
 71
0
  0
DIMSTYLE
105
20C
100
AcDbSymbolTableRecord
100
AcDbDimStyleTableRecord
  2
STANDARD
 70
0
  3

  4

 40
1.0
 41
3.0
 42
0.0625
 43
0.38
 44
0.18
 45
0.0
 46
0.0
 47
0.01
 48
0.01
140
3.0
141
0.09
142
0.0
143
25.4
144
1.0
145
0.0
146
1.0
147
0.09
 71
1.0
 72
0.0
 73
0
 74
0
 75
0
 76
0
 77
1
 78
8
170
0
171
2
172
0
173
0
174
0
175
0
176
0
177
0
178
0
270
2
271
2
272
2
273
2
274
2
275
0
280
0
281
0
282
0
283
1
284
8
285
0
286
0
287
3
288
0
340
11
  0
ENDTAB
  0
ENDSEC
  0
SECTION
  2
BLOCKS
  0
BLOCK
  5
20
100
AcDbEntity
  8
0
100
AcDbBlockBegin
  2
*Model_Space
 70
0
 10
0.0
 20
0.0
 30
0.0
  3
*Model_Space
  1

  0
ENDBLK
  5
21
100
AcDbEntity
  8
0
100
AcDbBlockEnd
  0
BLOCK
  5
1C
100
AcDbEntity
  8
0
100
AcDbBlockBegin
  2
*Paper_Space
 70
0
 10
0.0
 20
0.0
 30
0.0
  3
*Paper_Space
  1

  0
ENDBLK
  5
1D
100
AcDbEntity
  8
0
100
AcDbBlockEnd
  0
ENDSEC
  0
SECTION
  2
ENTITIES
  0
LINE
  5
20D
100
AcDbEntity
  8
DRAFT
100
AcDbLine
 62
7
  6
CONTINUOUS
 10
-56.3477768059
 20
60.2016112288
 11
-57.2153326769
 21
59.809059446
  0
LINE
  5
20E
100
AcDbEntity
  8
RACCORDO
100
AcDbLine
 62
253
  6
CONTINUOUS
 10
-53.3997211299
 20
57.6442891419
 11
-52.5185838008
 21
58.0291355447
  0
LINE
  5
20F
100
AcDbEntity
  8
0
100
AcDbLine
 62
7
  6
CONTINUOUS
 10
14.666598995
 20
-83.4047091249
 11
15.4014778582
 21
-83.4335567629
  0
LINE
  5
210
100
AcDbEntity
  8
0
100
AcDbLine
 62
7
  6
CONTINUOUS
 10
13.4014778582
 20
-80.9840670202
 11
12.6363567215
 21
-80.9181803127
  0
LINE
  5
211
100
AcDbEntity
  8
0
100
AcDbLine
 62
7
  6
CONTINUOUS
 10
12.4901463916
 20
-84.3205085866
 11
12.5451864474
 21
-84.342053893
  0
LINE
  5
212
100
AcDbEntity
  8
0
100
AcDbLine
 62
7
  6
CONTINUOUS
 10
12.842184204
 20
-84.1047596083
 11
12.9694689569
 21
-84.1545849394
  0
LINE
  5
213
100
AcDbEntity
  8
0
100
AcDbLine
 62
7
  6
CONTINUOUS
 10
13.2664667136
 20
-83.9172906547
 11
13.3937514664
 21
-83.9671159858
  0
LINE
  5
214
100
AcDbEntity
  8
0
100
AcDbLine
 62
7
  6
CONTINUOUS
 10
13.6907492231
 20
-83.7298217011
 11
13.8180339759
 21
-83.7796470322
  0
LINE
  5
215
100
AcDbEntity
  8
0
100
AcDbLine
 62
7
  6
CONTINUOUS
 10
14.1150317326
 20
-83.5423527474
 11
14.2423164855
 21
-83.5921780785
  0
LINE
  5
216
100
AcDbEntity
  8
0
100
AcDbLine
 62
7
  6
CONTINUOUS
 10
14.5393142421
 20
-83.3548837938
 11
14.666598995
 21
-83.4047091249
  0
LINE
  5
217
100
AcDbEntity
  8
RACCORDO
100
AcDbLine
 62
7
  6
CONTINUOUS
 10
-58.6257266261
 20
56.3988272325
 11
-58.6257266261
 21
-28.4539865099
  0
LINE
  5
218
100
AcDbEntity
  8
RACCORDO
100
AcDbLine
 62
253
  6
CONTINUOUS
 10
-58.558739328
 20
56.2220505372
 11
-58.558739328
 21
-28.6307632052
  0
LINE
  5
219
100
AcDbEntity
  8
0
100
AcDbLine
 62
7
  6
CONTINUOUS
 10
12.6724712002
 20
-78.7350249746
 11
12.5451864474
 21
-78.6851996436
  0
LINE
  5
21A
100
AcDbEntity
  8
0
100
AcDbLine
 62
7
  6
CONTINUOUS
 10
13.0967537098
 20
-78.547556021
 11
12.9694689569
 21
-78.4977306899
  0
LINE
  5
21B
100
AcDbEntity
  8
0
100
AcDbLine
 62
7
  6
CONTINUOUS
 10
13.5210362193
 20
-78.3600870674
 11
13.3937514664
 21
-78.3102617363
  0
LINE
  5
21C
100
AcDbEntity
  8
0
100
AcDbLine
 62
7
  6
CONTINUOUS
 10
13.9453187288
 20
-78.1726181137
 11
13.8180339759
 21
-78.1227927827
  0
LINE
  5
21D
100
AcDbEntity
  8
0
100
AcDbLine
 62
7
  6
CONTINUOUS
 10
14.3696012383
 20
-77.9851491601
 11
14.2423164855
 21
-77.935323829
  0
LINE
  5
21E
100
AcDbEntity
  8
0
100
AcDbLine
 62
7
  6
CONTINUOUS
 10
12.6363567215
 20
-80.9181803127
 11
12.5038338532
 21
-80.8619396266
  0
LINE
  5
21F
100
AcDbEntity
  8
RACCORDO
100
AcDbLine
 62
7
  6
CONTINUOUS
 10
-53.7719075392
 20
-41.281826081
 11
6.2280924608
 21
-114.7665183645
  0
LINE
  5
220
100
AcDbEntity
  8
RACCORDO
100
AcDbLine
 62
253
  6
CONTINUOUS
 10
-53.8176219064
 20
-41.1423750102
 11
6.1823780936
 21
-114.6270672937
  0
LINE
  5
221
100
AcDbEntity
  8
0
100
AcDbLine
 62
7
  6
CONTINUOUS
 10
14.666598995
 20
-43.0996225973
 11
15.4014778582
 21
-43.1284702353
  0
LINE
  5
222
100
AcDbEntity
  8
0
100
AcDbLine
 62
7
  6
CONTINUOUS
 10
13.4014778582
 20
-40.6789804925
 11
12.6363567215
 21
-40.6130937851
  0
LINE
  5
223
100
AcDbEntity
  8
0
100
AcDbLine
 62
7
  6
CONTINUOUS
 10
12.4901463916
 20
-84.274643867
 11
12.5451864474
 21
-84.342053893
  0
LINE
  5
224
100
AcDbEntity
  8
0
100
AcDbLine
 62
7
  6
CONTINUOUS
 10
12.6724712002
 20
-84.1797471898
 11
12.4901463916
 21
-83.9564458155
  0
LINE
  5
225
100
AcDbEntity
  8
0
100
AcDbLine
 62
7
  6
CONTINUOUS
 10
12.842184204
 20
-84.1047596083
 11
12.4901463916
 21
-83.673603103
  0
LINE
  5
226
100
AcDbEntity
  8
0
100
AcDbLine
 62
7
  6
CONTINUOUS
 10
12.4901463916
 20
-83.5675370858
 11
12.9694689569
 21
-84.1545849394
  0
LINE
  5
227
100
AcDbEntity
  8
0
100
AcDbLine
 62
7
  6
CONTINUOUS
 10
13.0967537098
 20
-83.9922782361
 11
12.4901463916
 21
-83.2493390343
  0
LINE
  5
228
100
AcDbEntity
  8
0
100
AcDbLine
 62
7
  6
CONTINUOUS
 10
13.2664667136
 20
-83.9172906547
 11
12.4901463916
 21
-82.9664963218
  0
LINE
  5
229
100
AcDbEntity
  8
0
100
AcDbLine
 62
7
  6
CONTINUOUS
 10
12.4901463916
 20
-82.8604303047
 11
13.3937514664
 21
-83.9671159858
  0
LINE
  5
22A
100
AcDbEntity
  8
0
100
AcDbLine
 62
7
  6
CONTINUOUS
 10
13.5210362193
 20
-83.8048092825
 11
12.4901463916
 21
-82.5422322531
  0
LINE
  5
22B
100
AcDbEntity
  8
0
100
AcDbLine
 62
7
  6
CONTINUOUS
 10
13.6907492231
 20
-83.7298217011
 11
12.4901463916
 21
-82.2593895407
  0
LINE
  5
22C
100
AcDbEntity
  8
0
100
AcDbLine
 62
7
  6
CONTINUOUS
 10
12.4901463916
 20
-82.1533235235
 11
13.8180339759
 21
-83.7796470322
  0
LINE
  5
22D
100
AcDbEntity
  8
0
100
AcDbLine
 62
7
  6
CONTINUOUS
 10
13.9453187288
 20
-83.6173403289
 11
12.4901463916
 21
-81.8351254719
  0
LINE
  5
22E
100
AcDbEntity
  8
0
100
AcDbLine
 62
7
  6
CONTINUOUS
 10
14.1150317326
 20
-83.5423527474
 11
12.4901463916
 21
-81.5522827595
  0
LINE
  5
22F
100
AcDbEntity
  8
0
100
AcDbLine
 62
7
  6
CONTINUOUS
 10
12.4901463916
 20
-81.4462167423
 11
14.2423164855
 21
-83.5921780785
  0
LINE
  5
230
100
AcDbEntity
  8
0
100
AcDbLine
 62
7
  6
CONTINUOUS
 10
14.3696012383
 20
-83.4298713753
 11
12.4901463916
 21
-81.1280186908
  0
LINE
  5
231
100
AcDbEntity
  8
0
100
AcDbLine
 62
7
  6
CONTINUOUS
 10
14.5393142421
 20
-83.3548837938
 11
12.5038338532
 21
-80.8619396266
  0
LINE
  5
232
100
AcDbEntity
  8
0
100
AcDbLine
 62
7
  6
CONTINUOUS
 10
12.6363567215
 20
-80.9181803127
 11
14.666598995
 21
-83.4047091249
  0
LINE
  5
233
100
AcDbEntity
  8
0
100
AcDbLine
 62
7
  6
CONTINUOUS
 10
13.4014778582
 20
-80.9840670202
 11
15.4014778582
 21
-83.4335567629
  0
LINE
  5
234
100
AcDbEntity
  8
RACCORDO
100
AcDbLine
 62
253
  6
CONTINUOUS
 10
6.6002788701
 20
-15.8404031416
 11
7.4814161992
 21
-15.4555567388
  0
LINE
  5
235
100
AcDbEntity
  8
0
100
AcDbLine
 62
7
  6
CONTINUOUS
 10
12.4901463916
 20
-44.015422059
 11
12.5451864474
 21
-44.0369673654
  0
LINE
  5
236
100
AcDbEntity
  8
0
100
AcDbLine
 62
7
  6
CONTINUOUS
 10
12.842184204
 20
-43.7996730807
 11
12.9694689569
 21
-43.8494984118
  0
LINE
  5
237
100
AcDbEntity
  8
0
100
AcDbLine
 62
7
  6
CONTINUOUS
 10
13.2664667136
 20
-43.6122041271
 11
13.3937514664
 21
-43.6620294581
  0
LINE
  5
238
100
AcDbEntity
  8
0
100
AcDbLine
 62
7
  6
CONTINUOUS
 10
13.6907492231
 20
-43.4247351734
 11
13.8180339759
 21
-43.4745605045
  0
LINE
  5
239
100
AcDbEntity
  8
0
100
AcDbLine
 62
7
  6
CONTINUOUS
 10
14.1150317326
 20
-43.2372662198
 11
14.2423164855
 21
-43.2870915509
  0
LINE
  5
23A
100
AcDbEntity
  8
0
100
AcDbLine
 62
7
  6
CONTINUOUS
 10
14.5393142421
 20
-43.0497972662
 11
14.666598995
 21
-43.0996225973
  0
LINE
  5
23B
100
AcDbEntity
  8
0
100
AcDbLine
 62
7
  6
CONTINUOUS
 10
13.4014778582
 20
-74.2665525989
 11
13.4989619204
 21
-74.3859457041
  0
LINE
  5
23C
100
AcDbEntity
  8
0
100
AcDbLine
 62
7
  6
CONTINUOUS
 10
14.0514778582
 20
-75.0626367653
 11
14.5989619204
 21
-75.7331650626
  0
LINE
  5
23D
100
AcDbEntity
  8
0
100
AcDbLine
 62
7
  6
CONTINUOUS
 10
15.1514778582
 20
-76.4098561238
 11
15.4014778582
 21
-76.7160423417
  0
LINE
  5
23E
100
AcDbEntity
  8
0
100
AcDbLine
 62
7
  6
CONTINUOUS
 10
12.6724712002
 20
-38.429938447
 11
12.5451864474
 21
-38.3801131159
  0
LINE
  5
23F
100
AcDbEntity
  8
0
100
AcDbLine
 62
7
  6
CONTINUOUS
 10
13.0967537098
 20
-38.2424694934
 11
12.9694689569
 21
-38.1926441623
  0
LINE
  5
240
100
AcDbEntity
  8
0
100
AcDbLine
 62
7
  6
CONTINUOUS
 10
13.5210362193
 20
-38.0550005397
 11
13.3937514664
 21
-38.0051752087
  0
LINE
  5
241
100
AcDbEntity
  8
0
100
AcDbLine
 62
7
  6
CONTINUOUS
 10
13.9453187288
 20
-37.8675315861
 11
13.8180339759
 21
-37.817706255
  0
LINE
  5
242
100
AcDbEntity
  8
0
100
AcDbLine
 62
7
  6
CONTINUOUS
 10
14.3696012383
 20
-37.6800626325
 11
14.2423164855
 21
-37.6302373014
  0
LINE
  5
243
100
AcDbEntity
  8
0
100
AcDbLine
 62
7
  6
CONTINUOUS
 10
12.6363567215
 20
-40.6130937851
 11
12.5038338532
 21
-40.556853099
  0
LINE
  5
244
100
AcDbEntity
  8
RACCORDO
100
AcDbLine
 62
253
  6
CONTINUOUS
 10
11.5912439984
 20
-29.0113526596
 11
12.4901463916
 21
-28.6733875224
  0
LINE
  5
245
100
AcDbEntity
  8
0
100
AcDbLine
 62
253
  6
CONTINUOUS
 10
14.0514778582
 20
-34.6161288814
 11
12.4901463916
 21
-35.2664511127
  0
LINE
  5
246
100
AcDbEntity
  8
0
100
AcDbLine
 62
7
  6
CONTINUOUS
 10
12.4901463916
 20
-35.3966909299
 11
14.0514778582
 21
-34.7575502377
  0
LINE
  5
247
100
AcDbEntity
  8
0
100
AcDbLine
 62
7
  6
CONTINUOUS
 10
12.4901463916
 20
-34.4817677268
 11
13.7007247594
 21
-34.0006775724
  0
LINE
  5
248
100
AcDbEntity
  8
0
100
AcDbLine
 62
7
  6
CONTINUOUS
 10
12.4901463916
 20
-36.2661328199
 11
14.8007247594
 21
-35.347896931
  0
LINE
  5
249
100
AcDbEntity
  8
0
100
AcDbLine
 62
7
  6
CONTINUOUS
 10
13.4014778582
 20
-33.9614660713
 11
12.4901463916
 21
-34.2977389143
  0
LINE
  5
24A
100
AcDbEntity
  8
0
100
AcDbLine
 62
7
  6
CONTINUOUS
 10
12.4901463916
 20
-43.9695573394
 11
12.5451864474
 21
-44.0369673654
  0
LINE
  5
24B
100
AcDbEntity
  8
0
100
AcDbLine
 62
7
  6
CONTINUOUS
 10
12.6724712002
 20
-43.8746606621
 11
12.4901463916
 21
-43.6513592879
  0
LINE
  5
24C
100
AcDbEntity
  8
0
100
AcDbLine
 62
7
  6
CONTINUOUS
 10
12.842184204
 20
-43.7996730807
 11
12.4901463916
 21
-43.3685165754
  0
LINE
  5
24D
100
AcDbEntity
  8
0
100
AcDbLine
 62
7
  6
CONTINUOUS
 10
12.4901463916
 20
-43.2624505582
 11
12.9694689569
 21
-43.8494984118
  0
LINE
  5
24E
100
AcDbEntity
  8
0
100
AcDbLine
 62
7
  6
CONTINUOUS
 10
13.0967537098
 20
-43.6871917085
 11
12.4901463916
 21
-42.9442525067
  0
LINE
  5
24F
100
AcDbEntity
  8
0
100
AcDbLine
 62
7
  6
CONTINUOUS
 10
13.2664667136
 20
-43.6122041271
 11
12.4901463916
 21
-42.6614097942
  0
LINE
  5
250
100
AcDbEntity
  8
0
100
AcDbLine
 62
7
  6
CONTINUOUS
 10
12.4901463916
 20
-42.555343777
 11
13.3937514664
 21
-43.6620294581
  0
LINE
  5
251
100
AcDbEntity
  8
0
100
AcDbLine
 62
7
  6
CONTINUOUS
 10
13.5210362193
 20
-43.4997227549
 11
12.4901463916
 21
-42.2371457255
  0
LINE
  5
252
100
AcDbEntity
  8
0
100
AcDbLine
 62
7
  6
CONTINUOUS
 10
13.6907492231
 20
-43.4247351734
 11
12.4901463916
 21
-41.954303013
  0
LINE
  5
253
100
AcDbEntity
  8
0
100
AcDbLine
 62
7
  6
CONTINUOUS
 10
12.4901463916
 20
-41.8482369958
 11
13.8180339759
 21
-43.4745605045
  0
LINE
  5
254
100
AcDbEntity
  8
0
100
AcDbLine
 62
7
  6
CONTINUOUS
 10
13.9453187288
 20
-43.3122538013
 11
12.4901463916
 21
-41.5300389443
  0
LINE
  5
255
100
AcDbEntity
  8
0
100
AcDbLine
 62
7
  6
CONTINUOUS
 10
14.1150317326
 20
-43.2372662198
 11
12.4901463916
 21
-41.2471962318
  0
LINE
  5
256
100
AcDbEntity
  8
0
100
AcDbLine
 62
7
  6
CONTINUOUS
 10
12.4901463916
 20
-41.1411302147
 11
14.2423164855
 21
-43.2870915509
  0
LINE
  5
257
100
AcDbEntity
  8
0
100
AcDbLine
 62
7
  6
CONTINUOUS
 10
14.3696012383
 20
-43.1247848476
 11
12.4901463916
 21
-40.8229321631
  0
LINE
  5
258
100
AcDbEntity
  8
0
100
AcDbLine
 62
7
  6
CONTINUOUS
 10
14.5393142421
 20
-43.0497972662
 11
12.5038338532
 21
-40.556853099
  0
LINE
  5
259
100
AcDbEntity
  8
0
100
AcDbLine
 62
7
  6
CONTINUOUS
 10
12.6363567215
 20
-40.6130937851
 11
14.666598995
 21
-43.0996225973
  0
LINE
  5
25A
100
AcDbEntity
  8
0
100
AcDbLine
 62
7
  6
CONTINUOUS
 10
13.4014778582
 20
-40.6789804925
 11
15.4014778582
 21
-43.1284702353
  0
LINE
  5
25B
100
AcDbEntity
  8
0
100
AcDbLine
 62
7
  6
CONTINUOUS
 10
14.5393142421
 20
-37.605075051
 11
14.3696012383
 21
-37.6800626325
  0
LINE
  5
25C
100
AcDbEntity
  8
0
100
AcDbLine
 62
7
  6
CONTINUOUS
 10
14.1150317326
 20
-37.7925440047
 11
13.9453187288
 21
-37.8675315861
  0
LINE
  5
25D
100
AcDbEntity
  8
0
100
AcDbLine
 62
7
  6
CONTINUOUS
 10
13.6907492231
 20
-37.9800129583
 11
13.5210362193
 21
-38.0550005397
  0
LINE
  5
25E
100
AcDbEntity
  8
0
100
AcDbLine
 62
7
  6
CONTINUOUS
 10
13.2664667136
 20
-38.1674819119
 11
13.0967537098
 21
-38.2424694934
  0
LINE
  5
25F
100
AcDbEntity
  8
0
100
AcDbLine
 62
7
  6
CONTINUOUS
 10
12.842184204
 20
-38.3549508656
 11
12.6724712002
 21
-38.429938447
  0
LINE
  5
260
100
AcDbEntity
  8
0
100
AcDbLine
 62
7
  6
CONTINUOUS
 10
12.4901463916
 20
-37.6761543308
 11
15.4014778582
 21
-36.410955814
  0
LINE
  5
261
100
AcDbEntity
  8
0
100
AcDbLine
 62
253
  6
CONTINUOUS
 10
15.1514778582
 20
-35.96334824
 11
12.4901463916
 21
-37.0718399693
  0
LINE
  5
262
100
AcDbEntity
  8
0
100
AcDbLine
 62
7
  6
CONTINUOUS
 10
12.4901463916
 20
-37.1942020916
 11
15.1514778582
 21
-36.1047695962
  0
LINE
  5
263
100
AcDbEntity
  8
0
100
AcDbLine
 62
7
  6
CONTINUOUS
 10
12.5038338532
 20
-40.556853099
 11
12.4901463916
 21
-40.5619992471
  0
LINE
  5
264
100
AcDbEntity
  8
0
100
AcDbLine
 62
7
  6
CONTINUOUS
 10
13.4014778582
 20
-33.9614660713
 11
13.4989619204
 21
-34.0808591765
  0
LINE
  5
265
100
AcDbEntity
  8
0
100
AcDbLine
 62
7
  6
CONTINUOUS
 10
14.0514778582
 20
-34.7575502377
 11
14.5989619204
 21
-35.428078535
  0
LINE
  5
266
100
AcDbEntity
  8
0
100
AcDbLine
 62
7
  6
CONTINUOUS
 10
15.1514778582
 20
-36.1047695962
 11
15.4014778582
 21
-36.410955814
  0
LINE
  5
267
100
AcDbEntity
  8
RACCORDO
100
AcDbLine
 62
253
  6
CONTINUOUS
 10
10.9234955151
 20
-113.7287739821
 11
10.9234955151
 21
-28.8759602397
  0
LINE
  5
268
100
AcDbEntity
  8
0
100
AcDbLine
 62
7
  6
CONTINUOUS
 10
15.4014778582
 20
-36.7645092046
 11
14.666598995
 21
-37.4427683478
  0
LINE
  5
269
100
AcDbEntity
  8
0
100
AcDbLine
 62
7
  6
CONTINUOUS
 10
15.4014778582
 20
-43.4820236259
 11
12.4901463916
 21
-44.7895649769
  0
LINE
  5
26A
100
AcDbEntity
  8
0
100
AcDbLine
 62
7
  6
CONTINUOUS
 10
12.6724712002
 20
-43.8746606621
 11
12.842184204
 21
-43.7996730807
  0
LINE
  5
26B
100
AcDbEntity
  8
0
100
AcDbLine
 62
7
  6
CONTINUOUS
 10
13.0967537098
 20
-43.6871917085
 11
13.2664667136
 21
-43.6122041271
  0
LINE
  5
26C
100
AcDbEntity
  8
0
100
AcDbLine
 62
7
  6
CONTINUOUS
 10
13.5210362193
 20
-43.4997227549
 11
13.6907492231
 21
-43.4247351734
  0
LINE
  5
26D
100
AcDbEntity
  8
0
100
AcDbLine
 62
7
  6
CONTINUOUS
 10
13.9453187288
 20
-43.3122538013
 11
14.1150317326
 21
-43.2372662198
  0
LINE
  5
26E
100
AcDbEntity
  8
0
100
AcDbLine
 62
7
  6
CONTINUOUS
 10
14.3696012383
 20
-43.1247848476
 11
14.5393142421
 21
-43.0497972662
  0
LINE
  5
26F
100
AcDbEntity
  8
RACCORDO
100
AcDbLine
 62
253
  6
CONTINUOUS
 10
6.1823780936
 20
-16.3643484346
 11
-53.8176219064
 21
57.1203438489
  0
LINE
  5
270
100
AcDbEntity
  8
RACCORDO
100
AcDbLine
 62
253
  6
CONTINUOUS
 10
6.6002788701
 20
-15.8404031416
 11
-53.3997211299
 21
57.6442891419
  0
LINE
  5
271
100
AcDbEntity
  8
DRAFT
100
AcDbLine
 62
7
  6
CONTINUOUS
 10
-52.5185838008
 20
58.0291355447
 11
7.4814161992
 21
-15.4555567388
  0
LINE
  5
272
100
AcDbEntity
  8
RACCORDO
100
AcDbLine
 62
253
  6
CONTINUOUS
 10
11.5912439984
 20
-113.864166402
 11
11.5912439984
 21
-29.0113526596
  0
LINE
  5
273
100
AcDbEntity
  8
DRAFT
100
AcDbLine
 62
7
  6
CONTINUOUS
 10
12.4901463916
 20
-28.6733875224
 11
12.4901463916
 21
-113.5262012648
  0
LINE
  5
274
100
AcDbEntity
  8
0
100
AcDbLine
 62
7
  6
CONTINUOUS
 10
14.0514778582
 20
-34.6161288814
 11
14.0514778582
 21
-34.7575502377
  0
LINE
  5
275
100
AcDbEntity
  8
0
100
AcDbLine
 62
7
  6
CONTINUOUS
 10
14.0514778582
 20
-74.9212154091
 11
14.0514778582
 21
-75.0626367653
  0
LINE
  5
276
100
AcDbEntity
  8
0
100
AcDbLine
 62
7
  6
CONTINUOUS
 10
15.1514778582
 20
-35.96334824
 11
15.1514778582
 21
-36.1047695962
  0
LINE
  5
277
100
AcDbEntity
  8
0
100
AcDbLine
 62
7
  6
CONTINUOUS
 10
15.1514778582
 20
-76.2684347676
 11
15.1514778582
 21
-76.4098561238
  0
LINE
  5
278
100
AcDbEntity
  8
0
100
AcDbLine
 62
7
  6
CONTINUOUS
 10
15.4014778582
 20
-36.410955814
 11
15.4014778582
 21
-36.7645092046
  0
LINE
  5
279
100
AcDbEntity
  8
0
100
AcDbLine
 62
7
  6
CONTINUOUS
 10
15.4014778582
 20
-43.1284702353
 11
15.4014778582
 21
-43.4820236259
  0
LINE
  5
27A
100
AcDbEntity
  8
0
100
AcDbLine
 62
7
  6
CONTINUOUS
 10
15.4014778582
 20
-76.7160423417
 11
15.4014778582
 21
-77.0695957323
  0
LINE
  5
27B
100
AcDbEntity
  8
0
100
AcDbLine
 62
7
  6
CONTINUOUS
 10
15.4014778582
 20
-83.4335567629
 11
15.4014778582
 21
-83.7871101535
  0
LINE
  5
27C
100
AcDbEntity
  8
0
100
AcDbLine
 62
7
  6
CONTINUOUS
 10
12.5451864474
 20
-38.3801131159
 11
12.4901463916
 21
-38.4502972487
  0
LINE
  5
27D
100
AcDbEntity
  8
0
100
AcDbLine
 62
7
  6
CONTINUOUS
 10
12.9694689569
 20
-38.1926441623
 11
12.842184204
 21
-38.3549508656
  0
LINE
  5
27E
100
AcDbEntity
  8
0
100
AcDbLine
 62
7
  6
CONTINUOUS
 10
13.3937514664
 20
-38.0051752087
 11
13.2664667136
 21
-38.1674819119
  0
LINE
  5
27F
100
AcDbEntity
  8
0
100
AcDbLine
 62
7
  6
CONTINUOUS
 10
13.8180339759
 20
-37.817706255
 11
13.6907492231
 21
-37.9800129583
  0
LINE
  5
280
100
AcDbEntity
  8
0
100
AcDbLine
 62
7
  6
CONTINUOUS
 10
14.2423164855
 20
-37.6302373014
 11
14.1150317326
 21
-37.7925440047
  0
LINE
  5
281
100
AcDbEntity
  8
0
100
AcDbLine
 62
7
  6
CONTINUOUS
 10
14.666598995
 20
-37.4427683478
 11
14.5393142421
 21
-37.605075051
  0
LINE
  5
282
100
AcDbEntity
  8
0
100
AcDbLine
 62
7
  6
CONTINUOUS
 10
12.5451864474
 20
-44.0369673654
 11
12.6724712002
 21
-43.8746606621
  0
LINE
  5
283
100
AcDbEntity
  8
0
100
AcDbLine
 62
7
  6
CONTINUOUS
 10
12.9694689569
 20
-43.8494984118
 11
13.0967537098
 21
-43.6871917085
  0
LINE
  5
284
100
AcDbEntity
  8
0
100
AcDbLine
 62
7
  6
CONTINUOUS
 10
13.3937514664
 20
-43.6620294581
 11
13.5210362193
 21
-43.4997227549
  0
LINE
  5
285
100
AcDbEntity
  8
0
100
AcDbLine
 62
7
  6
CONTINUOUS
 10
13.8180339759
 20
-43.4745605045
 11
13.9453187288
 21
-43.3122538013
  0
LINE
  5
286
100
AcDbEntity
  8
0
100
AcDbLine
 62
7
  6
CONTINUOUS
 10
14.2423164855
 20
-43.2870915509
 11
14.3696012383
 21
-43.1247848476
  0
LINE
  5
287
100
AcDbEntity
  8
0
100
AcDbLine
 62
7
  6
CONTINUOUS
 10
12.5451864474
 20
-78.6851996436
 11
12.4901463916
 21
-78.7553837764
  0
LINE
  5
288
100
AcDbEntity
  8
0
100
AcDbLine
 62
7
  6
CONTINUOUS
 10
12.9694689569
 20
-78.4977306899
 11
12.842184204
 21
-78.6600373932
  0
LINE
  5
289
100
AcDbEntity
  8
0
100
AcDbLine
 62
7
  6
CONTINUOUS
 10
13.3937514664
 20
-78.3102617363
 11
13.2664667136
 21
-78.4725684396
  0
LINE
  5
28A
100
AcDbEntity
  8
0
100
AcDbLine
 62
253
  6
CONTINUOUS
 10
14.0514778582
 20
-74.9212154091
 11
12.4901463916
 21
-75.5715376403
  0
LINE
  5
28B
100
AcDbEntity
  8
0
100
AcDbLine
 62
253
  6
CONTINUOUS
 10
15.1514778582
 20
-76.2684347676
 11
12.4901463916
 21
-77.376926497
  0
LINE
  5
28C
100
AcDbEntity
  8
0
100
AcDbLine
 62
7
  6
CONTINUOUS
 10
12.4901463916
 20
-75.7017774575
 11
14.0514778582
 21
-75.0626367653
  0
LINE
  5
28D
100
AcDbEntity
  8
0
100
AcDbLine
 62
7
  6
CONTINUOUS
 10
12.4901463916
 20
-77.4992886192
 11
15.1514778582
 21
-76.4098561238
  0
LINE
  5
28E
100
AcDbEntity
  8
0
100
AcDbLine
 62
7
  6
CONTINUOUS
 10
12.4901463916
 20
-74.7868542545
 11
13.7007247594
 21
-74.3057641001
  0
LINE
  5
28F
100
AcDbEntity
  8
0
100
AcDbLine
 62
7
  6
CONTINUOUS
 10
12.4901463916
 20
-76.5712193476
 11
14.8007247594
 21
-75.6529834586
  0
LINE
  5
290
100
AcDbEntity
  8
0
100
AcDbLine
 62
7
  6
CONTINUOUS
 10
13.4014778582
 20
-74.2665525989
 11
12.4901463916
 21
-74.6028254419
  0
LINE
  5
291
100
AcDbEntity
  8
0
100
AcDbLine
 62
7
  6
CONTINUOUS
 10
13.8180339759
 20
-78.1227927827
 11
13.6907492231
 21
-78.2850994859
  0
LINE
  5
292
100
AcDbEntity
  8
0
100
AcDbLine
 62
7
  6
CONTINUOUS
 10
14.2423164855
 20
-77.935323829
 11
14.1150317326
 21
-78.0976305323
  0
LINE
  5
293
100
AcDbEntity
  8
0
100
AcDbLine
 62
7
  6
CONTINUOUS
 10
14.666598995
 20
-77.7478548754
 11
14.5393142421
 21
-77.9101615787
  0
LINE
  5
294
100
AcDbEntity
  8
0
100
AcDbLine
 62
7
  6
CONTINUOUS
 10
12.5451864474
 20
-84.342053893
 11
12.6724712002
 21
-84.1797471898
  0
LINE
  5
295
100
AcDbEntity
  8
0
100
AcDbLine
 62
7
  6
CONTINUOUS
 10
12.9694689569
 20
-84.1545849394
 11
13.0967537098
 21
-83.9922782361
  0
LINE
  5
296
100
AcDbEntity
  8
0
100
AcDbLine
 62
7
  6
CONTINUOUS
 10
13.3937514664
 20
-83.9671159858
 11
13.5210362193
 21
-83.8048092825
  0
LINE
  5
297
100
AcDbEntity
  8
0
100
AcDbLine
 62
7
  6
CONTINUOUS
 10
13.8180339759
 20
-83.7796470322
 11
13.9453187288
 21
-83.6173403289
  0
LINE
  5
298
100
AcDbEntity
  8
0
100
AcDbLine
 62
7
  6
CONTINUOUS
 10
14.2423164855
 20
-83.5921780785
 11
14.3696012383
 21
-83.4298713753
  0
LINE
  5
299
100
AcDbEntity
  8
0
100
AcDbLine
 62
7
  6
CONTINUOUS
 10
15.4014778582
 20
-77.0695957323
 11
14.666598995
 21
-77.7478548754
  0
LINE
  5
29A
100
AcDbEntity
  8
0
100
AcDbLine
 62
7
  6
CONTINUOUS
 10
14.5393142421
 20
-77.9101615787
 11
14.3696012383
 21
-77.9851491601
  0
LINE
  5
29B
100
AcDbEntity
  8
0
100
AcDbLine
 62
7
  6
CONTINUOUS
 10
14.1150317326
 20
-78.0976305323
 11
13.9453187288
 21
-78.1726181137
  0
LINE
  5
29C
100
AcDbEntity
  8
0
100
AcDbLine
 62
7
  6
CONTINUOUS
 10
13.6907492231
 20
-78.2850994859
 11
13.5210362193
 21
-78.3600870674
  0
LINE
  5
29D
100
AcDbEntity
  8
0
100
AcDbLine
 62
7
  6
CONTINUOUS
 10
13.2664667136
 20
-78.4725684396
 11
13.0967537098
 21
-78.547556021
  0
LINE
  5
29E
100
AcDbEntity
  8
0
100
AcDbLine
 62
7
  6
CONTINUOUS
 10
12.842184204
 20
-78.6600373932
 11
12.6724712002
 21
-78.7350249746
  0
LINE
  5
29F
100
AcDbEntity
  8
0
100
AcDbLine
 62
7
  6
CONTINUOUS
 10
12.6724712002
 20
-84.1797471898
 11
12.842184204
 21
-84.1047596083
  0
LINE
  5
2A0
100
AcDbEntity
  8
0
100
AcDbLine
 62
7
  6
CONTINUOUS
 10
13.0967537098
 20
-83.9922782361
 11
13.2664667136
 21
-83.9172906547
  0
LINE
  5
2A1
100
AcDbEntity
  8
0
100
AcDbLine
 62
7
  6
CONTINUOUS
 10
13.5210362193
 20
-83.8048092825
 11
13.6907492231
 21
-83.7298217011
  0
LINE
  5
2A2
100
AcDbEntity
  8
0
100
AcDbLine
 62
7
  6
CONTINUOUS
 10
13.9453187288
 20
-83.6173403289
 11
14.1150317326
 21
-83.5423527474
  0
LINE
  5
2A3
100
AcDbEntity
  8
0
100
AcDbLine
 62
7
  6
CONTINUOUS
 10
14.3696012383
 20
-83.4298713753
 11
14.5393142421
 21
-83.3548837938
  0
LINE
  5
2A4
100
AcDbEntity
  8
0
100
AcDbLine
 62
7
  6
CONTINUOUS
 10
12.4901463916
 20
-77.9812408585
 11
15.4014778582
 21
-76.7160423417
  0
LINE
  5
2A5
100
AcDbEntity
  8
0
100
AcDbLine
 62
7
  6
CONTINUOUS
 10
12.5038338532
 20
-80.8619396266
 11
12.4901463916
 21
-80.8670857747
  0
LINE
  5
2A6
100
AcDbEntity
  8
0
100
AcDbLine
 62
7
  6
CONTINUOUS
 10
15.4014778582
 20
-83.7871101535
 11
12.4901463916
 21
-85.0946515045
  0
LINE
  5
2A7
100
AcDbEntity
  8
RACCORDO
100
AcDbLine
 62
253
  6
CONTINUOUS
 10
11.5912439984
 20
-113.864166402
 11
12.4901463916
 21
-113.5262012648
  0
LINE
  5
2A8
100
AcDbEntity
  8
DRAFT
100
AcDbLine
 62
7
  6
CONTINUOUS
 10
11.2240518396
 20
-116.6830113981
 11
10.3296400557
 21
-117.0097798982
  0
ARC
  5
2A9
100
AcDbEntity
  8
RACCORDO
100
AcDbCircle
 62
7
  6
CONTINUOUS
 10
-42.9467181048
 20
-32.4436258111
 40
13.9749243397
100
AcDbArc
 50
218.6697276891
 51
219.2298376723
  0
ARC
  5
2AA
100
AcDbEntity
  8
RACCORDO
100
AcDbCircle
 62
253
  6
CONTINUOUS
 10
16.2696086147
 20
-106.3911508833
 40
13.0223860604
100
AcDbArc
 50
219.2305906921
 51
219.8346003757
  0
SPLINE
  5
2AB
100
AcDbEntity
  8
0
100
AcDbSpline
 62
7
  6
CONTINUOUS
 70
0
 71
3
 72
15
 73
11
 74
9
 42
0.0000001
 43
0.0000001
 44
0.0000000001
 12
0.6985927123
 22
0.2776522046
 32
0.0
 13
0.0
 23
-0.7517463166
 33
0.0
 40
0.0
 40
0.0
 40
0.0
 40
0.0
 40
0.1436677076
 40
0.1992084671
 40
0.261986178
 40
0.4051222141
 40
0.5628610341
 40
0.72281334
 40
0.8722733168
 40
1.0
 40
1.0
 40
1.0
 40
1.0
 10
13.7007306728
 20
-74.305761878
 30
0.0
 10
13.734185744
 20
-74.2924653261
 30
0.0
 10
13.789042373
 20
-74.3269234589
 30
0.0
 10
13.8337602659
 20
-74.3718730655
 30
0.0
 10
13.8760824461
 20
-74.4227748514
 30
0.0
 10
13.9252776573
 20
-74.4994586107
 30
0.0
 10
13.9764973037
 20
-74.6032918699
 30
0.0
 10
14.0170958199
 20
-74.713312169
 30
0.0
 10
14.043669889
 20
-74.8197797664
 30
0.0
 10
14.0514778582
 20
-74.8892093879
 30
0.0
 10
14.0514778582
 20
-74.9212154091
 30
0.0
 11
13.7007306728
 21
-74.305761878
 31
0.0
 11
13.8024635198
 21
-74.3420218913
 31
0.0
 11
13.8322951582
 21
-74.3712340418
 31
0.0
 11
13.8625657406
 21
-74.407439882
 31
0.0
 11
13.9216588148
 21
-74.4973631626
 31
0.0
 11
13.9743527605
 21
-74.6035915211
 31
0.0
 11
14.015848212
 21
-74.7164482464
 31
0.0
 11
14.0423620694
 21
-74.8256310435
 31
0.0
 11
14.0514778582
 21
-74.9212154091
 31
0.0
  0
SPLINE
  5
2AC
100
AcDbEntity
  8
0
100
AcDbSpline
 62
7
  6
CONTINUOUS
 70
0
 71
3
 72
15
 73
11
 74
9
 42
0.0000001
 43
0.0000001
 44
0.0000000001
 12
0.6985927123
 22
0.2776522046
 32
0.0
 13
0.0
 23
-0.7517463166
 33
0.0
 40
0.0
 40
0.0
 40
0.0
 40
0.0
 40
0.1436677076
 40
0.1992084671
 40
0.261986178
 40
0.4051222141
 40
0.5628610341
 40
0.72281334
 40
0.8722733168
 40
1.0
 40
1.0
 40
1.0
 40
1.0
 10
14.8007306728
 20
-75.6529812366
 30
0.0
 10
14.834185744
 20
-75.6396846846
 30
0.0
 10
14.889042373
 20
-75.6741428175
 30
0.0
 10
14.9337602659
 20
-75.719092424
 30
0.0
 10
14.9760824461
 20
-75.7699942099
 30
0.0
 10
15.0252776573
 20
-75.8466779692
 30
0.0
 10
15.0764973037
 20
-75.9505112285
 30
0.0
 10
15.1170958199
 20
-76.0605315275
 30
0.0
 10
15.143669889
 20
-76.1669991249
 30
0.0
 10
15.1514778582
 20
-76.2364287464
 30
0.0
 10
15.1514778582
 20
-76.2684347676
 30
0.0
 11
14.8007306728
 21
-75.6529812366
 31
0.0
 11
14.9024635198
 21
-75.6892412499
 31
0.0
 11
14.9322951582
 21
-75.7184534003
 31
0.0
 11
14.9625657406
 21
-75.7546592405
 31
0.0
 11
15.0216588148
 21
-75.8445825211
 31
0.0
 11
15.0743527605
 21
-75.9508108796
 31
0.0
 11
15.115848212
 21
-76.0636676049
 31
0.0
 11
15.1423620694
 21
-76.1728504021
 31
0.0
 11
15.1514778582
 21
-76.2684347676
 31
0.0
  0
SPLINE
  5
2AD
100
AcDbEntity
  8
0
100
AcDbSpline
 62
7
  6
CONTINUOUS
 70
0
 71
3
 72
15
 73
11
 74
9
 42
0.0000001
 43
0.0000001
 44
0.0000000001
 12
0.6985927123
 22
0.2776522046
 32
0.0
 13
0.0
 23
-0.7517463166
 33
0.0
 40
0.0
 40
0.0
 40
0.0
 40
0.0
 40
0.1436677076
 40
0.1992084671
 40
0.261986178
 40
0.4051222141
 40
0.5628610341
 40
0.72281334
 40
0.8722733168
 40
1.0
 40
1.0
 40
1.0
 40
1.0
 10
13.7007306728
 20
-34.0006753504
 30
0.0
 10
13.734185744
 20
-33.9873787985
 30
0.0
 10
13.789042373
 20
-34.0218369313
 30
0.0
 10
13.8337602659
 20
-34.0667865379
 30
0.0
 10
13.8760824461
 20
-34.1176883237
 30
0.0
 10
13.9252776573
 20
-34.1943720831
 30
0.0
 10
13.9764973037
 20
-34.2982053423
 30
0.0
 10
14.0170958199
 20
-34.4082256414
 30
0.0
 10
14.043669889
 20
-34.5146932387
 30
0.0
 10
14.0514778582
 20
-34.5841228602
 30
0.0
 10
14.0514778582
 20
-34.6161288814
 30
0.0
 11
13.7007306728
 21
-34.0006753504
 31
0.0
 11
13.8024635198
 21
-34.0369353637
 31
0.0
 11
13.8322951582
 21
-34.0661475141
 31
0.0
 11
13.8625657406
 21
-34.1023533544
 31
0.0
 11
13.9216588148
 21
-34.1922766349
 31
0.0
 11
13.9743527605
 21
-34.2985049934
 31
0.0
 11
14.015848212
 21
-34.4113617187
 31
0.0
 11
14.0423620694
 21
-34.5205445159
 31
0.0
 11
14.0514778582
 21
-34.6161288814
 31
0.0
  0
SPLINE
  5
2AE
100
AcDbEntity
  8
0
100
AcDbSpline
 62
7
  6
CONTINUOUS
 70
0
 71
3
 72
15
 73
11
 74
9
 42
0.0000001
 43
0.0000001
 44
0.0000000001
 12
0.6985927123
 22
0.2776522046
 32
0.0
 13
0.0
 23
-0.7517463166
 33
0.0
 40
0.0
 40
0.0
 40
0.0
 40
0.0
 40
0.1436677076
 40
0.1992084671
 40
0.261986178
 40
0.4051222141
 40
0.5628610341
 40
0.72281334
 40
0.8722733168
 40
1.0
 40
1.0
 40
1.0
 40
1.0
 10
14.8007306728
 20
-35.3478947089
 30
0.0
 10
14.834185744
 20
-35.334598157
 30
0.0
 10
14.889042373
 20
-35.3690562898
 30
0.0
 10
14.9337602659
 20
-35.4140058964
 30
0.0
 10
14.9760824461
 20
-35.4649076823
 30
0.0
 10
15.0252776573
 20
-35.5415914416
 30
0.0
 10
15.0764973037
 20
-35.6454247008
 30
0.0
 10
15.1170958199
 20
-35.7554449999
 30
0.0
 10
15.143669889
 20
-35.8619125973
 30
0.0
 10
15.1514778582
 20
-35.9313422188
 30
0.0
 10
15.1514778582
 20
-35.96334824
 30
0.0
 11
14.8007306728
 21
-35.3478947089
 31
0.0
 11
14.9024635198
 21
-35.3841547222
 31
0.0
 11
14.9322951582
 21
-35.4133668727
 31
0.0
 11
14.9625657406
 21
-35.4495727129
 31
0.0
 11
15.0216588148
 21
-35.5394959935
 31
0.0
 11
15.0743527605
 21
-35.645724352
 31
0.0
 11
15.115848212
 21
-35.7585810773
 31
0.0
 11
15.1423620694
 21
-35.8677638744
 31
0.0
 11
15.1514778582
 21
-35.96334824
 31
0.0
  0
SPLINE
  5
2AF
100
AcDbEntity
  8
RACCORDO
100
AcDbSpline
 62
7
  6
CONTINUOUS
 70
0
 71
3
 72
16
 73
12
 74
10
 42
0.0000001
 43
0.0000001
 44
0.0000000001
 12
3.1311745672
 22
-3.8348899926
 32
0.0
 13
4.6501931644
 23
1.698922882
 33
0.0
 40
0.0
 40
0.0
 40
0.0
 40
0.0
 40
0.162422748
 40
0.3126780955
 40
0.4505087361
 40
0.5763671414
 40
0.6915938034
 40
0.7985247343
 40
0.9003000773
 40
0.950168913
 40
1.0
 40
1.0
 40
1.0
 40
1.0
 10
6.2280924608
 20
-114.7665183645
 30
0.0
 10
6.3976171201
 20
-114.9741428215
 30
0.0
 10
6.7356888114
 20
-115.3645292792
 30
0.0
 10
7.2611897144
 20
-115.8914390354
 30
0.0
 10
7.783545864
 20
-116.3332106646
 30
0.0
 10
8.3017873991
 20
-116.6856610352
 30
0.0
 10
8.8174048942
 20
-116.9435232732
 30
0.0
 10
9.3324685877
 20
-117.0983153134
 30
0.0
 10
9.7630493425
 20
-117.1277737894
 30
0.0
 10
10.0934743903
 20
-117.0832289149
 30
0.0
 10
10.2523986624
 20
-117.0379996229
 30
0.0
 10
10.3296400557
 20
-117.0097798982
 30
0.0
 11
6.2280924608
 21
-114.7665183645
 31
0.0
 11
6.7560368626
 21
-115.3730605607
 31
0.0
 11
7.2831619385
 21
-115.8979488043
 31
0.0
 11
7.8062756714
 21
-116.3361126564
 31
0.0
 11
8.3238118071
 21
-116.6831185672
 31
0.0
 11
8.8361766937
 21
-116.9339460592
 31
0.0
 11
9.3447846269
 21
-117.0808408024
 31
0.0
 11
9.8477645537
 21
-117.1108034151
 31
0.0
 11
10.0923888362
 21
-117.0774196072
 31
0.0
 11
10.3296400557
 21
-117.0097798982
 31
0.0
  0
SPLINE
  5
2B0
100
AcDbEntity
  8
RACCORDO
100
AcDbSpline
 62
7
  6
CONTINUOUS
 70
0
 71
3
 72
16
 73
12
 74
10
 42
0.0000001
 43
0.0000001
 44
0.0000000001
 12
0.0
 22
-13.7870849147
 32
0.0
 13
8.6149029289
 23
-10.7641608112
 33
0.0
 40
0.0
 40
0.0
 40
0.0
 40
0.0
 40
0.0511876154
 40
0.1058425491
 40
0.2243636053
 40
0.3526459172
 40
0.4869206908
 40
0.6229924124
 40
0.7565450073
 40
0.8834327224
 40
1.0
 40
1.0
 40
1.0
 40
1.0
 10
-58.6257266261
 20
-28.4539865099
 30
0.0
 10
-58.6257266261
 20
-28.6892291767
 30
0.0
 10
-58.6086658465
 20
-29.1757425523
 30
0.0
 10
-58.5126558786
 20
-30.2028003019
 30
0.0
 10
-58.2767165062
 20
-31.5702130835
 30
0.0
 10
-57.8385390099
 20
-33.2674437199
 30
0.0
 10
-57.2529869575
 20
-35.0049354231
 30
0.0
 10
-56.5411045792
 20
-36.720715357
 30
0.0
 10
-55.7283234636
 20
-38.3534112362
 30
0.0
 10
-54.8435123166
 20
-39.844875828
 30
0.0
 10
-54.192527658
 20
-40.757331325
 30
0.0
 10
-53.8577890641
 20
-41.1755809657
 30
0.0
 11
-58.6257266261
 21
-28.4539865099
 31
0.0
 11
-58.6026217151
 21
-29.1593361917
 31
0.0
 11
-58.5338665641
 21
-29.909725106
 31
0.0
 11
-58.2634577777
 21
-31.5212556624
 31
0.0
 11
-57.8254303584
 21
-33.2347947907
 31
0.0
 11
-57.2360453524
 21
-34.9897251041
 31
0.0
 11
-56.5169351023
 21
-36.7224622281
 31
0.0
 11
-55.6943143419
 21
-38.3697886486
 31
0.0
 11
-54.7976646492
 21
-39.8719406481
 31
0.0
 11
-53.8577890641
 21
-41.1755809657
 31
0.0
  0
SPLINE
  5
2B1
100
AcDbEntity
  8
RACCORDO
100
AcDbSpline
 62
7
  6
CONTINUOUS
 70
0
 71
3
 72
15
 73
11
 74
9
 42
0.0000001
 43
0.0000001
 44
0.0000000001
 12
-3.5415162211
 22
-1.6024656774
 32
0.0
 13
0.0
 23
-3.8871883659
 33
0.0
 40
0.0
 40
0.0
 40
0.0
 40
0.0
 40
0.1054640085
 40
0.212533994
 40
0.3232168717
 40
0.4398732921
 40
0.5646439147
 40
0.6990463054
 40
0.8440663604
 40
1.0
 40
1.0
 40
1.0
 40
1.0
 10
-57.2153326769
 20
59.809059446
 30
0.0
 10
-57.3398335093
 20
59.7527252947
 30
0.0
 10
-57.5776204015
 20
59.6077061194
 30
0.0
 10
-57.8780338619
 20
59.3115102792
 30
0.0
 10
-58.1217935294
 20
58.9503820015
 30
0.0
 10
-58.3126925218
 20
58.5342255041
 30
0.0
 10
-58.4560360765
 20
58.067644439
 30
0.0
 10
-58.5556887118
 20
57.5526622609
 30
0.0
 10
-58.6139609537
 20
56.9909952172
 30
0.0
 10
-58.6257266261
 20
56.6008750424
 30
0.0
 10
-58.6257266261
 20
56.3988272325
 30
0.0
 11
-57.2153326769
 21
59.809059446
 31
0.0
 11
-57.5659132238
 21
59.5965524464
 31
0.0
 11
-57.8641190087
 21
59.3062134199
 31
0.0
 11
-58.1073747952
 21
58.9513366107
 31
0.0
 11
-58.2992321325
 21
58.5404574266
 31
0.0
 11
-58.4442619217
 21
58.0776420581
 31
0.0
 11
-58.5457853291
 21
57.565153723
 31
0.0
 11
-58.6058786423
 21
57.004645617
 31
0.0
 11
-58.6257266261
 21
56.3988272325
 31
0.0
  0
SPLINE
  5
2B2
100
AcDbEntity
  8
DRAFT
100
AcDbSpline
 62
7
  6
CONTINUOUS
 70
0
 71
3
 72
16
 73
12
 74
10
 42
0.0000001
 43
0.0000001
 44
0.0000000001
 12
4.255573905
 22
1.9257231012
 32
0.0
 13
2.954205052
 23
-3.6181474865
 33
0.0
 40
0.0
 40
0.0
 40
0.0
 40
0.0
 40
0.0412658666
 40
0.083171667
 40
0.171823278
 40
0.271382982
 40
0.3851370779
 40
0.5147521332
 40
0.6607311528
 40
0.8227743618
 40
1.0
 40
1.0
 40
1.0
 40
1.0
 10
-56.3478478362
 20
60.2015765997
 30
0.0
 10
-56.2893111878
 20
60.2280654773
 30
0.0
 10
-56.1669812617
 20
60.2723913307
 30
0.0
 10
-55.9036202418
 20
60.3243029639
 30
0.0
 10
-55.5406704501
 20
60.3137723984
 30
0.0
 10
-55.0843455462
 20
60.1878203778
 30
0.0
 10
-54.6017923337
 20
59.9540747619
 30
0.0
 10
-54.0969048203
 20
59.6158747363
 30
0.0
 10
-53.5742238152
 20
59.1770690354
 30
0.0
 10
-53.0393183177
 20
58.6424352255
 30
0.0
 10
-52.6931040926
 20
58.2428783772
 30
0.0
 10
-52.5185838008
 20
58.0291355447
 30
0.0
 11
-56.3478478362
 21
60.2015765997
 31
0.0
 11
-56.1666544966
 21
60.2673243921
 31
0.0
 11
-55.9746710775
 21
60.3055007116
 31
0.0
 11
-55.5606334453
 21
60.2987653532
 31
0.0
 11
-55.1106298748
 21
60.1814499674
 31
0.0
 11
-54.6299812148
 21
59.9549421601
 31
0.0
 11
-54.1243686368
 21
59.6219180768
 31
0.0
 11
-53.599773816
 21
59.1863197519
 31
0.0
 11
-53.062390288
 21
58.6532865527
 31
0.0
 11
-52.5185838008
 21
58.0291355447
 31
0.0
  0
SPLINE
  5
2B3
100
AcDbEntity
  8
DRAFT
100
AcDbSpline
 62
7
  6
CONTINUOUS
 70
0
 71
3
 72
15
 73
11
 74
9
 42
0.0000001
 43
0.0000001
 44
0.0000000001
 12
0.0
 22
-3.595086301
 32
0.0
 13
-3.3767776018
 23
-1.2337011549
 33
0.0
 40
0.0
 40
0.0
 40
0.0
 40
0.0
 40
0.1718350375
 40
0.329039864
 40
0.4713828081
 40
0.599195338
 40
0.7134618427
 40
0.8161012993
 40
0.9101901271
 40
1.0
 40
1.0
 40
1.0
 40
1.0
 10
12.4901463916
 20
-113.5262012648
 30
0.0
 10
12.4901463916
 20
-113.7321218612
 30
0.0
 10
12.4780891426
 20
-114.1266100048
 30
0.0
 10
12.4184227633
 20
-114.6889547904
 30
0.0
 10
12.3183379995
 20
-115.1920820624
 30
0.0
 10
12.1784052035
 20
-115.6322268143
 30
0.0
 10
11.9990913886
 20
-116.0062064641
 30
0.0
 10
11.7805063424
 20
-116.3110012305
 30
0.0
 10
11.5230642945
 20
-116.54275049
 30
0.0
 10
11.3251479204
 20
-116.6460716663
 30
0.0
 10
11.224058598
 20
-116.6830045143
 30
0.0
 11
12.4901463916
 21
-113.5262012648
 31
0.0
 11
12.4694826027
 21
-114.1436173611
 31
0.0
 11
12.4076630592
 21
-114.7053910958
 31
0.0
 11
12.3051989964
 21
-115.2067632115
 31
0.0
 11
12.1629358798
 21
-115.6436828471
 31
0.0
 11
11.9820465415
 21
-116.0125107194
 31
0.0
 11
11.7640220923
 21
-116.3102096366
 31
0.0
 11
11.5106622321
 21
-116.5343231966
 31
0.0
 11
11.224058598
 21
-116.6830045143
 31
0.0
  0
SPLINE
  5
2B4
100
AcDbEntity
  8
DRAFT
100
AcDbSpline
 62
7
  6
CONTINUOUS
 70
0
 71
3
 72
17
 73
13
 74
11
 42
0.0000001
 43
0.0000001
 44
0.0000000001
 12
9.0746907753
 22
-11.1141809865
 32
0.0
 13
0.0
 23
-14.3483459558
 33
0.0
 40
0.0
 40
0.0
 40
0.0
 40
0.0
 40
0.1151839655
 40
0.2417385239
 40
0.3756452032
 40
0.5124666934
 40
0.6476085446
 40
0.7765665126
 40
0.8374207866
 40
0.8952120597
 40
0.9495258357
 40
1.0
 40
1.0
 40
1.0
 40
1.0
 10
7.4814161992
 20
-15.4555567388
 30
0.0
 10
7.8298358225
 20
-15.8822818854
 30
0.0
 10
8.5095896582
 20
-16.8202896583
 30
0.0
 10
9.4355706714
 20
-18.3618622314
 30
0.0
 10
10.2903696686
 20
-20.0607243804
 30
0.0
 10
11.0412013981
 20
-21.8524826397
 30
0.0
 10
11.6594837533
 20
-23.6691693712
 30
0.0
 10
12.0525439881
 20
-25.1746492624
 30
0.0
 10
12.2784402546
 20
-26.3374796877
 30
0.0
 10
12.3987530149
 20
-27.156254156
 30
0.0
 10
12.4721820376
 20
-27.9307137996
 30
0.0
 10
12.4901463916
 20
-28.4319805986
 30
0.0
 10
12.4901463916
 20
-28.6733875224
 30
0.0
 11
7.4814161992
 21
-15.4555567388
 31
0.0
 11
8.4585774945
 21
-16.7884374778
 31
0.0
 11
9.3981743639
 21
-18.3422919775
 31
0.0
 11
10.2641169531
 21
-20.0574270665
 31
0.0
 11
11.0231232834
 21
-21.867928302
 31
0.0
 11
11.6460222207
 21
-23.7042176271
 31
0.0
 11
12.1088775923
 21
-25.4957251236
 31
0.0
 11
12.274470393
 21
-26.353037334
 31
0.0
 11
12.3939038878
 21
-27.1736002531
 31
0.0
 11
12.4660275867
 21
-27.9495684779
 31
0.0
 11
12.4901463916
 21
-28.6733875224
 31
0.0
  0
SPLINE
  5
2B5
100
AcDbEntity
  8
RACCORDO
100
AcDbSpline
 62
253
  6
CONTINUOUS
 70
0
 71
3
 72
15
 73
11
 74
9
 42
0.0000001
 43
0.0000001
 44
0.0000000001
 12
3.364817675
 22
1.2293047363
 32
0.0
 13
-0.0
 23
3.5823439423
 33
0.0
 40
0.0
 40
0.0
 40
0.0
 40
0.0
 40
0.0898099142
 40
0.1838986874
 40
0.2865380504
 40
0.4008044705
 40
0.5286169558
 40
0.6709599131
 40
0.828164818
 40
1.0
 40
1.0
 40
1.0
 40
1.0
 10
10.3296385124
 20
-117.0097760631
 30
0.0
 10
10.4303698414
 20
-116.9729748121
 30
0.0
 10
10.6275854267
 20
-116.87002117
 30
0.0
 10
10.884116141
 20
-116.6390947115
 30
0.0
 10
11.1019273929
 20
-116.3353812399
 30
0.0
 10
11.2806064198
 20
-115.9627277564
 30
0.0
 10
11.4200438363
 20
-115.5241433662
 30
0.0
 10
11.5197742864
 20
-115.0227993877
 30
0.0
 10
11.5792294382
 20
-114.4624475045
 30
0.0
 10
11.5912439984
 20
-114.0693573097
 30
0.0
 10
11.5912439984
 20
-113.864166402
 30
0.0
 11
10.3296385124
 21
-117.0097760631
 31
0.0
 11
10.6152274186
 21
-116.861623537
 31
0.0
 11
10.8676902866
 21
-116.6383057606
 31
0.0
 11
11.0849428701
 21
-116.3416630737
 31
0.0
 11
11.265191829
 21
-115.9741431793
 31
0.0
 11
11.4069513206
 21
-115.5387725204
 31
0.0
 11
11.5090526566
 21
-115.0391775017
 31
0.0
 11
11.570653359
 21
-114.4793946549
 31
0.0
 11
11.5912439984
 21
-113.864166402
 31
0.0
  0
SPLINE
  5
2B6
100
AcDbEntity
  8
RACCORDO
100
AcDbSpline
 62
253
  6
CONTINUOUS
 70
0
 71
3
 72
11
 73
7
 74
5
 42
0.0000001
 43
0.0000001
 44
0.0000000001
 12
0.4520933576
 22
-0.5536990211
 32
0.0
 13
0.6690942377
 23
0.2515629367
 33
0.0
 40
0.0
 40
0.0
 40
0.0
 40
0.0
 40
0.4717895586
 40
0.6047563955
 40
0.7388280484
 40
1.0
 40
1.0
 40
1.0
 40
1.0
 10
10.9234955151
 20
-113.7287739821
 30
0.0
 10
10.994593157
 20
-113.8158504543
 30
0.0
 10
11.1390390845
 20
-113.884072769
 30
0.0
 10
11.3129452108
 20
-113.9063112337
 30
0.0
 10
11.4392460754
 20
-113.9056529742
 30
0.0
 10
11.5329944491
 20
-113.8860667963
 30
0.0
 10
11.5912439984
 20
-113.864166402
 30
0.0
 11
10.9234955151
 21
-113.7287739821
 31
0.0
 11
11.2186901259
 21
-113.8918531717
 31
0.0
 11
11.3129321037
 21
-113.9042026215
 31
0.0
 11
11.4087677139
 21
-113.9036143548
 31
0.0
 11
11.5912439984
 21
-113.864166402
 31
0.0
  0
SPLINE
  5
2B7
100
AcDbEntity
  8
RACCORDO
100
AcDbSpline
 62
253
  6
CONTINUOUS
 70
0
 71
3
 72
11
 73
7
 74
5
 42
0.0000001
 43
0.0000001
 44
0.0000000001
 12
0.4520933576
 22
-0.5536990211
 32
0.0
 13
0.6690942377
 23
0.2515629367
 33
0.0
 40
0.0
 40
0.0
 40
0.0
 40
0.0
 40
0.4717895586
 40
0.6047563955
 40
0.7388280484
 40
1.0
 40
1.0
 40
1.0
 40
1.0
 10
10.9234955151
 20
-28.8759602397
 30
0.0
 10
10.994593157
 20
-28.963036712
 30
0.0
 10
11.1390390845
 20
-29.0312590266
 30
0.0
 10
11.3129452108
 20
-29.0534974913
 30
0.0
 10
11.4392460754
 20
-29.0528392318
 30
0.0
 10
11.5329944491
 20
-29.033253054
 30
0.0
 10
11.5912439984
 20
-29.0113526596
 30
0.0
 11
10.9234955151
 21
-28.8759602397
 31
0.0
 11
11.2186901259
 21
-29.0390394293
 31
0.0
 11
11.3129321037
 21
-29.0513888791
 31
0.0
 11
11.4087677139
 21
-29.0508006124
 31
0.0
 11
11.5912439984
 21
-29.0113526596
 31
0.0
  0
SPLINE
  5
2B8
100
AcDbEntity
  8
RACCORDO
100
AcDbSpline
 62
253
  6
CONTINUOUS
 70
0
 71
3
 72
11
 73
7
 74
5
 42
0.0000001
 43
0.0000001
 44
0.0000000001
 12
-0.0
 22
0.7005584245
 32
0.0
 13
0.6419958392
 23
0.2803987315
 33
0.0
 40
0.0
 40
0.0
 40
0.0
 40
0.0
 40
0.2122605997
 40
0.4618278176
 40
0.7323496186
 40
1.0
 40
1.0
 40
1.0
 40
1.0
 10
6.1823780936
 20
-16.3643484346
 30
0.0
 10
6.1823780936
 20
-16.3147814509
 30
0.0
 10
6.2096757255
 20
-16.2070786371
 30
0.0
 10
6.301301664
 20
-16.0606859002
 30
0.0
 10
6.4342523169
 20
-15.9312514852
 30
0.0
 10
6.5430020597
 20
-15.8654194174
 30
0.0
 10
6.6002788701
 20
-15.8404031416
 30
0.0
 11
6.1823780936
 21
-16.3643484346
 31
0.0
 11
6.2139098155
 21
-16.2190290504
 31
0.0
 11
6.303908851
 21
-16.0691359341
 31
0.0
 11
6.4392648178
 21
-15.936489033
 31
0.0
 11
6.6002788701
 21
-15.8404031416
 31
0.0
  0
SPLINE
  5
2B9
100
AcDbEntity
  8
RACCORDO
100
AcDbSpline
 62
253
  6
CONTINUOUS
 70
0
 71
3
 72
11
 73
7
 74
5
 42
0.0000001
 43
0.0000001
 44
0.0000000001
 12
0.0
 22
0.7005584245
 32
0.0
 13
0.6419958392
 23
0.2803987315
 33
0.0
 40
0.0
 40
0.0
 40
0.0
 40
0.0
 40
0.2122605997
 40
0.4618278176
 40
0.7323496186
 40
1.0
 40
1.0
 40
1.0
 40
1.0
 10
-53.8176219064
 20
57.1203438489
 30
0.0
 10
-53.8176219064
 20
57.1699108326
 30
0.0
 10
-53.7903242745
 20
57.2776136464
 30
0.0
 10
-53.698698336
 20
57.4240063833
 30
0.0
 10
-53.5657476831
 20
57.5534407983
 30
0.0
 10
-53.4569979403
 20
57.6192728661
 30
0.0
 10
-53.3997211299
 20
57.6442891419
 30
0.0
 11
-53.8176219064
 21
57.1203438489
 31
0.0
 11
-53.7860901845
 21
57.2656632331
 31
0.0
 11
-53.696091149
 21
57.4155563494
 31
0.0
 11
-53.5607351822
 21
57.5482032505
 31
0.0
 11
-53.3997211299
 21
57.6442891419
 31
0.0
  0
SPLINE
  5
2BA
100
AcDbEntity
  8
RACCORDO
100
AcDbSpline
 62
253
  6
CONTINUOUS
 70
0
 71
3
 72
9
 73
5
 74
3
 42
0.0000001
 43
0.0000001
 44
0.0000000001
 12
-0.1213693198
 22
0.148646452
 32
0.0
 13
0.000014759
 23
0.1919017438
 33
0.0
 40
0.0
 40
0.0
 40
0.0
 40
0.0
 40
0.5150020493
 40
1.0
 40
1.0
 40
1.0
 40
1.0
 10
-58.558739328
 20
56.2220505372
 30
0.0
 10
-58.5795744775
 20
56.2475682797
 30
0.0
 10
-58.6133604642
 20
56.3033559173
 30
0.0
 10
-58.6257248075
 20
56.3678032482
 30
0.0
 10
-58.6257224214
 20
56.3988272323
 30
0.0
 11
-58.558739328
 21
56.2220505372
 31
0.0
 11
-58.6086925817
 21
56.3073265605
 31
0.0
 11
-58.6257224214
 21
56.3988272323
 31
0.0
  0
SPLINE
  5
2BB
100
AcDbEntity
  8
RACCORDO
100
AcDbSpline
 62
253
  6
CONTINUOUS
 70
0
 71
3
 72
9
 73
5
 74
3
 42
0.0000001
 43
0.0000001
 44
0.0000000001
 12
-0.1213693198
 22
0.148646452
 32
0.0
 13
0.000014759
 23
0.1919017438
 33
0.0
 40
0.0
 40
0.0
 40
0.0
 40
0.0
 40
0.5150020493
 40
1.0
 40
1.0
 40
1.0
 40
1.0
 10
-58.558739328
 20
-28.6307632052
 30
0.0
 10
-58.5795744775
 20
-28.6052454627
 30
0.0
 10
-58.6133604642
 20
-28.5494578251
 30
0.0
 10
-58.6257248075
 20
-28.4850104942
 30
0.0
 10
-58.6257224214
 20
-28.45398651
 30
0.0
 11
-58.558739328
 21
-28.6307632052
 31
0.0
 11
-58.6086925817
 21
-28.5454871819
 31
0.0
 11
-58.6257224214
 21
-28.45398651
 31
0.0
  0
SPLINE
  5
2BC
100
AcDbEntity
  8
RACCORDO
100
AcDbSpline
 62
253
  6
CONTINUOUS
 70
0
 71
3
 72
9
 73
5
 74
3
 42
0.0000001
 43
0.0000001
 44
0.0000000001
 12
0.0
 22
-0.1489804075
 32
0.0
 13
0.0942452273
 23
-0.1153819698
 33
0.0
 40
0.0
 40
0.0
 40
0.0
 40
0.0
 40
0.5193663397
 40
1.0
 40
1.0
 40
1.0
 40
1.0
 10
-53.8176219064
 20
-41.1423750102
 30
0.0
 10
-53.8176219064
 20
-41.1681668132
 30
0.0
 10
-53.8109612589
 20
-41.2183210331
 30
0.0
 10
-53.7870057748
 20
-41.263339854
 30
0.0
 10
-53.771906632
 20
-41.2818253402
 30
0.0
 11
-53.8176219064
 21
-41.1423750102
 31
0.0
 11
-53.8060381408
 21
-41.2188784107
 31
0.0
 11
-53.771906632
 21
-41.2818253402
 31
0.0
  0
SPLINE
  5
2BD
100
AcDbEntity
  8
RACCORDO
100
AcDbSpline
 62
253
  6
CONTINUOUS
 70
0
 71
3
 72
9
 73
5
 74
3
 42
0.0000001
 43
0.0000001
 44
0.0000000001
 12
0.0
 22
-0.1489804075
 32
0.0
 13
0.0942452273
 23
-0.1153819698
 33
0.0
 40
0.0
 40
0.0
 40
0.0
 40
0.0
 40
0.5193663397
 40
1.0
 40
1.0
 40
1.0
 40
1.0
 10
6.1823780936
 20
-114.6270672937
 30
0.0
 10
6.1823780936
 20
-114.6528590967
 30
0.0
 10
6.1890387411
 20
-114.7030133166
 30
0.0
 10
6.2129942252
 20
-114.7480321375
 30
0.0
 10
6.228093368
 20
-114.7665176237
 30
0.0
 11
6.1823780936
 21
-114.6270672937
 31
0.0
 11
6.1939618592
 21
-114.7035706942
 31
0.0
 11
6.228093368
 21
-114.7665176237
 31
0.0
  0
SPLINE
  5
2BE
100
AcDbEntity
  8
RACCORDO
100
AcDbSpline
 62
253
  6
CONTINUOUS
 70
0
 71
3
 72
24
 73
20
 74
18
 42
0.0000001
 43
0.0000001
 44
0.0000000001
 12
4.8678321275
 22
-5.8347965591
 32
0.0
 13
0.0
 23
7.5987262425
 33
0.0
 40
0.0
 40
0.0
 40
0.0
 40
0.0
 40
0.0911081967
 40
0.1751477687
 40
0.2517631578
 40
0.3208025863
 40
0.3823902704
 40
0.4105538466
 40
0.4370887013
 40
0.4858464029
 40
0.5304335772
 40
0.5732511278
 40
0.6170587482
 40
0.6644094738
 40
0.7172311761
 40
0.7767525933
 40
0.8436206612
 40
0.9180674963
 40
1.0
 40
1.0
 40
1.0
 40
1.0
 10
6.2697596741
 20
-114.7329468452
 30
0.0
 10
6.4175928097
 20
-114.9101461094
 30
0.0
 10
6.711058043
 20
-115.2432606109
 30
0.0
 10
7.1630508526
 20
-115.6938070474
 30
0.0
 10
7.6059662212
 20
-116.0721448335
 30
0.0
 10
8.0358671968
 20
-116.3748659606
 30
0.0
 10
8.3904947905
 20
-116.5673887596
 30
0.0
 10
8.6639730962
 20
-116.6776497721
 30
0.0
 10
8.914580984
 20
-116.7549510874
 30
0.0
 10
9.2165750938
 20
-116.8043098926
 30
0.0
 10
9.5642852381
 20
-116.7788443196
 30
0.0
 10
9.8809798945
 20
-116.6643948735
 30
0.0
 10
10.1591773244
 20
-116.4631020441
 30
0.0
 10
10.3950316014
 20
-116.1809478135
 30
0.0
 10
10.5881909611
 20
-115.8231463964
 30
0.0
 10
10.7387713122
 20
-115.3933778994
 30
0.0
 10
10.8464465943
 20
-114.8951484747
 30
0.0
 10
10.9106188919
 20
-114.332606505
 30
0.0
 10
10.9234955151
 20
-113.9363015374
 30
0.0
 10
10.9234955151
 20
-113.7287739821
 30
0.0
 11
6.2697596741
 21
-114.7329468452
 31
0.0
 11
6.7285784231
 21
-115.2513803437
 31
0.0
 11
7.1822252037
 21
-115.7008316908
 31
0.0
 11
7.6264628628
 21
-116.0771104694
 31
0.0
 11
8.0571236676
 21
-116.3766913848
 31
0.0
 11
8.4701476169
 21
-116.5967457859
 31
0.0
 11
8.6688270793
 21
-116.676279415
 31
0.0
 11
8.8616543429
 21
-116.7352094221
 31
0.0
 11
9.2279598942
 21
-116.7907778016
 31
0.0
 11
9.5656190604
 21
-116.7629280062
 31
0.0
 11
9.8714552013
 21
-116.6519206488
 31
0.0
 11
10.1425913951
 21
-116.4587997882
 31
0.0
 11
10.3764777776
 21
-116.1853826287
 31
0.0
 11
10.5709148707
 21
-115.8342441395
 31
0.0
 11
10.7240740517
 21
-115.4086789212
 31
0.0
 11
10.8345147162
 21
-114.9127143974
 31
0.0
 11
10.901197825
 21
-114.3509572259
 31
0.0
 11
10.9234955151
 21
-113.7287739821
 31
0.0
  0
SPLINE
  5
2BF
100
AcDbEntity
  8
RACCORDO
100
AcDbSpline
 62
253
  6
CONTINUOUS
 70
0
 71
3
 72
16
 73
12
 74
10
 42
0.0000001
 43
0.0000001
 44
0.0000000001
 12
0.0
 22
-13.5812934876
 32
0.0
 13
8.5895641984
 23
-10.5200246995
 33
0.0
 40
0.0
 40
0.0
 40
0.0
 40
0.0
 40
0.0504756815
 40
0.1047911613
 40
0.2234087739
 40
0.3523708697
 40
0.4875170479
 40
0.6243429195
 40
0.7582538867
 40
0.8848124933
 40
1.0
 40
1.0
 40
1.0
 40
1.0
 10
-58.558739328
 20
-28.6307632052
 30
0.0
 10
-58.558739328
 20
-28.8592715531
 30
0.0
 10
-58.5417498835
 20
-29.3337612428
 30
0.0
 10
-58.4461406691
 20
-30.3410566554
 30
0.0
 10
-58.2104092156
 20
-31.6895298924
 30
0.0
 10
-57.7725289401
 20
-33.3675328659
 30
0.0
 10
-57.1871908921
 20
-35.0872533244
 30
0.0
 10
-56.4764999804
 20
-36.7832530141
 30
0.0
 10
-55.6673655463
 20
-38.3913536196
 30
0.0
 10
-54.7908606282
 20
-39.8505591297
 30
0.0
 10
-54.1474254011
 20
-40.7384498716
 30
0.0
 10
-53.8176219064
 20
-41.1423750102
 30
0.0
 11
-58.558739328
 21
-28.6307632052
 31
0.0
 11
-58.5359092821
 21
-29.3159079889
 31
0.0
 11
-58.467639143
 21
-30.0504165424
 31
0.0
 11
-58.1978416486
 21
-31.6386444352
 31
0.0
 11
-57.7597162395
 21
-33.3344334971
 31
0.0
 11
-57.1700981843
 21
-35.0726117476
 31
0.0
 11
-56.4516447703
 21
-36.7863797311
 31
0.0
 11
-55.631968559
 21
-38.409876862
 31
0.0
 11
-54.7425733288
 21
-39.8807103836
 31
0.0
 11
-53.8176219064
 21
-41.1423750102
 31
0.0
  0
SPLINE
  5
2C0
100
AcDbEntity
  8
RACCORDO
100
AcDbSpline
 62
253
  6
CONTINUOUS
 70
0
 71
3
 72
23
 73
19
 74
17
 42
0.0000001
 43
0.0000001
 44
0.0000000001
 12
-4.8923259477
 22
5.9918511137
 32
0.0
 13
0.0
 23
-7.7354465254
 33
0.0
 40
0.0
 40
0.0
 40
0.0
 40
0.0
 40
0.0917902345
 40
0.1765669405
 40
0.2539200471
 40
0.3236624837
 40
0.3858712555
 40
0.4410082945
 40
0.4900613042
 40
0.5347004367
 40
0.5773073259
 40
0.6206789754
 40
0.6674484419
 40
0.7196249816
 40
0.7784951403
 40
0.8447391952
 40
0.918603684
 40
1.0
 40
1.0
 40
1.0
 40
1.0
 10
-53.8176219064
 20
57.1203438489
 30
0.0
 10
-53.9673111551
 20
57.3036749884
 30
0.0
 10
-54.264724849
 20
57.648785506
 30
0.0
 10
-54.723203706
 20
58.1168915183
 30
0.0
 10
-55.1730769163
 20
58.5117188139
 30
0.0
 10
-55.610289511
 20
58.8296838782
 30
0.0
 10
-56.031253484
 20
59.0679195588
 30
0.0
 10
-56.4329223673
 20
59.224022739
 30
0.0
 10
-56.8127674272
 20
59.2954485422
 30
0.0
 10
-57.1676485868
 20
59.2787468426
 30
0.0
 10
-57.491485439
 20
59.1708894494
 30
0.0
 10
-57.7763776402
 20
58.9735960907
 30
0.0
 10
-58.0179109046
 20
58.6930364245
 30
0.0
 10
-58.2156338892
 20
58.3348141488
 30
0.0
 10
-58.3697344074
 20
57.9028007097
 30
0.0
 10
-58.479917793
 20
57.4006043277
 30
0.0
 10
-58.5455810045
 20
56.8324853859
 30
0.0
 10
-58.558739328
 20
56.4319294871
 30
0.0
 10
-58.558739328
 20
56.2220505372
 30
0.0
 11
-53.8176219064
 21
57.1203438489
 31
0.0
 11
-54.2823210294
 21
57.657195156
 31
0.0
 11
-54.7425733337
 21
58.1243382486
 31
0.0
 11
-55.1938920471
 21
58.5172085707
 31
0.0
 11
-55.6319685626
 21
58.8320692182
 31
0.0
 11
-56.0525677398
 21
59.0658681176
 31
0.0
 11
-56.4516447734
 21
59.2163605579
 31
0.0
 11
-56.8253545661
 21
59.2820946119
 31
0.0
 11
-57.170098187
 21
59.2624368412
 31
0.0
 11
-57.4825550632
 21
59.1575756931
 31
0.0
 11
-57.7597162416
 21
58.9685219676
 31
0.0
 11
-57.9989128655
 21
58.6970966519
 31
0.0
 11
-58.1978416501
 21
58.3459166
 31
0.0
 11
-58.354586942
 21
57.9183558434
 31
0.0
 11
-58.4676391439
 21
57.4185549
 31
0.0
 11
-58.5359092828
 21
56.8512733528
 31
0.0
 11
-58.558739328
 21
56.2220505372
 31
0.0
  0
SPLINE
  5
2C1
100
AcDbEntity
  8
RACCORDO
100
AcDbSpline
 62
253
  6
CONTINUOUS
 70
0
 71
3
 72
16
 73
12
 74
10
 42
0.0000001
 43
0.0000001
 44
0.0000000001
 12
0.0
 22
13.5812934876
 32
0.0
 13
-8.5895641984
 23
10.5200246995
 33
0.0
 40
0.0
 40
0.0
 40
0.0
 40
0.0
 40
0.0504756815
 40
0.1047911613
 40
0.2234087739
 40
0.3523708697
 40
0.4875170479
 40
0.6243429195
 40
0.7582538867
 40
0.8848124933
 40
1.0
 40
1.0
 40
1.0
 40
1.0
 10
10.9234955151
 20
-28.8759602397
 30
0.0
 10
10.9234955151
 20
-28.6474518918
 30
0.0
 10
10.9065060706
 20
-28.1729622021
 30
0.0
 10
10.8108968563
 20
-27.1656667895
 30
0.0
 10
10.5751654028
 20
-25.8171935525
 30
0.0
 10
10.1372851272
 20
-24.139190579
 30
0.0
 10
9.5519470793
 20
-22.4194701205
 30
0.0
 10
8.8412561676
 20
-20.7234704308
 30
0.0
 10
8.0321217334
 20
-19.1153698252
 30
0.0
 10
7.1556168153
 20
-17.6561643152
 30
0.0
 10
6.5121815882
 20
-16.7682735732
 30
0.0
 10
6.1823780936
 20
-16.3643484346
 30
0.0
 11
10.9234955151
 21
-28.8759602397
 31
0.0
 11
10.9006654693
 21
-28.1908154559
 31
0.0
 11
10.8323953302
 21
-27.4563069025
 31
0.0
 11
10.5625978357
 21
-25.8680790097
 31
0.0
 11
10.1244724266
 21
-24.1722899478
 31
0.0
 11
9.5348543714
 21
-22.4341116972
 31
0.0
 11
8.8164009574
 21
-20.7203437137
 31
0.0
 11
7.9967247461
 21
-19.0968465829
 31
0.0
 11
7.1073295159
 21
-17.6260130613
 31
0.0
 11
6.1823780936
 21
-16.3643484346
 31
0.0
  0
SPLINE
  5
2C2
100
AcDbEntity
  8
RACCORDO
100
AcDbSpline
 62
253
  6
CONTINUOUS
 70
0
 71
3
 72
17
 73
13
 74
11
 42
0.0000001
 43
0.0000001
 44
0.0000000001
 12
0.0
 22
14.2974549564
 32
0.0
 13
-9.0425044812
 23
11.0747609879
 33
0.0
 40
0.0
 40
0.0
 40
0.0
 40
0.0
 40
0.0504741643
 40
0.1047879404
 40
0.1625792135
 40
0.2234334875
 40
0.3523914555
 40
0.4875333066
 40
0.6243547967
 40
0.758261476
 40
0.8848160343
 40
1.0
 40
1.0
 40
1.0
 40
1.0
 10
11.5912439984
 20
-29.0113526596
 30
0.0
 10
11.5912439984
 20
-28.7708019626
 30
0.0
 10
11.5733433607
 20
-28.2713130661
 30
0.0
 10
11.5001747774
 20
-27.499600291
 30
0.0
 10
11.3802887447
 20
-26.6837298678
 30
0.0
 10
11.1551936914
 20
-25.525023793
 30
0.0
 10
10.7635275707
 20
-24.0248835683
 30
0.0
 10
10.1474381519
 20
-22.2146402983
 30
0.0
 10
9.3992694877
 20
-20.4292370837
 30
0.0
 10
8.5475023089
 20
-18.7364004933
 30
0.0
 10
7.6248055836
 20
-17.2002956002
 30
0.0
 10
6.947462712
 20
-16.2656147714
 30
0.0
 10
6.6002788701
 20
-15.8404031416
 30
0.0
 11
11.5912439984
 21
-29.0113526596
 31
0.0
 11
11.5672107385
 21
-28.2901008707
 31
0.0
 11
11.4953428492
 21
-27.516884864
 31
0.0
 11
11.3763329636
 21
-26.6992323342
 31
0.0
 11
11.2113274905
 21
-25.8449608554
 31
0.0
 11
10.7501137837
 21
-24.0598075143
 31
0.0
 11
10.129424157
 21
-22.2300311776
 31
0.0
 11
9.3731098858
 21
-20.4259514647
 31
0.0
 11
8.5102386396
 21
-18.7168996519
 31
0.0
 11
7.5739743511
 21
-17.1685563942
 31
0.0
 11
6.6002788701
 21
-15.8404031416
 31
0.0
  0
SPLINE
  5
2C3
100
AcDbEntity
  8
RACCORDO
100
AcDbSpline
 62
253
  6
CONTINUOUS
 70
0
 71
3
 72
16
 73
12
 74
10
 42
0.0000001
 43
0.0000001
 44
0.0000000001
 12
-2.943677582
 22
3.6052540215
 32
0.0
 13
-4.2405296243
 23
-1.918593957
 33
0.0
 40
0.0
 40
0.0
 40
0.0
 40
0.0
 40
0.1772242703
 40
0.3392666627
 40
0.4852454458
 40
0.6148608221
 40
0.7286156772
 40
0.8281763179
 40
0.916828586
 40
0.958734409
 40
1.0
 40
1.0
 40
1.0
 40
1.0
 10
-53.3997211299
 20
57.6442891419
 30
0.0
 10
-53.5736181671
 20
57.8572686463
 30
0.0
 10
-53.9185961231
 20
58.2553993123
 30
0.0
 10
-54.4515912627
 20
58.7881267345
 30
0.0
 10
-54.9724061625
 20
59.225371007
 30
0.0
 10
-55.475491914
 20
59.5623717786
 30
0.0
 10
-55.9563240155
 20
59.7952941978
 30
0.0
 10
-56.4110223175
 20
59.9208112438
 30
0.0
 10
-56.7726802424
 20
59.9313203579
 30
0.0
 10
-57.035106186
 20
59.8796082529
 30
0.0
 10
-57.1570024923
 20
59.8354479945
 30
0.0
 10
-57.2153318126
 20
59.8090573566
 30
0.0
 11
-53.3997211299
 21
57.6442891419
 31
0.0
 11
-53.9415850212
 21
58.2662116152
 31
0.0
 11
-54.4770492313
 21
58.7973442821
 31
0.0
 11
-54.9997710589
 21
59.2313929066
 31
0.0
 11
-55.5035794075
 21
59.5632366792
 31
0.0
 11
-55.9825142458
 21
59.7889477321
 31
0.0
 11
-56.4309149519
 21
59.9058594719
 31
0.0
 11
-56.8434798991
 21
59.9125891374
 31
0.0
 11
-57.0347813814
 21
59.8745594188
 31
0.0
 11
-57.2153318126
 21
59.8090573566
 31
0.0
  0
ENDSEC
  0
SECTION
  2
OBJECTS
  0
DICTIONARY
  5
C
100
AcDbDictionary
280
0
281
1
  3
ACAD_GROUP
350
D
  3
ACAD_MLINESTYLE
350
17
  3
ACAD_LAYOUT
350
1A
  3
ACAD_PLOTSETTINGS
350
19
  3
ACAD_PLOTSTYLENAME
350
E
  0
DICTIONARY
  5
D
102
{ACAD_REACTORS
330
C
102
}
100
AcDbDictionary
280
0
281
1
  0
ACDBDICTIONARYWDFLT
  5
E
102
{ACAD_REACTORS
330
C
102
}
100
AcDbDictionary
281
1
  3
Normal
350
F
100
AcDbDictionaryWithDefault
340
F
  0
DICTIONARY
  5
17
102
{ACAD_REACTORS
330
C
102
}
100
AcDbDictionary
280
0
281
1
  3
Standard
350
18
  0
DICTIONARY
  5
19
102
{ACAD_REACTORS
330
C
102
}
100
AcDbDictionary
281
1
  0
DICTIONARY
  5
1A
102
{ACAD_REACTORS
330
C
102
}
100
AcDbDictionary
281
1
  3
Model
350
2C4
  3
Layout1
350
2C5
  0
ACDBPLACEHOLDER
  5
F
102
{ACAD_REACTORS
330
E
102
}
  0
MLINESTYLE
  5
18
102
{ACAD_REACTORS
330
17
102
}
100
AcDbMlineStyle
  2
STANDARD
 70
0
  3

 62
256
 51
90.0
 52
90.0
 71
2
 49
0.5
 62
256
  6
BYLAYER
 49
-0.5
 62
256
  6
BYLAYER
  0
LAYOUT
  5
2C4
102
{ACAD_REACTORS
330
1A
102
}
100
AcDbPlotSettings
  1

  2
none_device
  4
ISO_A4_(297.00_x_210.00_MM)
  6

 40
0.0
 41
0.0
 42
0.0
 43
0.0
 44
297.0
 45
210.0
 46
0.0
 47
0.0
 48
0.0
 49
0.0
140
0.0
141
0.0
142
1.0
143
1.0
 70
1024
 72
1
 73
0
 74
0
  7

 75
0
147
1.0
148
0.0
149
0.0
100
AcDbLayout
  1
Model
 70
0
 71
0
 10
0.0
 20
0.0
 11
297.0
 21
210.0
 12
0.0
 22
0.0
 32
0.0
 14
0.0
 24
0.0
 34
0.0
 15
0.0
 25
0.0
 35
0.0
146
0.0
 13
0.0
 23
0.0
 33
0.0
 16
1.0
 26
0.0
 36
0.0
 17
0.0
 27
1.0
 37
0.0
 76
0
330
20A
345
0
346
0
  0
LAYOUT
  5
2C5
102
{ACAD_REACTORS
330
1A
102
}
100
AcDbPlotSettings
  1

  2
none_device
  4
ISO_A4_(297.00_x_210.00_MM)
  6

 40
0.0
 41
0.0
 42
0.0
 43
0.0
 44
297.0
 45
210.0
 46
0.0
 47
0.0
 48
0.0
 49
0.0
140
0.0
141
0.0
142
1.0
143
1.0
 70
0
 72
1
 73
0
 74
0
  7

 75
0
147
1.0
148
0.0
149
0.0
100
AcDbLayout
  1
Layout1
 70
0
 71
1
 10
0.0
 20
0.0
 11
297.0
 21
210.0
 12
0.0
 22
0.0
 32
0.0
 14
0.0
 24
0.0
 34
0.0
 15
0.0
 25
0.0
 35
0.0
146
0.0
 13
0.0
 23
0.0
 33
0.0
 16
1.0
 26
0.0
 36
0.0
 17
0.0
 27
1.0
 37
0.0
 76
0
330
20B
345
0
346
0
  0
ENDSEC
  0
EOF
