  0
SECTION
  2
HEADER
  9
$ACADVER
  1
AC1021
  9
$DWGCODEPAGE
  3
ANSI_1252
  9
$EXTMAX
 10
558.8
 20
431.8
 30
0.0
  9
$EXTMIN
 10
0.0
 20
0.0
 30
0.0
  9
$LIMMIN
 10
0.0
 20
0.0
  9
$LIMMAX
 10
558.8
 20
431.8
  9
$VIEWCTR
 10
279.4
 20
215.9
  9
$VIEWSIZE
 40
431.8
  9
$CLAYER
  8
0
  9
$LTSCALE
 40
30.734
  9
$CELTYPE
  6
BYLAYER
  9
$DIMSCALE
 40
1.0
  9
$DIMASZ
 40
3.0
  9
$DIMEXO
 40
0.5
  9
$DIMDLI
 40
21.2344
  9
$DIMEXE
 40
1.5
  9
$DIMCEN
 40
5.0292
  9
$DIMLFAC
 40
1.0
  9
$DIMBLK
  1
_FILLED
  9
$DIMALT
 70
0
  9
$DIMALTF
 40
25.4
  9
$DIMTXT
 40
3.0
  9
$DIMTOL
 70
1
  9
$DIMLIM
 70
0
  9
$DIMTFAC
 40
1.0
  9
$DIMTP
 40
0.01
  9
$DIMTM
 40
0.01
  9
$DIMGAP
 40
0.625
  9
$DIMDSEP
 70
44
  9
$AUNITS
 70
0
  9
$PDMODE
 70
3
  9
$PDSIZE
 40
3.0
  9
$HANDSEED
  5
238
  9
$TILEMODE
 70
1
  9
$MEASUREMENT
 70
1
  9
$INSUNITS
 70
4
  0
ENDSEC
  0
SECTION
  2
CLASSES
  0
CLASS
  1
ACDBDICTIONARYWDFLT
  2
AcDbDictionaryWithDefault
  3
AutoCAD 2000
 90
0
 91
1
280
0
281
0
  0
CLASS
  1
ACDBPLACEHOLDER
  2
AcDbPlaceHolder
  3
AutoCAD 2000
 90
0
 91
1
280
0
281
0
  0
CLASS
  1
LAYOUT
  2
AcDbLayout
  3
AutoCAD 2000
 90
0
 91
0
280
0
281
0
  0
ENDSEC
  0
SECTION
  2
TABLES
  0
TABLE
  2
VPORT
  5
8
100
AcDbSymbolTable
 70
2
  0
VPORT
  5
1F4
100
AcDbSymbolTableRecord
100
AcDbViewportTableRecord
  2
*ACTIVE
 70
0
 10
0.0
 20
0.0
 11
1.0
 21
1.0
 12
279.4
 22
215.9
 13
0.0
 23
0.0
 14
1.0
 24
1.0
 15
0.0
 25
0.0
 16
0.0
 26
0.0
 36
1.0
 17
0.0
 27
0.0
 37
0.0
 40
431.8
 41
1.2941176471
 42
50.0
 43
0.0
 44
0.0
 50
0.0
 51
0.0
 71
0
 72
100
 73
1
 74
1
 75
0
 76
0
 77
0
 78
0
  0
ENDTAB
  0
TABLE
  2
LTYPE
  5
5
100
AcDbSymbolTable
 70
6
  0
LTYPE
  5
14
100
AcDbSymbolTableRecord
100
AcDbLinetypeTableRecord
  2
BYBLOCK
 70
0
  3

 72
65
 73
0
 40
0.0
  0
LTYPE
  5
15
100
AcDbSymbolTableRecord
100
AcDbLinetypeTableRecord
  2
BYLAYER
 70
0
  3

 72
65
 73
0
 40
0.0
  0
LTYPE
  5
16
100
AcDbSymbolTableRecord
100
AcDbLinetypeTableRecord
  2
CONTINUOUS
 70
64
  3
Solid line
 72
65
 73
0
 40
0.0
  0
LTYPE
  5
1F5
100
AcDbSymbolTableRecord
100
AcDbLinetypeTableRecord
  2
CENTER
 70
64
  3
____ _ ____ _ ____ _ ____ _ ____ _ ____ _ ____
 72
65
 73
4
 40
0.6
 49
0.375
 74
0
 49
-0.075
 74
0
 49
0.075
 74
0
 49
-0.075
 74
0
  0
LTYPE
  5
1F6
100
AcDbSymbolTableRecord
100
AcDbLinetypeTableRecord
  2
HIDDEN
 70
64
  3
- - - - - - - - - - - - - - - - - - - -
 72
65
 73
2
 40
0.2
 49
0.1
 74
0
 49
-0.1
 74
0
  0
LTYPE
  5
1F7
100
AcDbSymbolTableRecord
100
AcDbLinetypeTableRecord
  2
PHANTOM
 70
64
  3
_____ _ _ _____ _ _ _____ _ _ _____
 72
65
 73
6
 40
0.8
 49
0.45
 74
0
 49
-0.05
 74
0
 49
0.1
 74
0
 49
-0.05
 74
0
 49
0.1
 74
0
 49
-0.05
 74
0
  0
LTYPE
  5
1F8
100
AcDbSymbolTableRecord
100
AcDbLinetypeTableRecord
  2
DOT
 70
64
  3
. . . . . . . . . . . . . . . . . . . .
 72
65
 73
2
 40
0.2
 49
0.1
 74
0
 49
-0.1
 74
0
  0
LTYPE
  5
1F9
100
AcDbSymbolTableRecord
100
AcDbLinetypeTableRecord
  2
DASHED
 70
64
  3
- - - - - - - - - - - - - - - - - - - -
 72
65
 73
2
 40
0.2
 49
0.1
 74
0
 49
-0.1
 74
0
  0
ENDTAB
  0
TABLE
  2
LAYER
  5
2
100
AcDbSymbolTable
 70
36
  0
LAYER
  5
10
100
AcDbSymbolTableRecord
100
AcDbLayerTableRecord
  2
0
 70
0
 62
7
  6
CONTINUOUS
370
-3
390
F
  0
LAYER
  5
1FA
100
AcDbSymbolTableRecord
100
AcDbLayerTableRecord
  2
DEFAULT_1
 70
0
 62
7
  6
CENTER
370
-3
390
F
  0
LAYER
  5
1FB
100
AcDbSymbolTableRecord
100
AcDbLayerTableRecord
  2
DEFAULT_2
 70
0
 62
7
  6
HIDDEN
370
-3
390
F
  0
LAYER
  5
1FC
100
AcDbSymbolTableRecord
100
AcDbLayerTableRecord
  2
DEFAULT_3
 70
0
 62
7
  6
PHANTOM
370
-3
390
F
  0
LAYER
  5
1FD
100
AcDbSymbolTableRecord
100
AcDbLayerTableRecord
  2
ASSI
 70
0
 62
7
  6
CONTINUOUS
370
-3
390
F
  0
LAYER
  5
1FE
100
AcDbSymbolTableRecord
100
AcDbLayerTableRecord
  2
COORDINATE
 70
0
 62
7
  6
CONTINUOUS
370
-3
390
F
  0
LAYER
  5
1FF
100
AcDbSymbolTableRecord
100
AcDbLayerTableRecord
  2
COORD_ORIGINE
 70
0
 62
7
  6
CONTINUOUS
370
-3
390
F
  0
LAYER
  5
200
100
AcDbSymbolTableRecord
100
AcDbLayerTableRecord
  2
COPY_PUBLISH
 70
0
 62
7
  6
CONTINUOUS
370
-3
390
F
  0
LAYER
  5
201
100
AcDbSymbolTableRecord
100
AcDbLayerTableRecord
  2
COSMETICHE
 70
0
 62
7
  6
CONTINUOUS
370
-3
390
F
  0
LAYER
  5
202
100
AcDbSymbolTableRecord
100
AcDbLayerTableRecord
  2
COSMETICI
 70
0
 62
7
  6
CONTINUOUS
370
-3
390
F
  0
LAYER
  5
203
100
AcDbSymbolTableRecord
100
AcDbLayerTableRecord
  2
CURVE
 70
0
 62
7
  6
CONTINUOUS
370
-3
390
F
  0
LAYER
  5
204
100
AcDbSymbolTableRecord
100
AcDbLayerTableRecord
  2
DRAFT
 70
0
 62
7
  6
CONTINUOUS
370
-3
390
F
  0
LAYER
  5
205
100
AcDbSymbolTableRecord
100
AcDbLayerTableRecord
  2
IMPORT_IGES
 70
0
 62
7
  6
CONTINUOUS
370
-3
390
F
  0
LAYER
  5
206
100
AcDbSymbolTableRecord
100
AcDbLayerTableRecord
  2
INTF_1
 70
0
 62
7
  6
CONTINUOUS
370
-3
390
F
  0
LAYER
  5
207
100
AcDbSymbolTableRecord
100
AcDbLayerTableRecord
  2
INTF_11
 70
0
 62
7
  6
CONTINUOUS
370
-3
390
F
  0
LAYER
  5
208
100
AcDbSymbolTableRecord
100
AcDbLayerTableRecord
  2
NOTE
 70
0
 62
7
  6
CONTINUOUS
370
-3
390
F
  0
LAYER
  5
209
100
AcDbSymbolTableRecord
100
AcDbLayerTableRecord
  2
PIANI
 70
0
 62
7
  6
CONTINUOUS
370
-3
390
F
  0
LAYER
  5
20A
100
AcDbSymbolTableRecord
100
AcDbLayerTableRecord
  2
PIANI_ORIGINE
 70
0
 62
7
  6
CONTINUOUS
370
-3
390
F
  0
LAYER
  5
20B
100
AcDbSymbolTableRecord
100
AcDbLayerTableRecord
  2
PUNTI
 70
0
 62
7
  6
CONTINUOUS
370
-3
390
F
  0
LAYER
  5
20C
100
AcDbSymbolTableRecord
100
AcDbLayerTableRecord
  2
RACCORDO
 70
0
 62
7
  6
CONTINUOUS
370
-3
390
F
  0
LAYER
  5
20D
100
AcDbSymbolTableRecord
100
AcDbLayerTableRecord
  2
RGB____0____0____0__
 70
0
 62
7
  6
CONTINUOUS
370
-3
390
F
  0
LAYER
  5
20E
100
AcDbSymbolTableRecord
100
AcDbLayerTableRecord
  2
SIMBOLI
 70
0
 62
7
  6
CONTINUOUS
370
-3
390
F
  0
LAYER
  5
20F
100
AcDbSymbolTableRecord
100
AcDbLayerTableRecord
  2
SMUSSO
 70
0
 62
7
  6
CONTINUOUS
370
-3
390
F
  0
LAYER
  5
210
100
AcDbSymbolTableRecord
100
AcDbLayerTableRecord
  2
SUPERFICI
 70
0
 62
7
  6
CONTINUOUS
370
-3
390
F
  0
LAYER
  5
211
100
AcDbSymbolTableRecord
100
AcDbLayerTableRecord
  2
TRASH
 70
0
 62
7
  6
CONTINUOUS
370
-3
390
F
  0
ENDTAB
  0
TABLE
  2
STYLE
  5
3
100
AcDbSymbolTable
 70
1
  0
STYLE
  5
11
100
AcDbSymbolTableRecord
100
AcDbTextStyleTableRecord
  2
STANDARD
 70
0
 40
0.0
 41
0.8
 50
0.0
 71
0
 42
0.2
  3
txt
  4

  0
STYLE
  5
212
100
AcDbSymbolTableRecord
100
AcDbTextStyleTableRecord
  2
TEXTSTYLE_1
 70
0
 40
0.0
 41
0.8
 50
0.0
 71
0
 42
0.2
  3
gdt
  4

  0
ENDTAB
  0
TABLE
  2
VIEW
  5
6
100
AcDbSymbolTable
 70
0
  0
ENDTAB
  0
TABLE
  2
UCS
  5
7
100
AcDbSymbolTable
 70
0
  0
ENDTAB
  0
TABLE
  2
APPID
  5
9
100
AcDbSymbolTable
 70
1
  0
APPID
  5
213
100
AcDbSymbolTableRecord
100
AcDbRegAppTableRecord
  2
ACAD
 70
0
  0
ENDTAB
  0
TABLE
  2
BLOCK_RECORD
  5
1
100
AcDbSymbolTable
 70
0
  0
BLOCK_RECORD
  5
214
100
AcDbSymbolTableRecord
100
AcDbBlockTableRecord
  2
*Model_Space
  0
BLOCK_RECORD
  5
215
100
AcDbSymbolTableRecord
100
AcDbBlockTableRecord
  2
*Paper_Space
  0
BLOCK_RECORD
  5
216
100
AcDbSymbolTableRecord
100
AcDbBlockTableRecord
  2
_FILLED
  0
ENDTAB
  0
TABLE
  2
DIMSTYLE
  5
A
100
AcDbSymbolTable
 70
1
100
AcDbDimStyleTable
 71
0
  0
DIMSTYLE
105
217
100
AcDbSymbolTableRecord
100
AcDbDimStyleTableRecord
  2
STANDARD
 70
0
  3

  4

 40
1.0
 41
3.0
 42
0.5
 43
0.38
 44
1.5
 45
0.0
 46
0.0
 47
0.01
 48
0.01
140
3.0
141
0.09
142
0.0
143
25.4
144
1.0
145
0.0
146
1.0
147
0.625
 71
1.0
 72
0.0
 73
0
 74
0
 75
0
 76
0
 77
1
 78
8
 79
2
170
0
171
1
172
0
173
0
174
0
175
0
176
0
177
0
178
0
270
2
179
2
271
2
272
2
273
2
274
2
275
0
280
0
281
0
282
0
283
1
284
8
285
0
286
0
287
3
288
0
340
11
278
44
341
216
342
216
343
216
344
216
  0
ENDTAB
  0
ENDSEC
  0
SECTION
  2
BLOCKS
  0
BLOCK
  5
20
100
AcDbEntity
  8
0
100
AcDbBlockBegin
  2
*Model_Space
 70
0
 10
0.0
 20
0.0
 30
0.0
  3
*Model_Space
  1

  0
ENDBLK
  5
21
100
AcDbEntity
  8
0
100
AcDbBlockEnd
  0
BLOCK
  5
1C
100
AcDbEntity
  8
0
100
AcDbBlockBegin
  2
*Paper_Space
 70
0
 10
0.0
 20
0.0
 30
0.0
  3
*Paper_Space
  1

  0
ENDBLK
  5
1D
100
AcDbEntity
  8
0
100
AcDbBlockEnd
  0
BLOCK
  5
218
100
AcDbEntity
  8
0
100
AcDbBlockBegin
  2
_FILLED
 70
64
 10
0.0
 20
0.0
  3
_FILLED
  1

  0
SOLID
  5
219
100
AcDbEntity
  8
0
  6
BYBLOCK
 62
0
100
AcDbTrace
 10
0.0
 20
0.0
 11
-1.0
 21
0.3166666667
 12
-1.0
 22
-0.3166666667
 13
-1.0
 23
-0.3166666667
  0
ENDBLK
  5
21A
100
AcDbEntity
  8
0
  6
BYBLOCK
 62
0
100
AcDbBlockEnd
  0
ENDSEC
  0
SECTION
  2
ENTITIES
  0
LWPOLYLINE
  5
21B
100
AcDbEntity
  8
RACCORDO
100
AcDbPolyline
 62
250
  6
CONTINUOUS
 90
85
 70
0
 10
-22.9999917928
 20
38.579544775
 10
-22.3680437985
 20
38.9547527199
 10
-21.7182105164
 20
39.2986883178
 10
-21.0510126513
 20
39.6110759772
 10
-20.3669847711
 20
39.8916654399
 10
-19.6666746426
 20
40.1402320412
 10
-18.9506429789
 20
40.3565767624
 10
-18.2194631416
 20
40.5405263352
 10
-17.4737209427
 20
40.691933352
 10
-16.7140139612
 20
40.8106764874
 10
-15.9409508963
 20
40.8966606309
 10
-15.1551507947
 20
40.949816958
 10
-14.3572427966
 20
40.9701029097
 10
-13.5478658153
 20
40.9575022127
 10
-12.7276683313
 20
40.912024934
 10
-11.8973076065
 20
40.8337075167
 10
-11.0574489587
 20
40.722612741
 10
-10.2087649061
 20
40.5788295951
 10
-9.3519349179
 20
40.4024731936
 10
-8.4876450813
 20
40.1936847211
 10
-7.6165878886
 20
39.9526314357
 10
-6.7394613732
 20
39.6795065091
 10
-5.856968329
 20
39.3745288102
 10
-4.9698154003
 20
39.0379425742
 10
-4.0787128425
 20
38.6700172724
 10
-3.1843741824
 20
38.2710474824
 10
-2.2875159997
 20
37.8413528461
 10
-1.3888570135
 20
37.3812777098
 10
-0.4891172712
 20
36.8911907358
 10
0.4109827821
 20
36.3714843783
 10
1.3107225313
 20
35.8225747112
 10
2.2093815313
 20
35.2449012321
 10
3.1062397346
 20
34.6389267713
 10
4.0005784217
 20
34.0051369412
 10
4.8916810144
 20
33.3440395869
 10
5.7788339842
 20
32.6561640945
 10
6.6613270711
 20
31.9420611817
 10
7.5384536123
 20
31.2023026444
 10
8.4095108327
 20
30.4374811678
 10
9.2738007488
 20
29.6482096058
 10
10.1306309373
 20
28.835120301
 10
10.9793152379
 20
27.9988644057
 10
11.8191740222
 20
27.1401115998
 10
12.6495346375
 20
26.2595496603
 10
13.4697319115
 20
25.357883966
 10
14.2791088383
 20
24.4358367797
 10
15.0770171001
 20
23.4941466701
 10
15.8628176037
 20
22.5335678956
 10
16.6358809521
 20
21.5548698429
 10
17.3955879665
 20
20.5588363878
 10
18.1413300962
 20
19.5462653816
 10
18.8725099296
 20
18.5179679955
 10
19.5885417187
 20
17.4747680151
 10
20.2888520287
 20
16.4175009052
 10
20.9728801007
 20
15.347013246
 10
21.6400781629
 20
14.2641622566
 10
22.2899116512
 20
13.1698154933
 10
22.9218598345
 20
12.0648498901
 10
23.5354164035
 20
10.9501507687
 10
24.1300900644
 20
9.8266107409
 10
24.7054046942
 20
8.6951293662
 10
25.260899582
 20
7.5566126957
 10
25.7961296494
 20
6.4119729034
 10
26.3106660212
 20
5.2621271786
 10
26.8040964769
 20
4.1079967566
 10
27.276025897
 20
2.9505058585
 10
27.7260764035
 20
1.7905812986
 10
28.1538875737
 20
0.6291519644
 10
28.5591166515
 20
-0.5328516632
 10
28.9414389617
 20
-1.6944985738
 10
29.3005482364
 20
-2.8548581719
 10
29.6361568865
 20
-4.013001161
 10
29.9479961372
 20
-5.1680000247
 10
30.2358162088
 20
-6.318929628
 10
30.4993865594
 20
-7.4648680911
 10
30.7384960973
 20
-8.604897663
 10
30.9529532309
 20
-9.738104869
 10
31.1425862454
 20
-10.863582353
 10
31.3072433861
 20
-11.9804297079
 10
31.4467927733
 20
-13.0877531225
 10
31.5611224164
 20
-14.184664795
 10
31.6501405626
 20
-15.2702847772
 10
31.7137758952
 20
-16.3437430729
 10
31.7519774899
 20
-17.4041802912
 10
31.7647147542
 20
-18.4507470352
  0
LWPOLYLINE
  5
21C
100
AcDbEntity
  8
RACCORDO
100
AcDbPolyline
 62
7
  6
CONTINUOUS
 90
28
 70
0
 10
-23.0772127195
 20
38.5307710091
 10
-23.7019600685
 20
38.1126364655
 10
-24.30898235
 20
37.663912355
 10
-24.8976406964
 20
37.1848639581
 10
-25.4671954529
 20
36.6758987752
 10
-26.0171770401
 20
36.1372401526
 10
-26.5473515742
 20
35.5688542936
 10
-27.0572423598
 20
34.9709151232
 10
-27.5461639446
 20
34.3438770445
 10
-28.0135772417
 20
33.6880854814
 10
-28.4590455095
 20
33.0037730625
 10
-28.8819814774
 20
32.2914402901
 10
-29.2817005591
 20
31.5518848712
 10
-29.6578119692
 20
30.785497158
 10
-30.009884821
 20
29.992794674
 10
-30.3373009635
 20
29.1748751803
 10
-30.6397655938
 20
28.3322400702
 10
-30.9169686035
 20
27.4654871106
 10
-31.1684183689
 20
26.5759960012
 10
-31.3939048418
 20
25.6644877999
 10
-31.5932725818
 20
24.7315483616
 10
-31.7662539516
 20
23.7784857466
 10
-31.9127440678
 20
22.8061005012
 10
-32.0326779365
 20
21.8150581256
 10
-32.1259560468
 20
20.8065637023
 10
-32.1925576865
 20
19.7815635498
 10
-32.2325026165
 20
18.7407050833
 10
-32.2458105915
 20
17.684792592
  0
LINE
  5
21D
100
AcDbEntity
  8
RACCORDO
100
AcDbLine
 62
250
  6
CONTINUOUS
 10
-23.0772127195
 20
38.5307710091
 11
-22.9999917928
 21
38.579544775
  0
LWPOLYLINE
  5
21E
100
AcDbEntity
  8
RACCORDO
100
AcDbPolyline
 62
250
  6
CONTINUOUS
 90
36
 70
0
 10
-22.0637098005
 20
37.4808852381
 10
-21.4173146668
 20
37.7835330677
 10
-20.7546142595
 20
38.0553741374
 10
-20.0761392661
 20
38.2961907873
 10
-19.3824329157
 20
38.5057902042
 10
-18.6740506914
 20
38.6840045225
 10
-17.9515601416
 20
38.8306909296
 10
-17.2155402164
 20
38.9457318823
 10
-16.4665806385
 20
39.0290352354
 10
-15.7052811516
 20
39.080534311
 10
-14.932251276
 20
39.1001878768
 10
-14.148110002
 20
39.0879801668
 10
-13.3534855935
 20
39.0439209334
 10
-12.5490148239
 20
38.9680454838
 10
-11.7353422703
 20
38.8604146414
 10
-10.9131194797
 20
38.7211146197
 10
-10.0830047314
 20
38.5502569434
 10
-9.2456627177
 20
38.3479783938
 10
-8.4017643431
 20
38.1144410146
 10
-7.5519858823
 20
37.8498319557
 10
-6.6970082202
 20
37.5543632635
 10
-5.8375159654
 20
37.2282715576
 10
-4.974197223
 20
36.8718179051
 10
-4.1077432692
 20
36.4852876973
 10
-3.2388483451
 20
36.068990611
 10
-2.3682087663
 20
35.6232602587
 10
-1.4965221336
 20
35.1484538105
 10
-0.624486426
 20
34.6449514829
 10
0.2472002146
 20
34.113156374
 10
1.117839809
 20
33.553494276
 10
1.9867347567
 20
32.9664135904
 10
2.8531887429
 20
32.3523847914
 10
3.7165075295
 20
31.7118998918
 10
4.5759998371
 20
31.0454717708
 10
5.4309775526
 20
30.3536339739
 10
6.2807560463
 20
29.6369404691
  0
LWPOLYLINE
  5
21F
100
AcDbEntity
  8
RACCORDO
100
AcDbPolyline
 62
7
  6
CONTINUOUS
 90
82
 70
0
 10
-32.2458105915
 20
17.684792592
 10
-32.2323644274
 20
16.6084727261
 10
-32.1920901908
 20
15.5191342073
 10
-32.1250975036
 20
14.4176603805
 10
-32.0315248758
 20
13.3050595776
 10
-31.9115104473
 20
12.1821048507
 10
-31.7651646279
 20
11.0493331316
 10
-31.5926147439
 20
9.907480106
 10
-31.3940521957
 20
8.7576179209
 10
-31.1696965378
 20
7.6008065253
 10
-30.9197542154
 20
6.4379208262
 10
-30.6444706424
 20
5.2699433547
 10
-30.3441827673
 20
4.098121276
 10
-30.0192402498
 20
2.9235991587
 10
-29.6699029695
 20
1.7471208717
 10
-29.2964039469
 20
0.5693459814
 10
-28.8990078245
 20
-0.6089578336
 10
-28.4781129515
 20
-1.7866667329
 10
-28.034178458
 20
-2.9625814103
 10
-27.5676652077
 20
-4.1355909828
 10
-27.0789204277
 20
-5.3049224637
 10
-26.5682600836
 20
-6.4698813541
 10
-26.0360780261
 20
-7.6296021691
 10
-25.4828477544
 20
-8.7830811392
 10
-24.909014401
 20
-9.9294166448
 10
-24.3150474468
 20
-11.0676911071
 10
-23.701436624
 20
-12.1969825095
 10
-23.068678531
 20
-13.3163896867
 10
-22.4172957139
 20
-14.4249979299
 10
-21.7478102321
 20
-15.5219253848
 10
-21.0607358461
 20
-16.6063308165
 10
-20.3566435617
 20
-17.6773099481
 10
-19.6360815216
 20
-18.7340234179
 10
-18.8995391829
 20
-19.7757371249
 10
-18.1475325847
 20
-20.8016910386
 10
-17.3807216464
 20
-21.8109527316
 10
-16.5998276017
 20
-22.8025516671
 10
-15.8055769831
 20
-23.7755566163
 10
-14.9985001853
 20
-24.7293067744
 10
-14.1790322575
 20
-25.6632550699
 10
-13.3477200421
 20
-26.576724903
 10
-12.5053025327
 20
-27.4688489716
 10
-11.6525047129
 20
-28.3388117402
 10
-10.7899974281
 20
-29.1858831093
 10
-9.9184485991
 20
-30.0093590697
 10
-9.0385863474
 20
-30.8085036946
 10
-8.1512035895
 20
-31.5825548518
 10
-7.2568829238
 20
-32.3309597336
 10
-6.3560308026
 20
-33.0533101167
 10
-5.4490143462
 20
-33.7492090665
 10
-4.5368496075
 20
-34.4177716116
 10
-3.6209150963
 20
-35.057930176
 10
-2.7023172851
 20
-35.6689055641
 10
-1.7813661451
 20
-36.2504821634
 10
-0.8582368585
 20
-36.8024895264
 10
0.0667627196
 20
-37.3246335339
 10
0.9925368698
 20
-37.8161815082
 10
1.9177471335
 20
-38.2763561061
 10
2.8416170941
 20
-38.7047360809
 10
3.7635293171
 20
-39.100995586
 10
4.6824083278
 20
-39.4646438577
 10
5.5975579454
 20
-39.7953925152
 10
6.5083105937
 20
-40.0929827337
 10
7.4136629958
 20
-40.3570810095
 10
8.3133446924
 20
-40.5875942963
 10
9.2062913291
 20
-40.7842310232
 10
10.0903623444
 20
-40.9465992144
 10
10.9641890227
 20
-41.0746472374
 10
11.8279222217
 20
-41.1685945962
 10
12.6817223122
 20
-41.2285671181
 10
13.525421557
 20
-41.2545867812
 10
14.3579144016
 20
-41.2466508493
 10
15.1779449071
 20
-41.2048678348
 10
15.9847715342
 20
-41.1294195554
 10
16.777917864
 20
-41.0204958101
 10
17.5565439731
 20
-40.8783663475
 10
18.320019769
 20
-40.7033219929
 10
19.0677830623
 20
-40.4956721134
 10
19.799101124
 20
-40.2558150245
 10
20.513350854
 20
-39.9841721198
 10
21.2100243951
 20
-39.6811622127
 10
21.8885812637
 20
-39.347251201
  0
LWPOLYLINE
  5
220
100
AcDbEntity
  8
RACCORDO
100
AcDbPolyline
 62
250
  6
CONTINUOUS
 90
30
 70
0
 10
-31.8726587342
 20
17.1131459718
 10
-31.860318777
 20
18.1128246895
 10
-31.8233087078
 20
19.097454424
 10
-31.761658049
 20
20.0662464281
 10
-31.6754159816
 20
21.0184253847
 10
-31.5646515021
 20
21.9532277472
 10
-31.4294535629
 20
22.8699024909
 10
-31.2699306634
 20
23.7677146164
 10
-31.0862105234
 20
24.6459458561
 10
-30.8784402902
 20
25.5038930479
 10
-30.6467864506
 20
26.3408689019
 10
-30.3914345611
 20
27.1562031615
 10
-30.1125889817
 20
27.9492433364
 10
-29.810472939
 20
28.7193544546
 10
-29.4853284968
 20
29.4659193766
 10
-29.1374161883
 20
30.1883398697
 10
-28.7670147335
 20
30.8860372131
 10
-28.3744207852
 20
31.5584526487
 10
-27.9599488021
 20
32.205047598
 10
-27.5239307924
 20
32.825304125
 10
-27.0667159857
 20
33.4187254459
 10
-26.5886705349
 20
33.9848363243
 10
-26.0901772767
 20
34.5231833717
 10
-25.5716355501
 20
35.0333352979
 10
-25.0334608205
 20
35.5148833617
 10
-24.4760842615
 20
35.9674417871
 10
-23.8999522414
 20
36.3906481767
 10
-23.3055260744
 20
36.7841636644
 10
-22.6932817594
 20
37.1476731041
 10
-22.0637098005
 20
37.4808852381
  0
LINE
  5
221
100
AcDbEntity
  8
0
100
AcDbLine
 62
7
  6
CONTINUOUS
 10
3.7097641966
 20
34.8200393484
 11
5.3337577784
 21
36.8974862111
  0
LINE
  5
222
100
AcDbEntity
  8
0
100
AcDbLine
 62
7
  6
CONTINUOUS
 10
4.0763460779
 20
34.560277853
 11
5.9461302141
 21
36.9521451799
  0
LINE
  5
223
100
AcDbEntity
  8
0
100
AcDbLine
 62
7
  6
CONTINUOUS
 10
6.7782033416
 20
32.5027496184
 11
8.5889202311
 21
34.8190568768
  0
LWPOLYLINE
  5
224
100
AcDbEntity
  8
0
100
AcDbPolyline
 62
7
  6
CONTINUOUS
 90
28
 70
0
 10
8.5889202311
 20
34.8190568768
 10
8.6558845057
 20
34.9124977908
 10
8.7158218599
 20
35.0115146969
 10
8.7687322938
 20
35.1161075949
 10
8.8148998698
 20
35.2271660701
 10
8.8540405256
 20
35.3438005373
 10
8.8853020736
 20
35.4633422413
 10
8.9084817651
 20
35.5854924385
 10
8.9237823488
 20
35.7105498724
 10
8.9309598836
 20
35.8367420184
 10
8.9298494866
 20
35.9645755988
 10
8.9206160407
 20
36.0935438912
 10
8.9035102531
 20
36.2203542047
 10
8.8784764709
 20
36.3444247737
 10
8.8455703471
 20
36.4663373638
 10
8.8052095477
 20
36.5845445806
 10
8.757064175
 20
36.6994806971
 10
8.7014641267
 20
36.8107114402
 10
8.6398167621
 20
36.9153865963
 10
8.5722360047
 20
37.0129799486
 10
8.4986079309
 20
37.1040177139
 10
8.4199981294
 20
37.1872283283
 10
8.3360956252
 20
37.2627140102
 10
8.2472113933
 20
37.3303725413
 10
8.1553439462
 20
37.3886257017
 10
8.0611594548
 20
37.4369474184
 10
7.9639917483
 20
37.4758637646
 10
7.8638408267
 20
37.5053747402
  0
LWPOLYLINE
  5
225
100
AcDbEntity
  8
0
100
AcDbPolyline
 62
7
  6
CONTINUOUS
 90
16
 70
0
 10
2.4719478402
 20
35.6546217489
 10
2.4485658961
 20
35.7705056007
 10
2.4156597723
 20
35.8924181908
 10
2.3752989729
 20
36.0106254076
 10
2.3271536002
 20
36.1255615241
 10
2.2715535519
 20
36.2367922672
 10
2.2099061873
 20
36.3414674233
 10
2.1423254299
 20
36.4390607757
 10
2.0686973561
 20
36.530098541
 10
1.9900875546
 20
36.6133091553
 10
1.9061850504
 20
36.6887948373
 10
1.8173008185
 20
36.7564533683
 10
1.7254333714
 20
36.8147065287
 10
1.63124888
 20
36.8630282455
 10
1.5340811735
 20
36.9019445916
 10
1.4339302519
 20
36.9314555673
  0
LINE
  5
226
100
AcDbEntity
  8
RACCORDO
100
AcDbLine
 62
250
  6
CONTINUOUS
 10
6.2807560463
 20
29.6369404691
 11
7.1246544547
 21
28.8959654623
  0
LWPOLYLINE
  5
227
100
AcDbEntity
  8
RACCORDO
100
AcDbPolyline
 62
250
  6
CONTINUOUS
 90
47
 70
0
 10
7.1246544547
 20
28.8959654623
 10
7.9619965581
 20
28.1313026979
 10
8.7921115235
 20
27.3435648013
 10
9.6143345829
 20
26.5333826238
 10
10.4280072945
 20
25.7014049687
 10
11.2324779769
 20
24.8482981708
 10
12.0271021985
 20
23.9747456145
 10
12.8112434393
 20
23.081447042
 10
13.5842735945
 20
22.1691179958
 10
14.345573498
 20
21.2384892161
 10
15.0945333809
 20
20.2903060957
 10
15.830553374
 20
19.325328064
 10
16.5530438958
 20
18.3443281017
 10
17.2614261523
 20
17.3480921009
 10
17.9551326528
 20
16.3374181716
 10
18.6336078481
 20
15.3131157216
 10
19.2963084726
 20
14.2760049219
 10
19.942703837
 20
13.2269162574
 10
20.5722760399
 20
12.1666902415
 10
21.1845205818
 20
11.096176473
 10
21.77894694
 20
10.0162326696
 10
22.3550791385
 20
8.9277236134
 10
22.9124558945
 20
7.8315208256
 10
23.4506308547
 20
6.7285021237
 10
23.9691728265
 20
5.6195512257
 10
24.467666324
 20
4.5055566848
 10
24.9457119979
 20
3.3874109656
 10
25.4029270246
 20
2.2660095199
 10
25.8389452671
 20
1.1422503688
 10
26.2534175041
 20
0.0170335511
 10
26.6460117155
 20
-1.108739576
 10
27.0164134283
 20
-2.2341672642
 10
27.3643259811
 20
-3.3583481556
 10
27.6894706659
 20
-4.4803817033
 10
27.9915869655
 20
-5.5993688741
 10
28.2704328255
 20
-6.7144130488
 10
28.525785003
 20
-7.8246214283
 10
28.7574391167
 20
-8.9291054382
 10
28.9652095703
 20
-10.0269803034
 10
29.1489299349
 20
-11.1173667275
 10
29.308453153
 20
-12.1993922572
 10
29.4436515002
 20
-13.2721914205
 10
29.5544163897
 20
-14.3349036043
 10
29.6406588111
 20
-15.3866747786
 10
29.7023097425
 20
-16.4266616195
 10
29.7393199905
 20
-17.4540320913
 10
29.751660012
 20
-18.4679633381
  0
LINE
  5
228
100
AcDbEntity
  8
0
100
AcDbLine
 62
7
  6
CONTINUOUS
 10
5.3337577784
 20
36.8974862111
 11
4.3266657354
 21
38.154657419
  0
LINE
  5
229
100
AcDbEntity
  8
0
100
AcDbLine
 62
7
  6
CONTINUOUS
 10
5.9461302141
 20
36.9521451799
 11
4.9390381711
 21
38.2093163878
  0
LWPOLYLINE
  5
22A
100
AcDbEntity
  8
RACCORDO
100
AcDbPolyline
 62
250
  6
CONTINUOUS
 90
26
 70
0
 10
29.751660012
 20
-18.4679633381
 10
29.7393200548
 20
-19.4676420557
 10
29.7023099856
 20
-20.4522717903
 10
29.6406593269
 20
-21.4210637943
 10
29.5544172594
 20
-22.373242751
 10
29.4436527799
 20
-23.3080451134
 10
29.3084548407
 20
-24.2247198572
 10
29.1489319412
 20
-25.1225319826
 10
28.9652118012
 20
-26.0007632223
 10
28.757441568
 20
-26.8587104141
 10
28.5257877285
 20
-27.6956862681
 10
28.2704358389
 20
-28.5110205278
 10
27.9915902596
 20
-29.3040607026
 10
27.6894742168
 20
-30.0741718209
 10
27.3643297746
 20
-30.8207367428
 10
27.0164174661
 20
-31.5431572359
 10
26.6460160113
 20
-32.2408545794
 10
26.2534220631
 20
-32.913270015
 10
25.8389500799
 20
-33.5598649642
 10
25.4029320702
 20
-34.1801214913
 10
24.9457172635
 20
-34.7735428121
 10
24.4676718127
 20
-35.3396536905
 10
23.9691785545
 20
-35.8780007379
 10
23.450636828
 20
-36.3881526642
 10
22.9124620984
 20
-36.8697007279
 10
22.3550855393
 20
-37.3222591534
  0
LWPOLYLINE
  5
22B
100
AcDbEntity
  8
DRAFT
100
AcDbPolyline
 62
7
  6
CONTINUOUS
 90
86
 70
0
 10
32.2397010411
 20
-18.1950037199
 10
32.2268780124
 20
-17.1465353642
 10
32.1886689576
 20
-16.0858694925
 10
32.1250738768
 20
-15.0130061049
 10
32.0359961505
 20
-13.9270297615
 10
31.9215323982
 20
-12.8288559022
 10
31.7819724784
 20
-11.7212308465
 10
31.6172725591
 20
-10.6042302386
 10
31.4274764724
 20
-9.4777784345
 10
31.2130055735
 20
-8.3443948213
 10
30.9737686977
 20
-7.2039166113
 10
30.7098570097
 20
-6.0565065924
 10
30.4219653595
 20
-4.905172515
 10
30.1100885422
 20
-3.7500966518
 10
29.7742317627
 20
-2.5910967302
 10
29.4151054851
 20
-1.4306336833
 10
29.0325767999
 20
-0.2684701093
 10
28.6267786166
 20
0.8951565899
 10
28.1988201283
 20
2.057073275
 10
27.7487530717
 20
3.2170040419
 10
27.2765257101
 20
4.3752247946
 10
26.7830920259
 20
5.5293901068
 10
26.2682658337
 20
6.6797948024
 10
25.732233319
 20
7.8261440574
 10
25.1765070207
 20
8.9652079728
 10
24.6012066678
 20
10.0966375108
 10
24.0062125314
 20
11.220781709
 10
23.3926779634
 20
12.3354577817
 10
22.7603590983
 20
13.4409951631
 10
22.1094998017
 20
14.5370644188
 10
21.4419850216
 20
15.6204944602
 10
20.7580060898
 20
16.6908888191
 10
20.0573716745
 20
17.7486439636
 10
19.3413927282
 20
18.7917782097
 10
18.6097702575
 20
19.8206295759
 10
17.862803256
 20
20.8348600436
 10
17.1026996563
 20
21.831473874
 10
16.3297189085
 20
22.8100555669
 10
15.5436015627
 20
23.7710206225
 10
14.7457772022
 20
24.712619802
 10
13.9359005492
 20
25.6351729836
 10
13.1143168815
 20
26.5383602892
 10
12.2834916161
 20
27.4194728462
 10
11.4437425643
 20
28.2781046579
 10
10.5947519148
 20
29.1146617211
 10
9.7380316509
 20
29.9276531532
 10
8.8732042462
 20
30.7173557335
 10
8.0006472272
 20
31.4834926827
 10
7.1230051565
 20
32.2237427815
 10
6.2406394138
 20
32.93773576
 10
5.3531886195
 20
33.625841888
 10
4.4622131973
 20
34.2868507552
 10
3.5673211453
 20
34.9209751062
 10
2.6689044655
 20
35.5280021964
 10
1.7696995869
 20
36.1060833812
 10
0.870093187
 20
36.6549058432
 10
-0.0303014116
 20
37.1747823998
 10
-0.9299078115
 20
37.664802859
 10
-1.82911269
 20
38.1251009286
 10
-2.7275293699
 20
38.5555429007
 10
-3.6224214218
 20
38.95481746
 10
-4.5133968441
 20
39.3226846773
 10
-5.4008476384
 20
39.6593844819
 10
-6.2832133811
 20
39.9643253457
 10
-7.1608554517
 20
40.2375543113
 10
-8.0334124708
 20
40.4790243362
 10
-8.8982398754
 20
40.6880027652
 10
-9.7549601393
 20
40.8643304193
 10
-10.6039507888
 20
41.0081664775
 10
-11.4436998407
 20
41.1192558218
 10
-12.274525106
 20
41.1975594558
 10
-13.0961087737
 20
41.243116376
 10
-13.9059854267
 20
41.2557884531
 10
-14.7038097872
 20
41.2354968468
 10
-15.4899271331
 20
41.1823203975
 10
-16.2629078809
 20
41.0963574967
 10
-17.0230114805
 20
40.9774922505
 10
-17.7699784821
 20
40.8258405528
 10
-18.5016009527
 20
40.641848477
 10
-19.217579899
 20
40.4255087713
 10
-19.9182143143
 20
40.1768286876
 10
-20.6021932462
 20
39.8962760547
 10
-21.2697080263
 20
39.5836753495
 10
-21.9205673229
 20
39.2392020952
 10
-22.5528861879
 20
38.8638506895
 10
-23.0772127195
 20
38.5307710091
  0
LWPOLYLINE
  5
22C
100
AcDbEntity
  8
RACCORDO
100
AcDbPolyline
 62
250
  6
CONTINUOUS
 90
28
 70
0
 10
31.7647147542
 20
-18.4507470352
 10
31.751977524
 20
-19.4826037338
 10
31.7137760342
 20
-20.4989253276
 10
31.6501408811
 20
-21.4988977529
 10
31.5611230104
 20
-22.481720258
 10
31.4467937333
 20
-23.446605387
 10
31.307244725
 20
-24.3927796511
 10
31.1425878817
 20
-25.3194848432
 10
30.9529550877
 20
-26.2259791073
 10
30.7384981607
 20
-27.1115368667
 10
30.4993888441
 20
-27.9754489452
 10
30.2358187001
 20
-28.8170232244
 10
29.9479988333
 20
-29.6355856703
 10
29.6361597916
 20
-30.4304806136
 10
29.3005513505
 20
-31.2010713737
 10
28.9414422859
 20
-31.9467408074
 10
28.5591201916
 20
-32.6668917124
 10
28.1538913326
 20
-33.3609471721
 10
27.7260803718
 20
-34.0283511226
 10
27.2760300538
 20
-34.6685689015
 10
26.8041008091
 20
-35.2810878116
 10
26.3106705336
 20
-35.8654173792
 10
25.7961343617
 20
-36.4210896447
 10
25.2609045021
 20
-36.9476594118
 10
24.7054098079
 20
-37.4447047671
 10
24.1300953376
 20
-37.9118275141
 10
23.5354218178
 20
-38.3486536006
 10
22.9218654031
 20
-38.7548332597
  0
LINE
  5
22D
100
AcDbEntity
  8
0
100
AcDbLine
 62
7
  6
CONTINUOUS
 10
5.9461302141
 20
36.9521451799
 11
5.3337577784
 21
36.8974862111
  0
LINE
  5
22E
100
AcDbEntity
  8
0
100
AcDbLine
 62
7
  6
CONTINUOUS
 10
4.3266657354
 20
38.154657419
 11
4.9390381711
 21
38.2093163878
  0
LINE
  5
22F
100
AcDbEntity
  8
0
100
AcDbLine
 62
7
  6
CONTINUOUS
 10
1.4339302519
 20
36.9314555673
 11
-0.3891021437
 21
37.3702230943
  0
LINE
  5
230
100
AcDbEntity
  8
0
100
AcDbLine
 62
7
  6
CONTINUOUS
 10
4.9390381711
 20
38.2093163878
 11
7.8638408267
 21
37.5053747402
  0
LWPOLYLINE
  5
231
100
AcDbEntity
  8
RACCORDO
100
AcDbPolyline
 62
250
  6
CONTINUOUS
 90
87
 70
0
 10
22.3550855393
 20
-37.3222591534
 10
21.7789535193
 20
-37.745465543
 10
21.1845273523
 20
-38.1389810306
 10
20.5722830372
 20
-38.5024904704
 10
19.9427110783
 20
-38.8357026043
 10
19.2963159447
 20
-39.138350434
 10
18.6336155374
 20
-39.4101915036
 10
17.9551405439
 20
-39.6510081535
 10
17.2614341935
 20
-39.8606075705
 10
16.5530519692
 20
-40.0388218888
 10
15.8305614195
 20
-40.1855082959
 10
15.0945414943
 20
-40.3005492486
 10
14.3455819164
 20
-40.3838526017
 10
13.5842824294
 20
-40.4353516772
 10
12.8112525539
 20
-40.4550052431
 10
12.0271112798
 20
-40.442797533
 10
11.2324868714
 20
-40.3987382997
 10
10.4280161018
 20
-40.3228628501
 10
9.6143435482
 20
-40.2152320077
 10
8.7921207576
 20
-40.075931986
 10
7.9620060093
 20
-39.9050743097
 10
7.1246639956
 20
-39.7027957601
 10
6.280765621
 20
-39.4692583809
 10
5.4309871602
 20
-39.204649322
 10
4.5760094981
 20
-38.9091806298
 10
3.7165172433
 20
-38.5830889239
 10
2.8531985009
 20
-38.2266352714
 10
1.9867445471
 20
-37.8401050636
 10
1.117849623
 20
-37.4238079773
 10
0.2472100443
 20
-36.978077625
 10
-0.6244765884
 20
-36.5032711768
 10
-1.4965122961
 20
-35.9997688492
 10
-2.3681989367
 20
-35.4679737403
 10
-3.2388385311
 20
-34.9083116424
 10
-4.1077334787
 20
-34.3212309567
 10
-4.974187465
 20
-33.7072021578
 10
-5.8375062516
 20
-33.0667172582
 10
-6.6969985592
 20
-32.4002891372
 10
-7.5519762747
 20
-31.7084513403
 10
-8.4017547684
 20
-30.9917578355
 10
-9.2456531768
 20
-30.2507828286
 10
-10.0829952801
 20
-29.4861200643
 10
-10.9131102456
 20
-28.6983821677
 10
-11.735333305
 20
-27.8881999902
 10
-12.5490060166
 20
-27.0562223351
 10
-13.3534766989
 20
-26.2031155372
 10
-14.1481009205
 20
-25.3295629809
 10
-14.9322421614
 20
-24.4362644084
 10
-15.7052723166
 20
-23.5239353622
 10
-16.46657222
 20
-22.5933065825
 10
-17.215532103
 20
-21.6451234621
 10
-17.9515520961
 20
-20.6801454304
 10
-18.6740426179
 20
-19.6991454681
 10
-19.3824248744
 20
-18.7029094673
 10
-20.0761313749
 20
-17.692235538
 10
-20.7546065702
 20
-16.667933088
 10
-21.4173071947
 20
-15.6308222883
 10
-22.0637025591
 20
-14.5817336238
 10
-22.693274762
 20
-13.5215076079
 10
-23.3055193039
 20
-12.4509938394
 10
-23.8999456621
 20
-11.3710500361
 10
-24.4760778606
 20
-10.2825409799
 10
-25.0334546166
 20
-9.186338192
 10
-25.5716295768
 20
-8.0833194901
 10
-26.0901715486
 20
-6.9743685921
 10
-26.5886650462
 20
-5.8603740512
 10
-27.06671072
 20
-4.7422283321
 10
-27.5239257467
 20
-3.6208268864
 10
-27.9599439892
 20
-2.4970677353
 10
-28.3744162263
 20
-1.3718509175
 10
-28.7670104377
 20
-0.2460777904
 10
-29.1374121505
 20
0.8793498977
 10
-29.4853247033
 20
2.0035307892
 10
-29.8104693881
 20
3.1255643369
 10
-30.1125856876
 20
4.2445515077
 10
-30.3914315476
 20
5.3595956823
 10
-30.6467837251
 20
6.4698040619
 10
-30.8784378388
 20
7.5742880718
 10
-31.0862082925
 20
8.672162937
 10
-31.2699286571
 20
9.7625493611
 10
-31.4294518752
 20
10.8445748907
 10
-31.5646502224
 20
11.9173740541
 10
-31.6754151119
 20
12.9800862379
 10
-31.7616575333
 20
14.0318574122
 10
-31.8233084647
 20
15.0718442532
 10
-31.8603187127
 20
16.099214725
 10
-31.8726587342
 20
17.1131459718
  0
LINE
  5
232
100
AcDbEntity
  8
RACCORDO
100
AcDbLine
 62
250
  6
CONTINUOUS
 10
22.9218654031
 20
-38.7548332597
 11
22.2899174087
 21
-39.1300412046
  0
LINE
  5
233
100
AcDbEntity
  8
RACCORDO
100
AcDbLine
 62
250
  6
CONTINUOUS
 10
22.2899174087
 20
-39.1300412046
 11
21.8885812637
 21
-39.347251201
  0
LWPOLYLINE
  5
234
100
AcDbEntity
  8
DRAFT
100
AcDbPolyline
 62
7
  6
CONTINUOUS
 90
30
 70
0
 10
22.3585422458
 20
-39.1019519579
 10
22.7603590983
 20
-38.8844961355
 10
23.3926779634
 20
-38.5091447299
 10
24.0062125314
 20
-38.1029629975
 10
24.6012066678
 20
-37.665903114
 10
25.1765070207
 20
-37.1988160031
 10
25.732233319
 20
-36.7014908872
 10
26.2682658337
 20
-36.1741385441
 10
26.7830920259
 20
-35.6182422306
 10
27.2765257101
 20
-35.0338817686
 10
27.7487530717
 20
-34.4209773363
 10
28.1988201283
 20
-33.780772725
 10
28.6267786166
 20
-33.113051775
 10
29.0325767999
 20
-32.4180306462
 10
29.4151054851
 20
-31.6976016094
 10
29.7742317627
 20
-30.9518485861
 10
30.1100885422
 20
-30.180687655
 10
30.4219653595
 20
-29.3857593228
 10
30.7098570097
 20
-28.5668753069
 10
30.9737686977
 20
-27.7242238901
 10
31.2130055735
 20
-26.8600104276
 10
31.4274764724
 20
-25.9742924326
 10
31.6172725591
 20
-25.0670123919
 10
31.7819724784
 20
-24.1402031225
 10
31.9215323982
 20
-23.193738364
 10
32.0359961505
 20
-22.2277443767
 10
32.1250738768
 20
-21.2446327588
 10
32.1886689576
 20
-20.2452073764
 10
32.2268780124
 20
-19.2286643635
 10
32.2397010411
 20
-18.1950037199
  0
LINE
  5
235
100
AcDbEntity
  8
DRAFT
100
AcDbLine
 62
7
  6
CONTINUOUS
 10
22.3585905694
 20
-39.1020384756
 11
21.8885812637
 21
-39.347251201
  0
ENDSEC
  0
SECTION
  2
OBJECTS
  0
DICTIONARY
  5
C
100
AcDbDictionary
280
0
281
1
  3
ACAD_GROUP
350
D
  3
ACAD_MLINESTYLE
350
17
  3
ACAD_LAYOUT
350
1A
  3
ACAD_PLOTSETTINGS
350
19
  3
ACAD_PLOTSTYLENAME
350
E
  0
DICTIONARY
  5
D
102
{ACAD_REACTORS
330
C
102
}
100
AcDbDictionary
280
0
281
1
  0
ACDBDICTIONARYWDFLT
  5
E
102
{ACAD_REACTORS
330
C
102
}
100
AcDbDictionary
281
1
  3
Normal
350
F
100
AcDbDictionaryWithDefault
340
F
  0
DICTIONARY
  5
17
102
{ACAD_REACTORS
330
C
102
}
100
AcDbDictionary
280
0
281
1
  3
Standard
350
18
  0
DICTIONARY
  5
19
102
{ACAD_REACTORS
330
C
102
}
100
AcDbDictionary
281
1
  0
DICTIONARY
  5
1A
102
{ACAD_REACTORS
330
C
102
}
100
AcDbDictionary
281
1
  3
Model
350
236
  3
Layout1
350
237
  0
ACDBPLACEHOLDER
  5
F
102
{ACAD_REACTORS
330
E
102
}
  0
MLINESTYLE
  5
18
102
{ACAD_REACTORS
330
17
102
}
100
AcDbMlineStyle
  2
STANDARD
 70
0
  3

 62
256
 51
90.0
 52
90.0
 71
2
 49
0.5
 62
256
  6
BYLAYER
 49
-0.5
 62
256
  6
BYLAYER
  0
LAYOUT
  5
236
102
{ACAD_REACTORS
330
1A
102
}
100
AcDbPlotSettings
  1

  2
none_device
  4
ANSI_C_(22.00_x_17.00_Inches)
  6

 40
0.0
 41
0.0
 42
0.0
 43
0.0
 44
558.8
 45
431.8
 46
0.0
 47
0.0
 48
0.0
 49
0.0
140
0.0
141
0.0
142
1.0
143
1.0
 70
1024
 72
1
 73
0
 74
0
  7

 75
0
147
1.0
148
0.0
149
0.0
100
AcDbLayout
  1
Model
 70
0
 71
0
 10
0.0
 20
0.0
 11
558.8
 21
431.8
 12
0.0
 22
0.0
 32
0.0
 14
0.0
 24
0.0
 34
0.0
 15
0.0
 25
0.0
 35
0.0
146
0.0
 13
0.0
 23
0.0
 33
0.0
 16
1.0
 26
0.0
 36
0.0
 17
0.0
 27
1.0
 37
0.0
 76
0
330
214
345
0
346
0
  0
LAYOUT
  5
237
102
{ACAD_REACTORS
330
1A
102
}
100
AcDbPlotSettings
  1

  2
none_device
  4
ANSI_C_(22.00_x_17.00_Inches)
  6

 40
0.0
 41
0.0
 42
0.0
 43
0.0
 44
558.8
 45
431.8
 46
0.0
 47
0.0
 48
0.0
 49
0.0
140
0.0
141
0.0
142
1.0
143
1.0
 70
0
 72
1
 73
0
 74
0
  7

 75
0
147
1.0
148
0.0
149
0.0
100
AcDbLayout
  1
Layout1
 70
0
 71
1
 10
0.0
 20
0.0
 11
558.8
 21
431.8
 12
0.0
 22
0.0
 32
0.0
 14
0.0
 24
0.0
 34
0.0
 15
0.0
 25
0.0
 35
0.0
146
0.0
 13
0.0
 23
0.0
 33
0.0
 16
1.0
 26
0.0
 36
0.0
 17
0.0
 27
1.0
 37
0.0
 76
0
330
215
345
0
346
0
  0
ENDSEC
  0
EOF
