  0
SECTION
  2
HEADER
  9
$ACADVER
  1
AC1024
  9
$DWGCODEPAGE
  3
ANSI_1252
  9
$EXTMAX
 10
297.0
 20
210.0
 30
0.0
  9
$EXTMIN
 10
0.0
 20
0.0
 30
0.0
  9
$LIMMIN
 10
0.0
 20
0.0
  9
$LIMMAX
 10
297.0
 20
210.0
  9
$VIEWCTR
 10
148.5
 20
105.0
  9
$VIEWSIZE
 40
210.0
  9
$CLAYER
  8
0
  9
$LTSCALE
 40
16.335
  9
$CELTYPE
  6
BYLAYER
  9
$DIMSCALE
 40
1.0
  9
$DIMASZ
 40
3.0
  9
$DIMEXO
 40
0.5
  9
$DIMDLI
 40
11.286
  9
$DIMEXE
 40
1.5
  9
$DIMCEN
 40
2.673
  9
$DIMLFAC
 40
1.0
  9
$DIMBLK
  1
_FILLED
  9
$DIMALT
 70
0
  9
$DIMALTF
 40
0.0393700787
  9
$DIMTXT
 40
3.0
  9
$DIMTOL
 70
1
  9
$DIMLIM
 70
0
  9
$DIMTFAC
 40
1.0
  9
$DIMTP
 40
0.01
  9
$DIMTM
 40
0.01
  9
$DIMGAP
 40
0.625
  9
$DIMDSEP
 70
44
  9
$AUNITS
 70
0
  9
$PDMODE
 70
3
  9
$PDSIZE
 40
3.0
  9
$HANDSEED
  5
299
  9
$TILEMODE
 70
1
  9
$MEASUREMENT
 70
1
  9
$INSUNITS
 70
4
  0
ENDSEC
  0
SECTION
  2
CLASSES
  0
CLASS
  1
ACDBDICTIONARYWDFLT
  2
AcDbDictionaryWithDefault
  3
AutoCAD 2000
 90
0
 91
1
280
0
281
0
  0
CLASS
  1
ACDBPLACEHOLDER
  2
AcDbPlaceHolder
  3
AutoCAD 2000
 90
0
 91
1
280
0
281
0
  0
CLASS
  1
LAYOUT
  2
AcDbLayout
  3
AutoCAD 2000
 90
0
 91
0
280
0
281
0
  0
ENDSEC
  0
SECTION
  2
TABLES
  0
TABLE
  2
VPORT
  5
8
100
AcDbSymbolTable
 70
2
  0
VPORT
  5
1F4
100
AcDbSymbolTableRecord
100
AcDbViewportTableRecord
  2
*ACTIVE
 70
0
 10
0.0
 20
0.0
 11
1.0
 21
1.0
 12
148.5
 22
105.0
 13
0.0
 23
0.0
 14
1.0
 24
1.0
 15
0.0
 25
0.0
 16
0.0
 26
0.0
 36
1.0
 17
0.0
 27
0.0
 37
0.0
 40
210.0
 41
1.4142857143
 42
50.0
 43
0.0
 44
0.0
 50
0.0
 51
0.0
 71
0
 72
100
 73
1
 74
1
 75
0
 76
0
 77
0
 78
0
  0
ENDTAB
  0
TABLE
  2
LTYPE
  5
5
100
AcDbSymbolTable
 70
6
  0
LTYPE
  5
14
100
AcDbSymbolTableRecord
100
AcDbLinetypeTableRecord
  2
BYBLOCK
 70
0
  3

 72
65
 73
0
 40
0.0
  0
LTYPE
  5
15
100
AcDbSymbolTableRecord
100
AcDbLinetypeTableRecord
  2
BYLAYER
 70
0
  3

 72
65
 73
0
 40
0.0
  0
LTYPE
  5
16
100
AcDbSymbolTableRecord
100
AcDbLinetypeTableRecord
  2
CONTINUOUS
 70
64
  3
Solid line
 72
65
 73
0
 40
0.0
  0
LTYPE
  5
1F5
100
AcDbSymbolTableRecord
100
AcDbLinetypeTableRecord
  2
CENTER
 70
64
  3
____ _ ____ _ ____ _ ____ _ ____ _ ____ _ ____
 72
65
 73
4
 40
0.6
 49
0.375
 74
0
 49
-0.075
 74
0
 49
0.075
 74
0
 49
-0.075
 74
0
  0
LTYPE
  5
1F6
100
AcDbSymbolTableRecord
100
AcDbLinetypeTableRecord
  2
HIDDEN
 70
64
  3
- - - - - - - - - - - - - - - - - - - -
 72
65
 73
2
 40
0.2
 49
0.1
 74
0
 49
-0.1
 74
0
  0
LTYPE
  5
1F7
100
AcDbSymbolTableRecord
100
AcDbLinetypeTableRecord
  2
PHANTOM
 70
64
  3
_____ _ _ _____ _ _ _____ _ _ _____
 72
65
 73
6
 40
0.8
 49
0.45
 74
0
 49
-0.05
 74
0
 49
0.1
 74
0
 49
-0.05
 74
0
 49
0.1
 74
0
 49
-0.05
 74
0
  0
LTYPE
  5
1F8
100
AcDbSymbolTableRecord
100
AcDbLinetypeTableRecord
  2
DOT
 70
64
  3
. . . . . . . . . . . . . . . . . . . .
 72
65
 73
2
 40
0.2
 49
0.1
 74
0
 49
-0.1
 74
0
  0
LTYPE
  5
1F9
100
AcDbSymbolTableRecord
100
AcDbLinetypeTableRecord
  2
DASHED
 70
64
  3
- - - - - - - - - - - - - - - - - - - -
 72
65
 73
2
 40
0.2
 49
0.1
 74
0
 49
-0.1
 74
0
  0
ENDTAB
  0
TABLE
  2
LAYER
  5
2
100
AcDbSymbolTable
 70
36
  0
LAYER
  5
10
100
AcDbSymbolTableRecord
100
AcDbLayerTableRecord
  2
0
 70
0
 62
7
  6
CONTINUOUS
370
-3
390
F
  0
LAYER
  5
1FA
100
AcDbSymbolTableRecord
100
AcDbLayerTableRecord
  2
DEFAULT_1
 70
0
 62
7
  6
CENTER
370
-3
390
F
  0
LAYER
  5
1FB
100
AcDbSymbolTableRecord
100
AcDbLayerTableRecord
  2
DEFAULT_2
 70
0
 62
7
  6
HIDDEN
370
-3
390
F
  0
LAYER
  5
1FC
100
AcDbSymbolTableRecord
100
AcDbLayerTableRecord
  2
DEFAULT_3
 70
0
 62
7
  6
PHANTOM
370
-3
390
F
  0
LAYER
  5
1FD
100
AcDbSymbolTableRecord
100
AcDbLayerTableRecord
  2
ASSI
 70
0
 62
7
  6
CONTINUOUS
370
-3
390
F
  0
LAYER
  5
1FE
100
AcDbSymbolTableRecord
100
AcDbLayerTableRecord
  2
COLOR5
 70
0
 62
7
  6
CONTINUOUS
370
-3
390
F
  0
LAYER
  5
1FF
100
AcDbSymbolTableRecord
100
AcDbLayerTableRecord
  2
COORDINATE
 70
0
 62
7
  6
CONTINUOUS
370
-3
390
F
  0
LAYER
  5
200
100
AcDbSymbolTableRecord
100
AcDbLayerTableRecord
  2
COORD_ORIGINE
 70
0
 62
7
  6
CONTINUOUS
370
-3
390
F
  0
LAYER
  5
201
100
AcDbSymbolTableRecord
100
AcDbLayerTableRecord
  2
COPY_PUBLISH
 70
0
 62
7
  6
CONTINUOUS
370
-3
390
F
  0
LAYER
  5
202
100
AcDbSymbolTableRecord
100
AcDbLayerTableRecord
  2
COSMETICI
 70
0
 62
7
  6
CONTINUOUS
370
-3
390
F
  0
LAYER
  5
203
100
AcDbSymbolTableRecord
100
AcDbLayerTableRecord
  2
CURVE
 70
0
 62
7
  6
CONTINUOUS
370
-3
390
F
  0
LAYER
  5
204
100
AcDbSymbolTableRecord
100
AcDbLayerTableRecord
  2
DRAFT
 70
0
 62
7
  6
CONTINUOUS
370
-3
390
F
  0
LAYER
  5
205
100
AcDbSymbolTableRecord
100
AcDbLayerTableRecord
  2
IMPORT_IGES
 70
0
 62
7
  6
CONTINUOUS
370
-3
390
F
  0
LAYER
  5
206
100
AcDbSymbolTableRecord
100
AcDbLayerTableRecord
  2
INTF_1
 70
0
 62
7
  6
CONTINUOUS
370
-3
390
F
  0
LAYER
  5
207
100
AcDbSymbolTableRecord
100
AcDbLayerTableRecord
  2
INTF_11
 70
0
 62
7
  6
CONTINUOUS
370
-3
390
F
  0
LAYER
  5
208
100
AcDbSymbolTableRecord
100
AcDbLayerTableRecord
  2
INTF_7
 70
0
 62
7
  6
CONTINUOUS
370
-3
390
F
  0
LAYER
  5
209
100
AcDbSymbolTableRecord
100
AcDbLayerTableRecord
  2
NOTE
 70
0
 62
7
  6
CONTINUOUS
370
-3
390
F
  0
LAYER
  5
20A
100
AcDbSymbolTableRecord
100
AcDbLayerTableRecord
  2
PIANI
 70
0
 62
7
  6
CONTINUOUS
370
-3
390
F
  0
LAYER
  5
20B
100
AcDbSymbolTableRecord
100
AcDbLayerTableRecord
  2
PIANI_ORIGINE
 70
0
 62
7
  6
CONTINUOUS
370
-3
390
F
  0
LAYER
  5
20C
100
AcDbSymbolTableRecord
100
AcDbLayerTableRecord
  2
PUNTI
 70
0
 62
7
  6
CONTINUOUS
370
-3
390
F
  0
LAYER
  5
20D
100
AcDbSymbolTableRecord
100
AcDbLayerTableRecord
  2
RACCORDO
 70
0
 62
7
  6
CONTINUOUS
370
-3
390
F
  0
LAYER
  5
20E
100
AcDbSymbolTableRecord
100
AcDbLayerTableRecord
  2
RGB__255__255__255__
 70
0
 62
7
  6
CONTINUOUS
370
-3
390
F
  0
LAYER
  5
20F
100
AcDbSymbolTableRecord
100
AcDbLayerTableRecord
  2
RGB____0____0____0__
 70
0
 62
7
  6
CONTINUOUS
370
-3
390
F
  0
LAYER
  5
210
100
AcDbSymbolTableRecord
100
AcDbLayerTableRecord
  2
SIMBOLI
 70
0
 62
7
  6
CONTINUOUS
370
-3
390
F
  0
LAYER
  5
211
100
AcDbSymbolTableRecord
100
AcDbLayerTableRecord
  2
SMUSSO
 70
0
 62
7
  6
CONTINUOUS
370
-3
390
F
  0
LAYER
  5
212
100
AcDbSymbolTableRecord
100
AcDbLayerTableRecord
  2
SNAPLINE
 70
0
 62
7
  6
CONTINUOUS
370
-3
390
F
  0
LAYER
  5
213
100
AcDbSymbolTableRecord
100
AcDbLayerTableRecord
  2
SUPERFICI
 70
0
 62
7
  6
CONTINUOUS
370
-3
390
F
  0
LAYER
  5
214
100
AcDbSymbolTableRecord
100
AcDbLayerTableRecord
  2
TRASH
 70
0
 62
7
  6
CONTINUOUS
370
-3
390
F
  0
ENDTAB
  0
TABLE
  2
STYLE
  5
3
100
AcDbSymbolTable
 70
1
  0
STYLE
  5
11
100
AcDbSymbolTableRecord
100
AcDbTextStyleTableRecord
  2
STANDARD
 70
0
 40
0.0
 41
0.8
 50
0.0
 71
0
 42
0.2
  3
txt
  4

  0
STYLE
  5
215
100
AcDbSymbolTableRecord
100
AcDbTextStyleTableRecord
  2
TEXTSTYLE_1
 70
0
 40
0.0
 41
0.8
 50
0.0
 71
0
 42
0.2
  3
gdt
  4

  0
ENDTAB
  0
TABLE
  2
VIEW
  5
6
100
AcDbSymbolTable
 70
0
  0
ENDTAB
  0
TABLE
  2
UCS
  5
7
100
AcDbSymbolTable
 70
0
  0
ENDTAB
  0
TABLE
  2
APPID
  5
9
100
AcDbSymbolTable
 70
1
  0
APPID
  5
216
100
AcDbSymbolTableRecord
100
AcDbRegAppTableRecord
  2
ACAD
 70
0
  0
ENDTAB
  0
TABLE
  2
BLOCK_RECORD
  5
1
100
AcDbSymbolTable
 70
0
  0
BLOCK_RECORD
  5
217
100
AcDbSymbolTableRecord
100
AcDbBlockTableRecord
  2
*Model_Space
  0
BLOCK_RECORD
  5
218
100
AcDbSymbolTableRecord
100
AcDbBlockTableRecord
  2
*Paper_Space
  0
BLOCK_RECORD
  5
219
100
AcDbSymbolTableRecord
100
AcDbBlockTableRecord
  2
_FILLED
  0
ENDTAB
  0
TABLE
  2
DIMSTYLE
  5
A
100
AcDbSymbolTable
 70
1
100
AcDbDimStyleTable
 71
0
  0
DIMSTYLE
105
21A
100
AcDbSymbolTableRecord
100
AcDbDimStyleTableRecord
  2
STANDARD
 70
0
  3

  4

 40
1.0
 41
3.0
 42
0.5
 43
0.38
 44
1.5
 45
0.0
 46
0.0
 47
0.01
 48
0.01
140
3.0
141
0.09
142
0.0
143
25.4
144
1.0
145
0.0
146
1.0
147
0.625
 71
1
 72
0
 73
0
 74
0
 75
0
 76
0
 77
1
 78
8
 79
2
170
0
171
1
172
0
173
0
174
0
175
0
176
0
177
0
178
0
270
2
179
2
271
2
272
2
273
2
274
2
275
0
280
0
281
0
282
0
283
1
284
8
285
0
286
0
287
3
288
0
340
11
278
44
341
219
342
219
343
219
344
219
  0
ENDTAB
  0
ENDSEC
  0
SECTION
  2
BLOCKS
  0
BLOCK
  5
20
100
AcDbEntity
  8
0
100
AcDbBlockBegin
  2
*Model_Space
 70
0
 10
0.0
 20
0.0
 30
0.0
  3
*Model_Space
  1

  0
ENDBLK
  5
21
100
AcDbEntity
  8
0
100
AcDbBlockEnd
  0
BLOCK
  5
1C
100
AcDbEntity
  8
0
100
AcDbBlockBegin
  2
*Paper_Space
 70
0
 10
0.0
 20
0.0
 30
0.0
  3
*Paper_Space
  1

  0
ENDBLK
  5
1D
100
AcDbEntity
  8
0
100
AcDbBlockEnd
  0
BLOCK
  5
21B
100
AcDbEntity
  8
0
100
AcDbBlockBegin
  2
_FILLED
 70
64
 10
0.0
 20
0.0
  3
_FILLED
  1

  0
SOLID
  5
21C
100
AcDbEntity
  8
0
  6
BYBLOCK
 62
0
100
AcDbTrace
 10
0.0
 20
0.0
 11
-1.0
 21
0.3166666667
 12
-1.0
 22
-0.3166666667
 13
-1.0
 23
-0.3166666667
  0
ENDBLK
  5
21D
100
AcDbEntity
  8
0
  6
BYBLOCK
 62
0
100
AcDbBlockEnd
  0
ENDSEC
  0
SECTION
  2
ENTITIES
  0
LWPOLYLINE
  5
21E
100
AcDbEntity
  8
DRAFT
100
AcDbPolyline
 62
7
  6
CONTINUOUS
 90
22
 70
0
 10
112.4196521491
 20
147.6895701401
 10
112.8228930254
 20
147.9458718964
 10
113.0241398537
 20
148.0620468345
 10
113.2331457038
 20
148.1640067502
 10
113.4501597795
 20
148.2517781781
 10
113.6749328771
 20
148.3253345834
 10
113.9060453259
 20
148.3842083978
 10
114.1433075774
 20
148.4282764093
 10
114.3869091801
 20
148.4576618298
 10
114.6359991096
 20
148.4722667272
 10
114.890816134
 20
148.4720308915
 10
115.151121485
 20
148.4570145326
 10
115.4153478339
 20
148.4273003485
 10
115.6833291505
 20
148.3828355374
 10
115.9552314649
 20
148.3236729009
 10
116.2299855378
 20
148.2500535427
 10
116.507744123
 20
148.1618755611
 10
116.7883544667
 20
148.0592408577
 10
117.0702890684
 20
147.9426962405
 10
117.3530387612
 20
147.8124239788
 10
117.6371127121
 20
147.6682418032
 10
117.922510921
 20
147.5101497137
  0
LWPOLYLINE
  5
21F
100
AcDbEntity
  8
RACCORDO
100
AcDbPolyline
 62
250
  6
CONTINUOUS
 90
4
 70
0
 10
112.8520000784
 20
147.9216559283
 10
112.6430882189
 20
147.8197449198
 10
112.4421060963
 20
147.7037227901
 10
112.4196521491
 20
147.6895701401
  0
LINE
  5
220
100
AcDbEntity
  8
RACCORDO
100
AcDbLine
 62
250
  6
CONTINUOUS
 10
117.5319410243
 20
147.2688910955
 11
117.922510921
 21
147.5101497137
  0
LWPOLYLINE
  5
221
100
AcDbEntity
  8
RACCORDO
100
AcDbPolyline
 62
250
  6
CONTINUOUS
 90
40
 70
0
 10
110.5108825944
 20
93.819983548
 10
110.515726301
 20
93.5385843875
 10
110.5302294846
 20
93.2526648229
 10
110.5543921452
 20
92.9622248544
 10
110.5882885356
 20
92.6666671205
 10
110.6318444029
 20
92.3665889825
 10
110.6848369891
 20
92.063782525
 10
110.7473044984
 20
91.7583665194
 10
110.8192087266
 20
91.4502221941
 10
110.900212303
 20
91.140785319
 10
110.9903656316
 20
90.8300202357
 10
111.0896183084
 20
90.5179626025
 10
111.1974817513
 20
90.2061551634
 10
111.3139949723
 20
89.8946103549
 10
111.4391189594
 20
89.5833157406
 10
111.5722480945
 20
89.2737767546
 10
111.7134222551
 20
88.9659992111
 10
111.8626015636
 20
88.659977296
 10
112.0190607693
 20
88.3571990012
 10
112.1828349277
 20
88.0576808785
 10
112.3538889833
 20
87.7614063761
 10
112.5313925178
 20
87.4698138297
 10
112.7153774378
 20
87.1829252688
 10
112.9058118367
 20
86.9007186639
 10
113.1017695771
 20
86.6245662623
 10
113.3032754952
 20
86.3544998576
 10
113.5103047547
 20
86.0904876561
 10
113.721856709
 20
85.8338065239
 10
113.937961903
 20
85.58448373
 10
114.1585897918
 20
85.3424920054
 10
114.382648093
 20
85.109026409
 10
114.6101309041
 20
84.8841486805
 10
114.8410441276
 20
84.6677970803
 10
115.0743131898
 20
84.460981449
 10
115.3100596646
 20
84.2636756677
 10
115.5481619781
 20
84.0759058553
 10
115.7871808339
 20
83.8987602099
 10
116.0266364665
 20
83.732601464
 10
116.2670086414
 20
83.577066885
 10
116.5082973586
 20
83.432156473
  0
LINE
  5
222
100
AcDbEntity
  8
RACCORDO
100
AcDbLine
 62
7
  6
CONTINUOUS
 10
110.0715427662
 20
142.6041417688
 11
110.0715427662
 21
94.432395438
  0
LINE
  5
223
100
AcDbEntity
  8
RACCORDO
100
AcDbLine
 62
250
  6
CONTINUOUS
 10
110.5108825944
 20
141.9917298788
 11
110.5108825944
 21
93.819983548
  0
LWPOLYLINE
  5
224
100
AcDbEntity
  8
RACCORDO
100
AcDbPolyline
 62
7
  6
CONTINUOUS
 90
22
 70
0
 10
110.0715427662
 20
142.6041417688
 10
110.0775022575
 20
142.9376131625
 10
110.0953688726
 20
143.264783069
 10
110.1251265486
 20
143.5853356203
 10
110.1668232205
 20
143.899361807
 10
110.2204119793
 20
144.2061092832
 10
110.2855946077
 20
144.5040874578
 10
110.3622243529
 20
144.7931036755
 10
110.4501333818
 20
145.0728884764
 10
110.5486915957
 20
145.3420266423
 10
110.6574510893
 20
145.6001186827
 10
110.7761758591
 20
145.8473264476
 10
110.9043290061
 20
146.0831912611
 10
111.0413772663
 20
146.307426595
 10
111.1870018162
 20
146.520150265
 10
111.3409228271
 20
146.7214808334
 10
111.5025530537
 20
146.9111424856
 10
111.6715661675
 20
147.0892214893
 10
111.8481369305
 20
147.256223435
 10
112.0320724546
 20
147.4121498872
 10
112.2227289616
 20
147.556641113
 10
112.4196521491
 20
147.6895701401
  0
LWPOLYLINE
  5
225
100
AcDbEntity
  8
RACCORDO
100
AcDbPolyline
 62
250
  6
CONTINUOUS
 90
13
 70
0
 10
116.5082973586
 20
83.432156473
 10
116.5104685377
 20
83.3550880501
 10
116.516973186
 20
83.2808423696
 10
116.5277846734
 20
83.2097233944
 10
116.5428587376
 20
83.1420222865
 10
116.562133665
 20
83.0780162154
 10
116.585530544
 20
83.0179672227
 10
116.6129535872
 20
82.96212115
 10
116.6442905244
 20
82.9107066318
 10
116.6794130618
 20
82.8639341599
 10
116.718177407
 20
82.8219952215
 10
116.7604248584
 20
82.7850615153
 10
116.8053212785
 20
82.7537454306
  0
LWPOLYLINE
  5
226
100
AcDbEntity
  8
RACCORDO
100
AcDbPolyline
 62
250
  6
CONTINUOUS
 90
25
 70
0
 10
116.5082973586
 20
145.4538927145
 10
116.5104685377
 20
145.5334683605
 10
116.516973186
 20
145.6152254458
 10
116.5277846734
 20
145.6988292557
 10
116.5428587376
 20
145.783937515
 10
116.562133665
 20
145.8702017893
 10
116.585530544
 20
145.9572689113
 10
116.6129535872
 20
146.044782427
 10
116.6442905244
 20
146.1323840548
 10
116.6794130618
 20
146.2197151524
 10
116.718177407
 20
146.306418185
 10
116.7604248584
 20
146.3921381891
 10
116.8059824542
 20
146.4765242258
 10
116.8546636811
 20
146.5592308175
 10
116.9062692373
 20
146.6399193621
 10
116.9605878489
 20
146.7182595196
 10
117.0173971348
 20
146.7939305642
 10
117.076464517
 20
146.8666226976
 10
117.1375481727
 20
146.9360383172
 10
117.2003980246
 20
147.0018932343
 10
117.2647567644
 20
147.0639178381
 10
117.3303609065
 20
147.1218581989
 10
117.3969418666
 20
147.175477108
 10
117.4642270614
 20
147.2245550488
 10
117.5319410243
 20
147.2688910955
  0
LWPOLYLINE
  5
227
100
AcDbEntity
  8
RACCORDO
100
AcDbPolyline
 62
250
  6
CONTINUOUS
 90
40
 70
0
 10
185.8047619149
 20
43.4212463269
 10
186.0460465004
 20
43.2875244817
 10
186.2864157914
 20
43.16548456
 10
186.5258697879
 20
43.0551265619
 10
186.7648887069
 20
42.9562589529
 10
187.0029923314
 20
42.8690732674
 10
187.2387400107
 20
42.7941441086
 10
187.4720097782
 20
42.7315860112
 10
187.7029236006
 20
42.6812844404
 10
187.9304067262
 20
42.6434703947
 10
188.1544648326
 20
42.6181987955
 10
188.3750922424
 20
42.6054147214
 10
188.5911971715
 20
42.6051844068
 10
188.8027493415
 20
42.61757038
 10
189.0097790309
 20
42.6425101128
 10
189.2112852917
 20
42.6798822549
 10
189.4072431479
 20
42.7297472722
 10
189.5976775755
 20
42.7920446989
 10
189.7816625548
 20
42.8664717865
 10
189.9591662212
 20
42.9530874107
 10
190.1302204393
 20
43.0518326959
 10
190.2939947827
 20
43.1622282664
 10
190.4504542181
 20
43.2843311913
 10
190.5996337788
 20
43.4180844015
 10
190.7408081392
 20
43.5628373138
 10
190.8739373448
 20
43.7186416752
 10
190.9990613501
 20
43.8854457388
 10
191.1155746927
 20
44.0624436808
 10
191.2234384822
 20
44.2496932255
 10
191.322691609
 20
44.4471366486
 10
191.4128452822
 20
44.6537949538
 10
191.4938489838
 20
44.8696904938
 10
191.5657532317
 20
45.0948009159
 10
191.628220789
 20
45.3280801653
 10
191.6812134833
 20
45.5696906596
 10
191.724769487
 20
45.8194699811
 10
191.7586660805
 20
46.075884823
 10
191.7828290237
 20
46.3384240826
 10
191.7973325566
 20
46.6075988625
 10
191.8021766792
 20
46.8834091626
  0
LINE
  5
228
100
AcDbEntity
  8
RACCORDO
100
AcDbLine
 62
7
  6
CONTINUOUS
 10
116.8189212902
 20
82.7455511813
 11
186.1153858465
 21
42.7346410352
  0
LINE
  5
229
100
AcDbEntity
  8
RACCORDO
100
AcDbLine
 62
250
  6
CONTINUOUS
 10
116.5082973586
 20
83.432156473
 11
185.8047619149
 21
43.4212463269
  0
LWPOLYLINE
  5
22A
100
AcDbEntity
  8
RACCORDO
100
AcDbPolyline
 62
7
  6
CONTINUOUS
 90
37
 70
0
 10
116.8189212902
 20
82.7455511813
 10
116.5100826711
 20
82.9316319514
 10
116.2039875471
 20
83.1315180214
 10
115.9010080547
 20
83.344792143
 10
115.6013015568
 20
83.5712007878
 10
115.3054314699
 20
83.8101925519
 10
115.0143785219
 20
84.0608008897
 10
114.728690619
 20
84.3223286501
 10
114.4485097467
 20
84.5944341468
 10
114.1742220345
 20
84.8765566334
 10
113.9062251553
 20
85.1681046476
 10
113.6447966785
 20
85.4686049812
 10
113.3901700171
 20
85.7776435877
 10
113.1426809566
 20
86.0946872195
 10
112.9026570359
 20
86.4192008036
 10
112.6703419246
 20
86.7507586699
 10
112.4460652238
 20
87.0888130908
 10
112.2301370509
 20
87.4328300838
 10
112.0227858302
 20
87.7824025818
 10
111.8243214431
 20
88.1369894259
 10
111.6350490835
 20
88.4960403709
 10
111.4551989153
 20
88.8591408925
 10
111.2850652836
 20
89.2257499256
 10
111.1249417041
 20
89.5953088263
 10
110.9750606633
 20
89.9673910859
 10
110.8356997977
 20
90.3414624963
 10
110.7071424008
 20
90.7169533089
 10
110.5896278652
 20
91.0934087194
 10
110.483411825
 20
91.4703306171
 10
110.3887750012
 20
91.8471148727
 10
110.3059795297
 20
92.2231875474
 10
110.2352586274
 20
92.5980940865
 10
110.1768783107
 20
92.9711996988
 10
110.1311048746
 20
93.3417240942
 10
110.0981552219
 20
93.7090793184
 10
110.078230775
 20
94.072816472
 10
110.0715427662
 20
94.432395438
  0
LWPOLYLINE
  5
22B
100
AcDbEntity
  8
RACCORDO
100
AcDbPolyline
 62
250
  6
CONTINUOUS
 90
25
 70
0
 10
191.8021766792
 20
46.8834091626
 10
191.872178915
 20
46.8454979721
 10
191.9462369187
 20
46.8102492138
 10
192.0240474958
 20
46.7778071964
 10
192.1052920886
 20
46.7483047382
 10
192.1896380807
 20
46.7218626226
 10
192.2767401582
 20
46.698589104
 10
192.3662417242
 20
46.6785794645
 10
192.4577763577
 20
46.6619156239
 10
192.5509693148
 20
46.6486658042
 10
192.645439062
 20
46.6388842504
 10
192.740798839
 20
46.6326110082
 10
192.8366582413
 20
46.6298717604
 10
192.9326248193
 20
46.6306777215
 10
193.0283056843
 20
46.635025592
 10
193.1233091175
 20
46.6428975715
 10
193.2172461735
 20
46.6542614321
 10
193.3097322725
 20
46.66907065
 10
193.4003887753
 20
46.687264596
 10
193.4888445327
 20
46.7087687838
 10
193.5747374056
 20
46.733495175
 10
193.6577157473
 20
46.7613425393
 10
193.7374398434
 20
46.7921968694
 10
193.8135833021
 20
46.825931847
 10
193.8858343911
 20
46.8624093607
  0
LWPOLYLINE
  5
22C
100
AcDbEntity
  8
RACCORDO
100
AcDbPolyline
 62
250
  6
CONTINUOUS
 90
13
 70
0
 10
110.5108825944
 20
93.819983548
 10
110.4452227167
 20
93.8604019616
 10
110.3841740096
 20
93.9031621248
 10
110.3279864073
 20
93.9480889768
 10
110.2768899428
 20
93.9949985865
 10
110.2310938057
 20
94.0436989052
 10
110.190785486
 20
94.0939905531
 10
110.1561300066
 20
94.1456676355
 10
110.1272692475
 20
94.1985185858
 10
110.1043213651
 20
94.2523270312
 10
110.0873803083
 20
94.3068726793
 10
110.0765154341
 20
94.3619322193
 10
110.0717712234
 20
94.4172802369
  0
LINE
  5
22D
100
AcDbEntity
  8
0
100
AcDbLine
 62
7
  6
CONTINUOUS
 10
199.6640548262
 20
88.3134506208
 11
197.7388646156
 21
88.24444445
  0
LWPOLYLINE
  5
22E
100
AcDbEntity
  8
0
100
AcDbPolyline
 62
7
  6
CONTINUOUS
 90
41
 70
0
 10
194.2900432892
 20
87.0514507084
 10
194.2931539964
 20
87.0513768271
 10
194.3807056067
 20
87.0415558591
 10
194.4700897009
 20
87.0240068423
 10
194.5608960062
 20
86.9988345157
 10
194.6527072242
 20
86.9661812761
 10
194.7451010923
 20
86.9262264739
 10
194.83765247
 20
86.8791855278
 10
194.9299354384
 20
86.8253088604
 10
195.0215254047
 20
86.7648806612
 10
195.112001199
 20
86.698217483
 10
195.2009471554
 20
86.6256666777
 10
195.2879551649
 20
86.5476046811
 10
195.3726266915
 20
86.4644351528
 10
195.4545747407
 20
86.3765869828
 10
195.5334257716
 20
86.2845121723
 10
195.6088215416
 20
86.1886836014
 10
195.6804208764
 20
86.0895926929
 10
195.747901355
 20
85.9877469849
 10
195.8109609029
 20
85.8836676235
 10
195.8693192836
 20
85.7778867889
 10
195.9227194837
 20
85.670945066
 10
195.9709289816
 20
85.5633887744
 10
196.013740897
 20
85.4557672697
 10
196.0509750122
 20
85.3486302294
 10
196.0824786625
 20
85.2425249383
 10
196.1081274907
 20
85.1379935844
 10
196.1278260607
 20
85.035570581
 10
196.1415083297
 20
84.9357799266
 10
196.1491379738
 20
84.8391326165
 10
196.150708568
 20
84.7461241188
 10
196.1462436174
 20
84.6572319267
 10
196.1357964414
 20
84.5729131998
 10
196.1194499105
 20
84.4936025057
 10
196.0973160364
 20
84.4197096738
 10
196.0695354193
 20
84.3516177702
 10
196.0362765528
 20
84.289681206
 10
195.9977349922
 20
84.2342239861
 10
195.9541323879
 20
84.1855381091
 10
195.9057153909
 20
84.1438821245
 10
195.8589963822
 20
84.1130198742
  0
LWPOLYLINE
  5
22F
100
AcDbEntity
  8
0
100
AcDbPolyline
 62
7
  6
CONTINUOUS
 90
38
 70
0
 10
194.2900432892
 20
87.0029664444
 10
194.3099949286
 20
87.0007283998
 10
194.3993790228
 20
86.9831793829
 10
194.4901853281
 20
86.9580070564
 10
194.581996546
 20
86.9253538168
 10
194.6743904142
 20
86.8853990146
 10
194.7669417919
 20
86.8383580685
 10
194.8592247603
 20
86.7844814011
 10
194.9508147265
 20
86.7240532019
 10
195.0412905209
 20
86.6573900236
 10
195.1302364773
 20
86.5848392184
 10
195.2172444868
 20
86.5067772217
 10
195.3019160134
 20
86.4236076935
 10
195.3838640626
 20
86.3357595235
 10
195.4627150935
 20
86.243684713
 10
195.5381108635
 20
86.1478561421
 10
195.6097101983
 20
86.0487652336
 10
195.6771906769
 20
85.9469195255
 10
195.7402502247
 20
85.8428401642
 10
195.7986086055
 20
85.7370593296
 10
195.8520088055
 20
85.6301176067
 10
195.9002183035
 20
85.5225613151
 10
195.9430302189
 20
85.4149398103
 10
195.9802643341
 20
85.3078027701
 10
196.0117679844
 20
85.201697479
 10
196.0374168125
 20
85.0971661251
 10
196.0571153826
 20
84.9947431217
 10
196.0707976516
 20
84.8949524672
 10
196.0784272957
 20
84.7983051572
 10
196.0799978899
 20
84.7052966595
 10
196.0755329392
 20
84.6164044674
 10
196.0650857633
 20
84.5320857404
 10
196.0487392323
 20
84.4527750464
 10
196.0266053583
 20
84.3788822144
 10
195.9988247411
 20
84.3107903109
 10
195.9655658747
 20
84.2488537466
 10
195.9270243141
 20
84.1933965267
 10
195.8834217098
 20
84.1447106497
  0
LWPOLYLINE
  5
230
100
AcDbEntity
  8
0
100
AcDbPolyline
 62
7
  6
CONTINUOUS
 90
13
 70
0
 10
197.202330368
 20
88.1249267746
 10
197.2377863916
 20
88.1188853939
 10
197.3112638462
 20
88.1007174274
 10
197.3849491618
 20
88.0770234439
 10
197.4581542293
 20
88.0481984005
 10
197.5309044913
 20
88.0144062645
 10
197.6038388875
 20
87.9753874811
 10
197.6770902808
 20
87.9309609797
 10
197.7498323268
 20
87.8815221512
 10
197.8212631863
 20
87.8276156327
 10
197.8909073611
 20
87.7696718246
 10
197.9585918842
 20
87.707910602
 10
198.0240020926
 20
87.6426822049
  0
LINE
  5
231
100
AcDbEntity
  8
RACCORDO
100
AcDbLine
 62
250
  6
CONTINUOUS
 10
186.8284055805
 20
107.2579809494
 11
187.2189754773
 21
107.4992395676
  0
LWPOLYLINE
  5
232
100
AcDbEntity
  8
0
100
AcDbPolyline
 62
7
  6
CONTINUOUS
 90
35
 70
0
 10
194.2900432892
 20
86.5420376201
 10
194.3070296237
 20
86.5329172182
 10
194.3990994421
 20
86.476520011
 10
194.4903159692
 20
86.4136876457
 10
194.580259881
 20
86.3447485509
 10
194.66851814
 20
86.2700613204
 10
194.7546860354
 20
86.1900129428
 10
194.8383691821
 20
86.1050168894
 10
194.9191854692
 20
86.0155110718
 10
194.9967669473
 20
85.9219556789
 10
195.0707616465
 20
85.8248309033
 10
195.1408353142
 20
85.7246345698
 10
195.2066730672
 20
85.6218796758
 10
195.2679809464
 20
85.5170918574
 10
195.3244873694
 20
85.410806793
 10
195.3759444718
 20
85.303567557
 10
195.4221293314
 20
85.1959219372
 10
195.46284507
 20
85.0884197287
 10
195.4979218253
 20
84.9816100184
 10
195.5272175902
 20
84.8760384725
 10
195.5506189145
 20
84.7722446407
 10
195.5680414651
 20
84.6707592915
 10
195.5794304424
 20
84.5721017899
 10
195.5847608514
 20
84.4767775321
 10
195.5840376251
 20
84.385275449
 10
195.5772955997
 20
84.2980655906
 10
195.5645993432
 20
84.2155968046
 10
195.5460428358
 20
84.1382945188
 10
195.521749006
 20
84.0665586398
 10
195.4918691236
 20
84.0007615775
 10
195.4565820519
 20
83.9412464055
 10
195.4160933644
 20
83.8883251662
 10
195.3706343297
 20
83.8422773297
 10
195.3204607683
 20
83.8033484131
 10
195.2933109504
 20
83.7864002086
  0
LWPOLYLINE
  5
233
100
AcDbEntity
  8
0
100
AcDbPolyline
 62
7
  6
CONTINUOUS
 90
31
 70
0
 10
194.2900432892
 20
86.4591810056
 10
194.328388764
 20
86.4356925516
 10
194.419605291
 20
86.3728601864
 10
194.5095492029
 20
86.3039210915
 10
194.5978074619
 20
86.2292338611
 10
194.6839753573
 20
86.1491854835
 10
194.7676585039
 20
86.0641894301
 10
194.848474791
 20
85.9746836125
 10
194.9260562692
 20
85.8811282195
 10
195.0000509684
 20
85.784003444
 10
195.0701246361
 20
85.6838071104
 10
195.1359623891
 20
85.5810522164
 10
195.1972702683
 20
85.4762643981
 10
195.2537766913
 20
85.3699793337
 10
195.3052337936
 20
85.2627400977
 10
195.3514186533
 20
85.1550944778
 10
195.3921343919
 20
85.0475922693
 10
195.4272111471
 20
84.9407825591
 10
195.4565069121
 20
84.8352110131
 10
195.4799082364
 20
84.7314171813
 10
195.4973307869
 20
84.6299318321
 10
195.5087197642
 20
84.5312743305
 10
195.5140501733
 20
84.4359500728
 10
195.513326947
 20
84.3444479896
 10
195.5065849216
 20
84.2572381312
 10
195.493888665
 20
84.1747693452
 10
195.4753321576
 20
84.0974670595
 10
195.4510383279
 20
84.0257311805
 10
195.4211584455
 20
83.9599341182
 10
195.3858713738
 20
83.9004189462
 10
195.3453826863
 20
83.8474977069
  0
LWPOLYLINE
  5
234
100
AcDbEntity
  8
0
100
AcDbPolyline
 62
7
  6
CONTINUOUS
 90
20
 70
0
 10
194.6677530376
 20
86.2707087768
 10
194.7208960707
 20
86.2356659279
 10
194.7925017073
 20
86.182671849
 10
194.8631012342
 20
86.1245193342
 10
194.9317281905
 20
86.062016046
 10
194.9979938109
 20
85.9956124263
 10
195.0616117046
 20
85.9256958841
 10
195.1218869869
 20
85.8531899263
 10
195.1782164075
 20
85.7791135779
 10
195.2308223843
 20
85.7034770483
 10
195.2802049341
 20
85.6256638955
 10
195.3263013698
 20
85.5456727288
 10
195.3685566409
 20
85.4643600417
 10
195.4066343023
 20
85.382350673
 10
195.4403783487
 20
85.2999513896
 10
195.469497125
 20
85.2178405658
 10
195.4936288036
 20
85.1371980754
 10
195.5126990708
 20
85.0587083811
 10
195.526785693
 20
84.982581484
 10
195.535920586
 20
84.9092311648
  0
LINE
  5
235
100
AcDbEntity
  8
RACCORDO
100
AcDbLine
 62
250
  6
CONTINUOUS
 10
193.8858343911
 20
95.0341556914
 11
194.2900432892
 21
95.2517908664
  0
LWPOLYLINE
  5
236
100
AcDbEntity
  8
0
100
AcDbPolyline
 62
7
  6
CONTINUOUS
 90
42
 70
0
 10
195.5852242359
 20
87.9481073056
 10
195.6610622676
 20
87.9705429627
 10
195.7403125128
 20
87.9852255093
 10
195.8226147582
 20
87.9921004685
 10
195.9075937143
 20
87.9911519309
 10
195.9948608694
 20
87.9824026335
 10
196.0840164084
 20
87.965913847
 10
196.1746511881
 20
87.9417850733
 10
196.2663487583
 20
87.9101535543
 10
196.3586874188
 20
87.8711935935
 10
196.4512423026
 20
87.8251156949
 10
196.5435874744
 20
87.772165524
 10
196.6352980351
 20
87.7126226931
 10
196.7259522202
 20
87.6467993811
 10
196.8151334836
 20
87.5750387908
 10
196.9024325549
 20
87.4977134537
 10
196.9874494614
 20
87.4152233901
 10
197.0697955037
 20
87.3279941325
 10
197.1490951758
 20
87.236474624
 10
197.22498802
 20
87.1411350008
 10
197.2971304076
 20
87.0424642693
 10
197.3651972361
 20
86.9409678907
 10
197.4288835356
 20
86.8371652846
 10
197.4879059745
 20
86.7315872625
 10
197.54200426
 20
86.6247734064
 10
197.5909424231
 20
86.5172694026
 10
197.6345099848
 20
86.4096243469
 10
197.6725229954
 20
86.3023880319
 10
197.7048249436
 20
86.1961082311
 10
197.731287529
 20
86.0913279928
 10
197.7518112967
 20
85.9885829583
 10
197.766326128
 20
85.8883987152
 10
197.7747915866
 20
85.7912882014
 10
197.7771971192
 20
85.6977491715
 10
197.7735621067
 20
85.6082617377
 10
197.763935769
 20
85.5232859984
 10
197.7483969218
 20
85.4432597653
 10
197.7270535871
 20
85.3685964007
 10
197.7000424598
 20
85.2996827755
 10
197.6675282321
 20
85.2368773585
 10
197.6297027807
 20
85.1805084454
 10
197.586784218
 20
85.1308725367
  0
LWPOLYLINE
  5
237
100
AcDbEntity
  8
RACCORDO
100
AcDbPolyline
 62
250
  6
CONTINUOUS
 90
25
 70
0
 10
191.8021766792
 20
95.0551554934
 10
191.872178915
 20
95.0172443029
 10
191.9462369187
 20
94.9819955446
 10
192.0240474958
 20
94.9495535272
 10
192.1052920886
 20
94.920051069
 10
192.1896380807
 20
94.8936089534
 10
192.2767401582
 20
94.8703354348
 10
192.3662417241
 20
94.8503257953
 10
192.4577763577
 20
94.8336619547
 10
192.5509693147
 20
94.820412135
 10
192.645439062
 20
94.8106305811
 10
192.740798839
 20
94.8043573389
 10
192.8366582413
 20
94.8016180912
 10
192.9326248193
 20
94.8024240523
 10
193.0283056843
 20
94.8067719228
 10
193.1233091175
 20
94.8146439023
 10
193.2172461735
 20
94.8260077629
 10
193.3097322725
 20
94.8408169808
 10
193.4003887753
 20
94.8590109268
 10
193.4888445327
 20
94.8805151146
 10
193.5747374056
 20
94.9052415058
 10
193.6577157473
 20
94.9330888701
 10
193.7374398434
 20
94.9639432001
 10
193.8135833021
 20
94.9976781777
 10
193.8858343911
 20
95.0341556914
  0
LWPOLYLINE
  5
238
100
AcDbEntity
  8
RACCORDO
100
AcDbPolyline
 62
250
  6
CONTINUOUS
 90
14
 70
0
 10
110.5108825944
 20
141.9917298788
 10
110.4452227167
 20
142.0321482924
 10
110.3841740096
 20
142.0749084555
 10
110.3279864073
 20
142.1198353076
 10
110.2768899428
 20
142.1667449172
 10
110.2310938057
 20
142.2154452359
 10
110.190785486
 20
142.2657368839
 10
110.1561300066
 20
142.3174139663
 10
110.1272692475
 20
142.3702649165
 10
110.1043213651
 20
142.424073362
 10
110.0873803083
 20
142.47861901
 10
110.0765154341
 20
142.5336785501
 10
110.0717712234
 20
142.5890265676
 10
110.0715427662
 20
142.6041417688
  0
LWPOLYLINE
  5
239
100
AcDbEntity
  8
0
100
AcDbPolyline
 62
7
  6
CONTINUOUS
 90
20
 70
0
 10
195.2296105722
 20
86.5999503838
 10
195.2907223955
 20
86.5593791959
 10
195.3624412398
 20
86.5059555897
 10
195.4331145872
 20
86.4473746994
 10
195.501771335
 20
86.384456288
 10
195.5680233513
 20
86.3176563585
 10
195.6315832059
 20
86.2473691754
 10
195.691752119
 20
86.1745328039
 10
195.748013527
 20
86.100058895
 10
195.8004995141
 20
86.0240682989
 10
195.8494895812
 20
85.9463135982
 10
195.8948170973
 20
85.8671066397
 10
195.936182096
 20
85.7870227836
 10
195.9735437984
 20
85.7061605227
 10
196.006792345
 20
85.6246588357
 10
196.0355509833
 20
85.5433293237
 10
196.0594609798
 20
85.4632729956
 10
196.0784216507
 20
85.3851506144
 10
196.0924703048
 20
85.3092011282
 10
196.1016052603
 20
85.2358504061
  0
LWPOLYLINE
  5
23A
100
AcDbEntity
  8
0
100
AcDbPolyline
 62
7
  6
CONTINUOUS
 90
20
 70
0
 10
195.7953100837
 20
86.9266072573
 10
195.8582531604
 20
86.884697754
 10
195.9301335897
 20
86.8309944655
 10
196.0009473317
 20
86.7721184143
 10
196.0697148129
 20
86.7089006544
 10
196.1360285615
 20
86.641821551
 10
196.1996193942
 20
86.5712634275
 10
196.2598323127
 20
86.4981146284
 10
196.3161748557
 20
86.4232440145
 10
196.3687371143
 20
86.3468117685
 10
196.4177453025
 20
86.2686443818
 10
196.4631070021
 20
86.1889253707
 10
196.5044370852
 20
86.1083707141
 10
196.5414862839
 20
86.0275714412
 10
196.5740706099
 20
85.9470809682
 10
196.6021069279
 20
85.8672730671
 10
196.6255310551
 20
85.7884699691
 10
196.644254253
 20
85.7110825413
 10
196.658189593
 20
85.6356032018
 10
196.6672908149
 20
85.5624701556
  0
LWPOLYLINE
  5
23B
100
AcDbEntity
  8
0
100
AcDbPolyline
 62
7
  6
CONTINUOUS
 90
20
 70
0
 10
196.3627217394
 20
87.2521044416
 10
196.423240735
 20
87.2118105603
 10
196.4939151856
 20
87.1591144885
 10
196.5635578153
 20
87.1014233193
 10
196.6314226206
 20
87.0393482529
 10
196.6971671051
 20
86.9732453061
 10
196.7604407702
 20
86.9035129199
 10
196.8205748679
 20
86.8309932614
 10
196.8770282947
 20
86.7565546961
 10
196.9298915153
 20
86.6803020026
 10
196.9794277574
 20
86.6019351396
 10
197.0255612751
 20
86.5214981808
 10
197.0677665867
 20
86.439826835
 10
197.1056150775
 20
86.3577895846
 10
197.1389379677
 20
86.2758621861
 10
197.1675815999
 20
86.1945440117
 10
197.1913132578
 20
86.1147330645
 10
197.2100872664
 20
86.0370131452
 10
197.2239617067
 20
85.9616663405
 10
197.2329767786
 20
85.8890901413
  0
LWPOLYLINE
  5
23C
100
AcDbEntity
  8
0
100
AcDbPolyline
 62
7
  6
CONTINUOUS
 90
20
 70
0
 10
196.9254654905
 20
87.5807715743
 10
196.9913605343
 20
87.5367102724
 10
197.0608976301
 20
87.4847132805
 10
197.1289741262
 20
87.4282776767
 10
197.1954093483
 20
87.3675961107
 10
197.2599708243
 20
87.3028934338
 10
197.3222220619
 20
87.2346221498
 10
197.381697542
 20
87.1633481162
 10
197.437910315
 20
87.0897727136
 10
197.4908281384
 20
87.0140617086
 10
197.5406256171
 20
86.935968376
 10
197.5871765443
 20
86.8555513694
 10
197.6299355455
 20
86.7736040781
 10
197.6684340661
 20
86.6909816919
 10
197.702492486
 20
86.6080699757
 10
197.7318562254
 20
86.5254879382
 10
197.7561629471
 20
86.4444412908
 10
197.7753469261
 20
86.3656246819
 10
197.7894989526
 20
86.2892432308
 10
197.7986622534
 20
86.2157098448
  0
LWPOLYLINE
  5
23D
100
AcDbEntity
  8
0
100
AcDbPolyline
 62
7
  6
CONTINUOUS
 90
18
 70
0
 10
194.2900432892
 20
85.8038290036
 10
194.3022828756
 20
85.793665546
 10
194.3694452861
 20
85.7321357229
 10
194.4339115785
 20
85.6673073897
 10
194.4956650417
 20
85.5993762042
 10
194.5546893723
 20
85.5284701635
 10
194.610620519
 20
85.4551163706
 10
194.6632932975
 20
85.3796260344
 10
194.7128922428
 20
85.3017279264
 10
194.7592989095
 20
85.2214531838
 10
194.8019493989
 20
85.1396115943
 10
194.8403491428
 20
85.0571017455
 10
194.8743136202
 20
84.9743229549
 10
194.9035970805
 20
84.8918762971
 10
194.9278384432
 20
84.8109645502
 10
194.9469725382
 20
84.73227983
 10
194.9610902977
 20
84.6560251924
 10
194.9702350452
 20
84.5826114233
  0
LINE
  5
23E
100
AcDbEntity
  8
0
100
AcDbLine
 62
7
  6
CONTINUOUS
 10
195.5131417757
 20
87.9180113135
 11
195.5852242359
 21
87.9481073056
  0
LWPOLYLINE
  5
23F
100
AcDbEntity
  8
0
100
AcDbPolyline
 62
7
  6
CONTINUOUS
 90
42
 70
0
 10
194.9743398508
 20
87.6037037594
 10
195.0478864428
 20
87.6309068644
 10
195.1250604367
 20
87.6504099448
 10
195.2055118749
 20
87.6621347117
 10
195.2888746099
 20
87.6660412991
 10
195.3747681132
 20
87.6621284614
 10
195.4627993547
 20
87.6504335787
 10
195.5525647448
 20
87.6310324727
 10
195.6436521272
 20
87.6040390321
 10
195.7356428157
 20
87.5696046499
 10
195.8281136617
 20
87.5279174757
 10
195.9206391449
 20
87.4792014859
 10
196.0127934751
 20
87.4237153779
 10
196.1041526956
 20
87.3617512916
 10
196.1942967773
 20
87.2936333668
 10
196.2828116936
 20
87.2197161416
 10
196.3692914657
 20
87.1403828013
 10
196.4533401679
 20
87.0560432858
 10
196.5345738835
 20
86.9671322638
 10
196.6126226012
 20
86.8741069865
 10
196.6871320426
 20
86.7774450283
 10
196.757765413
 20
86.6776419283
 10
196.824205064
 20
86.5752087415
 10
196.8861540638
 20
86.4706695154
 10
196.9433376628
 20
86.3645587004
 10
196.9955046518
 20
86.2574185106
 10
197.0424286023
 20
86.1497962444
 10
197.0839089852
 20
86.0422415821
 10
197.1197721613
 20
85.9353038695
 10
197.1498722392
 20
85.8295294051
 10
197.1740917956
 20
85.7254587411
 10
197.1923424559
 20
85.6236240134
 10
197.2045653302
 20
85.5245463127
 10
197.2107313046
 20
85.4287331109
 10
197.2108411847
 20
85.3366757537
 10
197.2049256918
 20
85.248847034
 10
197.1930453112
 20
85.1656988563
 10
197.1752899932
 20
85.087660004
 10
197.1517787091
 20
85.015134022
 10
197.122658863
 20
84.9484972226
 10
197.0881055641
 20
84.8880968272
 10
197.0483207618
 20
84.8342492507
  0
LWPOLYLINE
  5
240
100
AcDbEntity
  8
0
100
AcDbPolyline
 62
7
  6
CONTINUOUS
 90
33
 70
0
 10
196.1231044853
 20
88.2642054352
 10
196.1975573231
 20
88.2895601377
 10
196.2755547181
 20
88.3071924207
 10
196.3567426453
 20
88.3170332356
 10
196.4407513188
 20
88.319052022
 10
196.5271970192
 20
88.3132568586
 10
196.6156839885
 20
88.2996944231
 10
196.7058063851
 20
88.2784497617
 10
196.7971502891
 20
88.2496458694
 10
196.8892957462
 20
88.2134430817
 10
196.9818188428
 20
88.1700382832
 10
197.0742937997
 20
88.1196639348
 10
197.1662950755
 20
88.0625869255
 10
197.2573994685
 20
87.9991072538
 10
197.3471882077
 20
87.9295565461
 10
197.4352490206
 20
87.8542964182
 10
197.5211781706
 20
87.7737166894
 10
197.6045824507
 20
87.6882334567
 10
197.6850811265
 20
87.598287039
 10
197.7623078162
 20
87.5043398029
 10
197.8359123011
 20
87.4068738778
 10
197.9055622552
 20
87.3063887749
 10
197.970944887
 20
87.2033989194
 10
198.0317684847
 20
87.0984311097
 10
198.0877638568
 20
86.9920219146
 10
198.1386856624
 20
86.8847150233
 10
198.1843136228
 20
86.7770585596
 10
198.2244536094
 20
86.6696023738
 10
198.2589386034
 20
86.5628953274
 10
198.2876295202
 20
86.457482581
 10
198.3104158964
 20
86.3539029019
 10
198.3272164362
 20
86.2526860026
 10
198.3379108413
 20
86.1549764207
  0
LWPOLYLINE
  5
241
100
AcDbEntity
  8
0
100
AcDbPolyline
 62
7
  6
CONTINUOUS
 90
37
 70
0
 10
196.6992346909
 20
88.4146306557
 10
196.7655252518
 20
88.4362160998
 10
196.8344558749
 20
88.4511369865
 10
196.9057011972
 20
88.4594123118
 10
196.9789282633
 20
88.461092629
 10
197.0537982124
 20
88.4562594797
 10
197.1299679775
 20
88.4450246785
 10
197.2070919878
 20
88.4275294584
 10
197.2848238677
 20
88.40394348
 10
197.3628181214
 20
88.3744637118
 10
197.4407317974
 20
88.3393131882
 10
197.5182261232
 20
88.2987396532
 10
197.5949681037
 20
88.2530140953
 10
197.6706320744
 20
88.2024291851
 10
197.7449012035
 20
88.1472976214
 10
197.8174689349
 20
88.0879503964
 10
197.8880403664
 20
88.0247349888
 10
197.9563335559
 20
87.9580134948
 10
198.0220807513
 20
87.8881607063
 10
198.0850295368
 20
87.8155621473
 10
198.1449438928
 20
87.7406120771
 10
198.2016051631
 20
87.6637114722
 10
198.2548129273
 20
87.5852659958
 10
198.3043857734
 20
87.5056839666
 10
198.3501619686
 20
87.4253743345
 10
198.392000026
 20
87.3447446768
 10
198.429779165
 20
87.2641992205
 10
198.4633996648
 20
87.1841369047
 10
198.4927831093
 20
87.1049494879
 10
198.5178725246
 20
87.027019713
 10
198.5386324079
 20
86.9507195367
 10
198.5550486508
 20
86.8764084306
 10
198.5671283562
 20
86.804431765
 10
198.5748995526
 20
86.7351192785
 10
198.5784108072
 20
86.6687836436
 10
198.5777307415
 20
86.6057191329
 10
198.5729474525
 20
86.5462003915
  0
LWPOLYLINE
  5
242
100
AcDbEntity
  8
0
100
AcDbPolyline
 62
7
  6
CONTINUOUS
 90
42
 70
0
 10
194.4361003464
 20
87.2883014418
 10
194.5110629505
 20
87.312595819
 10
194.5895222572
 20
87.3291559438
 10
194.6711219581
 20
87.3379180651
 10
194.7554902319
 20
87.3388569521
 10
194.8422415813
 20
87.3319860191
 10
194.9309787369
 20
87.3173572593
 10
195.0212946204
 20
87.295060988
 10
195.1127743545
 20
87.265225396
 10
195.2049973132
 20
87.228015917
 10
195.2975391988
 20
87.1836344099
 10
195.3899741386
 20
87.1323181621
 10
195.4818767879
 20
87.0743387167
 10
195.5728244319
 20
87.0100005318
 10
195.6623990729
 20
86.9396394761
 10
195.7501894959
 20
86.86362117
 10
195.8357932996
 20
86.7823391795
 10
195.9188188841
 20
86.6962130717
 10
195.9988873854
 20
86.6056863429
 10
196.0756345469
 20
86.5112242271
 10
196.1487125188
 20
86.4133113985
 10
196.2177915762
 20
86.3124495768
 10
196.2825617483
 20
86.209155049
 10
196.3427343488
 20
86.1039561191
 10
196.398043403
 20
85.9973904984
 10
196.4482469607
 20
85.8900026492
 10
196.4931282918
 20
85.7823410955
 10
196.532496957
 20
85.6749557131
 10
196.5661897483
 20
85.5683950134
 10
196.5940714953
 20
85.4632034344
 10
196.6160357328
 20
85.3599186504
 10
196.6320052269
 20
85.2590689169
 10
196.6419323563
 20
85.1611704603
 10
196.6457993478
 20
85.0667249286
 10
196.6436183639
 20
84.9762169129
 10
196.6354314426
 20
84.890111554
 10
196.62131029
 20
84.8088522442
 10
196.601355926
 20
84.7328584375
 10
196.5756981852
 20
84.6625235774
 10
196.5444950755
 20
84.5982131535
 10
196.5079319978
 20
84.540262896
 10
196.4662208299
 20
84.4889771171
  0
LWPOLYLINE
  5
243
100
AcDbEntity
  8
0
100
AcDbPolyline
 62
7
  6
CONTINUOUS
 90
29
 70
0
 10
194.2900432892
 20
85.7592853351
 10
194.3037020774
 20
85.7449455733
 10
194.3833336167
 20
85.6538480371
 10
194.4595948318
 20
85.5588808779
 10
194.5321402744
 20
85.4605312628
 10
194.600642851
 20
85.3593030671
 10
194.6647954392
 20
85.255714386
 10
194.7243124044
 20
85.1502949747
 10
194.778931011
 20
85.0435836317
 10
194.8284127201
 20
84.9361255375
 10
194.8725443677
 20
84.828469561
 10
194.9111392182
 20
84.721165549
 10
194.9440378862
 20
84.6147616094
 10
194.9711091242
 20
84.5098014038
 10
194.9922504708
 20
84.4068214624
 10
195.007388757
 20
84.306348533
 10
195.0164804673
 20
84.2088969797
 10
195.0195119549
 20
84.1149662413
 10
195.0164995092
 20
84.0250383649
 10
195.0074892751
 20
83.9395756241
 10
194.9925570251
 20
83.8590182361
 10
194.9718077852
 20
83.7837821866
 10
194.9453753157
 20
83.714257175
 10
194.913421451
 20
83.6508046899
 10
194.8761352997
 20
83.5937562226
 10
194.8337323106
 20
83.5434116305
 10
194.7864532085
 20
83.500037655
 10
194.7345628051
 20
83.4638666047
 10
194.7276249977
 20
83.4597802194
  0
LWPOLYLINE
  5
244
100
AcDbEntity
  8
0
100
AcDbPolyline
 62
7
  6
CONTINUOUS
 90
25
 70
0
 10
194.2900432892
 20
85.6388514288
 10
194.3126229386
 20
85.6130205778
 10
194.3888841537
 20
85.5180534186
 10
194.4614295962
 20
85.4197038034
 10
194.5299321729
 20
85.3184756078
 10
194.5940847611
 20
85.2148869267
 10
194.6536017263
 20
85.1094675154
 10
194.7082203329
 20
85.0027561724
 10
194.7577020419
 20
84.8952980781
 10
194.8018336896
 20
84.7876421017
 10
194.8404285401
 20
84.6803380897
 10
194.8733272081
 20
84.57393415
 10
194.9003984461
 20
84.4689739445
 10
194.9215397927
 20
84.365994003
 10
194.9366780789
 20
84.2655210737
 10
194.9457697892
 20
84.1680695203
 10
194.9488012768
 20
84.074138782
 10
194.9457888311
 20
83.9842109055
 10
194.936778597
 20
83.8987481648
 10
194.921846347
 20
83.8181907768
 10
194.9010971071
 20
83.7429547272
 10
194.8746646376
 20
83.6734297157
 10
194.8427107729
 20
83.6099772305
 10
194.8054246216
 20
83.5529287633
 10
194.7630216325
 20
83.5025841711
  0
LINE
  5
245
100
AcDbEntity
  8
0
100
AcDbLine
 62
7
  6
CONTINUOUS
 10
196.5817147788
 20
88.3551698619
 11
196.6065223088
 21
88.3704213917
  0
LWPOLYLINE
  5
246
100
AcDbEntity
  8
0
100
AcDbPolyline
 62
7
  6
CONTINUOUS
 90
33
 70
0
 10
196.1038116742
 20
88.2612485252
 10
196.1232433987
 20
88.272062968
 10
196.1938151634
 20
88.3050328946
 10
196.2682680012
 20
88.330387597
 10
196.3462653962
 20
88.34801988
 10
196.4274533234
 20
88.3578606949
 10
196.511461997
 20
88.3598794814
 10
196.5979076974
 20
88.3540843179
 10
196.6863946666
 20
88.3405218824
 10
196.7765170633
 20
88.3192772211
 10
196.8678609672
 20
88.2904733287
 10
196.9600064243
 20
88.254270541
 10
197.0525295209
 20
88.2108657425
 10
197.1450044778
 20
88.1604913942
 10
197.2370057536
 20
88.1034143848
 10
197.3281101467
 20
88.0399347131
 10
197.4178988858
 20
87.9703840054
 10
197.5059596987
 20
87.8951238775
 10
197.5918888487
 20
87.8145441488
 10
197.6752931289
 20
87.729060916
 10
197.7557918046
 20
87.6391144984
 10
197.8330184943
 20
87.5451672622
 10
197.9066229792
 20
87.4477013371
 10
197.9762729333
 20
87.3472162342
 10
198.0416555652
 20
87.2442263788
 10
198.1024791628
 20
87.139258569
 10
198.1584745349
 20
87.0328493739
 10
198.2093963405
 20
86.9255424827
 10
198.2550243009
 20
86.8178860189
 10
198.2951642875
 20
86.7104298332
 10
198.3296492816
 20
86.6037227867
 10
198.3583401983
 20
86.4983100403
 10
198.3811265746
 20
86.3947303613
  0
LWPOLYLINE
  5
247
100
AcDbEntity
  8
0
100
AcDbPolyline
 62
7
  6
CONTINUOUS
 90
3
 70
0
 10
196.0331009961
 20
88.2204210659
 10
196.0525327206
 20
88.2312355087
 10
196.1231044853
 20
88.2642054352
  0
LWPOLYLINE
  5
248
100
AcDbEntity
  8
0
100
AcDbPolyline
 62
7
  6
CONTINUOUS
 90
48
 70
0
 10
196.677232987
 20
88.411248851
 10
196.695601757
 20
88.4214635312
 10
196.7577340106
 20
88.4506280586
 10
196.8228213376
 20
88.4732786388
 10
196.890558902
 20
88.4893966192
 10
196.9606326564
 20
88.4989941329
 10
197.0327209227
 20
88.5021137295
 10
197.1064959924
 20
88.4988278635
 10
197.1816257416
 20
88.4892382455
 10
197.2577752503
 20
88.4734750593
 10
197.3346084198
 20
88.4516960504
 10
197.4117895797
 20
88.4240854916
 10
197.4889850772
 20
88.3908530317
 10
197.56586484
 20
88.3522324341
 10
197.6421039079
 20
88.3084802118
 10
197.7173839231
 20
88.2598741678
 10
197.791394575
 20
88.2067118467
 10
197.8638349909
 20
88.1493089083
 10
197.9344150674
 20
88.0879974297
 10
198.0028567369
 20
88.0231241462
 10
198.0688951625
 20
87.9550486392
 10
198.1322798575
 20
87.8841414817
 10
198.1927757236
 20
87.8107823484
 10
198.2501640046
 20
87.7353581034
 10
198.3042431512
 20
87.6582608713
 10
198.3548295931
 20
87.5798861047
 10
198.4017584172
 20
87.5006306543
 10
198.4448839472
 20
87.420890854
 10
198.4840802249
 20
87.3410606279
 10
198.5192413901
 20
87.2615296295
 10
198.5502819599
 20
87.1826814213
 10
198.5771370052
 20
87.1048917034
 10
198.5997622264
 20
87.0285265998
 10
198.6181339276
 20
86.9539410096
 10
198.6322488906
 20
86.8814770301
 10
198.6421241519
 20
86.8114624603
 10
198.6477966817
 20
86.7442093898
 10
198.6493229711
 20
86.6800128804
 10
198.6467785273
 20
86.6191497445
 10
198.6402572828
 20
86.5618774272
 10
198.6298709198
 20
86.5084329942
 10
198.6157481166
 20
86.4590322323
 10
198.5980337191
 20
86.4138688626
 10
198.5768878418
 20
86.3731138715
 10
198.552484905
 20
86.3369149608
 10
198.5250126125
 20
86.305396118
 10
198.4946708758
 20
86.2786573081
 10
198.463528297
 20
86.2578375171
  0
LWPOLYLINE
  5
249
100
AcDbEntity
  8
0
100
AcDbPolyline
 62
7
  6
CONTINUOUS
 90
47
 70
0
 10
194.4067548202
 20
87.2813891906
 10
194.4356841585
 20
87.2972022285
 10
194.5068110245
 20
87.3291289012
 10
194.5817736286
 20
87.3534232783
 10
194.6602329354
 20
87.3699834031
 10
194.7418326363
 20
87.3787455244
 10
194.82620091
 20
87.3796844114
 10
194.9129522594
 20
87.3728134784
 10
195.0016894151
 20
87.3581847187
 10
195.0920052985
 20
87.3358884473
 10
195.1834850327
 20
87.3060528553
 10
195.2757079913
 20
87.2688433763
 10
195.3682498769
 20
87.2244618693
 10
195.4606848167
 20
87.1731456214
 10
195.552587466
 20
87.115166176
 10
195.64353511
 20
87.0508279911
 10
195.733109751
 20
86.9804669354
 10
195.820900174
 20
86.9044486294
 10
195.9065039778
 20
86.8231666388
 10
195.9895295623
 20
86.737040531
 10
196.0695980635
 20
86.6465138022
 10
196.1463452251
 20
86.5520516865
 10
196.2194231969
 20
86.4541388579
 10
196.2885022544
 20
86.3532770361
 10
196.3532724264
 20
86.2499825083
 10
196.413445027
 20
86.1447835784
 10
196.4687540811
 20
86.0382179577
 10
196.5189576388
 20
85.9308301086
 10
196.5638389699
 20
85.8231685548
 10
196.6032076351
 20
85.7157831724
 10
196.6369004264
 20
85.6092224728
 10
196.6647821734
 20
85.5040308937
 10
196.6867464109
 20
85.4007461098
 10
196.702715905
 20
85.2998963762
 10
196.7126430344
 20
85.2019979196
 10
196.716510026
 20
85.1075523879
 10
196.714329042
 20
85.0170443723
 10
196.7061421207
 20
84.9309390133
 10
196.6920209681
 20
84.8496797035
 10
196.6720666041
 20
84.7736858968
 10
196.6464088633
 20
84.7033510367
 10
196.6152057536
 20
84.6390406129
 10
196.5786426759
 20
84.5810903553
 10
196.536931508
 20
84.5298045764
 10
196.4903095583
 20
84.4854546674
 10
196.439038393
 20
84.4482777578
 10
196.4246810894
 20
84.4396391241
  0
LWPOLYLINE
  5
24A
100
AcDbEntity
  8
0
100
AcDbPolyline
 62
7
  6
CONTINUOUS
 90
3
 70
0
 10
194.336044142
 20
87.2405617312
 10
194.3649734804
 20
87.2563747692
 10
194.4361003464
 20
87.2883014418
  0
LWPOLYLINE
  5
24B
100
AcDbEntity
  8
0
100
AcDbPolyline
 62
7
  6
CONTINUOUS
 90
3
 70
0
 10
196.6065223088
 20
88.3704213917
 10
196.6359002966
 20
88.3863936345
 10
196.6992346909
 20
88.4146306557
  0
LWPOLYLINE
  5
24C
100
AcDbEntity
  8
0
100
AcDbPolyline
 62
7
  6
CONTINUOUS
 90
46
 70
0
 10
195.5381259092
 20
87.9346286532
 10
195.5838524538
 20
87.9588387728
 10
195.655934914
 20
87.9889347649
 10
195.7317729457
 20
88.011370422
 10
195.8110231909
 20
88.0260529686
 10
195.8933254363
 20
88.0329279278
 10
195.9783043925
 20
88.0319793902
 10
196.0655715475
 20
88.0232300928
 10
196.1547270865
 20
88.0067413063
 10
196.2453618662
 20
87.9826125327
 10
196.3370594364
 20
87.9509810137
 10
196.4293980969
 20
87.9120210528
 10
196.5219529807
 20
87.8659431543
 10
196.6142981525
 20
87.8129929833
 10
196.7060087132
 20
87.7534501524
 10
196.7966628984
 20
87.6876268404
 10
196.8858441617
 20
87.6158662501
 10
196.9731432331
 20
87.5385409131
 10
197.0581601396
 20
87.4560508494
 10
197.1405061818
 20
87.3688215918
 10
197.2198058539
 20
87.2773020834
 10
197.2956986981
 20
87.1819624602
 10
197.3678410857
 20
87.0832917286
 10
197.4359079143
 20
86.98179535
 10
197.4995942137
 20
86.8779927439
 10
197.5586166527
 20
86.7724147219
 10
197.6127149381
 20
86.6656008657
 10
197.6616531012
 20
86.5580968619
 10
197.7052206629
 20
86.4504518063
 10
197.7432336735
 20
86.3432154913
 10
197.7755356217
 20
86.2369356904
 10
197.8019982071
 20
86.1321554522
 10
197.8225219749
 20
86.0294104176
 10
197.8370368061
 20
85.9292261745
 10
197.8455022647
 20
85.8321156607
 10
197.8479077973
 20
85.7385766308
 10
197.8442727848
 20
85.649089197
 10
197.8346464472
 20
85.5641134578
 10
197.8191075999
 20
85.4840872247
 10
197.7977642652
 20
85.40942386
 10
197.7707531379
 20
85.3405102349
 10
197.7382389103
 20
85.2777048179
 10
197.7004134588
 20
85.2213359047
 10
197.6574948962
 20
85.1716999961
 10
197.6097264937
 20
85.1290603334
 10
197.556052679
 20
85.092878924
  0
LINE
  5
24D
100
AcDbEntity
  8
0
100
AcDbLine
 62
7
  6
CONTINUOUS
 10
195.4674152311
 20
87.8938011938
 11
195.5131417757
 21
87.9180113135
  0
LWPOLYLINE
  5
24E
100
AcDbEntity
  8
0
100
AcDbPolyline
 62
7
  6
CONTINUOUS
 90
6
 70
0
 10
196.3539704113
 20
84.3988116647
 10
196.3126918665
 20
84.3776480849
 10
196.2529974279
 20
84.3553858345
 10
196.1895705406
 20
84.3407915687
 10
196.1227557833
 20
84.3339554308
 10
196.0605170446
 20
84.3348232368
  0
LWPOLYLINE
  5
24F
100
AcDbEntity
  8
0
100
AcDbPolyline
 62
7
  6
CONTINUOUS
 90
46
 70
0
 10
194.9724399907
 20
87.6080087076
 10
195.0450505289
 20
87.6445312187
 10
195.1185971209
 20
87.6717343237
 10
195.1957711149
 20
87.6912374041
 10
195.2762225531
 20
87.702962171
 10
195.3595852881
 20
87.7068687585
 10
195.4454787913
 20
87.7029559207
 10
195.5335100329
 20
87.691261038
 10
195.6232754229
 20
87.671859932
 10
195.7143628054
 20
87.6448664914
 10
195.8063534938
 20
87.6104321093
 10
195.8988243398
 20
87.568744935
 10
195.991349823
 20
87.5200289452
 10
196.0835041533
 20
87.4645428372
 10
196.1748633737
 20
87.4025787509
 10
196.2650074554
 20
87.3344608261
 10
196.3535223717
 20
87.2605436009
 10
196.4400021438
 20
87.1812102607
 10
196.524050846
 20
87.0968707451
 10
196.6052845616
 20
87.0079597231
 10
196.6833332793
 20
86.9149344458
 10
196.7578427208
 20
86.8182724877
 10
196.8284760911
 20
86.7184693876
 10
196.8949157421
 20
86.6160362008
 10
196.9568647419
 20
86.5114969747
 10
197.0140483409
 20
86.4053861598
 10
197.06621533
 20
86.2982459699
 10
197.1131392805
 20
86.1906237038
 10
197.1546196634
 20
86.0830690414
 10
197.1904828395
 20
85.9761313288
 10
197.2205829173
 20
85.8703568644
 10
197.2448024738
 20
85.7662862004
 10
197.263053134
 20
85.6644514727
 10
197.2752760084
 20
85.5653737721
 10
197.2814419827
 20
85.4695605702
 10
197.2815518628
 20
85.377503213
 10
197.2756363699
 20
85.2896744934
 10
197.2637559893
 20
85.2065263156
 10
197.2460006713
 20
85.1284874633
 10
197.2224893872
 20
85.0559614813
 10
197.1933695411
 20
84.989324682
 10
197.1588162423
 20
84.9289242866
 10
197.1190314399
 20
84.87507671
 10
197.0742429255
 20
84.8280659979
 10
197.0247032077
 20
84.7881424232
 10
196.9903667343
 20
84.7662589404
  0
LINE
  5
250
100
AcDbEntity
  8
0
100
AcDbLine
 62
7
  6
CONTINUOUS
 10
194.9017293126
 20
87.5671812483
 11
194.9743398508
 21
87.6037037594
  0
LWPOLYLINE
  5
251
100
AcDbEntity
  8
0
100
AcDbPolyline
 62
7
  6
CONTINUOUS
 90
6
 70
0
 10
194.6569143196
 20
83.41895276
 10
194.6076380125
 20
83.3942677478
 10
194.5474091355
 20
83.3730561782
 10
194.4834942764
 20
83.359527268
 10
194.4162404234
 20
83.3537658979
 10
194.3640094427
 20
83.3552925179
  0
LWPOLYLINE
  5
252
100
AcDbEntity
  8
0
100
AcDbPolyline
 62
7
  6
CONTINUOUS
 90
6
 70
0
 10
197.4853420009
 20
85.0520514646
 10
197.4300210423
 20
85.0248213235
 10
197.3693956078
 20
85.0043987772
 10
197.3051192373
 20
84.9916694342
 10
197.2375407051
 20
84.9867142262
 10
197.1929121861
 20
84.9885252091
  0
LWPOLYLINE
  5
253
100
AcDbEntity
  8
RACCORDO
100
AcDbPolyline
 62
250
  6
CONTINUOUS
 90
19
 70
0
 10
117.5319410243
 20
147.2688910955
 10
117.2477670428
 20
147.4263607751
 10
116.9640539863
 20
147.57035741
 10
116.6812620385
 20
147.7006474361
 10
116.399849888
 20
147.817019522
 10
116.1202739874
 20
147.9192849105
 10
115.8429878124
 20
148.0072777251
 10
115.5684411202
 20
148.080855241
 10
115.2970792288
 20
148.139898114
 10
115.0293422966
 20
148.1843105746
 10
114.7656645988
 20
148.214020586
 10
114.5064738161
 20
148.2289799602
 10
114.252190349
 20
148.2291644337
 10
114.0032266427
 20
148.2145737064
 10
113.7599865214
 20
148.1852314438
 10
113.5228645257
 20
148.1411852397
 10
113.2922452702
 20
148.0825065379
 10
113.0685028179
 20
148.0092905154
 10
112.8520000784
 20
147.9216559283
  0
LWPOLYLINE
  5
254
100
AcDbEntity
  8
RACCORDO
100
AcDbPolyline
 62
250
  6
CONTINUOUS
 90
40
 70
0
 10
116.5082973586
 20
145.4538927145
 10
116.2670127732
 20
145.5876145597
 10
116.0266434822
 20
145.7096544814
 10
115.7871894857
 20
145.8200124795
 10
115.5481705667
 20
145.9188800885
 10
115.3100669422
 20
146.006065774
 10
115.0743192629
 20
146.0809949328
 10
114.8410494953
 20
146.1435530302
 10
114.610135673
 20
146.193854601
 10
114.3826525474
 20
146.2316686467
 10
114.1585944409
 20
146.2569402459
 10
113.9379670312
 20
146.26972432
 10
113.721862102
 20
146.2699546346
 10
113.5103099321
 20
146.2575686613
 10
113.3032802427
 20
146.2326289286
 10
113.1017739818
 20
146.1952567865
 10
112.9058161257
 20
146.1453917691
 10
112.7153816981
 20
146.0830943425
 10
112.5313967188
 20
146.0086672549
 10
112.3538930524
 20
145.9220516306
 10
112.1828388343
 20
145.8233063455
 10
112.0190644908
 20
145.712910775
 10
111.8626050555
 20
145.5908078501
 10
111.7134254948
 20
145.4570546399
 10
111.5722511344
 20
145.3123017276
 10
111.4391219288
 20
145.1564973662
 10
111.3139979235
 20
144.9896933026
 10
111.1974845809
 20
144.8126953606
 10
111.0896207914
 20
144.6254458159
 10
110.9903676646
 20
144.4280023928
 10
110.9002139914
 20
144.2213440876
 10
110.8192102898
 20
144.0054485476
 10
110.7473060419
 20
143.7803381255
 10
110.6848384846
 20
143.5470588761
 10
110.6318457903
 20
143.3054483818
 10
110.5882897865
 20
143.0556690602
 10
110.5543931931
 20
142.7992542184
 10
110.5302302499
 20
142.5367149588
 10
110.515726717
 20
142.2675401789
 10
110.5108825944
 20
141.9917298788
  0
LINE
  5
255
100
AcDbEntity
  8
RACCORDO
100
AcDbLine
 62
250
  6
CONTINUOUS
 10
185.8047619149
 20
105.4429825684
 11
116.5082973586
 21
145.4538927145
  0
LINE
  5
256
100
AcDbEntity
  8
RACCORDO
100
AcDbLine
 62
250
  6
CONTINUOUS
 10
186.8284055805
 20
107.2579809494
 11
117.5319410243
 21
147.2688910955
  0
LINE
  5
257
100
AcDbEntity
  8
DRAFT
100
AcDbLine
 62
7
  6
CONTINUOUS
 10
187.2189754773
 20
107.4992395676
 11
117.922510921
 21
147.5101497137
  0
LWPOLYLINE
  5
258
100
AcDbEntity
  8
DRAFT
100
AcDbPolyline
 62
7
  6
CONTINUOUS
 90
40
 70
0
 10
187.2189754773
 20
107.4992395676
 10
187.5043736862
 20
107.3277609592
 10
187.7884476371
 20
107.1439016569
 10
188.07119733
 20
106.9476616607
 10
188.3531319317
 20
106.7386352668
 10
188.6337422754
 20
106.517228179
 10
188.9115008605
 20
106.2846575086
 10
189.1862549334
 20
106.0409977505
 10
189.4581572478
 20
105.7861744097
 10
189.7261385644
 20
105.5211811137
 10
189.9903649133
 20
105.2457733332
 10
190.2506702644
 20
104.9601955974
 10
190.5054872887
 20
104.6661751206
 10
190.7545772182
 20
104.3639274163
 10
190.9981788209
 20
104.053236971
 10
191.2354410724
 20
103.7351844588
 10
191.4665535212
 20
103.4094277814
 10
191.6913266188
 20
103.0763090371
 10
191.9083406945
 20
102.7379351943
 10
192.1173465447
 20
102.3946205619
 10
192.3185933729
 20
102.0460508309
 10
192.5114091197
 20
101.6933900425
 10
192.6959413797
 20
101.3362652311
 10
192.8720425583
 20
100.9750493624
 10
193.0385978124
 20
100.6120253742
 10
193.1954056505
 20
100.2475284703
 10
193.3426675642
 20
99.8812234471
 10
193.4798731856
 20
99.5143876313
 10
193.6070897652
 20
99.1467064965
 10
193.7242500524
 20
98.7784945693
 10
193.8306419279
 20
98.4119727556
 10
193.9261366395
 20
98.0474071042
 10
194.0108629392
 20
97.6845315665
 10
194.0844949644
 20
97.3247689029
 10
194.147020847
 20
96.9679495866
 10
194.198452455
 20
96.6142431444
 10
194.2384995291
 20
96.2655809172
 10
194.2670653163
 20
95.9226066853
 10
194.2842465697
 20
95.5846766683
 10
194.2900432892
 20
95.2517908664
  0
LWPOLYLINE
  5
259
100
AcDbEntity
  8
RACCORDO
100
AcDbPolyline
 62
250
  6
CONTINUOUS
 90
14
 70
0
 10
185.8047619149
 20
43.4212463269
 10
185.806933094
 20
43.344177904
 10
185.8134377423
 20
43.2699322235
 10
185.8242492297
 20
43.1988132483
 10
185.8393232939
 20
43.1311121404
 10
185.8585982213
 20
43.0671060693
 10
185.8819951003
 20
43.0070570766
 10
185.9094181435
 20
42.9512110038
 10
185.9407550807
 20
42.8997964856
 10
185.975877618
 20
42.8530240138
 10
186.0146419633
 20
42.8110850754
 10
186.0568894147
 20
42.7741513692
 10
186.1024470105
 20
42.7423741022
 10
186.1153858465
 20
42.7346410352
  0
LWPOLYLINE
  5
25A
100
AcDbEntity
  8
RACCORDO
100
AcDbPolyline
 62
250
  6
CONTINUOUS
 90
25
 70
0
 10
185.8047619149
 20
105.4429825684
 10
185.806933094
 20
105.5225582144
 10
185.8134377423
 20
105.6043152997
 10
185.8242492297
 20
105.6879191096
 10
185.8393232939
 20
105.7730273689
 10
185.8585982213
 20
105.8592916431
 10
185.8819951003
 20
105.9463587652
 10
185.9094181435
 20
106.0338722809
 10
185.9407550807
 20
106.1214739087
 10
185.975877618
 20
106.2088050063
 10
186.0146419633
 20
106.2955080389
 10
186.0568894147
 20
106.381228043
 10
186.1024470105
 20
106.4656140797
 10
186.1511282374
 20
106.5483206714
 10
186.2027337935
 20
106.629009216
 10
186.2570524052
 20
106.7073493734
 10
186.3138616911
 20
106.7830204181
 10
186.3729290733
 20
106.8557125515
 10
186.434012729
 20
106.9251281711
 10
186.4968625808
 20
106.9909830882
 10
186.5612213206
 20
107.053007692
 10
186.6268254628
 20
107.1109480528
 10
186.6934064229
 20
107.1645669619
 10
186.7606916177
 20
107.2136449027
 10
186.8284055805
 20
107.2579809494
  0
LWPOLYLINE
  5
25B
100
AcDbEntity
  8
0
100
AcDbPolyline
 62
7
  6
CONTINUOUS
 90
3
 70
0
 10
194.2900432892
 20
87.2110053801
 10
194.2980024405
 20
87.2169554598
 10
194.336044142
 20
87.2405617312
  0
LINE
  5
25C
100
AcDbEntity
  8
0
100
AcDbLine
 62
7
  6
CONTINUOUS
 10
197.5390158156
 20
85.0882328741
 11
197.4853420009
 21
85.0520514646
  0
LINE
  5
25D
100
AcDbEntity
  8
0
100
AcDbLine
 62
7
  6
CONTINUOUS
 10
195.8350047128
 20
84.1030546652
 11
195.7882857041
 21
84.0721924148
  0
LINE
  5
25E
100
AcDbEntity
  8
0
100
AcDbLine
 62
7
  6
CONTINUOUS
 10
196.9539925296
 20
84.7473149639
 11
196.9196560562
 21
84.7254314811
  0
LINE
  5
25F
100
AcDbEntity
  8
0
100
AcDbLine
 62
7
  6
CONTINUOUS
 10
195.2497500902
 20
83.7625209538
 11
195.2226002723
 21
83.7455727493
  0
LINE
  5
260
100
AcDbEntity
  8
0
100
AcDbLine
 62
7
  6
CONTINUOUS
 10
198.0727283976
 20
85.3920070166
 11
198.0510273601
 21
85.3786710858
  0
LINE
  5
261
100
AcDbEntity
  8
0
100
AcDbLine
 62
7
  6
CONTINUOUS
 10
198.4054990714
 20
86.2243321695
 11
198.463528297
 21
86.2578375171
  0
LINE
  5
262
100
AcDbEntity
  8
0
100
AcDbLine
 62
7
  6
CONTINUOUS
 10
194.6569143196
 20
83.41895276
 11
194.7276249977
 21
83.4597802194
  0
LINE
  5
263
100
AcDbEntity
  8
0
100
AcDbLine
 62
7
  6
CONTINUOUS
 10
195.2226002723
 20
83.7455727493
 11
195.2933109504
 21
83.7864002086
  0
LINE
  5
264
100
AcDbEntity
  8
0
100
AcDbLine
 62
7
  6
CONTINUOUS
 10
195.7882857041
 20
84.0721924148
 11
195.8589963822
 21
84.1130198742
  0
LINE
  5
265
100
AcDbEntity
  8
0
100
AcDbLine
 62
7
  6
CONTINUOUS
 10
196.3539704113
 20
84.3988116647
 11
196.4246810894
 21
84.4396391241
  0
LINE
  5
266
100
AcDbEntity
  8
0
100
AcDbLine
 62
7
  6
CONTINUOUS
 10
196.9196560562
 20
84.7254314811
 11
196.9903667343
 21
84.7662589404
  0
LINE
  5
267
100
AcDbEntity
  8
0
100
AcDbLine
 62
7
  6
CONTINUOUS
 10
197.4853420009
 20
85.0520514646
 11
197.556052679
 21
85.092878924
  0
LINE
  5
268
100
AcDbEntity
  8
0
100
AcDbLine
 62
7
  6
CONTINUOUS
 10
198.0510273601
 20
85.3786710858
 11
198.1217380382
 21
85.4194985452
  0
LWPOLYLINE
  5
269
100
AcDbEntity
  8
0
100
AcDbPolyline
 62
7
  6
CONTINUOUS
 90
7
 70
0
 10
195.7882857041
 20
84.0721924148
 10
195.7820437561
 20
84.0686523967
 10
195.7248317189
 20
84.041691836
 10
195.6636824801
 20
84.0223242145
 10
195.5989293672
 20
84.0106632562
 10
195.5309235102
 20
84.0067846159
 10
195.4954986136
 20
84.008753904
  0
LWPOLYLINE
  5
26A
100
AcDbEntity
  8
0
100
AcDbPolyline
 62
7
  6
CONTINUOUS
 90
7
 70
0
 10
196.9196560562
 20
84.7254314811
 10
196.899977587
 20
84.7146937908
 10
196.8417855046
 20
84.6895542117
 10
196.7797350015
 20
84.6720384612
 10
196.7141638564
 20
84.6622511143
 10
196.6454272392
 20
84.6602585694
 10
196.6262586419
 20
84.6618209043
  0
LWPOLYLINE
  5
26B
100
AcDbEntity
  8
0
100
AcDbPolyline
 62
7
  6
CONTINUOUS
 90
7
 70
0
 10
195.2226002723
 20
83.7455727493
 10
195.1951411117
 20
83.7309213084
 10
195.1363977353
 20
83.7068250806
 10
195.0738414033
 20
83.6903693519
 10
195.0078123931
 20
83.6816534613
 10
194.9386681364
 20
83.680738515
 10
194.9289653273
 20
83.6816709899
  0
LWPOLYLINE
  5
26C
100
AcDbEntity
  8
0
100
AcDbPolyline
 62
7
  6
CONTINUOUS
 90
7
 70
0
 10
198.0510273601
 20
85.3786710858
 10
198.0176772562
 20
85.3611761205
 10
197.9585240341
 20
85.3378645844
 10
197.8955921993
 20
85.3222056143
 10
197.8292238851
 20
85.3142946143
 10
197.7597782005
 20
85.3141887154
 10
197.7572656836
 20
85.3144574803
  0
LWPOLYLINE
  5
26D
100
AcDbEntity
  8
0
100
AcDbPolyline
 62
7
  6
CONTINUOUS
 90
21
 70
0
 10
198.0240020926
 20
87.6426822049
 10
198.0823977279
 20
87.571623679
 10
198.137552132
 20
87.4984914387
 10
198.1892287615
 20
87.4237152262
 10
198.2372102921
 20
87.3477331558
 10
198.2813008271
 20
87.2709877071
 10
198.3213266826
 20
87.1939232586
 10
198.3571359794
 20
87.1169860682
 10
198.388600077
 20
87.0406211638
 10
198.415614973
 20
86.9652682831
 10
198.438101011
 20
86.8913615775
 10
198.4560040953
 20
86.8193250835
 10
198.4692957764
 20
86.7495699062
 10
198.4779726095
 20
86.6824952196
 10
198.4820567278
 20
86.6184848881
 10
198.4815958444
 20
86.557903522
 10
198.4766627247
 20
86.501096091
 10
198.4673550303
 20
86.4483865591
 10
198.4537949176
 20
86.4000750498
 10
198.4361282839
 20
86.3564358175
 10
198.4173852933
 20
86.3222020325
  0
LWPOLYLINE
  5
26E
100
AcDbEntity
  8
0
100
AcDbPolyline
 62
7
  6
CONTINUOUS
 90
7
 70
0
 10
194.2900432892
 20
84.6929867624
 10
194.3083236056
 20
84.6484967505
 10
194.3377053846
 20
84.5658842914
 10
194.3620267825
 20
84.4848073541
 10
194.3812219283
 20
84.4059612742
 10
194.3953816247
 20
84.3295515086
 10
194.404549081
 20
84.2559914373
  0
LWPOLYLINE
  5
26F
100
AcDbEntity
  8
0
100
AcDbPolyline
 62
7
  6
CONTINUOUS
 90
17
 70
0
 10
194.2900432892
 20
84.5432440422
 10
194.3221593964
 20
84.4610771665
 10
194.3586109266
 20
84.3540500311
 10
194.38931312
 20
84.2481298607
 10
194.4141455788
 20
84.1438579292
 10
194.4330169008
 20
84.0417673684
 10
194.4458651304
 20
83.9423805345
 10
194.4526580647
 20
83.8462064278
 10
194.4533934127
 20
83.7537381785
 10
194.4480988065
 20
83.6654506106
 10
194.4368316648
 20
83.5817978961
 10
194.4196789093
 20
83.5032113122
 10
194.3967565355
 20
83.4300971103
 10
194.3682090392
 20
83.3628345094
 10
194.3342087033
 20
83.3017738228
 10
194.2949547463
 20
83.2472347277
 10
194.2900432892
 20
83.241940886
  0
LWPOLYLINE
  5
270
100
AcDbEntity
  8
RACCORDO
100
AcDbPolyline
 62
250
  6
CONTINUOUS
 90
40
 70
0
 10
191.8021766792
 20
95.0551554934
 10
191.7973329726
 20
95.3365546539
 10
191.782829789
 20
95.6224742184
 10
191.7586671283
 20
95.9129141869
 10
191.724770738
 20
96.2084719209
 10
191.6812148707
 20
96.5085500588
 10
191.6282222845
 20
96.8113565164
 10
191.5657547752
 20
97.116772522
 10
191.493850547
 20
97.4249168472
 10
191.4128469705
 20
97.7343537224
 10
191.322693642
 20
98.0451188057
 10
191.2234409652
 20
98.3571764389
 10
191.1155775223
 20
98.668983878
 10
190.9990643013
 20
98.9805286865
 10
190.8739403141
 20
99.2918233008
 10
190.7408111791
 20
99.6013622868
 10
190.5996370185
 20
99.9091398303
 10
190.4504577099
 20
100.2151617453
 10
190.2939985043
 20
100.5179400402
 10
190.1302243458
 20
100.8174581628
 10
189.9591702903
 20
101.1137326653
 10
189.7816667558
 20
101.4053252117
 10
189.5976818358
 20
101.6922137726
 10
189.4072474369
 20
101.9744203774
 10
189.2112896965
 20
102.2505727791
 10
189.0097837784
 20
102.5206391838
 10
188.8027545188
 20
102.7846513853
 10
188.5912025646
 20
103.0413325175
 10
188.3750973706
 20
103.2906553114
 10
188.1544694818
 20
103.532647036
 10
187.9304111805
 20
103.7661126323
 10
187.7029283695
 20
103.9909903609
 10
187.472015146
 20
104.2073419611
 10
187.2387460838
 20
104.4141575923
 10
187.0029996089
 20
104.6114633737
 10
186.7648972954
 20
104.7992331861
 10
186.5258784397
 20
104.9763788315
 10
186.286422807
 20
105.1425375774
 10
186.0460506321
 20
105.2980721564
 10
185.8047619149
 20
105.4429825684
  0
LINE
  5
271
100
AcDbEntity
  8
RACCORDO
100
AcDbLine
 62
250
  6
CONTINUOUS
 10
191.8021766792
 20
46.8834091626
 11
191.8021766792
 21
95.0551554934
  0
LWPOLYLINE
  5
272
100
AcDbEntity
  8
0
100
AcDbPolyline
 62
7
  6
CONTINUOUS
 90
6
 70
0
 10
195.8148970846
 20
88.0263765668
 10
195.8150835059
 20
88.026647789
 10
195.8671721453
 20
88.0882661272
 10
195.9242810479
 20
88.1430661374
 10
195.9861593731
 20
88.1907951711
 10
196.0331009961
 20
88.2204210659
  0
LWPOLYLINE
  5
273
100
AcDbEntity
  8
0
100
AcDbPolyline
 62
7
  6
CONTINUOUS
 90
6
 70
0
 10
195.2499187521
 20
87.6991287289
 10
195.2685525082
 20
87.7241890806
 10
195.3225735996
 20
87.7832526301
 10
195.3815226379
 20
87.8353979821
 10
195.4451396929
 20
87.8803856021
 10
195.4674152311
 20
87.8938011938
  0
LWPOLYLINE
  5
274
100
AcDbEntity
  8
0
100
AcDbPolyline
 62
7
  6
CONTINUOUS
 90
5
 70
0
 10
194.6839691349
 20
87.3725321803
 10
194.722765748
 20
87.4207747838
 10
194.7786855411
 20
87.4772440977
 10
194.8394374706
 20
87.526700238
 10
194.9017293126
 20
87.5671812483
  0
LWPOLYLINE
  5
275
100
AcDbEntity
  8
0
100
AcDbPolyline
 62
7
  6
CONTINUOUS
 90
3
 70
0
 10
197.0483207618
 20
84.8342492507
 10
197.0035322474
 20
84.7872385386
 10
196.9539925296
 20
84.7473149639
  0
LWPOLYLINE
  5
276
100
AcDbEntity
  8
0
100
AcDbPolyline
 62
7
  6
CONTINUOUS
 90
3
 70
0
 10
195.3453826863
 20
83.8474977069
 10
195.2999236516
 20
83.8014498704
 10
195.2497500902
 20
83.7625209538
  0
LWPOLYLINE
  5
277
100
AcDbEntity
  8
0
100
AcDbPolyline
 62
7
  6
CONTINUOUS
 90
3
 70
0
 10
198.169333382
 20
85.4755091857
 10
198.123374254
 20
85.4301869225
 10
198.0727283976
 20
85.3920070166
  0
LWPOLYLINE
  5
278
100
AcDbEntity
  8
0
100
AcDbPolyline
 62
7
  6
CONTINUOUS
 90
3
 70
0
 10
198.4652811381
 20
86.2761997848
 10
198.4357166631
 20
86.2473384355
 10
198.4054326088
 20
86.2249394061
  0
LWPOLYLINE
  5
279
100
AcDbEntity
  8
0
100
AcDbPolyline
 62
7
  6
CONTINUOUS
 90
4
 70
0
 10
196.4662208299
 20
84.4889771171
 10
196.4195988802
 20
84.4446272081
 10
196.3683277149
 20
84.4074502985
 10
196.3539704113
 20
84.3988116647
  0
LWPOLYLINE
  5
27A
100
AcDbEntity
  8
0
100
AcDbPolyline
 62
7
  6
CONTINUOUS
 90
4
 70
0
 10
194.7630216325
 20
83.5025841711
 10
194.7157425304
 20
83.4592101957
 10
194.6638521269
 20
83.4230391454
 10
194.6569143196
 20
83.41895276
  0
LINE
  5
27B
100
AcDbEntity
  8
0
100
AcDbLine
 62
7
  6
CONTINUOUS
 10
197.586784218
 20
85.1308725367
 11
197.5390158156
 21
85.0882328741
  0
LINE
  5
27C
100
AcDbEntity
  8
0
100
AcDbLine
 62
7
  6
CONTINUOUS
 10
195.8834217098
 20
84.1447106497
 11
195.8350047128
 21
84.1030546652
  0
LWPOLYLINE
  5
27D
100
AcDbEntity
  8
0
100
AcDbPolyline
 62
7
  6
CONTINUOUS
 90
13
 70
0
 10
194.2900432892
 20
84.3058292488
 10
194.3186024418
 20
84.2073024014
 10
194.3434349007
 20
84.1030304699
 10
194.3623062227
 20
84.0009399091
 10
194.3751544523
 20
83.9015530751
 10
194.3819473866
 20
83.8053789685
 10
194.3826827346
 20
83.7129107192
 10
194.3773881283
 20
83.6246231512
 10
194.3661209866
 20
83.5409704368
 10
194.3489682312
 20
83.4623838529
 10
194.3260458574
 20
83.389269651
 10
194.2974983611
 20
83.3220070501
 10
194.2900432892
 20
83.3086185997
  0
LWPOLYLINE
  5
27E
100
AcDbEntity
  8
0
100
AcDbPolyline
 62
7
  6
CONTINUOUS
 90
14
 70
0
 10
198.3979271143
 20
86.293513462
 10
198.4086900901
 20
86.1951773833
 10
198.4133935988
 20
86.1002259356
 10
198.4120456697
 20
86.0091462098
 10
198.4046842249
 20
85.9224061717
 10
198.3913768919
 20
85.8404523499
 10
198.3722206695
 20
85.7637076302
 10
198.347341449
 20
85.6925691667
 10
198.3168933917
 20
85.6274064198
 10
198.2810581682
 20
85.5685593313
 10
198.2400440601
 20
85.5163366451
 10
198.1940849321
 20
85.4710143819
 10
198.1434390757
 20
85.4328344759
 10
198.1217380382
 20
85.4194985452
  0
LWPOLYLINE
  5
27F
100
AcDbEntity
  8
0
100
AcDbPolyline
 62
7
  6
CONTINUOUS
 90
3
 70
0
 10
197.7986622534
 20
86.2157098448
 10
197.8028661145
 20
86.1469445453
 10
197.8027439498
 20
86.1284221535
  0
LWPOLYLINE
  5
280
100
AcDbEntity
  8
0
100
AcDbPolyline
 62
7
  6
CONTINUOUS
 90
3
 70
0
 10
194.404549081
 20
84.2559914373
 10
194.408783862
 20
84.1861015383
 10
194.4086241
 20
84.1670427158
  0
LWPOLYLINE
  5
281
100
AcDbEntity
  8
0
100
AcDbPolyline
 62
7
  6
CONTINUOUS
 90
3
 70
0
 10
195.535920586
 20
84.9092311648
 10
195.5401554513
 20
84.8393377583
 10
195.5399907258
 20
84.8193847263
  0
LWPOLYLINE
  5
282
100
AcDbEntity
  8
0
100
AcDbPolyline
 62
7
  6
CONTINUOUS
 90
3
 70
0
 10
194.9702350452
 20
84.5826114233
 10
194.9744797366
 20
84.5123508242
 10
194.9743207078
 20
84.4941577129
  0
LWPOLYLINE
  5
283
100
AcDbEntity
  8
0
100
AcDbPolyline
 62
7
  6
CONTINUOUS
 90
3
 70
0
 10
196.1016052603
 20
85.2358504061
 10
196.1058579632
 20
85.1652858936
 10
196.1056947143
 20
85.1479083223
  0
LWPOLYLINE
  5
284
100
AcDbEntity
  8
0
100
AcDbPolyline
 62
7
  6
CONTINUOUS
 90
3
 70
0
 10
196.6672908149
 20
85.5624701556
 10
196.6715450664
 20
85.4918469521
 10
196.6713661022
 20
85.4730705809
  0
LWPOLYLINE
  5
285
100
AcDbEntity
  8
0
100
AcDbPolyline
 62
7
  6
CONTINUOUS
 90
3
 70
0
 10
197.2329767786
 20
85.8890901413
 10
197.2372336933
 20
85.8183649986
 10
197.2370517286
 20
85.7995909058
  0
LWPOLYLINE
  5
286
100
AcDbEntity
  8
RACCORDO
100
AcDbPolyline
 62
250
  6
CONTINUOUS
 90
40
 70
0
 10
193.8858343911
 20
95.0341556914
 10
193.8801108044
 20
95.3655856969
 10
193.8629493275
 20
95.7030875835
 10
193.8343777957
 20
96.0461139226
 10
193.7944425511
 20
96.3941083255
 10
193.7432083682
 20
96.7465063434
 10
193.680758349
 20
97.1027363825
 10
193.6071937866
 20
97.462220639
 10
193.5226340029
 20
97.8243760259
 10
193.427216157
 20
98.1886151143
 10
193.3210950197
 20
98.5543470998
 10
193.2044427188
 20
98.920978771
 10
193.0774484612
 20
99.2879154607
 10
192.9403182296
 20
99.6545620021
 10
192.7932744512
 20
100.0203236874
 10
192.6365556341
 20
100.3846072435
 10
192.4704159783
 20
100.7468217982
 10
192.2951249619
 20
101.1063798411
 10
192.1109669061
 20
101.4626981705
 10
191.9182405153
 20
101.8151988383
 10
191.7172583929
 20
102.1633100856
 10
191.5083465337
 20
102.5064672731
 10
191.2918437942
 20
102.8441137974
 10
191.068101342
 20
103.175701996
 10
190.8374820866
 20
103.5006940337
 10
190.6003600915
 20
103.8185627746
 10
190.3571199709
 20
104.1287926318
 10
190.108156265
 20
104.4308804067
 10
189.8538727976
 20
104.7243361081
 10
189.5946820141
 20
105.0086837542
 10
189.331004316
 20
105.2834621397
 10
189.0632673842
 20
105.5482255774
 10
188.7919054937
 20
105.8025446142
 10
188.5173588027
 20
106.0460067362
 10
188.2400726296
 20
106.278217045
 10
187.9604967312
 20
106.4987988976
 10
187.6790845809
 20
106.7073945098
 10
187.3962926303
 20
106.9036655391
 10
187.112579569
 20
107.087293634
 10
186.8284055805
 20
107.2579809494
  0
LINE
  5
287
100
AcDbEntity
  8
RACCORDO
100
AcDbLine
 62
250
  6
CONTINUOUS
 10
193.8858343911
 20
46.8624093607
 11
193.8858343911
 21
95.0341556914
  0
LINE
  5
288
100
AcDbEntity
  8
DRAFT
100
AcDbLine
 62
7
  6
CONTINUOUS
 10
194.2900432892
 20
47.0800445356
 11
194.2900432892
 21
95.2517908664
  0
LWPOLYLINE
  5
289
100
AcDbEntity
  8
DRAFT
100
AcDbPolyline
 62
7
  6
CONTINUOUS
 90
21
 70
0
 10
194.2900432892
 20
47.0800445356
 10
194.2842465697
 20
46.7538526401
 10
194.2670653163
 20
46.4357631039
 10
194.2384995291
 20
46.125775927
 10
194.198452455
 20
45.8233590572
 10
194.147020847
 20
45.5290445467
 10
194.0844949644
 20
45.2444285524
 10
194.0108629392
 20
44.9696943057
 10
193.9261366395
 20
44.7046585752
 10
193.8306419279
 20
44.450367823
 10
193.7242500524
 20
44.2067046804
 10
193.6070897652
 20
43.9737865162
 10
193.4798731856
 20
43.7530118987
 10
193.3426675642
 20
43.5446176953
 10
193.1954056505
 20
43.3483670387
 10
193.0385978124
 20
43.1649478958
 10
192.8720425583
 20
42.9942577403
 10
192.6959413797
 20
42.8363990984
 10
192.5114091197
 20
42.6923675154
 10
192.3185933729
 20
42.5623655183
 10
192.1173465447
 20
42.4461905801
  0
LINE
  5
28A
100
AcDbEntity
  8
0
100
AcDbLine
 62
7
  6
CONTINUOUS
 10
199.6640548262
 20
88.3134506208
 11
198.6490331563
 21
86.6922026365
  0
LINE
  5
28B
100
AcDbEntity
  8
0
100
AcDbLine
 62
7
  6
CONTINUOUS
 10
198.4173852933
 20
86.3222020325
 11
198.398149878
 21
86.2914781779
  0
LINE
  5
28C
100
AcDbEntity
  8
0
100
AcDbLine
 62
7
  6
CONTINUOUS
 10
198.4918379102
 20
86.3099011714
 11
198.4652811381
 21
86.2761997848
  0
LINE
  5
28D
100
AcDbEntity
  8
0
100
AcDbLine
 62
7
  6
CONTINUOUS
 10
198.3811265746
 20
86.3947303613
 11
198.3979271143
 21
86.293513462
  0
LWPOLYLINE
  5
28E
100
AcDbEntity
  8
0
100
AcDbPolyline
 62
7
  6
CONTINUOUS
 90
10
 70
0
 10
198.337979412
 20
86.154349924
 10
198.3426829207
 20
86.0593984762
 10
198.3413349916
 20
85.9683187505
 10
198.3339735468
 20
85.8815787124
 10
198.3206662138
 20
85.7996248905
 10
198.3015099914
 20
85.7228801708
 10
198.2766307708
 20
85.6517417073
 10
198.2461827136
 20
85.5865789604
 10
198.21034749
 20
85.527731872
 10
198.169333382
 20
85.4755091857
  0
LWPOLYLINE
  5
28F
100
AcDbEntity
  8
0
100
AcDbPolyline
 62
7
  6
CONTINUOUS
 90
6
 70
0
 10
198.5729474525
 20
86.5462003915
 10
198.564167843
 20
86.4904813212
 10
198.5515168662
 20
86.4387940811
 10
198.5351366884
 20
86.3913482071
 10
198.5151857759
 20
86.3483298555
 10
198.4918379102
 20
86.3099011714
  0
LWPOLYLINE
  5
290
100
AcDbEntity
  8
0
100
AcDbPolyline
 62
7
  6
CONTINUOUS
 90
18
 70
0
 10
198.389034105
 20
86.3470904803
 10
198.3980535763
 20
86.3869515941
 10
198.4079579618
 20
86.4548840128
 10
198.4131806898
 20
86.5261560256
 10
198.4136942323
 20
86.6003876154
 10
198.4094961958
 20
86.6771819274
 10
198.4006094998
 20
86.7561284572
 10
198.3870819326
 20
86.8368068056
 10
198.3689856578
 20
86.9187882054
 10
198.3464170803
 20
87.0016363042
 10
198.3194968318
 20
87.0849085827
 10
198.2883689147
 20
87.168160239
 10
198.2531995478
 20
87.2509474419
 10
198.2141764767
 20
87.3328288836
 10
198.1715084085
 20
87.4133673453
 10
198.1254232768
 20
87.4921333986
 10
198.0761668996
 20
87.5687076548
 10
198.0240020926
 20
87.6426822049
  0
LINE
  5
291
100
AcDbEntity
  8
RACCORDO
100
AcDbLine
 62
250
  6
CONTINUOUS
 10
193.8858343911
 20
46.8624093607
 11
194.2900432892
 21
47.0800445356
  0
LWPOLYLINE
  5
292
100
AcDbEntity
  8
RACCORDO
100
AcDbPolyline
 62
250
  6
CONTINUOUS
 90
19
 70
0
 10
192.1109668997
 20
42.4834393599
 10
192.2951249559
 20
42.6270965823
 10
192.4704159727
 20
42.7842329529
 10
192.6365556289
 20
42.9545935971
 10
192.7932744461
 20
43.1379021908
 10
192.9403182244
 20
43.3338614058
 10
193.0774484563
 20
43.5421533924
 10
193.2044427145
 20
43.7624402968
 10
193.3210950163
 20
43.9943648152
 10
193.4272161541
 20
44.2375507716
 10
193.5226340002
 20
44.4916037226
 10
193.607193784
 20
44.7561115897
 10
193.6807583465
 20
45.0306453322
 10
193.7432083657
 20
45.3147596521
 10
193.7944425487
 20
45.6079937173
 10
193.8343777939
 20
45.9098719003
 10
193.8629493265
 20
46.2199045532
 10
193.8801108041
 20
46.5375888018
 10
193.8858343911
 20
46.8624093607
  0
LINE
  5
293
100
AcDbEntity
  8
RACCORDO
100
AcDbLine
 62
250
  6
CONTINUOUS
 10
191.9182405085
 20
42.3534942978
 11
192.1109668997
 21
42.4834393599
  0
LWPOLYLINE
  5
294
100
AcDbEntity
  8
RACCORDO
100
AcDbPolyline
 62
250
  6
CONTINUOUS
 90
3
 70
0
 10
191.6942674287
 20
42.2253630709
 10
191.7172583859
 20
42.2374721681
 10
191.9182405085
 20
42.3534942978
  0
LINE
  5
295
100
AcDbEntity
  8
DRAFT
100
AcDbLine
 62
7
  6
CONTINUOUS
 10
191.6942674287
 20
42.2253630709
 11
192.1173465447
 21
42.4461905801
  0
LWPOLYLINE
  5
296
100
AcDbEntity
  8
RACCORDO
100
AcDbPolyline
 62
7
  6
CONTINUOUS
 90
22
 70
0
 10
191.6942674287
 20
42.2253630709
 10
191.481621792
 20
42.1216975279
 10
191.2619263875
 20
42.0290540847
 10
191.0354979621
 20
41.9477952038
 10
190.8029201508
 20
41.8783242734
 10
190.5643029101
 20
41.8208561548
 10
190.3192063492
 20
41.7755434813
 10
190.0677198514
 20
41.7427342825
 10
189.8103637517
 20
41.7228198413
 10
189.5472508303
 20
41.7161238024
 10
189.278436984
 20
41.7229912845
 10
189.0044380728
 20
41.7437510666
 10
188.7260043621
 20
41.7786361757
 10
188.443125563
 20
41.8279271655
 10
188.1563639195
 20
41.8918103399
 10
187.8673177853
 20
41.9701042001
 10
187.576271177
 20
42.062820135
 10
187.2835006451
 20
42.1699692306
 10
186.990609497
 20
42.2909823762
 10
186.6983268082
 20
42.4254644539
 10
186.4064932376
 20
42.5734088071
 10
186.1153858465
 20
42.7346410352
  0
ENDSEC
  0
SECTION
  2
OBJECTS
  0
DICTIONARY
  5
C
100
AcDbDictionary
280
0
281
1
  3
ACAD_GROUP
350
D
  3
ACAD_MLINESTYLE
350
17
  3
ACAD_LAYOUT
350
1A
  3
ACAD_PLOTSETTINGS
350
19
  3
ACAD_PLOTSTYLENAME
350
E
  0
DICTIONARY
  5
D
102
{ACAD_REACTORS
330
C
102
}
100
AcDbDictionary
280
0
281
1
  0
ACDBDICTIONARYWDFLT
  5
E
102
{ACAD_REACTORS
330
C
102
}
100
AcDbDictionary
281
1
  3
Normal
350
F
100
AcDbDictionaryWithDefault
340
F
  0
DICTIONARY
  5
17
102
{ACAD_REACTORS
330
C
102
}
100
AcDbDictionary
280
0
281
1
  3
Standard
350
18
  0
DICTIONARY
  5
19
102
{ACAD_REACTORS
330
C
102
}
100
AcDbDictionary
281
1
  0
DICTIONARY
  5
1A
102
{ACAD_REACTORS
330
C
102
}
100
AcDbDictionary
281
1
  3
Model
350
297
  3
Layout1
350
298
  0
ACDBPLACEHOLDER
  5
F
102
{ACAD_REACTORS
330
E
102
}
  0
MLINESTYLE
  5
18
102
{ACAD_REACTORS
330
17
102
}
100
AcDbMlineStyle
  2
STANDARD
 70
0
  3

 62
256
 51
90.0
 52
90.0
 71
2
 49
0.5
 62
256
  6
BYLAYER
 49
-0.5
 62
256
  6
BYLAYER
  0
LAYOUT
  5
297
102
{ACAD_REACTORS
330
1A
102
}
100
AcDbPlotSettings
  1

  2
none_device
  4
ISO_A4_(297.00_x_210.00_MM)
  6

 40
0.0
 41
0.0
 42
0.0
 43
0.0
 44
297.0
 45
210.0
 46
0.0
 47
0.0
 48
0.0
 49
0.0
140
0.0
141
0.0
142
1.0
143
1.0
 70
1024
 72
1
 73
0
 74
0
  7

 75
0
147
1.0
148
0.0
149
0.0
100
AcDbLayout
  1
Model
 70
0
 71
0
 10
0.0
 20
0.0
 11
297.0
 21
210.0
 12
0.0
 22
0.0
 32
0.0
 14
0.0
 24
0.0
 34
0.0
 15
0.0
 25
0.0
 35
0.0
146
0.0
 13
0.0
 23
0.0
 33
0.0
 16
1.0
 26
0.0
 36
0.0
 17
0.0
 27
1.0
 37
0.0
 76
0
330
217
345
0
346
0
  0
LAYOUT
  5
298
102
{ACAD_REACTORS
330
1A
102
}
100
AcDbPlotSettings
  1

  2
none_device
  4
ISO_A4_(297.00_x_210.00_MM)
  6

 40
0.0
 41
0.0
 42
0.0
 43
0.0
 44
297.0
 45
210.0
 46
0.0
 47
0.0
 48
0.0
 49
0.0
140
0.0
141
0.0
142
1.0
143
1.0
 70
0
 72
1
 73
0
 74
0
  7

 75
0
147
1.0
148
0.0
149
0.0
100
AcDbLayout
  1
Layout1
 70
0
 71
1
 10
0.0
 20
0.0
 11
297.0
 21
210.0
 12
0.0
 22
0.0
 32
0.0
 14
0.0
 24
0.0
 34
0.0
 15
0.0
 25
0.0
 35
0.0
146
0.0
 13
0.0
 23
0.0
 33
0.0
 16
1.0
 26
0.0
 36
0.0
 17
0.0
 27
1.0
 37
0.0
 76
0
330
218
345
0
346
0
  0
ENDSEC
  0
EOF
