  0
SECTION
  2
HEADER
  9
$ACADVER
  1
AC1021
  9
$DWGCODEPAGE
  3
ANSI_1252
  9
$EXTMAX
 10
297.0
 20
210.0
 30
0.0
  9
$EXTMIN
 10
0.0
 20
0.0
 30
0.0
  9
$LIMMIN
 10
0.0
 20
0.0
  9
$LIMMAX
 10
297.0
 20
210.0
  9
$VIEWCTR
 10
148.5
 20
105.0
  9
$VIEWSIZE
 40
210.0
  9
$CLAYER
  8
0
  9
$LTSCALE
 40
16.335
  9
$CELTYPE
  6
BYLAYER
  9
$DIMSCALE
 40
1.0
  9
$DIMASZ
 40
3.0
  9
$DIMEXO
 40
0.5
  9
$DIMDLI
 40
11.286
  9
$DIMEXE
 40
1.5
  9
$DIMCEN
 40
2.673
  9
$DIMLFAC
 40
1.0
  9
$DIMBLK
  1
_FILLED
  9
$DIMALT
 70
0
  9
$DIMALTF
 40
25.4
  9
$DIMTXT
 40
3.0
  9
$DIMTOL
 70
1
  9
$DIMLIM
 70
0
  9
$DIMTFAC
 40
1.0
  9
$DIMTP
 40
0.01
  9
$DIMTM
 40
0.01
  9
$DIMGAP
 40
0.625
  9
$DIMDSEP
 70
44
  9
$AUNITS
 70
0
  9
$PDMODE
 70
3
  9
$PDSIZE
 40
3.0
  9
$HANDSEED
  5
265
  9
$TILEMODE
 70
1
  9
$MEASUREMENT
 70
1
  9
$INSUNITS
 70
4
  0
ENDSEC
  0
SECTION
  2
CLASSES
  0
CLASS
  1
ACDBDICTIONARYWDFLT
  2
AcDbDictionaryWithDefault
  3
AutoCAD 2000
 90
0
 91
1
280
0
281
0
  0
CLASS
  1
ACDBPLACEHOLDER
  2
AcDbPlaceHolder
  3
AutoCAD 2000
 90
0
 91
1
280
0
281
0
  0
CLASS
  1
LAYOUT
  2
AcDbLayout
  3
AutoCAD 2000
 90
0
 91
0
280
0
281
0
  0
ENDSEC
  0
SECTION
  2
TABLES
  0
TABLE
  2
VPORT
  5
8
100
AcDbSymbolTable
 70
2
  0
VPORT
  5
1F4
100
AcDbSymbolTableRecord
100
AcDbViewportTableRecord
  2
*ACTIVE
 70
0
 10
0.0
 20
0.0
 11
1.0
 21
1.0
 12
148.5
 22
105.0
 13
0.0
 23
0.0
 14
1.0
 24
1.0
 15
0.0
 25
0.0
 16
0.0
 26
0.0
 36
1.0
 17
0.0
 27
0.0
 37
0.0
 40
210.0
 41
1.4142857143
 42
50.0
 43
0.0
 44
0.0
 50
0.0
 51
0.0
 71
0
 72
100
 73
1
 74
1
 75
0
 76
0
 77
0
 78
0
  0
ENDTAB
  0
TABLE
  2
LTYPE
  5
5
100
AcDbSymbolTable
 70
6
  0
LTYPE
  5
14
100
AcDbSymbolTableRecord
100
AcDbLinetypeTableRecord
  2
BYBLOCK
 70
0
  3

 72
65
 73
0
 40
0.0
  0
LTYPE
  5
15
100
AcDbSymbolTableRecord
100
AcDbLinetypeTableRecord
  2
BYLAYER
 70
0
  3

 72
65
 73
0
 40
0.0
  0
LTYPE
  5
16
100
AcDbSymbolTableRecord
100
AcDbLinetypeTableRecord
  2
CONTINUOUS
 70
64
  3
Solid line
 72
65
 73
0
 40
0.0
  0
LTYPE
  5
1F5
100
AcDbSymbolTableRecord
100
AcDbLinetypeTableRecord
  2
CENTER
 70
64
  3
____ _ ____ _ ____ _ ____ _ ____ _ ____ _ ____
 72
65
 73
4
 40
0.6
 49
0.375
 74
0
 49
-0.075
 74
0
 49
0.075
 74
0
 49
-0.075
 74
0
  0
LTYPE
  5
1F6
100
AcDbSymbolTableRecord
100
AcDbLinetypeTableRecord
  2
HIDDEN
 70
64
  3
- - - - - - - - - - - - - - - - - - - -
 72
65
 73
2
 40
0.2
 49
0.1
 74
0
 49
-0.1
 74
0
  0
LTYPE
  5
1F7
100
AcDbSymbolTableRecord
100
AcDbLinetypeTableRecord
  2
PHANTOM
 70
64
  3
_____ _ _ _____ _ _ _____ _ _ _____
 72
65
 73
6
 40
0.8
 49
0.45
 74
0
 49
-0.05
 74
0
 49
0.1
 74
0
 49
-0.05
 74
0
 49
0.1
 74
0
 49
-0.05
 74
0
  0
LTYPE
  5
1F8
100
AcDbSymbolTableRecord
100
AcDbLinetypeTableRecord
  2
DOT
 70
64
  3
. . . . . . . . . . . . . . . . . . . .
 72
65
 73
2
 40
0.2
 49
0.1
 74
0
 49
-0.1
 74
0
  0
LTYPE
  5
1F9
100
AcDbSymbolTableRecord
100
AcDbLinetypeTableRecord
  2
DASHED
 70
64
  3
- - - - - - - - - - - - - - - - - - - -
 72
65
 73
2
 40
0.2
 49
0.1
 74
0
 49
-0.1
 74
0
  0
ENDTAB
  0
TABLE
  2
LAYER
  5
2
100
AcDbSymbolTable
 70
36
  0
LAYER
  5
10
100
AcDbSymbolTableRecord
100
AcDbLayerTableRecord
  2
0
 70
0
 62
7
  6
CONTINUOUS
370
-3
390
F
  0
LAYER
  5
1FA
100
AcDbSymbolTableRecord
100
AcDbLayerTableRecord
  2
DEFAULT_1
 70
0
 62
7
  6
CENTER
370
-3
390
F
  0
LAYER
  5
1FB
100
AcDbSymbolTableRecord
100
AcDbLayerTableRecord
  2
DEFAULT_2
 70
0
 62
7
  6
HIDDEN
370
-3
390
F
  0
LAYER
  5
1FC
100
AcDbSymbolTableRecord
100
AcDbLayerTableRecord
  2
DEFAULT_3
 70
0
 62
7
  6
PHANTOM
370
-3
390
F
  0
LAYER
  5
1FD
100
AcDbSymbolTableRecord
100
AcDbLayerTableRecord
  2
ASSI
 70
0
 62
7
  6
CONTINUOUS
370
-3
390
F
  0
LAYER
  5
1FE
100
AcDbSymbolTableRecord
100
AcDbLayerTableRecord
  2
COLOR5
 70
0
 62
7
  6
CONTINUOUS
370
-3
390
F
  0
LAYER
  5
1FF
100
AcDbSymbolTableRecord
100
AcDbLayerTableRecord
  2
COORDINATE
 70
0
 62
7
  6
CONTINUOUS
370
-3
390
F
  0
LAYER
  5
200
100
AcDbSymbolTableRecord
100
AcDbLayerTableRecord
  2
COORD_ORIGINE
 70
0
 62
7
  6
CONTINUOUS
370
-3
390
F
  0
LAYER
  5
201
100
AcDbSymbolTableRecord
100
AcDbLayerTableRecord
  2
COPY_PUBLISH
 70
0
 62
7
  6
CONTINUOUS
370
-3
390
F
  0
LAYER
  5
202
100
AcDbSymbolTableRecord
100
AcDbLayerTableRecord
  2
COSMETICI
 70
0
 62
7
  6
CONTINUOUS
370
-3
390
F
  0
LAYER
  5
203
100
AcDbSymbolTableRecord
100
AcDbLayerTableRecord
  2
CURVE
 70
0
 62
7
  6
CONTINUOUS
370
-3
390
F
  0
LAYER
  5
204
100
AcDbSymbolTableRecord
100
AcDbLayerTableRecord
  2
DRAFT
 70
0
 62
7
  6
CONTINUOUS
370
-3
390
F
  0
LAYER
  5
205
100
AcDbSymbolTableRecord
100
AcDbLayerTableRecord
  2
IMPORT_IGES
 70
0
 62
7
  6
CONTINUOUS
370
-3
390
F
  0
LAYER
  5
206
100
AcDbSymbolTableRecord
100
AcDbLayerTableRecord
  2
INTF_1
 70
0
 62
7
  6
CONTINUOUS
370
-3
390
F
  0
LAYER
  5
207
100
AcDbSymbolTableRecord
100
AcDbLayerTableRecord
  2
INTF_11
 70
0
 62
7
  6
CONTINUOUS
370
-3
390
F
  0
LAYER
  5
208
100
AcDbSymbolTableRecord
100
AcDbLayerTableRecord
  2
INTF_7
 70
0
 62
7
  6
CONTINUOUS
370
-3
390
F
  0
LAYER
  5
209
100
AcDbSymbolTableRecord
100
AcDbLayerTableRecord
  2
NOTE
 70
0
 62
7
  6
CONTINUOUS
370
-3
390
F
  0
LAYER
  5
20A
100
AcDbSymbolTableRecord
100
AcDbLayerTableRecord
  2
PIANI
 70
0
 62
7
  6
CONTINUOUS
370
-3
390
F
  0
LAYER
  5
20B
100
AcDbSymbolTableRecord
100
AcDbLayerTableRecord
  2
PIANI_ORIGINE
 70
0
 62
7
  6
CONTINUOUS
370
-3
390
F
  0
LAYER
  5
20C
100
AcDbSymbolTableRecord
100
AcDbLayerTableRecord
  2
PUNTI
 70
0
 62
7
  6
CONTINUOUS
370
-3
390
F
  0
LAYER
  5
20D
100
AcDbSymbolTableRecord
100
AcDbLayerTableRecord
  2
RACCORDO
 70
0
 62
7
  6
CONTINUOUS
370
-3
390
F
  0
LAYER
  5
20E
100
AcDbSymbolTableRecord
100
AcDbLayerTableRecord
  2
RGB__255__255__255__
 70
0
 62
7
  6
CONTINUOUS
370
-3
390
F
  0
LAYER
  5
20F
100
AcDbSymbolTableRecord
100
AcDbLayerTableRecord
  2
RGB____0____0____0__
 70
0
 62
7
  6
CONTINUOUS
370
-3
390
F
  0
LAYER
  5
210
100
AcDbSymbolTableRecord
100
AcDbLayerTableRecord
  2
SIMBOLI
 70
0
 62
7
  6
CONTINUOUS
370
-3
390
F
  0
LAYER
  5
211
100
AcDbSymbolTableRecord
100
AcDbLayerTableRecord
  2
SMUSSO
 70
0
 62
7
  6
CONTINUOUS
370
-3
390
F
  0
LAYER
  5
212
100
AcDbSymbolTableRecord
100
AcDbLayerTableRecord
  2
SUPERFICI
 70
0
 62
7
  6
CONTINUOUS
370
-3
390
F
  0
LAYER
  5
213
100
AcDbSymbolTableRecord
100
AcDbLayerTableRecord
  2
TRASH
 70
0
 62
7
  6
CONTINUOUS
370
-3
390
F
  0
ENDTAB
  0
TABLE
  2
STYLE
  5
3
100
AcDbSymbolTable
 70
1
  0
STYLE
  5
11
100
AcDbSymbolTableRecord
100
AcDbTextStyleTableRecord
  2
STANDARD
 70
0
 40
0.0
 41
0.8
 50
0.0
 71
0
 42
0.2
  3
txt
  4

  0
STYLE
  5
214
100
AcDbSymbolTableRecord
100
AcDbTextStyleTableRecord
  2
TEXTSTYLE_1
 70
0
 40
0.0
 41
0.8
 50
0.0
 71
0
 42
0.2
  3
gdt
  4

  0
ENDTAB
  0
TABLE
  2
VIEW
  5
6
100
AcDbSymbolTable
 70
0
  0
ENDTAB
  0
TABLE
  2
UCS
  5
7
100
AcDbSymbolTable
 70
0
  0
ENDTAB
  0
TABLE
  2
APPID
  5
9
100
AcDbSymbolTable
 70
1
  0
APPID
  5
215
100
AcDbSymbolTableRecord
100
AcDbRegAppTableRecord
  2
ACAD
 70
0
  0
ENDTAB
  0
TABLE
  2
BLOCK_RECORD
  5
1
100
AcDbSymbolTable
 70
0
  0
BLOCK_RECORD
  5
216
100
AcDbSymbolTableRecord
100
AcDbBlockTableRecord
  2
*Model_Space
  0
BLOCK_RECORD
  5
217
100
AcDbSymbolTableRecord
100
AcDbBlockTableRecord
  2
*Paper_Space
  0
ENDTAB
  0
TABLE
  2
DIMSTYLE
  5
A
100
AcDbSymbolTable
 70
1
100
AcDbDimStyleTable
 71
0
  0
DIMSTYLE
105
218
100
AcDbSymbolTableRecord
100
AcDbDimStyleTableRecord
  2
STANDARD
 70
0
  3

  4

 40
1.0
 41
3.0
 42
0.5
 43
0.38
 44
1.5
 45
0.0
 46
0.0
 47
0.01
 48
0.01
140
3.0
141
0.09
142
0.0
143
25.4
144
1.0
145
0.0
146
1.0
147
0.625
 71
1.0
 72
0.0
 73
0
 74
0
 75
0
 76
0
 77
1
 78
8
170
0
171
1
172
0
173
0
174
0
175
0
176
0
177
0
178
0
270
2
271
2
272
2
273
2
274
2
275
0
280
0
281
0
282
0
283
1
284
8
285
0
286
0
287
3
288
0
340
11
278
44
  0
ENDTAB
  0
ENDSEC
  0
SECTION
  2
BLOCKS
  0
BLOCK
  5
20
100
AcDbEntity
  8
0
100
AcDbBlockBegin
  2
*Model_Space
 70
0
 10
0.0
 20
0.0
 30
0.0
  3
*Model_Space
  1

  0
ENDBLK
  5
21
100
AcDbEntity
  8
0
100
AcDbBlockEnd
  0
BLOCK
  5
1C
100
AcDbEntity
  8
0
100
AcDbBlockBegin
  2
*Paper_Space
 70
0
 10
0.0
 20
0.0
 30
0.0
  3
*Paper_Space
  1

  0
ENDBLK
  5
1D
100
AcDbEntity
  8
0
100
AcDbBlockEnd
  0
ENDSEC
  0
SECTION
  2
ENTITIES
  0
LWPOLYLINE
  5
219
100
AcDbEntity
  8
DRAFT
100
AcDbPolyline
 62
7
  6
CONTINUOUS
 90
22
 70
0
 10
-19.0500192621
 20
34.0383612719
 10
-18.848398824
 20
34.16651215
 10
-18.7477754098
 20
34.2245996191
 10
-18.6432724848
 20
34.2755795769
 10
-18.5347654469
 20
34.3194652908
 10
-18.4223788981
 20
34.3562434935
 10
-18.3068226737
 20
34.3856804007
 10
-18.188191548
 20
34.4077144064
 10
-18.0663907466
 20
34.4224071167
 10
-17.9418457819
 20
34.4297095654
 10
-17.8144372697
 20
34.4295916476
 10
-17.6842845942
 20
34.4220834681
 10
-17.5521714197
 20
34.4072263761
 10
-17.4181807614
 20
34.3849939705
 10
-17.2822296042
 20
34.3554126523
 10
-17.1448525678
 20
34.3186029732
 10
-17.0059732752
 20
34.2745139824
 10
-16.8656681034
 20
34.2231966307
 10
-16.7247008025
 20
34.1649243221
 10
-16.5833259561
 20
34.0997881912
 10
-16.4412889806
 20
34.0276971034
 10
-16.2985898762
 20
33.9486510587
  0
LWPOLYLINE
  5
21A
100
AcDbEntity
  8
RACCORDO
100
AcDbPolyline
 62
253
  6
CONTINUOUS
 90
4
 70
0
 10
-18.8338452975
 20
34.154404166
 10
-18.9383012272
 20
34.1034486617
 10
-19.0387922886
 20
34.0454375969
 10
-19.0500192621
 20
34.0383612719
  0
LINE
  5
21B
100
AcDbEntity
  8
RACCORDO
100
AcDbLine
 62
253
  6
CONTINUOUS
 10
-16.4938748246
 20
33.8280217496
 11
-16.2985898762
 21
33.9486510587
  0
LWPOLYLINE
  5
21C
100
AcDbEntity
  8
RACCORDO
100
AcDbPolyline
 62
253
  6
CONTINUOUS
 90
40
 70
0
 10
-20.0044040395
 20
7.1035679758
 10
-20.0019821862
 20
6.9628683955
 10
-19.9947305944
 20
6.8199086133
 10
-19.9826492641
 20
6.674688629
 10
-19.9657010689
 20
6.5269097621
 10
-19.9439231352
 20
6.3768706931
 10
-19.9174268421
 20
6.2254674643
 10
-19.8861930875
 20
6.0727594615
 10
-19.8502409734
 20
5.9186872989
 10
-19.8097391852
 20
5.7639688613
 10
-19.7646625209
 20
5.6085863197
 10
-19.7150361825
 20
5.4525575031
 10
-19.661104461
 20
5.2966537835
 10
-19.6028478505
 20
5.1408813793
 10
-19.540285857
 20
4.9852340721
 10
-19.4737212894
 20
4.8304645791
 10
-19.4031342091
 20
4.6765758074
 10
-19.3285445549
 20
4.5235648498
 10
-19.2503149521
 20
4.3721757024
 10
-19.1684278728
 20
4.2224166411
 10
-19.082900845
 20
4.0742793899
 10
-18.9941490778
 20
3.9284831167
 10
-18.9021566178
 20
3.7850388362
 10
-18.8069394183
 20
3.6439355338
 10
-18.7089605482
 20
3.505859333
 10
-18.6082075891
 20
3.3708261306
 10
-18.5046929593
 20
3.2388200299
 10
-18.3989169822
 20
3.1104794638
 10
-18.2908643852
 20
2.9858180668
 10
-18.1805504408
 20
2.8648222045
 10
-18.0685212902
 20
2.7480894063
 10
-17.9547798847
 20
2.6356505421
 10
-17.8393232729
 20
2.527474742
 10
-17.7226887418
 20
2.4240669263
 10
-17.6048155044
 20
2.3254140357
 10
-17.4857643476
 20
2.2315291295
 10
-17.3662549197
 20
2.1429563068
 10
-17.2465271034
 20
2.0598769338
 10
-17.126341016
 20
1.9821096443
 10
-17.0056966574
 20
1.9096544383
  0
LINE
  5
21D
100
AcDbEntity
  8
RACCORDO
100
AcDbLine
 62
7
  6
CONTINUOUS
 10
-20.2240739536
 20
31.4956470862
 11
-20.2240739536
 21
7.4097739208
  0
LINE
  5
21E
100
AcDbEntity
  8
RACCORDO
100
AcDbLine
 62
253
  6
CONTINUOUS
 10
-20.0044040395
 20
31.1894411412
 11
-20.0044040395
 21
7.1035679758
  0
LWPOLYLINE
  5
21F
100
AcDbEntity
  8
RACCORDO
100
AcDbPolyline
 62
7
  6
CONTINUOUS
 90
22
 70
0
 10
-20.2240739536
 20
31.4956470862
 10
-20.2210942079
 20
31.6623827831
 10
-20.2121609004
 20
31.8259677363
 10
-20.1972820624
 20
31.9862440119
 10
-20.1764337264
 20
32.1432571053
 10
-20.149639347
 20
32.2966308434
 10
-20.1170480328
 20
32.4456199307
 10
-20.0787331602
 20
32.5901280396
 10
-20.0347786458
 20
32.73002044
 10
-19.9854995388
 20
32.864589523
 10
-19.931119792
 20
32.9936355432
 10
-19.8717574072
 20
33.1172394256
 10
-19.8076808337
 20
33.2351718324
 10
-19.7391567035
 20
33.3472894993
 10
-19.6663444286
 20
33.4536513343
 10
-19.5893839231
 20
33.5543166185
 10
-19.5085688098
 20
33.6491474446
 10
-19.4240622529
 20
33.7381869465
 10
-19.3357768715
 20
33.8216879193
 10
-19.2438091094
 20
33.8996511454
 10
-19.1484808559
 20
33.9718967583
 10
-19.0500192621
 20
34.0383612719
  0
LWPOLYLINE
  5
220
100
AcDbEntity
  8
RACCORDO
100
AcDbPolyline
 62
253
  6
CONTINUOUS
 90
13
 70
0
 10
-17.0056966574
 20
1.9096544383
 10
-17.0046110678
 20
1.8711202269
 10
-17.0013587437
 20
1.8339973866
 10
-16.995953
 20
1.798437899
 10
-16.9884159679
 20
1.7645873451
 10
-16.9787785042
 20
1.7325843095
 10
-16.9670800647
 20
1.7025598132
 10
-16.9533685431
 20
1.6746367768
 10
-16.9377000745
 20
1.6489295177
 10
-16.9201388058
 20
1.6255432818
 10
-16.9007566332
 20
1.6045738126
 10
-16.8796329075
 20
1.5861069595
 10
-16.8571846974
 20
1.5704489171
  0
LWPOLYLINE
  5
221
100
AcDbEntity
  8
RACCORDO
100
AcDbPolyline
 62
253
  6
CONTINUOUS
 90
25
 70
0
 10
-17.0056966574
 20
32.9205225591
 10
-17.0046110678
 20
32.9603103821
 10
-17.0013587437
 20
33.0011889247
 10
-16.995953
 20
33.0429908297
 10
-16.9884159679
 20
33.0855449593
 10
-16.9787785042
 20
33.1286770965
 10
-16.9670800647
 20
33.1722106575
 10
-16.9533685431
 20
33.2159674153
 10
-16.9377000745
 20
33.2597682292
 10
-16.9201388058
 20
33.303433778
 10
-16.9007566332
 20
33.3467852943
 10
-16.8796329075
 20
33.3896452964
 10
-16.8568541096
 20
33.4318383147
 10
-16.8325134961
 20
33.4731916106
 10
-16.8067107181
 20
33.5135358829
 10
-16.7795514122
 20
33.5527059616
 10
-16.7511467693
 20
33.5905414839
 10
-16.7216130782
 20
33.6268875506
 10
-16.6910712503
 20
33.6615953604
 10
-16.6596463244
 20
33.694522819
 10
-16.6274669545
 20
33.7255351209
 10
-16.5946648834
 20
33.7545053013
 10
-16.5613744034
 20
33.7813147558
 10
-16.527731806
 20
33.8058537262
 10
-16.4938748246
 20
33.8280217496
  0
LWPOLYLINE
  5
222
100
AcDbEntity
  8
RACCORDO
100
AcDbPolyline
 62
253
  6
CONTINUOUS
 90
40
 70
0
 10
17.6425356208
 20
-18.0958006347
 10
17.7631779135
 20
-18.1626615573
 10
17.883362559
 20
-18.2236815182
 10
18.0030895573
 20
-18.2788605172
 10
18.1225990168
 20
-18.3282943217
 10
18.241650829
 20
-18.3718871645
 10
18.3595246686
 20
-18.4093517439
 10
18.4761595524
 20
-18.4406307926
 10
18.5916164636
 20
-18.465781578
 10
18.7053580264
 20
-18.4846886008
 10
18.8173870796
 20
-18.4973244004
 10
18.9277007845
 20
-18.5037164375
 10
19.0357532491
 20
-18.5038315948
 10
19.1415293341
 20
-18.4976386082
 10
19.2450441788
 20
-18.4851687418
 10
19.3457973092
 20
-18.4664826708
 10
19.4437762373
 20
-18.4415501621
 10
19.5389934511
 20
-18.4104014487
 10
19.6309859407
 20
-18.3731879049
 10
19.7197377739
 20
-18.3298800928
 10
19.805264883
 20
-18.2805074502
 10
19.8871520547
 20
-18.225309665
 10
19.9653817724
 20
-18.1642582025
 10
20.0399715527
 20
-18.0973815974
 10
20.1105587329
 20
-18.0250051413
 10
20.1771233357
 20
-17.9471029606
 10
20.2396853384
 20
-17.8637009288
 10
20.2979420097
 20
-17.7752019578
 10
20.3518739044
 20
-17.6815771854
 10
20.4015004678
 20
-17.5828554739
 10
20.4465773044
 20
-17.4795263213
 10
20.4870791552
 20
-17.3715785513
 10
20.5230312792
 20
-17.2590233402
 10
20.5542650578
 20
-17.1423837155
 10
20.580761405
 20
-17.0215784684
 10
20.6025394068
 20
-16.8966888076
 10
20.6194877035
 20
-16.7684813867
 10
20.6315691752
 20
-16.6372117569
 10
20.6388209416
 20
-16.5026243669
 10
20.6412430029
 20
-16.3647192169
  0
LINE
  5
223
100
AcDbEntity
  8
RACCORDO
100
AcDbLine
 62
7
  6
CONTINUOUS
 10
-16.8503846916
 20
1.5663517925
 11
17.7978475866
 21
-18.4391032806
  0
LINE
  5
224
100
AcDbEntity
  8
RACCORDO
100
AcDbLine
 62
253
  6
CONTINUOUS
 10
-17.0056966574
 20
1.9096544383
 11
17.6425356208
 21
-18.0958006347
  0
LWPOLYLINE
  5
225
100
AcDbEntity
  8
RACCORDO
100
AcDbPolyline
 62
7
  6
CONTINUOUS
 90
37
 70
0
 10
-16.8503846916
 20
1.5663517925
 10
-17.0048040012
 20
1.6593921775
 10
-17.1578515631
 20
1.7593352125
 10
-17.3093413093
 20
1.8659722733
 10
-17.4591945583
 20
1.9791765957
 10
-17.6071296017
 20
2.0986724778
 10
-17.7526560757
 20
2.2239766467
 10
-17.8955000272
 20
2.3547405269
 10
-18.0355904633
 20
2.4907932752
 10
-18.1727343194
 20
2.6318545185
 10
-18.306732759
 20
2.7776285256
 10
-18.4374469974
 20
2.9278786924
 10
-18.5647603281
 20
3.0823979957
 10
-18.6885048584
 20
3.2409198116
 10
-18.8085168187
 20
3.4031766036
 10
-18.9246743744
 20
3.5689555368
 10
-19.0368127248
 20
3.7379827472
 10
-19.1447768112
 20
3.9099912437
 10
-19.2484524216
 20
4.0847774927
 10
-19.3476846152
 20
4.2620709148
 10
-19.4423207949
 20
4.4415963873
 10
-19.532245879
 20
4.623146648
 10
-19.6173126949
 20
4.8064511646
 10
-19.6973744846
 20
4.991230615
 10
-19.7723150051
 20
5.1772717448
 10
-19.8419954378
 20
5.36430745
 10
-19.9062741363
 20
5.5520528563
 10
-19.9650314041
 20
5.7402805615
 10
-20.0181394242
 20
5.9287415103
 10
-20.0654578361
 20
6.1171336382
 10
-20.1068555718
 20
6.3051699755
 10
-20.142216023
 20
6.4926232451
 10
-20.1714061813
 20
6.6791760512
 10
-20.1942928994
 20
6.8644382489
 10
-20.2107677257
 20
7.048115861
 10
-20.2207299492
 20
7.2299844378
 10
-20.2240739536
 20
7.4097739208
  0
LWPOLYLINE
  5
226
100
AcDbEntity
  8
RACCORDO
100
AcDbPolyline
 62
253
  6
CONTINUOUS
 90
25
 70
0
 10
20.6412430029
 20
-16.3647192169
 10
20.6762441208
 20
-16.3836748121
 10
20.7132731227
 20
-16.4012991913
 10
20.7521784112
 20
-16.4175202
 10
20.7928007076
 20
-16.4322714291
 10
20.8349737037
 20
-16.4454924869
 10
20.8785247424
 20
-16.4571292462
 10
20.9232755254
 20
-16.4671340659
 10
20.9690428422
 20
-16.4754659862
 10
21.0156393207
 20
-16.4820908961
 10
21.0628741943
 20
-16.486981673
 10
21.1105540828
 20
-16.4901182941
 10
21.158483784
 20
-16.491487918
 10
21.206467073
 20
-16.4910849374
 10
21.2543075055
 20
-16.4889110022
 10
21.3018092221
 20
-16.4849750124
 10
21.34877775
 20
-16.4792930821
 10
21.3950207996
 20
-16.4718884732
 10
21.440349051
 20
-16.4627915002
 10
21.4845769297
 20
-16.4520394063
 10
21.5275233661
 20
-16.4396762107
 10
21.569012537
 20
-16.4257525285
 10
21.608874585
 20
-16.4103253635
 10
21.6469463144
 20
-16.3934578747
 10
21.6830718589
 20
-16.3752191179
  0
LWPOLYLINE
  5
227
100
AcDbEntity
  8
RACCORDO
100
AcDbPolyline
 62
253
  6
CONTINUOUS
 90
13
 70
0
 10
-20.0044040395
 20
7.1035679758
 10
-20.0372339783
 20
7.1237771826
 10
-20.0677583319
 20
7.1451572642
 10
-20.095852133
 20
7.1676206902
 10
-20.1214003653
 20
7.191075495
 10
-20.1442984338
 20
7.2154256544
 10
-20.1644525937
 20
7.2405714784
 10
-20.1817803334
 20
7.2664100196
 10
-20.1962107129
 20
7.2928354947
 10
-20.2076846542
 20
7.3197397174
 10
-20.2161551825
 20
7.3470125415
 10
-20.2215876196
 20
7.3745423115
 10
-20.223959725
 20
7.4022163202
  0
LWPOLYLINE
  5
228
100
AcDbEntity
  8
0
100
AcDbPolyline
 62
7
  6
CONTINUOUS
 90
41
 70
0
 10
21.8851763079
 20
3.5816234778
 10
21.9023500776
 20
3.5841475867
 10
21.9334610582
 20
3.5859115678
 10
21.9652650851
 20
3.5850199186
 10
21.9976281115
 20
3.5815155956
 10
22.0304151692
 20
3.5754526155
 10
22.063490984
 20
3.566895691
 10
22.0967205856
 20
3.5559198212
 10
22.1299699103
 20
3.542609841
 10
22.1631063934
 20
3.5270599287
 10
22.1959995477
 20
3.5093730783
 10
22.2285215275
 20
3.4896605356
 10
22.2605476735
 20
3.4680412039
 10
22.2919570387
 20
3.4446410205
 10
22.3226328902
 20
3.4195923083
 10
22.3524631874
 20
3.3930331049
 10
22.3813410338
 20
3.365106473
 10
22.4091650992
 20
3.3359597953
 10
22.4358400132
 20
3.3057440574
 10
22.461276726
 20
3.274613122
 10
22.4853928373
 20
3.242722998
 10
22.50811289
 20
3.2102311077
 10
22.5293686298
 20
3.1772955557
 10
22.5490992281
 20
3.1440744027
 10
22.5672514686
 20
3.1107249483
 10
22.5837798966
 20
3.0774030242
 10
22.5986469313
 20
3.044262303
 10
22.6118229397
 20
3.0114536247
 10
22.6232862739
 20
2.9791243437
 10
22.6330232704
 20
2.9474176996
 10
22.6410282131
 20
2.9164722138
 10
22.647303259
 20
2.8864211155
 10
22.6518583297
 20
2.8573917988
 10
22.6547109666
 20
2.8295053126
 10
22.6558861535
 20
2.8028758866
 10
22.6554161065
 20
2.777610494
 10
22.6533400322
 20
2.7538084537
 10
22.6497038569
 20
2.7315610725
 10
22.6445599272
 20
2.7109513289
 10
22.6379666843
 20
2.6920535995
 10
22.629988314
 20
2.6749334296
  0
LINE
  5
229
100
AcDbEntity
  8
0
100
AcDbLine
 62
7
  6
CONTINUOUS
 10
23.157968514
 20
3.5337523256
 11
22.2117344531
 21
3.4998356825
  0
LWPOLYLINE
  5
22A
100
AcDbEntity
  8
0
100
AcDbPolyline
 62
7
  6
CONTINUOUS
 90
36
 70
0
 10
21.8851763079
 20
3.5647978053
 10
21.9066824264
 20
3.5655167396
 10
21.938838044
 20
3.5638937418
 10
21.971521329
 20
3.5596418451
 10
22.0045948101
 20
3.5528190977
 10
22.0379208799
 20
3.543494379
 10
22.0713624215
 20
3.5317469656
 10
22.1047834256
 20
3.517666055
 10
22.1380495963
 20
3.5013502475
 10
22.171028942
 20
3.4829069911
 10
22.2035923505
 20
3.4624519919
 10
22.2356141438
 20
3.440108592
 10
22.2669726113
 20
3.4160071196
 10
22.2975505189
 20
3.3902842133
 10
22.3272355926
 20
3.3630821251
 10
22.3559209725
 20
3.334548005
 10
22.3835056386
 20
3.3048331702
 10
22.4098948031
 20
3.2740923639
 10
22.4350002709
 20
3.2424830059
 10
22.4587407649
 20
3.2101644392
 10
22.4810422156
 20
3.1772971759
 10
22.5018380141
 20
3.1440421467
 10
22.5210692278
 20
3.1105599559
 10
22.5386847773
 20
3.0770101473
 10
22.5546415758
 20
3.0435504829
 10
22.5689046284
 20
3.0103362379
 10
22.5814470935
 20
2.9775195158
 10
22.5922503051
 20
2.9452485859
 10
22.6013037564
 20
2.9136672465
 10
22.6086050458
 20
2.8829142162
 10
22.6141597851
 20
2.8531225564
 10
22.6179814719
 20
2.8244191265
 10
22.6200913257
 20
2.7969240755
 10
22.6205180901
 20
2.7707503701
 10
22.6192978022
 20
2.7460033629
 10
22.6164735293
 20
2.7227804012
  0
LWPOLYLINE
  5
22B
100
AcDbEntity
  8
0
100
AcDbPolyline
 62
7
  6
CONTINUOUS
 90
29
 70
0
 10
22.0025196512
 20
3.4812328755
 10
22.0228558268
 20
3.4771441864
 10
22.0572245427
 20
3.4675883389
 10
22.0917727077
 20
3.4553940989
 10
22.1263412827
 20
3.4406503784
 10
22.1607707197
 20
3.4234595766
 10
22.1949034416
 20
3.4039363548
 10
22.2285851237
 20
3.3822064376
 10
22.2616629284
 20
3.3584074387
 10
22.2939870831
 20
3.3326879808
 10
22.3254132126
 20
3.3052057192
 10
22.3558016362
 20
3.2761275746
 10
22.3850182568
 20
3.2456288823
 10
22.4129359228
 20
3.2138918498
 10
22.4394346195
 20
3.181105078
 10
22.4644026556
 20
3.1474618984
 10
22.4877372305
 20
3.1131591896
 10
22.5093440775
 20
3.0783976031
 10
22.529138773
 20
3.0433794139
 10
22.5470474516
 20
3.0083067167
 10
22.5630061081
 20
2.9733822666
 10
22.5769614493
 20
2.9388077129
 10
22.5888716078
 20
2.9047814102
 10
22.5987068949
 20
2.8714945437
 10
22.6064463345
 20
2.839142389
 10
22.612080572
 20
2.8079213066
 10
22.6156156138
 20
2.7780116582
 10
22.6170701613
 20
2.749578155
 10
22.6164735293
 20
2.7227804012
  0
LINE
  5
22C
100
AcDbEntity
  8
RACCORDO
100
AcDbLine
 62
253
  6
CONTINUOUS
 10
18.1543574536
 20
13.8225666765
 11
18.349642402
 21
13.9431959856
  0
LINE
  5
22D
100
AcDbEntity
  8
0
100
AcDbLine
 62
7
  6
CONTINUOUS
 10
21.8851763079
 20
3.5080021088
 11
21.888391536
 21
3.5064721195
  0
LWPOLYLINE
  5
22E
100
AcDbEntity
  8
0
100
AcDbPolyline
 62
7
  6
CONTINUOUS
 90
22
 70
0
 10
21.8851763079
 20
3.54523993
 10
21.9237468751
 20
3.5268858491
 10
21.9682634522
 20
3.5024861135
 10
22.0125594443
 20
3.475003985
 10
22.056448833
 20
3.4445711911
 10
22.0997474324
 20
3.4113327575
 10
22.142273719
 20
3.3754463553
 10
22.1838496504
 20
3.3370815898
 10
22.2243014673
 20
3.2964192362
 10
22.2634604768
 20
3.2536504251
 10
22.3011638125
 20
3.2089757809
 10
22.3372551689
 20
3.1626045174
 10
22.3715855055
 20
3.1147534952
 10
22.4040137187
 20
3.0656462442
 10
22.4344072779
 20
3.0155119563
 10
22.4626428224
 20
2.9645844518
 10
22.4886067179
 20
2.9131011266
 10
22.5121955682
 20
2.8613018813
 10
22.5333166814
 20
2.8094280407
 10
22.5518884878
 20
2.7577212655
 10
22.5678409073
 20
2.7064224637
 10
22.5811156653
 20
2.6557707046
  0
LWPOLYLINE
  5
22F
100
AcDbEntity
  8
0
100
AcDbPolyline
 62
7
  6
CONTINUOUS
 90
21
 70
0
 10
21.888391536
 20
3.5064721195
 10
21.9329081131
 20
3.4820723838
 10
21.9772041053
 20
3.4545902553
 10
22.021093494
 20
3.4241574614
 10
22.0643920933
 20
3.3909190278
 10
22.1069183799
 20
3.3550326256
 10
22.1484943114
 20
3.3166678601
 10
22.1889461283
 20
3.2760055066
 10
22.2281051377
 20
3.2332366955
 10
22.2658084734
 20
3.1885620512
 10
22.3018998298
 20
3.1421907877
 10
22.3362301664
 20
3.0943397655
 10
22.3686583797
 20
3.0452325146
 10
22.3990519388
 20
2.9950982266
 10
22.4272874834
 20
2.9441707222
 10
22.4532513789
 20
2.8926873969
 10
22.4768402291
 20
2.8408881517
 10
22.4979613423
 20
2.789014311
 10
22.5165331487
 20
2.7373075359
 10
22.5324855682
 20
2.6860087341
 10
22.5457603263
 20
2.6353569749
  0
LWPOLYLINE
  5
230
100
AcDbEntity
  8
RACCORDO
100
AcDbPolyline
 62
253
  6
CONTINUOUS
 90
25
 70
0
 10
20.6412430029
 20
7.7211539485
 10
20.6762441208
 20
7.7021983533
 10
20.7132731227
 20
7.6845739741
 10
20.7521784112
 20
7.6683529654
 10
20.7928007076
 20
7.6536017363
 10
20.8349737037
 20
7.6403806785
 10
20.8785247424
 20
7.6287439192
 10
20.9232755254
 20
7.6187390995
 10
20.9690428422
 20
7.6104071792
 10
21.0156393207
 20
7.6037822693
 10
21.0628741943
 20
7.5988914924
 10
21.1105540828
 20
7.5957548713
 10
21.158483784
 20
7.5943852474
 10
21.206467073
 20
7.594788228
 10
21.2543075055
 20
7.5969621632
 10
21.3018092221
 20
7.600898153
 10
21.34877775
 20
7.6065800833
 10
21.3950207996
 20
7.6139846922
 10
21.440349051
 20
7.6230816652
 10
21.4845769297
 20
7.6338337591
 10
21.5275233661
 20
7.6461969547
 10
21.569012537
 20
7.6601206369
 10
21.608874585
 20
7.6755478019
 10
21.6469463144
 20
7.6924152907
 10
21.6830718589
 20
7.7106540475
  0
LWPOLYLINE
  5
231
100
AcDbEntity
  8
RACCORDO
100
AcDbPolyline
 62
253
  6
CONTINUOUS
 90
14
 70
0
 10
-20.0044040395
 20
31.1894411412
 10
-20.0372339783
 20
31.209650348
 10
-20.0677583319
 20
31.2310304296
 10
-20.095852133
 20
31.2534938556
 10
-20.1214003653
 20
31.2769486604
 10
-20.1442984338
 20
31.3012988198
 10
-20.1644525937
 20
31.3264446438
 10
-20.1817803334
 20
31.352283185
 10
-20.1962107129
 20
31.3787086601
 10
-20.2076846542
 20
31.4056128828
 10
-20.2161551825
 20
31.4328857068
 10
-20.2215876196
 20
31.4604154769
 10
-20.223959725
 20
31.4880894856
 10
-20.2240739536
 20
31.4956470862
  0
LWPOLYLINE
  5
232
100
AcDbEntity
  8
0
100
AcDbPolyline
 62
7
  6
CONTINUOUS
 90
20
 70
0
 10
21.9012591689
 20
3.1731129793
 10
21.9295114809
 20
3.1514294615
 10
21.9612238477
 20
3.1246575164
 10
21.9920784446
 20
3.0961622039
 10
22.0220292847
 20
3.0660155467
 10
22.0509663806
 20
3.0343464381
 10
22.0787468663
 20
3.0013306086
 10
22.1052727163
 20
2.9671046011
 10
22.1303795663
 20
2.9319069165
 10
22.1540122706
 20
2.8958429318
 10
22.1762111224
 20
2.8588404753
 10
22.1969282544
 20
2.8209134066
 10
22.215937005
 20
2.7824058971
 10
22.2330182922
 20
2.7437462975
 10
22.2480995702
 20
2.7051180691
 10
22.2611004333
 20
2.6667481763
 10
22.2718867425
 20
2.6291261465
 10
22.2804392858
 20
2.5925314617
 10
22.2867997013
 20
2.5570435799
 10
22.2909906967
 20
2.522826958
  0
LINE
  5
233
100
AcDbEntity
  8
RACCORDO
100
AcDbLine
 62
253
  6
CONTINUOUS
 10
21.6830718589
 20
7.7106540475
 11
21.8851763079
 21
7.819471635
  0
LWPOLYLINE
  5
234
100
AcDbEntity
  8
0
100
AcDbPolyline
 62
7
  6
CONTINUOUS
 90
28
 70
0
 10
21.8851763079
 20
3.134012783
 10
21.8890200337
 20
3.130285932
 10
21.9287499729
 20
3.0883904981
 10
21.9670928598
 20
3.0445026712
 10
22.0038895069
 20
2.9988281186
 10
22.0389876955
 20
2.9515805601
 10
22.0722428619
 20
2.9029808054
 10
22.1035187487
 20
2.8532557582
 10
22.1326880192
 20
2.8026373941
 10
22.1596328312
 20
2.7513617147
 10
22.1842453681
 20
2.6996676843
 10
22.2064283245
 20
2.6477961525
 10
22.2260953455
 20
2.5959887691
 10
22.2431714152
 20
2.5444868947
 10
22.2575931951
 20
2.4935305129
 10
22.2693093096
 20
2.4433571489
 10
22.2782805774
 20
2.3942007989
 10
22.2844801882
 20
2.3462908753
 10
22.2878938234
 20
2.2998511732
 10
22.2885197209
 20
2.2550988609
 10
22.2863686827
 20
2.2122435023
 10
22.2814640267
 20
2.1714861114
 10
22.2738414809
 20
2.1330182468
 10
22.263549023
 20
2.0970211483
 10
22.250646664
 20
2.0636649199
 10
22.2352061774
 20
2.0331077634
 10
22.2173107763
 20
2.0054952652
 10
22.197054738
 20
1.9809597401
  0
LWPOLYLINE
  5
235
100
AcDbEntity
  8
0
100
AcDbPolyline
 62
7
  6
CONTINUOUS
 90
14
 70
0
 10
21.8851763079
 20
3.1887068144
 10
21.9243753728
 20
3.1506996616
 10
21.964105312
 20
3.1088042278
 10
22.0024481989
 20
3.0649164009
 10
22.039244846
 20
3.0192418482
 10
22.0743430346
 20
2.9719942898
 10
22.1075982009
 20
2.923394535
 10
22.1388740877
 20
2.8736694879
 10
22.1680433583
 20
2.8230511237
 10
22.1949881703
 20
2.7717754444
 10
22.2196007071
 20
2.720081414
 10
22.2417836636
 20
2.6682098822
 10
22.2614506846
 20
2.6164024988
 10
22.2785267543
 20
2.5649006243
  0
LINE
  5
236
100
AcDbEntity
  8
CURVE
100
AcDbLine
 62
252
  6
CONTINUOUS
 10
21.8851763079
 20
4.1257504859
 11
22.0089199946
 21
4.1971985397
  0
LWPOLYLINE
  5
237
100
AcDbEntity
  8
RACCORDO
100
AcDbPolyline
 62
253
  6
CONTINUOUS
 90
40
 70
0
 10
-17.0056966574
 20
32.9205225591
 10
-17.1263389501
 20
32.9873834817
 10
-17.2465235956
 20
33.0484034425
 10
-17.3662505939
 20
33.1035824416
 10
-17.4857600533
 20
33.1530162461
 10
-17.6048118656
 20
33.1966090888
 10
-17.7226857052
 20
33.2340736682
 10
-17.839320589
 20
33.2653527169
 10
-17.9547775002
 20
33.2905035023
 10
-18.068519063
 20
33.3094105252
 10
-18.1805481162
 20
33.3220463248
 10
-18.2908618211
 20
33.3284383618
 10
-18.3989142857
 20
33.3285535191
 10
-18.5046903707
 20
33.3223605325
 10
-18.6082052154
 20
33.3098906661
 10
-18.7089583458
 20
33.2912045951
 10
-18.8069372739
 20
33.2662720864
 10
-18.9021544877
 20
33.2351233731
 10
-18.9941469773
 20
33.1979098293
 10
-19.0828988105
 20
33.1546020171
 10
-19.1684259195
 20
33.1052293745
 10
-19.2503130913
 20
33.0500315893
 10
-19.3285428089
 20
32.9889801269
 10
-19.4031325893
 20
32.9221035218
 10
-19.4737197695
 20
32.8497270656
 10
-19.5402843723
 20
32.7718248849
 10
-19.6028463749
 20
32.6884228531
 10
-19.6611030462
 20
32.5999238821
 10
-19.715034941
 20
32.5062991098
 10
-19.7646615044
 20
32.4075773982
 10
-19.809738341
 20
32.3042482456
 10
-19.8502401918
 20
32.1963004756
 10
-19.8861923157
 20
32.0837452646
 10
-19.9174260944
 20
31.9671056399
 10
-19.9439224416
 20
31.8463003927
 10
-19.9657004434
 20
31.7214107319
 10
-19.9826487401
 20
31.593203311
 10
-19.9947302117
 20
31.4619336812
 10
-20.0019819782
 20
31.3273462913
 10
-20.0044040395
 20
31.1894411412
  0
LINE
  5
238
100
AcDbEntity
  8
RACCORDO
100
AcDbLine
 62
253
  6
CONTINUOUS
 10
17.6425356208
 20
12.915067486
 11
-17.0056966574
 21
32.9205225591
  0
LINE
  5
239
100
AcDbEntity
  8
RACCORDO
100
AcDbLine
 62
253
  6
CONTINUOUS
 10
18.1543574536
 20
13.8225666765
 11
-16.4938748246
 21
33.8280217496
  0
LINE
  5
23A
100
AcDbEntity
  8
DRAFT
100
AcDbLine
 62
7
  6
CONTINUOUS
 10
18.349642402
 20
13.9431959856
 11
-16.2985898762
 21
33.9486510587
  0
LWPOLYLINE
  5
23B
100
AcDbEntity
  8
DRAFT
100
AcDbPolyline
 62
7
  6
CONTINUOUS
 90
40
 70
0
 10
18.349642402
 20
13.9431959856
 10
18.4923415064
 20
13.8574566814
 10
18.6343784819
 20
13.7655270303
 10
18.7757533283
 20
13.6674070321
 10
18.9167206291
 20
13.5628938352
 10
19.057025801
 20
13.4521902913
 10
19.1959050936
 20
13.3359049561
 10
19.33328213
 20
13.2140750771
 10
19.4692332872
 20
13.0866634067
 10
19.6032239455
 20
12.9541667586
 10
19.73533712
 20
12.8164628684
 10
19.8654897955
 20
12.6736740005
 10
19.9928983077
 20
12.5266637621
 10
20.1174432724
 20
12.37553991
 10
20.2392440738
 20
12.2201946873
 10
20.3578751995
 20
12.0611684312
 10
20.4734314239
 20
11.8982900925
 10
20.5858179727
 20
11.7317307204
 10
20.6943250106
 20
11.562543799
 10
20.7988279356
 20
11.3908864828
 10
20.8994513498
 20
11.2166016173
 10
20.9958592232
 20
11.0402712231
 10
21.0881253532
 20
10.8617088174
 10
21.1761759424
 20
10.681100883
 10
21.2594535695
 20
10.4995888889
 10
21.3378574886
 20
10.317340437
 10
21.4114884454
 20
10.1341879254
 10
21.4800912561
 20
9.9507700175
 10
21.5436995459
 20
9.7669294501
 10
21.6022796895
 20
9.5828234864
 10
21.6554756273
 20
9.3995625796
 10
21.703222983
 20
9.2172797539
 10
21.7455861329
 20
9.0358419851
 10
21.7824021455
 20
8.8559606533
 10
21.8136650868
 20
8.6775509951
 10
21.8393808908
 20
8.500697774
 10
21.8594044279
 20
8.3263666604
 10
21.8736873215
 20
8.1548795444
 10
21.8822779482
 20
7.985914536
 10
21.8851763079
 20
7.819471635
  0
LWPOLYLINE
  5
23C
100
AcDbEntity
  8
RACCORDO
100
AcDbPolyline
 62
253
  6
CONTINUOUS
 90
14
 70
0
 10
17.6425356208
 20
-18.0958006347
 10
17.6436212103
 20
-18.1343348462
 10
17.6468735344
 20
-18.1714576864
 10
17.6522792782
 20
-18.207017174
 10
17.6598163102
 20
-18.240867728
 10
17.669453774
 20
-18.2728707635
 10
17.6811522134
 20
-18.3028952599
 10
17.6948637351
 20
-18.3308182963
 10
17.7105322037
 20
-18.3565255554
 10
17.7280934723
 20
-18.3799117913
 10
17.747475645
 20
-18.4008812605
 10
17.7685993707
 20
-18.4193481136
 10
17.7913781686
 20
-18.4352367471
 10
17.7978475866
 20
-18.4391032806
  0
LWPOLYLINE
  5
23D
100
AcDbEntity
  8
RACCORDO
100
AcDbPolyline
 62
253
  6
CONTINUOUS
 90
25
 70
0
 10
17.6425356208
 20
12.915067486
 10
17.6436212103
 20
12.954855309
 10
17.6468735344
 20
12.9957338517
 10
17.6522792782
 20
13.0375357566
 10
17.6598163102
 20
13.0800898863
 10
17.669453774
 20
13.1232220234
 10
17.6811522134
 20
13.1667555844
 10
17.6948637351
 20
13.2105123423
 10
17.7105322037
 20
13.2543131562
 10
17.7280934723
 20
13.297978705
 10
17.747475645
 20
13.3413302213
 10
17.7685993707
 20
13.3841902233
 10
17.7913781686
 20
13.4263832417
 10
17.815718782
 20
13.4677365375
 10
17.8415215601
 20
13.5080808098
 10
17.8686808659
 20
13.5472508885
 10
17.8970855089
 20
13.5850864109
 10
17.9266192
 20
13.6214324776
 10
17.9571610278
 20
13.6561402874
 10
17.9885859537
 20
13.6890677459
 10
18.0207653236
 20
13.7200800478
 10
18.0535673947
 20
13.7490502282
 10
18.0868578748
 20
13.7758596827
 10
18.1205004722
 20
13.8003986531
 10
18.1543574536
 20
13.8225666765
  0
LINE
  5
23E
100
AcDbEntity
  8
0
100
AcDbLine
 62
7
  6
CONTINUOUS
 10
22.4471377272
 20
2.1148346996
 11
22.4239852882
 21
2.0995803652
  0
LINE
  5
23F
100
AcDbEntity
  8
0
100
AcDbLine
 62
7
  6
CONTINUOUS
 10
21.8851763079
 20
1.7884788176
 11
21.8936551088
 21
1.7933743709
  0
LINE
  5
240
100
AcDbEntity
  8
0
100
AcDbLine
 62
7
  6
CONTINUOUS
 10
22.1411426781
 20
1.9362705945
 11
22.1764980172
 21
1.9566843242
  0
LINE
  5
241
100
AcDbEntity
  8
0
100
AcDbLine
 62
7
  6
CONTINUOUS
 10
22.4239852882
 20
2.0995803652
 11
22.4593406272
 21
2.1199940949
  0
LWPOLYLINE
  5
242
100
AcDbEntity
  8
0
100
AcDbPolyline
 62
7
  6
CONTINUOUS
 90
7
 70
0
 10
22.1411426781
 20
1.9362705945
 10
22.1232222788
 20
1.9269269971
 10
22.0946718851
 20
1.9157375406
 10
22.0643817004
 20
1.9080689232
 10
22.0325018649
 20
1.9039635731
 10
21.9991896835
 20
1.9034478589
 10
21.9950274426
 20
1.9038190715
  0
LWPOLYLINE
  5
243
100
AcDbEntity
  8
0
100
AcDbPolyline
 62
7
  6
CONTINUOUS
 90
6
 70
0
 10
22.4239852882
 20
2.0995803652
 10
22.3941236031
 20
2.085042633
 10
22.3648140755
 20
2.0753469288
 10
22.3338277943
 20
2.0691921055
 10
22.3013180374
 20
2.0666137691
 10
22.2775380172
 20
2.0673281839
  0
LWPOLYLINE
  5
244
100
AcDbEntity
  8
RACCORDO
100
AcDbPolyline
 62
253
  6
CONTINUOUS
 90
19
 70
0
 10
-16.4938748246
 20
33.8280217496
 10
-16.6359618153
 20
33.9067565894
 10
-16.7778183435
 20
33.9787549068
 10
-16.9192143174
 20
34.0438999199
 10
-17.0599203927
 20
34.1020859628
 10
-17.199708343
 20
34.1532186571
 10
-17.3383514305
 20
34.1972150644
 10
-17.4756247766
 20
34.2340038223
 10
-17.6113057223
 20
34.2635252588
 10
-17.7451741884
 20
34.2857314891
 10
-17.8770130373
 20
34.3005864948
 10
-18.0066084286
 20
34.3080661819
 10
-18.1337501622
 20
34.3081584187
 10
-18.2582320153
 20
34.300863055
 10
-18.379852076
 20
34.2861919237
 10
-18.4984130738
 20
34.2641688217
 10
-18.6137227016
 20
34.2348294708
 10
-18.7255939277
 20
34.1982214595
 10
-18.8338452975
 20
34.154404166
  0
LWPOLYLINE
  5
245
100
AcDbEntity
  8
0
100
AcDbPolyline
 62
7
  6
CONTINUOUS
 90
11
 70
0
 10
21.8851763079
 20
2.7091655087
 10
21.8955950287
 20
2.691625601
 10
21.9157933056
 20
2.6543040863
 10
21.9342319612
 20
2.6166547681
 10
21.9508669189
 20
2.5787706399
 10
21.9656511719
 20
2.5407248494
 10
21.9784458298
 20
2.5028362341
 10
21.9891099534
 20
2.4655629677
 10
21.9976059427
 20
2.4291764587
 10
22.0039515228
 20
2.3937701837
 10
22.0081480283
 20
2.3595171461
  0
LWPOLYLINE
  5
246
100
AcDbEntity
  8
0
100
AcDbPolyline
 62
7
  6
CONTINUOUS
 90
7
 70
0
 10
21.8851763079
 20
2.6592077137
 10
21.9009478851
 20
2.6303701847
 10
21.9265663158
 20
2.5788249764
 10
21.949795296
 20
2.5269995226
 10
21.9705437561
 20
2.4751352654
 10
21.9887318065
 20
2.4234738218
 10
22.0042910972
 20
2.3722558946
  0
LWPOLYLINE
  5
247
100
AcDbEntity
  8
0
100
AcDbPolyline
 62
7
  6
CONTINUOUS
 90
20
 70
0
 10
21.8851763079
 20
2.5705532186
 10
21.8912109768
 20
2.5584112467
 10
21.9144399569
 20
2.5065857929
 10
21.9351884171
 20
2.4547215358
 10
21.9533764675
 20
2.4030600922
 10
21.9689357581
 20
2.3518421649
 10
21.9818097867
 20
2.301306458
 10
21.9919541535
 20
2.2516886006
 10
21.9993367611
 20
2.203220085
 10
22.0039379595
 20
2.1561272237
 10
22.0057506343
 20
2.1106301289
 10
22.0047802389
 20
2.0669417209
 10
22.00104477
 20
2.0252667682
 10
21.9945746864
 20
1.9858009645
 10
21.9854127719
 20
1.9487300473
 10
21.9736139421
 20
1.9142289601
 10
21.9592449971
 20
1.8824610642
 10
21.9423843207
 20
1.8535774028
 10
21.9231215268
 20
1.8277160194
 10
21.9015570553
 20
1.8050013367
  0
LWPOLYLINE
  5
248
100
AcDbEntity
  8
0
100
AcDbPolyline
 62
7
  6
CONTINUOUS
 90
4
 70
0
 10
22.197054738
 20
1.9809597401
 10
22.1745429789
 20
1.9596196353
 10
22.1498905822
 20
1.9415789961
 10
22.1411426781
 20
1.9362705945
  0
LINE
  5
249
100
AcDbEntity
  8
0
100
AcDbLine
 62
7
  6
CONTINUOUS
 10
22.4705761433
 20
2.1347810569
 11
22.4471377272
 21
2.1148346996
  0
LINE
  5
24A
100
AcDbEntity
  8
0
100
AcDbLine
 62
7
  6
CONTINUOUS
 10
21.9015570553
 20
1.8050013367
 11
21.8851763079
 21
1.7915840411
  0
LWPOLYLINE
  5
24B
100
AcDbEntity
  8
0
100
AcDbPolyline
 62
7
  6
CONTINUOUS
 90
19
 70
0
 10
22.4855844853
 20
2.9190938555
 10
22.4780003212
 20
2.9407510628
 10
22.4621337454
 20
2.9805412626
 10
22.4444518698
 20
3.0200240915
 10
22.425041193
 20
3.0590064157
 10
22.4039966714
 20
3.0972975475
 10
22.3814212519
 20
3.1347101847
 10
22.357425369
 20
3.1710613232
 10
22.3321264071
 20
3.2061731496
 10
22.3056481223
 20
3.2398739168
 10
22.2781200385
 20
3.271998781
 10
22.2496768165
 20
3.3023906054
 10
22.2204575904
 20
3.3309007346
 10
22.1906052893
 20
3.357389718
 10
22.1602659405
 20
3.3817279907
 10
22.1295879504
 20
3.4037965112
 10
22.098721381
 20
3.4234873412
 10
22.0678172178
 20
3.4407041722
 10
22.0493387415
 20
3.449501311
  0
LINE
  5
24C
100
AcDbEntity
  8
0
100
AcDbLine
 62
7
  6
CONTINUOUS
 10
22.2785267543
 20
2.5649006243
 11
22.2929485342
 21
2.5139442425
  0
LWPOLYLINE
  5
24D
100
AcDbEntity
  8
0
100
AcDbPolyline
 62
7
  6
CONTINUOUS
 90
17
 70
0
 10
22.0042910972
 20
2.3722558946
 10
22.0171651258
 20
2.3217201877
 10
22.0273094926
 20
2.2721023302
 10
22.0346921002
 20
2.2236338147
 10
22.0392932986
 20
2.1765409534
 10
22.0411059733
 20
2.1310438586
 10
22.0401355779
 20
2.0873554506
 10
22.036400109
 20
2.0456804978
 10
22.0299300255
 20
2.0062146942
 10
22.020768111
 20
1.969143777
 10
22.0089692811
 20
1.9346426897
 10
21.9946003362
 20
1.9028747939
 10
21.9777396598
 20
1.8739911324
 10
21.9584768658
 20
1.8481297491
 10
21.9369123943
 20
1.8254150663
 10
21.9131570591
 20
1.8059573245
 10
21.8936551088
 20
1.7933743709
  0
LWPOLYLINE
  5
24E
100
AcDbEntity
  8
RACCORDO
100
AcDbPolyline
 62
253
  6
CONTINUOUS
 90
40
 70
0
 10
21.6830718589
 20
7.7106540475
 10
21.6802100655
 20
7.8763690503
 10
21.6716293271
 20
8.0451199936
 10
21.6573435611
 20
8.2166331631
 10
21.6373759389
 20
8.3906303646
 10
21.6117588474
 20
8.5668293735
 10
21.5805338378
 20
8.744944393
 10
21.5437515566
 20
8.9246865213
 10
21.5014716648
 20
9.1057642147
 10
21.4537627418
 20
9.287883759
 10
21.4007021732
 20
9.4707497517
 10
21.3423760227
 20
9.6540655873
 10
21.2788788939
 20
9.8375339322
 10
21.2103137781
 20
10.0208572029
 10
21.1367918889
 20
10.2037380455
 10
21.0584324804
 20
10.3858798236
 10
20.9753626525
 20
10.5669871009
 10
20.8877171442
 20
10.7467661223
 10
20.7956381164
 20
10.9249252871
 10
20.699274921
 20
11.101175621
 10
20.5987838598
 20
11.2752312446
 10
20.4943279302
 20
11.4468098384
 10
20.3860765604
 20
11.6156331005
 10
20.2742053343
 20
11.7814271998
 10
20.1588957066
 20
11.9439232187
 10
20.0403347091
 20
12.1028575891
 10
19.9187146488
 20
12.2579725177
 10
19.7942327958
 20
12.4090164052
 10
19.6670910621
 20
12.5557442558
 10
19.5374956704
 20
12.6979180789
 10
19.4056568213
 20
12.8353072717
 10
19.2717883554
 20
12.9676889905
 10
19.1361074102
 20
13.0948485089
 10
18.9988340646
 20
13.2165795699
 10
18.8601909781
 20
13.3326847243
 10
18.7204030289
 20
13.4429756506
 10
18.5796969538
 20
13.5472734567
 10
18.4383009785
 20
13.6454089714
 10
18.2964444478
 20
13.7372230188
 10
18.1543574536
 20
13.8225666765
  0
LWPOLYLINE
  5
24F
100
AcDbEntity
  8
RACCORDO
100
AcDbPolyline
 62
253
  6
CONTINUOUS
 90
40
 70
0
 10
20.6412430029
 20
7.7211539485
 10
20.6388211496
 20
7.8618535288
 10
20.6315695578
 20
8.004813311
 10
20.6194882275
 20
8.1500332953
 10
20.6025400323
 20
8.2978121623
 10
20.5807620987
 20
8.4478512312
 10
20.5542658056
 20
8.59925446
 10
20.5230320509
 20
8.7519624628
 10
20.4870799368
 20
8.9060346254
 10
20.4465781486
 20
9.060753063
 10
20.4015014843
 20
9.2161356047
 10
20.3518751459
 20
9.3721644213
 10
20.2979434245
 20
9.5280681408
 10
20.2396868139
 20
9.683840545
 10
20.1771248204
 20
9.8394878522
 10
20.1105602528
 20
9.9942573452
 10
20.0399731726
 20
10.148146117
 10
19.9653835183
 20
10.3011570745
 10
19.8871539155
 20
10.4525462219
 10
19.8052668362
 20
10.6023052832
 10
19.7197398085
 20
10.7504425344
 10
19.6309880412
 20
10.8962388077
 10
19.5389955812
 20
11.0396830881
 10
19.4437783817
 20
11.1807863905
 10
19.3457995116
 20
11.3188625914
 10
19.2450465525
 20
11.4538957937
 10
19.1415319227
 20
11.5859018945
 10
19.0357559456
 20
11.7142424605
 10
18.9277033486
 20
11.8389038575
 10
18.8173894042
 20
11.9598997198
 10
18.7053602536
 20
12.076632518
 10
18.5916188481
 20
12.1890713823
 10
18.4761622363
 20
12.2972471824
 10
18.3595277052
 20
12.400654998
 10
18.2416544678
 20
12.4993078887
 10
18.122603311
 20
12.5931927949
 10
18.0030938831
 20
12.6817656176
 10
17.8833660668
 20
12.7648449905
 10
17.7631799794
 20
12.84261228
 10
17.6425356208
 20
12.915067486
  0
LINE
  5
250
100
AcDbEntity
  8
RACCORDO
100
AcDbLine
 62
253
  6
CONTINUOUS
 10
20.6412430029
 20
-16.3647192169
 11
20.6412430029
 21
7.7211539485
  0
LINE
  5
251
100
AcDbEntity
  8
RACCORDO
100
AcDbLine
 62
253
  6
CONTINUOUS
 10
21.6830718589
 20
-16.3752191179
 11
21.6830718589
 21
7.7106540475
  0
LINE
  5
252
100
AcDbEntity
  8
DRAFT
100
AcDbLine
 62
7
  6
CONTINUOUS
 10
21.8851763079
 20
-16.2664015304
 11
21.8851763079
 21
7.819471635
  0
LWPOLYLINE
  5
253
100
AcDbEntity
  8
DRAFT
100
AcDbPolyline
 62
7
  6
CONTINUOUS
 90
21
 70
0
 10
21.8851763079
 20
-16.2664015304
 10
21.8822779482
 20
-16.4294974781
 10
21.8736873215
 20
-16.5885422463
 10
21.8594044279
 20
-16.7435358347
 10
21.8393808908
 20
-16.8947442696
 10
21.8136650868
 20
-17.0419015248
 10
21.7824021455
 20
-17.184209522
 10
21.7455861329
 20
-17.3215766453
 10
21.703222983
 20
-17.4540945106
 10
21.6554756273
 20
-17.5812398867
 10
21.6022796895
 20
-17.703071458
 10
21.5436995459
 20
-17.8195305401
 10
21.4800912561
 20
-17.9299178488
 10
21.4114884454
 20
-18.0341149505
 10
21.3378574886
 20
-18.1322402788
 10
21.2594535695
 20
-18.2239498503
 10
21.1761759424
 20
-18.3092949281
 10
21.0881253532
 20
-18.388224249
 10
20.9958592232
 20
-18.4602400405
 10
20.8994513498
 20
-18.525241039
 10
20.7988279356
 20
-18.5833285081
  0
LINE
  5
254
100
AcDbEntity
  8
0
100
AcDbLine
 62
7
  6
CONTINUOUS
 10
22.629988314
 20
2.6749334296
 11
22.6206943738
 21
2.6596473466
  0
LINE
  5
255
100
AcDbEntity
  8
0
100
AcDbLine
 62
7
  6
CONTINUOUS
 10
23.157968514
 20
3.5337523256
 11
22.6457041287
 21
2.7155357035
  0
LINE
  5
256
100
AcDbEntity
  8
0
100
AcDbLine
 62
7
  6
CONTINUOUS
 10
22.5997053924
 20
2.6420640125
 11
22.5879888772
 21
2.6233497552
  0
LWPOLYLINE
  5
257
100
AcDbEntity
  8
0
100
AcDbPolyline
 62
7
  6
CONTINUOUS
 90
4
 70
0
 10
22.6206943738
 20
2.6596473466
 10
22.610159399
 20
2.6462427192
 10
22.5984624912
 20
2.6347576605
 10
22.5922080735
 20
2.6300888857
  0
LWPOLYLINE
  5
258
100
AcDbEntity
  8
0
100
AcDbPolyline
 62
7
  6
CONTINUOUS
 90
17
 70
0
 10
22.2929485342
 20
2.5139442425
 10
22.3046646487
 20
2.4637708786
 10
22.3136359165
 20
2.4146145286
 10
22.3198355272
 20
2.366704605
 10
22.3232491624
 20
2.3202649028
 10
22.3238750599
 20
2.2755125906
 10
22.3217240218
 20
2.232657232
 10
22.3168193657
 20
2.1918998411
 10
22.3091968199
 20
2.1534319765
 10
22.2989043621
 20
2.1174348779
 10
22.286002003
 20
2.0840786495
 10
22.2705615165
 20
2.053521493
 10
22.2526661154
 20
2.0259089948
 10
22.232410077
 20
2.0013734698
 10
22.209898318
 20
1.980033365
 10
22.1852459213
 20
1.9619927258
 10
22.1764980172
 20
1.9566843242
  0
LWPOLYLINE
  5
259
100
AcDbEntity
  8
0
100
AcDbPolyline
 62
7
  6
CONTINUOUS
 90
14
 70
0
 10
22.5457603263
 20
2.6353569749
 10
22.5563112166
 20
2.5855884115
 10
22.5641043092
 20
2.5369352163
 10
22.5691181036
 20
2.4896245348
 10
22.5713436257
 20
2.4438774621
 10
22.5707844678
 20
2.3999080459
 10
22.5674567731
 20
2.3579223221
 10
22.5613891622
 20
2.3181173861
 10
22.5526226049
 20
2.2806805047
 10
22.5412102349
 20
2.2457882716
 10
22.5272171106
 20
2.2136058122
 10
22.5107199219
 20
2.1842860387
 10
22.4918066444
 20
2.1579689612
 10
22.4705761433
 20
2.1347810569
  0
LWPOLYLINE
  5
25A
100
AcDbEntity
  8
0
100
AcDbPolyline
 62
7
  6
CONTINUOUS
 90
16
 70
0
 10
22.5811156653
 20
2.6557707046
 10
22.5916665556
 20
2.6060021412
 10
22.5994596483
 20
2.5573489459
 10
22.6044734427
 20
2.5100382645
 10
22.6066989648
 20
2.4642911918
 10
22.6061398069
 20
2.4203217756
 10
22.6028121121
 20
2.3783360517
 10
22.5967445013
 20
2.3385311158
 10
22.587977944
 20
2.3010942343
 10
22.576565574
 20
2.2662020013
 10
22.5625724497
 20
2.2340195419
 10
22.5460752609
 20
2.2046997683
 10
22.5271619835
 20
2.1783826909
 10
22.5059314824
 20
2.1551947866
 10
22.4824930663
 20
2.1352484293
 10
22.4593406272
 20
2.1199940949
  0
LWPOLYLINE
  5
25B
100
AcDbEntity
  8
0
100
AcDbPolyline
 62
7
  6
CONTINUOUS
 90
3
 70
0
 10
22.6164735293
 20
2.7227804012
 10
22.6163136236
 20
2.7045817518
 10
22.6148137944
 20
2.6879075794
  0
LWPOLYLINE
  5
25C
100
AcDbEntity
  8
0
100
AcDbPolyline
 62
7
  6
CONTINUOUS
 90
5
 70
0
 10
22.6148137944
 20
2.6879075794
 10
22.6120297254
 20
2.6728144979
 10
22.6080222394
 20
2.6593539817
 10
22.6028547649
 20
2.6475644267
 10
22.5997053924
 20
2.6420640125
  0
LWPOLYLINE
  5
25D
100
AcDbEntity
  8
RACCORDO
100
AcDbPolyline
 62
253
  6
CONTINUOUS
 90
19
 70
0
 10
20.7956381132
 20
-18.5647041182
 10
20.8877171412
 20
-18.492875507
 10
20.9753626497
 20
-18.4143073217
 10
21.0584324778
 20
-18.3291269996
 10
21.1367918863
 20
-18.2374727028
 10
21.2103137755
 20
-18.1394930953
 10
21.2788788915
 20
-18.035347102
 10
21.3423760206
 20
-17.9252036498
 10
21.4007021715
 20
-17.8092413906
 10
21.4537627403
 20
-17.6876484124
 10
21.5014716634
 20
-17.5606219369
 10
21.5437515553
 20
-17.4283680033
 10
21.5805338366
 20
-17.2911011321
 10
21.6117588462
 20
-17.1490439721
 10
21.6373759377
 20
-17.0024269395
 10
21.6573435603
 20
-16.851487848
 10
21.6716293266
 20
-16.6964715216
 10
21.6802100654
 20
-16.5376293973
 10
21.6830718589
 20
-16.3752191179
  0
LINE
  5
25E
100
AcDbEntity
  8
RACCORDO
100
AcDbLine
 62
253
  6
CONTINUOUS
 10
20.6992749176
 20
-18.6296766493
 11
20.7956381132
 21
-18.5647041182
  0
LINE
  5
25F
100
AcDbEntity
  8
RACCORDO
100
AcDbLine
 62
253
  6
CONTINUOUS
 10
21.6830718589
 20
-16.3752191179
 11
21.8851763079
 21
-16.2664015304
  0
LWPOLYLINE
  5
260
100
AcDbEntity
  8
RACCORDO
100
AcDbPolyline
 62
253
  6
CONTINUOUS
 90
3
 70
0
 10
20.5872883777
 20
-18.6937422627
 10
20.5987838563
 20
-18.6876877141
 10
20.6992749176
 20
-18.6296766493
  0
LINE
  5
261
100
AcDbEntity
  8
DRAFT
100
AcDbLine
 62
7
  6
CONTINUOUS
 10
20.5872883777
 20
-18.6937422627
 11
20.7988279356
 21
-18.5833285081
  0
LWPOLYLINE
  5
262
100
AcDbEntity
  8
RACCORDO
100
AcDbPolyline
 62
7
  6
CONTINUOUS
 90
22
 70
0
 10
20.5872883777
 20
-18.6937422627
 10
20.4809655593
 20
-18.7455750342
 10
20.3711178571
 20
-18.7918967559
 10
20.2579036443
 20
-18.8325261963
 10
20.1416147387
 20
-18.8672616615
 10
20.0223061184
 20
-18.8959957208
 10
19.8997578379
 20
-18.9186520575
 10
19.774014589
 20
-18.9350566569
 10
19.6453365392
 20
-18.9450138775
 10
19.5137800784
 20
-18.948361897
 10
19.3793731553
 20
-18.9449281559
 10
19.2423736997
 20
-18.9345482649
 10
19.1031568443
 20
-18.9171057103
 10
18.9617174448
 20
-18.8924602154
 10
18.8183366231
 20
-18.8605186282
 10
18.673813556
 20
-18.8213716982
 10
18.5282902518
 20
-18.7750137307
 10
18.3819049858
 20
-18.7214391829
 10
18.2354594118
 20
-18.6609326101
 10
18.0893180674
 20
-18.5936915712
 10
17.9434012821
 20
-18.5197193946
 10
17.7978475866
 20
-18.4391032806
  0
ENDSEC
  0
SECTION
  2
OBJECTS
  0
DICTIONARY
  5
C
100
AcDbDictionary
280
0
281
1
  3
ACAD_GROUP
350
D
  3
ACAD_MLINESTYLE
350
17
  3
ACAD_LAYOUT
350
1A
  3
ACAD_PLOTSETTINGS
350
19
  3
ACAD_PLOTSTYLENAME
350
E
  0
DICTIONARY
  5
D
102
{ACAD_REACTORS
330
C
102
}
100
AcDbDictionary
280
0
281
1
  0
ACDBDICTIONARYWDFLT
  5
E
102
{ACAD_REACTORS
330
C
102
}
100
AcDbDictionary
281
1
  3
Normal
350
F
100
AcDbDictionaryWithDefault
340
F
  0
DICTIONARY
  5
17
102
{ACAD_REACTORS
330
C
102
}
100
AcDbDictionary
280
0
281
1
  3
Standard
350
18
  0
DICTIONARY
  5
19
102
{ACAD_REACTORS
330
C
102
}
100
AcDbDictionary
281
1
  0
DICTIONARY
  5
1A
102
{ACAD_REACTORS
330
C
102
}
100
AcDbDictionary
281
1
  3
Model
350
263
  3
Layout1
350
264
  0
ACDBPLACEHOLDER
  5
F
102
{ACAD_REACTORS
330
E
102
}
  0
MLINESTYLE
  5
18
102
{ACAD_REACTORS
330
17
102
}
100
AcDbMlineStyle
  2
STANDARD
 70
0
  3

 62
256
 51
90.0
 52
90.0
 71
2
 49
0.5
 62
256
  6
BYLAYER
 49
-0.5
 62
256
  6
BYLAYER
  0
LAYOUT
  5
263
102
{ACAD_REACTORS
330
1A
102
}
100
AcDbPlotSettings
  1

  2
none_device
  4
ISO_A4_(297.00_x_210.00_MM)
  6

 40
0.0
 41
0.0
 42
0.0
 43
0.0
 44
297.0
 45
210.0
 46
0.0
 47
0.0
 48
0.0
 49
0.0
140
0.0
141
0.0
142
1.0
143
1.0
 70
1024
 72
1
 73
0
 74
0
  7

 75
0
147
1.0
148
0.0
149
0.0
100
AcDbLayout
  1
Model
 70
0
 71
0
 10
0.0
 20
0.0
 11
297.0
 21
210.0
 12
0.0
 22
0.0
 32
0.0
 14
0.0
 24
0.0
 34
0.0
 15
0.0
 25
0.0
 35
0.0
146
0.0
 13
0.0
 23
0.0
 33
0.0
 16
1.0
 26
0.0
 36
0.0
 17
0.0
 27
1.0
 37
0.0
 76
0
330
216
345
0
346
0
  0
LAYOUT
  5
264
102
{ACAD_REACTORS
330
1A
102
}
100
AcDbPlotSettings
  1

  2
none_device
  4
ISO_A4_(297.00_x_210.00_MM)
  6

 40
0.0
 41
0.0
 42
0.0
 43
0.0
 44
297.0
 45
210.0
 46
0.0
 47
0.0
 48
0.0
 49
0.0
140
0.0
141
0.0
142
1.0
143
1.0
 70
0
 72
1
 73
0
 74
0
  7

 75
0
147
1.0
148
0.0
149
0.0
100
AcDbLayout
  1
Layout1
 70
0
 71
1
 10
0.0
 20
0.0
 11
297.0
 21
210.0
 12
0.0
 22
0.0
 32
0.0
 14
0.0
 24
0.0
 34
0.0
 15
0.0
 25
0.0
 35
0.0
146
0.0
 13
0.0
 23
0.0
 33
0.0
 16
1.0
 26
0.0
 36
0.0
 17
0.0
 27
1.0
 37
0.0
 76
0
330
217
345
0
346
0
  0
ENDSEC
  0
EOF
