  0
SECTION
  2
HEADER
  9
$ACADVER
  1
AC1021
  9
$DWGCODEPAGE
  3
ANSI_1252
  9
$EXTMAX
 10
558.8
 20
431.8
 30
0.0
  9
$EXTMIN
 10
0.0
 20
0.0
 30
0.0
  9
$LIMMIN
 10
0.0
 20
0.0
  9
$LIMMAX
 10
558.8
 20
431.8
  9
$VIEWCTR
 10
279.4
 20
215.9
  9
$VIEWSIZE
 40
431.8
  9
$CLAYER
  8
0
  9
$LTSCALE
 40
30.734
  9
$CELTYPE
  6
BYLAYER
  9
$DIMSCALE
 40
1.0
  9
$DIMASZ
 40
3.0
  9
$DIMEXO
 40
0.5
  9
$DIMDLI
 40
21.2344
  9
$DIMEXE
 40
1.5
  9
$DIMCEN
 40
5.0292
  9
$DIMLFAC
 40
1.0
  9
$DIMBLK
  1
_FILLED
  9
$DIMALT
 70
0
  9
$DIMALTF
 40
25.4
  9
$DIMTXT
 40
3.0
  9
$DIMTOL
 70
1
  9
$DIMLIM
 70
0
  9
$DIMTFAC
 40
1.0
  9
$DIMTP
 40
0.01
  9
$DIMTM
 40
0.01
  9
$DIMGAP
 40
0.625
  9
$DIMDSEP
 70
44
  9
$AUNITS
 70
0
  9
$PDMODE
 70
3
  9
$PDSIZE
 40
3.0
  9
$HANDSEED
  5
379
  9
$TILEMODE
 70
1
  9
$MEASUREMENT
 70
1
  9
$INSUNITS
 70
4
  0
ENDSEC
  0
SECTION
  2
CLASSES
  0
CLASS
  1
ACDBDICTIONARYWDFLT
  2
AcDbDictionaryWithDefault
  3
AutoCAD 2000
 90
0
 91
1
280
0
281
0
  0
CLASS
  1
ACDBPLACEHOLDER
  2
AcDbPlaceHolder
  3
AutoCAD 2000
 90
0
 91
1
280
0
281
0
  0
CLASS
  1
LAYOUT
  2
AcDbLayout
  3
AutoCAD 2000
 90
0
 91
0
280
0
281
0
  0
ENDSEC
  0
SECTION
  2
TABLES
  0
TABLE
  2
VPORT
  5
8
100
AcDbSymbolTable
 70
2
  0
VPORT
  5
1F4
100
AcDbSymbolTableRecord
100
AcDbViewportTableRecord
  2
*ACTIVE
 70
0
 10
0.0
 20
0.0
 11
1.0
 21
1.0
 12
279.4
 22
215.9
 13
0.0
 23
0.0
 14
1.0
 24
1.0
 15
0.0
 25
0.0
 16
0.0
 26
0.0
 36
1.0
 17
0.0
 27
0.0
 37
0.0
 40
431.8
 41
1.2941176471
 42
50.0
 43
0.0
 44
0.0
 50
0.0
 51
0.0
 71
0
 72
100
 73
1
 74
1
 75
0
 76
0
 77
0
 78
0
  0
ENDTAB
  0
TABLE
  2
LTYPE
  5
5
100
AcDbSymbolTable
 70
6
  0
LTYPE
  5
14
100
AcDbSymbolTableRecord
100
AcDbLinetypeTableRecord
  2
BYBLOCK
 70
0
  3

 72
65
 73
0
 40
0.0
  0
LTYPE
  5
15
100
AcDbSymbolTableRecord
100
AcDbLinetypeTableRecord
  2
BYLAYER
 70
0
  3

 72
65
 73
0
 40
0.0
  0
LTYPE
  5
16
100
AcDbSymbolTableRecord
100
AcDbLinetypeTableRecord
  2
CONTINUOUS
 70
64
  3
Solid line
 72
65
 73
0
 40
0.0
  0
LTYPE
  5
1F5
100
AcDbSymbolTableRecord
100
AcDbLinetypeTableRecord
  2
CENTER
 70
64
  3
____ _ ____ _ ____ _ ____ _ ____ _ ____ _ ____
 72
65
 73
4
 40
0.6
 49
0.375
 74
0
 49
-0.075
 74
0
 49
0.075
 74
0
 49
-0.075
 74
0
  0
LTYPE
  5
1F6
100
AcDbSymbolTableRecord
100
AcDbLinetypeTableRecord
  2
HIDDEN
 70
64
  3
- - - - - - - - - - - - - - - - - - - -
 72
65
 73
2
 40
0.2
 49
0.1
 74
0
 49
-0.1
 74
0
  0
LTYPE
  5
1F7
100
AcDbSymbolTableRecord
100
AcDbLinetypeTableRecord
  2
PHANTOM
 70
64
  3
_____ _ _ _____ _ _ _____ _ _ _____
 72
65
 73
6
 40
0.8
 49
0.45
 74
0
 49
-0.05
 74
0
 49
0.1
 74
0
 49
-0.05
 74
0
 49
0.1
 74
0
 49
-0.05
 74
0
  0
LTYPE
  5
1F8
100
AcDbSymbolTableRecord
100
AcDbLinetypeTableRecord
  2
DOT
 70
64
  3
. . . . . . . . . . . . . . . . . . . .
 72
65
 73
2
 40
0.2
 49
0.1
 74
0
 49
-0.1
 74
0
  0
LTYPE
  5
1F9
100
AcDbSymbolTableRecord
100
AcDbLinetypeTableRecord
  2
DASHED
 70
64
  3
- - - - - - - - - - - - - - - - - - - -
 72
65
 73
2
 40
0.2
 49
0.1
 74
0
 49
-0.1
 74
0
  0
ENDTAB
  0
TABLE
  2
LAYER
  5
2
100
AcDbSymbolTable
 70
36
  0
LAYER
  5
10
100
AcDbSymbolTableRecord
100
AcDbLayerTableRecord
  2
0
 70
0
 62
7
  6
CONTINUOUS
370
-3
390
F
  0
LAYER
  5
1FA
100
AcDbSymbolTableRecord
100
AcDbLayerTableRecord
  2
DEFAULT_1
 70
0
 62
7
  6
CENTER
370
-3
390
F
  0
LAYER
  5
1FB
100
AcDbSymbolTableRecord
100
AcDbLayerTableRecord
  2
DEFAULT_2
 70
0
 62
7
  6
HIDDEN
370
-3
390
F
  0
LAYER
  5
1FC
100
AcDbSymbolTableRecord
100
AcDbLayerTableRecord
  2
DEFAULT_3
 70
0
 62
7
  6
PHANTOM
370
-3
390
F
  0
LAYER
  5
1FD
100
AcDbSymbolTableRecord
100
AcDbLayerTableRecord
  2
ASSI
 70
0
 62
7
  6
CONTINUOUS
370
-3
390
F
  0
LAYER
  5
1FE
100
AcDbSymbolTableRecord
100
AcDbLayerTableRecord
  2
COORDINATE
 70
0
 62
7
  6
CONTINUOUS
370
-3
390
F
  0
LAYER
  5
1FF
100
AcDbSymbolTableRecord
100
AcDbLayerTableRecord
  2
COPY_PUBLISH
 70
0
 62
7
  6
CONTINUOUS
370
-3
390
F
  0
LAYER
  5
200
100
AcDbSymbolTableRecord
100
AcDbLayerTableRecord
  2
COSMETIC
 70
0
 62
7
  6
CONTINUOUS
370
-3
390
F
  0
LAYER
  5
201
100
AcDbSymbolTableRecord
100
AcDbLayerTableRecord
  2
COSMETICI
 70
0
 62
7
  6
CONTINUOUS
370
-3
390
F
  0
LAYER
  5
202
100
AcDbSymbolTableRecord
100
AcDbLayerTableRecord
  2
CURVE
 70
0
 62
7
  6
CONTINUOUS
370
-3
390
F
  0
LAYER
  5
203
100
AcDbSymbolTableRecord
100
AcDbLayerTableRecord
  2
DRAFT
 70
0
 62
7
  6
CONTINUOUS
370
-3
390
F
  0
LAYER
  5
204
100
AcDbSymbolTableRecord
100
AcDbLayerTableRecord
  2
IMPORT_IGES
 70
0
 62
7
  6
CONTINUOUS
370
-3
390
F
  0
LAYER
  5
205
100
AcDbSymbolTableRecord
100
AcDbLayerTableRecord
  2
INTF_1
 70
0
 62
7
  6
CONTINUOUS
370
-3
390
F
  0
LAYER
  5
206
100
AcDbSymbolTableRecord
100
AcDbLayerTableRecord
  2
NOTE
 70
0
 62
7
  6
CONTINUOUS
370
-3
390
F
  0
LAYER
  5
207
100
AcDbSymbolTableRecord
100
AcDbLayerTableRecord
  2
PIANI
 70
0
 62
7
  6
CONTINUOUS
370
-3
390
F
  0
LAYER
  5
208
100
AcDbSymbolTableRecord
100
AcDbLayerTableRecord
  2
PUNTI
 70
0
 62
7
  6
CONTINUOUS
370
-3
390
F
  0
LAYER
  5
209
100
AcDbSymbolTableRecord
100
AcDbLayerTableRecord
  2
RACCORDO
 70
0
 62
7
  6
CONTINUOUS
370
-3
390
F
  0
LAYER
  5
20A
100
AcDbSymbolTableRecord
100
AcDbLayerTableRecord
  2
RGB____0____0____0__
 70
0
 62
7
  6
CONTINUOUS
370
-3
390
F
  0
LAYER
  5
20B
100
AcDbSymbolTableRecord
100
AcDbLayerTableRecord
  2
SIMBOLI
 70
0
 62
7
  6
CONTINUOUS
370
-3
390
F
  0
LAYER
  5
20C
100
AcDbSymbolTableRecord
100
AcDbLayerTableRecord
  2
SMUSSO
 70
0
 62
7
  6
CONTINUOUS
370
-3
390
F
  0
LAYER
  5
20D
100
AcDbSymbolTableRecord
100
AcDbLayerTableRecord
  2
SNAPLINE
 70
0
 62
7
  6
CONTINUOUS
370
-3
390
F
  0
LAYER
  5
20E
100
AcDbSymbolTableRecord
100
AcDbLayerTableRecord
  2
SUPERFICI
 70
0
 62
7
  6
CONTINUOUS
370
-3
390
F
  0
LAYER
  5
20F
100
AcDbSymbolTableRecord
100
AcDbLayerTableRecord
  2
TRASH
 70
0
 62
7
  6
CONTINUOUS
370
-3
390
F
  0
ENDTAB
  0
TABLE
  2
STYLE
  5
3
100
AcDbSymbolTable
 70
1
  0
STYLE
  5
11
100
AcDbSymbolTableRecord
100
AcDbTextStyleTableRecord
  2
STANDARD
 70
0
 40
0.0
 41
0.8
 50
0.0
 71
0
 42
0.2
  3
txt
  4

  0
STYLE
  5
210
100
AcDbSymbolTableRecord
100
AcDbTextStyleTableRecord
  2
TEXTSTYLE_1
 70
0
 40
0.0
 41
0.8
 50
0.0
 71
0
 42
0.2
  3
gdt
  4

  0
ENDTAB
  0
TABLE
  2
VIEW
  5
6
100
AcDbSymbolTable
 70
0
  0
ENDTAB
  0
TABLE
  2
UCS
  5
7
100
AcDbSymbolTable
 70
0
  0
ENDTAB
  0
TABLE
  2
APPID
  5
9
100
AcDbSymbolTable
 70
1
  0
APPID
  5
211
100
AcDbSymbolTableRecord
100
AcDbRegAppTableRecord
  2
ACAD
 70
0
  0
ENDTAB
  0
TABLE
  2
BLOCK_RECORD
  5
1
100
AcDbSymbolTable
 70
0
  0
BLOCK_RECORD
  5
212
100
AcDbSymbolTableRecord
100
AcDbBlockTableRecord
  2
*Model_Space
  0
BLOCK_RECORD
  5
213
100
AcDbSymbolTableRecord
100
AcDbBlockTableRecord
  2
*Paper_Space
  0
ENDTAB
  0
TABLE
  2
DIMSTYLE
  5
A
100
AcDbSymbolTable
 70
1
100
AcDbDimStyleTable
 71
0
  0
DIMSTYLE
105
214
100
AcDbSymbolTableRecord
100
AcDbDimStyleTableRecord
  2
STANDARD
 70
0
  3

  4

 40
1.0
 41
3.0
 42
0.5
 43
0.38
 44
1.5
 45
0.0
 46
0.0
 47
0.01
 48
0.01
140
3.0
141
0.09
142
0.0
143
25.4
144
1.0
145
0.0
146
1.0
147
0.625
 71
1.0
 72
0.0
 73
0
 74
0
 75
0
 76
0
 77
1
 78
8
170
0
171
1
172
0
173
0
174
0
175
0
176
0
177
0
178
0
270
2
271
2
272
2
273
2
274
2
275
0
280
0
281
0
282
0
283
1
284
8
285
0
286
0
287
3
288
0
340
11
278
44
  0
ENDTAB
  0
ENDSEC
  0
SECTION
  2
BLOCKS
  0
BLOCK
  5
20
100
AcDbEntity
  8
0
100
AcDbBlockBegin
  2
*Model_Space
 70
0
 10
0.0
 20
0.0
 30
0.0
  3
*Model_Space
  1

  0
ENDBLK
  5
21
100
AcDbEntity
  8
0
100
AcDbBlockEnd
  0
BLOCK
  5
1C
100
AcDbEntity
  8
0
100
AcDbBlockBegin
  2
*Paper_Space
 70
0
 10
0.0
 20
0.0
 30
0.0
  3
*Paper_Space
  1

  0
ENDBLK
  5
1D
100
AcDbEntity
  8
0
100
AcDbBlockEnd
  0
ENDSEC
  0
SECTION
  2
ENTITIES
  0
LWPOLYLINE
  5
215
100
AcDbEntity
  8
RACCORDO
100
AcDbPolyline
 62
7
  6
CONTINUOUS
 90
28
 70
0
 10
-76.3044578631
 20
113.9783395527
 10
-76.4752261246
 20
113.8748066953
 10
-76.642085826
 20
113.7636023794
 10
-76.8047741939
 20
113.6447993602
 10
-76.9628969127
 20
113.5185995615
 10
-77.1163520206
 20
113.3850011169
 10
-77.265289955
 20
113.2437310941
 10
-77.4094665252
 20
113.0948276417
 10
-77.5485916129
 20
112.9383940022
 10
-77.6826920228
 20
112.7741609316
 10
-77.8115341252
 20
112.6021159202
 10
-77.9347989135
 20
112.4223745571
 10
-78.0523537907
 20
112.2347873651
 10
-78.1639873502
 20
112.0392873499
 10
-78.2693685621
 20
111.8360242418
 10
-78.3682006221
 20
111.6251394736
 10
-78.460290428
 20
111.4065765207
 10
-78.5453560665
 20
111.1804915993
 10
-78.6230405199
 20
110.9473563492
 10
-78.6932098751
 20
110.7070844119
 10
-78.7556333051
 20
110.4599064684
 10
-78.8099524858
 20
110.2068349631
 10
-78.8560945286
 20
109.947942855
 10
-78.8939662446
 20
109.683402858
 10
-78.9233783079
 20
109.4144844851
 10
-78.9443295499
 20
109.1417548348
 10
-78.9568877624
 20
108.8650111277
 10
-78.9610705112
 20
108.5844217546
  0
LINE
  5
216
100
AcDbEntity
  8
ASSI
100
AcDbLine
 62
7
  6
CONTINUOUS
 10
-74.5366909101
 20
114.999026036
 11
-76.3044578631
 21
113.9783395527
  0
LINE
  5
217
100
AcDbEntity
  8
RACCORDO
100
AcDbLine
 62
250
  6
CONTINUOUS
 10
-69.5364493087
 20
114.5036142592
 11
-71.3042162617
 21
113.4829277759
  0
LWPOLYLINE
  5
218
100
AcDbEntity
  8
0
100
AcDbPolyline
 62
7
  6
CONTINUOUS
 90
19
 70
0
 10
-67.1474275972
 20
94.852249544
 10
-67.1642818584
 20
94.8422904611
 10
-67.2302909589
 20
94.7987934287
 10
-67.2928941539
 20
94.7501304011
 10
-67.3520702948
 20
94.696269301
 10
-67.40784053
 20
94.6372422057
 10
-67.459859277
 20
94.5734148794
 10
-67.5081032413
 20
94.5047575156
 10
-67.5525957173
 20
94.4312999206
 10
-67.5930610054
 20
94.3534972778
 10
-67.6294740994
 20
94.2713226071
 10
-67.6618600055
 20
94.1848028884
 10
-67.690018043
 20
94.0944742451
 10
-67.7139219596
 20
94.0003130261
 10
-67.7335980076
 20
93.9023428824
 10
-67.7489242636
 20
93.8011708904
 10
-67.7598600864
 20
93.6969994087
 10
-67.7664461171
 20
93.5896260786
 10
-67.7686823558
 20
93.4790509001
  0
LWPOLYLINE
  5
219
100
AcDbEntity
  8
0
100
AcDbPolyline
 62
7
  6
CONTINUOUS
 90
19
 70
0
 10
-64.1472964272
 20
89.6562046963
 10
-64.1304421661
 20
89.6661637792
 10
-64.0644330655
 20
89.7096608116
 10
-64.0018298705
 20
89.7583238391
 10
-63.9426537297
 20
89.8121849393
 10
-63.8868834944
 20
89.8712120345
 10
-63.8348647474
 20
89.9350393609
 10
-63.7866207831
 20
90.0036967247
 10
-63.7421283071
 20
90.0771543196
 10
-63.701663019
 20
90.1549569625
 10
-63.665249925
 20
90.2371316332
 10
-63.6328640189
 20
90.3236513519
 10
-63.6047059814
 20
90.4139799952
 10
-63.5808020648
 20
90.5081412142
 10
-63.5611260168
 20
90.6061113578
 10
-63.5457997608
 20
90.7072833499
 10
-63.534863938
 20
90.8114548316
 10
-63.5282779073
 20
90.9188281617
 10
-63.5260416687
 20
91.0294033401
  0
LWPOLYLINE
  5
21A
100
AcDbEntity
  8
0
100
AcDbPolyline
 62
7
  6
CONTINUOUS
 90
9
 70
0
 10
-66.4205061959
 20
94.980977538
 10
-66.4499299456
 20
94.9068772153
 10
-66.4806724486
 20
94.8135825156
 10
-66.5068041342
 20
94.7160623373
 10
-66.5282658056
 20
94.614537595
 10
-66.5450088454
 20
94.5092382749
 10
-66.556995325
 20
94.4004029138
 10
-66.5641980913
 20
94.2882780588
 10
-66.5666008278
 20
94.1731177088
  0
LWPOLYLINE
  5
21B
100
AcDbEntity
  8
RACCORDO
100
AcDbPolyline
 62
250
  6
CONTINUOUS
 90
18
 70
0
 10
-72.7184298241
 20
-31.8488604031
 10
-72.7168279998
 20
-31.9256339698
 10
-72.7120261556
 20
-32.0003838731
 10
-72.7040351691
 20
-32.0729407805
 10
-72.6928731427
 20
-32.1431403272
 10
-72.6785653617
 20
-32.2108234888
 10
-72.661144238
 20
-32.2758369409
 10
-72.640649236
 20
-32.3380334074
 10
-72.6171267835
 20
-32.3972719931
 10
-72.5906301663
 20
-32.4534185037
 10
-72.5612194079
 20
-32.5063457491
 10
-72.5289611331
 20
-32.5559338323
 10
-72.4939284172
 20
-32.6020704202
 10
-72.4562006207
 20
-32.6446509985
 10
-72.415863209
 20
-32.6835791088
 10
-72.3730075595
 20
-32.7187665661
 10
-72.327730754
 20
-32.7501336596
 10
-72.304264582
 20
-32.7643341254
  0
LWPOLYLINE
  5
21C
100
AcDbEntity
  8
RACCORDO
100
AcDbPolyline
 62
7
  6
CONTINUOUS
 90
43
 70
0
 10
-78.9610705112
 20
-21.2343522554
 10
-78.9561476777
 20
-21.5430652861
 10
-78.9414582957
 20
-21.8547547044
 10
-78.9171194873
 20
-22.1691308562
 10
-78.883214472
 20
-22.4861676873
 10
-78.8398694452
 20
-22.8053400015
 10
-78.7873339457
 20
-23.1255726635
 10
-78.7258186263
 20
-23.4463914298
 10
-78.6554728457
 20
-23.7676555137
 10
-78.5765548921
 20
-24.0887285643
 10
-78.4893168348
 20
-24.4091145373
 10
-78.3939145547
 20
-24.7286865371
 10
-78.2904816282
 20
-25.0473267492
 10
-78.1791900506
 20
-25.3647583962
 10
-78.0602351445
 20
-25.6806387931
 10
-77.9337746491
 20
-25.9947274341
 10
-77.7999885433
 20
-26.3067212271
 10
-77.6590633745
 20
-26.6163061306
 10
-77.511167611
 20
-26.923210529
 10
-77.3565059834
 20
-27.2270908988
 10
-77.1952474997
 20
-27.527681059
 10
-77.0275013635
 20
-27.8248157906
 10
-76.8534475455
 20
-28.118192089
 10
-76.6732704051
 20
-28.407504353
 10
-76.4870714269
 20
-28.6925758295
 10
-76.2950079397
 20
-28.9731316551
 10
-76.0972807408
 20
-29.2488361788
 10
-75.8940449514
 20
-29.5194222792
 10
-75.6854789332
 20
-29.7845910443
 10
-75.4717675469
 20
-30.044038217
 10
-75.2530639287
 20
-30.2974986923
 10
-75.0295560467
 20
-30.5446657499
 10
-74.8014186244
 20
-30.7852493292
 10
-74.5687639093
 20
-31.0190204474
 10
-74.3317078399
 20
-31.2457341746
 10
-74.0904851332
 20
-31.4650288438
 10
-73.8453622297
 20
-31.6765264707
 10
-73.5964745803
 20
-31.8799682347
 10
-73.3440363703
 20
-32.0750269353
 10
-73.0884078811
 20
-32.2612765044
 10
-72.8298159309
 20
-32.4384085687
 10
-72.5683742444
 20
-32.6061900861
 10
-72.304264582
 20
-32.7643341254
  0
LWPOLYLINE
  5
21D
100
AcDbEntity
  8
RACCORDO
100
AcDbPolyline
 62
250
  6
CONTINUOUS
 90
49
 70
0
 10
-78.3752840736
 20
-22.0509014421
 10
-78.3722317129
 20
-22.2667074141
 10
-78.3631551769
 20
-22.4853194069
 10
-78.3480544657
 20
-22.7067374204
 10
-78.32690068
 20
-22.9312077734
 10
-78.299722719
 20
-23.1584841471
 10
-78.266607281
 20
-23.3878275853
 10
-78.2275350116
 20
-23.6192425238
 10
-78.1825252652
 20
-23.8527245268
 10
-78.1317228021
 20
-24.0875213307
 10
-78.0751092351
 20
-24.3236355812
 10
-78.0127029514
 20
-24.5610646326
 10
-77.9447038744
 20
-24.7990482846
 10
-77.8710941062
 20
-25.0375884726
 10
-77.7918915445
 20
-25.2766832612
 10
-77.7073498057
 20
-25.5155666438
 10
-77.6174515032
 20
-25.7542385638
 10
-77.5222140235
 20
-25.9926990778
 10
-77.4219431424
 20
-26.2301823491
 10
-77.3166227274
 20
-26.4666850175
 10
-77.2062689111
 20
-26.7022104433
 10
-77.091235867
 20
-26.9360028704
 10
-76.9715087226
 20
-27.1680564375
 10
-76.8471023504
 20
-27.398377006
 10
-76.7184155415
 20
-27.6262264039
 10
-76.5854345982
 20
-27.8515966997
 10
-76.4481732182
 20
-28.074495825
 10
-76.3070712847
 20
-28.2942094026
 10
-76.16211632
 20
-28.5107274481
 10
-76.0133208019
 20
-28.7240599459
 10
-75.8611620461
 20
-28.9335224724
 10
-75.7056290437
 20
-29.1391027959
 10
-75.5467328037
 20
-29.3408131481
 10
-75.384983669
 20
-29.5380057994
 10
-75.2203728834
 20
-29.7306657312
 10
-75.0529092031
 20
-29.9188079622
 10
-74.8831292389
 20
-30.1018298183
 10
-74.7110257425
 20
-30.2797148194
 10
-74.5366059622
 20
-30.4524794457
 10
-74.3604282533
 20
-30.6195704644
 10
-74.1824856932
 20
-30.7809706223
 10
-74.0027852046
 20
-30.9366971726
 10
-73.8219059109
 20
-31.0862486417
 10
-73.6398409889
 20
-31.2296066644
 10
-73.4565972619
 20
-31.3667896059
 10
-73.2727743226
 20
-31.4973510882
 10
-73.0885720353
 20
-31.6211423189
 10
-72.9037905358
 20
-31.7383120905
 10
-72.7184298241
 20
-31.8488604031
  0
LINE
  5
21E
100
AcDbEntity
  8
RACCORDO
100
AcDbLine
 62
7
  6
CONTINUOUS
 10
-78.9610705112
 20
108.5844217546
 11
-78.9610705112
 21
-21.2343522554
  0
LINE
  5
21F
100
AcDbEntity
  8
RACCORDO
100
AcDbLine
 62
250
  6
CONTINUOUS
 10
-78.3752840736
 20
107.767872568
 11
-78.3752840736
 21
-22.0509014421
  0
LWPOLYLINE
  5
220
100
AcDbEntity
  8
RACCORDO
100
AcDbPolyline
 62
250
  6
CONTINUOUS
 90
34
 70
0
 10
-72.7184298241
 20
111.0334380357
 10
-72.7168279998
 20
111.1120613488
 10
-72.7120261556
 20
111.1923563013
 10
-72.7040351692
 20
111.2741409994
 10
-72.6928731428
 20
111.3572301744
 10
-72.6785653618
 20
111.4414356026
 10
-72.6611442382
 20
111.5265665316
 10
-72.6406492362
 20
111.6124301126
 10
-72.6171267838
 20
111.6988318368
 10
-72.5906301667
 20
111.7855759766
 10
-72.5612194083
 20
111.8724660286
 10
-72.5289611335
 20
111.9593051589
 10
-72.4939284177
 20
112.0458966491
 10
-72.4562006211
 20
112.1320443414
 10
-72.4158632094
 20
112.2175530836
 10
-72.3730075598
 20
112.302229171
 10
-72.3277307541
 20
112.385880785
 10
-72.2801353588
 20
112.4683184277
 10
-72.2303291929
 20
112.5493553513
 10
-72.1784250834
 20
112.6288079811
 10
-72.1245406097
 20
112.7064963314
 10
-72.0687978375
 20
112.782244413
 10
-72.0113230422
 20
112.8558806321
 10
-71.9522464227
 20
112.9272381791
 10
-71.8917018064
 20
112.9961554062
 10
-71.8298263465
 20
113.0624761936
 10
-71.7667602106
 20
113.1260503036
 10
-71.702646264
 20
113.1867337202
 10
-71.6376297453
 20
113.2443889761
 10
-71.5718579378
 20
113.2988854635
 10
-71.5054798358
 20
113.3500997304
 10
-71.4386458071
 20
113.39791576
 10
-71.3715072523
 20
113.4422252335
 10
-71.3042162617
 20
113.4829277759
  0
LWPOLYLINE
  5
221
100
AcDbEntity
  8
0
100
AcDbPolyline
 62
7
  6
CONTINUOUS
 90
53
 70
0
 10
-67.7686823558
 20
93.4790509001
 10
-67.7664461171
 20
93.3658933693
 10
-67.7598600864
 20
93.250914656
 10
-67.7489242636
 20
93.1341147603
 10
-67.7335980076
 20
93.015244392
 10
-67.7139219596
 20
92.8945528413
 10
-67.690018043
 20
92.7727879786
 10
-67.6618600055
 20
92.6499431393
 10
-67.6294740994
 20
92.5260249881
 10
-67.5930610054
 20
92.4018013892
 10
-67.5525957173
 20
92.2772704459
 10
-67.5081032413
 20
92.1524340549
 10
-67.459859277
 20
92.0280657704
 10
-67.40784053
 20
91.904168499
 10
-67.3520702948
 20
91.780739334
 10
-67.2928941539
 20
91.6585431096
 10
-67.2302909589
 20
91.5375874818
 10
-67.1642818584
 20
91.4178647946
 10
-67.0952758805
 20
91.3001169149
 10
-67.0232544166
 20
91.1843561051
 10
-66.9482360754
 20
91.0705701029
 10
-66.8706857113
 20
90.9594639881
 10
-66.790587602
 20
90.8510544012
 10
-66.7079574699
 20
90.7453247018
 10
-66.6233073361
 20
90.6429300486
 10
-66.5366246578
 20
90.5438911501
 10
-66.4479219778
 20
90.4481872978
 10
-66.3577489462
 20
90.3564115249
 10
-66.266096433
 20
90.2685882221
 10
-66.1729735682
 20
90.1846929986
 10
-66.0789573917
 20
90.1052457149
 10
-65.9840423566
 20
90.0302739898
 10
-65.8882340099
 20
89.9597502044
 10
-65.792126032
 20
89.8941113624
 10
-65.6957165625
 20
89.8333877964
 10
-65.5990074619
 20
89.7775491738
 10
-65.5025979925
 20
89.7269415011
 10
-65.4064900146
 20
89.6815972592
 10
-65.3106816678
 20
89.6414839672
 10
-65.2157666327
 20
89.6068501889
 10
-65.1217504562
 20
89.5777299487
 10
-65.0286275915
 20
89.5540892221
 10
-64.9369750783
 20
89.5360745
 10
-64.8468020467
 20
89.5237207164
 10
-64.7580993667
 20
89.5169929372
 10
-64.6714166883
 20
89.5159328515
 10
-64.5867665546
 20
89.520575652
 10
-64.5041364224
 20
89.5308861461
 10
-64.4240383132
 20
89.5468004441
 10
-64.3464879491
 20
89.5683533423
 10
-64.2714696079
 20
89.5955100445
 10
-64.199448144
 20
89.6281022731
 10
-64.1472964272
 20
89.6562046963
  0
LWPOLYLINE
  5
222
100
AcDbEntity
  8
0
100
AcDbPolyline
 62
7
  6
CONTINUOUS
 90
19
 70
0
 10
-67.7686823558
 20
-20.0103175741
 10
-67.7664461171
 20
-19.8997423956
 10
-67.7598600864
 20
-19.7923690655
 10
-67.7489242636
 20
-19.6881975838
 10
-67.7335980076
 20
-19.5870255918
 10
-67.7139219596
 20
-19.4890554481
 10
-67.690018043
 20
-19.3948942291
 10
-67.6618600055
 20
-19.3045655858
 10
-67.6294740994
 20
-19.2180458672
 10
-67.5930610054
 20
-19.1358711964
 10
-67.5525957173
 20
-19.0580685536
 10
-67.5081032413
 20
-18.9846109586
 10
-67.459859277
 20
-18.9159535948
 10
-67.40784053
 20
-18.8521262685
 10
-67.3520702948
 20
-18.7930991732
 10
-67.2928941539
 20
-18.7392380731
 10
-67.2302909589
 20
-18.6905750455
 10
-67.1642818584
 20
-18.6470780131
 10
-67.1474275972
 20
-18.6371189302
  0
LINE
  5
223
100
AcDbEntity
  8
0
100
AcDbLine
 62
7
  6
CONTINUOUS
 10
0.3776361229
 20
-67.9892540693
 11
0.3525417742
 21
-67.9942469023
  0
LINE
  5
224
100
AcDbEntity
  8
0
100
AcDbLine
 62
7
  6
CONTINUOUS
 10
-1.2979804554
 20
-67.021774116
 11
-1.3230748215
 21
-67.0267669354
  0
LINE
  5
225
100
AcDbEntity
  8
0
100
AcDbLine
 62
7
  6
CONTINUOUS
 10
-0.1760415158
 20
-66.7219513421
 11
-0.1519170423
 21
-66.7191384805
  0
LINE
  5
226
100
AcDbEntity
  8
0
100
AcDbLine
 62
7
  6
CONTINUOUS
 10
-1.8516578689
 20
-65.7544714614
 11
-1.8275335582
 21
-65.7516586308
  0
LWPOLYLINE
  5
227
100
AcDbEntity
  8
0
100
AcDbPolyline
 62
7
  6
CONTINUOUS
 90
9
 70
0
 10
0.3525417742
 20
-67.9942469023
 10
0.3269568545
 20
-67.9962690472
 10
0.3007757307
 20
-67.9956320382
 10
0.2741443651
 20
-67.9924934826
 10
0.2469167954
 20
-67.9866957732
 10
0.218549501
 20
-67.9780776222
 10
0.1888613087
 20
-67.9665852672
 10
0.1580333917
 20
-67.9522724707
 10
0.1260657502
 20
-67.9351392327
  0
LWPOLYLINE
  5
228
100
AcDbEntity
  8
0
100
AcDbPolyline
 62
7
  6
CONTINUOUS
 90
9
 70
0
 10
-1.3230748215
 20
-67.0267669354
 10
-1.3486597546
 20
-67.0287890696
 10
-1.3748408818
 20
-67.0281520541
 10
-1.4014722419
 20
-67.025013494
 10
-1.4286997961
 20
-67.0192157842
 10
-1.457067055
 20
-67.0105976448
 10
-1.4867551887
 20
-66.999105316
 10
-1.5175830272
 20
-66.9847925576
 10
-1.5495505703
 20
-66.9676593697
  0
LWPOLYLINE
  5
229
100
AcDbEntity
  8
0
100
AcDbPolyline
 62
7
  6
CONTINUOUS
 90
10
 70
0
 10
-0.1519170423
 20
-66.7191384805
 10
-0.1290517325
 20
-66.7185213124
 10
-0.1055038268
 20
-66.7198516847
 10
-0.0812733252
 20
-66.7231295973
 10
-0.0563891847
 20
-66.7283062628
 10
-0.0308224482
 20
-66.7354304686
 10
-0.0044862449
 20
-66.7446485778
 10
0.0226483823
 20
-66.7560093781
 10
0.0505524763
 20
-66.7694640819
 10
0.0792260373
 20
-66.785012689
  0
LWPOLYLINE
  5
22A
100
AcDbEntity
  8
0
100
AcDbPolyline
 62
7
  6
CONTINUOUS
 90
10
 70
0
 10
-1.8275335582
 20
-65.7516586308
 10
-1.8046681674
 20
-65.7510414628
 10
-1.7811201991
 20
-65.7523718349
 10
-1.7568896534
 20
-65.755649747
 10
-1.7320054921
 20
-65.7608264115
 10
-1.7064387533
 20
-65.767950616
 10
-1.6801025516
 20
-65.7771687234
 10
-1.6529679251
 20
-65.7885295214
 10
-1.6250638357
 20
-65.8019842222
 10
-1.5963902833
 20
-65.817532826
  0
LWPOLYLINE
  5
22B
100
AcDbEntity
  8
0
100
AcDbPolyline
 62
7
  6
CONTINUOUS
 90
12
 70
0
 10
-2.982405168
 20
-64.9792403407
 10
-3.0046040913
 20
-64.9776560422
 10
-3.0282378159
 20
-64.9741528789
 10
-3.0533174239
 20
-64.9687014188
 10
-3.0798318331
 20
-64.961331094
 10
-3.1076682661
 20
-64.9521072425
 10
-3.1368098044
 20
-64.9410255152
 10
-3.1672733664
 20
-64.9280902612
 10
-3.1989969302
 20
-64.9133798664
 10
-3.2319598218
 20
-64.8969204593
 10
-3.2661827152
 20
-64.8786859113
 10
-3.3016656104
 20
-64.8586762224
  0
LWPOLYLINE
  5
22C
100
AcDbEntity
  8
RACCORDO
100
AcDbPolyline
 62
7
  6
CONTINUOUS
 90
28
 70
0
 10
69.1170916553
 20
-114.4192527909
 10
69.3632540322
 20
-114.5565120304
 10
69.6099575513
 20
-114.6843538585
 10
69.857058271
 20
-114.8027131875
 10
70.1046788564
 20
-114.9116339573
 10
70.3524065324
 20
-115.0109117639
 10
70.5992923917
 20
-115.1001986712
 10
70.8452127313
 20
-115.1795209276
 10
71.0899963763
 20
-115.2488878548
 10
71.3326173336
 20
-115.3081203921
 10
71.5727516871
 20
-115.3573080288
 10
71.8104188341
 20
-115.3966193847
 10
72.0450918878
 20
-115.4261406879
 10
72.2764923789
 20
-115.4460373359
 10
72.5045781416
 20
-115.4565050021
 10
72.7291485026
 20
-115.4577284167
 10
72.9499090296
 20
-115.4499102617
 10
73.1668114789
 20
-115.4332581311
 10
73.3799842641
 20
-115.4079435625
 10
73.5891676603
 20
-115.374167279
 10
73.794248772
 20
-115.3321212625
 10
73.9955244354
 20
-115.2818856934
 10
74.1927567196
 20
-115.2236353375
 10
74.3857757658
 20
-115.157541076
 10
74.5749204496
 20
-115.083571582
 10
74.7601391217
 20
-115.0017841051
 10
74.9410302683
 20
-114.9123985826
 10
75.117381577
 20
-114.8155822123
  0
LWPOLYLINE
  5
22D
100
AcDbEntity
  8
RACCORDO
100
AcDbPolyline
 62
250
  6
CONTINUOUS
 90
49
 70
0
 10
68.7029264132
 20
-113.5037790686
 10
68.8882995605
 20
-113.6072867516
 10
69.0730904927
 20
-113.7035023765
 10
69.2572992096
 20
-113.7924259434
 10
69.4411245855
 20
-113.8741389107
 10
69.6243677462
 20
-113.94855982
 10
69.8064320694
 20
-114.0154442961
 10
69.9873117188
 20
-114.0747666217
 10
70.1670125307
 20
-114.1265525142
 10
70.3449553921
 20
-114.1706347507
 10
70.5211333996
 20
-114.2069881138
 10
70.6955534567
 20
-114.235637821
 10
70.8676571604
 20
-114.2564923012
 10
71.0374372373
 20
-114.269526689
 10
71.2049009608
 20
-114.2747658499
 10
71.3695117489
 20
-114.2721928095
 10
71.5312608584
 20
-114.261782444
 10
71.6901570324
 20
-114.2435598771
 10
71.8456899183
 20
-114.2175835058
 10
71.9978485388
 20
-114.1838283643
 10
72.1466438711
 20
-114.1423194184
 10
72.2915984943
 20
-114.0931899623
 10
72.4326998951
 20
-114.0364155984
 10
72.5699605866
 20
-113.9720207244
 10
72.7029406875
 20
-113.9002118275
 10
72.8316264791
 20
-113.8209651709
 10
72.9560316801
 20
-113.7343044915
 10
73.0757575646
 20
-113.640507487
 10
73.1907892463
 20
-113.5395511549
 10
73.3011416116
 20
-113.4314584977
 10
73.406460594
 20
-113.3165762213
 10
73.5067300954
 20
-113.1948823189
 10
73.601966214
 20
-113.0663987972
 10
73.6918631775
 20
-112.9315383813
 10
73.7764036008
 20
-112.7902809229
 10
73.8556048689
 20
-112.6426465703
 10
73.9292133657
 20
-112.4891084935
 10
73.9972111938
 20
-112.3296479895
 10
74.0596162505
 20
-112.1642837612
 10
74.1162286114
 20
-111.9935450873
 10
74.1670298726
 20
-111.8174133483
 10
74.212038438
 20
-111.6359071637
 10
74.2511095943
 20
-111.4496116705
 10
74.2842240245
 20
-111.2585078369
 10
74.3114010458
 20
-111.0626146947
 10
74.3325538964
 20
-110.8625744767
 10
74.3476536558
 20
-110.6586012605
 10
74.3567292446
 20
-110.4504809686
 10
74.3597806627
 20
-110.2382136009
  0
LINE
  5
22E
100
AcDbEntity
  8
RACCORDO
100
AcDbLine
 62
7
  6
CONTINUOUS
 10
-72.304264582
 20
-32.7643341254
 11
69.1170916553
 21
-114.4192527909
  0
LWPOLYLINE
  5
22F
100
AcDbEntity
  8
0
100
AcDbPolyline
 62
7
  6
CONTINUOUS
 90
53
 70
0
 10
-63.5260416687
 20
91.0294033401
 10
-63.5282779073
 20
91.142560871
 10
-63.534863938
 20
91.2575395843
 10
-63.5457997608
 20
91.37433948
 10
-63.5611260168
 20
91.4932098483
 10
-63.5808020648
 20
91.613901399
 10
-63.6047059814
 20
91.7356662617
 10
-63.6328640189
 20
91.858511101
 10
-63.665249925
 20
91.9824292522
 10
-63.701663019
 20
92.1066528511
 10
-63.7421283071
 20
92.2311837944
 10
-63.7866207831
 20
92.3560201853
 10
-63.8348647474
 20
92.4803884699
 10
-63.8868834944
 20
92.6042857413
 10
-63.9426537297
 20
92.7277149063
 10
-64.0018298705
 20
92.8499111306
 10
-64.0644330655
 20
92.9708667585
 10
-64.1304421661
 20
93.0905894457
 10
-64.199448144
 20
93.2083373253
 10
-64.2714696079
 20
93.3240981352
 10
-64.3464879491
 20
93.4378841374
 10
-64.4240383132
 20
93.5489902522
 10
-64.5041364224
 20
93.6573998391
 10
-64.5867665546
 20
93.7631295385
 10
-64.6714166883
 20
93.8655241917
 10
-64.7580993667
 20
93.9645630901
 10
-64.8468020467
 20
94.0602669424
 10
-64.9369750783
 20
94.1520427154
 10
-65.0286275915
 20
94.2398660182
 10
-65.1217504562
 20
94.3237612416
 10
-65.2157666327
 20
94.4032085254
 10
-65.3106816678
 20
94.4781802505
 10
-65.4064900146
 20
94.5487040359
 10
-65.5025979925
 20
94.6143428778
 10
-65.5990074619
 20
94.6750664439
 10
-65.6957165625
 20
94.7309050665
 10
-65.792126032
 20
94.7815127392
 10
-65.8882340099
 20
94.8268569811
 10
-65.9840423566
 20
94.8669702731
 10
-66.0789573917
 20
94.9016040513
 10
-66.1729735682
 20
94.9307242916
 10
-66.266096433
 20
94.9543650181
 10
-66.3577489462
 20
94.9723797402
 10
-66.4479219778
 20
94.9847335239
 10
-66.5366246578
 20
94.9914613031
 10
-66.6233073361
 20
94.9925213888
 10
-66.7079574699
 20
94.9878785882
 10
-66.790587602
 20
94.9775680942
 10
-66.8706857113
 20
94.9616537961
 10
-66.9482360754
 20
94.940100898
 10
-67.0232544166
 20
94.9129441957
 10
-67.0952758805
 20
94.8803519672
 10
-67.1474275972
 20
94.852249544
  0
LWPOLYLINE
  5
230
100
AcDbEntity
  8
0
100
AcDbPolyline
 62
7
  6
CONTINUOUS
 90
19
 70
0
 10
-63.5260416687
 20
-22.4599651341
 10
-63.5282779073
 20
-22.5705403125
 10
-63.534863938
 20
-22.6779136426
 10
-63.5457997608
 20
-22.7820851243
 10
-63.5611260168
 20
-22.8832571164
 10
-63.5808020648
 20
-22.98122726
 10
-63.6047059814
 20
-23.075388479
 10
-63.6328640189
 20
-23.1657171224
 10
-63.665249925
 20
-23.252236841
 10
-63.701663019
 20
-23.3344115117
 10
-63.7421283071
 20
-23.4122141546
 10
-63.7866207831
 20
-23.4856717495
 10
-63.8348647474
 20
-23.5543291133
 10
-63.8868834944
 20
-23.6181564397
 10
-63.9426537297
 20
-23.6771835349
 10
-64.0018298705
 20
-23.7310446351
 10
-64.0644330655
 20
-23.7797076626
 10
-64.1304421661
 20
-23.823204695
 10
-64.1472964272
 20
-23.8331637779
  0
LWPOLYLINE
  5
231
100
AcDbEntity
  8
0
100
AcDbPolyline
 62
7
  6
CONTINUOUS
 90
9
 70
0
 10
-66.4205061959
 20
-18.5083909362
 10
-66.4499299456
 20
-18.5824912589
 10
-66.4806724486
 20
-18.6757859586
 10
-66.5068041342
 20
-18.7733061369
 10
-66.5282658056
 20
-18.8748308792
 10
-66.5450088454
 20
-18.9801301993
 10
-66.556995325
 20
-19.0889655604
 10
-66.5641980913
 20
-19.2010904154
 10
-66.5666008278
 20
-19.3162507654
  0
LINE
  5
232
100
AcDbEntity
  8
0
100
AcDbLine
 62
7
  6
CONTINUOUS
 10
-0.3312191419
 20
-67.2495730395
 11
-0.6092625675
 21
-67.1162128111
  0
LINE
  5
233
100
AcDbEntity
  8
0
100
AcDbLine
 62
7
  6
CONTINUOUS
 10
-0.2887927351
 20
-67.2250765639
 11
-0.5668361606
 21
-67.0917163355
  0
LINE
  5
234
100
AcDbEntity
  8
0
100
AcDbLine
 62
7
  6
CONTINUOUS
 10
-2.0068354624
 20
-66.2820931765
 11
-2.284878888
 21
-66.1487329481
  0
LINE
  5
235
100
AcDbEntity
  8
0
100
AcDbLine
 62
7
  6
CONTINUOUS
 10
-1.9644090556
 20
-66.2575967009
 11
-2.2424524811
 21
-66.1242364725
  0
LWPOLYLINE
  5
236
100
AcDbEntity
  8
0
100
AcDbPolyline
 62
7
  6
CONTINUOUS
 90
14
 70
0
 10
0.0836393434
 20
-68.2110372566
 10
0.1355234606
 20
-68.2389643115
 10
0.1847900739
 20
-68.2627180917
 10
0.2314391834
 20
-68.2822985972
 10
0.2751921193
 20
-68.2974429828
 10
0.3163275514
 20
-68.3084140936
 10
0.3556814885
 20
-68.3160004652
 10
0.3933451796
 20
-68.3203995081
 10
0.4292273758
 20
-68.3214138117
 10
0.463890339
 20
-68.3192396794
 10
0.4974023314
 20
-68.3140558259
 10
0.5296950907
 20
-68.3056835364
 10
0.5611260923
 20
-68.2937829702
 10
0.5942426967
 20
-68.2768390203
  0
LWPOLYLINE
  5
237
100
AcDbEntity
  8
0
100
AcDbPolyline
 62
7
  6
CONTINUOUS
 90
14
 70
0
 10
-1.5919769772
 20
-67.2435573936
 10
-1.5400929349
 20
-67.2714844087
 10
-1.4908263835
 20
-67.2952381566
 10
-1.444177323
 20
-67.3148186373
 10
-1.4004244208
 20
-67.3299630073
 10
-1.3592890095
 20
-67.3409341101
 10
-1.3199350869
 20
-67.3485204757
 10
-1.2822714049
 20
-67.3529195137
 10
-1.2463892117
 20
-67.3539338145
 10
-1.2117262493
 20
-67.3517596796
 10
-1.1782142556
 20
-67.346575823
 10
-1.1459214927
 20
-67.3382035307
 10
-1.1144904882
 20
-67.326302962
 10
-1.0813738873
 20
-67.3093590133
  0
LWPOLYLINE
  5
238
100
AcDbEntity
  8
0
100
AcDbPolyline
 62
7
  6
CONTINUOUS
 90
16
 70
0
 10
-3.3485054519
 20
-65.1744924996
 10
-3.2712532524
 20
-65.2168006569
 10
-3.2001953551
 20
-65.2531460265
 10
-3.1353317599
 20
-65.2835286085
 10
-3.077155959
 20
-65.3073637927
 10
-3.0251744603
 20
-65.3252361893
 10
-2.9779067874
 20
-65.338899629
 10
-2.9352815559
 20
-65.3485021242
 10
-2.8973701503
 20
-65.3538956624
 10
-2.8629062475
 20
-65.3563900374
 10
-2.8318259147
 20
-65.3561675141
 10
-2.8041930848
 20
-65.3530458274
 10
-2.7789332326
 20
-65.3477879764
 10
-2.7556881834
 20
-65.3406482939
 10
-2.7348161119
 20
-65.3313724469
 10
-2.7271767913
 20
-65.3270909118
  0
LWPOLYLINE
  5
239
100
AcDbEntity
  8
0
100
AcDbPolyline
 62
7
  6
CONTINUOUS
 90
13
 70
0
 10
0.1922668841
 20
-66.531201274
 10
0.1579424009
 20
-66.5124010224
 10
0.1238455441
 20
-66.4957874778
 10
0.0899763139
 20
-66.4813606403
 10
0.0564310492
 20
-66.4691198503
 10
0.0231134111
 20
-66.4590657674
 10
-0.0102656174
 20
-66.4512003699
 10
-0.0436975946
 20
-66.4454422234
 10
-0.0771909621
 20
-66.4418727623
 10
-0.1110600614
 20
-66.4407382682
 10
-0.1454096729
 20
-66.442120835
 10
-0.1801350161
 20
-66.4459383687
 10
-0.215236091
 20
-66.4521908695
  0
LWPOLYLINE
  5
23A
100
AcDbEntity
  8
0
100
AcDbPolyline
 62
7
  6
CONTINUOUS
 90
13
 70
0
 10
-1.4833496935
 20
-65.5637212625
 10
-1.5176739574
 20
-65.544921126
 10
-1.5517706329
 20
-65.5283076702
 10
-1.58563972
 20
-65.5138808951
 10
-1.6191848773
 20
-65.5016401382
 10
-1.6525024461
 20
-65.4915860619
 10
-1.685881451
 20
-65.4837206542
 10
-1.7193134563
 20
-65.4779624802
 10
-1.7528068976
 20
-65.4743929746
 10
-1.7866761064
 20
-65.4732584304
 10
-1.8210258597
 20
-65.474640945
 10
-1.8557513804
 20
-65.4784584208
 10
-1.8908526686
 20
-65.484710858
  0
LWPOLYLINE
  5
23B
100
AcDbEntity
  8
0
100
AcDbPolyline
 62
7
  6
CONTINUOUS
 90
13
 70
0
 10
0.1498404773
 20
-66.5556977496
 10
0.1158817905
 20
-66.5370780057
 10
0.0821171257
 20
-66.5205960187
 10
0.0485464828
 20
-66.5062517887
 10
0.0152879301
 20
-66.4940394243
 10
-0.0177766006
 20
-66.4839648169
 10
-0.0510013142
 20
-66.4760456406
 10
-0.0843842547
 20
-66.4701819588
 10
-0.117927378
 20
-66.4664737081
 10
-0.1519907567
 20
-66.465238373
 10
-0.186694415
 20
-66.4665817815
 10
-0.2219183287
 20
-66.4703981055
 10
-0.2576624979
 20
-66.4766873451
  0
LWPOLYLINE
  5
23C
100
AcDbEntity
  8
0
100
AcDbPolyline
 62
7
  6
CONTINUOUS
 90
13
 70
0
 10
-1.5257761004
 20
-65.5882177381
 10
-1.559734546
 20
-65.5695981188
 10
-1.5934990135
 20
-65.5531162271
 10
-1.6270695027
 20
-65.5387720629
 10
-1.6603279457
 20
-65.5265597307
 10
-1.6933924104
 20
-65.5164851261
 10
-1.7266171008
 20
-65.5085659358
 10
-1.7600000592
 20
-65.5027022234
 10
-1.7935432431
 20
-65.4989939253
 10
-1.8276067291
 20
-65.4977585377
 10
-1.8623105425
 20
-65.4991018925
 10
-1.897534658
 20
-65.5029181578
 10
-1.9332790755
 20
-65.5092073336
  0
LWPOLYLINE
  5
23D
100
AcDbEntity
  8
RACCORDO
100
AcDbPolyline
 62
250
  6
CONTINUOUS
 90
34
 70
0
 10
74.3597806627
 20
-110.2382136009
 10
74.4286734777
 20
-110.2761417023
 10
74.5006138768
 20
-110.3121341378
 10
74.5754388921
 20
-110.346109373
 10
74.6529790206
 20
-110.377990443
 10
74.7330586091
 20
-110.407705127
 10
74.8154962516
 20
-110.4351861116
 10
74.9001052003
 20
-110.4603711436
 10
74.9866937888
 20
-110.4832031707
 10
75.0750658659
 20
-110.5036304712
 10
75.1650212405
 20
-110.5216067705
 10
75.2563561349
 20
-110.5370913466
 10
75.348863646
 20
-110.550049122
 10
75.4423342146
 20
-110.5604507431
 10
75.5365560998
 20
-110.5682726468
 10
75.6313158587
 20
-110.5734971142
 10
75.72639883
 20
-110.57611231
 10
75.8215896202
 20
-110.57611231
 10
75.9166725915
 20
-110.5734971142
 10
76.0114323504
 20
-110.5682726468
 10
76.1056542356
 20
-110.5604507431
 10
76.1991248042
 20
-110.550049122
 10
76.2916323153
 20
-110.5370913466
 10
76.3829672096
 20
-110.5216067705
 10
76.4729225843
 20
-110.5036304712
 10
76.5612946614
 20
-110.4832031707
 10
76.6478832498
 20
-110.4603711436
 10
76.7324921985
 20
-110.4351861116
 10
76.814929841
 20
-110.407705127
 10
76.8950094296
 20
-110.377990443
 10
76.9725495581
 20
-110.346109373
 10
77.0473745733
 20
-110.3121341378
 10
77.1193149725
 20
-110.2761417023
 10
77.1882077875
 20
-110.2382136009
  0
LINE
  5
23E
100
AcDbEntity
  8
RACCORDO
100
AcDbLine
 62
250
  6
CONTINUOUS
 10
-72.7184298241
 20
-31.8488604031
 11
68.7029264132
 21
-113.5037790686
  0
LINE
  5
23F
100
AcDbEntity
  8
0
100
AcDbLine
 62
7
  6
CONTINUOUS
 10
-6.2503923926
 20
-69.0019667607
 11
2.2348889817
 21
-73.9012618806
  0
LINE
  5
240
100
AcDbEntity
  8
0
100
AcDbLine
 62
7
  6
CONTINUOUS
 10
-6.2079659857
 20
-68.9774702851
 11
2.2348889817
 21
-73.8522689294
  0
LINE
  5
241
100
AcDbEntity
  8
0
100
AcDbLine
 62
7
  6
CONTINUOUS
 10
-4.9755745378
 20
-65.2474440905
 11
-4.6901754414
 21
-65.4122299518
  0
LINE
  5
242
100
AcDbEntity
  8
0
100
AcDbLine
 62
7
  6
CONTINUOUS
 10
-4.1870492275
 20
-65.7027287221
 11
-3.9016500989
 21
-65.867514602
  0
LINE
  5
243
100
AcDbEntity
  8
0
100
AcDbLine
 62
7
  6
CONTINUOUS
 10
-3.9016500989
 20
-64.855113713
 11
-3.3485054519
 21
-65.1744924996
  0
LINE
  5
244
100
AcDbEntity
  8
0
100
AcDbLine
 62
7
  6
CONTINUOUS
 10
-3.3440920173
 20
-64.883172698
 11
-3.9016500989
 21
-64.5612456495
  0
LINE
  5
245
100
AcDbEntity
  8
0
100
AcDbLine
 62
7
  6
CONTINUOUS
 10
-3.3016656104
 20
-64.8586762224
 11
-3.8592236921
 21
-64.5367491739
  0
LINE
  5
246
100
AcDbEntity
  8
0
100
AcDbLine
 62
7
  6
CONTINUOUS
 10
-1.8170597013
 20
-64.9070392086
 11
-0.9564490739
 21
-65.4039449988
  0
LINE
  5
247
100
AcDbEntity
  8
0
100
AcDbLine
 62
7
  6
CONTINUOUS
 10
-0.1414433807
 20
-65.8745190716
 11
0.7191672466
 21
-66.3714248619
  0
LINE
  5
248
100
AcDbEntity
  8
0
100
AcDbLine
 62
7
  6
CONTINUOUS
 10
-3.9016500989
 20
-63.6711483212
 11
-3.3499765539
 21
-63.989677712
  0
LINE
  5
249
100
AcDbEntity
  8
0
100
AcDbLine
 62
7
  6
CONTINUOUS
 10
0.7191672466
 20
-66.079255426
 11
-0.3532861866
 21
-65.4600342547
  0
LINE
  5
24A
100
AcDbEntity
  8
0
100
AcDbLine
 62
7
  6
CONTINUOUS
 10
-0.9564490739
 20
-65.1117755629
 11
-2.0289025071
 21
-64.4925543916
  0
LINE
  5
24B
100
AcDbEntity
  8
0
100
AcDbLine
 62
7
  6
CONTINUOUS
 10
-3.3735147006
 20
-63.6822190177
 11
-4.1870492275
 21
-63.2124943779
  0
LINE
  5
24C
100
AcDbEntity
  8
0
100
AcDbLine
 62
7
  6
CONTINUOUS
 10
-4.6901754414
 20
-62.9219956076
 11
-4.9755745378
 21
-62.7572097462
  0
LINE
  5
24D
100
AcDbEntity
  8
0
100
AcDbLine
 62
7
  6
CONTINUOUS
 10
0.7615936535
 20
-66.0547589504
 11
-0.3108597797
 21
-65.4355377791
  0
LINE
  5
24E
100
AcDbEntity
  8
0
100
AcDbLine
 62
7
  6
CONTINUOUS
 10
-0.914022667
 20
-65.0872790873
 11
-1.9864761002
 21
-64.468057916
  0
LINE
  5
24F
100
AcDbEntity
  8
0
100
AcDbLine
 62
7
  6
CONTINUOUS
 10
-4.6477490345
 20
-62.897499132
 11
-4.9331481309
 21
-62.7327132706
  0
LINE
  5
250
100
AcDbEntity
  8
0
100
AcDbLine
 62
7
  6
CONTINUOUS
 10
2.2348889817
 20
-65.7365591127
 11
-6.2503923926
 21
-60.8372639928
  0
LWPOLYLINE
  5
251
100
AcDbEntity
  8
0
100
AcDbPolyline
 62
7
  6
CONTINUOUS
 90
10
 70
0
 10
-3.3499765539
 20
-63.989677712
 10
-3.3039901073
 20
-64.0167535807
 10
-3.2623393531
 20
-64.0418899373
 10
-3.2250242916
 20
-64.0650867819
 10
-3.1923486994
 20
-64.0862334545
 10
-3.1640087997
 20
-64.1054406152
 10
-3.1390932625
 20
-64.1230402432
 10
-3.1172983112
 20
-64.1391429984
 10
-3.0989277224
 20
-64.1536382209
 10
-3.0839814962
 20
-64.1665259108
  0
LWPOLYLINE
  5
252
100
AcDbEntity
  8
RACCORDO
100
AcDbPolyline
 62
250
  6
CONTINUOUS
 90
18
 70
0
 10
-78.3752840736
 20
-22.0509014421
 10
-78.4409732399
 20
-22.0111235942
 10
-78.5033099505
 20
-21.9695861094
 10
-78.5621529928
 20
-21.9263830835
 10
-78.6173690683
 20
-21.8816123852
 10
-78.6688330948
 20
-21.8353754345
 10
-78.7164284899
 20
-21.787776973
 10
-78.7600474346
 20
-21.7389248265
 10
-78.7995911179
 20
-21.6889296608
 10
-78.8349699608
 20
-21.6379047311
 10
-78.8661038187
 20
-21.5859656252
 10
-78.8929221635
 20
-21.5332300019
 10
-78.9153642429
 20
-21.4798173243
 10
-78.9333792185
 20
-21.4258485894
 10
-78.9469262805
 20
-21.3714460536
 10
-78.9559747404
 20
-21.3167329563
 10
-78.9605041006
 20
-21.2618332402
 10
-78.9610705112
 20
-21.2343522554
  0
LWPOLYLINE
  5
253
100
AcDbEntity
  8
0
100
AcDbPolyline
 62
7
  6
CONTINUOUS
 90
13
 70
0
 10
-1.5495505703
 20
-66.9676593697
 10
-1.5773923604
 20
-66.9505198215
 10
-1.6041688822
 20
-66.9323683831
 10
-1.6298801356
 20
-66.9132050544
 10
-1.6544579005
 20
-66.8930183561
 10
-1.677970397
 20
-66.8718197675
 10
-1.7006222857
 20
-66.8496437265
 10
-1.7223766261
 20
-66.8266061278
 10
-1.7432703587
 20
-66.8025910766
 10
-1.763618966
 20
-66.777285327
 10
-1.7835276087
 20
-66.7505844635
 10
-1.8028911261
 20
-66.7225929016
 10
-1.8217095181
 20
-66.6933106411
  0
LWPOLYLINE
  5
254
100
AcDbEntity
  8
0
100
AcDbPolyline
 62
7
  6
CONTINUOUS
 90
13
 70
0
 10
0.1260657502
 20
-67.9351392327
 10
0.098223939
 20
-67.9179996699
 10
0.0714474014
 20
-67.8998482185
 10
0.0457361372
 20
-67.8806848784
 10
0.0211583672
 20
-67.8604981702
 10
-0.0023541293
 20
-67.8392995733
 10
-0.0250060139
 20
-67.8171235265
 10
-0.0467603463
 20
-67.7940859243
 10
-0.0676540668
 20
-67.770070872
 10
-0.0880026581
 20
-67.7447651244
 10
-0.1079112812
 20
-67.7180642662
 10
-0.1272747751
 20
-67.6900727127
 10
-0.1460931399
 20
-67.6607904637
  0
LWPOLYLINE
  5
255
100
AcDbEntity
  8
0
100
AcDbPolyline
 62
7
  6
CONTINUOUS
 90
13
 70
0
 10
-1.5919769772
 20
-66.9921558453
 10
-1.6197802161
 20
-66.97501987
 10
-1.6464645277
 20
-66.9569409115
 10
-1.672029912
 20
-66.9379189699
 10
-1.6963525712
 20
-66.9179985398
 10
-1.7195563032
 20
-66.8971351266
 10
-1.7420125009
 20
-66.8751952455
 10
-1.7637582334
 20
-66.8522409221
 10
-1.7847564317
 20
-66.8282101309
 10
-1.8052672814
 20
-66.8027833108
 10
-1.8253775112
 20
-66.7758539416
 10
-1.8450003923
 20
-66.7475285436
 10
-1.8641359249
 20
-66.7178071167
  0
LWPOLYLINE
  5
256
100
AcDbEntity
  8
0
100
AcDbPolyline
 62
7
  6
CONTINUOUS
 90
13
 70
0
 10
0.0836393434
 20
-67.9596357083
 10
0.0558360841
 20
-67.942499719
 10
0.0291517572
 20
-67.9244207479
 10
0.0035863626
 20
-67.9053987953
 10
-0.0207363017
 20
-67.8854783557
 10
-0.0439400337
 20
-67.8646149344
 10
-0.0663962274
 20
-67.8426750477
 10
-0.0881419521
 20
-67.8197207209
 10
-0.1091401385
 20
-67.7956899286
 10
-0.1296509725
 20
-67.7702631103
 10
-0.1497611829
 20
-67.7433337459
 10
-0.169384041
 20
-67.7150083556
 10
-0.1885195468
 20
-67.6852869393
  0
LWPOLYLINE
  5
257
100
AcDbEntity
  8
0
100
AcDbPolyline
 62
7
  6
CONTINUOUS
 90
13
 70
0
 10
-1.5963902833
 20
-65.817532826
 10
-1.5595131807
 20
-65.8404375937
 10
-1.5246716024
 20
-65.8642221131
 10
-1.4918655484
 20
-65.8888863841
 10
-1.461338652
 20
-65.9143567946
 10
-1.4328472799
 20
-65.9407069567
 10
-1.4056605323
 20
-65.9681577074
 10
-1.3796900323
 20
-65.9966173071
 10
-1.3550241568
 20
-66.0261774953
 10
-1.331197137
 20
-66.057334327
 10
-1.3080537167
 20
-66.090253154
 10
-1.2857491521
 20
-66.1247686244
 10
-1.2642834432
 20
-66.1608807384
  0
LWPOLYLINE
  5
258
100
AcDbEntity
  8
0
100
AcDbPolyline
 62
7
  6
CONTINUOUS
 90
13
 70
0
 10
0.0792260373
 20
-66.785012689
 10
0.1161031399
 20
-66.8079174568
 10
0.1509447182
 20
-66.8317019761
 10
0.1837507721
 20
-66.8563662472
 10
0.2142776685
 20
-66.8818366577
 10
0.2427690406
 20
-66.9081868198
 10
0.2699557882
 20
-66.9356375704
 10
0.2959262882
 20
-66.9640971701
 10
0.3205921637
 20
-66.9936573584
 10
0.3444191835
 20
-67.0248141901
 10
0.3675626038
 20
-67.057733017
 10
0.3898671684
 20
-67.0922484875
 10
0.4113328774
 20
-67.1283606015
  0
LWPOLYLINE
  5
259
100
AcDbEntity
  8
0
100
AcDbPolyline
 62
7
  6
CONTINUOUS
 90
21
 70
0
 10
-63.7934719713
 20
-21.1156865868
 10
-63.8389713774
 20
-21.0745598944
 10
-63.8997843481
 20
-21.0153412031
 10
-63.9593549015
 20
-20.9530082923
 10
-64.0175021239
 20
-20.8877504649
 10
-64.0740494241
 20
-20.8197659068
 10
-64.1288250697
 20
-20.7492610849
 10
-64.1816627089
 20
-20.6764501201
 10
-64.2324018756
 20
-20.6015541367
 10
-64.2808884765
 20
-20.5248005916
 10
-64.3269752595
 20
-20.4464225826
 10
-64.3705222605
 20
-20.3666581412
 10
-64.4113972287
 20
-20.2857495093
 10
-64.4494760281
 20
-20.203942404
 10
-64.4846430148
 20
-20.1214852705
 10
-64.5167913876
 20
-20.0386285286
 10
-64.5458235132
 20
-19.9556238114
 10
-64.5716512217
 20
-19.8727232015
 10
-64.5941960755
 20
-19.7901784655
 10
-64.6133896064
 20
-19.7082402888
 10
-64.6170065228
 20
-19.6896600088
  0
LINE
  5
25A
100
AcDbEntity
  8
0
100
AcDbLine
 62
7
  6
CONTINUOUS
 10
-2.2378028518
 20
-65.6510283424
 11
-1.989181981
 21
-65.831949392
  0
LINE
  5
25B
100
AcDbEntity
  8
0
100
AcDbLine
 62
7
  6
CONTINUOUS
 10
-0.5621862741
 20
-66.6185083539
 11
-0.3135654034
 21
-66.7994294035
  0
LWPOLYLINE
  5
25C
100
AcDbEntity
  8
0
100
AcDbPolyline
 62
7
  6
CONTINUOUS
 90
10
 70
0
 10
-3.0029789953
 20
-63.870630474
 10
-3.0355810211
 20
-63.8463479664
 10
-3.0691150134
 20
-63.8222937103
 10
-3.1035809723
 20
-63.798467706
 10
-3.1389366654
 20
-63.7749655985
 10
-3.175224325
 20
-63.7516917427
 10
-3.212570648
 20
-63.7283592027
 10
-3.2510178666
 20
-63.7048723333
 10
-3.2905237485
 20
-63.6813267798
 10
-4.1446228206
 20
-63.1879979023
  0
LWPOLYLINE
  5
25D
100
AcDbEntity
  8
0
100
AcDbPolyline
 62
7
  6
CONTINUOUS
 90
10
 70
0
 10
-3.0454054022
 20
-63.8951269496
 10
-3.069491862
 20
-63.8767820484
 10
-3.0965246319
 20
-63.8571554669
 10
-3.1265037118
 20
-63.8362472052
 10
-3.1592341389
 20
-63.8141188681
 10
-3.194910876
 20
-63.7907088508
 10
-3.2341188119
 20
-63.7658323385
 10
-3.2770529094
 20
-63.7394277265
 10
-3.3235182056
 20
-63.7115566195
 10
-3.3735147006
 20
-63.6822190177
  0
LWPOLYLINE
  5
25E
100
AcDbEntity
  8
0
100
AcDbPolyline
 62
7
  6
CONTINUOUS
 90
13
 70
0
 10
-3.0839814962
 20
-64.1665259108
 10
-3.0657297919
 20
-64.1833461323
 10
-3.0481554024
 20
-64.2007852666
 10
-3.0312583275
 20
-64.2188433137
 10
-3.0150951685
 20
-64.237457589
 10
-2.9996093242
 20
-64.256690777
 10
-2.9846309915
 20
-64.2767309313
 10
-2.9701352254
 20
-64.297543661
 10
-2.9561469708
 20
-64.3191633569
 10
-2.942571259
 20
-64.3418812449
 10
-2.9293764338
 20
-64.3657944003
 10
-2.9165941514
 20
-64.3908057478
 10
-2.9042244118
 20
-64.4169152874
  0
LWPOLYLINE
  5
25F
100
AcDbEntity
  8
0
100
AcDbPolyline
 62
7
  6
CONTINUOUS
 90
10
 70
0
 10
-2.7369935278
 20
-64.1421340059
 10
-2.7599510434
 20
-64.1111743184
 10
-2.7845253715
 20
-64.0803841351
 10
-2.8107165122
 20
-64.049763456
 10
-2.838481407
 20
-64.0192740774
 10
-2.8678631143
 20
-63.9889542029
 10
-2.8989908093
 20
-63.9589184442
 10
-2.9319075503
 20
-63.9292050051
 10
-2.966570279
 20
-63.8997756817
 10
-3.0029789953
 20
-63.870630474
  0
LWPOLYLINE
  5
260
100
AcDbEntity
  8
0
100
AcDbPolyline
 62
7
  6
CONTINUOUS
 90
10
 70
0
 10
-2.7794199347
 20
-64.1666304815
 10
-2.8013655308
 20
-64.1369235273
 10
-2.8250362424
 20
-64.1071634466
 10
-2.8504320695
 20
-64.0773502394
 10
-2.877317051
 20
-64.0475664389
 10
-2.905927148
 20
-64.017729512
 10
-2.9369702434
 20
-63.9875918595
 10
-2.970682298
 20
-63.9570709484
 10
-3.0068273509
 20
-63.9262493118
 10
-3.0454054022
 20
-63.8951269496
  0
LWPOLYLINE
  5
261
100
AcDbEntity
  8
0
100
AcDbPolyline
 62
7
  6
CONTINUOUS
 90
13
 70
0
 10
-2.0734021721
 20
-66.7758133842
 10
-2.0438776863
 20
-66.8213348274
 10
-2.0128614023
 20
-66.8654533311
 10
-1.9803533202
 20
-66.9081688953
 10
-1.9465866196
 20
-66.9493299147
 10
-1.9113281207
 20
-66.9890879947
 10
-1.8738782851
 20
-67.0278979511
 10
-1.8343663459
 20
-67.065844698
 10
-1.7926630699
 20
-67.1028433213
 10
-1.7476812188
 20
-67.1390938951
 10
-1.69905838
 20
-67.1746631108
 10
-1.6471569661
 20
-67.2094842769
 10
-1.5919769772
 20
-67.2435573936
  0
LWPOLYLINE
  5
262
100
AcDbEntity
  8
0
100
AcDbPolyline
 62
7
  6
CONTINUOUS
 90
13
 70
0
 10
-0.3977857081
 20
-67.7432934771
 10
-0.3682612696
 20
-67.788814849
 10
-0.3372450247
 20
-67.8329332944
 10
-0.3047369735
 20
-67.8756488132
 10
-0.2709702945
 20
-67.9168098023
 10
-0.2357118091
 20
-67.9565678648
 10
-0.1982619814
 20
-67.9953778102
 10
-0.1587500436
 20
-68.0333245522
 10
-0.1170467635
 20
-68.0703231771
 10
-0.0720649081
 20
-68.1065737532
 10
-0.0234420663
 20
-68.1421429698
 10
0.0284593509
 20
-68.1769641376
 10
0.0836393434
 20
-68.2110372566
  0
LWPOLYLINE
  5
263
100
AcDbEntity
  8
0
100
AcDbPolyline
 62
7
  6
CONTINUOUS
 90
42
 70
0
 10
-63.6722327916
 20
-23.2679953141
 10
-63.7514645599
 20
-23.2563704046
 10
-63.8476354799
 20
-23.2363397619
 10
-63.9451602581
 20
-23.2102034765
 10
-64.0438179695
 20
-23.1780207556
 10
-64.1433851226
 20
-23.1398645035
 10
-64.2436361658
 20
-23.0958211562
 10
-64.3443439982
 20
-23.0459904861
 10
-64.4452804842
 20
-22.9904853758
 10
-64.5462169702
 20
-22.9294315621
 10
-64.6469248026
 20
-22.8629673516
 10
-64.7471758458
 20
-22.7912433071
 10
-64.8467429989
 20
-22.7144219067
 10
-64.9454007103
 20
-22.6326771754
 10
-65.0429254885
 20
-22.5461942914
 10
-65.1390964085
 20
-22.4551691663
 10
-65.2336956123
 20
-22.3598080013
 10
-65.3265088023
 20
-22.26032682
 10
-65.4173257267
 20
-22.1569509793
 10
-65.505940656
 20
-22.0499146588
 10
-65.5921528488
 20
-21.9394603302
 10
-65.6757670069
 20
-21.8258382079
 10
-65.7565937172
 20
-21.7093056828
 10
-65.8344498813
 20
-21.5901267384
 10
-65.9091591299
 20
-21.4685713533
 10
-65.9805522226
 20
-21.3449148897
 10
-66.0484674309
 20
-21.2194374691
 10
-66.1127509052
 20
-21.0924233384
 10
-66.1732570227
 20
-20.9641602253
 10
-66.2298487175
 20
-20.834938687
 10
-66.2823977913
 20
-20.705051452
 10
-66.3307852035
 20
-20.5747927565
 10
-66.3749013411
 20
-20.4444576784
 10
-66.4146462668
 20
-20.3143414686
 10
-66.4499299456
 20
-20.1847388822
 10
-66.4806724486
 20
-20.0559435106
 10
-66.5068041342
 20
-19.9282471169
 10
-66.5282658056
 20
-19.8019389744
 10
-66.5450088454
 20
-19.6773052116
 10
-66.556995325
 20
-19.5546281643
 10
-66.5641980913
 20
-19.4341857353
 10
-66.5666008278
 20
-19.3162507654
  0
LWPOLYLINE
  5
264
100
AcDbEntity
  8
0
100
AcDbPolyline
 62
7
  6
CONTINUOUS
 90
13
 70
0
 10
-1.8641359249
 20
-66.7178071167
 10
-1.8797052612
 20
-66.6918029795
 10
-1.8946687063
 20
-66.6643087536
 10
-1.9090262601
 20
-66.6353244391
 10
-1.9227955942
 20
-66.6050861609
 10
-1.9359590371
 20
-66.5733577941
 10
-1.9484635743
 20
-66.5394309636
 10
-1.9603919894
 20
-66.5032988897
 10
-1.9716614989
 20
-66.4649683522
 10
-1.9819707375
 20
-66.4237513157
 10
-1.9912192501
 20
-66.379418435
 10
-1.9995074917
 20
-66.3321990552
 10
-2.0068354624
 20
-66.2820931765
  0
LWPOLYLINE
  5
265
100
AcDbEntity
  8
0
100
AcDbPolyline
 62
7
  6
CONTINUOUS
 90
13
 70
0
 10
-0.1885195468
 20
-67.6852869393
 10
-0.2040888778
 20
-67.6592827838
 10
-0.2190523221
 20
-67.6317885355
 10
-0.2334098798
 20
-67.6028041941
 10
-0.2471792247
 20
-67.5725658778
 10
-0.2603426829
 20
-67.5408374686
 10
-0.2728472331
 20
-67.5069106125
 10
-0.2847756565
 20
-67.4707785377
 10
-0.2960451718
 20
-67.4324480162
 10
-0.3063544145
 20
-67.3912310094
 10
-0.3156029297
 20
-67.3468981713
 10
-0.3238911721
 20
-67.299678848
 10
-0.3312191419
 20
-67.2495730395
  0
LWPOLYLINE
  5
266
100
AcDbEntity
  8
0
100
AcDbPolyline
 62
7
  6
CONTINUOUS
 90
16
 70
0
 10
-1.0494975207
 20
-66.0895594604
 10
-1.0768379632
 20
-66.0437876642
 10
-1.1045695932
 20
-66.0001269124
 10
-1.1326924107
 20
-65.9585772052
 10
-1.1611283447
 20
-65.9193052216
 10
-1.1899554662
 20
-65.8821442826
 10
-1.2194079884
 20
-65.8465943503
 10
-1.249457627
 20
-65.8125907798
 10
-1.2801326663
 20
-65.780198216
 10
-1.3117521718
 20
-65.7491105566
 10
-1.3442804628
 20
-65.7192686432
 10
-1.3777532199
 20
-65.6907316342
 10
-1.4125965515
 20
-65.6633709019
 10
-1.4489524934
 20
-65.6371435706
 10
-1.4866790097
 20
-65.612092516
 10
-1.5257761004
 20
-65.5882177381
  0
LWPOLYLINE
  5
267
100
AcDbEntity
  8
0
100
AcDbPolyline
 62
7
  6
CONTINUOUS
 90
16
 70
0
 10
0.6261188636
 20
-67.0570395832
 10
0.5987784067
 20
-67.0112677346
 10
0.5710467648
 20
-66.9676069373
 10
0.542923938
 20
-66.9260571913
 10
0.5144879967
 20
-66.8867851761
 10
0.4856608705
 20
-66.8496242121
 10
0.4562083475
 20
-66.8140742612
 10
0.4261587118
 20
-66.7800706781
 10
0.3954836794
 20
-66.7476781081
 10
0.3638641863
 20
-66.7165904483
 10
0.3313359131
 20
-66.6867485403
 10
0.2978631794
 20
-66.6582115426
 10
0.2630198794
 20
-66.6308508274
 10
0.2266639782
 20
-66.6046235189
 10
0.1889375108
 20
-66.579572493
 10
0.1498404773
 20
-66.5556977496
  0
LWPOLYLINE
  5
268
100
AcDbEntity
  8
0
100
AcDbPolyline
 62
7
  6
CONTINUOUS
 90
16
 70
0
 10
-1.0070711138
 20
-66.0650629848
 10
-1.0343518035
 20
-66.0193221414
 10
-1.0621736188
 20
-65.9755329954
 10
-1.0905365595
 20
-65.933695547
 10
-1.1194462756
 20
-65.8938655729
 10
-1.1488971173
 20
-65.8559872964
 10
-1.1788721348
 20
-65.819893387
 10
-1.209271061
 20
-65.7856451987
 10
-1.2401941632
 20
-65.7531813775
 10
-1.2719252928
 20
-65.7221505308
 10
-1.3044293876
 20
-65.6924960413
 10
-1.3377415099
 20
-65.6642745264
 10
-1.3722506978
 20
-65.6373044451
 10
-1.4080866307
 20
-65.6115252839
 10
-1.4451196293
 20
-65.5869975564
 10
-1.4833496935
 20
-65.5637212625
  0
LWPOLYLINE
  5
269
100
AcDbEntity
  8
0
100
AcDbPolyline
 62
7
  6
CONTINUOUS
 90
16
 70
0
 10
0.6685452705
 20
-67.0325431076
 10
0.6412645735
 20
-66.9868022224
 10
0.6134427517
 20
-66.9430130383
 10
0.585079805
 20
-66.9011755554
 10
0.5561700823
 20
-66.8613455494
 10
0.5267192348
 20
-66.8234672445
 10
0.4967442152
 20
-66.7873733132
 10
0.4663452915
 20
-66.7531251108
 10
0.4354221959
 20
-66.7206612821
 10
0.403691078
 20
-66.6896304336
 10
0.3711869998
 20
-66.6599759478
 10
0.3378748993
 20
-66.6317544422
 10
0.303365741
 20
-66.6047843762
 10
0.2675298465
 20
-66.579005236
 10
0.2304968942
 20
-66.5544775353
 10
0.1922668841
 20
-66.531201274
  0
LWPOLYLINE
  5
26A
100
AcDbEntity
  8
0
100
AcDbPolyline
 62
7
  6
CONTINUOUS
 90
13
 70
0
 10
-1.8217095181
 20
-66.6933106411
 10
-1.8385606473
 20
-66.6649706187
 10
-1.8545815115
 20
-66.635236005
 10
-1.8697721107
 20
-66.6041068
 10
-1.8841689791
 20
-66.5716476076
 10
-1.8977355825
 20
-66.5377938239
 10
-1.9103623175
 20
-66.5023516374
 10
-1.9220777325
 20
-66.4651956195
 10
-1.9328532791
 20
-66.4264511988
 10
-1.9424937095
 20
-66.3863008492
 10
-1.9509339411
 20
-66.3448053953
 10
-1.9582390564
 20
-66.3019040125
 10
-1.9644090556
 20
-66.2575967009
  0
LWPOLYLINE
  5
26B
100
AcDbEntity
  8
0
100
AcDbPolyline
 62
7
  6
CONTINUOUS
 90
13
 70
0
 10
-0.1460931399
 20
-67.6607904637
 10
-0.1629442537
 20
-67.6324504372
 10
-0.1789651074
 20
-67.6027158209
 10
-0.194155701
 20
-67.5715866146
 10
-0.2085525693
 20
-67.5391274222
 10
-0.2221191774
 20
-67.5052736398
 10
-0.2347459209
 20
-67.4698314562
 10
-0.2464613493
 20
-67.4326754435
 10
-0.257236913
 20
-67.3939310295
 10
-0.2668773587
 20
-67.3537806873
 10
-0.2753176021
 20
-67.3122852411
 10
-0.2826227276
 20
-67.2693838667
 10
-0.2887927351
 20
-67.2250765639
  0
LWPOLYLINE
  5
26C
100
AcDbEntity
  8
0
100
AcDbPolyline
 62
7
  6
CONTINUOUS
 90
13
 70
0
 10
-1.2642834432
 20
-66.1608807384
 10
-1.2452380207
 20
-66.1959025209
 10
-1.2276766574
 20
-66.2315232184
 10
-1.2115993533
 20
-66.2677428308
 10
-1.197015647
 20
-66.3043295248
 10
-1.1839159999
 20
-66.3415151337
 10
-1.1722717959
 20
-66.379995158
 10
-1.1619618959
 20
-66.4197086747
 10
-1.153107439
 20
-66.4607166069
 10
-1.1460432272
 20
-66.503897224
 10
-1.140880861
 20
-66.5495432826
 10
-1.1375087399
 20
-66.5973620261
 10
-1.1359268638
 20
-66.6473534547
  0
LWPOLYLINE
  5
26D
100
AcDbEntity
  8
0
100
AcDbPolyline
 62
7
  6
CONTINUOUS
 90
13
 70
0
 10
0.4113328774
 20
-67.1283606015
 10
0.4303783511
 20
-67.1633824798
 10
0.4479397601
 20
-67.1990032649
 10
0.4640171045
 20
-67.2352229568
 10
0.4786008458
 20
-67.2718097268
 10
0.4917005224
 20
-67.3089954035
 10
0.5033447493
 20
-67.3474754733
 10
0.5136546642
 20
-67.3871890111
 10
0.5225091295
 20
-67.428196942
 10
0.5295733469
 20
-67.4713775268
 10
0.5347357171
 20
-67.5170235193
 10
0.5381078394
 20
-67.5648421657
 10
0.5396897138
 20
-67.6148334662
  0
LWPOLYLINE
  5
26E
100
AcDbEntity
  8
0
100
AcDbPolyline
 62
7
  6
CONTINUOUS
 90
10
 70
0
 10
-2.9042244118
 20
-64.4169152874
 10
-2.8901644652
 20
-64.4497423769
 10
-2.8776842195
 20
-64.4827108635
 10
-2.8667836747
 20
-64.5158207473
 10
-2.8574433048
 20
-64.5488469237
 10
-2.8496826358
 20
-64.5820144972
 10
-2.8435602461
 20
-64.6159987815
 10
-2.8390956618
 20
-64.6510248812
 10
-2.8362693567
 20
-64.6868676915
 10
-2.835081331
 20
-64.7235272126
  0
LWPOLYLINE
  5
26F
100
AcDbEntity
  8
0
100
AcDbPolyline
 62
7
  6
CONTINUOUS
 90
10
 70
0
 10
-2.6073487613
 20
-64.5052615696
 10
-2.623946846
 20
-64.4598883562
 10
-2.6411567575
 20
-64.4166124689
 10
-2.6589784958
 20
-64.3754339077
 10
-2.6773875186
 20
-64.3365665951
 10
-2.6964083683
 20
-64.2997966087
 10
-2.7161146719
 20
-64.2644821808
 10
-2.7365309721
 20
-64.2304093891
 10
-2.7576327264
 20
-64.197792156
 10
-2.7794199347
 20
-64.1666304815
  0
LWPOLYLINE
  5
270
100
AcDbEntity
  8
0
100
AcDbPolyline
 62
7
  6
CONTINUOUS
 90
10
 70
0
 10
-2.5649223544
 20
-64.480765094
 10
-2.5813566824
 20
-64.4357451316
 10
-2.598476198
 20
-64.3926676325
 10
-2.6162809012
 20
-64.3515325968
 10
-2.6347894785
 20
-64.3124652138
 10
-2.6539832434
 20
-64.2753402942
 10
-2.6738061367
 20
-64.2397822704
 10
-2.694239472
 20
-64.2056659531
 10
-2.7153019357
 20
-64.1731165316
 10
-2.7369935278
 20
-64.1421340059
  0
LINE
  5
271
100
AcDbEntity
  8
0
100
AcDbLine
 62
7
  6
CONTINUOUS
 10
-2.284878888
 20
-66.1487329481
 11
-2.2799335759
 21
-66.1973277934
  0
LWPOLYLINE
  5
272
100
AcDbEntity
  8
0
100
AcDbPolyline
 62
7
  6
CONTINUOUS
 90
53
 70
0
 10
-67.1474275972
 20
-18.6371189302
 10
-67.0952758805
 20
-18.609016507
 10
-67.0232544166
 20
-18.5764242785
 10
-66.9482360754
 20
-18.5492675762
 10
-66.8706857113
 20
-18.5277146781
 10
-66.790587602
 20
-18.51180038
 10
-66.7079574699
 20
-18.501489886
 10
-66.6233073361
 20
-18.4968470854
 10
-66.5366246578
 20
-18.4979071711
 10
-66.4479219778
 20
-18.5046349503
 10
-66.3577489462
 20
-18.516988734
 10
-66.266096433
 20
-18.5350034561
 10
-66.1729735682
 20
-18.5586441826
 10
-66.0789573917
 20
-18.5877644229
 10
-65.9840423566
 20
-18.6223982012
 10
-65.8882340099
 20
-18.6625114931
 10
-65.792126032
 20
-18.707855735
 10
-65.6957165625
 20
-18.7584634077
 10
-65.5990074619
 20
-18.8143020303
 10
-65.5025979925
 20
-18.8750255964
 10
-65.4064900146
 20
-18.9406644383
 10
-65.3106816678
 20
-19.0111882237
 10
-65.2157666327
 20
-19.0861599488
 10
-65.1217504562
 20
-19.1656072326
 10
-65.0286275915
 20
-19.249502456
 10
-64.9369750783
 20
-19.3373257588
 10
-64.8468020467
 20
-19.4291015318
 10
-64.7580993667
 20
-19.5248053841
 10
-64.6714166883
 20
-19.6238442825
 10
-64.5867665546
 20
-19.7262389357
 10
-64.5041364224
 20
-19.8319686351
 10
-64.4240383132
 20
-19.940378222
 10
-64.3464879491
 20
-20.0514843368
 10
-64.2714696079
 20
-20.165270339
 10
-64.199448144
 20
-20.2810311489
 10
-64.1304421661
 20
-20.3987790285
 10
-64.0644330655
 20
-20.5185017157
 10
-64.0018298705
 20
-20.6394573436
 10
-63.9426537297
 20
-20.7616535679
 10
-63.8868834944
 20
-20.8850827329
 10
-63.8348647474
 20
-21.0089800043
 10
-63.7866207831
 20
-21.1333482889
 10
-63.7421283071
 20
-21.2581846798
 10
-63.701663019
 20
-21.3827156231
 10
-63.665249925
 20
-21.506939222
 10
-63.6328640189
 20
-21.6308573732
 10
-63.6047059814
 20
-21.7537022125
 10
-63.5808020648
 20
-21.8754670752
 10
-63.5611260168
 20
-21.9961586259
 10
-63.5457997608
 20
-22.1150289942
 10
-63.534863938
 20
-22.2318288899
 10
-63.5282779073
 20
-22.3468076032
 10
-63.5260416687
 20
-22.4599651341
  0
LWPOLYLINE
  5
273
100
AcDbEntity
  8
0
100
AcDbPolyline
 62
7
  6
CONTINUOUS
 90
53
 70
0
 10
-64.1472964272
 20
-23.8331637779
 10
-64.199448144
 20
-23.8612662011
 10
-64.2714696079
 20
-23.8938584297
 10
-64.3464879491
 20
-23.9210151319
 10
-64.4240383132
 20
-23.9425680301
 10
-64.5041364224
 20
-23.9584823281
 10
-64.5867665546
 20
-23.9687928222
 10
-64.6714166883
 20
-23.9734356227
 10
-64.7580993667
 20
-23.972375537
 10
-64.8468020467
 20
-23.9656477578
 10
-64.9369750783
 20
-23.9532939742
 10
-65.0286275915
 20
-23.9352792521
 10
-65.1217504562
 20
-23.9116385255
 10
-65.2157666327
 20
-23.8825182853
 10
-65.3106816678
 20
-23.847884507
 10
-65.4064900146
 20
-23.807771215
 10
-65.5025979925
 20
-23.7624269731
 10
-65.5990074619
 20
-23.7118193004
 10
-65.6957165625
 20
-23.6559806778
 10
-65.792126032
 20
-23.5952571118
 10
-65.8882340099
 20
-23.5296182698
 10
-65.9840423566
 20
-23.4590944844
 10
-66.0789573917
 20
-23.3841227593
 10
-66.1729735682
 20
-23.3046754756
 10
-66.266096433
 20
-23.2207802521
 10
-66.3577489462
 20
-23.1329569493
 10
-66.4479219778
 20
-23.0411811764
 10
-66.5366246578
 20
-22.9454773241
 10
-66.6233073361
 20
-22.8464384256
 10
-66.7079574699
 20
-22.7440437724
 10
-66.790587602
 20
-22.638314073
 10
-66.8706857113
 20
-22.5299044861
 10
-66.9482360754
 20
-22.4187983714
 10
-67.0232544166
 20
-22.3050123691
 10
-67.0952758805
 20
-22.1892515593
 10
-67.1642818584
 20
-22.0715036796
 10
-67.2302909589
 20
-21.9517809924
 10
-67.2928941539
 20
-21.8308253646
 10
-67.3520702948
 20
-21.7086291402
 10
-67.40784053
 20
-21.5851999753
 10
-67.459859277
 20
-21.4613027038
 10
-67.5081032413
 20
-21.3369344193
 10
-67.5525957173
 20
-21.2120980283
 10
-67.5930610054
 20
-21.087567085
 10
-67.6294740994
 20
-20.9633434861
 10
-67.6618600055
 20
-20.8394253349
 10
-67.690018043
 20
-20.7165804956
 10
-67.7139219596
 20
-20.5948156329
 10
-67.7335980076
 20
-20.4741240822
 10
-67.7489242636
 20
-20.3552537139
 10
-67.7598600864
 20
-20.2384538182
 10
-67.7664461171
 20
-20.1234751049
 10
-67.7686823558
 20
-20.0103175741
  0
LWPOLYLINE
  5
274
100
AcDbEntity
  8
0
100
AcDbPolyline
 62
7
  6
CONTINUOUS
 90
15
 70
0
 10
-2.2799335759
 20
-66.1973277934
 10
-2.2736360145
 20
-66.2445508428
 10
-2.2659862037
 20
-66.2904020964
 10
-2.2569395686
 20
-66.3347132196
 10
-2.2465406841
 20
-66.3776525469
 10
-2.2349232757
 20
-66.4197250818
 10
-2.2221426461
 20
-66.4609572437
 10
-2.2081434925
 20
-66.5013226132
 10
-2.1928936317
 20
-66.5412469362
 10
-2.1764439317
 20
-66.5807450543
 10
-2.1587435246
 20
-66.6198021259
 10
-2.1396076237
 20
-66.6587993726
 10
-2.1189746335
 20
-66.6978638681
 10
-2.0969061497
 20
-66.7368685386
 10
-2.0734021721
 20
-66.7758133842
  0
LWPOLYLINE
  5
275
100
AcDbEntity
  8
0
100
AcDbPolyline
 62
7
  6
CONTINUOUS
 90
15
 70
0
 10
-0.6043171802
 20
-67.1648078839
 10
-0.5980195535
 20
-67.2120311167
 10
-0.5903696874
 20
-67.2578825095
 10
-0.5813230067
 20
-67.3021937215
 10
-0.5709240865
 20
-67.3451330937
 10
-0.5593066525
 20
-67.3872056483
 10
-0.5465260081
 20
-67.4284378068
 10
-0.5325268498
 20
-67.4688031477
 10
-0.5172769931
 20
-67.5087274296
 10
-0.5008273063
 20
-67.5482254945
 10
-0.483126921
 20
-67.5872825002
 10
-0.4639910475
 20
-67.6262796782
 10
-0.4433580892
 20
-67.6653441056
 10
-0.4212896428
 20
-67.7043487052
 10
-0.3977857081
 20
-67.7432934771
  0
LINE
  5
276
100
AcDbEntity
  8
0
100
AcDbLine
 62
7
  6
CONTINUOUS
 10
-0.6092625675
 20
-67.1162128111
 11
-0.6043171802
 21
-67.1648078839
  0
LINE
  5
277
100
AcDbEntity
  8
0
100
AcDbLine
 62
7
  6
CONTINUOUS
 10
-1.1989254925
 20
-3.4766391106
 11
-1.4964399635
 21
0.3688108362
  0
LINE
  5
278
100
AcDbEntity
  8
0
100
AcDbLine
 62
7
  6
CONTINUOUS
 10
-1.1635701534
 20
-3.4562253809
 11
-1.4610846245
 21
0.3892245658
  0
LINE
  5
279
100
AcDbEntity
  8
0
100
AcDbLine
 62
7
  6
CONTINUOUS
 10
-1.9850606488
 20
-0.6338976233
 11
-1.8486144959
 21
-3.1015168225
  0
LWPOLYLINE
  5
27A
100
AcDbEntity
  8
0
100
AcDbPolyline
 62
7
  6
CONTINUOUS
 90
16
 70
0
 10
-0.8549412342
 20
-66.7824124748
 10
-0.8562462901
 20
-66.7299277077
 10
-0.8593118263
 20
-66.6787966597
 10
-0.8641378427
 20
-66.629019331
 10
-0.8707976619
 20
-66.5807827572
 10
-0.8792179614
 20
-66.5338999027
 10
-0.8891787735
 20
-66.4878096599
 10
-0.9006051523
 20
-66.4424887661
 10
-0.9135720438
 20
-66.397960484
 10
-0.9280843172
 20
-66.3537334941
 10
-0.9440740845
 20
-66.309797971
 10
-0.9616092338
 20
-66.26616374
 10
-0.9808982987
 20
-66.2223689578
 10
-1.0020107904
 20
-66.1782596766
 10
-1.0248771977
 20
-66.1339898441
 10
-1.0494975207
 20
-66.0895594604
  0
LWPOLYLINE
  5
27B
100
AcDbEntity
  8
0
100
AcDbPolyline
 62
7
  6
CONTINUOUS
 90
16
 70
0
 10
0.8206753434
 20
-67.7498924864
 10
0.819370297
 20
-67.6974079936
 10
0.8163047685
 20
-67.6462771619
 10
0.8114787578
 20
-67.5964999913
 10
0.8048189439
 20
-67.5482635085
 10
0.7963986479
 20
-67.5013806867
 10
0.7864378333
 20
-67.4552904456
 10
0.7750114442
 20
-67.4099695255
 10
0.7620445365
 20
-67.3654411859
 10
0.7475322421
 20
-67.3212141259
 10
0.7315424475
 20
-67.2772785209
 10
0.714007266
 20
-67.2336441955
 10
0.6947181697
 20
-67.1898493217
 10
0.6736056492
 20
-67.1457399572
 10
0.6507392138
 20
-67.1014700443
 10
0.6261188636
 20
-67.0570395832
  0
LWPOLYLINE
  5
27C
100
AcDbEntity
  8
0
100
AcDbPolyline
 62
7
  6
CONTINUOUS
 90
10
 70
0
 10
-2.540855526
 20
-64.8832174426
 10
-2.5418709345
 20
-64.8402334732
 10
-2.5445002712
 20
-64.7975660399
 10
-2.5487435359
 20
-64.7552151427
 10
-2.5546283899
 20
-64.7132732056
 10
-2.562127172
 20
-64.6716478046
 10
-2.5711568986
 20
-64.6300616677
 10
-2.5816899083
 20
-64.5884223709
 10
-2.5937538626
 20
-64.5468223382
 10
-2.6073487613
 20
-64.5052615696
  0
LWPOLYLINE
  5
27D
100
AcDbEntity
  8
0
100
AcDbPolyline
 62
7
  6
CONTINUOUS
 90
10
 70
0
 10
-2.4984291191
 20
-64.858720967
 10
-2.4994442485
 20
-64.8156917562
 10
-2.5020806491
 20
-64.7729664735
 10
-2.506338321
 20
-64.7305451187
 10
-2.512254623
 20
-64.6884882246
 10
-2.5197921963
 20
-64.6467352585
 10
-2.5288389638
 20
-64.6051046222
 10
-2.5393575665
 20
-64.563535783
 10
-2.5513853634
 20
-64.5220892736
 10
-2.5649223544
 20
-64.480765094
  0
LWPOLYLINE
  5
27E
100
AcDbEntity
  8
0
100
AcDbPolyline
 62
7
  6
CONTINUOUS
 90
16
 70
0
 10
-0.8125148273
 20
-66.7579159992
 10
-0.8137164932
 20
-66.7061140691
 10
-0.8167461603
 20
-66.6552815616
 10
-0.8216038285
 20
-66.6054184767
 10
-0.8283849188
 20
-66.5565234386
 10
-0.8369940102
 20
-66.5085978231
 10
-0.8471448402
 20
-66.4616457579
 10
-0.858757233
 20
-66.4158399533
 10
-0.8719113643
 20
-66.3710076991
 10
-0.8865614988
 20
-66.3266349922
 10
-0.902644828
 20
-66.2826971003
 10
-0.9202241605
 20
-66.2392187557
 10
-0.9394421863
 20
-66.1957601525
 10
-0.9603464688
 20
-66.1521746886
 10
-0.9828894446
 20
-66.1086089661
 10
-1.0070711138
 20
-66.0650629848
  0
LWPOLYLINE
  5
27F
100
AcDbEntity
  8
0
100
AcDbPolyline
 62
7
  6
CONTINUOUS
 90
16
 70
0
 10
0.8631017503
 20
-67.7253960108
 10
0.8619000916
 20
-67.6735943162
 10
0.858870428
 20
-67.6227619896
 10
0.8540127594
 20
-67.5728990309
 10
0.8472316641
 20
-67.5240040504
 10
0.838622564
 20
-67.4760784379
 10
0.8284717238
 20
-67.4291263626
 10
0.816859321
 20
-67.3833205499
 10
0.8037051782
 20
-67.3384882744
 10
0.7890550279
 20
-67.2941155301
 10
0.7729716759
 20
-67.2501775775
 10
0.7553923163
 20
-67.206699156
 10
0.7361742645
 20
-67.1632404771
 10
0.7152699587
 20
-67.1196549446
 10
0.6927269607
 20
-67.0760891548
 10
0.6685452705
 20
-67.0325431076
  0
LINE
  5
280
100
AcDbEntity
  8
0
100
AcDbLine
 62
7
  6
CONTINUOUS
 10
-6.2503923926
 20
-60.8372639928
 11
-6.2503923926
 21
-69.0019667607
  0
LINE
  5
281
100
AcDbEntity
  8
0
100
AcDbLine
 62
7
  6
CONTINUOUS
 10
-6.2079659857
 20
-60.8617604684
 11
-6.2079659857
 21
-68.9774702851
  0
LINE
  5
282
100
AcDbEntity
  8
0
100
AcDbLine
 62
7
  6
CONTINUOUS
 10
-5.4472520252
 20
2.6501806523
 11
-5.4472520252
 21
-1.0237086146
  0
LINE
  5
283
100
AcDbEntity
  8
0
100
AcDbLine
 62
7
  6
CONTINUOUS
 10
-4.9755745378
 20
-62.7572097462
 11
-4.9755745378
 21
-65.2474440905
  0
LINE
  5
284
100
AcDbEntity
  8
0
100
AcDbLine
 62
7
  6
CONTINUOUS
 10
-4.783128851
 20
-1.4071650119
 11
-4.783128851
 21
2.2667242549
  0
LINE
  5
285
100
AcDbEntity
  8
0
100
AcDbLine
 62
7
  6
CONTINUOUS
 10
-4.747773512
 20
-1.3867512823
 11
-4.747773512
 21
2.2871379846
  0
LINE
  5
286
100
AcDbEntity
  8
0
100
AcDbLine
 62
7
  6
CONTINUOUS
 10
-4.6901754414
 20
-65.4122299518
 11
-4.6901754414
 21
-62.9219956076
  0
LINE
  5
287
100
AcDbEntity
  8
0
100
AcDbLine
 62
7
  6
CONTINUOUS
 10
-4.6477490345
 20
-65.3877334762
 11
-4.6477490345
 21
-62.897499132
  0
LINE
  5
288
100
AcDbEntity
  8
0
100
AcDbLine
 62
7
  6
CONTINUOUS
 10
-4.1870492275
 20
-63.2124943779
 11
-4.1870492275
 21
-65.7027287221
  0
LINE
  5
289
100
AcDbEntity
  8
0
100
AcDbLine
 62
7
  6
CONTINUOUS
 10
-3.9016500989
 20
-65.867514602
 11
-3.9016500989
 21
-64.855113713
  0
LINE
  5
28A
100
AcDbEntity
  8
0
100
AcDbLine
 62
7
  6
CONTINUOUS
 10
-3.9016500989
 20
-64.5612456495
 11
-3.9016500989
 21
-63.6711483212
  0
LINE
  5
28B
100
AcDbEntity
  8
0
100
AcDbLine
 62
7
  6
CONTINUOUS
 10
-3.8592236921
 20
-65.8430181264
 11
-3.8592236921
 21
-64.8796101886
  0
LINE
  5
28C
100
AcDbEntity
  8
0
100
AcDbLine
 62
7
  6
CONTINUOUS
 10
-3.8592236921
 20
-64.5367491739
 11
-3.8592236921
 21
-63.6956447968
  0
LINE
  5
28D
100
AcDbEntity
  8
0
100
AcDbLine
 62
7
  6
CONTINUOUS
 10
-0.9564490739
 20
-65.4039449988
 11
-0.9564490739
 21
-65.1117755629
  0
LINE
  5
28E
100
AcDbEntity
  8
0
100
AcDbLine
 62
7
  6
CONTINUOUS
 10
-0.914022667
 20
-65.3794485232
 11
-0.914022667
 21
-65.0872790873
  0
LINE
  5
28F
100
AcDbEntity
  8
0
100
AcDbLine
 62
7
  6
CONTINUOUS
 10
0.7191672466
 20
-66.3714248619
 11
0.7191672466
 21
-66.079255426
  0
LINE
  5
290
100
AcDbEntity
  8
0
100
AcDbLine
 62
7
  6
CONTINUOUS
 10
0.7615936535
 20
-66.3469283863
 11
0.7615936535
 21
-66.0547589504
  0
LWPOLYLINE
  5
291
100
AcDbEntity
  8
0
100
AcDbPolyline
 62
7
  6
CONTINUOUS
 90
12
 70
0
 10
-1.1359268638
 20
-66.6473534547
 10
-1.1375254925
 20
-66.6981583808
 10
-1.1409756357
 20
-66.7446793859
 10
-1.1462772934
 20
-66.7869164699
 10
-1.1535449512
 20
-66.824462973
 10
-1.1626641235
 20
-66.8577255551
 10
-1.1732913532
 20
-66.8879241952
 10
-1.1853149502
 20
-66.9152454319
 10
-1.1988466047
 20
-66.9395027267
 10
-1.2138779294
 20
-66.9613564431
 10
-1.2304061287
 20
-66.9810267024
 10
-1.2484339984
 20
-66.9982933834
  0
LWPOLYLINE
  5
292
100
AcDbEntity
  8
0
100
AcDbPolyline
 62
7
  6
CONTINUOUS
 90
12
 70
0
 10
-2.835081331
 20
-64.7235272126
 10
-2.8365112829
 20
-64.7629764746
 10
-2.839552154
 20
-64.7988104593
 10
-2.8442039443
 20
-64.8310291667
 10
-2.8505629203
 20
-64.8592829646
 10
-2.8585328155
 20
-64.8839214853
 10
-2.8678248308
 20
-64.9059936251
 10
-2.8783243704
 20
-64.9256820667
 10
-2.8901460301
 20
-64.9428041275
 10
-2.9033447976
 20
-64.9578606565
 10
-2.9179390021
 20
-64.9710186034
 10
-2.9339103144
 20
-64.9821110186
  0
LINE
  5
293
100
AcDbEntity
  8
0
100
AcDbLine
 62
7
  6
CONTINUOUS
 10
-3.7902604206
 20
-1.9804348001
 11
-3.6469433111
 21
0.3356519091
  0
LINE
  5
294
100
AcDbEntity
  8
0
100
AcDbLine
 62
7
  6
CONTINUOUS
 10
-3.7549050815
 20
-1.9600210704
 11
-3.6191414202
 21
0.2339975824
  0
LINE
  5
295
100
AcDbEntity
  8
0
100
AcDbLine
 62
7
  6
CONTINUOUS
 10
-4.1383309052
 20
1.8942055552
 11
-4.4256107127
 21
-1.6135915042
  0
LINE
  5
296
100
AcDbEntity
  8
0
100
AcDbLine
 62
7
  6
CONTINUOUS
 10
-0.1186162374
 20
-2.7995026123
 11
0.2120615417
 21
-1.6270873
  0
LINE
  5
297
100
AcDbEntity
  8
0
100
AcDbLine
 62
7
  6
CONTINUOUS
 10
-0.0832608984
 20
-2.7790888827
 11
0.2242774159
 21
-1.6887143502
  0
LINE
  5
298
100
AcDbEntity
  8
0
100
AcDbLine
 62
7
  6
CONTINUOUS
 10
-6.3573790628
 20
3.1754561502
 11
-6.9823744832
 21
1.007620781
  0
LINE
  5
299
100
AcDbEntity
  8
0
100
AcDbLine
 62
7
  6
CONTINUOUS
 10
-0.4377222141
 20
-3.9161483434
 11
-0.2544662993
 21
-3.2885627692
  0
LINE
  5
29A
100
AcDbEntity
  8
0
100
AcDbLine
 62
7
  6
CONTINUOUS
 10
-0.402366875
 20
-3.8957346137
 11
-0.2293126537
 21
-3.303086169
  0
LINE
  5
29B
100
AcDbEntity
  8
0
100
AcDbLine
 62
7
  6
CONTINUOUS
 10
-0.0966902704
 20
-0.4393870937
 11
-1.0946406773
 21
-3.5368518558
  0
LINE
  5
29C
100
AcDbEntity
  8
0
100
AcDbLine
 62
7
  6
CONTINUOUS
 10
-6.7164012172
 20
-0.2909177773
 11
-5.6937098511
 21
2.7922618651
  0
LINE
  5
29D
100
AcDbEntity
  8
0
100
AcDbLine
 62
7
  6
CONTINUOUS
 10
-6.6810458781
 20
-0.2705040476
 11
-5.6583545121
 21
2.8126755948
  0
LINE
  5
29E
100
AcDbEntity
  8
0
100
AcDbLine
 62
7
  6
CONTINUOUS
 10
-2.1535253039
 20
0.7482036765
 11
-2.817647771
 21
-0.9079728976
  0
LINE
  5
29F
100
AcDbEntity
  8
0
100
AcDbLine
 62
7
  6
CONTINUOUS
 10
-2.7747030548
 20
-2.5668048952
 11
-1.9850606488
 21
-0.6338976233
  0
LINE
  5
2A0
100
AcDbEntity
  8
0
100
AcDbLine
 62
7
  6
CONTINUOUS
 10
-2.7393477158
 20
-2.5463911655
 11
-1.9818399419
 21
-0.6921438841
  0
LINE
  5
2A1
100
AcDbEntity
  8
0
100
AcDbLine
 62
7
  6
CONTINUOUS
 10
-8.2749317381
 20
4.3234544917
 11
-8.3102870771
 21
4.303040762
  0
LINE
  5
2A2
100
AcDbEntity
  8
0
100
AcDbLine
 62
7
  6
CONTINUOUS
 10
-7.5534883669
 20
3.906902131
 11
-7.588843706
 21
3.8864884013
  0
LINE
  5
2A3
100
AcDbEntity
  8
0
100
AcDbLine
 62
7
  6
CONTINUOUS
 10
-6.3220237237
 20
3.1958698799
 11
-6.3573790628
 21
3.1754561502
  0
LINE
  5
2A4
100
AcDbEntity
  8
0
100
AcDbLine
 62
7
  6
CONTINUOUS
 10
-5.6583545121
 20
2.8126755948
 11
-5.6937098511
 21
2.7922618651
  0
LINE
  5
2A5
100
AcDbEntity
  8
0
100
AcDbLine
 62
7
  6
CONTINUOUS
 10
-5.4118966861
 20
2.6705943819
 11
-5.4472520252
 21
2.6501806523
  0
LINE
  5
2A6
100
AcDbEntity
  8
0
100
AcDbLine
 62
7
  6
CONTINUOUS
 10
-4.747773512
 20
2.2871379846
 11
-4.783128851
 21
2.2667242549
  0
LINE
  5
2A7
100
AcDbEntity
  8
0
100
AcDbLine
 62
7
  6
CONTINUOUS
 10
-4.1029755661
 20
1.9146192849
 11
-4.1383309052
 21
1.8942055552
  0
LINE
  5
2A8
100
AcDbEntity
  8
0
100
AcDbLine
 62
7
  6
CONTINUOUS
 10
-6.6810458781
 20
-0.2705040476
 11
-6.7164012172
 21
-0.2909177773
  0
LINE
  5
2A9
100
AcDbEntity
  8
0
100
AcDbLine
 62
7
  6
CONTINUOUS
 10
-3.4394018139
 20
1.5314801169
 11
-3.474757153
 21
1.5110663872
  0
LINE
  5
2AA
100
AcDbEntity
  8
0
100
AcDbLine
 62
7
  6
CONTINUOUS
 10
-2.1181699648
 20
0.7686174062
 11
-2.1535253039
 21
0.7482036765
  0
LINE
  5
2AB
100
AcDbEntity
  8
0
100
AcDbLine
 62
7
  6
CONTINUOUS
 10
-4.747773512
 20
-1.3867512823
 11
-4.783128851
 21
-1.4071650119
  0
LINE
  5
2AC
100
AcDbEntity
  8
0
100
AcDbLine
 62
7
  6
CONTINUOUS
 10
-1.4610846245
 20
0.3892245658
 11
-1.4964399635
 21
0.3688108362
  0
LINE
  5
2AD
100
AcDbEntity
  8
0
100
AcDbLine
 62
7
  6
CONTINUOUS
 10
-3.7549050815
 20
-1.9600210704
 11
-3.7902604206
 21
-1.9804348001
  0
LINE
  5
2AE
100
AcDbEntity
  8
0
100
AcDbLine
 62
7
  6
CONTINUOUS
 10
-0.0613349313
 20
-0.418973364
 11
-0.0966902704
 21
-0.4393870937
  0
LINE
  5
2AF
100
AcDbEntity
  8
0
100
AcDbLine
 62
7
  6
CONTINUOUS
 10
-2.7393477158
 20
-2.5463911655
 11
-2.7747030548
 21
-2.5668048952
  0
LINE
  5
2B0
100
AcDbEntity
  8
0
100
AcDbLine
 62
7
  6
CONTINUOUS
 10
0.5811246124
 20
-0.7899214526
 11
0.5457692734
 21
-0.8103351823
  0
LWPOLYLINE
  5
2B1
100
AcDbEntity
  8
0
100
AcDbPolyline
 62
7
  6
CONTINUOUS
 90
7
 70
0
 10
3.5079288054
 20
-4.4069877886
 10
3.51521405
 20
-4.4054605975
 10
3.5226498854
 20
-4.4036948374
 10
3.5302396083
 20
-4.4016831438
 10
3.5379799219
 20
-4.3994328811
 10
3.5458729655
 20
-4.3969018647
 10
3.5539203068
 20
-4.3940871641
  0
LWPOLYLINE
  5
2B2
100
AcDbEntity
  8
0
100
AcDbPolyline
 62
7
  6
CONTINUOUS
 90
11
 70
0
 10
3.0833309838
 20
-3.7818217594
 10
3.0591375542
 20
-3.7828763383
 10
3.0334832974
 20
-3.7817726078
 10
3.0063639734
 20
-3.7784626326
 10
2.9776161966
 20
-3.772828758
 10
2.9471596187
 20
-3.7648741781
 10
2.9150745879
 20
-3.7545956987
 10
2.8814387631
 20
-3.7418660826
 10
2.8462780305
 20
-3.7266429172
 10
2.809566504
 20
-3.7089686152
 10
2.7713041834
 20
-3.6888431763
  0
LWPOLYLINE
  5
2B3
100
AcDbEntity
  8
0
100
AcDbPolyline
 62
7
  6
CONTINUOUS
 90
14
 70
0
 10
3.4244075272
 20
-4.4095493076
 10
3.4302307668
 20
-4.4115100989
 10
3.4361420327
 20
-4.4129440862
 10
3.4421413249
 20
-4.4138512694
 10
3.4482221329
 20
-4.4141136326
 10
3.4543909671
 20
-4.4138491918
 10
3.4606673591
 20
-4.4134119947
 10
3.4670519438
 20
-4.4129025885
 10
3.4735440863
 20
-4.412220426
 10
3.4801614127
 20
-4.4114179141
 10
3.4869053394
 20
-4.4105305023
 10
3.4937744501
 20
-4.409522741
 10
3.5007821223
 20
-4.408340688
 10
3.5079288054
 20
-4.4069877886
  0
LINE
  5
2B4
100
AcDbEntity
  8
0
100
AcDbLine
 62
7
  6
CONTINUOUS
 10
2.3564090354
 20
-2.4816218108
 11
2.4189275221
 21
-2.5059738811
  0
LWPOLYLINE
  5
2B5
100
AcDbEntity
  8
0
100
AcDbPolyline
 62
7
  6
CONTINUOUS
 90
9
 70
0
 10
2.4189275221
 20
-2.5059738811
 10
2.4798731482
 20
-2.5317781188
 10
2.5392459136
 20
-2.559034524
 10
2.5965185127
 20
-2.5874715656
 10
2.6522182511
 20
-2.6173607747
 10
2.7079270461
 20
-2.6495167441
 10
2.7641722034
 20
-2.6842110048
 10
2.8204264172
 20
-2.7211720259
 10
2.8766896875
 20
-2.7603998073
  0
LINE
  5
2B6
100
AcDbEntity
  8
0
100
AcDbLine
 62
7
  6
CONTINUOUS
 10
-7.301660065
 20
0.0470033464
 11
-6.7164012172
 21
-0.2909177773
  0
LINE
  5
2B7
100
AcDbEntity
  8
0
100
AcDbLine
 62
7
  6
CONTINUOUS
 10
-5.4472520252
 20
-1.0237086146
 11
-4.783128851
 21
-1.4071650119
  0
LINE
  5
2B8
100
AcDbEntity
  8
0
100
AcDbLine
 62
7
  6
CONTINUOUS
 10
-4.4256107127
 20
-1.6135915042
 11
-3.7902604206
 21
-1.9804348001
  0
LINE
  5
2B9
100
AcDbEntity
  8
0
100
AcDbLine
 62
7
  6
CONTINUOUS
 10
-2.8678459885
 20
-2.5130253326
 11
-2.7747030548
 21
-2.5668048952
  0
LINE
  5
2BA
100
AcDbEntity
  8
0
100
AcDbLine
 62
7
  6
CONTINUOUS
 10
-1.8486144959
 20
-3.1015168225
 11
-1.1989254925
 21
-3.4766391106
  0
LINE
  5
2BB
100
AcDbEntity
  8
0
100
AcDbLine
 62
7
  6
CONTINUOUS
 10
-1.0946406773
 20
-3.5368518558
 11
-0.4377222141
 21
-3.9161483434
  0
LINE
  5
2BC
100
AcDbEntity
  8
0
100
AcDbLine
 62
7
  6
CONTINUOUS
 10
0.8220019516
 20
-4.6434972886
 11
1.5219605904
 21
-5.0476446341
  0
LINE
  5
2BD
100
AcDbEntity
  8
0
100
AcDbLine
 62
7
  6
CONTINUOUS
 10
1.7169794139
 20
-5.1602456512
 11
2.3784303608
 21
-5.5421591379
  0
LINE
  5
2BE
100
AcDbEntity
  8
0
100
AcDbLine
 62
7
  6
CONTINUOUS
 10
3.3954434004
 20
-6.1293697209
 11
4.0342527029
 21
-6.498210206
  0
LINE
  5
2BF
100
AcDbEntity
  8
0
100
AcDbLine
 62
7
  6
CONTINUOUS
 10
-0.2544662993
 20
-3.2885627692
 11
0.6499593362
 21
-3.8107667961
  0
LINE
  5
2C0
100
AcDbEntity
  8
0
100
AcDbLine
 62
7
  6
CONTINUOUS
 10
0.5172346863
 20
-3.1666349666
 11
-0.1186162374
 21
-2.7995026123
  0
LINE
  5
2C1
100
AcDbEntity
  8
0
100
AcDbLine
 62
7
  6
CONTINUOUS
 10
0.5080958047
 20
-3.1205308316
 11
-0.0832608984
 21
-2.7790888827
  0
LINE
  5
2C2
100
AcDbEntity
  8
0
100
AcDbLine
 62
7
  6
CONTINUOUS
 10
2.3784303608
 20
-4.1044883079
 11
2.7345173389
 21
-4.3100884663
  0
LINE
  5
2C3
100
AcDbEntity
  8
0
100
AcDbLine
 62
7
  6
CONTINUOUS
 10
2.7359488444
 20
-3.709256906
 11
2.3564090354
 21
-3.4901153771
  0
LINE
  5
2C4
100
AcDbEntity
  8
0
100
AcDbLine
 62
7
  6
CONTINUOUS
 10
2.7713041834
 20
-3.6888431763
 11
2.3917643745
 21
-3.4697016474
  0
LINE
  5
2C5
100
AcDbEntity
  8
0
100
AcDbLine
 62
7
  6
CONTINUOUS
 10
0.5457692734
 20
-0.8103351823
 11
-0.0966902704
 21
-0.4393870937
  0
LINE
  5
2C6
100
AcDbEntity
  8
0
100
AcDbLine
 62
7
  6
CONTINUOUS
 10
-1.4964399635
 20
0.3688108362
 11
-2.1535253039
 21
0.7482036765
  0
LINE
  5
2C7
100
AcDbEntity
  8
0
100
AcDbLine
 62
7
  6
CONTINUOUS
 10
-3.474757153
 20
1.5110663872
 11
-4.1383309052
 21
1.8942055552
  0
LINE
  5
2C8
100
AcDbEntity
  8
0
100
AcDbLine
 62
7
  6
CONTINUOUS
 10
-5.6937098511
 20
2.7922618651
 11
-6.3573790628
 21
3.1754561502
  0
LINE
  5
2C9
100
AcDbEntity
  8
0
100
AcDbLine
 62
7
  6
CONTINUOUS
 10
-7.588843706
 20
3.8864884013
 11
-8.3102870771
 21
4.303040762
  0
LINE
  5
2CA
100
AcDbEntity
  8
0
100
AcDbLine
 62
7
  6
CONTINUOUS
 10
-4.783128851
 20
2.2667242549
 11
-5.4472520252
 21
2.6501806523
  0
LINE
  5
2CB
100
AcDbEntity
  8
0
100
AcDbLine
 62
7
  6
CONTINUOUS
 10
0.5811246124
 20
-0.7899214526
 11
-0.0613349313
 21
-0.418973364
  0
LINE
  5
2CC
100
AcDbEntity
  8
0
100
AcDbLine
 62
7
  6
CONTINUOUS
 10
-1.4610846245
 20
0.3892245658
 11
-2.1181699648
 21
0.7686174062
  0
LINE
  5
2CD
100
AcDbEntity
  8
0
100
AcDbLine
 62
7
  6
CONTINUOUS
 10
-3.4394018139
 20
1.5314801169
 11
-4.1029755661
 21
1.9146192849
  0
LINE
  5
2CE
100
AcDbEntity
  8
0
100
AcDbLine
 62
7
  6
CONTINUOUS
 10
-5.6583545121
 20
2.8126755948
 11
-6.3220237237
 21
3.1958698799
  0
LINE
  5
2CF
100
AcDbEntity
  8
0
100
AcDbLine
 62
7
  6
CONTINUOUS
 10
-7.5534883669
 20
3.906902131
 11
-8.2749317381
 21
4.3234544917
  0
LINE
  5
2D0
100
AcDbEntity
  8
0
100
AcDbLine
 62
7
  6
CONTINUOUS
 10
-4.747773512
 20
2.2871379846
 11
-5.4118966861
 21
2.6705943819
  0
LWPOLYLINE
  5
2D1
100
AcDbEntity
  8
0
100
AcDbPolyline
 62
7
  6
CONTINUOUS
 90
19
 70
0
 10
2.7345173389
 20
-4.3100884663
 10
2.7614639266
 20
-4.3268170618
 10
2.7878165831
 20
-4.3451585232
 10
2.8135753083
 20
-4.3651128503
 10
2.8388462432
 20
-4.386789055
 10
2.863523247
 20
-4.4100781255
 10
2.8872878965
 20
-4.4346530265
 10
2.9099897288
 20
-4.460347039
 10
2.931779207
 20
-4.4873268819
 10
2.952789297
 20
-4.5157656769
 10
2.9730709199
 20
-4.5456158371
 10
2.9925731547
 20
-4.5769249493
 10
3.0112762041
 20
-4.6100088954
 10
3.0292339631
 20
-4.6449247748
 10
3.0463925367
 20
-4.681615488
 10
3.0625704418
 20
-4.7202256182
 10
3.0777071841
 20
-4.7608033597
 10
3.0918632581
 20
-4.8033005182
 10
3.1050386636
 20
-4.8477170936
  0
LWPOLYLINE
  5
2D2
100
AcDbEntity
  8
0
100
AcDbPolyline
 62
7
  6
CONTINUOUS
 90
22
 70
0
 10
2.8766896875
 20
-2.7603998073
 10
2.9069818856
 20
-2.7832139536
 10
2.9367367557
 20
-2.8079687436
 10
2.9659542978
 20
-2.8346641773
 10
2.9949818154
 20
-2.8637171761
 10
3.023472005
 20
-2.8947108186
 10
3.0503829558
 20
-2.9263943403
 10
3.0754281942
 20
-2.9585258422
 10
3.0988941938
 20
-2.9913472231
 10
3.1205984649
 20
-3.0243334153
 10
3.1404018347
 20
-3.0572385971
 10
3.1584434761
 20
-3.0903085901
 10
3.1749584184
 20
-3.1237557911
 10
3.1900502679
 20
-3.1576789705
 10
3.2036154185
 20
-3.1919793578
 10
3.2155780801
 20
-3.2265730386
 10
3.2259763473
 20
-3.2615760118
 10
3.2347721256
 20
-3.2968722785
 10
3.241775342
 20
-3.3320299272
 10
3.2469226387
 20
-3.3669049875
 10
3.2502773735
 20
-3.4016414298
 10
3.2518395464
 20
-3.4362392541
  0
LWPOLYLINE
  5
2D3
100
AcDbEntity
  8
0
100
AcDbPolyline
 62
7
  6
CONTINUOUS
 90
19
 70
0
 10
3.3912891894
 20
-2.4940740533
 10
3.3291038983
 20
-2.4340489038
 10
3.2634031764
 20
-2.3746378373
 10
3.1941870237
 20
-2.3158408538
 10
3.1213609623
 20
-2.2576196028
 10
3.0450194701
 20
-2.2000124348
 10
2.9654459808
 20
-2.1431344013
 10
2.8827577193
 20
-2.0870565189
 10
2.7968374606
 20
-2.0317077711
 10
2.7076169635
 20
-1.9769901593
 10
2.6150981617
 20
-1.9229152928
 10
2.5192791214
 20
-1.8694715623
 10
2.4200857999
 20
-1.816526141
 10
2.3175521504
 20
-1.7640335748
 10
2.2116442196
 20
-1.7120393178
 10
2.1021861048
 20
-1.6605469064
 10
1.9891191716
 20
-1.6095575194
 10
1.8725020543
 20
-1.5590699781
 10
1.752334753
 20
-1.5090842823
  0
LWPOLYLINE
  5
2D4
100
AcDbEntity
  8
0
100
AcDbPolyline
 62
7
  6
CONTINUOUS
 90
19
 70
0
 10
3.3559338503
 20
-2.5144877829
 10
3.2942728413
 20
-2.4549243752
 10
3.2290202807
 20
-2.395883241
 10
3.1601761686
 20
-2.3373643801
 10
3.0876518065
 20
-2.2793205101
 10
3.0115358928
 20
-2.2217989136
 10
2.932094523
 20
-2.1649414381
 10
2.8494034863
 20
-2.10880151
 10
2.7633869935
 20
-2.0533257029
 10
2.6740837723
 20
-1.9984955854
 10
2.5815581092
 20
-1.9443631091
 10
2.4857457177
 20
-1.8908763225
 10
2.3864924663
 20
-1.8378609396
 10
2.2837998382
 20
-1.7852522552
 10
2.1776663503
 20
-1.7331149745
 10
2.067933422
 20
-1.6814689269
 10
1.954548193
 20
-1.6303207222
 10
1.8375635237
 20
-1.5796637506
 10
1.7169794139
 20
-1.529498012
  0
LWPOLYLINE
  5
2D5
100
AcDbEntity
  8
0
100
AcDbPolyline
 62
7
  6
CONTINUOUS
 90
3
 70
0
 10
3.5054354964
 20
-4.4622428253
 10
3.4826691382
 20
-4.4354661157
 10
3.4620495172
 20
-4.4133017166
  0
LINE
  5
2D6
100
AcDbEntity
  8
0
100
AcDbLine
 62
7
  6
CONTINUOUS
 10
-3.6469433111
 20
0.3356519091
 11
-2.8678459885
 21
-2.5130253326
  0
LINE
  5
2D7
100
AcDbEntity
  8
0
100
AcDbLine
 62
7
  6
CONTINUOUS
 10
-2.817647771
 20
-0.9079728976
 11
-3.474757153
 21
1.5110663872
  0
LINE
  5
2D8
100
AcDbEntity
  8
0
100
AcDbLine
 62
7
  6
CONTINUOUS
 10
-2.7932646586
 20
-0.8471667338
 11
-3.4394018139
 21
1.5314801169
  0
LINE
  5
2D9
100
AcDbEntity
  8
0
100
AcDbLine
 62
7
  6
CONTINUOUS
 10
-8.3102870771
 20
4.303040762
 11
-7.301660065
 21
0.0470033464
  0
LINE
  5
2DA
100
AcDbEntity
  8
0
100
AcDbLine
 62
7
  6
CONTINUOUS
 10
1.5219605904
 20
-5.0476446341
 11
0.5457692734
 21
-0.8103351823
  0
LINE
  5
2DB
100
AcDbEntity
  8
0
100
AcDbLine
 62
7
  6
CONTINUOUS
 10
1.5573159294
 20
-5.0272309044
 11
0.5811246124
 21
-0.7899214526
  0
LINE
  5
2DC
100
AcDbEntity
  8
0
100
AcDbLine
 62
7
  6
CONTINUOUS
 10
-6.9823744832
 20
1.007620781
 11
-7.588843706
 21
3.8864884013
  0
LINE
  5
2DD
100
AcDbEntity
  8
0
100
AcDbLine
 62
7
  6
CONTINUOUS
 10
-6.9594613012
 20
1.0870965734
 11
-7.5534883669
 21
3.906902131
  0
LINE
  5
2DE
100
AcDbEntity
  8
0
100
AcDbLine
 62
7
  6
CONTINUOUS
 10
0.6499593362
 20
-3.8107667961
 11
0.8220019516
 21
-4.6434972886
  0
LINE
  5
2DF
100
AcDbEntity
  8
0
100
AcDbLine
 62
7
  6
CONTINUOUS
 10
0.2120615417
 20
-1.6270873
 11
0.5172346863
 21
-3.1666349666
  0
LINE
  5
2E0
100
AcDbEntity
  8
0
100
AcDbLine
 62
7
  6
CONTINUOUS
 10
1.7169794139
 20
-1.529498012
 11
1.7169794139
 21
-5.1602456512
  0
LINE
  5
2E1
100
AcDbEntity
  8
0
100
AcDbLine
 62
7
  6
CONTINUOUS
 10
2.2348889817
 20
-73.9012618806
 11
2.2348889817
 21
-65.7365591127
  0
LINE
  5
2E2
100
AcDbEntity
  8
0
100
AcDbLine
 62
7
  6
CONTINUOUS
 10
2.3564090354
 20
-3.4901153771
 11
2.3564090354
 21
-2.4816218108
  0
LINE
  5
2E3
100
AcDbEntity
  8
0
100
AcDbLine
 62
7
  6
CONTINUOUS
 10
2.3784303608
 20
-5.5421591379
 11
2.3784303608
 21
-4.1044883079
  0
LINE
  5
2E4
100
AcDbEntity
  8
0
100
AcDbLine
 62
7
  6
CONTINUOUS
 10
2.3917643745
 20
-3.4697016474
 11
2.3917643745
 21
-2.4953933486
  0
LINE
  5
2E5
100
AcDbEntity
  8
0
100
AcDbLine
 62
7
  6
CONTINUOUS
 10
2.4137856999
 20
-5.5217454083
 11
2.4137856999
 21
-4.1249020376
  0
LINE
  5
2E6
100
AcDbEntity
  8
0
100
AcDbLine
 62
7
  6
CONTINUOUS
 10
3.4244075272
 20
-4.4312574842
 11
3.4244075272
 21
-4.4095493076
  0
LWPOLYLINE
  5
2E7
100
AcDbEntity
  8
0
100
AcDbPolyline
 62
7
  6
CONTINUOUS
 90
14
 70
0
 10
3.2518395464
 20
-3.4362392541
 10
3.2515891021
 20
-3.4771410013
 10
3.2498417509
 20
-3.5153945195
 10
3.2465974927
 20
-3.5509998085
 10
3.2418181467
 20
-3.5839186319
 10
3.2355418938
 20
-3.6141892263
 10
3.2278832766
 20
-3.6419263006
 10
3.2188692181
 20
-3.6670076123
 10
3.2084727955
 20
-3.689555404
 10
3.1967277826
 20
-3.7100511124
 10
3.1835877637
 20
-3.7286538158
 10
3.1690991547
 20
-3.7452044358
 10
3.153434977
 20
-3.7597071747
 10
3.1367039418
 20
-3.7721858777
  0
LWPOLYLINE
  5
2E8
100
AcDbEntity
  8
0
100
AcDbPolyline
 62
7
  6
CONTINUOUS
 90
12
 70
0
 10
0.5396897138
 20
-67.6148334662
 10
0.5380910942
 20
-67.6656382036
 10
0.5346409577
 20
-67.7121590684
 10
0.5293393043
 20
-67.7543960604
 10
0.522071649
 20
-67.7919425313
 10
0.5129524768
 20
-67.8252051295
 10
0.5023252427
 20
-67.8554038003
 10
0.4903016346
 20
-67.8827250756
 10
0.4767699646
 20
-67.9069824234
 10
0.4617386239
 20
-67.9288361931
 10
0.4452104096
 20
-67.9485065011
 10
0.4271825247
 20
-67.965773231
  0
LINE
  5
2E9
100
AcDbEntity
  8
0
100
AcDbLine
 62
7
  6
CONTINUOUS
 10
-2.0289025071
 20
-64.4925543916
 11
-2.2378028518
 21
-65.6510283424
  0
LINE
  5
2EA
100
AcDbEntity
  8
0
100
AcDbLine
 62
7
  6
CONTINUOUS
 10
-1.9332790755
 20
-65.5092073336
 11
-1.8170597013
 21
-64.9070392086
  0
LINE
  5
2EB
100
AcDbEntity
  8
0
100
AcDbLine
 62
7
  6
CONTINUOUS
 10
-1.8908526686
 20
-65.484710858
 11
-1.7831409451
 21
-64.9266234733
  0
LWPOLYLINE
  5
2EC
100
AcDbEntity
  8
0
100
AcDbPolyline
 62
7
  6
CONTINUOUS
 90
57
 70
0
 10
3.6611710391
 20
-4.3384159605
 10
3.6700854128
 20
-4.3327572247
 10
3.6790935237
 20
-4.326676837
 10
3.6881953093
 20
-4.3201838205
 10
3.697390832
 20
-4.3132691522
 10
3.7066729197
 20
-4.3058303694
 10
3.7160472179
 20
-4.2978736377
 10
3.7255080811
 20
-4.2893927916
 10
3.7350314015
 20
-4.2802668715
 10
3.7446254426
 20
-4.270501612
 10
3.7542819408
 20
-4.2600912786
 10
3.7639519978
 20
-4.2488977079
 10
3.773645576
 20
-4.2369274944
 10
3.783352713
 20
-4.2241740437
 10
3.7929946228
 20
-4.2104794096
 10
3.8025805912
 20
-4.1958503048
 10
3.8121013324
 20
-4.1802800167
 10
3.8214502035
 20
-4.1635904604
 10
3.8306402671
 20
-4.1457880487
 10
3.8396584606
 20
-4.1268663689
 10
3.8483589537
 20
-4.1066280984
 10
3.8567536042
 20
-4.0850753057
 10
3.8648305543
 20
-4.0622059223
 10
3.8724084008
 20
-4.0378164199
 10
3.8794938243
 20
-4.011922192
 10
3.8860801442
 20
-3.9845078451
 10
3.8919659151
 20
-3.9553236705
 10
3.8971655403
 20
-3.9244138767
 10
3.9016646166
 20
-3.8917342551
 10
3.9052184882
 20
-3.8569024713
 10
3.9078565345
 20
-3.8199167124
 10
3.9095493761
 20
-3.7807787913
 10
3.9099642193
 20
-3.7391118117
 10
3.9091915082
 20
-3.6948161129
 10
3.9071407987
 20
-3.6479913557
 10
3.9032079652
 20
-3.5985596266
 10
3.8974150493
 20
-3.5463604025
 10
3.8897400094
 20
-3.4915542064
 10
3.8795125945
 20
-3.4345446938
 10
3.8665281654
 20
-3.3749154935
 10
3.8509913612
 20
-3.3130829767
 10
3.8328458489
 20
-3.2506999122
 10
3.8118116278
 20
-3.1876666209
 10
3.7881686984
 20
-3.1240827819
 10
3.7627007297
 20
-3.0619002021
 10
3.735385459
 20
-3.0014871899
 10
3.7062451489
 20
-2.9424754368
 10
3.6761302559
 20
-2.8857118242
 10
3.6450574029
 20
-2.8313410999
 10
3.613009967
 20
-2.7792185161
 10
3.5807885363
 20
-2.7297567107
 10
3.5484421236
 20
-2.6829307648
 10
3.515921716
 20
-2.6387655973
 10
3.4838808639
 20
-2.5977486029
 10
3.452537417
 20
-2.5600422466
 10
3.4216735255
 20
-2.5254840634
 10
3.3912891894
 20
-2.4940740533
  0
LINE
  5
2ED
100
AcDbEntity
  8
0
100
AcDbLine
 62
7
  6
CONTINUOUS
 10
3.1367039418
 20
-3.7721858777
 11
3.1274144399
 21
-3.7779476111
  0
LWPOLYLINE
  5
2EE
100
AcDbEntity
  8
0
100
AcDbPolyline
 62
7
  6
CONTINUOUS
 90
56
 70
0
 10
3.6147909064
 20
-4.3654445782
 10
3.6236709781
 20
-4.3601535378
 10
3.6330300568
 20
-4.3542582055
 10
3.6425237607
 20
-4.347945991
 10
3.6521338256
 20
-4.3411201024
 10
3.6618641659
 20
-4.3337879619
 10
3.6717108671
 20
-4.3259421474
 10
3.6816439213
 20
-4.3174636007
 10
3.6916692442
 20
-4.3083586329
 10
3.7017809201
 20
-4.2986209328
 10
3.7119311949
 20
-4.2881125095
 10
3.7221280396
 20
-4.2768427911
 10
3.7323634831
 20
-4.2648023495
 10
3.7425658581
 20
-4.2518249083
 10
3.7527451292
 20
-4.2379211063
 10
3.7628913319
 20
-4.2230803048
 10
3.7729029056
 20
-4.2071043117
 10
3.7827928234
 20
-4.1900045601
 10
3.7925481123
 20
-4.171769617
 10
3.8020282925
 20
-4.1521669912
 10
3.8112503272
 20
-4.1312100903
 10
3.8201972533
 20
-4.1088855068
 10
3.8286777012
 20
-4.0849205266
 10
3.836706219
 20
-4.0593238472
 10
3.8442682587
 20
-4.032086771
 10
3.8511288055
 20
-4.0029104913
 10
3.8573061181
 20
-3.971796625
 10
3.8627819379
 20
-3.938743555
 10
3.8672664744
 20
-3.9034476241
 10
3.8707749555
 20
-3.8659067212
 10
3.8732921532
 20
-3.8261229574
 10
3.8744825934
 20
-3.7837990079
 10
3.8744488144
 20
-3.7390022338
 10
3.8730882778
 20
-3.691665274
 10
3.8697578943
 20
-3.6412887208
 10
3.8644676329
 20
-3.5873903149
 10
3.8572075245
 20
-3.5304523157
 10
3.8473045723
 20
-3.4714220927
 10
3.8344196716
 20
-3.4097625494
 10
3.8188919271
 20
-3.3460107823
 10
3.8010656558
 20
-3.282725451
 10
3.7810282266
 20
-3.2207579152
 10
3.7586922706
 20
-3.1592568152
 10
3.7341399978
 20
-3.0982267311
 10
3.7071239195
 20
-3.0372302443
 10
3.6778915245
 20
-2.9767047735
 10
3.6472674888
 20
-2.9179671546
 10
3.6150199117
 20
-2.8609445647
 10
3.5813806939
 20
-2.8057098268
 10
3.5478702147
 20
-2.7537982455
 10
3.5148699988
 20
-2.7057474362
 10
3.4819985214
 20
-2.6610197836
 10
3.4496315873
 20
-2.6195377462
 10
3.417894465
 20
-2.5812754766
 10
3.3866618859
 20
-2.5462588222
 10
3.3559338503
 20
-2.5144877829
  0
LINE
  5
2EF
100
AcDbEntity
  8
0
100
AcDbLine
 62
7
  6
CONTINUOUS
 10
1.752334753
 20
-1.5090842823
 11
1.7169794139
 21
-1.529498012
  0
LINE
  5
2F0
100
AcDbEntity
  8
0
100
AcDbLine
 62
7
  6
CONTINUOUS
 10
-0.0832608984
 20
-2.7790888827
 11
-0.1186162374
 21
-2.7995026123
  0
LINE
  5
2F1
100
AcDbEntity
  8
0
100
AcDbLine
 62
7
  6
CONTINUOUS
 10
-1.1635701534
 20
-3.4562253809
 11
-1.1989254925
 21
-3.4766391106
  0
LINE
  5
2F2
100
AcDbEntity
  8
0
100
AcDbLine
 62
7
  6
CONTINUOUS
 10
-0.402366875
 20
-3.8957346137
 11
-0.4377222141
 21
-3.9161483434
  0
LINE
  5
2F3
100
AcDbEntity
  8
0
100
AcDbLine
 62
250
  6
CONTINUOUS
 10
3.3912891894
 20
-2.4940740533
 11
3.3559338503
 21
-2.5144877829
  0
LINE
  5
2F4
100
AcDbEntity
  8
0
100
AcDbLine
 62
7
  6
CONTINUOUS
 10
2.3917643745
 20
-3.4697016474
 11
2.3564090354
 21
-3.4901153771
  0
LINE
  5
2F5
100
AcDbEntity
  8
0
100
AcDbLine
 62
250
  6
CONTINUOUS
 10
2.7713041834
 20
-3.6888431763
 11
2.7359488444
 21
-3.709256906
  0
LINE
  5
2F6
100
AcDbEntity
  8
0
100
AcDbLine
 62
7
  6
CONTINUOUS
 10
1.5573159294
 20
-5.0272309044
 11
1.5219605904
 21
-5.0476446341
  0
LINE
  5
2F7
100
AcDbEntity
  8
0
100
AcDbLine
 62
7
  6
CONTINUOUS
 10
3.454580497
 20
-4.4138359896
 11
3.4244075272
 21
-4.4312574842
  0
LINE
  5
2F8
100
AcDbEntity
  8
0
100
AcDbLine
 62
7
  6
CONTINUOUS
 10
2.4137856999
 20
-5.5217454083
 11
2.3784303608
 21
-5.5421591379
  0
LINE
  5
2F9
100
AcDbEntity
  8
0
100
AcDbLine
 62
250
  6
CONTINUOUS
 10
3.8425712792
 20
-5.3524021791
 11
3.8072159402
 21
-5.3728159087
  0
LINE
  5
2FA
100
AcDbEntity
  8
RACCORDO
100
AcDbLine
 62
250
  6
CONTINUOUS
 10
71.8849069286
 20
32.8486955937
 11
70.1171399756
 21
31.8280091104
  0
LINE
  5
2FB
100
AcDbEntity
  8
0
100
AcDbLine
 62
7
  6
CONTINUOUS
 10
4.069608042
 20
-6.4777964763
 11
4.0342527029
 21
-6.498210206
  0
LWPOLYLINE
  5
2FC
100
AcDbEntity
  8
0
100
AcDbPolyline
 62
7
  6
CONTINUOUS
 90
15
 70
0
 10
3.1274144399
 20
-3.7779476111
 10
3.1187973379
 20
-3.7826166995
 10
3.0995620536
 20
-3.7909323064
 10
3.0791253463
 20
-3.7971508136
 10
3.0573599586
 20
-3.8012541058
 10
3.0337310057
 20
-3.803120504
 10
3.0080949206
 20
-3.8028177019
 10
2.9805952703
 20
-3.8002780057
 10
2.9511278712
 20
-3.7951766551
 10
2.9195410896
 20
-3.7874375219
 10
2.8859865592
 20
-3.7771367342
 10
2.8508149977
 20
-3.7641779163
 10
2.814143311
 20
-3.748528943
 10
2.7758545932
 20
-3.7302219396
 10
2.7359488444
 20
-3.709256906
  0
LWPOLYLINE
  5
2FD
100
AcDbEntity
  8
0
100
AcDbPolyline
 62
7
  6
CONTINUOUS
 90
53
 70
0
 10
60.1317930163
 20
21.362822745
 10
60.1839447331
 20
21.3909251682
 10
60.255966197
 20
21.4235173968
 10
60.3309845382
 20
21.450674099
 10
60.4085349023
 20
21.4722269971
 10
60.4886330116
 20
21.4881412952
 10
60.5712631437
 20
21.4984517892
 10
60.6559132775
 20
21.5030945898
 10
60.7425959558
 20
21.5020345041
 10
60.8312986358
 20
21.4953067249
 10
60.9214716674
 20
21.4829529412
 10
61.0131241806
 20
21.4649382192
 10
61.1062470454
 20
21.4412974926
 10
61.2002632218
 20
21.4121772523
 10
61.2951782569
 20
21.3775434741
 10
61.3909866037
 20
21.3374301821
 10
61.4870945816
 20
21.2920859402
 10
61.5835040511
 20
21.2414782675
 10
61.6802131516
 20
21.1856396449
 10
61.7766226211
 20
21.1249160788
 10
61.872730599
 20
21.0592772369
 10
61.9685389458
 20
20.9887534515
 10
62.0634539809
 20
20.9137817264
 10
62.1574701573
 20
20.8343344427
 10
62.2505930221
 20
20.7504392192
 10
62.3422455353
 20
20.6626159164
 10
62.4324185669
 20
20.5708401434
 10
62.5211212469
 20
20.4751362912
 10
62.6078039253
 20
20.3760973927
 10
62.692454059
 20
20.2737027395
 10
62.7750841911
 20
20.1679730401
 10
62.8551823004
 20
20.0595634532
 10
62.9327326645
 20
19.9484573384
 10
63.0077510057
 20
19.8346713362
 10
63.0797724696
 20
19.7189105264
 10
63.1487784475
 20
19.6011626467
 10
63.2147875481
 20
19.4814399595
 10
63.2773907431
 20
19.3604843316
 10
63.3365668839
 20
19.2382881073
 10
63.3923371192
 20
19.1148589423
 10
63.4443558662
 20
18.9909616709
 10
63.4925998305
 20
18.8665933863
 10
63.5370923065
 20
18.7417569954
 10
63.5775575946
 20
18.6172260521
 10
63.6139706885
 20
18.4930024532
 10
63.6463565946
 20
18.369084302
 10
63.6745146322
 20
18.2462394627
 10
63.6984185488
 20
18.1244746
 10
63.7180945968
 20
18.0037830493
 10
63.7334208528
 20
17.884912681
 10
63.7443566755
 20
17.7681127853
 10
63.7509427062
 20
17.653134072
 10
63.7531789449
 20
17.5399765412
  0
LWPOLYLINE
  5
2FE
100
AcDbEntity
  8
0
100
AcDbPolyline
 62
7
  6
CONTINUOUS
 90
4
 70
0
 10
3.1441288445
 20
-3.766648076
 10
3.127473308
 20
-3.7730677174
 10
3.1060593464
 20
-3.7785609359
 10
3.0833309838
 20
-3.7818217594
  0
LWPOLYLINE
  5
2FF
100
AcDbEntity
  8
0
100
AcDbPolyline
 62
7
  6
CONTINUOUS
 90
8
 70
0
 10
3.5539203068
 20
-4.3940871641
 10
3.562120378
 20
-4.3909917096
 10
3.5704706152
 20
-4.3875821085
 10
3.5789719938
 20
-4.3838586037
 10
3.5876235383
 20
-4.3798209523
 10
3.596419758
 20
-4.3754350321
 10
3.6053621728
 20
-4.3707123406
 10
3.6147909064
 20
-4.3654445782
  0
LWPOLYLINE
  5
300
100
AcDbEntity
  8
0
100
AcDbPolyline
 62
7
  6
CONTINUOUS
 90
5
 70
0
 10
3.1050386636
 20
-4.8477170936
 10
3.1279421657
 20
-4.940757206
 10
3.1509088647
 20
-5.0361651412
 10
3.1739387607
 20
-5.1339408992
 10
3.1968921207
 20
-5.2340001709
  0
LINE
  5
301
100
AcDbEntity
  8
0
100
AcDbLine
 62
7
  6
CONTINUOUS
 10
3.1968921207
 20
-5.2340001709
 11
3.3428026276
 21
-5.8886703221
  0
LINE
  5
302
100
AcDbEntity
  8
0
100
AcDbLine
 62
7
  6
CONTINUOUS
 10
3.3428026276
 20
-5.8886703221
 11
3.3954434004
 21
-6.1293697209
  0
LWPOLYLINE
  5
303
100
AcDbEntity
  8
0
100
AcDbPolyline
 62
7
  6
CONTINUOUS
 90
22
 70
0
 10
3.8860002598
 20
-5.7593403402
 10
3.7944523321
 20
-5.3096995576
 10
3.7813465078
 20
-5.2482156479
 10
3.767898467
 20
-5.1883641797
 10
3.7542224139
 20
-5.1300938017
 10
3.7402041443
 20
-5.0734558651
 10
3.7255010468
 20
-5.0186044241
 10
3.7100280023
 20
-4.965551423
 10
3.6938701298
 20
-4.9142849175
 10
3.6769401741
 20
-4.8649231288
 10
3.6591914935
 20
-4.8174381612
 10
3.6406707297
 20
-4.7718579102
 10
3.621430553
 20
-4.7283842838
 10
3.6014304194
 20
-4.6871141023
 10
3.5807108729
 20
-4.6479505454
 10
3.5594462149
 20
-4.6108050595
 10
3.5375594351
 20
-4.5756065362
 10
3.5151275439
 20
-4.5424260841
 10
3.4925558742
 20
-4.5113884756
 10
3.469979537
 20
-4.4825353015
 10
3.4472634213
 20
-4.4558249711
 10
3.4244075272
 20
-4.4312574842
  0
LWPOLYLINE
  5
304
100
AcDbEntity
  8
0
100
AcDbPolyline
 62
7
  6
CONTINUOUS
 90
20
 70
0
 10
3.921266561
 20
-5.7384833763
 10
3.8299682533
 20
-5.2900645019
 10
3.8170061345
 20
-5.229217587
 10
3.803684923
 20
-5.1698614343
 10
3.79012134
 20
-5.111935415
 10
3.7761986642
 20
-5.055500158
 10
3.7615667318
 20
-5.00073755
 10
3.7461347264
 20
-4.9476407563
 10
3.7299934645
 20
-4.8962166116
 10
3.7130652315
 20
-4.8466675076
 10
3.695313464
 20
-4.7989964775
 10
3.6767747254
 20
-4.7532004879
 10
3.6574809914
 20
-4.709472831
 10
3.6373638718
 20
-4.6678688476
 10
3.6164917567
 20
-4.6283331968
 10
3.5951017915
 20
-4.590893148
 10
3.5731470459
 20
-4.5555382089
 10
3.5506744502
 20
-4.5222788719
 10
3.5280619408
 20
-4.4911738833
 10
3.5054354964
 20
-4.4622428253
  0
LINE
  5
305
100
AcDbEntity
  8
0
100
AcDbLine
 62
7
  6
CONTINUOUS
 10
4.0342527029
 20
-6.498210206
 11
3.8860002598
 21
-5.7593403402
  0
LINE
  5
306
100
AcDbEntity
  8
0
100
AcDbLine
 62
7
  6
CONTINUOUS
 10
4.069608042
 20
-6.4777964763
 11
3.921266561
 21
-5.7384833763
  0
LINE
  5
307
100
AcDbEntity
  8
0
100
AcDbLine
 62
7
  6
CONTINUOUS
 10
-0.3532861866
 20
-65.4600342547
 11
-0.5621862741
 21
-66.6185083539
  0
LINE
  5
308
100
AcDbEntity
  8
0
100
AcDbLine
 62
7
  6
CONTINUOUS
 10
-0.2576624979
 20
-66.4766873451
 11
-0.1414433807
 21
-65.8745190716
  0
LINE
  5
309
100
AcDbEntity
  8
0
100
AcDbLine
 62
7
  6
CONTINUOUS
 10
-0.215236091
 20
-66.4521908695
 11
-0.1075246057
 21
-65.8941033472
  0
LWPOLYLINE
  5
30A
100
AcDbEntity
  8
0
100
AcDbPolyline
 62
7
  6
CONTINUOUS
 90
53
 70
0
 10
63.1319241864
 20
16.1667778973
 10
63.0797724696
 20
16.1386754741
 10
63.0077510057
 20
16.1060832455
 10
62.9327326645
 20
16.0789265433
 10
62.8551823004
 20
16.0573736451
 10
62.7750841911
 20
16.0414593471
 10
62.692454059
 20
16.0311488531
 10
62.6078039253
 20
16.0265060525
 10
62.5211212469
 20
16.0275661382
 10
62.4324185669
 20
16.0342939174
 10
62.3422455353
 20
16.046647701
 10
62.2505930221
 20
16.0646624231
 10
62.1574701573
 20
16.0883031497
 10
62.0634539809
 20
16.11742339
 10
61.9685389458
 20
16.1520571682
 10
61.872730599
 20
16.1921704602
 10
61.7766226211
 20
16.2375147021
 10
61.6802131516
 20
16.2881223748
 10
61.5835040511
 20
16.3439609974
 10
61.4870945816
 20
16.4046845634
 10
61.3909866037
 20
16.4703234054
 10
61.2951782569
 20
16.5408471908
 10
61.2002632218
 20
16.6158189159
 10
61.1062470454
 20
16.6952661996
 10
61.0131241806
 20
16.7791614231
 10
60.9214716674
 20
16.8669847259
 10
60.8312986358
 20
16.9587604989
 10
60.7425959558
 20
17.0544643511
 10
60.6559132775
 20
17.1535032496
 10
60.5712631437
 20
17.2558979028
 10
60.4886330116
 20
17.3616276022
 10
60.4085349023
 20
17.4700371891
 10
60.3309845382
 20
17.5811433039
 10
60.255966197
 20
17.6949293061
 10
60.1839447331
 20
17.8106901159
 10
60.1149387552
 20
17.9284379956
 10
60.0489296546
 20
18.0481606828
 10
59.9863264597
 20
18.1691163106
 10
59.9271503188
 20
18.291312535
 10
59.8713800835
 20
18.4147417
 10
59.8193613366
 20
18.5386389714
 10
59.7711173723
 20
18.6630072559
 10
59.7266248963
 20
18.7878436469
 10
59.6861596081
 20
18.9123745902
 10
59.6497465142
 20
19.0365981891
 10
59.6173606081
 20
19.1605163403
 10
59.5892025705
 20
19.2833611796
 10
59.565298654
 20
19.4051260423
 10
59.5456226059
 20
19.525817593
 10
59.53029635
 20
19.6446879613
 10
59.5193605272
 20
19.761487857
 10
59.5127744965
 20
19.8764665703
 10
59.5105382578
 20
19.9896241011
  0
LINE
  5
30B
100
AcDbEntity
  8
RACCORDO
100
AcDbLine
 62
250
  6
CONTINUOUS
 10
78.9559747404
 20
20.6012468925
 11
77.1882077875
 21
19.5805604092
  0
LWPOLYLINE
  5
30C
100
AcDbEntity
  8
0
100
AcDbPolyline
 62
7
  6
CONTINUOUS
 90
21
 70
0
 10
-63.7934719713
 20
92.3736818874
 10
-63.8389713774
 20
92.4148085798
 10
-63.8997843481
 20
92.4740272711
 10
-63.9593549015
 20
92.536360182
 10
-64.0175021239
 20
92.6016180093
 10
-64.0740494241
 20
92.6696025674
 10
-64.1288250697
 20
92.7401073893
 10
-64.1816627089
 20
92.8129183541
 10
-64.2324018756
 20
92.8878143375
 10
-64.2808884765
 20
92.9645678826
 10
-64.3269752595
 20
93.0429458916
 10
-64.3705222605
 20
93.122710333
 10
-64.4113972287
 20
93.2036189649
 10
-64.4494760281
 20
93.2854260702
 10
-64.4846430148
 20
93.3678832037
 10
-64.5167913876
 20
93.4507399456
 10
-64.5458235132
 20
93.5337446628
 10
-64.5716512217
 20
93.6166452727
 10
-64.5941960755
 20
93.6991900087
 10
-64.6133896064
 20
93.7811281854
 10
-64.6170065228
 20
93.7997084654
  0
LWPOLYLINE
  5
30D
100
AcDbEntity
  8
0
100
AcDbPolyline
 62
7
  6
CONTINUOUS
 90
13
 70
0
 10
-2.6536562534
 20
-65.2652587761
 10
-2.6360991937
 20
-65.2439258666
 10
-2.620176601
 20
-65.2210192574
 10
-2.6057056926
 20
-65.1963938204
 10
-2.5926338207
 20
-65.1701109584
 10
-2.5810136332
 20
-65.1421092685
 10
-2.5708202899
 20
-65.1120594149
 10
-2.5619980575
 20
-65.0800320905
 10
-2.5546026694
 20
-65.0459566024
 10
-2.5487764862
 20
-65.0092915351
 10
-2.5445669613
 20
-64.9698564167
 10
-2.5419266412
 20
-64.9278317192
 10
-2.540855526
 20
-64.8832174426
  0
LWPOLYLINE
  5
30E
100
AcDbEntity
  8
0
100
AcDbPolyline
 62
7
  6
CONTINUOUS
 90
5
 70
0
 10
-1.989181981
 20
-65.831949392
 10
-1.9766882275
 20
-65.8171586903
 10
-1.9629147025
 20
-65.8038055078
 10
-1.9478614059
 20
-65.7918898443
 10
-1.9314154992
 20
-65.781238316
  0
LWPOLYLINE
  5
30F
100
AcDbEntity
  8
0
100
AcDbPolyline
 62
7
  6
CONTINUOUS
 90
5
 70
0
 10
-0.3135654034
 20
-66.7994294035
 10
-0.3010717846
 20
-66.7846387152
 10
-0.2872983676
 20
-66.7712855358
 10
-0.2722451523
 20
-66.7593698655
 10
-0.2557989197
 20
-66.7487180907
  0
LWPOLYLINE
  5
310
100
AcDbEntity
  8
0
100
AcDbPolyline
 62
7
  6
CONTINUOUS
 90
4
 70
0
 10
-1.9467555741
 20
-65.8074529164
 10
-1.9341389248
 20
-65.7925545771
 10
-1.9202607191
 20
-65.7791262075
 10
-1.9090875498
 20
-65.7703008886
  0
LWPOLYLINE
  5
311
100
AcDbEntity
  8
0
100
AcDbPolyline
 62
7
  6
CONTINUOUS
 90
4
 70
0
 10
-0.2711389965
 20
-66.7749329279
 10
-0.2585224757
 20
-66.7600345949
 10
-0.2446443712
 20
-66.7466062232
 10
-0.2334710107
 20
-66.7377807025
  0
LWPOLYLINE
  5
312
100
AcDbEntity
  8
0
100
AcDbPolyline
 62
7
  6
CONTINUOUS
 90
12
 70
0
 10
-0.9982405088
 20
-67.2432918543
 10
-0.973803932
 20
-67.2150885778
 10
-0.9517008215
 20
-67.1844819282
 10
-0.9319833198
 20
-67.1516117253
 10
-0.9145992844
 20
-67.1163381494
 10
-0.8993922883
 20
-67.0782417411
 10
-0.8862588574
 20
-67.0374468439
 10
-0.8753024657
 20
-66.9938291142
 10
-0.8666771081
 20
-66.9465960615
 10
-0.8604341161
 20
-66.8954835223
 10
-0.8565221581
 20
-66.8407556601
 10
-0.8549412342
 20
-66.7824124748
  0
LWPOLYLINE
  5
313
100
AcDbEntity
  8
0
100
AcDbPolyline
 62
7
  6
CONTINUOUS
 90
12
 70
0
 10
0.6773760688
 20
-68.2107718658
 10
0.7018126457
 20
-68.1825685893
 10
0.7239157562
 20
-68.1519619397
 10
0.7436332579
 20
-68.1190917369
 10
0.7610172932
 20
-68.083818161
 10
0.7762242893
 20
-68.0457217526
 10
0.7893577202
 20
-68.0049268554
 10
0.8003141119
 20
-67.9613091257
 10
0.8089394695
 20
-67.914076073
 10
0.8151824615
 20
-67.8629635338
 10
0.8190944195
 20
-67.8082356716
 10
0.8206753434
 20
-67.7498924864
  0
LWPOLYLINE
  5
314
100
AcDbEntity
  8
0
100
AcDbPolyline
 62
7
  6
CONTINUOUS
 90
13
 70
0
 10
-0.9825841452
 20
-67.2445952822
 10
-0.955611588
 20
-67.218575724
 10
-0.9310108887
 20
-67.1901216908
 10
-0.9087820474
 20
-67.1592331826
 10
-0.8889697928
 20
-67.1259930814
 10
-0.8715293962
 20
-67.0903185051
 10
-0.8563266716
 20
-67.0519608078
 10
-0.8432916402
 20
-67.0110984331
 10
-0.8324942809
 20
-66.9675529374
 10
-0.8240103448
 20
-66.9205403438
 10
-0.8178650824
 20
-66.8697993268
 10
-0.8140332432
 20
-66.8155912119
 10
-0.8125148273
 20
-66.7579159992
  0
LINE
  5
315
100
AcDbEntity
  8
0
100
AcDbLine
 62
7
  6
CONTINUOUS
 10
-1.0250105521
 20
-67.2690917578
 11
-0.9982405088
 21
-67.2432918543
  0
LWPOLYLINE
  5
316
100
AcDbEntity
  8
0
100
AcDbPolyline
 62
7
  6
CONTINUOUS
 90
15
 70
0
 10
-2.6512896281
 20
-65.278786138
 10
-2.6302960569
 20
-65.260432242
 10
-2.6109098979
 20
-65.2404022718
 10
-2.5931561299
 20
-65.2186896951
 10
-2.577009774
 20
-65.1953010444
 10
-2.5623958941
 20
-65.1702559165
 10
-2.5493139838
 20
-65.143650886
 10
-2.5377645495
 20
-65.1153893783
 10
-2.5276741735
 20
-65.085201267
 10
-2.5189886126
 20
-65.0531577211
 10
-2.5117621101
 20
-65.0191875716
 10
-2.5060839783
 20
-64.9828071848
 10
-2.5019839879
 20
-64.9438553495
 10
-2.4994323682
 20
-64.9024932769
 10
-2.4984291191
 20
-64.858720967
  0
LWPOLYLINE
  5
317
100
AcDbEntity
  8
0
100
AcDbPolyline
 62
7
  6
CONTINUOUS
 90
21
 70
0
 10
62.6622140908
 20
-93.1790868078
 10
62.6658310072
 20
-93.1976670878
 10
62.6850245381
 20
-93.2796052644
 10
62.7075693918
 20
-93.3621500005
 10
62.7333971004
 20
-93.4450506104
 10
62.7624292259
 20
-93.5280553276
 10
62.7945775988
 20
-93.6109120695
 10
62.8297445854
 20
-93.693369203
 10
62.8678233849
 20
-93.7751763083
 10
62.9086983531
 20
-93.8560849402
 10
62.9522453541
 20
-93.9358493816
 10
62.9983321371
 20
-94.0142273906
 10
63.046818738
 20
-94.0909809357
 10
63.0975579047
 20
-94.1658769191
 10
63.1503955439
 20
-94.2386878839
 10
63.2051711895
 20
-94.3091927058
 10
63.2617184896
 20
-94.3771772639
 10
63.319865712
 20
-94.4424350912
 10
63.3794362655
 20
-94.5047680021
 10
63.4402492362
 20
-94.5639866933
 10
63.4857486423
 20
-94.6051133858
  0
LWPOLYLINE
  5
318
100
AcDbEntity
  8
0
100
AcDbPolyline
 62
7
  6
CONTINUOUS
 90
13
 70
0
 10
0.6930324324
 20
-68.2120752937
 10
0.7200049897
 20
-68.1860557355
 10
0.7446056889
 20
-68.1576017023
 10
0.7668345302
 20
-68.1267131941
 10
0.7866467848
 20
-68.0934730929
 10
0.8040871815
 20
-68.0577985166
 10
0.819289906
 20
-68.0194408193
 10
0.8323249374
 20
-67.9785784446
 10
0.8431222968
 20
-67.9350329489
 10
0.8516062328
 20
-67.8880203553
 10
0.8577514953
 20
-67.8372793383
 10
0.8615833344
 20
-67.7830712234
 10
0.8631017503
 20
-67.7253960108
  0
LINE
  5
319
100
AcDbEntity
  8
0
100
AcDbLine
 62
7
  6
CONTINUOUS
 10
0.6506060255
 20
-68.2365717693
 11
0.6773760688
 21
-68.2107718658
  0
LINE
  5
31A
100
AcDbEntity
  8
0
100
AcDbLine
 62
7
  6
CONTINUOUS
 10
-1.2484339984
 20
-66.9982933834
 11
-1.2679615384
 21
-67.013156486
  0
LINE
  5
31B
100
AcDbEntity
  8
0
100
AcDbLine
 62
7
  6
CONTINUOUS
 10
0.4271825247
 20
-67.965773231
 11
0.4076549691
 21
-67.9806363828
  0
LWPOLYLINE
  5
31C
100
AcDbEntity
  8
0
100
AcDbPolyline
 62
7
  6
CONTINUOUS
 90
4
 70
0
 10
-2.7163170183
 20
-65.3199604356
 10
-2.6937956296
 20
-65.3033002487
 10
-2.672908708
 20
-65.2850663622
 10
-2.6536562534
 20
-65.2652587761
  0
LINE
  5
31D
100
AcDbEntity
  8
0
100
AcDbLine
 62
7
  6
CONTINUOUS
 10
-2.6738906115
 20
-65.29546396
 11
-2.6512896281
 21
-65.278786138
  0
LINE
  5
31E
100
AcDbEntity
  8
0
100
AcDbLine
 62
7
  6
CONTINUOUS
 10
-2.7271767913
 20
-65.3270909118
 11
-2.7163170183
 21
-65.3199604356
  0
LWPOLYLINE
  5
31F
100
AcDbEntity
  8
0
100
AcDbPolyline
 62
7
  6
CONTINUOUS
 90
3
 70
0
 10
-1.038898992
 20
-67.2849461429
 10
-1.0106581375
 20
-67.2666899971
 10
-0.9825841452
 20
-67.2445952822
  0
LWPOLYLINE
  5
320
100
AcDbEntity
  8
0
100
AcDbPolyline
 62
7
  6
CONTINUOUS
 90
3
 70
0
 10
-1.0813738873
 20
-67.3093590133
 10
-1.0539754391
 20
-67.2916904355
 10
-1.0250105521
 20
-67.2690917578
  0
LINE
  5
321
100
AcDbEntity
  8
0
100
AcDbLine
 62
7
  6
CONTINUOUS
 10
-2.6848099354
 20
-65.3024931628
 11
-2.6738906115
 21
-65.29546396
  0
LINE
  5
322
100
AcDbEntity
  8
0
100
AcDbLine
 62
7
  6
CONTINUOUS
 10
-1.2679615384
 20
-67.013156486
 11
-1.2837130591
 21
-67.0228852243
  0
LINE
  5
323
100
AcDbEntity
  8
0
100
AcDbLine
 62
7
  6
CONTINUOUS
 10
-2.9339103144
 20
-64.9821110186
 11
-2.9365731283
 21
-64.9836823685
  0
LINE
  5
324
100
AcDbEntity
  8
0
100
AcDbLine
 62
7
  6
CONTINUOUS
 10
-4.9331481309
 20
-62.7327132706
 11
-4.9755745378
 21
-62.7572097462
  0
LINE
  5
325
100
AcDbEntity
  8
0
100
AcDbLine
 62
7
  6
CONTINUOUS
 10
-4.6477490345
 20
-62.897499132
 11
-4.6901754414
 21
-62.9219956076
  0
LINE
  5
326
100
AcDbEntity
  8
0
100
AcDbLine
 62
7
  6
CONTINUOUS
 10
-4.1446228206
 20
-63.1879979023
 11
-4.1870492275
 21
-63.2124943779
  0
LINE
  5
327
100
AcDbEntity
  8
0
100
AcDbLine
 62
250
  6
CONTINUOUS
 10
-3.3310882937
 20
-63.6577225421
 11
-3.3735147006
 21
-63.6822190177
  0
LINE
  5
328
100
AcDbEntity
  8
0
100
AcDbLine
 62
250
  6
CONTINUOUS
 10
-3.0029789953
 20
-63.870630474
 11
-3.0454054022
 21
-63.8951269496
  0
LINE
  5
329
100
AcDbEntity
  8
0
100
AcDbLine
 62
7
  6
CONTINUOUS
 10
-3.8592236921
 20
-64.5367491739
 11
-3.9016500989
 21
-64.5612456495
  0
LINE
  5
32A
100
AcDbEntity
  8
0
100
AcDbLine
 62
250
  6
CONTINUOUS
 10
-2.7369935278
 20
-64.1421340059
 11
-2.7794199347
 21
-64.1666304815
  0
LINE
  5
32B
100
AcDbEntity
  8
0
100
AcDbLine
 62
7
  6
CONTINUOUS
 10
-4.6477490345
 20
-65.3877334762
 11
-4.6901754414
 21
-65.4122299518
  0
LINE
  5
32C
100
AcDbEntity
  8
0
100
AcDbLine
 62
250
  6
CONTINUOUS
 10
-3.3016656104
 20
-64.8586762224
 11
-3.3440920173
 21
-64.883172698
  0
LINE
  5
32D
100
AcDbEntity
  8
0
100
AcDbLine
 62
250
  6
CONTINUOUS
 10
-2.5649223544
 20
-64.480765094
 11
-2.6073487613
 21
-64.5052615696
  0
LINE
  5
32E
100
AcDbEntity
  8
0
100
AcDbLine
 62
7
  6
CONTINUOUS
 10
-1.9864761002
 20
-64.468057916
 11
-2.0289025071
 21
-64.4925543916
  0
LINE
  5
32F
100
AcDbEntity
  8
0
100
AcDbLine
 62
250
  6
CONTINUOUS
 10
-2.4984291191
 20
-64.858720967
 11
-2.540855526
 21
-64.8832174426
  0
LINE
  5
330
100
AcDbEntity
  8
0
100
AcDbLine
 62
7
  6
CONTINUOUS
 10
-3.8592236921
 20
-65.8430181264
 11
-3.9016500989
 21
-65.867514602
  0
LINE
  5
331
100
AcDbEntity
  8
0
100
AcDbLine
 62
250
  6
CONTINUOUS
 10
-2.6738906115
 20
-65.29546396
 11
-2.6851241674
 21
-65.3019500744
  0
LINE
  5
332
100
AcDbEntity
  8
0
100
AcDbLine
 62
7
  6
CONTINUOUS
 10
-2.7273310304
 20
-65.3268267867
 11
-2.7160974744
 21
-65.3203406723
  0
LINE
  5
333
100
AcDbEntity
  8
0
100
AcDbLine
 62
7
  6
CONTINUOUS
 10
-1.8908526686
 20
-65.484710858
 11
-1.9332790755
 21
-65.5092073336
  0
LINE
  5
334
100
AcDbEntity
  8
0
100
AcDbLine
 62
7
  6
CONTINUOUS
 10
-0.914022667
 20
-65.0872790873
 11
-0.9564490739
 21
-65.1117755629
  0
LINE
  5
335
100
AcDbEntity
  8
0
100
AcDbLine
 62
7
  6
CONTINUOUS
 10
-1.9467555741
 20
-65.8074529164
 11
-1.989181981
 21
-65.831949392
  0
LINE
  5
336
100
AcDbEntity
  8
0
100
AcDbLine
 62
250
  6
CONTINUOUS
 10
-1.4833496935
 20
-65.5637212625
 11
-1.5257761004
 21
-65.5882177381
  0
LINE
  5
337
100
AcDbEntity
  8
0
100
AcDbLine
 62
7
  6
CONTINUOUS
 10
-2.2424524811
 20
-66.1242364725
 11
-2.284878888
 21
-66.1487329481
  0
LINE
  5
338
100
AcDbEntity
  8
0
100
AcDbLine
 62
7
  6
CONTINUOUS
 10
-0.914022667
 20
-65.3794485232
 11
-0.9564490739
 21
-65.4039449988
  0
LINE
  5
339
100
AcDbEntity
  8
0
100
AcDbLine
 62
7
  6
CONTINUOUS
 10
-1.9644090556
 20
-66.2575967009
 11
-2.0068354624
 21
-66.2820931765
  0
LINE
  5
33A
100
AcDbEntity
  8
0
100
AcDbLine
 62
7
  6
CONTINUOUS
 10
-0.3108597797
 20
-65.4355377791
 11
-0.3532861866
 21
-65.4600342547
  0
LINE
  5
33B
100
AcDbEntity
  8
0
100
AcDbLine
 62
7
  6
CONTINUOUS
 10
-6.2503923926
 20
-69.0019667607
 11
-6.2079659857
 21
-68.9774702851
  0
LINE
  5
33C
100
AcDbEntity
  8
0
100
AcDbLine
 62
250
  6
CONTINUOUS
 10
-1.0070711138
 20
-66.0650629848
 11
-1.0494975207
 21
-66.0895594604
  0
LINE
  5
33D
100
AcDbEntity
  8
0
100
AcDbLine
 62
250
  6
CONTINUOUS
 10
-1.8217095181
 20
-66.6933106411
 11
-1.8641359249
 21
-66.7178071167
  0
LINE
  5
33E
100
AcDbEntity
  8
0
100
AcDbLine
 62
7
  6
CONTINUOUS
 10
-2.9365731283
 20
-64.9836823685
 11
-2.9512587345
 21
-64.991137902
  0
LWPOLYLINE
  5
33F
100
AcDbEntity
  8
RACCORDO
100
AcDbPolyline
 62
250
  6
CONTINUOUS
 90
34
 70
0
 10
74.3597806627
 20
19.5805604092
 10
74.4286734776
 20
19.5426323078
 10
74.5006138766
 20
19.5066398724
 10
74.5754388917
 20
19.4726646372
 10
74.6529790201
 20
19.4407835673
 10
74.7330586085
 20
19.4110688833
 10
74.8154962508
 20
19.3835878987
 10
74.9001051994
 20
19.3584028668
 10
74.9866937877
 20
19.3355708396
 10
75.0750658648
 20
19.3151435391
 10
75.1650212394
 20
19.2971672398
 10
75.2563561337
 20
19.2816826636
 10
75.3488636449
 20
19.2687248882
 10
75.4423342136
 20
19.2583232671
 10
75.536556099
 20
19.2505013633
 10
75.6313158582
 20
19.2452768959
 10
75.7263988298
 20
19.2426617001
 10
75.8215896203
 20
19.2426617001
 10
75.9166725919
 20
19.2452768959
 10
76.011432351
 20
19.2505013633
 10
76.1056542364
 20
19.2583232671
 10
76.1991248052
 20
19.2687248882
 10
76.2916323163
 20
19.2816826636
 10
76.3829672107
 20
19.2971672397
 10
76.4729225853
 20
19.3151435391
 10
76.5612946624
 20
19.3355708396
 10
76.6478832507
 20
19.3584028667
 10
76.7324921993
 20
19.3835878987
 10
76.8149298417
 20
19.4110688833
 10
76.89500943
 20
19.4407835673
 10
76.9725495585
 20
19.4726646372
 10
77.0473745735
 20
19.5066398724
 10
77.1193149726
 20
19.5426323078
 10
77.1882077875
 20
19.5805604092
  0
LWPOLYLINE
  5
340
100
AcDbEntity
  8
RACCORDO
100
AcDbPolyline
 62
250
  6
CONTINUOUS
 90
18
 70
0
 10
-78.3752840736
 20
107.767872568
 10
-78.44097324
 20
107.8076504159
 10
-78.5033099507
 20
107.8491879007
 10
-78.5621529931
 20
107.8923909268
 10
-78.6173690686
 20
107.9371616252
 10
-78.6688330952
 20
107.983398576
 10
-78.7164284903
 20
108.0309970376
 10
-78.760047435
 20
108.0798491841
 10
-78.7995911184
 20
108.1298443499
 10
-78.8349699612
 20
108.1808692796
 10
-78.8661038191
 20
108.2328083856
 10
-78.8929221638
 20
108.2855440089
 10
-78.9153642431
 20
108.3389566864
 10
-78.9333792186
 20
108.3929254212
 10
-78.9469262806
 20
108.4473279569
 10
-78.9559747404
 20
108.502041054
 10
-78.9605041006
 20
108.55694077
 10
-78.9610705112
 20
108.5844217546
  0
LWPOLYLINE
  5
341
100
AcDbEntity
  8
RACCORDO
100
AcDbPolyline
 62
250
  6
CONTINUOUS
 90
18
 70
0
 10
68.7029264132
 20
-113.5037790686
 10
68.7045282375
 20
-113.5805526352
 10
68.7093300817
 20
-113.6553025384
 10
68.7173210681
 20
-113.7278594457
 10
68.7284830946
 20
-113.7980589923
 10
68.7427908755
 20
-113.8657421538
 10
68.7602119991
 20
-113.9307556059
 10
68.7807070011
 20
-113.9929520723
 10
68.8042294536
 20
-114.052190658
 10
68.8307260706
 20
-114.1083371685
 10
68.860136829
 20
-114.161264414
 10
68.8923951038
 20
-114.2108524972
 10
68.9274278196
 20
-114.2569890852
 10
68.9651556162
 20
-114.2995696637
 10
69.0054930279
 20
-114.338497774
 10
69.0483486775
 20
-114.3736852314
 10
69.0936254832
 20
-114.4050523251
 10
69.1170916553
 20
-114.4192527909
  0
LWPOLYLINE
  5
342
100
AcDbEntity
  8
0
100
AcDbPolyline
 62
7
  6
CONTINUOUS
 90
42
 70
0
 10
60.7126197858
 20
-92.8056775644
 10
60.7150225222
 20
-92.9236125343
 10
60.7222252886
 20
-93.0440549633
 10
60.7342117682
 20
-93.1667320106
 10
60.7509548079
 20
-93.2913657733
 10
60.7724164794
 20
-93.4176739159
 10
60.7985481649
 20
-93.5453703096
 10
60.829290668
 20
-93.6741656812
 10
60.8645743468
 20
-93.8037682676
 10
60.9043192725
 20
-93.9338844774
 10
60.9484354101
 20
-94.0642195555
 10
60.9968228223
 20
-94.194478251
 10
61.0493718961
 20
-94.324365486
 10
61.1059635909
 20
-94.4535870243
 10
61.1664697084
 20
-94.5818501374
 10
61.2307531827
 20
-94.7088642681
 10
61.298668391
 20
-94.8343416887
 10
61.3700614837
 20
-94.9579981523
 10
61.4447707323
 20
-95.0795535374
 10
61.5226268963
 20
-95.1987324818
 10
61.6034536067
 20
-95.3152650069
 10
61.6870677647
 20
-95.4288871292
 10
61.7732799576
 20
-95.5393414578
 10
61.8618948869
 20
-95.6463777783
 10
61.9527118113
 20
-95.749753619
 10
62.0455250012
 20
-95.8492348003
 10
62.1401242051
 20
-95.9445959653
 10
62.2362951251
 20
-96.0356210904
 10
62.3338199033
 20
-96.1221039744
 10
62.4324776147
 20
-96.2038487057
 10
62.5320447678
 20
-96.2806701061
 10
62.6322958109
 20
-96.3523941506
 10
62.7330036434
 20
-96.4188583611
 10
62.8339401294
 20
-96.4799121748
 10
62.9348766154
 20
-96.5354172851
 10
63.0355844478
 20
-96.5852479552
 10
63.135835491
 20
-96.6292913024
 10
63.2354026441
 20
-96.6674475546
 10
63.3340603554
 20
-96.6996302755
 10
63.4315851336
 20
-96.7257665609
 10
63.5277560537
 20
-96.7457972036
 10
63.606987822
 20
-96.7574221131
  0
LWPOLYLINE
  5
343
100
AcDbEntity
  8
0
100
AcDbPolyline
 62
7
  6
CONTINUOUS
 90
42
 70
0
 10
60.7126197858
 20
20.6836909098
 10
60.7150225222
 20
20.5657559399
 10
60.7222252886
 20
20.4453135109
 10
60.7342117682
 20
20.3226364636
 10
60.7509548079
 20
20.1980027009
 10
60.7724164794
 20
20.0716945583
 10
60.7985481649
 20
19.9439981646
 10
60.829290668
 20
19.815202793
 10
60.8645743468
 20
19.6856002066
 10
60.9043192725
 20
19.5554839968
 10
60.9484354101
 20
19.4251489187
 10
60.9968228223
 20
19.2948902232
 10
61.0493718961
 20
19.1650029882
 10
61.1059635909
 20
19.0357814499
 10
61.1664697084
 20
18.9075183368
 10
61.2307531827
 20
18.7805042061
 10
61.298668391
 20
18.6550267855
 10
61.3700614837
 20
18.5313703219
 10
61.4447707323
 20
18.4098149368
 10
61.5226268963
 20
18.2906359924
 10
61.6034536067
 20
18.1741034673
 10
61.6870677647
 20
18.060481345
 10
61.7732799576
 20
17.9500270164
 10
61.8618948869
 20
17.8429906959
 10
61.9527118113
 20
17.7396148552
 10
62.0455250012
 20
17.6401336739
 10
62.1401242051
 20
17.5447725089
 10
62.2362951251
 20
17.4537473838
 10
62.3338199033
 20
17.3672644998
 10
62.4324776147
 20
17.2855197685
 10
62.5320447678
 20
17.2086983681
 10
62.6322958109
 20
17.1369743236
 10
62.7330036434
 20
17.0705101131
 10
62.8339401294
 20
17.0094562994
 10
62.9348766154
 20
16.9539511891
 10
63.0355844478
 20
16.904120519
 10
63.135835491
 20
16.8600771718
 10
63.2354026441
 20
16.8219209196
 10
63.3340603554
 20
16.7897381987
 10
63.4315851336
 20
16.7636019133
 10
63.5277560537
 20
16.7435712706
 10
63.606987822
 20
16.7319463611
  0
LWPOLYLINE
  5
344
100
AcDbEntity
  8
0
100
AcDbPolyline
 62
7
  6
CONTINUOUS
 90
53
 70
0
 10
59.5105382578
 20
-93.4997443731
 10
59.5127744965
 20
-93.6129019039
 10
59.5193605272
 20
-93.7278806172
 10
59.53029635
 20
-93.8446805129
 10
59.5456226059
 20
-93.9635508812
 10
59.565298654
 20
-94.0842424319
 10
59.5892025705
 20
-94.2060072946
 10
59.6173606081
 20
-94.3288521339
 10
59.6497465142
 20
-94.4527702851
 10
59.6861596081
 20
-94.576993884
 10
59.7266248963
 20
-94.7015248273
 10
59.7711173723
 20
-94.8263612183
 10
59.8193613366
 20
-94.9507295028
 10
59.8713800835
 20
-95.0746267742
 10
59.9271503188
 20
-95.1980559392
 10
59.9863264597
 20
-95.3202521636
 10
60.0489296546
 20
-95.4412077914
 10
60.1149387552
 20
-95.5609304786
 10
60.1839447331
 20
-95.6786783583
 10
60.255966197
 20
-95.7944391681
 10
60.3309845382
 20
-95.9082251703
 10
60.4085349023
 20
-96.0193312851
 10
60.4886330116
 20
-96.127740872
 10
60.5712631437
 20
-96.2334705714
 10
60.6559132775
 20
-96.3358652246
 10
60.7425959558
 20
-96.4349041231
 10
60.8312986358
 20
-96.5306079753
 10
60.9214716674
 20
-96.6223837483
 10
61.0131241806
 20
-96.7102070511
 10
61.1062470454
 20
-96.7941022746
 10
61.2002632218
 20
-96.8735495583
 10
61.2951782569
 20
-96.9485212834
 10
61.3909866037
 20
-97.0190450688
 10
61.4870945816
 20
-97.0846839108
 10
61.5835040511
 20
-97.1454074768
 10
61.6802131516
 20
-97.2012460994
 10
61.7766226211
 20
-97.2518537721
 10
61.872730599
 20
-97.297198014
 10
61.9685389458
 20
-97.337311306
 10
62.0634539809
 20
-97.3719450842
 10
62.1574701573
 20
-97.4010653245
 10
62.2505930221
 20
-97.4247060511
 10
62.3422455353
 20
-97.4427207732
 10
62.4324185669
 20
-97.4550745568
 10
62.5211212469
 20
-97.461802336
 10
62.6078039253
 20
-97.4628624217
 10
62.692454059
 20
-97.4582196211
 10
62.7750841911
 20
-97.4479091271
 10
62.8551823004
 20
-97.4319948291
 10
62.9327326645
 20
-97.4104419309
 10
63.0077510057
 20
-97.3832852287
 10
63.0797724696
 20
-97.3506930001
 10
63.1319241864
 20
-97.3225905769
  0
LWPOLYLINE
  5
345
100
AcDbEntity
  8
0
100
AcDbPolyline
 62
7
  6
CONTINUOUS
 90
53
 70
0
 10
63.7531789449
 20
-95.949391933
 10
63.7509427062
 20
-95.8362344022
 10
63.7443566755
 20
-95.7212556889
 10
63.7334208528
 20
-95.6044557932
 10
63.7180945968
 20
-95.4855854249
 10
63.6984185488
 20
-95.3648938742
 10
63.6745146322
 20
-95.2431290115
 10
63.6463565946
 20
-95.1202841722
 10
63.6139706885
 20
-94.996366021
 10
63.5775575946
 20
-94.8721424221
 10
63.5370923065
 20
-94.7476114788
 10
63.4925998305
 20
-94.6227750879
 10
63.4443558662
 20
-94.4984068033
 10
63.3923371192
 20
-94.3745095319
 10
63.3365668839
 20
-94.2510803669
 10
63.2773907431
 20
-94.1288841426
 10
63.2147875481
 20
-94.0079285147
 10
63.1487784475
 20
-93.8882058275
 10
63.0797724696
 20
-93.7704579478
 10
63.0077510057
 20
-93.654697138
 10
62.9327326645
 20
-93.5409111358
 10
62.8551823004
 20
-93.429805021
 10
62.7750841911
 20
-93.3213954341
 10
62.692454059
 20
-93.2156657347
 10
62.6078039253
 20
-93.1132710815
 10
62.5211212469
 20
-93.0142321831
 10
62.4324185669
 20
-92.9185283308
 10
62.3422455353
 20
-92.8267525578
 10
62.2505930221
 20
-92.738929255
 10
62.1574701573
 20
-92.6550340316
 10
62.0634539809
 20
-92.5755867478
 10
61.9685389458
 20
-92.5006150227
 10
61.872730599
 20
-92.4300912373
 10
61.7766226211
 20
-92.3644523954
 10
61.6802131516
 20
-92.3037288293
 10
61.5835040511
 20
-92.2478902067
 10
61.4870945816
 20
-92.197282534
 10
61.3909866037
 20
-92.1519382921
 10
61.2951782569
 20
-92.1118250001
 10
61.2002632218
 20
-92.0771912219
 10
61.1062470454
 20
-92.0480709816
 10
61.0131241806
 20
-92.024430255
 10
60.9214716674
 20
-92.006415533
 10
60.8312986358
 20
-91.9940617493
 10
60.7425959558
 20
-91.9873339701
 10
60.6559132775
 20
-91.9862738844
 10
60.5712631437
 20
-91.990916685
 10
60.4886330116
 20
-92.001227179
 10
60.4085349023
 20
-92.0171414771
 10
60.3309845382
 20
-92.0386943752
 10
60.255966197
 20
-92.0658510775
 10
60.1839447331
 20
-92.098443306
 10
60.1317930163
 20
-92.1265457292
  0
LWPOLYLINE
  5
346
100
AcDbEntity
  8
0
100
AcDbPolyline
 62
7
  6
CONTINUOUS
 90
19
 70
0
 10
59.5105382578
 20
19.9896241011
 10
59.5127744965
 20
20.1001992796
 10
59.5193605272
 20
20.2075726097
 10
59.53029635
 20
20.3117440914
 10
59.5456226059
 20
20.4129160834
 10
59.565298654
 20
20.5108862271
 10
59.5892025705
 20
20.6050474461
 10
59.6173606081
 20
20.6953760894
 10
59.6497465142
 20
20.7818958081
 10
59.6861596081
 20
20.8640704788
 10
59.7266248963
 20
20.9418731216
 10
59.7711173723
 20
21.0153307166
 10
59.8193613366
 20
21.0839880804
 10
59.8713800835
 20
21.1478154068
 10
59.9271503188
 20
21.206842502
 10
59.9863264597
 20
21.2607036022
 10
60.0489296546
 20
21.3093666297
 10
60.1149387552
 20
21.3528636621
 10
60.1317930163
 20
21.362822745
  0
LWPOLYLINE
  5
347
100
AcDbEntity
  8
0
100
AcDbPolyline
 62
7
  6
CONTINUOUS
 90
19
 70
0
 10
63.7531789449
 20
17.5399765412
 10
63.7509427062
 20
17.4294013627
 10
63.7443566755
 20
17.3220280326
 10
63.7334208528
 20
17.2178565509
 10
63.7180945968
 20
17.1166845588
 10
63.6984185488
 20
17.0187144152
 10
63.6745146322
 20
16.9245531962
 10
63.6463565946
 20
16.8342245529
 10
63.6139706885
 20
16.7477048342
 10
63.5775575946
 20
16.6655301635
 10
63.5370923065
 20
16.5877275206
 10
63.4925998305
 20
16.5142699257
 10
63.4443558662
 20
16.4456125619
 10
63.3923371192
 20
16.3817852355
 10
63.3365668839
 20
16.3227581403
 10
63.2773907431
 20
16.2688970401
 10
63.2147875481
 20
16.2202340126
 10
63.1487784475
 20
16.1767369802
 10
63.1319241864
 20
16.1667778973
  0
LWPOLYLINE
  5
348
100
AcDbEntity
  8
0
100
AcDbPolyline
 62
7
  6
CONTINUOUS
 90
9
 70
0
 10
60.7126197858
 20
20.6836909098
 10
60.7150225222
 20
20.7988512598
 10
60.7222252886
 20
20.9109761148
 10
60.7342117682
 20
21.0198114759
 10
60.7509548079
 20
21.1251107961
 10
60.7724164794
 20
21.2266355383
 10
60.7985481649
 20
21.3241557166
 10
60.829290668
 20
21.4174504163
 10
60.8587144177
 20
21.491550739
  0
LWPOLYLINE
  5
349
100
AcDbEntity
  8
0
100
AcDbPolyline
 62
7
  6
CONTINUOUS
 90
9
 70
0
 10
60.7126197858
 20
-92.8056775644
 10
60.7150225222
 20
-92.6905172144
 10
60.7222252886
 20
-92.5783923594
 10
60.7342117682
 20
-92.4695569983
 10
60.7509548079
 20
-92.3642576781
 10
60.7724164794
 20
-92.2627329359
 10
60.7985481649
 20
-92.1652127576
 10
60.829290668
 20
-92.0719180579
 10
60.8587144177
 20
-91.9978177352
  0
LWPOLYLINE
  5
34A
100
AcDbEntity
  8
0
100
AcDbPolyline
 62
7
  6
CONTINUOUS
 90
3
 70
0
 10
0.6367175921
 20
-68.2524261501
 10
0.6649584423
 20
-68.2341700071
 10
0.6930324324
 20
-68.2120752937
  0
LWPOLYLINE
  5
34B
100
AcDbEntity
  8
0
100
AcDbPolyline
 62
7
  6
CONTINUOUS
 90
3
 70
0
 10
0.5942426967
 20
-68.2768390203
 10
0.6216411389
 20
-68.2591704465
 10
0.6506060255
 20
-68.2365717693
  0
LINE
  5
34C
100
AcDbEntity
  8
0
100
AcDbLine
 62
7
  6
CONTINUOUS
 10
0.4076549691
 20
-67.9806363828
 11
0.3919032272
 21
-67.990365273
  0
LINE
  5
34D
100
AcDbEntity
  8
0
100
AcDbLine
 62
250
  6
CONTINUOUS
 10
-1.5495505703
 20
-66.9676593697
 11
-1.5919769772
 21
-66.9921558453
  0
LINE
  5
34E
100
AcDbEntity
  8
0
100
AcDbLine
 62
250
  6
CONTINUOUS
 10
-0.8125148273
 20
-66.7579159992
 11
-0.8549412342
 21
-66.7824124748
  0
LINE
  5
34F
100
AcDbEntity
  8
0
100
AcDbLine
 62
7
  6
CONTINUOUS
 10
-0.215236091
 20
-66.4521908695
 11
-0.2576624979
 21
-66.4766873451
  0
LINE
  5
350
100
AcDbEntity
  8
0
100
AcDbLine
 62
7
  6
CONTINUOUS
 10
0.7615936535
 20
-66.0547589504
 11
0.7191672466
 21
-66.079255426
  0
LINE
  5
351
100
AcDbEntity
  8
0
100
AcDbLine
 62
7
  6
CONTINUOUS
 10
-0.2711389965
 20
-66.7749329279
 11
-0.3135654034
 21
-66.7994294035
  0
LINE
  5
352
100
AcDbEntity
  8
0
100
AcDbLine
 62
250
  6
CONTINUOUS
 10
0.1922668841
 20
-66.531201274
 11
0.1498404773
 21
-66.5556977496
  0
LINE
  5
353
100
AcDbEntity
  8
0
100
AcDbLine
 62
250
  6
CONTINUOUS
 10
-0.9825841452
 20
-67.2445952822
 11
-1.0250105521
 21
-67.2690917578
  0
LINE
  5
354
100
AcDbEntity
  8
0
100
AcDbLine
 62
7
  6
CONTINUOUS
 10
-0.5668361606
 20
-67.0917163355
 11
-0.6092625675
 21
-67.1162128111
  0
LINE
  5
355
100
AcDbEntity
  8
0
100
AcDbLine
 62
7
  6
CONTINUOUS
 10
0.7615936535
 20
-66.3469283863
 11
0.7191672466
 21
-66.3714248619
  0
LINE
  5
356
100
AcDbEntity
  8
0
100
AcDbLine
 62
7
  6
CONTINUOUS
 10
-0.2887927351
 20
-67.2250765639
 11
-0.3312191419
 21
-67.2495730395
  0
LINE
  5
357
100
AcDbEntity
  8
0
100
AcDbLine
 62
250
  6
CONTINUOUS
 10
0.6685452705
 20
-67.0325431076
 11
0.6261188636
 21
-67.0570395832
  0
LINE
  5
358
100
AcDbEntity
  8
0
100
AcDbLine
 62
250
  6
CONTINUOUS
 10
-0.1460931399
 20
-67.6607904637
 11
-0.1885195468
 21
-67.6852869393
  0
LINE
  5
359
100
AcDbEntity
  8
0
100
AcDbLine
 62
250
  6
CONTINUOUS
 10
0.1260657502
 20
-67.9351392327
 11
0.0836393434
 21
-67.9596357083
  0
LINE
  5
35A
100
AcDbEntity
  8
0
100
AcDbLine
 62
250
  6
CONTINUOUS
 10
0.8631017503
 20
-67.7253960108
 11
0.8206753434
 21
-67.7498924864
  0
LINE
  5
35B
100
AcDbEntity
  8
0
100
AcDbLine
 62
250
  6
CONTINUOUS
 10
0.6930324324
 20
-68.2120752937
 11
0.6506060255
 21
-68.2365717693
  0
LWPOLYLINE
  5
35C
100
AcDbEntity
  8
0
100
AcDbPolyline
 62
7
  6
CONTINUOUS
 90
16
 70
0
 10
-1.2837130591
 20
-67.0228852243
 10
-1.2868945027
 20
-67.0246759703
 10
-1.3060422918
 20
-67.0342445805
 10
-1.3254049057
 20
-67.0418623168
 10
-1.344928397
 20
-67.0474487871
 10
-1.3646667131
 20
-67.0510843835
 10
-1.3847816965
 20
-67.0530102813
 10
-1.4052528199
 20
-67.0533056835
 10
-1.4261006105
 20
-67.0518913871
 10
-1.4475484921
 20
-67.0487709589
 10
-1.4695712196
 20
-67.044022288
 10
-1.492194038
 20
-67.0375674852
 10
-1.5157161071
 20
-67.0291764496
 10
-1.5402371466
 20
-67.0187724809
 10
-1.5656574366
 20
-67.0064322795
 10
-1.5919769772
 20
-66.9921558453
  0
LWPOLYLINE
  5
35D
100
AcDbEntity
  8
0
100
AcDbPolyline
 62
7
  6
CONTINUOUS
 90
16
 70
0
 10
0.3919032272
 20
-67.990365273
 10
0.3887220291
 20
-67.9921558835
 10
0.3695742621
 20
-68.0017245087
 10
0.3502116681
 20
-68.0093422584
 10
0.3306881955
 20
-68.0149287409
 10
0.3109498959
 20
-68.0185643478
 10
0.2908349239
 20
-68.0204902547
 10
0.270363807
 20
-68.0207856651
 10
0.2495160177
 20
-68.0193713755
 10
0.2280681283
 20
-68.0162509498
 10
0.2060453847
 20
-68.0115022783
 10
0.1834225409
 20
-68.0050474709
 10
0.1599004314
 20
-67.9966564208
 10
0.1353793344
 20
-67.9862524259
 10
0.1099589717
 20
-67.9739121884
 10
0.0836393434
 20
-67.9596357083
  0
LWPOLYLINE
  5
35E
100
AcDbEntity
  8
0
100
AcDbPolyline
 62
7
  6
CONTINUOUS
 90
5
 70
0
 10
-1.9314154992
 20
-65.781238316
 10
-1.9141475623
 20
-65.772291455
 10
-1.895022887
 20
-65.7647679686
 10
-1.8741543118
 20
-65.7588412406
 10
-1.8516578689
 20
-65.7544714614
  0
LWPOLYLINE
  5
35F
100
AcDbEntity
  8
0
100
AcDbPolyline
 62
7
  6
CONTINUOUS
 90
5
 70
0
 10
-0.2557989197
 20
-66.7487180907
 10
-0.2385314049
 20
-66.7397714259
 10
-0.2194067167
 20
-66.7322479083
 10
-0.198538074
 20
-66.7263211513
 10
-0.1760415158
 20
-66.7219513421
  0
LWPOLYLINE
  5
360
100
AcDbEntity
  8
0
100
AcDbPolyline
 62
7
  6
CONTINUOUS
 90
13
 70
0
 10
-2.9512587345
 20
-64.991137902
 10
-2.9667469476
 20
-64.9974439622
 10
-2.9848084195
 20
-65.0015663424
 10
-3.0054431503
 20
-65.0035050427
 10
-3.028320861
 20
-65.0035974707
 10
-3.0537718306
 20
-65.0015062187
 10
-3.0827868953
 20
-64.9962190636
 10
-3.115311628
 20
-64.9878498947
 10
-3.1514004558
 20
-64.9762848227
 10
-3.1922074968
 20
-64.9601699561
 10
-3.2381174571
 20
-64.9390539979
 10
-3.2887456306
 20
-64.9133882452
 10
-3.3440920173
 20
-64.883172698
  0
LWPOLYLINE
  5
361
100
AcDbEntity
  8
0
100
AcDbPolyline
 62
7
  6
CONTINUOUS
 90
5
 70
0
 10
-2.9160679178
 20
-64.9693316579
 10
-2.9249474119
 20
-64.9726331018
 10
-2.9425768283
 20
-64.9767288705
 10
-2.9617205769
 20
-64.9789287326
 10
-2.982405168
 20
-64.9792403407
  0
LWPOLYLINE
  5
362
100
AcDbEntity
  8
0
100
AcDbPolyline
 62
7
  6
CONTINUOUS
 90
24
 70
0
 10
-69.5364493087
 20
114.5036142592
 10
-69.7837250416
 20
114.6413640421
 10
-70.0301009923
 20
114.7687093962
 10
-70.2755771608
 20
114.8856503215
 10
-70.5204501885
 20
114.992303845
 10
-70.764423434
 20
115.0885529397
 10
-71.0066069734
 20
115.1740465246
 10
-71.2469942706
 20
115.2487453199
 10
-71.4855918616
 20
115.3126886053
 10
-71.721529431
 20
115.3656431395
 10
-71.9547972641
 20
115.4075687908
 10
-72.1854050755
 20
115.4385056909
 10
-72.4125116935
 20
115.4583409934
 10
-72.6361043314
 20
115.4670341546
 10
-72.8561957758
 20
115.4646257182
 10
-73.0719832147
 20
115.4511244693
 10
-73.2834509296
 20
115.4264898963
 10
-73.490614639
 20
115.3907625108
 10
-73.6927186865
 20
115.344072633
 10
-73.8897445939
 20
115.2863802273
 10
-74.0817108394
 20
115.2177253293
 10
-74.2679172013
 20
115.1383583668
 10
-74.4483426441
 20
115.0482402185
 10
-74.5366768296
 20
114.9990016494
  0
LWPOLYLINE
  5
363
100
AcDbEntity
  8
RACCORDO
100
AcDbPolyline
 62
250
  6
CONTINUOUS
 90
49
 70
0
 10
-72.7184298241
 20
111.0334380357
 10
-72.9038029714
 20
111.1369457186
 10
-73.0885939036
 20
111.2331613436
 10
-73.2728026205
 20
111.3220849105
 10
-73.4566279964
 20
111.4037978778
 10
-73.639871157
 20
111.478218787
 10
-73.8219354802
 20
111.5451032632
 10
-74.0028151296
 20
111.6044255888
 10
-74.1825159415
 20
111.6562114813
 10
-74.360458803
 20
111.7002937178
 10
-74.5366368105
 20
111.7366470809
 10
-74.7110568675
 20
111.7652967881
 10
-74.8831605713
 20
111.7861512683
 10
-75.0529406481
 20
111.7991856561
 10
-75.2204043717
 20
111.804424817
 10
-75.3850151597
 20
111.8018517766
 10
-75.5467642692
 20
111.791441411
 10
-75.7056604433
 20
111.7732188442
 10
-75.8611933291
 20
111.7472424729
 10
-76.0133519496
 20
111.7134873314
 10
-76.162147282
 20
111.6719783854
 10
-76.3071019052
 20
111.6228489293
 10
-76.4482033059
 20
111.5660745655
 10
-76.5854639975
 20
111.5016796915
 10
-76.7184440984
 20
111.4298707946
 10
-76.84712989
 20
111.350624138
 10
-76.971535091
 20
111.2639634585
 10
-77.0912609755
 20
111.1701664541
 10
-77.2062926572
 20
111.0692101219
 10
-77.3166450225
 20
110.9611174648
 10
-77.4219640049
 20
110.8462351883
 10
-77.5222335063
 20
110.724541286
 10
-77.6174696249
 20
110.5960577643
 10
-77.7073665884
 20
110.4611973484
 10
-77.7919070116
 20
110.31993989
 10
-77.8711082798
 20
110.1723055374
 10
-77.9447167766
 20
110.0187674605
 10
-78.0127146047
 20
109.8593069565
 10
-78.0751196614
 20
109.6939427283
 10
-78.1317320223
 20
109.5232040544
 10
-78.1825332835
 20
109.3470723154
 10
-78.2275418488
 20
109.1655661308
 10
-78.2666130052
 20
108.9792706376
 10
-78.2997274354
 20
108.788166804
 10
-78.3269044566
 20
108.5922736617
 10
-78.3480573072
 20
108.3922334437
 10
-78.3631570666
 20
108.1882602276
 10
-78.3722326554
 20
107.9801399357
 10
-78.3752840736
 20
107.767872568
  0
LWPOLYLINE
  5
364
100
AcDbEntity
  8
RACCORDO
100
AcDbPolyline
 62
250
  6
CONTINUOUS
 90
25
 70
0
 10
-71.3042162617
 20
113.4829277759
 10
-71.5355495379
 20
113.612126193
 10
-71.7666410759
 20
113.7324482294
 10
-71.9972434304
 20
113.8437643747
 10
-72.227110786
 20
113.9459552291
 10
-72.4559957976
 20
114.038910089
 10
-72.6836499088
 20
114.1225275277
 10
-72.9098293424
 20
114.1967177155
 10
-73.1342917903
 20
114.2614008799
 10
-73.3567933827
 20
114.3165066633
 10
-73.5770943587
 20
114.3619759092
 10
-73.79496039
 20
114.3977604789
 10
-74.0101593384
 20
114.4238223023
 10
-74.2224609027
 20
114.4401334638
 10
-74.4316375838
 20
114.4466764594
 10
-74.6374660257
 20
114.4434442415
 10
-74.8397262912
 20
114.4304401171
 10
-75.0382012132
 20
114.4076778996
 10
-75.2326773344
 20
114.3751820259
 10
-75.4229461992
 20
114.332987371
 10
-75.6088042805
 20
114.281139114
 10
-75.7900523379
 20
114.2196928842
 10
-75.9664961178
 20
114.1487146247
 10
-76.1379469058
 20
114.0682803405
 10
-76.3044578631
 20
113.9783395527
  0
LINE
  5
365
100
AcDbEntity
  8
RACCORDO
100
AcDbLine
 62
250
  6
CONTINUOUS
 10
68.7029264132
 20
29.3785193701
 11
-72.7184298241
 21
111.0334380357
  0
LINE
  5
366
100
AcDbEntity
  8
RACCORDO
100
AcDbLine
 62
250
  6
CONTINUOUS
 10
70.1171399756
 20
31.8280091104
 11
-71.3042162617
 21
113.4829277759
  0
LINE
  5
367
100
AcDbEntity
  8
0
100
AcDbLine
 62
7
  6
CONTINUOUS
 10
71.8849069286
 20
32.8486955937
 11
-69.5364493087
 21
114.5036142592
  0
LWPOLYLINE
  5
368
100
AcDbEntity
  8
0
100
AcDbPolyline
 62
7
  6
CONTINUOUS
 90
21
 70
0
 10
62.6622140908
 20
20.3102816664
 10
62.6658310072
 20
20.2917013864
 10
62.6850245381
 20
20.2097632098
 10
62.7075693918
 20
20.1272184737
 10
62.7333971004
 20
20.0443178638
 10
62.7624292259
 20
19.9613131466
 10
62.7945775988
 20
19.8784564047
 10
62.8297445854
 20
19.7959992712
 10
62.8678233849
 20
19.7141921659
 10
62.9086983531
 20
19.633283534
 10
62.9522453541
 20
19.5535190926
 10
62.9983321371
 20
19.4751410836
 10
63.046818738
 20
19.3983875385
 10
63.0975579047
 20
19.3234915551
 10
63.1503955439
 20
19.2506805903
 10
63.2051711895
 20
19.1801757684
 10
63.2617184896
 20
19.1121912103
 10
63.319865712
 20
19.046933383
 10
63.3794362655
 20
18.9846004721
 10
63.4402492362
 20
18.9253817809
 10
63.4857486423
 20
18.8842550884
  0
LWPOLYLINE
  5
369
100
AcDbEntity
  8
RACCORDO
100
AcDbPolyline
 62
250
  6
CONTINUOUS
 90
49
 70
0
 10
74.3597806627
 20
19.5805604092
 10
74.356728302
 20
19.7963663812
 10
74.347651766
 20
20.014978374
 10
74.3325510549
 20
20.2363963875
 10
74.3113972691
 20
20.4608667405
 10
74.2842193082
 20
20.6881431142
 10
74.2511038701
 20
20.9174865524
 10
74.2120316008
 20
21.1489014909
 10
74.1670218543
 20
21.3823834939
 10
74.1162193913
 20
21.6171802978
 10
74.0596058242
 20
21.8532945483
 10
73.9971995406
 20
22.0907235997
 10
73.9292004635
 20
22.3287072517
 10
73.8555906953
 20
22.5672474397
 10
73.7763881337
 20
22.8063422283
 10
73.6918463949
 20
23.0452256109
 10
73.6019480923
 20
23.2838975309
 10
73.5067106126
 20
23.5223580449
 10
73.4064397315
 20
23.7598413162
 10
73.3011193165
 20
23.9963439846
 10
73.1907655002
 20
24.2318694103
 10
73.0757324561
 20
24.4656618374
 10
72.9560053117
 20
24.6977154046
 10
72.8315989396
 20
24.9280359731
 10
72.7029121306
 20
25.155885371
 10
72.5699311874
 20
25.3812556668
 10
72.4326698074
 20
25.604154792
 10
72.2915678738
 20
25.8238683696
 10
72.1466129092
 20
26.0403864151
 10
71.997817391
 20
26.253718913
 10
71.8456586352
 20
26.4631814394
 10
71.6901256329
 20
26.668761763
 10
71.5312293929
 20
26.8704721152
 10
71.3694802581
 20
27.0676647664
 10
71.2048694726
 20
27.2603246983
 10
71.0374057923
 20
27.4484669292
 10
70.867625828
 20
27.6314887854
 10
70.6955223316
 20
27.8093737865
 10
70.5211025513
 20
27.9821384128
 10
70.3449248424
 20
28.1492294315
 10
70.1669822823
 20
28.3106295894
 10
69.9872817937
 20
28.4663561397
 10
69.8064025
 20
28.6159076088
 10
69.6243375781
 20
28.7592656315
 10
69.441093851
 20
28.8964485729
 10
69.2572709117
 20
29.0270100553
 10
69.0730686245
 20
29.150801286
 10
68.888287125
 20
29.2679710576
 10
68.7029264132
 20
29.3785193701
  0
LINE
  5
36A
100
AcDbEntity
  8
RACCORDO
100
AcDbLine
 62
250
  6
CONTINUOUS
 10
74.3597806627
 20
-110.2382136009
 11
74.3597806627
 21
19.5805604092
  0
LWPOLYLINE
  5
36B
100
AcDbEntity
  8
RACCORDO
100
AcDbPolyline
 62
250
  6
CONTINUOUS
 90
34
 70
0
 10
68.7029264132
 20
29.3785193701
 10
68.7045282375
 20
29.4571426834
 10
68.7093300817
 20
29.537437636
 10
68.7173210682
 20
29.6192223343
 10
68.7284830946
 20
29.7023115094
 10
68.7427908756
 20
29.7865169378
 10
68.7602119993
 20
29.8716478669
 10
68.7807070013
 20
29.957511448
 10
68.8042294539
 20
30.0439131723
 10
68.830726071
 20
30.1306573121
 10
68.8601368294
 20
30.2175473642
 10
68.8923951042
 20
30.3043864945
 10
68.9274278201
 20
30.3909779845
 10
68.9651556166
 20
30.4771256767
 10
69.0054930283
 20
30.5626344188
 10
69.0483486778
 20
30.6473105059
 10
69.0936254834
 20
30.7309621196
 10
69.1412208784
 20
30.8133997621
 10
69.1910270442
 20
30.8944366854
 10
69.2429311536
 20
30.973889315
 10
69.2968156271
 20
31.0515776651
 10
69.3525583992
 20
31.1273257466
 10
69.4100331944
 20
31.2009619657
 10
69.4691098139
 20
31.2723195127
 10
69.5296544302
 20
31.3412367399
 10
69.5915298902
 20
31.4075575274
 10
69.6545960261
 20
31.4711316374
 10
69.7187099727
 20
31.5318150541
 10
69.7837264915
 20
31.5894703101
 10
69.8494982991
 20
31.6439667976
 10
69.9158764012
 20
31.6951810646
 10
69.98271043
 20
31.7429970943
 10
70.0498489849
 20
31.7873065679
 10
70.1171399756
 20
31.8280091104
  0
LWPOLYLINE
  5
36C
100
AcDbEntity
  8
0
100
AcDbPolyline
 62
7
  6
CONTINUOUS
 90
46
 70
0
 10
78.9559747404
 20
20.6012468925
 10
78.9516235794
 20
20.8892794216
 10
78.9387115629
 20
21.1812159359
 10
78.9172386911
 20
21.4770564353
 10
78.8871579805
 20
21.7771705683
 10
78.8485164146
 20
22.0811886864
 10
78.8014549434
 20
22.3880018442
 10
78.7459428168
 20
22.6976202495
 10
78.682010785
 20
23.0100336945
 10
78.6098920482
 20
23.3241026109
 10
78.5295567081
 20
23.6398330444
 10
78.4410346631
 20
23.9572189492
 10
78.3446488088
 20
24.2751026193
 10
78.240370426
 20
24.5934858723
 10
78.1282282338
 20
24.9123668906
 10
78.0086312855
 20
25.2305825143
 10
77.8815523558
 20
25.5481303134
 10
77.7470186698
 20
25.8650127179
 10
77.6055209567
 20
26.1800738584
 10
77.4570337834
 20
26.4933070833
 10
77.3015825829
 20
26.8047190442
 10
77.1397343835
 20
27.1131738256
 10
76.9714658231
 20
27.4186606276
 10
76.7968002639
 20
27.7211902502
 10
76.6163748211
 20
28.0196591774
 10
76.4301684592
 20
28.3140525792
 10
76.2382022137
 20
28.6043852856
 10
76.0411763063
 20
28.8895982706
 10
75.8390722588
 20
29.1696728365
 10
75.6319085494
 20
29.4446276809
 10
75.4204408345
 20
29.7134598705
 10
75.2046533956
 20
29.9761470449
 10
74.9845619512
 20
30.2327115645
 10
74.7609693133
 20
30.482217577
 10
74.5338626954
 20
30.7246393042
 10
74.3032548839
 20
30.9600025244
 10
74.0699870508
 20
31.1874487197
 10
73.8340494814
 20
31.4069489767
 10
73.5954518904
 20
31.6185322087
 10
73.3550645932
 20
31.8214266388
 10
73.1128810538
 20
32.0156005346
 10
72.8689078083
 20
32.2010856284
 10
72.6240347806
 20
32.3772053393
 10
72.3785586121
 20
32.5437341404
 10
72.1321826614
 20
32.7008975585
 10
71.8849069286
 20
32.8486955937
  0
LWPOLYLINE
  5
36D
100
AcDbEntity
  8
RACCORDO
100
AcDbPolyline
 62
250
  6
CONTINUOUS
 90
49
 70
0
 10
77.1882077875
 20
19.5805604092
 10
77.1844226865
 20
19.8498579321
 10
77.1730710475
 20
20.123245153
 10
77.1541644422
 20
20.4004296745
 10
77.1277223834
 20
20.6811163962
 10
77.0937726806
 20
20.9650036607
 10
77.052351783
 20
21.251783424
 10
77.0035037937
 20
21.5411487407
 10
76.9472807911
 20
21.8327897573
 10
76.8837437886
 20
22.1263896577
 10
76.8129614454
 20
22.4216319561
 10
76.7350092465
 20
22.7182024979
 10
76.6499703014
 20
23.0157852552
 10
76.5579355953
 20
23.3140617741
 10
76.4590037296
 20
23.6127124385
 10
76.3532802892
 20
23.9114183838
 10
76.2408781176
 20
24.2098605025
 10
76.1219177718
 20
24.5077184313
 10
75.9965271546
 20
24.8046718496
 10
75.8648407073
 20
25.1004024365
 10
75.7269993311
 20
25.3945938323
 10
75.5831508334
 20
25.686930639
 10
75.4334494609
 20
25.9770994993
 10
75.2780554041
 20
26.2647900195
 10
75.1171347673
 20
26.5496947218
 10
74.9508598763
 20
26.8315085106
 10
74.7794087851
 20
27.1099296097
 10
74.6029647179
 20
27.3846604435
 10
74.4217163929
 20
27.6554070802
 10
74.2358580611
 20
27.921879263
 10
74.045588943
 20
28.1837913128
 10
73.8511125551
 20
28.4408630343
 10
73.6526373616
 20
28.692818819
 10
73.4503768285
 20
28.9393877224
 10
73.2445481139
 20
29.1803051618
 10
73.0353711635
 20
29.415313841
 10
72.8230693714
 20
29.644162841
 10
72.6078702666
 20
29.8666069296
 10
72.3900041238
 20
30.0824081099
 10
72.1697030345
 20
30.2913364327
 10
71.9472013075
 20
30.4931694555
 10
71.7227387219
 20
30.6876894461
 10
71.4965591569
 20
30.8746851378
 10
71.268904372
 20
31.053956913
 10
71.0400186879
 20
31.2253126332
 10
70.8101523321
 20
31.3885655429
 10
70.5795532233
 20
31.5435405331
 10
70.3484666253
 20
31.6900737351
 10
70.1171399756
 20
31.8280091104
  0
LINE
  5
36E
100
AcDbEntity
  8
RACCORDO
100
AcDbLine
 62
250
  6
CONTINUOUS
 10
77.1882077875
 20
-110.2382136009
 11
77.1882077875
 21
19.5805604092
  0
LINE
  5
36F
100
AcDbEntity
  8
0
100
AcDbLine
 62
7
  6
CONTINUOUS
 10
78.9559747404
 20
-109.2175271176
 11
78.9559747404
 21
20.6012468925
  0
LWPOLYLINE
  5
370
100
AcDbEntity
  8
0
100
AcDbPolyline
 62
7
  6
CONTINUOUS
 90
42
 70
0
 10
-63.6722327916
 20
90.2213731601
 10
-63.7514645599
 20
90.2329980696
 10
-63.8476354799
 20
90.2530287123
 10
-63.9451602581
 20
90.2791649977
 10
-64.0438179695
 20
90.3113477186
 10
-64.1433851226
 20
90.3495039707
 10
-64.2436361658
 20
90.393547318
 10
-64.3443439982
 20
90.4433779881
 10
-64.4452804842
 20
90.4988830984
 10
-64.5462169702
 20
90.5599369121
 10
-64.6469248026
 20
90.6264011226
 10
-64.7471758458
 20
90.6981251671
 10
-64.8467429989
 20
90.7749465675
 10
-64.9454007103
 20
90.8566912988
 10
-65.0429254885
 20
90.9431741828
 10
-65.1390964085
 20
91.0341993079
 10
-65.2336956123
 20
91.1295604729
 10
-65.3265088023
 20
91.2290416542
 10
-65.4173257267
 20
91.3324174949
 10
-65.505940656
 20
91.4394538154
 10
-65.5921528488
 20
91.549908144
 10
-65.6757670069
 20
91.6635302663
 10
-65.7565937172
 20
91.7800627914
 10
-65.8344498813
 20
91.8992417358
 10
-65.9091591299
 20
92.0207971209
 10
-65.9805522226
 20
92.1444535845
 10
-66.0484674309
 20
92.2699310051
 10
-66.1127509052
 20
92.3969451358
 10
-66.1732570227
 20
92.5252082489
 10
-66.2298487175
 20
92.6544297872
 10
-66.2823977913
 20
92.7843170222
 10
-66.3307852035
 20
92.9145757177
 10
-66.3749013411
 20
93.0449107958
 10
-66.4146462668
 20
93.1750270056
 10
-66.4499299456
 20
93.304629592
 10
-66.4806724486
 20
93.4334249636
 10
-66.5068041342
 20
93.5611213573
 10
-66.5282658056
 20
93.6874294998
 10
-66.5450088454
 20
93.8120632626
 10
-66.556995325
 20
93.9347403099
 10
-66.5641980913
 20
94.0551827389
 10
-66.5666008278
 20
94.1731177088
  0
LWPOLYLINE
  5
371
100
AcDbEntity
  8
0
100
AcDbPolyline
 62
7
  6
CONTINUOUS
 90
19
 70
0
 10
60.1317930163
 20
-92.1265457292
 10
60.1149387552
 20
-92.1365048121
 10
60.0489296546
 20
-92.1800018445
 10
59.9863264597
 20
-92.2286648721
 10
59.9271503188
 20
-92.2825259722
 10
59.8713800835
 20
-92.3415530674
 10
59.8193613366
 20
-92.4053803938
 10
59.7711173723
 20
-92.4740377576
 10
59.7266248963
 20
-92.5474953526
 10
59.6861596081
 20
-92.6252979954
 10
59.6497465142
 20
-92.7074726661
 10
59.6173606081
 20
-92.7939923848
 10
59.5892025705
 20
-92.8843210281
 10
59.565298654
 20
-92.9784822471
 10
59.5456226059
 20
-93.0764523908
 10
59.53029635
 20
-93.1776243828
 10
59.5193605272
 20
-93.2817958645
 10
59.5127744965
 20
-93.3891691946
 10
59.5105382578
 20
-93.4997443731
  0
LWPOLYLINE
  5
372
100
AcDbEntity
  8
0
100
AcDbPolyline
 62
7
  6
CONTINUOUS
 90
19
 70
0
 10
63.1319241864
 20
-97.3225905769
 10
63.1487784475
 20
-97.312631494
 10
63.2147875481
 20
-97.2691344616
 10
63.2773907431
 20
-97.2204714341
 10
63.3365668839
 20
-97.1666103339
 10
63.3923371192
 20
-97.1075832387
 10
63.4443558662
 20
-97.0437559123
 10
63.4925998305
 20
-96.9750985485
 10
63.5370923065
 20
-96.9016409536
 10
63.5775575946
 20
-96.8238383107
 10
63.6139706885
 20
-96.74166364
 10
63.6463565946
 20
-96.6551439213
 10
63.6745146322
 20
-96.564815278
 10
63.6984185488
 20
-96.470654059
 10
63.7180945968
 20
-96.3726839154
 10
63.7334208528
 20
-96.2715119233
 10
63.7443566755
 20
-96.1673404416
 10
63.7509427062
 20
-96.0599671115
 10
63.7531789449
 20
-95.949391933
  0
LWPOLYLINE
  5
373
100
AcDbEntity
  8
RACCORDO
100
AcDbPolyline
 62
250
  6
CONTINUOUS
 90
25
 70
0
 10
75.117381577
 20
-114.8155822123
 10
75.2780654664
 20
-114.7166405234
 10
75.4334591485
 20
-114.6083945985
 10
75.5831601349
 20
-114.491096576
 10
75.7270082332
 20
-114.3648718691
 10
75.8648492004
 20
-114.2298557141
 10
75.996535243
 20
-114.0861928096
 10
76.1219254651
 20
-113.934036797
 10
76.2408854172
 20
-113.7735507528
 10
76.3532871902
 20
-113.6049073054
 10
76.459010231
 20
-113.4282875933
 10
76.5579416907
 20
-113.2438804223
 10
76.6499759681
 20
-113.0518827645
 10
76.7350144544
 20
-112.8525004039
 10
76.8129661803
 20
-112.6459467056
 10
76.8837480542
 20
-112.4324416812
 10
76.947284595
 20
-112.2122122966
 10
77.0035071358
 20
-111.9854957685
 10
77.0523546603
 20
-111.7525384652
 10
77.09377518
 20
-111.5135895203
 10
77.127724465
 20
-111.2689055036
 10
77.1541659009
 20
-111.0187542035
 10
77.1730718055
 20
-110.763405899
 10
77.1844229034
 20
-110.503132658
 10
77.1882077875
 20
-110.2382136009
  0
LWPOLYLINE
  5
374
100
AcDbEntity
  8
0
100
AcDbPolyline
 62
7
  6
CONTINUOUS
 90
24
 70
0
 10
76.8851344494
 20
-113.7948713424
 10
76.9714658231
 20
-113.7432796985
 10
77.1397343835
 20
-113.6321052122
 10
77.3015825829
 20
-113.5105486745
 10
77.4570337834
 20
-113.3786478635
 10
77.6055209567
 20
-113.2368839044
 10
77.7470186698
 20
-113.0852207762
 10
77.8815523558
 20
-112.9236945
 10
78.0086312855
 20
-112.7528942637
 10
78.1282282338
 20
-112.5727861981
 10
78.240370426
 20
-112.3834041723
 10
78.3446488088
 20
-112.1854389819
 10
78.4410346631
 20
-111.9788592804
 10
78.5295567081
 20
-111.7636964143
 10
78.6098920482
 20
-111.5407352178
 10
78.682010785
 20
-111.309947211
 10
78.7459428168
 20
-111.0713608738
 10
78.8014549434
 20
-110.8258464808
 10
78.8485164146
 20
-110.5733787303
 10
78.8871579805
 20
-110.313982924
 10
78.9172386911
 20
-110.0486052415
 10
78.9387115629
 20
-109.7775610763
 10
78.9516235794
 20
-109.500535035
 10
78.9559747404
 20
-109.2175271176
  0
LINE
  5
375
100
AcDbEntity
  8
RACCORDO
100
AcDbLine
 62
250
  6
CONTINUOUS
 10
78.9559747404
 20
-109.2175271176
 11
77.1882077875
 21
-110.2382136009
  0
LINE
  5
376
100
AcDbEntity
  8
ASSI
100
AcDbLine
 62
7
  6
CONTINUOUS
 10
76.88514853
 20
-113.794895729
 11
75.117381577
 21
-114.8155822123
  0
ENDSEC
  0
SECTION
  2
OBJECTS
  0
DICTIONARY
  5
C
100
AcDbDictionary
280
0
281
1
  3
ACAD_GROUP
350
D
  3
ACAD_MLINESTYLE
350
17
  3
ACAD_LAYOUT
350
1A
  3
ACAD_PLOTSETTINGS
350
19
  3
ACAD_PLOTSTYLENAME
350
E
  0
DICTIONARY
  5
D
102
{ACAD_REACTORS
330
C
102
}
100
AcDbDictionary
280
0
281
1
  0
ACDBDICTIONARYWDFLT
  5
E
102
{ACAD_REACTORS
330
C
102
}
100
AcDbDictionary
281
1
  3
Normal
350
F
100
AcDbDictionaryWithDefault
340
F
  0
DICTIONARY
  5
17
102
{ACAD_REACTORS
330
C
102
}
100
AcDbDictionary
280
0
281
1
  3
Standard
350
18
  0
DICTIONARY
  5
19
102
{ACAD_REACTORS
330
C
102
}
100
AcDbDictionary
281
1
  0
DICTIONARY
  5
1A
102
{ACAD_REACTORS
330
C
102
}
100
AcDbDictionary
281
1
  3
Model
350
377
  3
Layout1
350
378
  0
ACDBPLACEHOLDER
  5
F
102
{ACAD_REACTORS
330
E
102
}
  0
MLINESTYLE
  5
18
102
{ACAD_REACTORS
330
17
102
}
100
AcDbMlineStyle
  2
STANDARD
 70
0
  3

 62
256
 51
90.0
 52
90.0
 71
2
 49
0.5
 62
256
  6
BYLAYER
 49
-0.5
 62
256
  6
BYLAYER
  0
LAYOUT
  5
377
102
{ACAD_REACTORS
330
1A
102
}
100
AcDbPlotSettings
  1

  2
none_device
  4
ANSI_C_(22.00_x_17.00_Inches)
  6

 40
0.0
 41
0.0
 42
0.0
 43
0.0
 44
558.8
 45
431.8
 46
0.0
 47
0.0
 48
0.0
 49
0.0
140
0.0
141
0.0
142
1.0
143
1.0
 70
1024
 72
1
 73
0
 74
0
  7

 75
0
147
1.0
148
0.0
149
0.0
100
AcDbLayout
  1
Model
 70
0
 71
0
 10
0.0
 20
0.0
 11
558.8
 21
431.8
 12
0.0
 22
0.0
 32
0.0
 14
0.0
 24
0.0
 34
0.0
 15
0.0
 25
0.0
 35
0.0
146
0.0
 13
0.0
 23
0.0
 33
0.0
 16
1.0
 26
0.0
 36
0.0
 17
0.0
 27
1.0
 37
0.0
 76
0
330
212
345
0
346
0
  0
LAYOUT
  5
378
102
{ACAD_REACTORS
330
1A
102
}
100
AcDbPlotSettings
  1

  2
none_device
  4
ANSI_C_(22.00_x_17.00_Inches)
  6

 40
0.0
 41
0.0
 42
0.0
 43
0.0
 44
558.8
 45
431.8
 46
0.0
 47
0.0
 48
0.0
 49
0.0
140
0.0
141
0.0
142
1.0
143
1.0
 70
0
 72
1
 73
0
 74
0
  7

 75
0
147
1.0
148
0.0
149
0.0
100
AcDbLayout
  1
Layout1
 70
0
 71
1
 10
0.0
 20
0.0
 11
558.8
 21
431.8
 12
0.0
 22
0.0
 32
0.0
 14
0.0
 24
0.0
 34
0.0
 15
0.0
 25
0.0
 35
0.0
146
0.0
 13
0.0
 23
0.0
 33
0.0
 16
1.0
 26
0.0
 36
0.0
 17
0.0
 27
1.0
 37
0.0
 76
0
330
213
345
0
346
0
  0
ENDSEC
  0
EOF
