  0
SECTION
  2
HEADER
  9
$ACADVER
  1
AC1021
  9
$DWGCODEPAGE
  3
ANSI_1252
  9
$EXTMAX
 10
558.8
 20
431.8
 30
0.0
  9
$EXTMIN
 10
0.0
 20
0.0
 30
0.0
  9
$LIMMIN
 10
0.0
 20
0.0
  9
$LIMMAX
 10
558.8
 20
431.8
  9
$VIEWCTR
 10
279.4
 20
215.9
  9
$VIEWSIZE
 40
431.8
  9
$CLAYER
  8
0
  9
$LTSCALE
 40
30.734
  9
$CELTYPE
  6
BYLAYER
  9
$DIMSCALE
 40
1.0
  9
$DIMASZ
 40
3.0
  9
$DIMEXO
 40
0.5
  9
$DIMDLI
 40
21.2344
  9
$DIMEXE
 40
1.5
  9
$DIMCEN
 40
5.0292
  9
$DIMLFAC
 40
1.0
  9
$DIMBLK
  1
_FILLED
  9
$DIMALT
 70
0
  9
$DIMALTF
 40
25.4
  9
$DIMTXT
 40
3.0
  9
$DIMTOL
 70
1
  9
$DIMLIM
 70
0
  9
$DIMTFAC
 40
1.0
  9
$DIMTP
 40
0.01
  9
$DIMTM
 40
0.01
  9
$DIMGAP
 40
0.625
  9
$DIMDSEP
 70
44
  9
$AUNITS
 70
0
  9
$PDMODE
 70
3
  9
$PDSIZE
 40
3.0
  9
$HANDSEED
  5
38F
  9
$TILEMODE
 70
1
  9
$MEASUREMENT
 70
1
  9
$INSUNITS
 70
4
  0
ENDSEC
  0
SECTION
  2
CLASSES
  0
CLASS
  1
ACDBDICTIONARYWDFLT
  2
AcDbDictionaryWithDefault
  3
AutoCAD 2000
 90
0
 91
1
280
0
281
0
  0
CLASS
  1
ACDBPLACEHOLDER
  2
AcDbPlaceHolder
  3
AutoCAD 2000
 90
0
 91
1
280
0
281
0
  0
CLASS
  1
LAYOUT
  2
AcDbLayout
  3
AutoCAD 2000
 90
0
 91
0
280
0
281
0
  0
ENDSEC
  0
SECTION
  2
TABLES
  0
TABLE
  2
VPORT
  5
8
100
AcDbSymbolTable
 70
2
  0
VPORT
  5
1F4
100
AcDbSymbolTableRecord
100
AcDbViewportTableRecord
  2
*ACTIVE
 70
0
 10
0.0
 20
0.0
 11
1.0
 21
1.0
 12
279.4
 22
215.9
 13
0.0
 23
0.0
 14
1.0
 24
1.0
 15
0.0
 25
0.0
 16
0.0
 26
0.0
 36
1.0
 17
0.0
 27
0.0
 37
0.0
 40
431.8
 41
1.2941176471
 42
50.0
 43
0.0
 44
0.0
 50
0.0
 51
0.0
 71
0
 72
100
 73
1
 74
1
 75
0
 76
0
 77
0
 78
0
  0
ENDTAB
  0
TABLE
  2
LTYPE
  5
5
100
AcDbSymbolTable
 70
6
  0
LTYPE
  5
14
100
AcDbSymbolTableRecord
100
AcDbLinetypeTableRecord
  2
BYBLOCK
 70
0
  3

 72
65
 73
0
 40
0.0
  0
LTYPE
  5
15
100
AcDbSymbolTableRecord
100
AcDbLinetypeTableRecord
  2
BYLAYER
 70
0
  3

 72
65
 73
0
 40
0.0
  0
LTYPE
  5
16
100
AcDbSymbolTableRecord
100
AcDbLinetypeTableRecord
  2
CONTINUOUS
 70
64
  3
Solid line
 72
65
 73
0
 40
0.0
  0
LTYPE
  5
1F5
100
AcDbSymbolTableRecord
100
AcDbLinetypeTableRecord
  2
CENTER
 70
64
  3
____ _ ____ _ ____ _ ____ _ ____ _ ____ _ ____
 72
65
 73
4
 40
0.6
 49
0.375
 74
0
 49
-0.075
 74
0
 49
0.075
 74
0
 49
-0.075
 74
0
  0
LTYPE
  5
1F6
100
AcDbSymbolTableRecord
100
AcDbLinetypeTableRecord
  2
HIDDEN
 70
64
  3
- - - - - - - - - - - - - - - - - - - -
 72
65
 73
2
 40
0.2
 49
0.1
 74
0
 49
-0.1
 74
0
  0
LTYPE
  5
1F7
100
AcDbSymbolTableRecord
100
AcDbLinetypeTableRecord
  2
PHANTOM
 70
64
  3
_____ _ _ _____ _ _ _____ _ _ _____
 72
65
 73
6
 40
0.8
 49
0.45
 74
0
 49
-0.05
 74
0
 49
0.1
 74
0
 49
-0.05
 74
0
 49
0.1
 74
0
 49
-0.05
 74
0
  0
LTYPE
  5
1F8
100
AcDbSymbolTableRecord
100
AcDbLinetypeTableRecord
  2
DOT
 70
64
  3
. . . . . . . . . . . . . . . . . . . .
 72
65
 73
2
 40
0.2
 49
0.1
 74
0
 49
-0.1
 74
0
  0
LTYPE
  5
1F9
100
AcDbSymbolTableRecord
100
AcDbLinetypeTableRecord
  2
DASHED
 70
64
  3
- - - - - - - - - - - - - - - - - - - -
 72
65
 73
2
 40
0.2
 49
0.1
 74
0
 49
-0.1
 74
0
  0
ENDTAB
  0
TABLE
  2
LAYER
  5
2
100
AcDbSymbolTable
 70
36
  0
LAYER
  5
10
100
AcDbSymbolTableRecord
100
AcDbLayerTableRecord
  2
0
 70
0
 62
7
  6
CONTINUOUS
370
-3
390
F
  0
LAYER
  5
1FA
100
AcDbSymbolTableRecord
100
AcDbLayerTableRecord
  2
DEFAULT_1
 70
0
 62
7
  6
CENTER
370
-3
390
F
  0
LAYER
  5
1FB
100
AcDbSymbolTableRecord
100
AcDbLayerTableRecord
  2
DEFAULT_2
 70
0
 62
7
  6
HIDDEN
370
-3
390
F
  0
LAYER
  5
1FC
100
AcDbSymbolTableRecord
100
AcDbLayerTableRecord
  2
DEFAULT_3
 70
0
 62
7
  6
PHANTOM
370
-3
390
F
  0
LAYER
  5
1FD
100
AcDbSymbolTableRecord
100
AcDbLayerTableRecord
  2
ASSI
 70
0
 62
7
  6
CONTINUOUS
370
-3
390
F
  0
LAYER
  5
1FE
100
AcDbSymbolTableRecord
100
AcDbLayerTableRecord
  2
COORDINATE
 70
0
 62
7
  6
CONTINUOUS
370
-3
390
F
  0
LAYER
  5
1FF
100
AcDbSymbolTableRecord
100
AcDbLayerTableRecord
  2
COPY_PUBLISH
 70
0
 62
7
  6
CONTINUOUS
370
-3
390
F
  0
LAYER
  5
200
100
AcDbSymbolTableRecord
100
AcDbLayerTableRecord
  2
COSMETIC
 70
0
 62
7
  6
CONTINUOUS
370
-3
390
F
  0
LAYER
  5
201
100
AcDbSymbolTableRecord
100
AcDbLayerTableRecord
  2
COSMETICI
 70
0
 62
7
  6
CONTINUOUS
370
-3
390
F
  0
LAYER
  5
202
100
AcDbSymbolTableRecord
100
AcDbLayerTableRecord
  2
CURVE
 70
0
 62
7
  6
CONTINUOUS
370
-3
390
F
  0
LAYER
  5
203
100
AcDbSymbolTableRecord
100
AcDbLayerTableRecord
  2
DRAFT
 70
0
 62
7
  6
CONTINUOUS
370
-3
390
F
  0
LAYER
  5
204
100
AcDbSymbolTableRecord
100
AcDbLayerTableRecord
  2
IMPORT_IGES
 70
0
 62
7
  6
CONTINUOUS
370
-3
390
F
  0
LAYER
  5
205
100
AcDbSymbolTableRecord
100
AcDbLayerTableRecord
  2
INTF_1
 70
0
 62
7
  6
CONTINUOUS
370
-3
390
F
  0
LAYER
  5
206
100
AcDbSymbolTableRecord
100
AcDbLayerTableRecord
  2
NOTE
 70
0
 62
7
  6
CONTINUOUS
370
-3
390
F
  0
LAYER
  5
207
100
AcDbSymbolTableRecord
100
AcDbLayerTableRecord
  2
PIANI
 70
0
 62
7
  6
CONTINUOUS
370
-3
390
F
  0
LAYER
  5
208
100
AcDbSymbolTableRecord
100
AcDbLayerTableRecord
  2
PUNTI
 70
0
 62
7
  6
CONTINUOUS
370
-3
390
F
  0
LAYER
  5
209
100
AcDbSymbolTableRecord
100
AcDbLayerTableRecord
  2
RACCORDO
 70
0
 62
7
  6
CONTINUOUS
370
-3
390
F
  0
LAYER
  5
20A
100
AcDbSymbolTableRecord
100
AcDbLayerTableRecord
  2
RGB____0____0____0__
 70
0
 62
7
  6
CONTINUOUS
370
-3
390
F
  0
LAYER
  5
20B
100
AcDbSymbolTableRecord
100
AcDbLayerTableRecord
  2
SIMBOLI
 70
0
 62
7
  6
CONTINUOUS
370
-3
390
F
  0
LAYER
  5
20C
100
AcDbSymbolTableRecord
100
AcDbLayerTableRecord
  2
SMUSSO
 70
0
 62
7
  6
CONTINUOUS
370
-3
390
F
  0
LAYER
  5
20D
100
AcDbSymbolTableRecord
100
AcDbLayerTableRecord
  2
SNAPLINE
 70
0
 62
7
  6
CONTINUOUS
370
-3
390
F
  0
LAYER
  5
20E
100
AcDbSymbolTableRecord
100
AcDbLayerTableRecord
  2
SUPERFICI
 70
0
 62
7
  6
CONTINUOUS
370
-3
390
F
  0
LAYER
  5
20F
100
AcDbSymbolTableRecord
100
AcDbLayerTableRecord
  2
TRASH
 70
0
 62
7
  6
CONTINUOUS
370
-3
390
F
  0
ENDTAB
  0
TABLE
  2
STYLE
  5
3
100
AcDbSymbolTable
 70
1
  0
STYLE
  5
11
100
AcDbSymbolTableRecord
100
AcDbTextStyleTableRecord
  2
STANDARD
 70
0
 40
0.0
 41
0.8
 50
0.0
 71
0
 42
0.2
  3
txt
  4

  0
STYLE
  5
210
100
AcDbSymbolTableRecord
100
AcDbTextStyleTableRecord
  2
TEXTSTYLE_1
 70
0
 40
0.0
 41
0.8
 50
0.0
 71
0
 42
0.2
  3
gdt
  4

  0
ENDTAB
  0
TABLE
  2
VIEW
  5
6
100
AcDbSymbolTable
 70
0
  0
ENDTAB
  0
TABLE
  2
UCS
  5
7
100
AcDbSymbolTable
 70
0
  0
ENDTAB
  0
TABLE
  2
APPID
  5
9
100
AcDbSymbolTable
 70
1
  0
APPID
  5
211
100
AcDbSymbolTableRecord
100
AcDbRegAppTableRecord
  2
ACAD
 70
0
  0
ENDTAB
  0
TABLE
  2
BLOCK_RECORD
  5
1
100
AcDbSymbolTable
 70
0
  0
BLOCK_RECORD
  5
212
100
AcDbSymbolTableRecord
100
AcDbBlockTableRecord
  2
*Model_Space
  0
BLOCK_RECORD
  5
213
100
AcDbSymbolTableRecord
100
AcDbBlockTableRecord
  2
*Paper_Space
  0
ENDTAB
  0
TABLE
  2
DIMSTYLE
  5
A
100
AcDbSymbolTable
 70
1
100
AcDbDimStyleTable
 71
0
  0
DIMSTYLE
105
214
100
AcDbSymbolTableRecord
100
AcDbDimStyleTableRecord
  2
STANDARD
 70
0
  3

  4

 40
1.0
 41
3.0
 42
0.5
 43
0.38
 44
1.5
 45
0.0
 46
0.0
 47
0.01
 48
0.01
140
3.0
141
0.09
142
0.0
143
25.4
144
1.0
145
0.0
146
1.0
147
0.625
 71
1.0
 72
0.0
 73
0
 74
0
 75
0
 76
0
 77
1
 78
8
170
0
171
1
172
0
173
0
174
0
175
0
176
0
177
0
178
0
270
2
271
2
272
2
273
2
274
2
275
0
280
0
281
0
282
0
283
1
284
8
285
0
286
0
287
3
288
0
340
11
278
44
  0
ENDTAB
  0
ENDSEC
  0
SECTION
  2
BLOCKS
  0
BLOCK
  5
20
100
AcDbEntity
  8
0
100
AcDbBlockBegin
  2
*Model_Space
 70
0
 10
0.0
 20
0.0
 30
0.0
  3
*Model_Space
  1

  0
ENDBLK
  5
21
100
AcDbEntity
  8
0
100
AcDbBlockEnd
  0
BLOCK
  5
1C
100
AcDbEntity
  8
0
100
AcDbBlockBegin
  2
*Paper_Space
 70
0
 10
0.0
 20
0.0
 30
0.0
  3
*Paper_Space
  1

  0
ENDBLK
  5
1D
100
AcDbEntity
  8
0
100
AcDbBlockEnd
  0
ENDSEC
  0
SECTION
  2
ENTITIES
  0
LWPOLYLINE
  5
215
100
AcDbEntity
  8
RACCORDO
100
AcDbPolyline
 62
7
  6
CONTINUOUS
 90
28
 70
0
 10
-108.8313697977
 20
132.7560765476
 10
-109.0021380592
 20
132.6525436903
 10
-109.1689977606
 20
132.5413393744
 10
-109.3316861284
 20
132.4225363551
 10
-109.4898088473
 20
132.2963365564
 10
-109.6432639552
 20
132.1627381118
 10
-109.7922018895
 20
132.0214680891
 10
-109.9363784597
 20
131.8725646366
 10
-110.0755035475
 20
131.7161309971
 10
-110.2096039574
 20
131.5518979266
 10
-110.3384460597
 20
131.3798529151
 10
-110.4617108481
 20
131.200111552
 10
-110.5792657252
 20
131.01252436
 10
-110.6908992848
 20
130.8170243448
 10
-110.7962804967
 20
130.6137612367
 10
-110.8951125566
 20
130.4028764686
 10
-110.9872023626
 20
130.1843135156
 10
-111.0722680011
 20
129.9582285943
 10
-111.1499524544
 20
129.7250933441
 10
-111.2201218096
 20
129.4848214068
 10
-111.2825452397
 20
129.2376434633
 10
-111.3368644204
 20
128.9845719581
 10
-111.3830064631
 20
128.72567985
 10
-111.4208781792
 20
128.4611398529
 10
-111.4502902425
 20
128.19222148
 10
-111.4712414845
 20
127.9194918298
 10
-111.483799697
 20
127.6427481226
 10
-111.4879824458
 20
127.3621587496
  0
LINE
  5
216
100
AcDbEntity
  8
ASSI
100
AcDbLine
 62
7
  6
CONTINUOUS
 10
-107.0636028447
 20
133.776763031
 11
-108.8313697977
 21
132.7560765476
  0
LINE
  5
217
100
AcDbEntity
  8
RACCORDO
100
AcDbLine
 62
250
  6
CONTINUOUS
 10
-102.0633612433
 20
133.2813512542
 11
-103.8311281963
 21
132.2606647709
  0
LWPOLYLINE
  5
218
100
AcDbEntity
  8
0
100
AcDbPolyline
 62
250
  6
CONTINUOUS
 90
12
 70
0
 10
-99.1491216482
 20
113.7701250489
 10
-99.187654771
 20
113.7021511511
 10
-99.2249300715
 20
113.6258566447
 10
-99.2584747195
 20
113.5456237384
 10
-99.2882248427
 20
113.4616051833
 10
-99.3141237894
 20
113.3739609717
 10
-99.3361222569
 20
113.2828579742
 10
-99.354178383
 20
113.1884695855
 10
-99.368257805
 20
113.0909754513
 10
-99.3783337231
 20
112.9905611469
 10
-99.3843869559
 20
112.8874178267
 10
-99.3864059812
 20
112.78174183
  0
LWPOLYLINE
  5
219
100
AcDbEntity
  8
0
100
AcDbPolyline
 62
7
  6
CONTINUOUS
 90
19
 70
0
 10
-99.6743464272
 20
113.6299984784
 10
-99.7382271286
 20
113.5898101466
 10
-99.7993285976
 20
113.5446406578
 10
-99.8572305272
 20
113.4947889895
 10
-99.9119146692
 20
113.4402284371
 10
-99.9633992719
 20
113.3809857051
 10
-100.0113912539
 20
113.3173980389
 10
-100.0558706953
 20
113.2494406574
 10
-100.0968575159
 20
113.1771383417
 10
-100.1341183941
 20
113.1009026802
 10
-100.1676320793
 20
113.0207112393
 10
-100.197419822
 20
112.9365864525
 10
-100.2233120525
 20
112.849007209
 10
-100.245286553
 20
112.7579538064
 10
-100.2633655412
 20
112.6634459471
 10
-100.2774461008
 20
112.5660216267
 10
-100.287493926
 20
112.4658601772
 10
-100.2935433226
 20
112.3627822666
 10
-100.2955942904
 20
112.2567878951
  0
LWPOLYLINE
  5
21A
100
AcDbEntity
  8
0
100
AcDbPolyline
 62
7
  6
CONTINUOUS
 90
19
 70
0
 10
-96.6742014664
 20
108.4339297517
 10
-96.610320765
 20
108.4741180836
 10
-96.5492192961
 20
108.5192875723
 10
-96.4913173664
 20
108.5691392406
 10
-96.4366332244
 20
108.623699793
 10
-96.3851486217
 20
108.682942525
 10
-96.3371566397
 20
108.7465301913
 10
-96.2926771984
 20
108.8144875727
 10
-96.2516903777
 20
108.8867898884
 10
-96.2144294995
 20
108.96302555
 10
-96.1809158143
 20
109.0432169909
 10
-96.1511280716
 20
109.1273417776
 10
-96.1252358411
 20
109.2149210211
 10
-96.1032613406
 20
109.3059744237
 10
-96.0851823524
 20
109.4004822831
 10
-96.0711017929
 20
109.4979066034
 10
-96.0610539676
 20
109.598068053
 10
-96.055004571
 20
109.7011459635
 10
-96.0529536032
 20
109.8071403351
  0
LWPOLYLINE
  5
21B
100
AcDbEntity
  8
0
100
AcDbPolyline
 62
250
  6
CONTINUOUS
 90
10
 70
0
 10
-98.555076592
 20
113.661161497
 10
-98.5638591288
 20
113.6401550847
 10
-98.5907047303
 20
113.564338755
 10
-98.6140751395
 20
113.4852505884
 10
-98.6339259289
 20
113.4030407872
 10
-98.6502191965
 20
113.317866148
 10
-98.6629237614
 20
113.229890045
 10
-98.6720155434
 20
113.1392804772
 10
-98.6774774421
 20
113.0462096146
 10
-98.6792992
 20
112.9508547037
  0
LWPOLYLINE
  5
21C
100
AcDbEntity
  8
RACCORDO
100
AcDbPolyline
 62
250
  6
CONTINUOUS
 90
18
 70
0
 10
-105.2453417587
 20
-13.0711234081
 10
-105.2437399344
 20
-13.1478969748
 10
-105.2389380902
 20
-13.2226468782
 10
-105.2309471037
 20
-13.2952037856
 10
-105.2197850772
 20
-13.3654033323
 10
-105.2054772963
 20
-13.4330864938
 10
-105.1880561726
 20
-13.498099946
 10
-105.1675611706
 20
-13.5602964125
 10
-105.144038718
 20
-13.6195349982
 10
-105.1175421009
 20
-13.6756815087
 10
-105.0881313425
 20
-13.7286087542
 10
-105.0558730677
 20
-13.7781968373
 10
-105.0208403518
 20
-13.8243334252
 10
-104.9831125553
 20
-13.8669140036
 10
-104.9427751436
 20
-13.9058421138
 10
-104.8999194941
 20
-13.9410295711
 10
-104.8546426885
 20
-13.9723966647
 10
-104.8311765166
 20
-13.9865971304
  0
LWPOLYLINE
  5
21D
100
AcDbEntity
  8
RACCORDO
100
AcDbPolyline
 62
7
  6
CONTINUOUS
 90
46
 70
0
 10
-111.4879824458
 20
-2.4566152605
 10
-111.4836911648
 20
-2.7447122425
 10
-111.470882229
 20
-3.0354114789
 10
-111.4496517201
 20
-3.3284780788
 10
-111.4200709311
 20
-3.6238813404
 10
-111.382242087
 20
-3.9212042298
 10
-111.3363566891
 20
-4.2196045527
 10
-111.2825736435
 20
-4.5187275598
 10
-111.2210146876
 20
-4.8184317782
 10
-111.1518939164
 20
-5.1181461
 10
-111.0754172832
 20
-5.4174459842
 10
-110.9917068017
 20
-5.7162495299
 10
-110.9008688036
 20
-6.014470612
 10
-110.8030242056
 20
-6.3119335823
 10
-110.6983431818
 20
-6.6083092524
 10
-110.5870066932
 20
-6.9032621181
 10
-110.4692003463
 20
-7.1964677317
 10
-110.3450530836
 20
-7.4877502854
 10
-110.2146648629
 20
-7.7769841978
 10
-110.0781874968
 20
-8.0639159937
 10
-109.9357704508
 20
-8.3483011859
 10
-109.7874993717
 20
-8.6300166081
 10
-109.6335035287
 20
-8.9088426841
 10
-109.4739461909
 20
-9.1845007279
 10
-109.3089578392
 20
-9.4567737815
 10
-109.1387029766
 20
-9.7253906711
 10
-108.9633166321
 20
-9.9901313318
 10
-108.782877902
 20
-10.2508539354
 10
-108.5975336969
 20
-10.5073106895
 10
-108.4074309247
 20
-10.7592566978
 10
-108.2126340573
 20
-11.0065519011
 10
-108.0132362546
 20
-11.249006773
 10
-107.8094302621
 20
-11.4863099881
 10
-107.601420316
 20
-11.7181492401
 10
-107.3893801737
 20
-11.9442564868
 10
-107.1734333037
 20
-12.1644194711
 10
-106.9536968582
 20
-12.3784279381
 10
-106.7302854138
 20
-12.5860688267
 10
-106.5033728599
 20
-12.7870722012
 10
-106.2731454862
 20
-12.9811623223
 10
-106.0397123988
 20
-13.168129613
 10
-105.8032475422
 20
-13.3477092888
 10
-105.5640127418
 20
-13.5195784012
 10
-105.3221809572
 20
-13.6834894367
 10
-105.0778534021
 20
-13.8392413012
 10
-104.8311765166
 20
-13.9865971304
  0
LWPOLYLINE
  5
21E
100
AcDbEntity
  8
RACCORDO
100
AcDbPolyline
 62
250
  6
CONTINUOUS
 90
52
 70
0
 10
-110.9021960082
 20
-3.2731644472
 10
-110.8994945192
 20
-3.476145539
 10
-110.8914533829
 20
-3.6816487705
 10
-110.8780725995
 20
-3.8896741418
 10
-110.8593295029
 20
-4.1004262454
 10
-110.8352467591
 20
-4.3137004888
 10
-110.8058923658
 20
-4.5288830939
 10
-110.771251109
 20
-4.7459778347
 10
-110.7313382026
 20
-4.9649809373
 10
-110.6862672866
 20
-5.1852673018
 10
-110.636023715
 20
-5.4068396816
 10
-110.5806221338
 20
-5.6296953233
 10
-110.5202201208
 20
-5.8532008667
 10
-110.4548037336
 20
-6.0773574747
 10
-110.3843869145
 20
-6.3021639844
 10
-110.3091690682
 20
-6.5269835464
 10
-110.229136169
 20
-6.7518173202
 10
-110.1443022425
 20
-6.9766641463
 10
-110.05490877
 20
-7.200883697
 10
-109.9609429388
 20
-7.4244736698
 10
-109.8624175616
 20
-7.6474363672
 10
-109.7596125576
 20
-7.869138369
 10
-109.6525155969
 20
-8.0895763619
 10
-109.5411390095
 20
-8.3087536592
 10
-109.4257997041
 20
-8.5260467795
 10
-109.3064868134
 20
-8.7414496746
 10
-109.1832112048
 20
-8.9549683927
 10
-109.0563223896
 20
-9.1659975982
 10
-108.9258097235
 20
-9.3745308684
 10
-108.7916838507
 20
-9.580574626
 10
-108.6543262163
 20
-9.7835428035
 10
-108.5137277871
 20
-9.9834263923
 10
-108.3698975962
 20
-10.1802344009
 10
-108.2232441875
 20
-10.3734077873
 10
-108.0737591393
 20
-10.5629366412
 10
-107.9214508732
 20
-10.7488308729
 10
-107.7667531987
 20
-10.9305611704
 10
-107.6096600968
 20
-11.1081148126
 10
-107.4501775865
 20
-11.2815045206
 10
-107.2887575334
 20
-11.4502391459
 10
-107.1253940073
 20
-11.6143060106
 10
-106.9600929384
 20
-11.7737177925
 10
-106.7933239822
 20
-11.9280213774
 10
-106.6250821623
 20
-12.0772027189
 10
-106.4553724552
 20
-12.2212758632
 10
-106.2846794464
 20
-12.3598298351
 10
-106.1129979781
 20
-12.4928500757
 10
-105.9403332082
 20
-12.6203511438
 10
-105.7671851954
 20
-12.7419657409
 10
-105.593720626
 20
-12.8575714343
 10
-105.4197728138
 20
-12.9672906567
 10
-105.2453417587
 20
-13.0711234081
  0
LINE
  5
21F
100
AcDbEntity
  8
RACCORDO
100
AcDbLine
 62
7
  6
CONTINUOUS
 10
-111.4879824458
 20
127.3621587496
 11
-111.4879824458
 21
-2.4566152605
  0
LINE
  5
220
100
AcDbEntity
  8
RACCORDO
100
AcDbLine
 62
250
  6
CONTINUOUS
 10
-110.9021960082
 20
126.5456095629
 11
-110.9021960082
 21
-3.2731644472
  0
LWPOLYLINE
  5
221
100
AcDbEntity
  8
RACCORDO
100
AcDbPolyline
 62
250
  6
CONTINUOUS
 90
34
 70
0
 10
-105.2453417587
 20
129.8111750306
 10
-105.2437399344
 20
129.8897983437
 10
-105.2389380902
 20
129.9700932963
 10
-105.2309471038
 20
130.0518779944
 10
-105.2197850773
 20
130.1349671694
 10
-105.2054772964
 20
130.2191725976
 10
-105.1880561727
 20
130.3043035267
 10
-105.1675611708
 20
130.3901671076
 10
-105.1440387183
 20
130.4765688318
 10
-105.1175421012
 20
130.5633129716
 10
-105.0881313428
 20
130.6502030237
 10
-105.0558730681
 20
130.737042154
 10
-105.0208403522
 20
130.8236336441
 10
-104.9831125556
 20
130.9097813364
 10
-104.9427751439
 20
130.9952900787
 10
-104.8999194943
 20
131.079966166
 10
-104.8546426886
 20
131.16361778
 10
-104.8070472934
 20
131.2460554226
 10
-104.7572411275
 20
131.3270923462
 10
-104.705337018
 20
131.406544976
 10
-104.6514525443
 20
131.4842333262
 10
-104.5957097722
 20
131.5599814078
 10
-104.5382349769
 20
131.6336176269
 10
-104.4791583573
 20
131.7049751739
 10
-104.4186137411
 20
131.773892401
 10
-104.3567382811
 20
131.8402131885
 10
-104.2936721453
 20
131.9037872985
 10
-104.2295581986
 20
131.9644707151
 10
-104.1645416799
 20
132.022125971
 10
-104.0987698724
 20
132.0766224584
 10
-104.0323917704
 20
132.1278367253
 10
-103.9655577417
 20
132.1756527549
 10
-103.8984191869
 20
132.2199622285
 10
-103.8311281963
 20
132.2606647709
  0
LWPOLYLINE
  5
222
100
AcDbEntity
  8
0
100
AcDbPolyline
 62
7
  6
CONTINUOUS
 90
55
 70
0
 10
-100.2955942904
 20
112.2567878951
 10
-100.2935433226
 20
112.1484251173
 10
-100.287493926
 20
112.0383615152
 10
-100.2774461008
 20
111.9265970889
 10
-100.2633655412
 20
111.8129128914
 10
-100.245286553
 20
111.6975278695
 10
-100.2233120525
 20
111.5810988646
 10
-100.197419822
 20
111.4636199223
 10
-100.1676320793
 20
111.345096997
 10
-100.1341183941
 20
111.2262047925
 10
-100.0968575159
 20
111.1069412028
 10
-100.0558706953
 20
110.9873083339
 10
-100.0113912539
 20
110.8679872085
 10
-99.9633992719
 20
110.7489796044
 10
-99.9119146692
 20
110.6302837437
 10
-99.8572305272
 20
110.5125753149
 10
-99.7993285976
 20
110.3958599495
 10
-99.7382271286
 20
110.280132016
 10
-99.6742739468
 20
110.1660503076
 10
-99.6074527876
 20
110.0536242133
 10
-99.5377799155
 20
109.942844344
 10
-99.4656519505
 20
109.8343413256
 10
-99.3910548903
 20
109.728128144
 10
-99.3140027372
 20
109.6241918132
 10
-99.2349341186
 20
109.5231240016
 10
-99.1538375337
 20
109.4249410696
 10
-99.0707244833
 20
109.3296266568
 10
-98.986068097
 20
109.2377233503
 10
-98.8998595726
 20
109.1492506052
 10
-98.8121077122
 20
109.0641889663
 10
-98.7233120525
 20
108.983022656
 10
-98.6334666402
 20
108.9057738908
 10
-98.5425774285
 20
108.8324204542
 10
-98.4511618137
 20
108.763379918
 10
-98.3592167935
 20
108.6986768807
 10
-98.2667453702
 20
108.6382867439
 10
-98.1742739468
 20
108.5825532847
 10
-98.0818025235
 20
108.5315030621
 10
-97.9893311001
 20
108.4851095171
 10
-97.8973860799
 20
108.4436367498
 10
-97.8059704651
 20
108.4071128253
 10
-97.7150812534
 20
108.3755096786
 10
-97.6252358411
 20
108.3490072137
 10
-97.5364401814
 20
108.3276345219
 10
-97.4486883211
 20
108.311362512
 10
-97.3624797966
 20
108.300283814
 10
-97.2778234103
 20
108.2944280476
 10
-97.1947103599
 20
108.2937655931
 10
-97.113613775
 20
108.2983002217
 10
-97.0345451564
 20
108.3080615744
 10
-96.9574930033
 20
108.3230200101
 10
-96.8828959431
 20
108.3430903765
 10
-96.8107679781
 20
108.3683018289
 10
-96.741095106
 20
108.3986252118
 10
-96.6742014664
 20
108.4339297517
  0
LWPOLYLINE
  5
223
100
AcDbEntity
  8
0
100
AcDbPolyline
 62
7
  6
CONTINUOUS
 90
55
 70
0
 10
-96.0529536032
 20
109.8071403351
 10
-96.055004571
 20
109.9155031129
 10
-96.0610539676
 20
110.0255667149
 10
-96.0711017929
 20
110.1373311412
 10
-96.0851823524
 20
110.2510153388
 10
-96.1032613406
 20
110.3664003606
 10
-96.1252358411
 20
110.4828293655
 10
-96.1511280716
 20
110.6003083078
 10
-96.1809158143
 20
110.7188312332
 10
-96.2144294995
 20
110.8377234377
 10
-96.2516903777
 20
110.9569870274
 10
-96.2926771984
 20
111.0766198962
 10
-96.3371566397
 20
111.1959410216
 10
-96.3851486217
 20
111.3149486257
 10
-96.4366332244
 20
111.4336444864
 10
-96.4913173664
 20
111.5513529153
 10
-96.5492192961
 20
111.6680682806
 10
-96.610320765
 20
111.7837962141
 10
-96.6742739468
 20
111.8978779226
 10
-96.741095106
 20
112.0103040169
 10
-96.8107679781
 20
112.1210838861
 10
-96.8828959431
 20
112.2295869045
 10
-96.9574930033
 20
112.3358000862
 10
-97.0345451564
 20
112.4397364169
 10
-97.113613775
 20
112.5408042285
 10
-97.1947103599
 20
112.6389871605
 10
-97.2778234103
 20
112.7343015733
 10
-97.3624797966
 20
112.8262048798
 10
-97.4486883211
 20
112.914677625
 10
-97.5364401814
 20
112.9997392638
 10
-97.6252358411
 20
113.0809055742
 10
-97.7150812534
 20
113.1581543393
 10
-97.8059704651
 20
113.231507776
 10
-97.8973860799
 20
113.3005483121
 10
-97.9893311001
 20
113.3652513494
 10
-98.0818025235
 20
113.4256414862
 10
-98.1742739468
 20
113.4813749454
 10
-98.2667453702
 20
113.532425168
 10
-98.3592167935
 20
113.578818713
 10
-98.4511618137
 20
113.6202914804
 10
-98.5425774285
 20
113.6568154048
 10
-98.6334666402
 20
113.6884185515
 10
-98.7233120525
 20
113.7149210165
 10
-98.8121077122
 20
113.7362937082
 10
-98.8998595726
 20
113.7525657181
 10
-98.986068097
 20
113.7636444161
 10
-99.0707244833
 20
113.7695001825
 10
-99.1538375337
 20
113.770162637
 10
-99.2349341186
 20
113.7656280085
 10
-99.3140027372
 20
113.7558666557
 10
-99.3910548903
 20
113.74090822
 10
-99.4656519505
 20
113.7208378537
 10
-99.5377799155
 20
113.6956264013
 10
-99.6074527876
 20
113.6653030183
 10
-99.6743464272
 20
113.6299984784
  0
LWPOLYLINE
  5
224
100
AcDbEntity
  8
0
100
AcDbPolyline
 62
250
  6
CONTINUOUS
 90
48
 70
0
 10
-99.3864059812
 20
-0.7076266442
 10
-99.3843869559
 20
-0.8156341607
 10
-99.3783337231
 20
-0.9257676024
 10
-99.368257805
 20
-1.0378173245
 10
-99.354178383
 20
-1.1515700223
 10
-99.3361222569
 20
-1.2668091729
 10
-99.3141237894
 20
-1.3833154491
 10
-99.2882248427
 20
-1.5008671153
 10
-99.2584747195
 20
-1.619240367
 10
-99.2249300715
 20
-1.7382097919
 10
-99.187654771
 20
-1.857548881
 10
-99.1467197661
 20
-1.9770305082
 10
-99.1022029642
 20
-2.0964272806
 10
-99.0541890999
 20
-2.2155119321
 10
-99.0027695742
 20
-2.3340577659
 10
-98.9480422619
 20
-2.451839133
 10
-98.8901113295
 20
-2.5686318467
 10
-98.8290870584
 20
-2.6842135674
 10
-98.7650856344
 20
-2.7983642373
 10
-98.698228909
 20
-2.9108665333
 10
-98.628644132
 20
-3.021506335
 10
-98.5564637276
 20
-3.1300730874
 10
-98.4818250677
 20
-3.2363601614
 10
-98.4048702533
 20
-3.3401651945
 10
-98.3257458122
 20
-3.4412905341
 10
-98.2446023911
 20
-3.5395436524
 10
-98.1615944267
 20
-3.6347375553
 10
-98.07687989
 20
-3.7266910811
 10
-97.9906200141
 20
-3.8152292137
 10
-97.9029790225
 20
-3.9001833867
 10
-97.8141237778
 20
-3.9813918527
 10
-97.7242234403
 20
-4.0587000128
 10
-97.6334491227
 20
-4.1319607258
 10
-97.5419735969
 20
-4.2010345539
 10
-97.4499709814
 20
-4.265790017
 10
-97.3576164184
 20
-4.3261038407
 10
-97.2650857181
 20
-4.3818612081
 10
-97.1725550188
 20
-4.4329559816
 10
-97.0802004571
 20
-4.4792909
 10
-96.9881978409
 20
-4.5207777596
 10
-96.896722309
 20
-4.5573375865
 10
-96.8059479833
 20
-4.588900791
 10
-96.7160476438
 20
-4.6154072956
 10
-96.6271924143
 20
-4.6368066437
 10
-96.5395514432
 20
-4.6530580969
 10
-96.4532915669
 20
-4.6641307174
 10
-96.3685769836
 20
-4.6700034278
 10
-96.2902660874
 20
-4.6706276098
  0
LWPOLYLINE
  5
225
100
AcDbEntity
  8
0
100
AcDbPolyline
 62
250
  6
CONTINUOUS
 90
46
 70
0
 10
-98.6792992
 20
-0.5385137705
 10
-98.6774774422
 20
-0.6359723989
 10
-98.6720155438
 20
-0.7353505231
 10
-98.6629237621
 20
-0.8364590516
 10
-98.6502191974
 20
-0.9391060674
 10
-98.6339259299
 20
-1.0430957642
 10
-98.6140751406
 20
-1.14822876
 10
-98.5907047315
 20
-1.2543044896
 10
-98.5638591301
 20
-1.3611214473
 10
-98.5335895105
 20
-1.4684760968
 10
-98.4999536086
 20
-1.5761638198
 10
-98.4630154143
 20
-1.6839798807
 10
-98.422845049
 20
-1.7917196184
 10
-98.3795188277
 20
-1.899178254
 10
-98.333119315
 20
-2.0061509184
 10
-98.2837349865
 20
-2.1124336212
 10
-98.2314599444
 20
-2.21782388
 10
-98.1763936303
 20
-2.3221212521
 10
-98.1186407895
 20
-2.4251273533
 10
-98.0583113192
 20
-2.5266461635
 10
-97.9955200908
 20
-2.6264843722
 10
-97.9303866505
 20
-2.7244518979
 10
-97.863034987
 20
-2.8203622487
 10
-97.7935933055
 20
-2.9140328575
 10
-97.7221938062
 20
-3.005285399
 10
-97.648972417
 20
-3.0939461537
 10
-97.5740685074
 20
-3.1798463685
 10
-97.4976246349
 20
-3.2628225577
 10
-97.4197862959
 20
-3.3427167877
 10
-97.3407016775
 20
-3.4193769532
 10
-97.2605213497
 20
-3.4926570999
 10
-97.1793979573
 20
-3.5624177229
 10
-97.0974859085
 20
-3.6285260448
 10
-97.0149411082
 20
-3.6908562406
 10
-96.9319206762
 20
-3.7492896664
 10
-96.8485826562
 20
-3.8037150823
 10
-96.765085695
 20
-3.8540288805
 10
-96.6815887361
 20
-3.9001352847
 10
-96.5982507194
 20
-3.9419465298
 10
-96.5152302872
 20
-3.9793830241
 10
-96.4326854774
 20
-4.0123735043
 10
-96.3507734158
 20
-4.0408551731
 10
-96.2696500192
 20
-4.0647738166
 10
-96.1894697102
 20
-4.0840839037
 10
-96.1103851184
 20
-4.0987486754
 10
-96.0876278196
 20
-4.1016698642
  0
LWPOLYLINE
  5
226
100
AcDbEntity
  8
0
100
AcDbPolyline
 62
250
  6
CONTINUOUS
 90
48
 70
0
 10
-99.3864059812
 20
112.78174183
 10
-99.3843869537
 20
112.6737342559
 10
-99.3783337148
 20
112.5636007579
 10
-99.368257787
 20
112.4515509813
 10
-99.3541783506
 20
112.337798221
 10
-99.3361222065
 20
112.2225590101
 10
-99.3141237247
 20
112.1060527087
 10
-99.288224779
 20
111.9885010889
 10
-99.2584746698
 20
111.8701279209
 10
-99.2249300299
 20
111.7511585424
 10
-99.1876547127
 20
111.631819415
 10
-99.1467196749
 20
111.5123377111
 10
-99.1022028459
 20
111.3929408889
 10
-99.0541889736
 20
111.2738562404
 10
-99.0027694519
 20
111.155310436
 10
-98.9480421513
 20
111.037529111
 10
-98.8901112477
 20
110.9207364676
 10
-98.8290870158
 20
110.8051548284
 10
-98.7650856075
 20
110.6910041904
 10
-98.698228838
 20
110.5785018247
 10
-98.6286439836
 20
110.4678619097
 10
-98.5564635323
 20
110.359295101
 10
-98.4818249057
 20
110.2530080884
 10
-98.4048701653
 20
110.1492031641
 10
-98.3257457695
 20
110.048077887
 10
-98.2446023201
 20
109.9498247381
 10
-98.1615942916
 20
109.8546307682
 10
-98.0768797082
 20
109.7626772012
 10
-97.9906198319
 20
109.6741390788
 10
-97.9029788608
 20
109.5891849353
 10
-97.8141236313
 20
109.5079764916
 10
-97.7242232918
 20
109.4306683376
 10
-97.6334489661
 20
109.3574076262
 10
-97.5419734342
 20
109.2883338017
 10
-97.449970818
 20
109.2235783463
 10
-97.3576162563
 20
109.1632645318
 10
-97.265085557
 20
109.1075071731
 10
-97.1725548567
 20
109.0564124072
 10
-97.0802002937
 20
109.0100774964
 10
-96.9881976782
 20
108.9685906454
 10
-96.8967221525
 20
108.9320308292
 10
-96.8059478348
 20
108.9004676355
 10
-96.7160474974
 20
108.8739611393
 10
-96.6271922527
 20
108.852561796
 10
-96.5395512611
 20
108.8363103487
 10
-96.4532913852
 20
108.8252377388
 10
-96.3685768485
 20
108.8193650411
 10
-96.2902660864
 20
108.8187408663
  0
LWPOLYLINE
  5
227
100
AcDbEntity
  8
0
100
AcDbPolyline
 62
250
  6
CONTINUOUS
 90
46
 70
0
 10
-98.6792992
 20
112.9508547037
 10
-98.6774774451
 20
112.8533961522
 10
-98.672015552
 20
112.7540180644
 10
-98.6629237735
 20
112.6529095292
 10
-98.6502192009
 20
112.5502624318
 10
-98.633925912
 20
112.446272606
 10
-98.6140751017
 20
112.3411395243
 10
-98.59070469
 20
112.2350638087
 10
-98.5638590994
 20
112.1282469119
 10
-98.5335894866
 20
112.020892297
 10
-98.4999535712
 20
111.9132045402
 10
-98.4630153517
 20
111.8053884186
 10
-98.4228449672
 20
111.6976486448
 10
-98.3795187444
 20
111.5901900211
 10
-98.3331192419
 20
111.4832173928
 10
-98.2837349284
 20
111.3769347321
 10
-98.2314599121
 20
111.2715445311
 10
-98.17639363
 20
111.1672472216
 10
-98.1186408002
 20
111.0642411394
 10
-98.0583112877
 20
110.9627222593
 10
-97.9955199876
 20
110.8628839424
 10
-97.9303865054
 20
110.7649163639
 10
-97.8630348776
 20
110.6690060738
 10
-97.7935932714
 20
110.575335572
 10
-97.7221938174
 20
110.4840830892
 10
-97.6489723969
 20
110.3954222969
 10
-97.5740684186
 20
110.3095220067
 10
-97.4976244973
 20
110.2265457712
 10
-97.4197861612
 20
110.1466515521
 10
-97.3407015695
 20
110.0699914193
 10
-97.2605212606
 20
109.9967112952
 10
-97.179397864
 20
109.9269506736
 10
-97.0974858024
 20
109.8608423466
 10
-97.0149409926
 20
109.7985121493
 10
-96.9319205604
 20
109.7400787292
 10
-96.8485825437
 20
109.6856533213
 10
-96.7650855847
 20
109.6353395301
 10
-96.6815886235
 20
109.5892331302
 10
-96.5982506035
 20
109.5474218892
 10
-96.5152301715
 20
109.5099854009
 10
-96.4326853712
 20
109.4769949302
 10
-96.3507733223
 20
109.448513271
 10
-96.2696499298
 20
109.4245946336
 10
-96.1894696019
 20
109.4052845474
 10
-96.1103849835
 20
109.3906197776
 10
-96.0876278199
 20
109.3876986085
  0
LWPOLYLINE
  5
228
100
AcDbEntity
  8
0
100
AcDbPolyline
 62
7
  6
CONTINUOUS
 90
19
 70
0
 10
-100.2955942904
 20
-1.2325805792
 10
-100.2935433226
 20
-1.1265862076
 10
-100.287493926
 20
-1.023508297
 10
-100.2774461008
 20
-0.9233468475
 10
-100.2633655412
 20
-0.8259225271
 10
-100.245286553
 20
-0.7314146678
 10
-100.2233120525
 20
-0.6403612652
 10
-100.197419822
 20
-0.5527820217
 10
-100.1676320793
 20
-0.4686572349
 10
-100.1341183941
 20
-0.388465794
 10
-100.0968575159
 20
-0.3122301325
 10
-100.0558706953
 20
-0.2399278168
 10
-100.0113912539
 20
-0.1719704353
 10
-99.9633992719
 20
-0.1083827691
 10
-99.9119146692
 20
-0.0491400371
 10
-99.8572305272
 20
0.0054205153
 10
-99.7993285976
 20
0.0552721836
 10
-99.7382271286
 20
0.1004416724
 10
-99.6743464272
 20
0.1406300042
  0
LWPOLYLINE
  5
229
100
AcDbEntity
  8
0
100
AcDbPolyline
 62
7
  6
CONTINUOUS
 90
19
 70
0
 10
-96.0529536032
 20
-3.6822281391
 10
-96.055004571
 20
-3.7882225107
 10
-96.0610539676
 20
-3.8913004212
 10
-96.0711017929
 20
-3.9914618708
 10
-96.0851823524
 20
-4.0888861911
 10
-96.1032613406
 20
-4.1833940505
 10
-96.1252358411
 20
-4.2744474531
 10
-96.1511280716
 20
-4.3620266966
 10
-96.1809158143
 20
-4.4461514833
 10
-96.2144294995
 20
-4.5263429242
 10
-96.2516903777
 20
-4.6025785858
 10
-96.2926771984
 20
-4.6748809015
 10
-96.3371566397
 20
-4.7428382829
 10
-96.3851486217
 20
-4.8064259492
 10
-96.4366332244
 20
-4.8656686812
 10
-96.4913173664
 20
-4.9202292336
 10
-96.5492192961
 20
-4.9700809019
 10
-96.610320765
 20
-5.0152503906
 10
-96.6742014664
 20
-5.0554387225
  0
LWPOLYLINE
  5
22A
100
AcDbEntity
  8
0
100
AcDbPolyline
 62
250
  6
CONTINUOUS
 90
10
 70
0
 10
-98.5550765932
 20
0.1717930232
 10
-98.563859098
 20
0.1507866903
 10
-98.5907046888
 20
0.0749704089
 10
-98.6140751006
 20
-0.0041177407
 10
-98.6339259108
 20
-0.0863276033
 10
-98.6502191998
 20
-0.171502346
 10
-98.6629237726
 20
-0.259478521
 10
-98.6720155516
 20
-0.3500880993
 10
-98.677477445
 20
-0.4431589322
 10
-98.6792992
 20
-0.5385137705
  0
LWPOLYLINE
  5
22B
100
AcDbEntity
  8
0
100
AcDbPolyline
 62
250
  6
CONTINUOUS
 90
12
 70
0
 10
-99.1491216425
 20
0.2807565747
 10
-99.1876547127
 20
0.2127827877
 10
-99.2249300301
 20
0.136488262
 10
-99.2584746701
 20
0.0562553924
 10
-99.2882247793
 20
-0.0277630954
 10
-99.314123725
 20
-0.1154072621
 10
-99.3361222068
 20
-0.206510268
 10
-99.3541783508
 20
-0.300898696
 10
-99.3682577871
 20
-0.398392876
 10
-99.3783337148
 20
-0.4988072234
 10
-99.3843869538
 20
-0.6019505926
 10
-99.3864059812
 20
-0.7076266442
  0
LWPOLYLINE
  5
22C
100
AcDbEntity
  8
0
100
AcDbPolyline
 62
7
  6
CONTINUOUS
 90
19
 70
0
 10
-32.4992022145
 20
74.8439121123
 10
-32.5630829159
 20
74.8037237804
 10
-32.6241843848
 20
74.7585542917
 10
-32.6820863145
 20
74.7087026234
 10
-32.7367704565
 20
74.654142071
 10
-32.7882550592
 20
74.594899339
 10
-32.8362470412
 20
74.5313116727
 10
-32.8807264825
 20
74.4633542913
 10
-32.9217133032
 20
74.3910519756
 10
-32.9589741814
 20
74.314816314
 10
-32.9924878665
 20
74.2346248731
 10
-33.0222756093
 20
74.1505000864
 10
-33.0481678398
 20
74.0629208429
 10
-33.0701423403
 20
73.9718674403
 10
-33.0882213285
 20
73.8773595809
 10
-33.102301888
 20
73.7799352606
 10
-33.1123497133
 20
73.679773811
 10
-33.1183991098
 20
73.5766959005
 10
-33.1204500776
 20
73.4707015289
  0
LWPOLYLINE
  5
22D
100
AcDbEntity
  8
0
100
AcDbPolyline
 62
7
  6
CONTINUOUS
 90
19
 70
0
 10
-29.4990572537
 20
69.6478433856
 10
-29.4351765523
 20
69.6880317174
 10
-29.3740750833
 20
69.7332012062
 10
-29.3161731537
 20
69.7830528745
 10
-29.2614890117
 20
69.8376134269
 10
-29.210004409
 20
69.8968561589
 10
-29.162012427
 20
69.9604438251
 10
-29.1175329856
 20
70.0284012066
 10
-29.076546165
 20
70.1007035223
 10
-29.0392852868
 20
70.1769391838
 10
-29.0057716016
 20
70.2571306247
 10
-28.9759838589
 20
70.3412554115
 10
-28.9500916284
 20
70.428834655
 10
-28.9281171279
 20
70.5198880576
 10
-28.9100381397
 20
70.6143959169
 10
-28.8959575801
 20
70.7118202373
 10
-28.8859097549
 20
70.8119816868
 10
-28.8798603583
 20
70.9150595974
 10
-28.8778093905
 20
71.021053969
  0
LWPOLYLINE
  5
22E
100
AcDbEntity
  8
0
100
AcDbPolyline
 62
7
  6
CONTINUOUS
 90
44
 70
0
 10
28.9586308007
 20
-76.7546710704
 10
28.8960947852
 20
-76.7460931896
 10
28.8043823157
 20
-76.728081437
 10
28.711387549
 20
-76.7044732302
 10
28.6173032307
 20
-76.6753175007
 10
28.5223243652
 20
-76.6406746782
 10
28.4266478105
 20
-76.6006165653
 10
28.330471871
 20
-76.5552261886
 10
28.2339958859
 20
-76.5045976264
 10
28.1374198165
 20
-76.4488358143
 10
28.0409438315
 20
-76.3880563272
 10
27.9447678919
 20
-76.3223851397
 10
27.8490913373
 20
-76.2519583655
 10
27.7541124717
 20
-76.1769219747
 10
27.6600281535
 20
-76.0974314919
 10
27.5670333868
 20
-76.0136516731
 10
27.4753209173
 20
-75.9257561647
 10
27.3850808332
 20
-75.8339271438
 10
27.2965001709
 20
-75.7383549399
 10
27.2097625273
 20
-75.639237641
 10
27.1250476795
 20
-75.5367806829
 10
27.0425312117
 20
-75.4311964232
 10
26.9623841522
 20
-75.3227037015
 10
26.8847726178
 20
-75.2115273855
 10
26.8098574704
 20
-75.0978979051
 10
26.737793983
 20
-74.9820507747
 10
26.6687315181
 20
-74.8642261052
 10
26.6028132184
 20
-74.7446681062
 10
26.5401757095
 20
-74.62362458
 10
26.4809488173
 20
-74.5013464077
 10
26.4252552985
 20
-74.3780870294
 10
26.3732105864
 20
-74.2541019192
 10
26.3249225517
 20
-74.1296480551
 10
26.2804912787
 20
-74.0049833866
 10
26.240008858
 20
-73.8803663004
 10
26.2035591956
 20
-73.7560550845
 10
26.1712178389
 20
-73.6323073927
 10
26.1430518204
 20
-73.5093797111
 10
26.1191195185
 20
-73.387526826
 10
26.0994705364
 20
-73.2670012962
 10
26.0841455998
 20
-73.1480529293
 10
26.0731764719
 20
-73.0309282639
 10
26.0665858878
 20
-72.9158700587
 10
26.0643875077
 20
-72.8031167895
  0
LINE
  5
22F
100
AcDbEntity
  8
0
100
AcDbLine
 62
7
  6
CONTINUOUS
 10
-0.1306392896
 20
-66.7686299207
 11
-0.1081464342
 21
-66.7642608307
  0
LINE
  5
230
100
AcDbEntity
  8
0
100
AcDbLine
 62
7
  6
CONTINUOUS
 10
-1.8059797375
 20
-65.8013092477
 11
-1.7834869972
 21
-65.7969401877
  0
LINE
  5
231
100
AcDbEntity
  8
0
100
AcDbLine
 62
7
  6
CONTINUOUS
 10
0.4336049372
 20
-68.0366188351
 11
0.413372943
 21
-68.0403066041
  0
LINE
  5
232
100
AcDbEntity
  8
0
100
AcDbLine
 62
7
  6
CONTINUOUS
 10
-1.2417358539
 20
-67.0692981162
 11
-1.2619678622
 21
-67.0729858752
  0
LINE
  5
233
100
AcDbEntity
  8
0
100
AcDbLine
 62
7
  6
CONTINUOUS
 10
-0.1081464342
 20
-66.7642608307
 11
-0.0840259312
 21
-66.7614484321
  0
LINE
  5
234
100
AcDbEntity
  8
0
100
AcDbLine
 62
7
  6
CONTINUOUS
 10
-1.7834869972
 20
-65.7969401877
 11
-1.7593666571
 21
-65.79412782
  0
LWPOLYLINE
  5
235
100
AcDbEntity
  8
0
100
AcDbPolyline
 62
7
  6
CONTINUOUS
 90
11
 70
0
 10
0.413372943
 20
-68.0403066041
 10
0.392840538
 20
-68.0422324498
 10
0.3720970963
 20
-68.0424309493
 10
0.3510532438
 20
-68.0408675255
 10
0.3295062658
 20
-68.037613316
 10
0.3074777132
 20
-68.0327437401
 10
0.2849460351
 20
-68.0261833785
 10
0.2616438638
 20
-68.0177771114
 10
0.2374820768
 20
-68.0074732321
 10
0.2125497966
 20
-67.9953234471
 10
0.1868470232
 20
-67.9813277566
  0
LWPOLYLINE
  5
236
100
AcDbEntity
  8
0
100
AcDbPolyline
 62
7
  6
CONTINUOUS
 90
11
 70
0
 10
-1.2619678622
 20
-67.0729858752
 10
-1.2825002764
 20
-67.0749117128
 10
-1.3032437223
 20
-67.0751102055
 10
-1.3242875742
 20
-67.0735467769
 10
-1.3458345436
 20
-67.0702925664
 10
-1.3678630808
 20
-67.0654229923
 10
-1.3903947355
 20
-67.0588626364
 10
-1.4136968694
 20
-67.0504563838
 10
-1.4378586029
 20
-67.0401525296
 10
-1.4627908156
 20
-67.0280027788
 10
-1.4884935074
 20
-67.0140071312
  0
LWPOLYLINE
  5
237
100
AcDbEntity
  8
0
100
AcDbPolyline
 62
7
  6
CONTINUOUS
 90
10
 70
0
 10
-0.0840259312
 20
-66.7614484321
 10
-0.0611643849
 20
-66.7608313656
 10
-0.0376203549
 20
-66.7621615189
 10
-0.0133938414
 20
-66.7654388921
 10
0.0114862034
 20
-66.7706147054
 10
0.0370487318
 20
-66.7777377387
 10
0.0633806005
 20
-66.7869543307
 10
0.0905107615
 20
-66.7983132612
 10
0.1184102629
 20
-66.8117657504
 10
0.1470791044
 20
-66.8273117984
  0
LWPOLYLINE
  5
238
100
AcDbEntity
  8
0
100
AcDbPolyline
 62
7
  6
CONTINUOUS
 90
10
 70
0
 10
-1.7593666571
 20
-65.79412782
 10
-1.7365050297
 20
-65.7935107537
 10
-1.7129609373
 20
-65.7948409068
 10
-1.6887343797
 20
-65.7981182794
 10
-1.663854314
 20
-65.8032940918
 10
-1.6382917833
 20
-65.8104171238
 10
-1.6119599163
 20
-65.819633714
 10
-1.5848297559
 20
-65.830992642
 10
-1.5569302592
 20
-65.8444451284
 10
-1.5282614261
 20
-65.859991173
  0
LWPOLYLINE
  5
239
100
AcDbEntity
  8
0
100
AcDbPolyline
 62
7
  6
CONTINUOUS
 90
13
 70
0
 10
-2.8998005312
 20
-65.0255619213
 10
-2.9202529223
 20
-65.0259411672
 10
-2.9422195262
 20
-65.0244596421
 10
-2.9656774372
 20
-65.0210583671
 10
-2.9906576086
 20
-65.0157052315
 10
-3.0171290871
 20
-65.008432346
 10
-3.0449761077
 20
-64.9992770641
 10
-3.0741746342
 20
-64.9882340091
 10
-3.1047487028
 20
-64.9753085576
 10
-3.1366546561
 20
-64.9605541928
 10
-3.1698779416
 20
-64.9439887425
 10
-3.2044331117
 20
-64.9255943788
 10
-3.2403201666
 20
-64.9053711019
  0
LINE
  5
23A
100
AcDbEntity
  8
0
100
AcDbLine
 62
7
  6
CONTINUOUS
 10
-0.2632985195
 20
-67.2917956868
 11
-0.5412961819
 21
-67.1584574082
  0
LINE
  5
23B
100
AcDbEntity
  8
0
100
AcDbLine
 62
7
  6
CONTINUOUS
 10
-0.2279431805
 20
-67.2713819572
 11
-0.5059408428
 21
-67.1380436785
  0
LINE
  5
23C
100
AcDbEntity
  8
0
100
AcDbLine
 62
7
  6
CONTINUOUS
 10
-1.9386390501
 20
-66.3244750614
 11
-2.2166367124
 21
-66.1911367828
  0
LINE
  5
23D
100
AcDbEntity
  8
0
100
AcDbLine
 62
7
  6
CONTINUOUS
 10
-1.903283711
 20
-66.3040613318
 11
-2.1812813734
 21
-66.1707230531
  0
LWPOLYLINE
  5
23E
100
AcDbEntity
  8
0
100
AcDbPolyline
 62
7
  6
CONTINUOUS
 90
17
 70
0
 10
0.1514916841
 20
-68.2531016564
 10
0.1950971974
 20
-68.2768785036
 10
0.2367726874
 20
-68.2976330721
 10
0.276518154
 20
-68.3153653618
 10
0.3141571624
 20
-68.3298916818
 10
0.3498661474
 20
-68.341395723
 10
0.3841744135
 20
-68.3504285584
 10
0.4171308429
 20
-68.3570921117
 10
0.4486865534
 20
-68.3612844592
 10
0.4792242032
 20
-68.363250903
 10
0.5087805042
 20
-68.3630782421
 10
0.5373187444
 20
-68.3606796775
 10
0.5651114467
 20
-68.3560401146
 10
0.5921898727
 20
-68.3492463597
 10
0.6185227607
 20
-68.3402116065
 10
0.6442888486
 20
-68.3286603419
 10
0.662067734
 20
-68.3189905881
  0
LWPOLYLINE
  5
23F
100
AcDbEntity
  8
0
100
AcDbPolyline
 62
7
  6
CONTINUOUS
 90
17
 70
0
 10
-1.5238488464
 20
-67.285781031
 10
-1.4802433982
 20
-67.3095578431
 10
-1.4385679633
 20
-67.3303123825
 10
-1.3988225417
 20
-67.3480446492
 10
-1.3611835669
 20
-67.3625709533
 10
-1.3254746055
 20
-67.3740749848
 10
-1.2911663574
 20
-67.3831078128
 10
-1.258209941
 20
-67.3897713603
 10
-1.226654238
 20
-67.3939637043
 10
-1.196116593
 20
-67.3959301453
 10
-1.1665602943
 20
-67.3957574816
 10
-1.1380220535
 20
-67.3933589149
 10
-1.1102293498
 20
-67.3887193498
 10
-1.0831509217
 20
-67.3819255924
 10
-1.0568180307
 20
-67.3728908367
 10
-1.0310519405
 20
-67.3613395701
 10
-1.0132730601
 20
-67.3516698188
  0
LWPOLYLINE
  5
240
100
AcDbEntity
  8
0
100
AcDbPolyline
 62
7
  6
CONTINUOUS
 90
16
 70
0
 10
-3.2800882139
 20
-65.2170566848
 10
-3.201974995
 20
-65.2597746027
 10
-3.1302748446
 20
-65.2963968189
 10
-3.0649877629
 20
-65.3269233335
 10
-3.0066505749
 20
-65.3507288631
 10
-2.9547264556
 20
-65.3684386912
 10
-2.9076049293
 20
-65.3819286676
 10
-2.865205397
 20
-65.3913718568
 10
-2.8276084578
 20
-65.3965951943
 10
-2.793445434
 20
-65.3989553375
 10
-2.7626244821
 20
-65.3986527185
 10
-2.7352374455
 20
-65.395486905
 10
-2.710191177
 20
-65.3902132581
 10
-2.687121294
 20
-65.3830835649
 10
-2.6663921791
 20
-65.3738460382
 10
-2.6588643998
 20
-65.3696256192
  0
LWPOLYLINE
  5
241
100
AcDbEntity
  8
0
100
AcDbPolyline
 62
7
  6
CONTINUOUS
 90
13
 70
0
 10
0.253037261
 20
-66.5776208723
 10
0.218734921
 20
-66.5588321406
 10
0.1846595843
 20
-66.5422276166
 10
0.150811251
 20
-66.5278073003
 10
0.1172852126
 20
-66.5155704824
 10
0.0839861776
 20
-66.5055178723
 10
0.0506282713
 20
-66.4976515977
 10
0.0172299592
 20
-66.4918889526
 10
-0.016227224
 20
-66.4883126431
 10
-0.0500845489
 20
-66.4871729157
 10
-0.0844557721
 20
-66.4885531858
 10
-0.1192271368
 20
-66.4923700379
 10
-0.1543986431
 20
-66.4986234721
  0
LWPOLYLINE
  5
242
100
AcDbEntity
  8
0
100
AcDbPolyline
 62
7
  6
CONTINUOUS
 90
13
 70
0
 10
-1.4223035266
 20
-65.6103000985
 10
-1.4566056475
 20
-65.5915114818
 10
-1.4906808032
 20
-65.5749070465
 10
-1.5245289935
 20
-65.5604867926
 10
-1.5580549246
 20
-65.5482500077
 10
-1.5913538904
 20
-65.5381974043
 10
-1.624711773
 20
-65.5303311197
 10
-1.6581101131
 20
-65.5245684471
 10
-1.6915673701
 20
-65.5209920933
 10
-1.7254248043
 20
-65.5198523158
 10
-1.7597961692
 20
-65.5212325337
 10
-1.7945677113
 20
-65.5250493279
 10
-1.8297394307
 20
-65.5313026983
  0
LWPOLYLINE
  5
243
100
AcDbEntity
  8
0
100
AcDbPolyline
 62
7
  6
CONTINUOUS
 90
13
 70
0
 10
0.217681922
 20
-66.598034602
 10
0.1837288245
 20
-66.5794179227
 10
0.149969717
 20
-66.5629386485
 10
0.1164045995
 20
-66.5485967794
 10
0.0831515209
 20
-66.536386425
 10
0.0500924322
 20
-66.5263134757
 10
0.0168731871
 20
-66.5183956029
 10
-0.0165042589
 20
-66.5125328862
 10
-0.0500418613
 20
-66.5088252458
 10
-0.0840996335
 20
-66.507590114
 10
-0.11879758
 20
-66.5089333014
 10
-0.1540156962
 20
-66.5127489974
 10
-0.1897539822
 20
-66.5190372018
  0
LWPOLYLINE
  5
244
100
AcDbEntity
  8
0
100
AcDbPolyline
 62
7
  6
CONTINUOUS
 90
13
 70
0
 10
-1.4576588656
 20
-65.6307138282
 10
-1.4916117221
 20
-65.6120972735
 10
-1.5253706322
 20
-65.5956180945
 10
-1.558935596
 20
-65.5812762913
 10
-1.592188565
 20
-65.5690659691
 10
-1.6252475877
 20
-65.5589930226
 10
-1.6584668096
 20
-65.5510751358
 10
-1.6918442735
 20
-65.5452123885
 10
-1.7253819366
 20
-65.5415047007
 10
-1.759439816
 20
-65.5402695164
 10
-1.7941379176
 20
-65.5416126502
 10
-1.8293562355
 20
-65.5454282873
 10
-1.8650947698
 20
-65.551716428
  0
LWPOLYLINE
  5
245
100
AcDbEntity
  8
RACCORDO
100
AcDbPolyline
 62
250
  6
CONTINUOUS
 90
34
 70
0
 10
106.8866925973
 20
-129.0217391921
 10
106.9555854123
 20
-129.0596672935
 10
107.0275258114
 20
-129.095659729
 10
107.1023508266
 20
-129.1296349642
 10
107.1798909552
 20
-129.1615160342
 10
107.2599705437
 20
-129.1912307182
 10
107.3424081862
 20
-129.2187117028
 10
107.4270171349
 20
-129.2438967348
 10
107.5136057233
 20
-129.266728762
 10
107.6019778005
 20
-129.2871560624
 10
107.6919331751
 20
-129.3051323617
 10
107.7832680695
 20
-129.3206169379
 10
107.8757755806
 20
-129.3335747132
 10
107.9692461492
 20
-129.3439763343
 10
108.0634680344
 20
-129.3517982381
 10
108.1582277933
 20
-129.3570227054
 10
108.2533107646
 20
-129.3596379012
 10
108.3485015548
 20
-129.3596379012
 10
108.4435845261
 20
-129.3570227054
 10
108.538344285
 20
-129.3517982381
 10
108.6325661702
 20
-129.3439763343
 10
108.7260367388
 20
-129.3335747132
 10
108.8185442499
 20
-129.3206169379
 10
108.9098791442
 20
-129.3051323617
 10
108.9998345189
 20
-129.2871560624
 10
109.088206596
 20
-129.266728762
 10
109.1747951844
 20
-129.2438967348
 10
109.2594041331
 20
-129.2187117028
 10
109.3418417756
 20
-129.1912307182
 10
109.4219213642
 20
-129.1615160342
 10
109.4994614927
 20
-129.1296349642
 10
109.5742865079
 20
-129.095659729
 10
109.6462269071
 20
-129.0596672935
 10
109.715119722
 20
-129.0217391921
  0
LWPOLYLINE
  5
246
100
AcDbEntity
  8
RACCORDO
100
AcDbPolyline
 62
7
  6
CONTINUOUS
 90
28
 70
0
 10
101.6440035899
 20
-133.2027783821
 10
101.8901659667
 20
-133.3400376216
 10
102.1368694859
 20
-133.4678794497
 10
102.3839702056
 20
-133.5862387787
 10
102.631590791
 20
-133.6951595485
 10
102.879318467
 20
-133.7944373551
 10
103.1262043262
 20
-133.8837242624
 10
103.3721246659
 20
-133.9630465188
 10
103.6169083109
 20
-134.032413446
 10
103.8595292682
 20
-134.0916459833
 10
104.0996636217
 20
-134.14083362
 10
104.3373307686
 20
-134.1801449759
 10
104.5720038223
 20
-134.2096662791
 10
104.8034043135
 20
-134.2295629271
 10
105.0314900762
 20
-134.2400305934
 10
105.2560604372
 20
-134.241254008
 10
105.4768209642
 20
-134.2334358529
 10
105.6937234135
 20
-134.2167837223
 10
105.9068961987
 20
-134.1914691538
 10
106.1160795948
 20
-134.1576928702
 10
106.3211607066
 20
-134.1156468538
 10
106.5224363699
 20
-134.0654112847
 10
106.7196686542
 20
-134.0071609287
 10
106.9126877004
 20
-133.9410666673
 10
107.1018323842
 20
-133.8670971732
 10
107.2870510563
 20
-133.7853096963
 10
107.4679422029
 20
-133.6959241738
 10
107.6442935116
 20
-133.5991078035
  0
LWPOLYLINE
  5
247
100
AcDbEntity
  8
RACCORDO
100
AcDbPolyline
 62
250
  6
CONTINUOUS
 90
52
 70
0
 10
101.2298383478
 20
-132.2873046598
 10
101.4042799181
 20
-132.3849057259
 10
101.5782357141
 20
-132.4760608172
 10
101.751705736
 20
-132.5607699336
 10
101.9248558377
 20
-132.6391026658
 10
102.0975201653
 20
-132.7109894232
 10
102.2692011563
 20
-132.776221434
 10
102.4398944716
 20
-132.8347786256
 10
102.6096044503
 20
-132.8866810707
 10
102.7778465482
 20
-132.9317802151
 10
102.9446158262
 20
-132.970056296
 10
103.1099172233
 20
-133.0015290762
 10
103.2732810123
 20
-133.0261092905
 10
103.4347012286
 20
-133.0437773963
 10
103.5941838368
 20
-133.0545529361
 10
103.7512770034
 20
-133.0584052721
 10
103.9059747191
 20
-133.0553147397
 10
104.0582829931
 20
-133.0453010034
 10
104.2077680198
 20
-133.028392419
 10
104.3544213982
 20
-133.0045693413
 10
104.4982515294
 20
-132.9738514154
 10
104.6388498106
 20
-132.9363259318
 10
104.7762072072
 20
-132.8919734368
 10
104.9103327539
 20
-132.8408133842
 10
105.0408449525
 20
-132.7829914245
 10
105.1677331305
 20
-132.7184888475
 10
105.2910079604
 20
-132.6473243635
 10
105.4103199619
 20
-132.5696997549
 10
105.5256582497
 20
-132.4855964458
 10
105.637033709
 20
-132.3950330121
 10
105.7441295149
 20
-132.2982669634
 10
105.8469333486
 20
-132.195280757
 10
105.945457529
 20
-132.0860919355
 10
106.0394221874
 20
-131.9710106371
 10
106.1288145298
 20
-131.8500197504
 10
106.2136473503
 20
-131.7231363867
 10
106.2936791621
 20
-131.5907220184
 10
106.3688959384
 20
-131.4527615969
 10
106.439311706
 20
-131.3092701708
 10
106.5047270588
 20
-131.1606543581
 10
106.5651280517
 20
-131.00689926
 10
106.6205286298
 20
-130.8480197753
 10
106.6707712224
 20
-130.6844672189
 10
106.7158411761
 20
-130.5162273838
 10
106.7557531443
 20
-130.3433144769
 10
106.7903935166
 20
-130.1662224343
 10
106.819747105
 20
-129.9849365311
 10
106.8438290976
 20
-129.7994714921
 10
106.8625714478
 20
-129.6103654276
 10
106.8759514734
 20
-129.4177977079
 10
106.8839918565
 20
-129.2215889627
 10
106.8866925973
 20
-129.0217391921
  0
LINE
  5
248
100
AcDbEntity
  8
RACCORDO
100
AcDbLine
 62
7
  6
CONTINUOUS
 10
-104.8311765166
 20
-13.9865971304
 11
101.6440035899
 21
-133.2027783821
  0
LINE
  5
249
100
AcDbEntity
  8
RACCORDO
100
AcDbLine
 62
250
  6
CONTINUOUS
 10
-105.2453417587
 20
-13.0711234081
 11
101.2298383478
 21
-132.2873046598
  0
LINE
  5
24A
100
AcDbEntity
  8
0
100
AcDbLine
 62
7
  6
CONTINUOUS
 10
-6.2503923926
 20
-69.0048610588
 11
2.2348889817
 21
-73.9041561788
  0
LINE
  5
24B
100
AcDbEntity
  8
0
100
AcDbLine
 62
7
  6
CONTINUOUS
 10
-6.2150370535
 20
-68.9844473292
 11
2.2348889817
 21
-73.8633287194
  0
LINE
  5
24C
100
AcDbEntity
  8
0
100
AcDbLine
 62
7
  6
CONTINUOUS
 10
-4.9068895001
 20
-65.2899962685
 11
-4.6215373776
 21
-65.4547550077
  0
LINE
  5
24D
100
AcDbEntity
  8
0
100
AcDbLine
 62
7
  6
CONTINUOUS
 10
-4.1184939734
 20
-65.7452059647
 11
-3.8331418187
 21
-65.9099647225
  0
LINE
  5
24E
100
AcDbEntity
  8
0
100
AcDbLine
 62
7
  6
CONTINUOUS
 10
-3.8331418187
 20
-64.8977304647
 11
-3.2800882139
 21
-65.2170566848
  0
LINE
  5
24F
100
AcDbEntity
  8
0
100
AcDbLine
 62
7
  6
CONTINUOUS
 10
-3.2756755056
 20
-64.9257848316
 11
-3.8331418187
 21
-64.6039107691
  0
LINE
  5
250
100
AcDbEntity
  8
0
100
AcDbLine
 62
7
  6
CONTINUOUS
 10
-3.2403201666
 20
-64.9053711019
 11
-3.7977864797
 21
-64.5834970394
  0
LINE
  5
251
100
AcDbEntity
  8
0
100
AcDbLine
 62
7
  6
CONTINUOUS
 10
-1.7488945241
 20
-64.9496474139
 11
-0.8884255448
 21
-65.4464714183
  0
LINE
  5
252
100
AcDbEntity
  8
0
100
AcDbLine
 62
7
  6
CONTINUOUS
 10
-0.0735539936
 20
-65.9169680393
 11
0.7869149858
 21
-66.4137920437
  0
LINE
  5
253
100
AcDbEntity
  8
0
100
AcDbLine
 62
7
  6
CONTINUOUS
 10
-3.8331418187
 20
-63.713959942
 11
-3.2815590738
 21
-64.032436906
  0
LINE
  5
254
100
AcDbEntity
  8
0
100
AcDbLine
 62
7
  6
CONTINUOUS
 10
0.7869149858
 20
-66.1216706961
 11
-0.2853619322
 21
-65.5025514425
  0
LINE
  5
255
100
AcDbEntity
  8
0
100
AcDbLine
 62
7
  6
CONTINUOUS
 10
-0.8884255448
 20
-65.1543500707
 11
-1.9607024627
 21
-64.5352308171
  0
LINE
  5
256
100
AcDbEntity
  8
0
100
AcDbLine
 62
7
  6
CONTINUOUS
 10
-3.3050933463
 20
-63.7250288164
 11
-4.1184939734
 21
-63.2553814886
  0
LINE
  5
257
100
AcDbEntity
  8
0
100
AcDbLine
 62
7
  6
CONTINUOUS
 10
-4.6215373776
 20
-62.9649305316
 11
-4.9068895001
 21
-62.8001717924
  0
LINE
  5
258
100
AcDbEntity
  8
0
100
AcDbLine
 62
7
  6
CONTINUOUS
 10
0.8222703248
 20
-66.1012569664
 11
-0.2500065931
 21
-65.4821377128
  0
LINE
  5
259
100
AcDbEntity
  8
0
100
AcDbLine
 62
7
  6
CONTINUOUS
 10
-0.8530702057
 20
-65.133936341
 11
-1.9253471237
 21
-64.5148170874
  0
LINE
  5
25A
100
AcDbEntity
  8
0
100
AcDbLine
 62
7
  6
CONTINUOUS
 10
-4.5861820386
 20
-62.9445168019
 11
-4.8715341611
 21
-62.7797580627
  0
LWPOLYLINE
  5
25B
100
AcDbEntity
  8
0
100
AcDbPolyline
 62
7
  6
CONTINUOUS
 90
10
 70
0
 10
-3.2815590738
 20
-64.032436906
 10
-3.2354117901
 20
-64.0596128567
 10
-3.1936489011
 20
-64.08482082
 10
-3.1562704068
 20
-64.1080607961
 10
-3.1235897861
 20
-64.1292185969
 10
-3.0952935601
 20
-64.1484084104
 10
-3.0704412918
 20
-64.1659728008
 10
-3.0487195022
 20
-64.1820259561
 10
-3.0304416704
 20
-64.1964536883
 10
-3.0156077962
 20
-64.2092559973
  0
LWPOLYLINE
  5
25C
100
AcDbEntity
  8
RACCORDO
100
AcDbPolyline
 62
250
  6
CONTINUOUS
 90
18
 70
0
 10
-110.9021960082
 20
-3.2731644472
 10
-110.9678851745
 20
-3.2333865993
 10
-111.0302218851
 20
-3.1918491145
 10
-111.0890649274
 20
-3.1486460886
 10
-111.1442810029
 20
-3.1038753902
 10
-111.1957450295
 20
-3.0576384395
 10
-111.2433404245
 20
-3.010039978
 10
-111.2869593692
 20
-2.9611878315
 10
-111.3265030526
 20
-2.9111926658
 10
-111.3618818954
 20
-2.8601677361
 10
-111.3930157533
 20
-2.8082286301
 10
-111.4198340981
 20
-2.7554930068
 10
-111.4422761775
 20
-2.7020803293
 10
-111.4602911531
 20
-2.6481115944
 10
-111.4738382151
 20
-2.5937090586
 10
-111.482886675
 20
-2.5389959613
 10
-111.4874160352
 20
-2.4840962452
 10
-111.4879824458
 20
-2.4566152605
  0
LWPOLYLINE
  5
25D
100
AcDbEntity
  8
0
100
AcDbPolyline
 62
7
  6
CONTINUOUS
 90
16
 70
0
 10
-1.5282614261
 20
-65.859991173
 10
-1.4984022376
 20
-65.8782589825
 10
-1.4699578434
 20
-65.897077884
 10
-1.4429282435
 20
-65.9164478774
 10
-1.4174545327
 20
-65.9363454646
 10
-1.3933956162
 20
-65.9567941437
 10
-1.3703282096
 20
-65.9778644096
 10
-1.3482101393
 20
-65.9995189759
 10
-1.3270835789
 20
-66.021795129
 10
-1.3066517646
 20
-66.0448752223
 10
-1.2868842113
 20
-66.0687208059
 10
-1.2678114041
 20
-66.0933703299
 10
-1.2492280349
 20
-66.1191214982
 10
-1.2310656677
 20
-66.1460735457
 10
-1.2133927386
 20
-66.1741272375
 10
-1.1962092476
 20
-66.2032825738
  0
LWPOLYLINE
  5
25E
100
AcDbEntity
  8
0
100
AcDbPolyline
 62
7
  6
CONTINUOUS
 90
16
 70
0
 10
0.1470791044
 20
-66.8273117984
 10
0.1769382929
 20
-66.8455796079
 10
0.2053826871
 20
-66.8643985094
 10
0.232412287
 20
-66.8837685028
 10
0.2578859979
 20
-66.90366609
 10
0.2819449144
 20
-66.9241147691
 10
0.305012321
 20
-66.945185035
 10
0.3271303913
 20
-66.9668396013
 10
0.3482569517
 20
-66.9891157544
 10
0.3686887659
 20
-67.0121958477
 10
0.3884563193
 20
-67.0360414313
 10
0.4075291265
 20
-67.0606909553
 10
0.4261124957
 20
-67.0864421236
 10
0.4442748628
 20
-67.1133941711
 10
0.4619477919
 20
-67.1414478629
 10
0.479131283
 20
-67.1706031992
  0
LWPOLYLINE
  5
25F
100
AcDbEntity
  8
0
100
AcDbPolyline
 62
7
  6
CONTINUOUS
 90
13
 70
0
 10
-1.4884935074
 20
-67.0140071312
 10
-1.516330715
 20
-66.9968704041
 10
-1.5431028296
 20
-66.9787219532
 10
-1.5688098512
 20
-66.9595617786
 10
-1.5933835708
 20
-66.9393784028
 10
-1.6168921974
 20
-66.9181833033
 10
-1.6395403579
 20
-66.8960109123
 10
-1.6612911177
 20
-66.8729771053
 10
-1.6821814114
 20
-66.8489660068
 10
-1.7025266695
 20
-66.8236644223
 10
-1.7224320355
 20
-66.7969679535
 10
-1.7417923658
 20
-66.7689809987
 10
-1.7606076605
 20
-66.7397035578
  0
LWPOLYLINE
  5
260
100
AcDbEntity
  8
0
100
AcDbPolyline
 62
7
  6
CONTINUOUS
 90
13
 70
0
 10
0.1868470232
 20
-67.9813277566
 10
0.1590097945
 20
-67.9641910148
 10
0.132237664
 20
-67.9460425509
 10
0.1065306317
 20
-67.9268823649
 10
0.0819569069
 20
-67.9066989793
 10
0.0584482803
 20
-67.8855038715
 10
0.0358001239
 20
-67.8633314746
 10
0.0140493721
 20
-67.8402976641
 10
-0.0068409095
 20
-67.8162865646
 10
-0.0271861516
 20
-67.790984982
 10
-0.0470914979
 20
-67.7642885185
 10
-0.0664518048
 20
-67.7363015721
 10
-0.0852670723
 20
-67.7070241427
  0
LWPOLYLINE
  5
261
100
AcDbEntity
  8
0
100
AcDbPolyline
 62
7
  6
CONTINUOUS
 90
13
 70
0
 10
-1.5238488464
 20
-67.0344208609
 10
-1.5516475092
 20
-67.0172877061
 10
-1.5783274289
 20
-66.9992117232
 10
-1.6038886053
 20
-66.9801929124
 10
-1.6282072613
 20
-66.960275761
 10
-1.6514071741
 20
-66.9394157817
 10
-1.6738596757
 20
-66.9174795117
 10
-1.6956018292
 20
-66.8945289664
 10
-1.7165965714
 20
-66.8705021304
 10
-1.7371040452
 20
-66.8450794953
 10
-1.757210965
 20
-66.8181545584
 10
-1.7768306164
 20
-66.7898338225
 10
-1.7959629995
 20
-66.7601172875
  0
LWPOLYLINE
  5
262
100
AcDbEntity
  8
0
100
AcDbPolyline
 62
7
  6
CONTINUOUS
 90
13
 70
0
 10
0.1514916841
 20
-68.0017414863
 10
0.123693001
 20
-67.9846083173
 10
0.0970130661
 20
-67.9665323219
 10
0.0714518793
 20
-67.9475135001
 10
0.0471332183
 20
-67.9275963392
 10
0.0239333053
 20
-67.9067363519
 10
0.0014808077
 20
-67.8848000762
 10
-0.0202613378
 20
-67.8618495275
 10
-0.0412560681
 20
-67.8378226904
 10
-0.0617635263
 20
-67.8124000571
 10
-0.0818704267
 20
-67.785475125
 10
-0.1014900551
 20
-67.7571543968
 10
-0.1206224113
 20
-67.7274378723
  0
LWPOLYLINE
  5
263
100
AcDbEntity
  8
0
100
AcDbPolyline
 62
7
  6
CONTINUOUS
 90
21
 70
0
 10
-96.3204330128
 20
-2.3382904706
 10
-96.3781364844
 20
-2.285237072
 10
-96.4357155362
 20
-2.2284482811
 10
-96.4921485577
 20
-2.1688739334
 10
-96.5472808698
 20
-2.1066773182
 10
-96.6009613587
 20
-2.0420289119
 10
-96.6530428899
 20
-1.9751059113
 10
-96.7033827115
 20
-1.9060917479
 10
-96.7518428457
 20
-1.8351755845
 10
-96.7982904665
 20
-1.7625517975
 10
-96.8425982642
 20
-1.6884194436
 10
-96.8846447943
 20
-1.6129817144
 10
-96.9243148101
 20
-1.5364453796
 10
-96.9614995788
 20
-1.4590202199
 10
-96.9960971797
 20
-1.3809184522
 10
-97.0280127831
 20
-1.3023541481
 10
-97.0571589105
 20
-1.2235426469
 10
-97.0834556744
 20
-1.1446999654
 10
-97.1068309973
 20
-1.066042206
 10
-97.1272208089
 20
-0.987784964
 10
-97.14428007
 20
-0.9114368283
  0
LWPOLYLINE
  5
264
100
AcDbEntity
  8
0
100
AcDbPolyline
 62
7
  6
CONTINUOUS
 90
55
 70
0
 10
-99.6743464272
 20
0.1406300042
 10
-99.6074527876
 20
0.1759345441
 10
-99.5377799155
 20
0.2062579271
 10
-99.4656519505
 20
0.2314693795
 10
-99.3910548903
 20
0.2515397458
 10
-99.3140027372
 20
0.2664981815
 10
-99.2349341186
 20
0.2762595343
 10
-99.1538375337
 20
0.2807941628
 10
-99.0707244833
 20
0.2801317083
 10
-98.986068097
 20
0.2742759419
 10
-98.8998595726
 20
0.2631972439
 10
-98.8121077122
 20
0.246925234
 10
-98.7233120525
 20
0.2255525423
 10
-98.6334666402
 20
0.1990500773
 10
-98.5425774285
 20
0.1674469306
 10
-98.4511618137
 20
0.1309230062
 10
-98.3592167935
 20
0.0894502388
 10
-98.2667453702
 20
0.0430566938
 10
-98.1742739468
 20
-0.0079935288
 10
-98.0818025235
 20
-0.063726988
 10
-97.9893311001
 20
-0.1241171248
 10
-97.8973860799
 20
-0.1888201621
 10
-97.8059704651
 20
-0.2578606982
 10
-97.7150812534
 20
-0.3312141349
 10
-97.6252358411
 20
-0.4084629
 10
-97.5364401814
 20
-0.4896292104
 10
-97.4486883211
 20
-0.5746908492
 10
-97.3624797966
 20
-0.6631635944
 10
-97.2778234103
 20
-0.7550669009
 10
-97.1947103599
 20
-0.8503813137
 10
-97.113613775
 20
-0.9485642457
 10
-97.0345451564
 20
-1.0496320573
 10
-96.9574930033
 20
-1.153568388
 10
-96.8828959431
 20
-1.2597815697
 10
-96.8107679781
 20
-1.3682845881
 10
-96.741095106
 20
-1.4790644573
 10
-96.6742739468
 20
-1.5914905516
 10
-96.610320765
 20
-1.7055722601
 10
-96.5492192961
 20
-1.8213001936
 10
-96.4913173664
 20
-1.9380155589
 10
-96.4366332244
 20
-2.0557239878
 10
-96.3851486217
 20
-2.1744198485
 10
-96.3371566397
 20
-2.2934274526
 10
-96.2926771984
 20
-2.412748578
 10
-96.2516903777
 20
-2.5323814468
 10
-96.2144294995
 20
-2.6516450366
 10
-96.1809158143
 20
-2.770537241
 10
-96.1511280716
 20
-2.8890601664
 10
-96.1252358411
 20
-3.0065391087
 10
-96.1032613406
 20
-3.1229681136
 10
-96.0851823524
 20
-3.2383531354
 10
-96.0711017929
 20
-3.352037333
 10
-96.0610539676
 20
-3.4638017593
 10
-96.055004571
 20
-3.5738653613
 10
-96.0529536032
 20
-3.6822281391
  0
LINE
  5
265
100
AcDbEntity
  8
0
100
AcDbLine
 62
7
  6
CONTINUOUS
 10
2.2348889817
 20
-65.7394534108
 11
-6.2503923926
 21
-60.8401582909
  0
LINE
  5
266
100
AcDbEntity
  8
0
100
AcDbLine
 62
7
  6
CONTINUOUS
 10
-2.1695684244
 20
-65.6935140944
 11
-1.9209884742
 21
-65.8744053662
  0
LINE
  5
267
100
AcDbEntity
  8
0
100
AcDbLine
 62
7
  6
CONTINUOUS
 10
-0.4942276368
 20
-66.6608348683
 11
-0.2456476866
 21
-66.84172614
  0
LWPOLYLINE
  5
268
100
AcDbEntity
  8
0
100
AcDbPolyline
 62
7
  6
CONTINUOUS
 90
10
 70
0
 10
-2.9416827124
 20
-63.9174879761
 10
-2.9740734288
 20
-63.8933511817
 10
-3.0074484519
 20
-63.8694043605
 10
-3.0418077816
 20
-63.8456475127
 10
-3.077110536
 20
-63.8221725187
 10
-3.1133975971
 20
-63.7988874981
 10
-3.1507916102
 20
-63.7755168087
 10
-3.1893334572
 20
-63.7519685701
 10
-3.2289822562
 20
-63.7283346627
 10
-4.0831386343
 20
-63.2349677589
  0
LWPOLYLINE
  5
269
100
AcDbEntity
  8
0
100
AcDbPolyline
 62
7
  6
CONTINUOUS
 90
10
 70
0
 10
-2.9770380514
 20
-63.9379017058
 10
-3.0010138367
 20
-63.9196352489
 10
-3.0279590664
 20
-63.9000690893
 10
-3.0578737405
 20
-63.879203227
 10
-3.0905588506
 20
-63.8571000872
 10
-3.1262134051
 20
-63.8336972446
 10
-3.1654344294
 20
-63.8088074238
 10
-3.2084209319
 20
-63.7823681996
 10
-3.2549739042
 20
-63.7544419971
 10
-3.3050933463
 20
-63.7250288164
  0
LWPOLYLINE
  5
26A
100
AcDbEntity
  8
0
100
AcDbPolyline
 62
7
  6
CONTINUOUS
 90
13
 70
0
 10
-3.0156077962
 20
-64.2092559973
 10
-2.997359096
 20
-64.2260734504
 10
-2.979787599
 20
-64.2435097144
 10
-2.9628933053
 20
-64.2615647893
 10
-2.9467328065
 20
-64.2801760009
 10
-2.9312495111
 20
-64.2994060233
 10
-2.9162736436
 20
-64.3194428792
 10
-2.9017802634
 20
-64.3402521833
 10
-2.8877943111
 20
-64.3618683208
 10
-2.8742208338
 20
-64.3845824697
 10
-2.8610281803
 20
-64.4084916892
 10
-2.8482480017
 20
-64.4334989201
 10
-2.8358802981
 20
-64.4596041623
  0
LWPOLYLINE
  5
26B
100
AcDbEntity
  8
0
100
AcDbPolyline
 62
7
  6
CONTINUOUS
 90
10
 70
0
 10
-31.9183685496
 20
74.1647683376
 10
-31.9161701694
 20
74.2749829725
 10
-31.9095795854
 20
74.3824305364
 10
-31.8986104575
 20
74.4868883278
 10
-31.8832855209
 20
74.5881398421
 10
-31.8636365388
 20
74.6859752199
 10
-31.8397042369
 20
74.7801916826
 10
-31.8115382184
 20
74.870593952
 10
-31.7791968617
 20
74.9569946558
 10
-31.7722821894
 20
74.9725921876
  0
LWPOLYLINE
  5
26C
100
AcDbEntity
  8
0
100
AcDbPolyline
 62
7
  6
CONTINUOUS
 90
55
 70
0
 10
-96.6742014664
 20
-5.0554387225
 10
-96.741095106
 20
-5.0907432624
 10
-96.8107679781
 20
-5.1210666453
 10
-96.8828959431
 20
-5.1462780977
 10
-96.9574930033
 20
-5.1663484641
 10
-97.0345451564
 20
-5.1813068998
 10
-97.113613775
 20
-5.1910682525
 10
-97.1947103599
 20
-5.1956028811
 10
-97.2778234103
 20
-5.1949404266
 10
-97.3624797966
 20
-5.1890846602
 10
-97.4486883211
 20
-5.1780059622
 10
-97.5364401814
 20
-5.1617339523
 10
-97.6252358411
 20
-5.1403612605
 10
-97.7150812534
 20
-5.1138587956
 10
-97.8059704651
 20
-5.0822556489
 10
-97.8973860799
 20
-5.0457317244
 10
-97.9893311001
 20
-5.0042589571
 10
-98.0818025235
 20
-4.9578654121
 10
-98.1742739468
 20
-4.9068151895
 10
-98.2667453702
 20
-4.8510817303
 10
-98.3592167935
 20
-4.7906915935
 10
-98.4511618137
 20
-4.7259885562
 10
-98.5425774285
 20
-4.65694802
 10
-98.6334666402
 20
-4.5835945834
 10
-98.7233120525
 20
-4.5063458182
 10
-98.8121077122
 20
-4.4251795079
 10
-98.8998595726
 20
-4.340117869
 10
-98.986068097
 20
-4.2516451239
 10
-99.0707244833
 20
-4.1597418174
 10
-99.1538375337
 20
-4.0644274046
 10
-99.2349341186
 20
-3.9662444726
 10
-99.3140027372
 20
-3.865176661
 10
-99.3910548903
 20
-3.7612403302
 10
-99.4656519505
 20
-3.6550271486
 10
-99.5377799155
 20
-3.5465241302
 10
-99.6074527876
 20
-3.4357442609
 10
-99.6742739468
 20
-3.3233181666
 10
-99.7382271286
 20
-3.2092364582
 10
-99.7993285976
 20
-3.0935085247
 10
-99.8572305272
 20
-2.9767931593
 10
-99.9119146692
 20
-2.8590847305
 10
-99.9633992719
 20
-2.7403888698
 10
-100.0113912539
 20
-2.6213812657
 10
-100.0558706953
 20
-2.5020601403
 10
-100.0968575159
 20
-2.3824272714
 10
-100.1341183941
 20
-2.2631636817
 10
-100.1676320793
 20
-2.1442714772
 10
-100.197419822
 20
-2.0257485519
 10
-100.2233120525
 20
-1.9082696096
 10
-100.245286553
 20
-1.7918406047
 10
-100.2633655412
 20
-1.6764555828
 10
-100.2774461008
 20
-1.5627713853
 10
-100.287493926
 20
-1.451006959
 10
-100.2935433226
 20
-1.3409433569
 10
-100.2955942904
 20
-1.2325805792
  0
LWPOLYLINE
  5
26D
100
AcDbEntity
  8
0
100
AcDbPolyline
 62
7
  6
CONTINUOUS
 90
21
 70
0
 10
28.8374672572
 20
-74.6028934896
 10
28.7797637857
 20
-74.549840091
 10
28.7221847338
 20
-74.4930513001
 10
28.6657517123
 20
-74.4334769524
 10
28.6106194003
 20
-74.3712803372
 10
28.5569389114
 20
-74.3066319309
 10
28.5048573802
 20
-74.2397089304
 10
28.4545175585
 20
-74.1706947669
 10
28.4060574244
 20
-74.0997786035
 10
28.3596098036
 20
-74.0271548165
 10
28.3153020058
 20
-73.9530224626
 10
28.2732554758
 20
-73.8775847335
 10
28.23358546
 20
-73.8010483986
 10
28.1964006912
 20
-73.7236232389
 10
28.1618030903
 20
-73.6455214712
 10
28.1298874869
 20
-73.5669571671
 10
28.1007413595
 20
-73.4881456659
 10
28.0744445956
 20
-73.4093029844
 10
28.0510692727
 20
-73.330645225
 10
28.0306794611
 20
-73.252387983
 10
28.0136202
 20
-73.1760398473
  0
LWPOLYLINE
  5
26E
100
AcDbEntity
  8
0
100
AcDbPolyline
 62
7
  6
CONTINUOUS
 90
10
 70
0
 10
-2.6757410234
 20
-64.1889468212
 10
-2.6985912614
 20
-64.1581203229
 10
-2.723068241
 20
-64.1274412558
 10
-2.7491719623
 20
-64.0969096199
 10
-2.7768384679
 20
-64.0665005219
 10
-2.8061317151
 20
-64.036238855
 10
-2.837243576
 20
-64.0061992991
 10
-2.8702380078
 20
-63.9764067472
 10
-2.9050510533
 20
-63.9468363062
 10
-2.9416827124
 20
-63.9174879761
  0
LWPOLYLINE
  5
26F
100
AcDbEntity
  8
0
100
AcDbPolyline
 62
7
  6
CONTINUOUS
 90
10
 70
0
 10
-2.7110963625
 20
-64.2093605509
 10
-2.7330229487
 20
-64.1796799288
 10
-2.7566690474
 20
-64.1499484434
 10
-2.7820346587
 20
-64.1201660948
 10
-2.8088716359
 20
-64.0904255558
 10
-2.8374281257
 20
-64.0606341535
 10
-2.8684485682
 20
-64.0305138692
 10
-2.90218111
 20
-63.9999720301
 10
-2.9383776044
 20
-63.9691013089
 10
-2.9770380514
 20
-63.9379017058
  0
LWPOLYLINE
  5
270
100
AcDbEntity
  8
0
100
AcDbPolyline
 62
7
  6
CONTINUOUS
 90
16
 70
0
 10
-2.0051948035
 20
-66.8181140077
 10
-1.9815739138
 20
-66.8547677343
 10
-1.9570709483
 20
-66.8904507725
 10
-1.931685907
 20
-66.9251631222
 10
-1.9055225582
 20
-66.9588141867
 10
-1.8784771337
 20
-66.9914945628
 10
-1.8502383283
 20
-67.0234760405
 10
-1.8208498121
 20
-67.0547928758
 10
-1.7902679151
 20
-67.0854108129
 10
-1.758050322
 20
-67.1154988742
 10
-1.7242592861
 20
-67.1450932848
 10
-1.6888325541
 20
-67.1741578196
 10
-1.6511410517
 20
-67.2027528269
 10
-1.6109750871
 20
-67.2308984225
 10
-1.5685443521
 20
-67.2585744906
 10
-1.5238488464
 20
-67.285781031
  0
LWPOLYLINE
  5
271
100
AcDbEntity
  8
0
100
AcDbPolyline
 62
7
  6
CONTINUOUS
 90
16
 70
0
 10
-0.3298541295
 20
-67.7854348628
 10
-0.3062332788
 20
-67.8220885298
 10
-0.2817303467
 20
-67.8577715176
 10
-0.2563453333
 20
-67.892483826
 10
-0.2301820065
 20
-67.9261348597
 10
-0.2031365983
 20
-67.958815214
 10
-0.1748978049
 20
-67.9907966757
 10
-0.1455092962
 20
-68.0221135003
 10
-0.1149274022
 20
-68.0527314322
 10
-0.0827098097
 20
-68.0828194911
 10
-0.0489187711
 20
-68.1124139019
 10
-0.0134920339
 20
-68.1414784396
 10
0.0241994731
 20
-68.1700734494
 10
0.0643654403
 20
-68.1982190463
 10
0.1067961773
 20
-68.2258951153
 10
0.1514916841
 20
-68.2531016564
  0
LWPOLYLINE
  5
272
100
AcDbEntity
  8
0
100
AcDbPolyline
 62
7
  6
CONTINUOUS
 90
13
 70
0
 10
-1.7959629995
 20
-66.7601172875
 10
-1.8115046472
 20
-66.7341595819
 10
-1.8264421622
 20
-66.7067190701
 10
-1.8407755443
 20
-66.6777957521
 10
-1.8545211859
 20
-66.6476282323
 10
-1.8676626948
 20
-66.6159779062
 10
-1.8801508942
 20
-66.5821289608
 10
-1.8920665473
 20
-66.5461004806
 10
-1.9033288909
 20
-66.5078733812
 10
-1.9136464596
 20
-66.4666745962
 10
-1.9229220981
 20
-66.4222464368
 10
-1.9312529616
 20
-66.3748465919
 10
-1.9386390501
 20
-66.3244750614
  0
LWPOLYLINE
  5
273
100
AcDbEntity
  8
0
100
AcDbPolyline
 62
7
  6
CONTINUOUS
 90
13
 70
0
 10
-0.1206224113
 20
-67.7274378723
 10
-0.1361640536
 20
-67.7014801488
 10
-0.1511015678
 20
-67.6740396147
 10
-0.1654349537
 20
-67.6451162701
 10
-0.179180606
 20
-67.6149487124
 10
-0.1923221301
 20
-67.5832983442
 10
-0.2048103426
 20
-67.5494493733
 10
-0.2167260038
 20
-67.5134208922
 10
-0.2279883534
 20
-67.4751938084
 10
-0.2383059262
 20
-67.4339950529
 10
-0.2475815674
 20
-67.3895669359
 10
-0.2559124318
 20
-67.3421671473
 10
-0.2632985195
 20
-67.2917956868
  0
LWPOLYLINE
  5
274
100
AcDbEntity
  8
0
100
AcDbPolyline
 62
7
  6
CONTINUOUS
 90
16
 70
0
 10
-0.9814586767
 20
-66.1319730346
 10
-1.0087946193
 20
-66.0862087719
 10
-1.0365216849
 20
-66.0425552063
 10
-1.0646398737
 20
-66.0010123377
 10
-1.0930711274
 20
-65.9617468179
 10
-1.1218935043
 20
-65.9245919952
 10
-1.1513411789
 20
-65.8890479141
 10
-1.1813858716
 20
-65.8550499402
 10
-1.2120558621
 20
-65.8226627079
 10
-1.2436701633
 20
-65.7915801652
 10
-1.2761931004
 20
-65.7617431635
 10
-1.3096603483
 20
-65.7332108514
 10
-1.344497945
 20
-65.7058546225
 10
-1.3808479031
 20
-65.6796316079
 10
-1.41856821
 20
-65.6545846765
 10
-1.4576588656
 20
-65.6307138282
  0
LWPOLYLINE
  5
275
100
AcDbEntity
  8
0
100
AcDbPolyline
 62
7
  6
CONTINUOUS
 90
16
 70
0
 10
0.6938819176
 20
-67.0992939196
 10
0.6665459606
 20
-67.0535296046
 10
0.6388188831
 20
-67.0098759934
 10
0.610700685
 20
-66.9683330861
 10
0.582269424
 20
-66.9290675347
 10
0.5534470425
 20
-66.8919126871
 10
0.5239993671
 20
-66.8563685873
 10
0.4939546773
 20
-66.8223706009
 10
0.4632846936
 20
-66.7899833623
 10
0.4316704048
 20
-66.7589008193
 10
0.3991474855
 20
-66.729063823
 10
0.365680261
 20
-66.7005315222
 10
0.3308426959
 20
-66.6731753103
 10
0.2944927785
 20
-66.6469523186
 10
0.2567725205
 20
-66.6219054158
 10
0.217681922
 20
-66.598034602
  0
LWPOLYLINE
  5
276
100
AcDbEntity
  8
0
100
AcDbPolyline
 62
7
  6
CONTINUOUS
 90
16
 70
0
 10
-0.9461033377
 20
-66.1115593049
 10
-0.9733795373
 20
-66.0658259899
 10
-1.0011967733
 20
-66.0220440512
 10
-1.0295550458
 20
-65.9802134888
 10
-1.0584600037
 20
-65.9403900704
 10
-1.087905998
 20
-65.9025180283
 10
-1.1178760819
 20
-65.8664300595
 10
-1.1482700048
 20
-65.8321875082
 10
-1.1791880173
 20
-65.7997290302
 10
-1.2109139242
 20
-65.7687032908
 10
-1.2434126692
 20
-65.7390536822
 10
-1.2767193086
 20
-65.7108368123
 10
-1.3112228167
 20
-65.68387117
 10
-1.3470528514
 20
-65.6580962518
 10
-1.3840797547
 20
-65.6335725613
 10
-1.4223035266
 20
-65.6103000985
  0
LWPOLYLINE
  5
277
100
AcDbEntity
  8
0
100
AcDbPolyline
 62
7
  6
CONTINUOUS
 90
16
 70
0
 10
0.7292372566
 20
-67.0788801899
 10
0.7019610498
 20
-67.0331468332
 10
0.6741438072
 20
-66.9893648564
 10
0.6457855287
 20
-66.9475342595
 10
0.6168805643
 20
-66.9077108092
 10
0.5874345641
 20
-66.8698387387
 10
0.5574644782
 20
-66.8337507481
 10
0.5270705578
 20
-66.7995081826
 10
0.4961525518
 20
-66.7670496971
 10
0.4644266566
 20
-66.7360239559
 10
0.4319279282
 20
-66.706374351
 10
0.3986213105
 20
-66.6781574904
 10
0.3641178322
 20
-66.6511918634
 10
0.3282878359
 20
-66.6254169662
 10
0.2912609788
 20
-66.6008933025
 10
0.253037261
 20
-66.5776208723
  0
LWPOLYLINE
  5
278
100
AcDbEntity
  8
0
100
AcDbPolyline
 62
7
  6
CONTINUOUS
 90
13
 70
0
 10
-1.7606076605
 20
-66.7397035578
 10
-1.7773173958
 20
-66.7116250434
 10
-1.7932236455
 20
-66.6821348248
 10
-1.8083264096
 20
-66.651232902
 10
-1.8226608607
 20
-66.6190044353
 10
-1.8361918261
 20
-66.5853642644
 10
-1.8488137877
 20
-66.550056908
 10
-1.8605642294
 20
-66.5129464494
 10
-1.8714056673
 20
-66.4741688054
 10
-1.8811201314
 20
-66.4338762446
 10
-1.889634965
 20
-66.3921195236
 10
-1.8970228249
 20
-66.348847886
 10
-1.903283711
 20
-66.3040613318
  0
LWPOLYLINE
  5
279
100
AcDbEntity
  8
0
100
AcDbPolyline
 62
7
  6
CONTINUOUS
 90
13
 70
0
 10
-0.0852670723
 20
-67.7070241427
 10
-0.1019767921
 20
-67.6789456248
 10
-0.1178830312
 20
-67.6494554038
 10
-0.1329857895
 20
-67.6185534799
 10
-0.1473202403
 20
-67.5863250132
 10
-0.1608512104
 20
-67.5526848435
 10
-0.1734731804
 20
-67.5173774899
 10
-0.1852236355
 20
-67.4802670363
 10
-0.1960650905
 20
-67.4414893988
 10
-0.20577957
 20
-67.4011968454
 10
-0.2142944156
 20
-67.3594401319
 10
-0.2216822858
 20
-67.3161685025
 10
-0.2279431805
 20
-67.2713819572
  0
LWPOLYLINE
  5
27A
100
AcDbEntity
  8
0
100
AcDbPolyline
 62
7
  6
CONTINUOUS
 90
44
 70
0
 10
-31.9183685496
 20
74.1647683376
 10
-31.9161701694
 20
74.0520150684
 10
-31.9095795854
 20
73.9369568632
 10
-31.8986104575
 20
73.8198321978
 10
-31.8832855209
 20
73.7008838308
 10
-31.8636365388
 20
73.5803583011
 10
-31.8397042369
 20
73.458505416
 10
-31.8115382184
 20
73.3355777344
 10
-31.7791968617
 20
73.2118300426
 10
-31.7427471993
 20
73.0875188266
 10
-31.7022647786
 20
72.9629017405
 10
-31.6578335056
 20
72.838237072
 10
-31.6095454709
 20
72.7137832079
 10
-31.5575007588
 20
72.5897980976
 10
-31.50180724
 20
72.4665387194
 10
-31.4425803478
 20
72.3442605471
 10
-31.3799428389
 20
72.2232170208
 10
-31.3140245392
 20
72.1036590219
 10
-31.2449620743
 20
71.9858343524
 10
-31.1728985869
 20
71.869987222
 10
-31.0979834395
 20
71.7563577415
 10
-31.0203719051
 20
71.6451814255
 10
-30.9402248455
 20
71.5366887038
 10
-30.8577083778
 20
71.4311044442
 10
-30.77299353
 20
71.3286474861
 10
-30.6862558864
 20
71.2295301872
 10
-30.5976752241
 20
71.1339579833
 10
-30.50743514
 20
71.0421289623
 10
-30.4157226705
 20
70.954233454
 10
-30.3227279038
 20
70.8704536352
 10
-30.2286435856
 20
70.7909631523
 10
-30.13366472
 20
70.7159267616
 10
-30.0379881654
 20
70.6454999874
 10
-29.9418122258
 20
70.5798287999
 10
-29.8453362408
 20
70.5190493127
 10
-29.7487601714
 20
70.4632875006
 10
-29.6522841863
 20
70.4126589385
 10
-29.5561082468
 20
70.3672685618
 10
-29.4604316921
 20
70.3272104489
 10
-29.3654528266
 20
70.2925676264
 10
-29.2713685083
 20
70.2634118969
 10
-29.1783737416
 20
70.2398036901
 10
-29.0866612721
 20
70.2217919375
 10
-29.0241252565
 20
70.2132140567
  0
LWPOLYLINE
  5
27B
100
AcDbEntity
  8
0
100
AcDbPolyline
 62
7
  6
CONTINUOUS
 90
55
 70
0
 10
-33.1204500776
 20
73.4707015289
 10
-33.1183991098
 20
73.3623387511
 10
-33.1123497133
 20
73.2522751491
 10
-33.102301888
 20
73.1405107228
 10
-33.0882213285
 20
73.0268265252
 10
-33.0701423403
 20
72.9114415034
 10
-33.0481678398
 20
72.7950124985
 10
-33.0222756093
 20
72.6775335562
 10
-32.9924878665
 20
72.5590106308
 10
-32.9589741814
 20
72.4401184264
 10
-32.9217133032
 20
72.3208548366
 10
-32.8807264825
 20
72.2012219678
 10
-32.8362470412
 20
72.0819008424
 10
-32.7882550592
 20
71.9628932383
 10
-32.7367704565
 20
71.8441973776
 10
-32.6820863145
 20
71.7264889487
 10
-32.6241843848
 20
71.6097735834
 10
-32.5630829159
 20
71.4940456499
 10
-32.4991297341
 20
71.3799639414
 10
-32.4323085749
 20
71.2675378471
 10
-32.3626357028
 20
71.1567579779
 10
-32.2905077378
 20
71.0482549595
 10
-32.2159106776
 20
70.9420417778
 10
-32.1388585245
 20
70.8381054471
 10
-32.0597899059
 20
70.7370376355
 10
-31.978693321
 20
70.6388547035
 10
-31.8955802706
 20
70.5435402907
 10
-31.8109238843
 20
70.4516369842
 10
-31.7247153598
 20
70.363164239
 10
-31.6369634995
 20
70.2781026002
 10
-31.5481678398
 20
70.1969362898
 10
-31.4583224275
 20
70.1196875247
 10
-31.3674332158
 20
70.046334088
 10
-31.276017601
 20
69.9772935519
 10
-31.1840725808
 20
69.9125905146
 10
-31.0916011574
 20
69.8522003778
 10
-30.9991297341
 20
69.7964669186
 10
-30.9066583107
 20
69.745416696
 10
-30.8141868874
 20
69.699023151
 10
-30.7222418672
 20
69.6575503836
 10
-30.6308262524
 20
69.6210264592
 10
-30.5399370407
 20
69.5894233125
 10
-30.4500916284
 20
69.5629208475
 10
-30.3612959687
 20
69.5415481558
 10
-30.2735441083
 20
69.5252761459
 10
-30.1873355839
 20
69.5141974479
 10
-30.1026791976
 20
69.5083416815
 10
-30.0195661472
 20
69.507679227
 10
-29.9384695623
 20
69.5122138555
 10
-29.8594009437
 20
69.5219752083
 10
-29.7823487906
 20
69.536933644
 10
-29.7077517304
 20
69.5570040103
 10
-29.6356237654
 20
69.5822154627
 10
-29.5659508933
 20
69.6125388457
 10
-29.4990572537
 20
69.6478433856
  0
LWPOLYLINE
  5
27C
100
AcDbEntity
  8
0
100
AcDbPolyline
 62
7
  6
CONTINUOUS
 90
55
 70
0
 10
-28.8778093905
 20
71.021053969
 10
-28.8798603583
 20
71.1294167467
 10
-28.8859097549
 20
71.2394803488
 10
-28.8959575801
 20
71.3512447751
 10
-28.9100381397
 20
71.4649289726
 10
-28.9281171279
 20
71.5803139945
 10
-28.9500916284
 20
71.6967429994
 10
-28.9759838589
 20
71.8142219417
 10
-29.0057716016
 20
71.932744867
 10
-29.0392852868
 20
72.0516370715
 10
-29.076546165
 20
72.1709006612
 10
-29.1175329856
 20
72.2905335301
 10
-29.162012427
 20
72.4098546555
 10
-29.210004409
 20
72.5288622596
 10
-29.2614890117
 20
72.6475581203
 10
-29.3161731537
 20
72.7652665491
 10
-29.3740750833
 20
72.8819819145
 10
-29.4351765523
 20
72.997709848
 10
-29.4991297341
 20
73.1117915564
 10
-29.5659508933
 20
73.2242176507
 10
-29.6356237654
 20
73.33499752
 10
-29.7077517304
 20
73.4435005384
 10
-29.7823487906
 20
73.54971372
 10
-29.8594009437
 20
73.6536500508
 10
-29.9384695623
 20
73.7547178624
 10
-30.0195661472
 20
73.8529007944
 10
-30.1026791976
 20
73.9482152072
 10
-30.1873355839
 20
74.0401185137
 10
-30.2735441083
 20
74.1285912588
 10
-30.3612959687
 20
74.2136528977
 10
-30.4500916284
 20
74.294819208
 10
-30.5399370407
 20
74.3720679732
 10
-30.6308262524
 20
74.4454214098
 10
-30.7222418672
 20
74.514461946
 10
-30.8141868874
 20
74.5791649833
 10
-30.9066583107
 20
74.6395551201
 10
-30.9991297341
 20
74.6952885793
 10
-31.0916011574
 20
74.7463388019
 10
-31.1840725808
 20
74.7927323469
 10
-31.276017601
 20
74.8342051142
 10
-31.3674332158
 20
74.8707290387
 10
-31.4583224275
 20
74.9023321854
 10
-31.5481678398
 20
74.9288346503
 10
-31.6369634995
 20
74.9502073421
 10
-31.7247153598
 20
74.966479352
 10
-31.8109238843
 20
74.97755805
 10
-31.8955802706
 20
74.9834138164
 10
-31.978693321
 20
74.9840762709
 10
-32.0597899059
 20
74.9795416423
 10
-32.1388585245
 20
74.9697802896
 10
-32.2159106776
 20
74.9548218539
 10
-32.2905077378
 20
74.9347514875
 10
-32.3626357028
 20
74.9095400351
 10
-32.4323085749
 20
74.8792166522
 10
-32.4992022145
 20
74.8439121123
  0
LWPOLYLINE
  5
27D
100
AcDbEntity
  8
0
100
AcDbPolyline
 62
7
  6
CONTINUOUS
 90
16
 70
0
 10
-1.1962092476
 20
-66.2032825738
 10
-1.1808196529
 20
-66.2313803717
 10
-1.1664009901
 20
-66.2597803388
 10
-1.1529532592
 20
-66.2884824751
 10
-1.1404976394
 20
-66.3173758519
 10
-1.1290129516
 20
-66.3465713978
 10
-1.1184356582
 20
-66.3764018988
 10
-1.1087214427
 20
-66.4068460599
 10
-1.0999146218
 20
-66.4379251759
 10
-1.0920846076
 20
-66.470035918
 10
-1.0851761116
 20
-66.5031432001
 10
-1.0792444223
 20
-66.5372821082
 10
-1.0745248181
 20
-66.5729545714
 10
-1.0710957251
 20
-66.6103278996
 10
-1.0688787172
 20
-66.6492347829
 10
-1.0678737944
 20
-66.6896752214
  0
LWPOLYLINE
  5
27E
100
AcDbEntity
  8
0
100
AcDbPolyline
 62
7
  6
CONTINUOUS
 90
16
 70
0
 10
0.479131283
 20
-67.1706031992
 10
0.4945209214
 20
-67.1987010772
 10
0.5089396242
 20
-67.2271011205
 10
0.5223873914
 20
-67.2558033292
 10
0.5348430442
 20
-67.2846967765
 10
0.5463277614
 20
-67.3138923891
 10
0.5569050797
 20
-67.3437229473
 10
0.5666193152
 20
-67.3741671571
 10
0.5754261518
 20
-67.4052463125
 10
0.5832561774
 20
-67.4373570762
 10
0.5901646801
 20
-67.4704643642
 10
0.5960963718
 20
-67.5046032606
 10
0.6008159766
 20
-67.5402756804
 10
0.6042450691
 20
-67.5776489286
 10
0.6064620746
 20
-67.6165557002
 10
0.6074669932
 20
-67.6569959952
  0
LWPOLYLINE
  5
27F
100
AcDbEntity
  8
0
100
AcDbPolyline
 62
7
  6
CONTINUOUS
 90
13
 70
0
 10
-2.8358802981
 20
-64.4596041623
 10
-2.8251574064
 20
-64.4843651207
 10
-2.8153395944
 20
-64.5091145654
 10
-2.8064268621
 20
-64.5338524966
 10
-2.7984312294
 20
-64.5584865075
 10
-2.7913406764
 20
-64.5831090049
 10
-2.7851191433
 20
-64.6079972086
 10
-2.7797256712
 20
-64.6331433434
 10
-2.775201219
 20
-64.6585551845
 10
-2.7716326038
 20
-64.6845332783
 10
-2.7690487646
 20
-64.7111778069
 10
-2.7674207626
 20
-64.7383885882
 10
-2.7667485975
 20
-64.7661656222
  0
LWPOLYLINE
  5
280
100
AcDbEntity
  8
0
100
AcDbPolyline
 62
7
  6
CONTINUOUS
 90
10
 70
0
 10
-2.5390535103
 20
-64.5479359036
 10
-2.5556488631
 20
-64.5025701582
 10
-2.5728559421
 20
-64.4593013936
 10
-2.5906747472
 20
-64.41812961
 10
-2.60908074
 20
-64.3792686946
 10
-2.628098459
 20
-64.3425047601
 10
-2.6478015192
 20
-64.3071961447
 10
-2.6682144591
 20
-64.273128961
 10
-2.6893127401
 20
-64.2405170964
 10
-2.7110963625
 20
-64.2093605509
  0
LWPOLYLINE
  5
281
100
AcDbEntity
  8
0
100
AcDbPolyline
 62
7
  6
CONTINUOUS
 90
10
 70
0
 10
-2.5036981713
 20
-64.5275221739
 10
-2.5201711229
 20
-64.4824162571
 10
-2.5373159636
 20
-64.4392840571
 10
-2.5551326934
 20
-64.3981255739
 10
-2.573636191
 20
-64.3590769524
 10
-2.5928115777
 20
-64.3220020478
 10
-2.6126142179
 20
-64.2864924258
 10
-2.633029233
 20
-64.2524119417
 10
-2.6540715015
 20
-64.2198967401
 10
-2.6757410234
 20
-64.1889468212
  0
LWPOLYLINE
  5
282
100
AcDbEntity
  8
0
100
AcDbPolyline
 62
7
  6
CONTINUOUS
 90
21
 70
0
 10
-29.9691358573
 20
73.7918452798
 10
-29.9520765962
 20
73.715497144
 10
-29.9316867846
 20
73.6372399021
 10
-29.9083114617
 20
73.5585821427
 10
-29.8820146978
 20
73.4797394612
 10
-29.8528685704
 20
73.40092796
 10
-29.820952967
 20
73.3223636559
 10
-29.7863553661
 20
73.2442618882
 10
-29.7491705973
 20
73.1668367285
 10
-29.7095005815
 20
73.0903003936
 10
-29.6674540515
 20
73.0148626645
 10
-29.6231462537
 20
72.9407303106
 10
-29.5766986329
 20
72.8681065236
 10
-29.5282384988
 20
72.7971903602
 10
-29.4778986771
 20
72.7281761967
 10
-29.4258171459
 20
72.6612531962
 10
-29.372136657
 20
72.5966047899
 10
-29.3170043449
 20
72.5344081746
 10
-29.2605713235
 20
72.474833827
 10
-29.2029922716
 20
72.4180450361
 10
-29.1452888001
 20
72.3649916375
  0
LWPOLYLINE
  5
283
100
AcDbEntity
  8
0
100
AcDbPolyline
 62
7
  6
CONTINUOUS
 90
15
 70
0
 10
-2.2116922143
 20
-66.2397236299
 10
-2.2053956893
 20
-66.2869389069
 10
-2.1977471377
 20
-66.3327826138
 10
-2.1887019916
 20
-66.3770864438
 10
-2.1783048187
 20
-66.4200187037
 10
-2.1666893223
 20
-66.462084314
 10
-2.1539107963
 20
-66.5033096894
 10
-2.1399139468
 20
-66.5436684152
 10
-2.124666596
 20
-66.5835861671
 10
-2.1082196035
 20
-66.6230777841
 10
-2.0905221096
 20
-66.6621284273
 10
-2.0713893583
 20
-66.7011192554
 10
-2.0507597642
 20
-66.7401773213
 10
-2.0286949126
 20
-66.779175572
 10
-2.0051948035
 20
-66.8181140077
  0
LINE
  5
284
100
AcDbEntity
  8
0
100
AcDbLine
 62
7
  6
CONTINUOUS
 10
-2.2166367124
 20
-66.1911367828
 11
-2.2116922143
 21
-66.2397236299
  0
LINE
  5
285
100
AcDbEntity
  8
0
100
AcDbLine
 62
7
  6
CONTINUOUS
 10
-0.5412961819
 20
-67.1584574082
 11
-0.5363516086
 21
-67.2070444827
  0
LINE
  5
286
100
AcDbEntity
  8
0
100
AcDbLine
 62
7
  6
CONTINUOUS
 10
-1.1989254925
 20
-3.4795334087
 11
-1.4964399635
 21
0.365916538
  0
LINE
  5
287
100
AcDbEntity
  8
0
100
AcDbLine
 62
7
  6
CONTINUOUS
 10
-1.1635701534
 20
-3.459119679
 11
-1.4610846245
 21
0.3863302677
  0
LINE
  5
288
100
AcDbEntity
  8
0
100
AcDbLine
 62
7
  6
CONTINUOUS
 10
-1.9850606488
 20
-0.6367919214
 11
-1.8486144959
 21
-3.1044111206
  0
LWPOLYLINE
  5
289
100
AcDbEntity
  8
0
100
AcDbPolyline
 62
7
  6
CONTINUOUS
 90
16
 70
0
 10
-0.7869344123
 20
-66.8247120122
 10
-0.7882392534
 20
-66.7722358835
 10
-0.791304285
 20
-66.7211132512
 10
-0.7961295071
 20
-66.6713441153
 10
-0.8027882302
 20
-66.6231154808
 10
-0.8112071438
 20
-66.5762403428
 10
-0.8211663164
 20
-66.5301576859
 10
-0.8325908146
 20
-66.4848442515
 10
-0.8455555718
 20
-66.4403232984
 10
-0.8600654567
 20
-66.3961035878
 10
-0.8760525922
 20
-66.352175296
 10
-0.8935848554
 20
-66.3085482468
 10
-0.9128707455
 20
-66.2647606728
 10
-0.9339797623
 20
-66.2206586515
 10
-0.956842406
 20
-66.1763961055
 10
-0.9814586767
 20
-66.1319730346
  0
LWPOLYLINE
  5
28A
100
AcDbEntity
  8
0
100
AcDbPolyline
 62
7
  6
CONTINUOUS
 90
16
 70
0
 10
0.8884063753
 20
-67.792032786
 10
0.8871015437
 20
-67.7395569317
 10
0.8840365197
 20
-67.6884345156
 10
0.8792113034
 20
-67.6386655378
 10
0.8725525856
 20
-67.5904369943
 10
0.8641336755
 20
-67.543561889
 10
0.8541745004
 20
-67.4974792339
 10
0.8427499919
 20
-67.4521657731
 10
0.8297852185
 20
-67.4076447625
 10
0.8152753126
 20
-67.3634249818
 10
0.7992881498
 20
-67.3194966082
 10
0.7817558544
 20
-67.2758694645
 10
0.7624699329
 20
-67.232081799
 10
0.7413608873
 20
-67.1879796944
 10
0.7184982155
 20
-67.1437170679
 10
0.6938819176
 20
-67.0992939196
  0
LWPOLYLINE
  5
28B
100
AcDbEntity
  8
0
100
AcDbPolyline
 62
7
  6
CONTINUOUS
 90
10
 70
0
 10
-2.4725712192
 20
-64.9258295687
 10
-2.4735864606
 20
-64.8828526741
 10
-2.4762153645
 20
-64.8401922634
 10
-2.4804579308
 20
-64.7978483368
 10
-2.4863418162
 20
-64.7559133029
 10
-2.4938393641
 20
-64.714294753
 10
-2.5028676044
 20
-64.6727154608
 10
-2.5133988806
 20
-64.6310830174
 10
-2.5254608492
 20
-64.5894898317
 10
-2.5390535103
 20
-64.5479359036
  0
LWPOLYLINE
  5
28C
100
AcDbEntity
  8
0
100
AcDbPolyline
 62
7
  6
CONTINUOUS
 90
10
 70
0
 10
-2.4372158801
 20
-64.9054158391
 10
-2.4382308424
 20
-64.8623937105
 10
-2.4408668091
 20
-64.8196754599
 10
-2.4451237802
 20
-64.7772610872
 10
-2.4510391085
 20
-64.7352111153
 10
-2.4585754412
 20
-64.6934650214
 10
-2.4676207197
 20
-64.6518412371
 10
-2.4781375911
 20
-64.6102792397
 10
-2.4901634083
 20
-64.568839552
 10
-2.5036981713
 20
-64.5275221739
  0
LWPOLYLINE
  5
28D
100
AcDbEntity
  8
0
100
AcDbPolyline
 62
7
  6
CONTINUOUS
 90
16
 70
0
 10
-0.7515790732
 20
-66.8042982825
 10
-0.7527848798
 20
-66.752438501
 10
-0.7558210586
 20
-66.701555872
 10
-0.7606876098
 20
-66.6516503955
 10
-0.7674827982
 20
-66.6027152575
 10
-0.7761083589
 20
-66.554757272
 10
-0.7862694973
 20
-66.5077968815
 10
-0.7978816587
 20
-66.4620213759
 10
-0.8110293979
 20
-66.4172434653
 10
-0.8256715844
 20
-66.3729217217
 10
-0.8417471933
 20
-66.3290211735
 10
-0.8593172495
 20
-66.2855767924
 10
-0.8785236976
 20
-66.2421520662
 10
-0.8994138525
 20
-66.1986014909
 10
-0.9219403991
 20
-66.1550705704
 10
-0.9461033377
 20
-66.1115593049
  0
LWPOLYLINE
  5
28E
100
AcDbEntity
  8
0
100
AcDbPolyline
 62
7
  6
CONTINUOUS
 90
16
 70
0
 10
0.9237617144
 20
-67.7716190563
 10
0.922555919
 20
-67.7197595702
 10
0.9195197499
 20
-67.6688771747
 10
0.914653207
 20
-67.6189718696
 10
0.9078580271
 20
-67.5700368318
 10
0.8992324736
 20
-67.5220788846
 10
0.8890713355
 20
-67.4751184977
 10
0.8774591655
 20
-67.4293429634
 10
0.8643114111
 20
-67.3845649896
 10
0.8496692038
 20
-67.3402431696
 10
0.8335935676
 20
-67.2963425339
 10
0.8160234786
 20
-67.2528980521
 10
0.796816997
 20
-67.2094732266
 10
0.7759268095
 20
-67.1659225581
 10
0.7534002294
 20
-67.1223915459
 10
0.7292372566
 20
-67.0788801899
  0
LINE
  5
28F
100
AcDbEntity
  8
0
100
AcDbLine
 62
7
  6
CONTINUOUS
 10
-6.2503923926
 20
-60.8401582909
 11
-6.2503923926
 21
-69.0048610588
  0
LINE
  5
290
100
AcDbEntity
  8
0
100
AcDbLine
 62
7
  6
CONTINUOUS
 10
-6.2150370535
 20
-60.8605720206
 11
-6.2150370535
 21
-68.9844473292
  0
LINE
  5
291
100
AcDbEntity
  8
0
100
AcDbLine
 62
7
  6
CONTINUOUS
 10
-5.4472520252
 20
2.6472863541
 11
-5.4472520252
 21
-1.0266029127
  0
LINE
  5
292
100
AcDbEntity
  8
0
100
AcDbLine
 62
7
  6
CONTINUOUS
 10
-4.9068895001
 20
-62.8001717924
 11
-4.9068895001
 21
-65.2899962685
  0
LINE
  5
293
100
AcDbEntity
  8
0
100
AcDbLine
 62
7
  6
CONTINUOUS
 10
-4.783128851
 20
-1.4100593101
 11
-4.783128851
 21
2.2638299568
  0
LINE
  5
294
100
AcDbEntity
  8
0
100
AcDbLine
 62
7
  6
CONTINUOUS
 10
-4.747773512
 20
-1.3896455804
 11
-4.747773512
 21
2.2842436864
  0
LINE
  5
295
100
AcDbEntity
  8
0
100
AcDbLine
 62
7
  6
CONTINUOUS
 10
-4.6215373776
 20
-65.4547550077
 11
-4.6215373776
 21
-62.9649305316
  0
LINE
  5
296
100
AcDbEntity
  8
0
100
AcDbLine
 62
7
  6
CONTINUOUS
 10
-4.5861820386
 20
-65.4343412781
 11
-4.5861820386
 21
-62.9445168019
  0
LINE
  5
297
100
AcDbEntity
  8
0
100
AcDbLine
 62
7
  6
CONTINUOUS
 10
-4.1184939734
 20
-63.2553814886
 11
-4.1184939734
 21
-65.7452059647
  0
LINE
  5
298
100
AcDbEntity
  8
0
100
AcDbLine
 62
7
  6
CONTINUOUS
 10
-3.8331418187
 20
-65.9099647225
 11
-3.8331418187
 21
-64.8977304647
  0
LINE
  5
299
100
AcDbEntity
  8
0
100
AcDbLine
 62
7
  6
CONTINUOUS
 10
-3.8331418187
 20
-64.6039107691
 11
-3.8331418187
 21
-63.713959942
  0
LINE
  5
29A
100
AcDbEntity
  8
0
100
AcDbLine
 62
7
  6
CONTINUOUS
 10
-3.7977864797
 20
-65.8895509929
 11
-3.7977864797
 21
-64.9181441944
  0
LINE
  5
29B
100
AcDbEntity
  8
0
100
AcDbLine
 62
7
  6
CONTINUOUS
 10
-3.7977864797
 20
-64.5834970394
 11
-3.7977864797
 21
-63.7343736717
  0
LINE
  5
29C
100
AcDbEntity
  8
0
100
AcDbLine
 62
7
  6
CONTINUOUS
 10
-0.8884255448
 20
-65.4464714183
 11
-0.8884255448
 21
-65.1543500707
  0
LINE
  5
29D
100
AcDbEntity
  8
0
100
AcDbLine
 62
7
  6
CONTINUOUS
 10
-0.8530702057
 20
-65.4260576887
 11
-0.8530702057
 21
-65.133936341
  0
LINE
  5
29E
100
AcDbEntity
  8
0
100
AcDbLine
 62
7
  6
CONTINUOUS
 10
0.7869149858
 20
-66.4137920437
 11
0.7869149858
 21
-66.1216706961
  0
LINE
  5
29F
100
AcDbEntity
  8
0
100
AcDbLine
 62
7
  6
CONTINUOUS
 10
0.8222703248
 20
-66.3933783141
 11
0.8222703248
 21
-66.1012569664
  0
LWPOLYLINE
  5
2A0
100
AcDbEntity
  8
0
100
AcDbPolyline
 62
7
  6
CONTINUOUS
 90
15
 70
0
 10
-1.0678737944
 20
-66.6896752214
 10
-1.0688827824
 20
-66.7310032088
 10
-1.0711434954
 20
-66.7693949499
 10
-1.0746559333
 20
-66.8048504449
 10
-1.0794985253
 20
-66.8371277206
 10
-1.0855928423
 20
-66.8664687501
 10
-1.0927035973
 20
-66.8935994525
 10
-1.1007797376
 20
-66.9186070873
 10
-1.109872316
 20
-66.941404395
 10
-1.1198992032
 20
-66.9624555163
 10
-1.1308193199
 20
-66.9818263711
 10
-1.1426737456
 20
-66.9994510395
 10
-1.1555035892
 20
-67.0155959029
 10
-1.1693225539
 20
-67.0303497553
 10
-1.1841169366
 20
-67.0436238027
  0
LWPOLYLINE
  5
2A1
100
AcDbEntity
  8
0
100
AcDbPolyline
 62
7
  6
CONTINUOUS
 90
14
 70
0
 10
-2.7667485975
 20
-64.7661656222
 10
-2.7676533695
 20
-64.7983162399
 10
-2.7696493234
 20
-64.8279817151
 10
-2.7727364594
 20
-64.8551620478
 10
-2.7769842455
 20
-64.8796456407
 10
-2.7823232137
 20
-64.9016440911
 10
-2.788544959
 20
-64.9217921907
 10
-2.7955974117
 20
-64.9401742358
 10
-2.8035326416
 20
-64.9567059301
 10
-2.8122984528
 20
-64.9717691769
 10
-2.8218524191
 20
-64.9854298994
 10
-2.8322369667
 20
-64.9976221744
 10
-2.8435271783
 20
-65.0085301351
 10
-2.8557480813
 20
-65.0182151595
  0
LINE
  5
2A2
100
AcDbEntity
  8
0
100
AcDbLine
 62
7
  6
CONTINUOUS
 10
-3.7902604206
 20
-1.9833290982
 11
-3.6469433111
 21
0.3327576109
  0
LINE
  5
2A3
100
AcDbEntity
  8
0
100
AcDbLine
 62
7
  6
CONTINUOUS
 10
-3.7549050815
 20
-1.9629153686
 11
-3.6191414202
 21
0.2311032842
  0
LINE
  5
2A4
100
AcDbEntity
  8
0
100
AcDbLine
 62
7
  6
CONTINUOUS
 10
-4.1383309052
 20
1.8913112571
 11
-4.4256107127
 21
-1.6164858024
  0
LINE
  5
2A5
100
AcDbEntity
  8
0
100
AcDbLine
 62
7
  6
CONTINUOUS
 10
-0.1186162374
 20
-2.8023969105
 11
0.2120615417
 21
-1.6299815982
  0
LINE
  5
2A6
100
AcDbEntity
  8
0
100
AcDbLine
 62
7
  6
CONTINUOUS
 10
-0.0832608984
 20
-2.7819831808
 11
0.2242774159
 21
-1.6916086483
  0
LINE
  5
2A7
100
AcDbEntity
  8
0
100
AcDbLine
 62
7
  6
CONTINUOUS
 10
-6.3573790628
 20
3.1725618521
 11
-6.9823744832
 21
1.0047264829
  0
LINE
  5
2A8
100
AcDbEntity
  8
0
100
AcDbLine
 62
7
  6
CONTINUOUS
 10
-0.4377222141
 20
-3.9190426415
 11
-0.2544662993
 21
-3.2914570673
  0
LINE
  5
2A9
100
AcDbEntity
  8
0
100
AcDbLine
 62
7
  6
CONTINUOUS
 10
-0.402366875
 20
-3.8986289118
 11
-0.2293126537
 21
-3.3059804671
  0
LINE
  5
2AA
100
AcDbEntity
  8
0
100
AcDbLine
 62
7
  6
CONTINUOUS
 10
-0.0966902704
 20
-0.4422813918
 11
-1.0946406773
 21
-3.539746154
  0
LINE
  5
2AB
100
AcDbEntity
  8
0
100
AcDbLine
 62
7
  6
CONTINUOUS
 10
-6.7164012172
 20
-0.2938120754
 11
-5.6937098511
 21
2.789367567
  0
LINE
  5
2AC
100
AcDbEntity
  8
0
100
AcDbLine
 62
7
  6
CONTINUOUS
 10
-6.6810458781
 20
-0.2733983458
 11
-5.6583545121
 21
2.8097812967
  0
LINE
  5
2AD
100
AcDbEntity
  8
0
100
AcDbLine
 62
7
  6
CONTINUOUS
 10
-2.1535253039
 20
0.7453093784
 11
-2.817647771
 21
-0.9108671957
  0
LINE
  5
2AE
100
AcDbEntity
  8
0
100
AcDbLine
 62
7
  6
CONTINUOUS
 10
-2.7747030548
 20
-2.5696991933
 11
-1.9850606488
 21
-0.6367919214
  0
LINE
  5
2AF
100
AcDbEntity
  8
0
100
AcDbLine
 62
7
  6
CONTINUOUS
 10
-2.7393477158
 20
-2.5492854636
 11
-1.9818399419
 21
-0.6950381823
  0
LINE
  5
2B0
100
AcDbEntity
  8
0
100
AcDbLine
 62
7
  6
CONTINUOUS
 10
-8.2749317381
 20
4.3205601935
 11
-8.3102870771
 21
4.3001464639
  0
LINE
  5
2B1
100
AcDbEntity
  8
0
100
AcDbLine
 62
7
  6
CONTINUOUS
 10
-7.5534883669
 20
3.9040078328
 11
-7.588843706
 21
3.8835941032
  0
LINE
  5
2B2
100
AcDbEntity
  8
0
100
AcDbLine
 62
7
  6
CONTINUOUS
 10
-6.3220237237
 20
3.1929755817
 11
-6.3573790628
 21
3.1725618521
  0
LINE
  5
2B3
100
AcDbEntity
  8
0
100
AcDbLine
 62
7
  6
CONTINUOUS
 10
-5.6583545121
 20
2.8097812967
 11
-5.6937098511
 21
2.789367567
  0
LINE
  5
2B4
100
AcDbEntity
  8
0
100
AcDbLine
 62
7
  6
CONTINUOUS
 10
-5.4118966861
 20
2.6677000838
 11
-5.4472520252
 21
2.6472863541
  0
LINE
  5
2B5
100
AcDbEntity
  8
0
100
AcDbLine
 62
7
  6
CONTINUOUS
 10
-4.747773512
 20
2.2842436864
 11
-4.783128851
 21
2.2638299568
  0
LINE
  5
2B6
100
AcDbEntity
  8
0
100
AcDbLine
 62
7
  6
CONTINUOUS
 10
-4.1029755661
 20
1.9117249867
 11
-4.1383309052
 21
1.8913112571
  0
LINE
  5
2B7
100
AcDbEntity
  8
0
100
AcDbLine
 62
7
  6
CONTINUOUS
 10
-6.6810458781
 20
-0.2733983458
 11
-6.7164012172
 21
-0.2938120754
  0
LINE
  5
2B8
100
AcDbEntity
  8
0
100
AcDbLine
 62
7
  6
CONTINUOUS
 10
-3.4394018139
 20
1.5285858188
 11
-3.474757153
 21
1.5081720891
  0
LINE
  5
2B9
100
AcDbEntity
  8
0
100
AcDbLine
 62
7
  6
CONTINUOUS
 10
-2.1181699648
 20
0.765723108
 11
-2.1535253039
 21
0.7453093784
  0
LINE
  5
2BA
100
AcDbEntity
  8
0
100
AcDbLine
 62
7
  6
CONTINUOUS
 10
-4.747773512
 20
-1.3896455804
 11
-4.783128851
 21
-1.4100593101
  0
LINE
  5
2BB
100
AcDbEntity
  8
0
100
AcDbLine
 62
7
  6
CONTINUOUS
 10
-1.4610846245
 20
0.3863302677
 11
-1.4964399635
 21
0.365916538
  0
LINE
  5
2BC
100
AcDbEntity
  8
0
100
AcDbLine
 62
7
  6
CONTINUOUS
 10
-3.7549050815
 20
-1.9629153686
 11
-3.7902604206
 21
-1.9833290982
  0
LINE
  5
2BD
100
AcDbEntity
  8
0
100
AcDbLine
 62
7
  6
CONTINUOUS
 10
-0.0613349313
 20
-0.4218676621
 11
-0.0966902704
 21
-0.4422813918
  0
LINE
  5
2BE
100
AcDbEntity
  8
0
100
AcDbLine
 62
7
  6
CONTINUOUS
 10
-2.7393477158
 20
-2.5492854636
 11
-2.7747030548
 21
-2.5696991933
  0
LINE
  5
2BF
100
AcDbEntity
  8
0
100
AcDbLine
 62
7
  6
CONTINUOUS
 10
0.5811246124
 20
-0.7928157508
 11
0.5457692734
 21
-0.8132294804
  0
LWPOLYLINE
  5
2C0
100
AcDbEntity
  8
0
100
AcDbPolyline
 62
7
  6
CONTINUOUS
 90
7
 70
0
 10
3.5061935714
 20
-4.4102244556
 10
3.513379702
 20
-4.4087608099
 10
3.5207224029
 20
-4.4070644474
 10
3.5282248809
 20
-4.4051288767
 10
3.5358839294
 20
-4.4029605892
 10
3.5437035016
 20
-4.4005137845
 10
3.5516853862
 20
-4.3977852514
  0
LWPOLYLINE
  5
2C1
100
AcDbEntity
  8
0
100
AcDbPolyline
 62
7
  6
CONTINUOUS
 90
11
 70
0
 10
3.0846146157
 20
-3.7845968512
 10
3.060552969
 20
-3.7857683999
 10
3.0350228536
 20
-3.7847956362
 10
3.0080094823
 20
-3.7816242439
 10
2.979298741
 20
-3.7761037497
 10
2.9488065586
 20
-3.7682436711
 10
2.9166170062
 20
-3.7580344905
 10
2.8827681826
 20
-3.7452971831
 10
2.8472727874
 20
-3.7299720738
 10
2.810118121
 20
-3.7121188376
 10
2.7713041834
 20
-3.6917374745
  0
LWPOLYLINE
  5
2C2
100
AcDbEntity
  8
0
100
AcDbPolyline
 62
7
  6
CONTINUOUS
 90
14
 70
0
 10
3.4244075272
 20
-4.4124436057
 10
3.4300516715
 20
-4.4143724245
 10
3.435793628
 20
-4.4157923197
 10
3.4416333966
 20
-4.4167032913
 10
3.447565815
 20
-4.4169946668
 10
3.4535960456
 20
-4.4167771187
 10
3.4597395755
 20
-4.4163826644
 10
3.4659964033
 20
-4.4159013943
 10
3.4723665304
 20
-4.4152432181
 10
3.4788654482
 20
-4.4144698817
 10
3.4854935852
 20
-4.413619395
 10
3.492250513
 20
-4.4126537482
 10
3.4991504381
 20
-4.4115206583
 10
3.5061935714
 20
-4.4102244556
  0
LINE
  5
2C3
100
AcDbEntity
  8
0
100
AcDbLine
 62
7
  6
CONTINUOUS
 10
2.3564090354
 20
-2.4845161089
 11
2.4190311358
 21
-2.5089190158
  0
LWPOLYLINE
  5
2C4
100
AcDbEntity
  8
0
100
AcDbPolyline
 62
7
  6
CONTINUOUS
 90
9
 70
0
 10
2.4190311358
 20
-2.5089190158
 10
2.4800311534
 20
-2.5347490934
 10
2.5394090885
 20
-2.5620063417
 10
2.5966065437
 20
-2.5904028463
 10
2.6521819163
 20
-2.6202265216
 10
2.7078103978
 20
-2.6523411109
 10
2.7640503854
 20
-2.6870345285
 10
2.820343482
 20
-2.72401886
 10
2.8766896875
 20
-2.7632941055
  0
LINE
  5
2C5
100
AcDbEntity
  8
0
100
AcDbLine
 62
7
  6
CONTINUOUS
 10
-7.301660065
 20
0.0441090482
 11
-6.7164012172
 21
-0.2938120754
  0
LINE
  5
2C6
100
AcDbEntity
  8
0
100
AcDbLine
 62
7
  6
CONTINUOUS
 10
-5.4472520252
 20
-1.0266029127
 11
-4.783128851
 21
-1.4100593101
  0
LINE
  5
2C7
100
AcDbEntity
  8
0
100
AcDbLine
 62
7
  6
CONTINUOUS
 10
-4.4256107127
 20
-1.6164858024
 11
-3.7902604206
 21
-1.9833290982
  0
LINE
  5
2C8
100
AcDbEntity
  8
0
100
AcDbLine
 62
7
  6
CONTINUOUS
 10
-2.8678459885
 20
-2.5159196308
 11
-2.7747030548
 21
-2.5696991933
  0
LINE
  5
2C9
100
AcDbEntity
  8
0
100
AcDbLine
 62
7
  6
CONTINUOUS
 10
-1.8486144959
 20
-3.1044111206
 11
-1.1989254925
 21
-3.4795334087
  0
LINE
  5
2CA
100
AcDbEntity
  8
0
100
AcDbLine
 62
7
  6
CONTINUOUS
 10
-1.0946406773
 20
-3.539746154
 11
-0.4377222141
 21
-3.9190426415
  0
LINE
  5
2CB
100
AcDbEntity
  8
0
100
AcDbLine
 62
7
  6
CONTINUOUS
 10
0.8220019516
 20
-4.6463915867
 11
1.5219605904
 21
-5.0505389322
  0
LINE
  5
2CC
100
AcDbEntity
  8
0
100
AcDbLine
 62
7
  6
CONTINUOUS
 10
1.7169794139
 20
-5.1631399493
 11
2.3784303608
 21
-5.5450534361
  0
LINE
  5
2CD
100
AcDbEntity
  8
0
100
AcDbLine
 62
7
  6
CONTINUOUS
 10
3.3954434004
 20
-6.132264019
 11
4.0342527029
 21
-6.5011045041
  0
LINE
  5
2CE
100
AcDbEntity
  8
0
100
AcDbLine
 62
7
  6
CONTINUOUS
 10
-0.2544662993
 20
-3.2914570673
 11
0.6499593362
 21
-3.8136610942
  0
LINE
  5
2CF
100
AcDbEntity
  8
0
100
AcDbLine
 62
7
  6
CONTINUOUS
 10
0.5172346863
 20
-3.1695292648
 11
-0.1186162374
 21
-2.8023969105
  0
LINE
  5
2D0
100
AcDbEntity
  8
0
100
AcDbLine
 62
7
  6
CONTINUOUS
 10
0.5080958047
 20
-3.1234251297
 11
-0.0832608984
 21
-2.7819831808
  0
LINE
  5
2D1
100
AcDbEntity
  8
0
100
AcDbLine
 62
7
  6
CONTINUOUS
 10
2.3784303608
 20
-4.107382606
 11
2.7345173389
 21
-4.3129827644
  0
LINE
  5
2D2
100
AcDbEntity
  8
0
100
AcDbLine
 62
7
  6
CONTINUOUS
 10
2.7359488444
 20
-3.7121512042
 11
2.3564090354
 21
-3.4930096752
  0
LINE
  5
2D3
100
AcDbEntity
  8
0
100
AcDbLine
 62
7
  6
CONTINUOUS
 10
2.7713041834
 20
-3.6917374745
 11
2.3917643745
 21
-3.4725959456
  0
LINE
  5
2D4
100
AcDbEntity
  8
0
100
AcDbLine
 62
7
  6
CONTINUOUS
 10
0.5457692734
 20
-0.8132294804
 11
-0.0966902704
 21
-0.4422813918
  0
LINE
  5
2D5
100
AcDbEntity
  8
0
100
AcDbLine
 62
7
  6
CONTINUOUS
 10
-1.4964399635
 20
0.365916538
 11
-2.1535253039
 21
0.7453093784
  0
LINE
  5
2D6
100
AcDbEntity
  8
0
100
AcDbLine
 62
7
  6
CONTINUOUS
 10
-3.474757153
 20
1.5081720891
 11
-4.1383309052
 21
1.8913112571
  0
LINE
  5
2D7
100
AcDbEntity
  8
0
100
AcDbLine
 62
7
  6
CONTINUOUS
 10
-5.6937098511
 20
2.789367567
 11
-6.3573790628
 21
3.1725618521
  0
LINE
  5
2D8
100
AcDbEntity
  8
0
100
AcDbLine
 62
7
  6
CONTINUOUS
 10
-7.588843706
 20
3.8835941032
 11
-8.3102870771
 21
4.3001464639
  0
LINE
  5
2D9
100
AcDbEntity
  8
0
100
AcDbLine
 62
7
  6
CONTINUOUS
 10
-4.783128851
 20
2.2638299568
 11
-5.4472520252
 21
2.6472863541
  0
LINE
  5
2DA
100
AcDbEntity
  8
0
100
AcDbLine
 62
7
  6
CONTINUOUS
 10
0.5811246124
 20
-0.7928157508
 11
-0.0613349313
 21
-0.4218676621
  0
LINE
  5
2DB
100
AcDbEntity
  8
0
100
AcDbLine
 62
7
  6
CONTINUOUS
 10
-1.4610846245
 20
0.3863302677
 11
-2.1181699648
 21
0.765723108
  0
LINE
  5
2DC
100
AcDbEntity
  8
0
100
AcDbLine
 62
7
  6
CONTINUOUS
 10
-3.4394018139
 20
1.5285858188
 11
-4.1029755661
 21
1.9117249867
  0
LINE
  5
2DD
100
AcDbEntity
  8
0
100
AcDbLine
 62
7
  6
CONTINUOUS
 10
-5.6583545121
 20
2.8097812967
 11
-6.3220237237
 21
3.1929755817
  0
LINE
  5
2DE
100
AcDbEntity
  8
0
100
AcDbLine
 62
7
  6
CONTINUOUS
 10
-7.5534883669
 20
3.9040078328
 11
-8.2749317381
 21
4.3205601935
  0
LINE
  5
2DF
100
AcDbEntity
  8
0
100
AcDbLine
 62
7
  6
CONTINUOUS
 10
-4.747773512
 20
2.2842436864
 11
-5.4118966861
 21
2.6677000838
  0
LWPOLYLINE
  5
2E0
100
AcDbEntity
  8
0
100
AcDbPolyline
 62
7
  6
CONTINUOUS
 90
22
 70
0
 10
2.7345173389
 20
-4.3129827644
 10
2.7575226224
 20
-4.3271087907
 10
2.7801501245
 20
-4.3424727186
 10
2.802399845
 20
-4.359074548
 10
2.8243659844
 20
-4.377008682
 10
2.8459543423
 20
-4.3961807176
 10
2.866882318
 20
-4.416307446
 10
2.8870411371
 20
-4.4372824184
 10
2.9065395741
 20
-4.4592120836
 10
2.9254213515
 20
-4.4821325796
 10
2.9436814935
 20
-4.5060026856
 10
2.961324976
 20
-4.5308636225
 10
2.9784104489
 20
-4.5568751902
 10
2.9949697649
 20
-4.5840086288
 10
3.0109710713
 20
-4.6122926982
 10
3.0263774597
 20
-4.641973479
 10
3.0412214431
 20
-4.6731059561
 10
3.0554705085
 20
-4.7056351446
 10
3.068990208
 20
-4.7396421698
 10
3.0817357257
 20
-4.7751540737
 10
3.0937518776
 20
-4.8121438143
 10
3.1050386636
 20
-4.8506113917
  0
LWPOLYLINE
  5
2E1
100
AcDbEntity
  8
0
100
AcDbPolyline
 62
7
  6
CONTINUOUS
 90
25
 70
0
 10
2.8766896875
 20
-2.7632941055
 10
2.9030339513
 20
-2.7829702573
 10
2.929081995
 20
-2.8042439364
 10
2.9548338185
 20
-2.8271151426
 10
2.9805429788
 20
-2.8518607649
 10
3.005955919
 20
-2.8782039143
 10
3.0303119683
 20
-2.905313924
 10
3.0534743778
 20
-2.9331295133
 10
3.0755798964
 20
-2.9617119629
 10
3.0962780998
 20
-2.9904144478
 10
3.1153943966
 20
-3.0189876908
 10
3.133103378
 20
-3.0476809692
 10
3.1495783934
 20
-3.0765952906
 10
3.1648517781
 20
-3.1057360778
 10
3.1788911966
 20
-3.1350979079
 10
3.1917729916
 20
-3.1647655198
 10
3.2035579573
 20
-3.1948130397
 10
3.2141852995
 20
-3.2251663415
 10
3.223548978
 20
-3.2556877848
 10
3.2316559602
 20
-3.2864403263
 10
3.2384992787
 20
-3.3173610095
 10
3.2439519908
 20
-3.3481233246
 10
3.2479717824
 20
-3.3786184352
 10
3.2506009676
 20
-3.4089551777
 10
3.2518395464
 20
-3.4391335522
  0
LWPOLYLINE
  5
2E2
100
AcDbEntity
  8
0
100
AcDbPolyline
 62
7
  6
CONTINUOUS
 90
19
 70
0
 10
3.3912891894
 20
-2.4969683514
 10
3.3301865528
 20
-2.4379138035
 10
3.2654875816
 20
-2.3793302146
 10
3.1971922756
 20
-2.3212175848
 10
3.1252218122
 20
-2.2635278834
 10
3.049655014
 20
-2.2063091409
 10
2.9707283498
 20
-2.1497054499
 10
2.8885540491
 20
-2.0937899336
 10
2.8030198824
 20
-2.0384894687
 10
2.7140256295
 20
-1.9837287769
 10
2.6215729122
 20
-1.9295210158
 10
2.5256601088
 20
-1.8758530278
 10
2.4261821341
 20
-1.8226100626
 10
2.3231743584
 20
-1.769749043
 10
2.2166014114
 20
-1.7173130461
 10
2.106252097
 20
-1.6653165532
 10
1.9920560164
 20
-1.6137643916
 10
1.8740835684
 20
-1.562651734
 10
1.752334753
 20
-1.5119785805
  0
LWPOLYLINE
  5
2E3
100
AcDbEntity
  8
0
100
AcDbPolyline
 62
7
  6
CONTINUOUS
 90
19
 70
0
 10
3.3559338503
 20
-2.5173820811
 10
3.2954822467
 20
-2.4589030126
 10
3.2313430862
 20
-2.4007827744
 10
3.1635163688
 20
-2.3430213664
 10
3.0919301535
 20
-2.2855598663
 10
3.0166563812
 20
-2.2284571965
 10
2.9379108752
 20
-2.1718901238
 10
2.8557610048
 20
-2.1159131505
 10
2.7701394008
 20
-2.0604717744
 10
2.6810597777
 20
-2.0055792562
 10
2.5885889633
 20
-1.9512916392
 10
2.4926601299
 20
-1.8975528802
 10
2.3930865096
 20
-1.8442081096
 10
2.28987071
 20
-1.7911950077
 10
2.1830101235
 20
-1.7385758944
 10
2.0723101597
 20
-1.686382859
 10
1.9577059551
 20
-1.6346265981
 10
1.8392623732
 20
-1.5832964151
 10
1.7169794139
 20
-1.5323923101
  0
LWPOLYLINE
  5
2E4
100
AcDbEntity
  8
0
100
AcDbPolyline
 62
7
  6
CONTINUOUS
 90
3
 70
0
 10
3.5049718891
 20
-4.4645787221
 10
3.4824370596
 20
-4.438107618
 10
3.4620575981
 20
-4.416204364
  0
LINE
  5
2E5
100
AcDbEntity
  8
0
100
AcDbLine
 62
7
  6
CONTINUOUS
 10
-3.6469433111
 20
0.3327576109
 11
-2.8678459885
 21
-2.5159196308
  0
LINE
  5
2E6
100
AcDbEntity
  8
0
100
AcDbLine
 62
7
  6
CONTINUOUS
 10
-2.817647771
 20
-0.9108671957
 11
-3.474757153
 21
1.5081720891
  0
LINE
  5
2E7
100
AcDbEntity
  8
0
100
AcDbLine
 62
7
  6
CONTINUOUS
 10
-2.7932646586
 20
-0.850061032
 11
-3.4394018139
 21
1.5285858188
  0
LINE
  5
2E8
100
AcDbEntity
  8
0
100
AcDbLine
 62
7
  6
CONTINUOUS
 10
-8.3102870771
 20
4.3001464639
 11
-7.301660065
 21
0.0441090482
  0
LINE
  5
2E9
100
AcDbEntity
  8
0
100
AcDbLine
 62
7
  6
CONTINUOUS
 10
1.5219605904
 20
-5.0505389322
 11
0.5457692734
 21
-0.8132294804
  0
LINE
  5
2EA
100
AcDbEntity
  8
0
100
AcDbLine
 62
7
  6
CONTINUOUS
 10
1.5573159294
 20
-5.0301252025
 11
0.5811246124
 21
-0.7928157508
  0
LINE
  5
2EB
100
AcDbEntity
  8
0
100
AcDbLine
 62
7
  6
CONTINUOUS
 10
-6.9823744832
 20
1.0047264829
 11
-7.588843706
 21
3.8835941032
  0
LINE
  5
2EC
100
AcDbEntity
  8
0
100
AcDbLine
 62
7
  6
CONTINUOUS
 10
-6.9594613012
 20
1.0842022752
 11
-7.5534883669
 21
3.9040078328
  0
LINE
  5
2ED
100
AcDbEntity
  8
0
100
AcDbLine
 62
7
  6
CONTINUOUS
 10
0.6499593362
 20
-3.8136610942
 11
0.8220019516
 21
-4.6463915867
  0
LINE
  5
2EE
100
AcDbEntity
  8
0
100
AcDbLine
 62
7
  6
CONTINUOUS
 10
0.2120615417
 20
-1.6299815982
 11
0.5172346863
 21
-3.1695292648
  0
LWPOLYLINE
  5
2EF
100
AcDbEntity
  8
0
100
AcDbPolyline
 62
7
  6
CONTINUOUS
 90
15
 70
0
 10
-0.5363516086
 20
-67.2070444827
 10
-0.5300550184
 20
-67.254259943
 10
-0.5224064114
 20
-67.3001037891
 10
-0.5133612196
 20
-67.344407708
 10
-0.502964011
 20
-67.3873400127
 10
-0.4913484891
 20
-67.4294056426
 10
-0.4785699483
 20
-67.4706310147
 10
-0.4645730942
 20
-67.5109897119
 10
-0.4493257474
 20
-67.5509074226
 10
-0.432878768
 20
-67.5903989865
 10
-0.4151812961
 20
-67.6294495639
 10
-0.3960485721
 20
-67.6684403233
 10
-0.3754190099
 20
-67.7074983211
 10
-0.3533541957
 20
-67.7464965009
 10
-0.3298541295
 20
-67.7854348628
  0
LINE
  5
2F0
100
AcDbEntity
  8
0
100
AcDbLine
 62
7
  6
CONTINUOUS
 10
1.7169794139
 20
-1.5323923101
 11
1.7169794139
 21
-5.1631399493
  0
LINE
  5
2F1
100
AcDbEntity
  8
0
100
AcDbLine
 62
7
  6
CONTINUOUS
 10
2.2348889817
 20
-73.9041561788
 11
2.2348889817
 21
-65.7394534108
  0
LINE
  5
2F2
100
AcDbEntity
  8
0
100
AcDbLine
 62
7
  6
CONTINUOUS
 10
2.3564090354
 20
-3.4930096752
 11
2.3564090354
 21
-2.4845161089
  0
LINE
  5
2F3
100
AcDbEntity
  8
0
100
AcDbLine
 62
7
  6
CONTINUOUS
 10
2.3784303608
 20
-5.5450534361
 11
2.3784303608
 21
-4.107382606
  0
LINE
  5
2F4
100
AcDbEntity
  8
0
100
AcDbLine
 62
7
  6
CONTINUOUS
 10
2.3917643745
 20
-3.4725959456
 11
2.3917643745
 21
-2.4982935619
  0
LINE
  5
2F5
100
AcDbEntity
  8
0
100
AcDbLine
 62
7
  6
CONTINUOUS
 10
2.4137856999
 20
-5.5246397064
 11
2.4137856999
 21
-4.1277963357
  0
LINE
  5
2F6
100
AcDbEntity
  8
0
100
AcDbLine
 62
7
  6
CONTINUOUS
 10
3.4244075272
 20
-4.4341517824
 11
3.4244075272
 21
-4.4124436057
  0
LWPOLYLINE
  5
2F7
100
AcDbEntity
  8
0
100
AcDbPolyline
 62
7
  6
CONTINUOUS
 90
14
 70
0
 10
3.2518395464
 20
-3.4391335522
 10
3.2515664142
 20
-3.4801854162
 10
3.2498102087
 20
-3.5185139917
 10
3.2465709299
 20
-3.5541192787
 10
3.2418142378
 20
-3.5869240327
 10
3.2355744725
 20
-3.6170054982
 10
3.2279546544
 20
-3.6445954081
 10
3.2189868674
 20
-3.6696134629
 10
3.2086390276
 20
-3.6921399622
 10
3.1969179038
 20
-3.712647538
 10
3.1837336324
 20
-3.7313185299
 10
3.169176077
 20
-3.7479705983
 10
3.1535215965
 20
-3.7625293573
 10
3.1369164454
 20
-3.7749638582
  0
LWPOLYLINE
  5
2F8
100
AcDbEntity
  8
0
100
AcDbPolyline
 62
7
  6
CONTINUOUS
 90
15
 70
0
 10
0.6074669932
 20
-67.6569959952
 10
0.6064580112
 20
-67.698323817
 10
0.6041973035
 20
-67.7367154295
 10
0.6006848699
 20
-67.7721708327
 10
0.5958422824
 20
-67.8044480609
 10
0.5897479691
 20
-67.8337890798
 10
0.5826372147
 20
-67.8609197871
 10
0.5745610708
 20
-67.8859274385
 10
0.5654684857
 20
-67.9087247781
 10
0.5554415894
 20
-67.9297759358
 10
0.5445214606
 20
-67.9491468295
 10
0.5326670206
 20
-67.9667715411
 10
0.5198371631
 20
-67.9829164468
 10
0.5060181862
 20
-67.9976703386
 10
0.4912237918
 20
-68.0109444244
  0
LINE
  5
2F9
100
AcDbEntity
  8
0
100
AcDbLine
 62
7
  6
CONTINUOUS
 10
-1.9607024627
 20
-64.5352308171
 11
-2.1695684244
 21
-65.6935140944
  0
LINE
  5
2FA
100
AcDbEntity
  8
0
100
AcDbLine
 62
7
  6
CONTINUOUS
 10
-0.2853619322
 20
-65.5025514425
 11
-0.4942276368
 21
-66.6608348683
  0
LINE
  5
2FB
100
AcDbEntity
  8
0
100
AcDbLine
 62
7
  6
CONTINUOUS
 10
-1.8650947698
 20
-65.551716428
 11
-1.7488945241
 21
-64.9496474139
  0
LINE
  5
2FC
100
AcDbEntity
  8
0
100
AcDbLine
 62
7
  6
CONTINUOUS
 10
-1.8297394307
 20
-65.5313026983
 11
-1.720628894
 21
-64.9659676345
  0
LINE
  5
2FD
100
AcDbEntity
  8
0
100
AcDbLine
 62
7
  6
CONTINUOUS
 10
-0.1897539822
 20
-66.5190372018
 11
-0.0735539936
 21
-65.9169680393
  0
LINE
  5
2FE
100
AcDbEntity
  8
0
100
AcDbLine
 62
7
  6
CONTINUOUS
 10
-0.1543986431
 20
-66.4986234721
 11
-0.0452883477
 21
-65.9332882689
  0
LWPOLYLINE
  5
2FF
100
AcDbEntity
  8
0
100
AcDbPolyline
 62
7
  6
CONTINUOUS
 90
59
 70
0
 10
3.6583412425
 20
-4.3430628697
 10
3.6669430533
 20
-4.33767593
 10
3.6756422225
 20
-4.3319311396
 10
3.6844392344
 20
-4.3258205058
 10
3.6933296209
 20
-4.3192589908
 10
3.7023158079
 20
-4.3122544593
 10
3.7113953696
 20
-4.3047990467
 10
3.7205565603
 20
-4.2967841207
 10
3.7298063801
 20
-4.2882146089
 10
3.7391378291
 20
-4.2790855838
 10
3.7485181617
 20
-4.2692736306
 10
3.7579559999
 20
-4.2587851267
 10
3.7674427218
 20
-4.2476136948
 10
3.7769197158
 20
-4.2356167873
 10
3.7863964237
 20
-4.2228006329
 10
3.7958634037
 20
-4.2091590031
 10
3.805233719
 20
-4.1945306646
 10
3.8145163732
 20
-4.1789244629
 10
3.8237023626
 20
-4.1623315526
 10
3.8326777389
 20
-4.1445641635
 10
3.8414569899
 20
-4.1256278537
 10
3.8500256278
 20
-4.105517065
 10
3.858226242
 20
-4.084027353
 10
3.8660685326
 20
-4.061161017
 10
3.8735427996
 20
-4.0369157576
 10
3.8804625312
 20
-4.011080232
 10
3.8868361079
 20
-3.983684022
 10
3.8926551493
 20
-3.9546975459
 10
3.8977080036
 20
-3.9238207152
 10
3.902013729
 20
-3.8910810243
 10
3.9055532674
 20
-3.8564509789
 10
3.9080577916
 20
-3.8195480077
 10
3.909568418
 20
-3.7803281285
 10
3.9100440303
 20
-3.7388353234
 10
3.9090924527
 20
-3.6948189678
 10
3.9067824868
 20
-3.6480865701
 10
3.9030453309
 20
-3.5988306219
 10
3.8972824054
 20
-3.547377974
 10
3.8894202416
 20
-3.4935503325
 10
3.879532308
 20
-3.4375259913
 10
3.8672404302
 20
-3.380166682
 10
3.8523370178
 20
-3.3212357896
 10
3.8350296612
 20
-3.2609699292
 10
3.8155629559
 20
-3.2009406775
 10
3.7937767129
 20
-3.141233755
 10
3.7698311213
 20
-3.0817634411
 10
3.7444513439
 20
-3.0238441507
 10
3.7176461886
 20
-2.9677304202
 10
3.6894068475
 20
-2.9131677132
 10
3.66043206
 20
-2.8607068352
 10
3.6307340448
 20
-2.810427355
 10
3.6003005831
 20
-2.7622497038
 10
3.5697937582
 20
-2.7164859805
 10
3.5392582333
 20
-2.6731014024
 10
3.5086493451
 20
-2.6321307523
 10
3.4784951873
 20
-2.5939904773
 10
3.448971791
 20
-2.5588193935
 10
3.419903125
 20
-2.5264786848
 10
3.3912891894
 20
-2.4969683514
  0
LINE
  5
300
100
AcDbEntity
  8
0
100
AcDbLine
 62
7
  6
CONTINUOUS
 10
3.1369164454
 20
-3.7749638582
 11
3.1274216564
 21
-3.780854439
  0
LWPOLYLINE
  5
301
100
AcDbEntity
  8
0
100
AcDbPolyline
 62
7
  6
CONTINUOUS
 90
56
 70
0
 10
3.6147913656
 20
-4.3683396623
 10
3.6212362022
 20
-4.3645236688
 10
3.6306165472
 20
-4.3587042913
 10
3.6401427181
 20
-4.3524656776
 10
3.6497977094
 20
-4.3457072173
 10
3.6595855454
 20
-4.3384371753
 10
3.6695022016
 20
-4.3306472866
 10
3.6795185997
 20
-4.3222121463
 10
3.6896409767
 20
-4.313139035
 10
3.6998630955
 20
-4.3034206721
 10
3.7101371667
 20
-4.2929098101
 10
3.7204717588
 20
-4.2816169893
 10
3.7308583034
 20
-4.2695316695
 10
3.7412233055
 20
-4.2564749825
 10
3.7515777675
 20
-4.2424593219
 10
3.761910687
 20
-4.2274722942
 10
3.772115562
 20
-4.2112978511
 10
3.7822069131
 20
-4.1939495087
 10
3.7921702197
 20
-4.175413751
 10
3.8018554173
 20
-4.1554339814
 10
3.811281785
 20
-4.1340262829
 10
3.8204300437
 20
-4.1111745724
 10
3.8290922916
 20
-4.0865740041
 10
3.8372859787
 20
-4.0602356871
 10
3.844993655
 20
-4.0321485123
 10
3.8519550692
 20
-4.0019743067
 10
3.8581919519
 20
-3.9697161978
 10
3.8636825725
 20
-3.935371058
 10
3.8681014872
 20
-3.8985913315
 10
3.8714702428
 20
-3.859379452
 10
3.8737672926
 20
-3.8177329859
 10
3.874602552
 20
-3.7732970755
 10
3.874095744
 20
-3.7260762397
 10
3.8721271457
 20
-3.6760659598
 10
3.8679475037
 20
-3.6228978225
 10
3.861355996
 20
-3.5655269674
 10
3.8525534446
 20
-3.504998255
 10
3.8413930624
 20
-3.4440778535
 10
3.8277534158
 20
-3.3834071458
 10
3.8117559384
 20
-3.322344749
 10
3.7936181439
 20
-3.2617326831
 10
3.7733872527
 20
-3.2018457705
 10
3.7510160444
 20
-3.1424091887
 10
3.7265803707
 20
-3.0834404906
 10
3.6998732033
 20
-3.0245742577
 10
3.6711015704
 20
-2.9661759084
 10
3.6409624084
 20
-2.9093592512
 10
3.6091645292
 20
-2.8539331423
 10
3.575999121
 20
-2.8000887255
 10
3.5430366846
 20
-2.7495132404
 10
3.5106796696
 20
-2.702795037
 10
3.4785256265
 20
-2.6593457653
 10
3.4469377078
 20
-2.619087615
 10
3.4160369643
 20
-2.5819946491
 10
3.3857023451
 20
-2.5480928044
 10
3.3559338503
 20
-2.5173820811
  0
LINE
  5
302
100
AcDbEntity
  8
0
100
AcDbLine
 62
7
  6
CONTINUOUS
 10
1.752334753
 20
-1.5119785805
 11
1.7169794139
 21
-1.5323923101
  0
LINE
  5
303
100
AcDbEntity
  8
0
100
AcDbLine
 62
7
  6
CONTINUOUS
 10
-0.0832608984
 20
-2.7819831808
 11
-0.1186162374
 21
-2.8023969105
  0
LINE
  5
304
100
AcDbEntity
  8
0
100
AcDbLine
 62
7
  6
CONTINUOUS
 10
-1.1635701534
 20
-3.459119679
 11
-1.1989254925
 21
-3.4795334087
  0
LINE
  5
305
100
AcDbEntity
  8
0
100
AcDbLine
 62
7
  6
CONTINUOUS
 10
-0.402366875
 20
-3.8986289118
 11
-0.4377222141
 21
-3.9190426415
  0
LINE
  5
306
100
AcDbEntity
  8
0
100
AcDbLine
 62
250
  6
CONTINUOUS
 10
3.3912891894
 20
-2.4969683514
 11
3.3559338503
 21
-2.5173820811
  0
LINE
  5
307
100
AcDbEntity
  8
0
100
AcDbLine
 62
7
  6
CONTINUOUS
 10
2.3917643745
 20
-3.4725959456
 11
2.3564090354
 21
-3.4930096752
  0
LINE
  5
308
100
AcDbEntity
  8
0
100
AcDbLine
 62
250
  6
CONTINUOUS
 10
2.7713041834
 20
-3.6917374745
 11
2.7359488444
 21
-3.7121512042
  0
LINE
  5
309
100
AcDbEntity
  8
0
100
AcDbLine
 62
7
  6
CONTINUOUS
 10
1.5573159294
 20
-5.0301252025
 11
1.5219605904
 21
-5.0505389322
  0
LINE
  5
30A
100
AcDbEntity
  8
0
100
AcDbLine
 62
7
  6
CONTINUOUS
 10
3.4546124101
 20
-4.4167118615
 11
3.4244075272
 21
-4.4341517824
  0
LINE
  5
30B
100
AcDbEntity
  8
0
100
AcDbLine
 62
7
  6
CONTINUOUS
 10
2.4137856999
 20
-5.5246397064
 11
2.3784303608
 21
-5.5450534361
  0
LINE
  5
30C
100
AcDbEntity
  8
0
100
AcDbLine
 62
250
  6
CONTINUOUS
 10
3.8425712792
 20
-5.3552964772
 11
3.8072159402
 21
-5.3757102069
  0
LINE
  5
30D
100
AcDbEntity
  8
0
100
AcDbLine
 62
7
  6
CONTINUOUS
 10
4.069608042
 20
-6.4806907744
 11
4.0342527029
 21
-6.5011045041
  0
LWPOLYLINE
  5
30E
100
AcDbEntity
  8
0
100
AcDbPolyline
 62
7
  6
CONTINUOUS
 90
15
 70
0
 10
3.1274216564
 20
-3.780854439
 10
3.1192143692
 20
-3.7853050496
 10
3.1002529643
 20
-3.7935713916
 10
3.0802122445
 20
-3.7998097295
 10
3.0589121959
 20
-3.8039732179
 10
3.0356503727
 20
-3.8059397804
 10
3.0102275352
 20
-3.8058022838
 10
2.982842923
 20
-3.8034678614
 10
2.9533918094
 20
-3.7985358369
 10
2.9217330003
 20
-3.7909260403
 10
2.8880076898
 20
-3.7807186416
 10
2.8525347333
 20
-3.7677534753
 10
2.8154204162
 20
-3.7519771526
 10
2.7765584532
 20
-3.7334430622
 10
2.7359488444
 20
-3.7121512042
  0
LWPOLYLINE
  5
30F
100
AcDbEntity
  8
0
100
AcDbPolyline
 62
7
  6
CONTINUOUS
 90
4
 70
0
 10
3.1442725681
 20
-3.7694553438
 10
3.1284578943
 20
-3.7756453928
 10
3.1071930065
 20
-3.781226674
 10
3.0846146157
 20
-3.7845968512
  0
LWPOLYLINE
  5
310
100
AcDbEntity
  8
0
100
AcDbPolyline
 62
7
  6
CONTINUOUS
 90
9
 70
0
 10
3.5516853862
 20
-4.3977852514
 10
3.5598277947
 20
-4.3947782012
 10
3.5681293144
 20
-4.391456467
 10
3.5765909837
 20
-4.3878199079
 10
3.5852117642
 20
-4.3838686647
 10
3.5939871291
 20
-4.3795669937
 10
3.6029184886
 20
-4.3749259161
 10
3.6120044324
 20
-4.3699344106
 10
3.6147913656
 20
-4.3683396623
  0
LWPOLYLINE
  5
311
100
AcDbEntity
  8
0
100
AcDbPolyline
 62
7
  6
CONTINUOUS
 90
5
 70
0
 10
3.1050386636
 20
-4.8506113917
 10
3.1277825913
 20
-4.9429416031
 10
3.1506158945
 20
-5.0377566576
 10
3.173538573
 20
-5.1350565553
 10
3.196408882
 20
-5.2347502061
  0
LINE
  5
312
100
AcDbEntity
  8
0
100
AcDbLine
 62
7
  6
CONTINUOUS
 10
3.196408882
 20
-5.2347502061
 11
3.3424747856
 21
-5.8900710418
  0
LINE
  5
313
100
AcDbEntity
  8
0
100
AcDbLine
 62
7
  6
CONTINUOUS
 10
3.3424747856
 20
-5.8900710418
 11
3.3954434004
 21
-6.132264019
  0
LWPOLYLINE
  5
314
100
AcDbEntity
  8
0
100
AcDbPolyline
 62
7
  6
CONTINUOUS
 90
22
 70
0
 10
3.8861311333
 20
-5.7628861505
 10
3.7942688717
 20
-5.3116948099
 10
3.7809915405
 20
-5.2494521776
 10
3.7673839466
 20
-5.1889823098
 10
3.7535557854
 20
-5.1302348888
 10
3.7393973615
 20
-5.0732602323
 10
3.7245795881
 20
-5.0182092941
 10
3.7090125165
 20
-4.965096769
 10
3.6927860955
 20
-4.9139079623
 10
3.6758410844
 20
-4.8647497427
 10
3.6581460351
 20
-4.8176295077
 10
3.6397323957
 20
-4.77253986
 10
3.6206352702
 20
-4.7295654761
 10
3.6008402526
 20
-4.6888136138
 10
3.5803617488
 20
-4.6501770153
 10
3.5592780811
 20
-4.6134185841
 10
3.5374604217
 20
-4.5783734927
 10
3.5150375985
 20
-4.5452065686
 10
3.4924744168
 20
-4.5141751969
 10
3.4699258119
 20
-4.4853651729
 10
3.4472368487
 20
-4.4586907014
 10
3.4244075272
 20
-4.4341517824
  0
LWPOLYLINE
  5
315
100
AcDbEntity
  8
0
100
AcDbPolyline
 62
7
  6
CONTINUOUS
 90
20
 70
0
 10
3.9213934712
 20
-5.7420094414
 10
3.8297841355
 20
-5.2920410384
 10
3.8166396395
 20
-5.2303859079
 10
3.8031377915
 20
-5.1703310856
 10
3.7893926598
 20
-5.111813925
 10
3.775290176
 20
-5.0548970728
 10
3.7604881346
 20
-4.9997684679
 10
3.7448907767
 20
-4.9464229831
 10
3.7285938612
 20
-4.8948657457
 10
3.7115424588
 20
-4.8453000774
 10
3.6937020519
 20
-4.7977440164
 10
3.6751071581
 20
-4.7521795244
 10
3.6558064007
 20
-4.7087558088
 10
3.6357385285
 20
-4.667534341
 10
3.6149647926
 20
-4.6284536497
 10
3.5937175696
 20
-4.5914785271
 10
3.571962944
 20
-4.5565985809
 10
3.5497348313
 20
-4.5238242035
 10
3.5273673549
 20
-4.493151365
 10
3.5049718891
 20
-4.4645787221
  0
LINE
  5
316
100
AcDbEntity
  8
0
100
AcDbLine
 62
7
  6
CONTINUOUS
 10
4.0342527029
 20
-6.5011045041
 11
3.8861311333
 21
-5.7628861505
  0
LINE
  5
317
100
AcDbEntity
  8
0
100
AcDbLine
 62
7
  6
CONTINUOUS
 10
4.069608042
 20
-6.4806907744
 11
3.9213934712
 21
-5.7420094414
  0
LWPOLYLINE
  5
318
100
AcDbEntity
  8
0
100
AcDbPolyline
 62
7
  6
CONTINUOUS
 90
55
 70
0
 10
24.8623059797
 20
-73.4971835982
 10
24.8643569475
 20
-73.6055463759
 10
24.870406344
 20
-73.715609978
 10
24.8804541693
 20
-73.8273744043
 10
24.8945347288
 20
-73.9410586018
 10
24.912613717
 20
-74.0564436237
 10
24.9345882175
 20
-74.1728726286
 10
24.960480448
 20
-74.2903515709
 10
24.9902681908
 20
-74.4088744963
 10
25.0237818759
 20
-74.5277667007
 10
25.0610427541
 20
-74.6470302904
 10
25.1020295748
 20
-74.7666631593
 10
25.1465090161
 20
-74.8859842847
 10
25.1945009981
 20
-75.0049918888
 10
25.2459856008
 20
-75.1236877495
 10
25.3006697428
 20
-75.2413961784
 10
25.3585716725
 20
-75.3581115437
 10
25.4196731414
 20
-75.4738394772
 10
25.4836263232
 20
-75.5879211856
 10
25.5504474824
 20
-75.7003472799
 10
25.6201203545
 20
-75.8111271492
 10
25.6922483195
 20
-75.9196301676
 10
25.7668453797
 20
-76.0258433492
 10
25.8438975328
 20
-76.12977968
 10
25.9229661514
 20
-76.2308474916
 10
26.0040627363
 20
-76.3290304236
 10
26.0871757867
 20
-76.4243448364
 10
26.171832173
 20
-76.5162481429
 10
26.2580406975
 20
-76.604720888
 10
26.3457925578
 20
-76.6897825269
 10
26.4345882175
 20
-76.7709488372
 10
26.5244336298
 20
-76.8481976024
 10
26.6153228415
 20
-76.921551039
 10
26.7067384563
 20
-76.9905915752
 10
26.7986834765
 20
-77.0552946125
 10
26.8911548999
 20
-77.1156847493
 10
26.9836263232
 20
-77.1714182085
 10
27.0760977466
 20
-77.2224684311
 10
27.1685691699
 20
-77.2688619761
 10
27.2605141901
 20
-77.3103347435
 10
27.3519298049
 20
-77.3468586679
 10
27.4428190166
 20
-77.3784618146
 10
27.5326644289
 20
-77.4049642796
 10
27.6214600886
 20
-77.4263369713
 10
27.709211949
 20
-77.4426089812
 10
27.7954204734
 20
-77.4536876792
 10
27.8800768597
 20
-77.4595434456
 10
27.9631899101
 20
-77.4602059001
 10
28.044286495
 20
-77.4556712715
 10
28.1233551136
 20
-77.4459099188
 10
28.2004072667
 20
-77.4309514831
 10
28.2750043269
 20
-77.4108811168
 10
28.3471322919
 20
-77.3856696643
 10
28.416805164
 20
-77.3553462814
 10
28.4836988036
 20
-77.3200417415
  0
LWPOLYLINE
  5
319
100
AcDbEntity
  8
0
100
AcDbPolyline
 62
7
  6
CONTINUOUS
 90
21
 70
0
 10
-96.3204330128
 20
111.1510780036
 10
-96.3781364844
 20
111.2041314022
 10
-96.4357155362
 20
111.2609201931
 10
-96.4921485577
 20
111.3204945408
 10
-96.5472808698
 20
111.382691156
 10
-96.6009613587
 20
111.4473395623
 10
-96.6530428899
 20
111.5142625629
 10
-96.7033827115
 20
111.5832767263
 10
-96.7518428457
 20
111.6541928897
 10
-96.7982904665
 20
111.7268166767
 10
-96.8425982642
 20
111.8009490306
 10
-96.8846447943
 20
111.8763867598
 10
-96.9243148101
 20
111.9529230946
 10
-96.9614995788
 20
112.0303482543
 10
-96.9960971797
 20
112.108450022
 10
-97.0280127831
 20
112.1870143261
 10
-97.0571589105
 20
112.2658258273
 10
-97.0834556744
 20
112.3446685088
 10
-97.1068309973
 20
112.4233262682
 10
-97.1272208089
 20
112.5015835102
 10
-97.14428007
 20
112.5779316459
  0
LWPOLYLINE
  5
31A
100
AcDbEntity
  8
0
100
AcDbPolyline
 62
7
  6
CONTINUOUS
 90
55
 70
0
 10
29.1049466668
 20
-75.9468311581
 10
29.102895699
 20
-75.8384683803
 10
29.0968463024
 20
-75.7284047783
 10
29.0867984772
 20
-75.616640352
 10
29.0727179176
 20
-75.5029561544
 10
29.0546389294
 20
-75.3875711326
 10
29.0326644289
 20
-75.2711421277
 10
29.0067721984
 20
-75.1536631854
 10
28.9769844557
 20
-75.03514026
 10
28.9434707705
 20
-74.9162480556
 10
28.9062098923
 20
-74.7969844658
 10
28.8652230717
 20
-74.677351597
 10
28.8207436303
 20
-74.5580304716
 10
28.7727516483
 20
-74.4390228675
 10
28.7212670456
 20
-74.3203270068
 10
28.6665829036
 20
-74.2026185779
 10
28.608680974
 20
-74.0859032126
 10
28.547579505
 20
-73.9701752791
 10
28.4836263232
 20
-73.8560935707
 10
28.416805164
 20
-73.7436674764
 10
28.3471322919
 20
-73.6328876071
 10
28.2750043269
 20
-73.5243845887
 10
28.2004072667
 20
-73.4181714071
 10
28.1233551136
 20
-73.3142350763
 10
28.044286495
 20
-73.2131672647
 10
27.9631899101
 20
-73.1149843327
 10
27.8800768597
 20
-73.0196699199
 10
27.7954204734
 20
-72.9277666134
 10
27.709211949
 20
-72.8392938682
 10
27.6214600886
 20
-72.7542322294
 10
27.5326644289
 20
-72.673065919
 10
27.4428190166
 20
-72.5958171539
 10
27.3519298049
 20
-72.5224637173
 10
27.2605141901
 20
-72.4534231811
 10
27.1685691699
 20
-72.3887201438
 10
27.0760977466
 20
-72.328330007
 10
26.9836263232
 20
-72.2725965478
 10
26.8911548999
 20
-72.2215463252
 10
26.7986834765
 20
-72.1751527802
 10
26.7067384563
 20
-72.1336800128
 10
26.6153228415
 20
-72.0971560884
 10
26.5244336298
 20
-72.0655529417
 10
26.4345882175
 20
-72.0390504767
 10
26.3457925578
 20
-72.017677785
 10
26.2580406975
 20
-72.0014057751
 10
26.171832173
 20
-71.9903270771
 10
26.0871757867
 20
-71.9844713107
 10
26.0040627363
 20
-71.9838088562
 10
25.9229661514
 20
-71.9883434847
 10
25.8438975328
 20
-71.9981048375
 10
25.7668453797
 20
-72.0130632732
 10
25.6922483195
 20
-72.0331336395
 10
25.6201203545
 20
-72.0583450919
 10
25.5504474824
 20
-72.0886684749
 10
25.4835538428
 20
-72.1239730148
  0
LWPOLYLINE
  5
31B
100
AcDbEntity
  8
0
100
AcDbPolyline
 62
7
  6
CONTINUOUS
 90
13
 70
0
 10
-2.5853533807
 20
-65.3078080221
 10
-2.5677992107
 20
-65.2864786237
 10
-2.5518792387
 20
-65.2635757847
 10
-2.5374107121
 20
-65.2389544008
 10
-2.5243409917
 20
-65.2126758647
 10
-2.5127227167
 20
-65.1846787836
 10
-2.5025310512
 20
-65.1546338759
 10
-2.4937102708
 20
-65.1226118229
 10
-2.4863161
 20
-65.0885419433
 10
-2.4804908757
 20
-65.0518829106
 10
-2.4762820436
 20
-65.012454283
 10
-2.4736421581
 20
-64.9704365023
 10
-2.4725712192
 20
-64.9258295687
  0
LWPOLYLINE
  5
31C
100
AcDbEntity
  8
0
100
AcDbPolyline
 62
7
  6
CONTINUOUS
 90
5
 70
0
 10
-1.9209884742
 20
-65.8744053662
 10
-1.9084967771
 20
-65.8596170989
 10
-1.8947255191
 20
-65.8462661142
 10
-1.8796747001
 20
-65.8343524119
 10
-1.8632315002
 20
-65.8237026368
  0
LWPOLYLINE
  5
31D
100
AcDbEntity
  8
0
100
AcDbPolyline
 62
7
  6
CONTINUOUS
 90
5
 70
0
 10
-0.2456476866
 20
-66.84172614
 10
-0.2331561242
 20
-66.8269378861
 10
-0.2193849742
 20
-66.8135869046
 10
-0.2043342365
 20
-66.8016731954
 10
-0.1878907108
 20
-66.7910231738
  0
LINE
  5
31E
100
AcDbEntity
  8
0
100
AcDbLine
 62
7
  6
CONTINUOUS
 10
-1.8856331352
 20
-65.8539916365
 11
-1.8730231782
 21
-65.8391009052
  0
LINE
  5
31F
100
AcDbEntity
  8
0
100
AcDbLine
 62
7
  6
CONTINUOUS
 10
-0.2102923476
 20
-66.8213124103
 11
-0.197682519
 21
-66.8064216853
  0
LWPOLYLINE
  5
320
100
AcDbEntity
  8
0
100
AcDbPolyline
 62
7
  6
CONTINUOUS
 90
15
 70
0
 10
-0.9353089526
 20
-67.2908104674
 10
-0.9151730917
 20
-67.2688073388
 10
-0.8965681556
 20
-67.2453018067
 10
-0.8795365834
 20
-67.2203483069
 10
-0.8640359361
 20
-67.1938924037
 10
-0.8499388966
 20
-67.1657707891
 10
-0.8372040189
 20
-67.1360311968
 10
-0.8258727491
 20
-67.1046258932
 10
-0.8159421085
 20
-67.0712483695
 10
-0.8073678118
 20
-67.0359535519
 10
-0.8001941443
 20
-66.9986865142
 10
-0.7945509829
 20
-66.9589759701
 10
-0.7904816199
 20
-66.9166648239
 10
-0.7879427631
 20
-66.8719101713
 10
-0.7869344123
 20
-66.8247120122
  0
LWPOLYLINE
  5
321
100
AcDbEntity
  8
0
100
AcDbPolyline
 62
7
  6
CONTINUOUS
 90
15
 70
0
 10
0.740031835
 20
-68.2581312412
 10
0.7601676959
 20
-68.2361281126
 10
0.778772632
 20
-68.2126225805
 10
0.7958042042
 20
-68.1876690808
 10
0.8113048515
 20
-68.1612131775
 10
0.825401891
 20
-68.1330915629
 10
0.8381367687
 20
-68.1033519706
 10
0.8494680385
 20
-68.071946667
 10
0.8593986791
 20
-68.0385691433
 10
0.8679729758
 20
-68.0032743257
 10
0.8751466433
 20
-67.966007288
 10
0.8807898047
 20
-67.9262967439
 10
0.8848591677
 20
-67.8839855977
 10
0.8873980246
 20
-67.8392309451
 10
0.8884063753
 20
-67.792032786
  0
LWPOLYLINE
  5
322
100
AcDbEntity
  8
0
100
AcDbPolyline
 62
7
  6
CONTINUOUS
 90
15
 70
0
 10
-2.5900530024
 20
-65.3254133008
 10
-2.5690644099
 20
-65.3070641422
 10
-2.5496827158
 20
-65.2870394727
 10
-2.5319328921
 20
-65.2653327567
 10
-2.5157899668
 20
-65.2419505298
 10
-2.5011790237
 20
-65.2169123987
 10
-2.4880995553
 20
-65.1903148417
 10
-2.4765520692
 20
-65.1620613805
 10
-2.4664631716
 20
-65.131882187
 10
-2.4577786751
 20
-65.0998506945
 10
-2.4505527672
 20
-65.0658934698
 10
-2.4448746168
 20
-65.0295203846
 10
-2.440773947
 20
-64.9905680631
 10
-2.4382210348
 20
-64.9491998813
 10
-2.4372158801
 20
-64.9054158391
  0
LINE
  5
323
100
AcDbEntity
  8
RACCORDO
100
AcDbLine
 62
250
  6
CONTINUOUS
 10
104.4118188631
 20
14.0651700025
 11
102.6440519102
 21
13.0444835192
  0
LWPOLYLINE
  5
324
100
AcDbEntity
  8
0
100
AcDbPolyline
 62
7
  6
CONTINUOUS
 90
55
 70
0
 10
92.6586980555
 20
2.5793090933
 10
92.7255916952
 20
2.6146136331
 10
92.7952645673
 20
2.6449370161
 10
92.8673925322
 20
2.6701484685
 10
92.9419895925
 20
2.6902188349
 10
93.0190417455
 20
2.7051772706
 10
93.0981103642
 20
2.7149386233
 10
93.179206949
 20
2.7194732519
 10
93.2623199994
 20
2.7188107974
 10
93.3469763857
 20
2.712955031
 10
93.4331849102
 20
2.701876333
 10
93.5209367705
 20
2.6856043231
 10
93.6097324303
 20
2.6642316313
 10
93.6995778426
 20
2.6377291664
 10
93.7904670542
 20
2.6061260196
 10
93.881882669
 20
2.5696020952
 10
93.9738276892
 20
2.5281293279
 10
94.0662991126
 20
2.4817357829
 10
94.1587705359
 20
2.4306855603
 10
94.2512419593
 20
2.3749521011
 10
94.3437133826
 20
2.3145619643
 10
94.4356584029
 20
2.249858927
 10
94.5270740177
 20
2.1808183908
 10
94.6179632293
 20
2.1074649542
 10
94.7078086416
 20
2.030216189
 10
94.7966043013
 20
1.9490498787
 10
94.8843561617
 20
1.8639882398
 10
94.9705646862
 20
1.7755154947
 10
95.0552210724
 20
1.6836121882
 10
95.1383341228
 20
1.5882977753
 10
95.2194307077
 20
1.4901148433
 10
95.2984993263
 20
1.3890470318
 10
95.3755514794
 20
1.285110701
 10
95.4501485397
 20
1.1788975194
 10
95.5222765046
 20
1.070394501
 10
95.5919493767
 20
0.9596146317
 10
95.6587705359
 20
0.8471885374
 10
95.7227237178
 20
0.733106829
 10
95.7838251867
 20
0.6173788955
 10
95.8417271163
 20
0.5006635301
 10
95.8964112583
 20
0.3829551013
 10
95.947895861
 20
0.2642592406
 10
95.995887843
 20
0.1452516365
 10
96.0403672844
 20
0.025930511
 10
96.081354105
 20
-0.0937023578
 10
96.1186149833
 20
-0.2129659475
 10
96.1521286684
 20
-0.331858152
 10
96.1819164111
 20
-0.4503810773
 10
96.2078086416
 20
-0.5678600196
 10
96.2297831421
 20
-0.6842890245
 10
96.2478621304
 20
-0.7996740464
 10
96.2619426899
 20
-0.913358244
 10
96.2719905152
 20
-1.0251226702
 10
96.2780399117
 20
-1.1351862723
 10
96.2800908795
 20
-1.2435490501
  0
LWPOLYLINE
  5
325
100
AcDbEntity
  8
0
100
AcDbPolyline
 62
7
  6
CONTINUOUS
 90
55
 70
0
 10
95.6588430163
 20
-2.6167596335
 10
95.5919493767
 20
-2.6520641733
 10
95.5222765046
 20
-2.6823875563
 10
95.4501485397
 20
-2.7075990087
 10
95.3755514794
 20
-2.727669375
 10
95.2984993263
 20
-2.7426278107
 10
95.2194307077
 20
-2.7523891635
 10
95.1383341228
 20
-2.756923792
 10
95.0552210724
 20
-2.7562613375
 10
94.9705646862
 20
-2.7504055711
 10
94.8843561617
 20
-2.7393268731
 10
94.7966043013
 20
-2.7230548632
 10
94.7078086416
 20
-2.7016821715
 10
94.6179632293
 20
-2.6751797066
 10
94.5270740177
 20
-2.6435765598
 10
94.4356584029
 20
-2.6070526354
 10
94.3437133826
 20
-2.565579868
 10
94.2512419593
 20
-2.519186323
 10
94.1587705359
 20
-2.4681361005
 10
94.0662991126
 20
-2.4124026412
 10
93.9738276892
 20
-2.3520125044
 10
93.881882669
 20
-2.2873094671
 10
93.7904670542
 20
-2.218268931
 10
93.6995778426
 20
-2.1449154943
 10
93.6097324303
 20
-2.0676667292
 10
93.5209367705
 20
-1.9865004188
 10
93.4331849102
 20
-1.90143878
 10
93.3469763857
 20
-1.8129660348
 10
93.2623199994
 20
-1.7210627283
 10
93.179206949
 20
-1.6257483155
 10
93.0981103642
 20
-1.5275653835
 10
93.0190417455
 20
-1.4264975719
 10
92.9419895925
 20
-1.3225612412
 10
92.8673925322
 20
-1.2163480595
 10
92.7952645673
 20
-1.1078450411
 10
92.7255916952
 20
-0.9970651719
 10
92.6587705359
 20
-0.8846390776
 10
92.5948173541
 20
-0.7705573691
 10
92.5337158852
 20
-0.6548294356
 10
92.4758139555
 20
-0.5381140703
 10
92.4211298135
 20
-0.4204056414
 10
92.3696452108
 20
-0.3017097807
 10
92.3216532289
 20
-0.1827021766
 10
92.2771737875
 20
-0.0633810512
 10
92.2361869668
 20
0.0562518176
 10
92.1989260886
 20
0.1755154073
 10
92.1654124035
 20
0.2944076118
 10
92.1356246608
 20
0.4129305372
 10
92.1097324303
 20
0.5304094795
 10
92.0877579298
 20
0.6468384844
 10
92.0696789415
 20
0.7622235062
 10
92.055598382
 20
0.8759077038
 10
92.0455505567
 20
0.9876721301
 10
92.0395011602
 20
1.0977357321
 10
92.0374501924
 20
1.2060985099
  0
LWPOLYLINE
  5
326
100
AcDbEntity
  8
0
100
AcDbPolyline
 62
7
  6
CONTINUOUS
 90
10
 70
0
 10
26.2104738679
 20
-71.9952929394
 10
26.2035591956
 20
-72.0108904713
 10
26.1712178389
 20
-72.097291175
 10
26.1430518204
 20
-72.1876934445
 10
26.1191195185
 20
-72.2819099072
 10
26.0994705364
 20
-72.379745285
 10
26.0841455998
 20
-72.4809967993
 10
26.0731764719
 20
-72.5854545907
 10
26.0665858878
 20
-72.6929021546
 10
26.0643875077
 20
-72.8031167895
  0
LINE
  5
327
100
AcDbEntity
  8
0
100
AcDbLine
 62
7
  6
CONTINUOUS
 10
-0.9569757385
 20
-67.3113111925
 11
-0.9353089526
 21
-67.2908104674
  0
LINE
  5
328
100
AcDbEntity
  8
0
100
AcDbLine
 62
7
  6
CONTINUOUS
 10
0.7183650492
 20
-68.2786319663
 11
0.740031835
 21
-68.2581312412
  0
LWPOLYLINE
  5
329
100
AcDbEntity
  8
0
100
AcDbPolyline
 62
7
  6
CONTINUOUS
 90
16
 70
0
 10
-0.9216203994
 20
-67.2908974628
 10
-0.8998447347
 20
-67.2703139184
 10
-0.8795940135
 20
-67.2481538572
 10
-0.860868236
 20
-67.2244172794
 10
-0.8436871305
 20
-67.1991125009
 10
-0.8280309686
 20
-67.1722312058
 10
-0.8138405651
 20
-67.1437484459
 10
-0.8011100688
 20
-67.1137431592
 10
-0.7898453309
 20
-67.0821364076
 10
-0.7800047198
 20
-67.0486664297
 10
-0.7715449278
 20
-67.0133903049
 10
-0.7645092626
 20
-66.9762509537
 10
-0.7589860154
 20
-66.9368153758
 10
-0.7550046167
 20
-66.894939238
 10
-0.7525356359
 20
-66.8507668736
 10
-0.7515790732
 20
-66.8042982825
  0
LWPOLYLINE
  5
32A
100
AcDbEntity
  8
0
100
AcDbPolyline
 62
7
  6
CONTINUOUS
 90
16
 70
0
 10
0.7537203882
 20
-68.2582182367
 10
0.775496053
 20
-68.2376346922
 10
0.7957467741
 20
-68.215474631
 10
0.8144725516
 20
-68.1917380532
 10
0.8316536571
 20
-68.1664332747
 10
0.847309819
 20
-68.1395519796
 10
0.8615002225
 20
-68.1110692198
 10
0.8742307188
 20
-68.081063933
 10
0.8854954567
 20
-68.0494571814
 10
0.8953360678
 20
-68.0159872035
 10
0.9037958598
 20
-67.9807110787
 10
0.910831525
 20
-67.9435717275
 10
0.9163547722
 20
-67.9041361497
 10
0.9203361709
 20
-67.8622600118
 10
0.9228051517
 20
-67.8180876474
 10
0.9237617144
 20
-67.7716190563
  0
LINE
  5
32B
100
AcDbEntity
  8
0
100
AcDbLine
 62
7
  6
CONTINUOUS
 10
-1.1841169366
 20
-67.0436238027
 11
-1.1998867374
 21
-67.0554180452
  0
LINE
  5
32C
100
AcDbEntity
  8
0
100
AcDbLine
 62
7
  6
CONTINUOUS
 10
0.4912237918
 20
-68.0109444244
 11
0.4754539801
 21
-68.0227387042
  0
LWPOLYLINE
  5
32D
100
AcDbEntity
  8
0
100
AcDbPolyline
 62
7
  6
CONTINUOUS
 90
4
 70
0
 10
-2.6480038323
 20
-65.3625006781
 10
-2.6254861504
 20
-65.3458432333
 10
-2.6046026665
 20
-65.327612348
 10
-2.5853533807
 20
-65.3078080221
  0
LINE
  5
32E
100
AcDbEntity
  8
0
100
AcDbLine
 62
7
  6
CONTINUOUS
 10
-2.6126484932
 20
-65.3420869485
 11
-2.5900530024
 21
-65.3254133008
  0
LWPOLYLINE
  5
32F
100
AcDbEntity
  8
0
100
AcDbPolyline
 62
7
  6
CONTINUOUS
 90
3
 70
0
 10
-0.9692805091
 20
-67.3260960264
 10
-0.9451382766
 20
-67.3096958197
 10
-0.9216203994
 20
-67.2908974628
  0
LWPOLYLINE
  5
330
100
AcDbEntity
  8
0
100
AcDbPolyline
 62
7
  6
CONTINUOUS
 90
3
 70
0
 10
0.7060602817
 20
-68.2934167978
 10
0.7302025124
 20
-68.2770165924
 10
0.7537203882
 20
-68.2582182367
  0
LINE
  5
331
100
AcDbEntity
  8
0
100
AcDbLine
 62
7
  6
CONTINUOUS
 10
-2.6588643998
 20
-65.3696256192
 11
-2.6480038323
 21
-65.3625006781
  0
LINE
  5
332
100
AcDbEntity
  8
0
100
AcDbLine
 62
7
  6
CONTINUOUS
 10
-2.8557480813
 20
-65.0182151595
 11
-2.8682393132
 21
-65.0262508944
  0
LINE
  5
333
100
AcDbEntity
  8
0
100
AcDbLine
 62
7
  6
CONTINUOUS
 10
-1.1998867374
 20
-67.0554180452
 11
-1.2156356656
 21
-67.0651451822
  0
LINE
  5
334
100
AcDbEntity
  8
0
100
AcDbLine
 62
7
  6
CONTINUOUS
 10
0.4754539801
 20
-68.0227387042
 11
0.4597048307
 21
-68.0324659932
  0
LWPOLYLINE
  5
335
100
AcDbEntity
  8
0
100
AcDbPolyline
 62
7
  6
CONTINUOUS
 90
4
 70
0
 10
-1.0132730601
 20
-67.3516698188
 10
-1.0057930724
 20
-67.3471799551
 10
-0.981101005
 20
-67.3305038293
 10
-0.9569757385
 20
-67.3113111925
  0
LWPOLYLINE
  5
336
100
AcDbEntity
  8
0
100
AcDbPolyline
 62
7
  6
CONTINUOUS
 90
4
 70
0
 10
0.662067734
 20
-68.3189905881
 10
0.6695477156
 20
-68.3145007281
 10
0.6942397825
 20
-68.2978246029
 10
0.7183650492
 20
-68.2786319663
  0
LINE
  5
337
100
AcDbEntity
  8
0
100
AcDbLine
 62
7
  6
CONTINUOUS
 10
-4.8715341611
 20
-62.7797580627
 11
-4.9068895001
 21
-62.8001717924
  0
LINE
  5
338
100
AcDbEntity
  8
0
100
AcDbLine
 62
7
  6
CONTINUOUS
 10
-4.5861820386
 20
-62.9445168019
 11
-4.6215373776
 21
-62.9649305316
  0
LINE
  5
339
100
AcDbEntity
  8
0
100
AcDbLine
 62
7
  6
CONTINUOUS
 10
-4.0831386343
 20
-63.2349677589
 11
-4.1184939734
 21
-63.2553814886
  0
LINE
  5
33A
100
AcDbEntity
  8
0
100
AcDbLine
 62
250
  6
CONTINUOUS
 10
-3.2697380072
 20
-63.7046150867
 11
-3.3050933463
 21
-63.7250288164
  0
LINE
  5
33B
100
AcDbEntity
  8
0
100
AcDbLine
 62
250
  6
CONTINUOUS
 10
-2.9416827124
 20
-63.9174879761
 11
-2.9770380514
 21
-63.9379017058
  0
LINE
  5
33C
100
AcDbEntity
  8
0
100
AcDbLine
 62
7
  6
CONTINUOUS
 10
-3.7977864797
 20
-64.5834970394
 11
-3.8331418187
 21
-64.6039107691
  0
LINE
  5
33D
100
AcDbEntity
  8
RACCORDO
100
AcDbLine
 62
250
  6
CONTINUOUS
 10
111.482886675
 20
1.8177213013
 11
109.715119722
 21
0.797034818
  0
LINE
  5
33E
100
AcDbEntity
  8
0
100
AcDbLine
 62
250
  6
CONTINUOUS
 10
-2.6757410234
 20
-64.1889468212
 11
-2.7110963625
 21
-64.2093605509
  0
LINE
  5
33F
100
AcDbEntity
  8
0
100
AcDbLine
 62
7
  6
CONTINUOUS
 10
-4.5861820386
 20
-65.4343412781
 11
-4.6215373776
 21
-65.4547550077
  0
LINE
  5
340
100
AcDbEntity
  8
0
100
AcDbLine
 62
250
  6
CONTINUOUS
 10
-3.2403201666
 20
-64.9053711019
 11
-3.2756755056
 21
-64.9257848316
  0
LINE
  5
341
100
AcDbEntity
  8
0
100
AcDbLine
 62
250
  6
CONTINUOUS
 10
-2.5036981713
 20
-64.5275221739
 11
-2.5390535103
 21
-64.5479359036
  0
LINE
  5
342
100
AcDbEntity
  8
0
100
AcDbLine
 62
7
  6
CONTINUOUS
 10
-1.9253471237
 20
-64.5148170874
 11
-1.9607024627
 21
-64.5352308171
  0
LINE
  5
343
100
AcDbEntity
  8
0
100
AcDbLine
 62
250
  6
CONTINUOUS
 10
-2.4372158801
 20
-64.9054158391
 11
-2.4725712192
 21
-64.9258295687
  0
LINE
  5
344
100
AcDbEntity
  8
0
100
AcDbLine
 62
7
  6
CONTINUOUS
 10
-3.7977864797
 20
-65.8895509929
 11
-3.8331418187
 21
-65.9099647225
  0
LINE
  5
345
100
AcDbEntity
  8
0
100
AcDbLine
 62
7
  6
CONTINUOUS
 10
-2.6590160315
 20
-65.3693658991
 11
-2.6477843245
 21
-65.3628808522
  0
LINE
  5
346
100
AcDbEntity
  8
0
100
AcDbLine
 62
7
  6
CONTINUOUS
 10
-1.8297394307
 20
-65.5313026983
 11
-1.8650947698
 21
-65.551716428
  0
LINE
  5
347
100
AcDbEntity
  8
0
100
AcDbLine
 62
7
  6
CONTINUOUS
 10
-0.8530702057
 20
-65.133936341
 11
-0.8884255448
 21
-65.1543500707
  0
LINE
  5
348
100
AcDbEntity
  8
0
100
AcDbLine
 62
7
  6
CONTINUOUS
 10
-1.8856331352
 20
-65.8539916365
 11
-1.9209884742
 21
-65.8744053662
  0
LINE
  5
349
100
AcDbEntity
  8
0
100
AcDbLine
 62
250
  6
CONTINUOUS
 10
-1.4223035266
 20
-65.6103000985
 11
-1.4576588656
 21
-65.6307138282
  0
LINE
  5
34A
100
AcDbEntity
  8
0
100
AcDbLine
 62
7
  6
CONTINUOUS
 10
-2.1812813734
 20
-66.1707230531
 11
-2.2166367124
 21
-66.1911367828
  0
LINE
  5
34B
100
AcDbEntity
  8
0
100
AcDbLine
 62
7
  6
CONTINUOUS
 10
-0.8530702057
 20
-65.4260576887
 11
-0.8884255448
 21
-65.4464714183
  0
LINE
  5
34C
100
AcDbEntity
  8
0
100
AcDbLine
 62
7
  6
CONTINUOUS
 10
-1.903283711
 20
-66.3040613318
 11
-1.9386390501
 21
-66.3244750614
  0
LINE
  5
34D
100
AcDbEntity
  8
0
100
AcDbLine
 62
7
  6
CONTINUOUS
 10
-0.2500065931
 20
-65.4821377128
 11
-0.2853619322
 21
-65.5025514425
  0
LINE
  5
34E
100
AcDbEntity
  8
0
100
AcDbLine
 62
7
  6
CONTINUOUS
 10
-6.2503923926
 20
-69.0048610588
 11
-6.2150370535
 21
-68.9844473292
  0
LINE
  5
34F
100
AcDbEntity
  8
0
100
AcDbLine
 62
250
  6
CONTINUOUS
 10
-0.9461033377
 20
-66.1115593049
 11
-0.9814586767
 21
-66.1319730346
  0
LINE
  5
350
100
AcDbEntity
  8
0
100
AcDbLine
 62
250
  6
CONTINUOUS
 10
-1.7606076605
 20
-66.7397035578
 11
-1.7959629995
 21
-66.7601172875
  0
LINE
  5
351
100
AcDbEntity
  8
0
100
AcDbLine
 62
250
  6
CONTINUOUS
 10
-1.4884935074
 20
-67.0140071312
 11
-1.5238488464
 21
-67.0344208609
  0
LINE
  5
352
100
AcDbEntity
  8
0
100
AcDbLine
 62
250
  6
CONTINUOUS
 10
-0.7515790732
 20
-66.8042982825
 11
-0.7869344123
 21
-66.8247120122
  0
LINE
  5
353
100
AcDbEntity
  8
0
100
AcDbLine
 62
7
  6
CONTINUOUS
 10
-0.1543986431
 20
-66.4986234721
 11
-0.1897539822
 21
-66.5190372018
  0
LINE
  5
354
100
AcDbEntity
  8
0
100
AcDbLine
 62
7
  6
CONTINUOUS
 10
0.8222703248
 20
-66.1012569664
 11
0.7869149858
 21
-66.1216706961
  0
LINE
  5
355
100
AcDbEntity
  8
0
100
AcDbLine
 62
7
  6
CONTINUOUS
 10
-0.2102923476
 20
-66.8213124103
 11
-0.2456476866
 21
-66.84172614
  0
LINE
  5
356
100
AcDbEntity
  8
0
100
AcDbLine
 62
250
  6
CONTINUOUS
 10
0.253037261
 20
-66.5776208723
 11
0.217681922
 21
-66.598034602
  0
LINE
  5
357
100
AcDbEntity
  8
0
100
AcDbLine
 62
250
  6
CONTINUOUS
 10
-0.9216203994
 20
-67.2908974628
 11
-0.9569757385
 21
-67.3113111925
  0
LINE
  5
358
100
AcDbEntity
  8
0
100
AcDbLine
 62
7
  6
CONTINUOUS
 10
-0.5059408428
 20
-67.1380436785
 11
-0.5412961819
 21
-67.1584574082
  0
LINE
  5
359
100
AcDbEntity
  8
0
100
AcDbLine
 62
7
  6
CONTINUOUS
 10
0.8222703248
 20
-66.3933783141
 11
0.7869149858
 21
-66.4137920437
  0
LINE
  5
35A
100
AcDbEntity
  8
0
100
AcDbLine
 62
7
  6
CONTINUOUS
 10
-0.2279431805
 20
-67.2713819572
 11
-0.2632985195
 21
-67.2917956868
  0
LINE
  5
35B
100
AcDbEntity
  8
0
100
AcDbLine
 62
250
  6
CONTINUOUS
 10
0.7292372566
 20
-67.0788801899
 11
0.6938819176
 21
-67.0992939196
  0
LINE
  5
35C
100
AcDbEntity
  8
0
100
AcDbLine
 62
250
  6
CONTINUOUS
 10
-0.0852670723
 20
-67.7070241427
 11
-0.1206224113
 21
-67.7274378723
  0
LINE
  5
35D
100
AcDbEntity
  8
0
100
AcDbLine
 62
250
  6
CONTINUOUS
 10
0.1868470232
 20
-67.9813277566
 11
0.1514916841
 21
-68.0017414863
  0
LINE
  5
35E
100
AcDbEntity
  8
0
100
AcDbLine
 62
250
  6
CONTINUOUS
 10
0.9237617144
 20
-67.7716190563
 11
0.8884063753
 21
-67.792032786
  0
LINE
  5
35F
100
AcDbEntity
  8
0
100
AcDbLine
 62
250
  6
CONTINUOUS
 10
0.7537203882
 20
-68.2582182367
 11
0.7183650492
 21
-68.2786319663
  0
LWPOLYLINE
  5
360
100
AcDbEntity
  8
0
100
AcDbPolyline
 62
7
  6
CONTINUOUS
 90
16
 70
0
 10
-1.2156356656
 20
-67.0651451822
 10
-1.2188165855
 20
-67.0669356334
 10
-1.2379612231
 20
-67.0765026688
 10
-1.2573206501
 20
-67.0841191512
 10
-1.2768409281
 20
-67.0897047021
 10
-1.2965759954
 20
-67.0933397001
 10
-1.316687668
 20
-67.0952652809
 10
-1.3371554221
 20
-67.0955606345
 10
-1.3579997814
 20
-67.0941465709
 10
-1.3794441329
 20
-67.0910266562
 10
-1.4014632356
 20
-67.0862787669
 10
-1.4240823306
 20
-67.0798250265
 10
-1.4476005282
 20
-67.071435372
 10
-1.4721175317
 20
-67.0610331157
 10
-1.4975336378
 20
-67.0486949454
 10
-1.5238488464
 20
-67.0344208609
  0
LWPOLYLINE
  5
361
100
AcDbEntity
  8
0
100
AcDbPolyline
 62
7
  6
CONTINUOUS
 90
16
 70
0
 10
0.4597048307
 20
-68.0324659932
 10
0.4565241563
 20
-68.034256309
 10
0.4373795408
 20
-68.0438233593
 10
0.4180201337
 20
-68.0514398552
 10
0.3984998745
 20
-68.0570254182
 10
0.3787648236
 20
-68.0606604267
 10
0.3586531623
 20
-68.0625860166
 10
0.3381854148
 20
-68.0628813784
 10
0.3173410568
 20
-68.0614673215
 10
0.2958966975
 20
-68.0583474095
 10
0.2738775786
 20
-68.0535995196
 10
0.2512584583
 20
-68.0471457745
 10
0.2277402203
 20
-68.0387561055
 10
0.2032231593
 20
-68.028353823
 10
0.1778069805
 20
-68.0160156166
 10
0.1514916841
 20
-68.0017414863
  0
LWPOLYLINE
  5
362
100
AcDbEntity
  8
0
100
AcDbPolyline
 62
7
  6
CONTINUOUS
 90
4
 70
0
 10
-1.8632315002
 20
-65.8237026368
 10
-1.8459664055
 20
-65.8147572483
 10
-1.8268448779
 20
-65.8072350002
 10
-1.8059797375
 20
-65.8013092477
  0
LWPOLYLINE
  5
363
100
AcDbEntity
  8
0
100
AcDbPolyline
 62
7
  6
CONTINUOUS
 90
4
 70
0
 10
-0.1878907108
 20
-66.7910231738
 10
-0.170626038
 20
-66.7820779815
 10
-0.1515044975
 20
-66.7745557022
 10
-0.1306392896
 20
-66.7686299207
  0
LINE
  5
364
100
AcDbEntity
  8
0
100
AcDbLine
 62
7
  6
CONTINUOUS
 10
-2.8682393132
 20
-65.0262508944
 11
-2.8829068794
 21
-65.0337322655
  0
LWPOLYLINE
  5
365
100
AcDbEntity
  8
0
100
AcDbPolyline
 62
7
  6
CONTINUOUS
 90
16
 70
0
 10
-2.8829068794
 20
-65.0337322655
 10
-2.8951651339
 20
-65.0387250335
 10
-2.9089353626
 20
-65.0424523892
 10
-2.9242175654
 20
-65.0449143327
 10
-2.9408344487
 20
-65.0462679203
 10
-2.958963306
 20
-65.0463560957
 10
-2.9791360182
 20
-65.0447076899
 10
-3.0013416188
 20
-65.0413797158
 10
-3.0255910741
 20
-65.0363151604
 10
-3.0524491638
 20
-65.0288718167
 10
-3.0818757431
 20
-65.0191018361
 10
-3.1139109568
 20
-65.0069530672
 10
-3.1492400185
 20
-64.9916268484
 10
-3.1880913328
 20
-64.9728569593
 10
-3.2302364952
 20
-64.9509096204
 10
-3.2756755056
 20
-64.9257848316
  0
LWPOLYLINE
  5
366
100
AcDbEntity
  8
RACCORDO
100
AcDbPolyline
 62
250
  6
CONTINUOUS
 90
34
 70
0
 10
106.8866925973
 20
0.797034818
 10
106.9555854122
 20
0.7591067166
 10
107.0275258112
 20
0.7231142811
 10
107.1023508263
 20
0.689139046
 10
107.1798909547
 20
0.657257976
 10
107.2599705431
 20
0.6275432921
 10
107.3424081855
 20
0.6000623075
 10
107.4270171341
 20
0.5748772755
 10
107.5136057224
 20
0.5520452483
 10
107.6019777995
 20
0.5316179479
 10
107.6919331741
 20
0.5136416485
 10
107.7832680685
 20
0.4981570724
 10
107.8757755796
 20
0.485199297
 10
107.9692461483
 20
0.4747976758
 10
108.0634680337
 20
0.4669757721
 10
108.1582277928
 20
0.4617513047
 10
108.2533107644
 20
0.4591361089
 10
108.3485015548
 20
0.4591361089
 10
108.4435845264
 20
0.4617513047
 10
108.5383442855
 20
0.466975772
 10
108.6325661709
 20
0.4747976758
 10
108.7260367396
 20
0.4851992969
 10
108.8185442508
 20
0.4981570723
 10
108.9098791451
 20
0.5136416485
 10
108.9998345198
 20
0.5316179479
 10
109.0882065968
 20
0.5520452483
 10
109.1747951852
 20
0.5748772755
 10
109.2594041338
 20
0.6000623075
 10
109.3418417762
 20
0.6275432921
 10
109.4219213646
 20
0.657257976
 10
109.499461493
 20
0.689139046
 10
109.5742865081
 20
0.7231142811
 10
109.6462269072
 20
0.7591067166
 10
109.715119722
 20
0.7970348179
  0
LWPOLYLINE
  5
367
100
AcDbEntity
  8
RACCORDO
100
AcDbPolyline
 62
250
  6
CONTINUOUS
 90
18
 70
0
 10
-110.9021960082
 20
126.5456095629
 10
-110.9678851746
 20
126.5853874108
 10
-111.0302218853
 20
126.6269248957
 10
-111.0890649276
 20
126.6701279217
 10
-111.1442810032
 20
126.7148986201
 10
-111.1957450298
 20
126.7611355709
 10
-111.2433404249
 20
126.8087340325
 10
-111.2869593696
 20
126.8575861791
 10
-111.326503053
 20
126.9075813448
 10
-111.3618818958
 20
126.9586062746
 10
-111.3930157537
 20
127.0105453805
 10
-111.4198340984
 20
127.0632810038
 10
-111.4422761777
 20
127.1166936813
 10
-111.4602911532
 20
127.1706624162
 10
-111.4738382151
 20
127.2250649518
 10
-111.482886675
 20
127.279778049
 10
-111.4874160352
 20
127.3346777649
 10
-111.4879824458
 20
127.3621587496
  0
LWPOLYLINE
  5
368
100
AcDbEntity
  8
0
100
AcDbPolyline
 62
7
  6
CONTINUOUS
 90
4
 70
0
 10
-2.8513694654
 20
-65.0147451212
 10
-2.8634536578
 20
-65.0192604354
 10
-2.8808699881
 20
-65.0233415639
 10
-2.8998005312
 20
-65.0255619213
  0
LWPOLYLINE
  5
369
100
AcDbEntity
  8
0
100
AcDbPolyline
 62
7
  6
CONTINUOUS
 90
25
 70
0
 10
-102.0633612433
 20
133.2813512542
 10
-102.2951315026
 20
133.4107620635
 10
-102.5261601179
 20
133.5310499987
 10
-102.7564470893
 20
133.6422150598
 10
-102.9862372506
 20
133.7443566761
 10
-103.2152857679
 20
133.8373754184
 10
-103.4428581397
 20
133.9209729987
 10
-103.6689496274
 20
133.9951191734
 10
-103.8935649696
 20
134.059844186
 10
-104.1159838809
 20
134.1149404797
 10
-104.3361993104
 20
134.1603771444
 10
-104.554218309
 20
134.1961850902
 10
-104.7693417441
 20
134.2222494898
 10
-104.9815603204
 20
134.2385390647
 10
-105.1908833332
 20
134.2450850935
 10
-105.3966395357
 20
134.2418665846
 10
-105.5988174779
 20
134.2288521922
 10
-105.7974286099
 20
134.2060732621
 10
-105.9918360353
 20
134.1736028408
 10
-106.1820262593
 20
134.1314098167
 10
-106.3680127767
 20
134.0795253014
 10
-106.549199175
 20
134.0181156755
 10
-106.7255700451
 20
133.9471503617
 10
-106.8971407961
 20
133.8666599373
 10
-107.0636028447
 20
133.7767630309
  0
LWPOLYLINE
  5
36A
100
AcDbEntity
  8
RACCORDO
100
AcDbPolyline
 62
250
  6
CONTINUOUS
 90
52
 70
0
 10
-105.2453417587
 20
129.8111750306
 10
-105.4197833289
 20
129.9087760967
 10
-105.593739125
 20
129.999931188
 10
-105.7672091469
 20
130.0846403044
 10
-105.9403592486
 20
130.1629730366
 10
-106.1130235761
 20
130.234859794
 10
-106.2847045672
 20
130.3000918048
 10
-106.4553978824
 20
130.3586489964
 10
-106.6251078612
 20
130.4105514415
 10
-106.7933499591
 20
130.4556505859
 10
-106.960119237
 20
130.4939266668
 10
-107.1254206341
 20
130.525399447
 10
-107.2887844231
 20
130.5499796613
 10
-107.4502046395
 20
130.5676477671
 10
-107.6096872477
 20
130.5784233069
 10
-107.7667804143
 20
130.5822756429
 10
-107.9214781299
 20
130.5791851105
 10
-108.0737864039
 20
130.5691713742
 10
-108.2232714306
 20
130.5522627897
 10
-108.3699248091
 20
130.5284397121
 10
-108.5137549402
 20
130.4977217862
 10
-108.6543532215
 20
130.4601963025
 10
-108.7917106181
 20
130.4158438076
 10
-108.9258361647
 20
130.3646837549
 10
-109.0563483633
 20
130.3068617953
 10
-109.1832365413
 20
130.2423592183
 10
-109.3065113713
 20
130.1711947343
 10
-109.4258233727
 20
130.0935701256
 10
-109.5411616605
 20
130.0094668166
 10
-109.6525371198
 20
129.9189033829
 10
-109.7596329257
 20
129.8221373342
 10
-109.8624367595
 20
129.7191511278
 10
-109.9609609398
 20
129.6099623063
 10
-110.0549255982
 20
129.4948810079
 10
-110.1443179407
 20
129.3738901211
 10
-110.2291507612
 20
129.2470067575
 10
-110.309182573
 20
129.1145923892
 10
-110.3843993493
 20
128.9766319677
 10
-110.4548151169
 20
128.8331405416
 10
-110.5202304697
 20
128.6845247289
 10
-110.5806314626
 20
128.5307696308
 10
-110.6360320407
 20
128.3718901461
 10
-110.6862746333
 20
128.2083375897
 10
-110.731344587
 20
128.0400977546
 10
-110.7712565551
 20
127.8671848477
 10
-110.8058969274
 20
127.6900928051
 10
-110.8352505159
 20
127.5088069019
 10
-110.8593325085
 20
127.3233418629
 10
-110.8780748586
 20
127.1342357984
 10
-110.8914548842
 20
126.9416680787
 10
-110.8994952674
 20
126.7454593335
 10
-110.9021960082
 20
126.5456095629
  0
LWPOLYLINE
  5
36B
100
AcDbEntity
  8
RACCORDO
100
AcDbPolyline
 62
250
  6
CONTINUOUS
 90
27
 70
0
 10
-103.8311281963
 20
132.2606647709
 10
-104.0488618328
 20
132.3825098087
 10
-104.2663933253
 20
132.4964982229
 10
-104.4835163436
 20
132.6025214294
 10
-104.7000255642
 20
132.700478666
 10
-104.9157149407
 20
132.7902762069
 10
-105.1303779263
 20
132.8718276958
 10
-105.3438111923
 20
132.9450556062
 10
-105.5558119002
 20
133.009890063
 10
-105.7661760572
 20
133.0662685764
 10
-105.9747032269
 20
133.1141375384
 10
-106.1811965293
 20
133.1534518644
 10
-106.3854599872
 20
133.184174308
 10
-106.5872992565
 20
133.2062757498
 10
-106.7865235205
 20
133.2197354073
 10
-106.9829454784
 20
133.2245405946
 10
-107.1763797193
 20
133.2206865699
 10
-107.3666417146
 20
133.2081768006
 10
-107.5535497247
 20
133.1870231764
 10
-107.7369260157
 20
133.1572458724
 10
-107.9165971087
 20
133.1188731198
 10
-108.0923927236
 20
133.0719413022
 10
-108.2641463207
 20
133.0164948668
 10
-108.4316947504
 20
132.9525864686
 10
-108.5948785948
 20
132.8802769652
 10
-108.753542617
 20
132.7996352914
 10
-108.8313697977
 20
132.7560765476
  0
LINE
  5
36C
100
AcDbEntity
  8
RACCORDO
100
AcDbLine
 62
250
  6
CONTINUOUS
 10
101.2298383478
 20
10.5949937789
 11
-105.2453417587
 21
129.8111750306
  0
LINE
  5
36D
100
AcDbEntity
  8
RACCORDO
100
AcDbLine
 62
250
  6
CONTINUOUS
 10
102.6440519102
 20
13.0444835192
 11
-103.8311281963
 21
132.2606647709
  0
LINE
  5
36E
100
AcDbEntity
  8
0
100
AcDbLine
 62
7
  6
CONTINUOUS
 10
104.4118188631
 20
14.0651700025
 11
-102.0633612433
 21
133.2813512542
  0
LWPOLYLINE
  5
36F
100
AcDbEntity
  8
0
100
AcDbPolyline
 62
7
  6
CONTINUOUS
 90
21
 70
0
 10
95.1887644127
 20
-111.9621262135
 10
95.2058236738
 20
-112.0384743492
 10
95.2262134855
 20
-112.1167315911
 10
95.2495888083
 20
-112.1953893506
 10
95.2758855723
 20
-112.274232032
 10
95.3050316997
 20
-112.3530435332
 10
95.336947303
 20
-112.4316078373
 10
95.3715449039
 20
-112.509709605
 10
95.4087296727
 20
-112.5871347648
 10
95.4483996885
 20
-112.6636710996
 10
95.4904462186
 20
-112.7391088287
 10
95.5347540163
 20
-112.8132411826
 10
95.5812016371
 20
-112.8858649697
 10
95.6296617712
 20
-112.956781133
 10
95.6800015929
 20
-113.0257952965
 10
95.7320831241
 20
-113.092718297
 10
95.785763613
 20
-113.1573667033
 10
95.8408959251
 20
-113.2195633186
 10
95.8973289465
 20
-113.2791376662
 10
95.9549079984
 20
-113.3359264571
 10
96.0126114699
 20
-113.3889798557
  0
LWPOLYLINE
  5
370
100
AcDbEntity
  8
0
100
AcDbPolyline
 62
250
  6
CONTINUOUS
 90
12
 70
0
 10
93.1839228402
 20
2.7194356637
 10
93.14538977
 20
2.6514618767
 10
93.1081144526
 20
2.575167351
 10
93.0745698126
 20
2.4949344815
 10
93.0448197034
 20
2.4109159936
 10
93.0189207577
 20
2.323271827
 10
92.996922276
 20
2.2321688211
 10
92.978866132
 20
2.137780393
 10
92.9647866957
 20
2.0402862131
 10
92.9547107679
 20
1.9398718656
 10
92.948657529
 20
1.8367284964
 10
92.9466385016
 20
1.7310524448
  0
LWPOLYLINE
  5
371
100
AcDbEntity
  8
0
100
AcDbPolyline
 62
7
  6
CONTINUOUS
 90
19
 70
0
 10
25.4835538428
 20
-72.1239730148
 10
25.4196731414
 20
-72.1641613466
 10
25.3585716725
 20
-72.2093308354
 10
25.3006697428
 20
-72.2591825037
 10
25.2459856008
 20
-72.3137430561
 10
25.1945009981
 20
-72.3729857881
 10
25.1465090161
 20
-72.4365734543
 10
25.1020295748
 20
-72.5045308358
 10
25.0610427541
 20
-72.5768331515
 10
25.0237818759
 20
-72.653068813
 10
24.9902681908
 20
-72.733260254
 10
24.960480448
 20
-72.8173850407
 10
24.9345882175
 20
-72.9049642842
 10
24.912613717
 20
-72.9960176868
 10
24.8945347288
 20
-73.0905255461
 10
24.8804541693
 20
-73.1879498665
 10
24.870406344
 20
-73.288111316
 10
24.8643569475
 20
-73.3911892266
 10
24.8623059797
 20
-73.4971835982
  0
LWPOLYLINE
  5
372
100
AcDbEntity
  8
0
100
AcDbPolyline
 62
7
  6
CONTINUOUS
 90
19
 70
0
 10
28.4836988036
 20
-77.3200417415
 10
28.547579505
 20
-77.2798534097
 10
28.608680974
 20
-77.2346839209
 10
28.6665829036
 20
-77.1848322526
 10
28.7212670456
 20
-77.1302717002
 10
28.7727516483
 20
-77.0710289682
 10
28.8207436303
 20
-77.007441302
 10
28.8652230717
 20
-76.9394839205
 10
28.9062098923
 20
-76.8671816048
 10
28.9434707705
 20
-76.7909459432
 10
28.9769844557
 20
-76.7107545023
 10
29.0067721984
 20
-76.6266297156
 10
29.0326644289
 20
-76.5390504721
 10
29.0546389294
 20
-76.4479970695
 10
29.0727179176
 20
-76.3534892102
 10
29.0867984772
 20
-76.2560648898
 10
29.0968463024
 20
-76.1559034403
 10
29.102895699
 20
-76.0528255297
 10
29.1049466668
 20
-75.9468311581
  0
LWPOLYLINE
  5
373
100
AcDbEntity
  8
0
100
AcDbPolyline
 62
7
  6
CONTINUOUS
 90
55
 70
0
 10
92.0374501924
 20
-112.2832699643
 10
92.0395011602
 20
-112.3916327421
 10
92.0455505567
 20
-112.5016963441
 10
92.055598382
 20
-112.6134607704
 10
92.0696789415
 20
-112.727144968
 10
92.0877579298
 20
-112.8425299898
 10
92.1097324303
 20
-112.9589589947
 10
92.1356246608
 20
-113.076437937
 10
92.1654124035
 20
-113.1949608624
 10
92.1989260886
 20
-113.3138530669
 10
92.2361869668
 20
-113.4331166566
 10
92.2771737875
 20
-113.5527495254
 10
92.3216532289
 20
-113.6720706508
 10
92.3696452108
 20
-113.7910782549
 10
92.4211298135
 20
-113.9097741156
 10
92.4758139555
 20
-114.0274825445
 10
92.5337158852
 20
-114.1441979098
 10
92.5948173541
 20
-114.2599258433
 10
92.6587705359
 20
-114.3740075518
 10
92.7255916952
 20
-114.4864336461
 10
92.7952645673
 20
-114.5972135153
 10
92.8673925322
 20
-114.7057165337
 10
92.9419895925
 20
-114.8119297154
 10
93.0190417455
 20
-114.9158660461
 10
93.0981103642
 20
-115.0169338577
 10
93.179206949
 20
-115.1151167897
 10
93.2623199994
 20
-115.2104312025
 10
93.3469763857
 20
-115.302334509
 10
93.4331849102
 20
-115.3908072542
 10
93.5209367705
 20
-115.475868893
 10
93.6097324303
 20
-115.5570352034
 10
93.6995778426
 20
-115.6342839685
 10
93.7904670542
 20
-115.7076374052
 10
93.881882669
 20
-115.7766779413
 10
93.9738276892
 20
-115.8413809786
 10
94.0662991126
 20
-115.9017711154
 10
94.1587705359
 20
-115.9575045747
 10
94.2512419593
 20
-116.0085547973
 10
94.3437133826
 20
-116.0549483422
 10
94.4356584029
 20
-116.0964211096
 10
94.5270740177
 20
-116.132945034
 10
94.6179632293
 20
-116.1645481808
 10
94.7078086416
 20
-116.1910506457
 10
94.7966043013
 20
-116.2124233374
 10
94.8843561617
 20
-116.2286953473
 10
94.9705646862
 20
-116.2397740453
 10
95.0552210724
 20
-116.2456298117
 10
95.1383341228
 20
-116.2462922662
 10
95.2194307077
 20
-116.2417576377
 10
95.2984993263
 20
-116.231996285
 10
95.3755514794
 20
-116.2170378492
 10
95.4501485397
 20
-116.1969674829
 10
95.5222765046
 20
-116.1717560305
 10
95.5919493767
 20
-116.1414326475
 10
95.6588430163
 20
-116.1061281077
  0
LWPOLYLINE
  5
374
100
AcDbEntity
  8
0
100
AcDbPolyline
 62
7
  6
CONTINUOUS
 90
55
 70
0
 10
96.2800908795
 20
-114.7329175243
 10
96.2780399117
 20
-114.6245547465
 10
96.2719905152
 20
-114.5144911444
 10
96.2619426899
 20
-114.4027267182
 10
96.2478621304
 20
-114.2890425206
 10
96.2297831421
 20
-114.1736574988
 10
96.2078086416
 20
-114.0572284938
 10
96.1819164111
 20
-113.9397495515
 10
96.1521286684
 20
-113.8212266262
 10
96.1186149833
 20
-113.7023344217
 10
96.081354105
 20
-113.583070832
 10
96.0403672844
 20
-113.4634379632
 10
95.995887843
 20
-113.3441168377
 10
95.947895861
 20
-113.2251092336
 10
95.8964112583
 20
-113.1064133729
 10
95.8417271163
 20
-112.9887049441
 10
95.7838251867
 20
-112.8719895787
 10
95.7227237178
 20
-112.7562616453
 10
95.6587705359
 20
-112.6421799368
 10
95.5919493767
 20
-112.5297538425
 10
95.5222765046
 20
-112.4189739732
 10
95.4501485397
 20
-112.3104709548
 10
95.3755514794
 20
-112.2042577732
 10
95.2984993263
 20
-112.1003214424
 10
95.2194307077
 20
-111.9992536309
 10
95.1383341228
 20
-111.9010706989
 10
95.0552210724
 20
-111.805756286
 10
94.9705646862
 20
-111.7138529795
 10
94.8843561617
 20
-111.6253802344
 10
94.7966043013
 20
-111.5403185955
 10
94.7078086416
 20
-111.4591522852
 10
94.6179632293
 20
-111.38190352
 10
94.5270740177
 20
-111.3085500834
 10
94.4356584029
 20
-111.2395095472
 10
94.3437133826
 20
-111.1748065099
 10
94.2512419593
 20
-111.1144163731
 10
94.1587705359
 20
-111.0586829139
 10
94.0662991126
 20
-111.0076326913
 10
93.9738276892
 20
-110.9612391463
 10
93.881882669
 20
-110.919766379
 10
93.7904670542
 20
-110.8832424546
 10
93.6995778426
 20
-110.8516393078
 10
93.6097324303
 20
-110.8251368429
 10
93.5209367705
 20
-110.8037641511
 10
93.4331849102
 20
-110.7874921412
 10
93.3469763857
 20
-110.7764134432
 10
93.2623199994
 20
-110.7705576768
 10
93.179206949
 20
-110.7698952223
 10
93.0981103642
 20
-110.7744298509
 10
93.0190417455
 20
-110.7841912036
 10
92.9419895925
 20
-110.7991496393
 10
92.8673925322
 20
-110.8192200057
 10
92.7952645673
 20
-110.8444314581
 10
92.7255916952
 20
-110.8747548411
 10
92.6586980555
 20
-110.9100593809
  0
LWPOLYLINE
  5
375
100
AcDbEntity
  8
0
100
AcDbPolyline
 62
250
  6
CONTINUOUS
 90
48
 70
0
 10
92.9466385016
 20
-111.7583160294
 10
92.948657529
 20
-111.8663236035
 10
92.9547107679
 20
-111.9764571015
 10
92.9647866957
 20
-112.088506878
 10
92.9788661321
 20
-112.2022596384
 10
92.9969222762
 20
-112.3174988492
 10
93.0189207581
 20
-112.4340051506
 10
93.0448197037
 20
-112.5515567704
 10
93.0745698129
 20
-112.6699299384
 10
93.1081144528
 20
-112.788899317
 10
93.1453897701
 20
-112.9082384444
 10
93.1863248079
 20
-113.0277201482
 10
93.2308416368
 20
-113.1471169705
 10
93.2788555092
 20
-113.266201619
 10
93.3302750309
 20
-113.3847474234
 10
93.3850023314
 20
-113.5025287484
 10
93.4429332351
 20
-113.6193213917
 10
93.5039574669
 20
-113.7349030309
 10
93.5679588752
 20
-113.849053669
 10
93.6348156448
 20
-113.9615560346
 10
93.7044004991
 20
-114.0721959496
 10
93.7765809504
 20
-114.1807627583
 10
93.851219577
 20
-114.287049771
 10
93.9281743175
 20
-114.3908546952
 10
94.0072987132
 20
-114.4919799723
 10
94.0884421626
 20
-114.5902331212
 10
94.1714501912
 20
-114.6854270912
 10
94.2561647745
 20
-114.7773806581
 10
94.3424246508
 20
-114.8659187805
 10
94.430065622
 20
-114.9508729241
 10
94.5189208514
 20
-115.0320813677
 10
94.6088211909
 20
-115.1093895217
 10
94.6995955166
 20
-115.1826502332
 10
94.7910710486
 20
-115.2517240577
 10
94.8830736647
 20
-115.316479513
 10
94.9754282264
 20
-115.3767933276
 10
95.0679589257
 20
-115.4325506863
 10
95.160489626
 20
-115.4836454522
 10
95.252844189
 20
-115.529980363
 10
95.3448468045
 20
-115.571467214
 10
95.4363223303
 20
-115.6080270301
 10
95.5270966479
 20
-115.6395902239
 10
95.6169969854
 20
-115.66609672
 10
95.7058522301
 20
-115.6874960634
 10
95.7934932217
 20
-115.7037475106
 10
95.8797530976
 20
-115.7148201205
 10
95.9644676343
 20
-115.7206928182
 10
96.0427783964
 20
-115.721316993
  0
LWPOLYLINE
  5
376
100
AcDbEntity
  8
0
100
AcDbPolyline
 62
250
  6
CONTINUOUS
 90
46
 70
0
 10
93.6537452828
 20
-111.5892031556
 10
93.6555670377
 20
-111.6866617072
 10
93.6610289307
 20
-111.786039795
 10
93.6701207092
 20
-111.8871483301
 10
93.6828252818
 20
-111.9897954275
 10
93.6991185708
 20
-112.0937852534
 10
93.718969381
 20
-112.1989183351
 10
93.7423397927
 20
-112.3049940507
 10
93.7691853834
 20
-112.4118109475
 10
93.7994549961
 20
-112.5191655624
 10
93.8330909115
 20
-112.6268533192
 10
93.870029131
 20
-112.7346694408
 10
93.9101995156
 20
-112.8424092145
 10
93.9535257384
 20
-112.9498678383
 10
93.9999252409
 20
-113.0568404665
 10
94.0493095543
 20
-113.1631231272
 10
94.1015845706
 20
-113.2685133282
 10
94.1566508528
 20
-113.3728106378
 10
94.2144036825
 20
-113.47581672
 10
94.274733195
 20
-113.5773356
 10
94.3375244951
 20
-113.6771739169
 10
94.4026579773
 20
-113.7751414955
 10
94.4700096051
 20
-113.8710517855
 10
94.5394512113
 20
-113.9647222874
 10
94.6108506654
 20
-114.0559747702
 10
94.6840720858
 20
-114.1446355625
 10
94.7589760641
 20
-114.2305358527
 10
94.8354199855
 20
-114.3135120882
 10
94.9132583215
 20
-114.3934063072
 10
94.9923429133
 20
-114.47006644
 10
95.0725232222
 20
-114.5433465641
 10
95.1536466187
 20
-114.6131071858
 10
95.2355586804
 20
-114.6792155128
 10
95.3181034901
 20
-114.7415457101
 10
95.4011239224
 20
-114.7999791302
 10
95.484461939
 20
-114.854404538
 10
95.567958898
 20
-114.9047183293
 10
95.6514558592
 20
-114.9508247292
 10
95.7347938792
 20
-114.9926359701
 10
95.8178143113
 20
-115.0300724585
 10
95.9003591116
 20
-115.0630629291
 10
95.9822711604
 20
-115.0915445883
 10
96.0633945529
 20
-115.1154632257
 10
96.1435748808
 20
-115.134773312
 10
96.2226594993
 20
-115.1494380817
 10
96.2454166628
 20
-115.1523592508
  0
LWPOLYLINE
  5
377
100
AcDbEntity
  8
0
100
AcDbPolyline
 62
250
  6
CONTINUOUS
 90
48
 70
0
 10
92.9466385016
 20
1.7310524448
 10
92.9486575269
 20
1.6230449283
 10
92.9547107597
 20
1.5129114866
 10
92.9647866777
 20
1.4008617646
 10
92.9788660997
 20
1.2871090668
 10
92.9969222259
 20
1.1718699161
 10
93.0189206933
 20
1.0553636399
 10
93.0448196401
 20
0.9378119738
 10
93.0745697633
 20
0.8194387221
 10
93.1081144112
 20
0.7004692972
 10
93.1453897117
 20
0.5811302081
 10
93.1863247167
 20
0.4616485809
 10
93.2308415186
 20
0.3422518085
 10
93.2788553829
 20
0.223167157
 10
93.3302749086
 20
0.1046213232
 10
93.3850022208
 20
-0.0131600439
 10
93.4429331532
 20
-0.1299527576
 10
93.5039574243
 20
-0.2455344784
 10
93.5679588484
 20
-0.3596851482
 10
93.6348155737
 20
-0.4721874443
 10
93.7044003507
 20
-0.5828272459
 10
93.7765807551
 20
-0.6913939983
 10
93.851219415
 20
-0.7976810723
 10
93.9281742294
 20
-0.9014861054
 10
94.0072986706
 20
-1.0026114451
 10
94.0884420917
 20
-1.1008645634
 10
94.1714500561
 20
-1.1960584662
 10
94.2561645927
 20
-1.288011992
 10
94.3424244686
 20
-1.3765501246
 10
94.4300654603
 20
-1.4615042977
 10
94.518920705
 20
-1.5427127637
 10
94.6088210424
 20
-1.6200209238
 10
94.6995953601
 20
-1.6932816367
 10
94.7910708858
 20
-1.7623554648
 10
94.8830735013
 20
-1.827110928
 10
94.9754280643
 20
-1.8874247516
 10
95.0679587646
 20
-1.943182119
 10
95.1604894639
 20
-1.9942768926
 10
95.2528440256
 20
-2.0406118109
 10
95.3448466418
 20
-2.0820986706
 10
95.4363221737
 20
-2.1186584974
 10
95.5270964995
 20
-2.150221702
 10
95.6169968389
 20
-2.1767282066
 10
95.7058520684
 20
-2.1981275547
 10
95.7934930396
 20
-2.2143790078
 10
95.8797529159
 20
-2.2254516283
 10
95.9644674991
 20
-2.2313243388
 10
96.0427783953
 20
-2.2319485207
  0
LWPOLYLINE
  5
378
100
AcDbEntity
  8
0
100
AcDbPolyline
 62
250
  6
CONTINUOUS
 90
46
 70
0
 10
93.6537452828
 20
1.9001653186
 10
93.6555670405
 20
1.8027066901
 10
93.6610289389
 20
1.7033285659
 10
93.6701207206
 20
1.6022200375
 10
93.6828252853
 20
1.4995730217
 10
93.6991185528
 20
1.3955833248
 10
93.7189693422
 20
1.290450329
 10
93.7423397512
 20
1.1843745994
 10
93.7691853527
 20
1.0775576418
 10
93.7994549722
 20
0.9702029922
 10
93.8330908741
 20
0.8625152692
 10
93.8700290685
 20
0.7546992084
 10
93.9101994337
 20
0.6469594706
 10
93.9535256551
 20
0.539500835
 10
93.9999251677
 20
0.4325281706
 10
94.0493094962
 20
0.3262454679
 10
94.1015845383
 20
0.2208552091
 10
94.1566508525
 20
0.116557837
 10
94.2144036932
 20
0.0135517357
 10
94.2747331636
 20
-0.0879670744
 10
94.337524392
 20
-0.1878052832
 10
94.4026578322
 20
-0.2857728089
 10
94.4700094957
 20
-0.3816831597
 10
94.5394511772
 20
-0.4753537684
 10
94.6108506766
 20
-0.5666063099
 10
94.6840720658
 20
-0.6552670646
 10
94.7589759753
 20
-0.7411672794
 10
94.8354198478
 20
-0.8241434687
 10
94.9132581869
 20
-0.9040376987
 10
94.9923428052
 20
-0.9806978641
 10
95.0725231331
 20
-1.0539780109
 10
95.1536465255
 20
-1.1237386339
 10
95.2355585743
 20
-1.1898469557
 10
95.3181033745
 20
-1.2521771516
 10
95.4011238065
 20
-1.3106105774
 10
95.4844618265
 20
-1.3650359932
 10
95.5679587877
 20
-1.4153497914
 10
95.6514557467
 20
-1.4614561957
 10
95.7347937633
 20
-1.5032674407
 10
95.8178141956
 20
-1.5407039351
 10
95.9003590053
 20
-1.5736944152
 10
95.982271067
 20
-1.6021760841
 10
96.0633944635
 20
-1.6260947276
 10
96.1435747725
 20
-1.6454048147
 10
96.2226593643
 20
-1.6600695863
 10
96.2454166631
 20
-1.6629907751
  0
LWPOLYLINE
  5
379
100
AcDbEntity
  8
0
100
AcDbPolyline
 62
7
  6
CONTINUOUS
 90
19
 70
0
 10
92.0374501924
 20
1.2060985099
 10
92.0395011602
 20
1.3120928815
 10
92.0455505567
 20
1.415170792
 10
92.055598382
 20
1.5153322415
 10
92.0696789415
 20
1.6127565619
 10
92.0877579298
 20
1.7072644213
 10
92.1097324303
 20
1.7983178238
 10
92.1356246608
 20
1.8858970674
 10
92.1654124035
 20
1.9700218541
 10
92.1989260886
 20
2.050213295
 10
92.2361869668
 20
2.1264489566
 10
92.2771737875
 20
2.1987512723
 10
92.3216532289
 20
2.2667086537
 10
92.3696452108
 20
2.33029632
 10
92.4211298135
 20
2.389539052
 10
92.4758139555
 20
2.4440996044
 10
92.5337158852
 20
2.4939512727
 10
92.5948173541
 20
2.5391207614
 10
92.6586980555
 20
2.5793090933
  0
LWPOLYLINE
  5
37A
100
AcDbEntity
  8
0
100
AcDbPolyline
 62
250
  6
CONTINUOUS
 90
10
 70
0
 10
93.7779678896
 20
2.6104721123
 10
93.7691853847
 20
2.5894657793
 10
93.7423397939
 20
2.5136494979
 10
93.7189693821
 20
2.4345613484
 10
93.6991185719
 20
2.3523514858
 10
93.6828252829
 20
2.2671767431
 10
93.6701207101
 20
2.179200568
 10
93.6610289312
 20
2.0885909897
 10
93.6555670378
 20
1.9955201568
 10
93.6537452828
 20
1.9001653186
  0
LWPOLYLINE
  5
37B
100
AcDbEntity
  8
0
100
AcDbPolyline
 62
7
  6
CONTINUOUS
 90
21
 70
0
 10
95.1887644127
 20
1.5272422607
 10
95.2058236738
 20
1.450894125
 10
95.2262134855
 20
1.3726368831
 10
95.2495888083
 20
1.2939791236
 10
95.2758855723
 20
1.2151364422
 10
95.3050316997
 20
1.136324941
 10
95.336947303
 20
1.0577606369
 10
95.3715449039
 20
0.9796588692
 10
95.4087296727
 20
0.9022337094
 10
95.4483996885
 20
0.8256973746
 10
95.4904462186
 20
0.7502596455
 10
95.5347540163
 20
0.6761272916
 10
95.5812016371
 20
0.6035035045
 10
95.6296617712
 20
0.5325873412
 10
95.6800015929
 20
0.4635731777
 10
95.7320831241
 20
0.3966501772
 10
95.785763613
 20
0.3320017709
 10
95.8408959251
 20
0.2698051556
 10
95.8973289465
 20
0.210230808
 10
95.9549079984
 20
0.1534420171
 10
96.0126114699
 20
0.1003886185
  0
LWPOLYLINE
  5
37C
100
AcDbEntity
  8
RACCORDO
100
AcDbPolyline
 62
250
  6
CONTINUOUS
 90
18
 70
0
 10
101.2298383478
 20
-132.2873046598
 10
101.2314401721
 20
-132.3640782264
 10
101.2362420163
 20
-132.4388281296
 10
101.2442330027
 20
-132.511385037
 10
101.2553950291
 20
-132.5815845836
 10
101.2697028101
 20
-132.649267745
 10
101.2871239337
 20
-132.7142811972
 10
101.3076189357
 20
-132.7764776636
 10
101.3311413882
 20
-132.8357162493
 10
101.3576380053
 20
-132.8918627598
 10
101.3870487636
 20
-132.9447900053
 10
101.4193070384
 20
-132.9943780885
 10
101.4543397543
 20
-133.0405146765
 10
101.4920675509
 20
-133.083095255
 10
101.5324049626
 20
-133.1220233653
 10
101.5752606122
 20
-133.1572108227
 10
101.6205374178
 20
-133.1885779163
 10
101.6440035899
 20
-133.2027783821
  0
LWPOLYLINE
  5
37D
100
AcDbEntity
  8
0
100
AcDbPolyline
 62
7
  6
CONTINUOUS
 90
19
 70
0
 10
96.2800908795
 20
-1.2435490501
 10
96.2780399117
 20
-1.3495434216
 10
96.2719905152
 20
-1.4526213322
 10
96.2619426899
 20
-1.5527827817
 10
96.2478621304
 20
-1.6502071021
 10
96.2297831421
 20
-1.7447149614
 10
96.2078086416
 20
-1.835768364
 10
96.1819164111
 20
-1.9233476075
 10
96.1521286684
 20
-2.0074723943
 10
96.1186149833
 20
-2.0876638352
 10
96.081354105
 20
-2.1638994967
 10
96.0403672844
 20
-2.2362018124
 10
95.995887843
 20
-2.3041591939
 10
95.947895861
 20
-2.3677468601
 10
95.8964112583
 20
-2.4269895921
 10
95.8417271163
 20
-2.4815501445
 10
95.7838251867
 20
-2.5314018129
 10
95.7227237178
 20
-2.5765713016
 10
95.6588430163
 20
-2.6167596335
  0
LWPOLYLINE
  5
37E
100
AcDbEntity
  8
RACCORDO
100
AcDbPolyline
 62
250
  6
CONTINUOUS
 90
34
 70
0
 10
101.2298383478
 20
10.5949937789
 10
101.2314401721
 20
10.6736170922
 10
101.2362420163
 20
10.7539120448
 10
101.2442330027
 20
10.8356967431
 10
101.2553950292
 20
10.9187859182
 10
101.2697028102
 20
11.0029913465
 10
101.2871239339
 20
11.0881222757
 10
101.3076189359
 20
11.1739858567
 10
101.3311413884
 20
11.260387581
 10
101.3576380056
 20
11.3471317209
 10
101.387048764
 20
11.434021773
 10
101.4193070388
 20
11.5208609033
 10
101.4543397547
 20
11.6074523933
 10
101.4920675512
 20
11.6936000855
 10
101.5324049628
 20
11.7791088276
 10
101.5752606124
 20
11.8637849147
 10
101.6205374179
 20
11.9474365284
 10
101.668132813
 20
12.0298741709
 10
101.7179389788
 20
12.1109110942
 10
101.7698430882
 20
12.1903637238
 10
101.8237275617
 20
12.2680520739
 10
101.8794703338
 20
12.3438001554
 10
101.936945129
 20
12.4174363745
 10
101.9960217485
 20
12.4887939215
 10
102.0565663648
 20
12.5577111486
 10
102.1184418248
 20
12.6240319362
 10
102.1815079606
 20
12.6876060462
 10
102.2456219073
 20
12.7482894629
 10
102.3106384261
 20
12.8059447189
 10
102.3764102337
 20
12.8604412064
 10
102.4427883358
 20
12.9116554734
 10
102.5096223646
 20
12.9594715031
 10
102.5767609195
 20
13.0037809767
 10
102.6440519102
 20
13.0444835192
  0
LWPOLYLINE
  5
37F
100
AcDbEntity
  8
0
100
AcDbPolyline
 62
7
  6
CONTINUOUS
 90
49
 70
0
 10
111.482886675
 20
1.8177213013
 10
111.4790670044
 20
2.0875433526
 10
111.4677172963
 20
2.3608568042
 10
111.4488375508
 20
2.6376616558
 10
111.4223914502
 20
2.9182615777
 10
111.3884153122
 20
3.2023528997
 10
111.3470180898
 20
3.4890246117
 10
111.2981759599
 20
3.7782849974
 10
111.2419127456
 20
4.0701257731
 10
111.178408869
 20
4.3636110783
 10
111.1076410863
 20
4.6587461922
 10
111.0296326412
 20
4.9555258355
 10
110.9446336875
 20
5.2529983098
 10
110.8526217843
 20
5.5511658394
 10
110.7536193725
 20
5.8500262
 10
110.6479439281
 20
6.148621021
 10
110.5355740294
 20
6.44694945
 10
110.4165310981
 20
6.7450123393
 10
110.2911968752
 20
7.0418538756
 10
110.1595511646
 20
7.3374701381
 10
110.0216141624
 20
7.6318650476
 10
109.8778281982
 20
7.9240945529
 10
109.7281744957
 20
8.2141517027
 10
109.5726718313
 20
8.5020434484
 10
109.4118188631
 20
8.7868465928
 10
109.2455984159
 20
9.0685512211
 10
109.0740276649
 20
9.3471672481
 10
108.8976567949
 20
9.6218012217
 10
108.7164703965
 20
9.8924403588
 10
108.5304838791
 20
10.1590974426
 10
108.3402936551
 20
10.4209173701
 10
108.1458862297
 20
10.6778846132
 10
107.9472750978
 20
10.9300147001
 10
107.7450971555
 20
11.1764991124
 10
107.539340953
 20
11.4173197266
 10
107.3300179402
 20
11.6524946661
 10
107.1177993639
 20
11.8812697837
 10
106.9026759288
 20
12.1036245346
 10
106.6846569302
 20
12.3195794636
 10
106.4644415008
 20
12.5284420569
 10
106.2420225894
 20
12.7301895469
 10
106.0174072472
 20
12.9248447012
 10
105.7913157596
 20
13.1117833094
 10
105.5637433877
 20
13.2909805998
 10
105.3346948704
 20
13.462461344
 10
105.1049047091
 20
13.6256756459
 10
104.8746177378
 20
13.780440207
 10
104.6435891224
 20
13.9269383259
 10
104.4118188631
 20
14.0651700025
  0
LWPOLYLINE
  5
380
100
AcDbEntity
  8
RACCORDO
100
AcDbPolyline
 62
250
  6
CONTINUOUS
 90
52
 70
0
 10
106.8866925973
 20
0.797034818
 10
106.8839911083
 20
1.0000159098
 10
106.8759499721
 20
1.2055191413
 10
106.8625691886
 20
1.4135445126
 10
106.8438260921
 20
1.6242966162
 10
106.8197433483
 20
1.8375708596
 10
106.790388955
 20
2.0527534647
 10
106.7557476981
 20
2.2698482055
 10
106.7158347917
 20
2.4888513081
 10
106.6707638757
 20
2.7091376726
 10
106.6205203042
 20
2.9307100524
 10
106.565118723
 20
3.1535656941
 10
106.5047167099
 20
3.3770712375
 10
106.4393003227
 20
3.6012278455
 10
106.3688835037
 20
3.8260343552
 10
106.2936656573
 20
4.0508539172
 10
106.2136327581
 20
4.275687691
 10
106.1287988317
 20
4.5005345171
 10
106.0394053592
 20
4.7247540677
 10
105.945439528
 20
4.9483440406
 10
105.8469141508
 20
5.171306738
 10
105.7441091468
 20
5.3930087397
 10
105.6370121861
 20
5.6134467327
 10
105.5256355986
 20
5.83262403
 10
105.4102962932
 20
6.0499171503
 10
105.2909834025
 20
6.2653200453
 10
105.1677077939
 20
6.4788387635
 10
105.0408189788
 20
6.689867969
 10
104.9103063126
 20
6.8984012392
 10
104.7761804399
 20
7.1044449968
 10
104.6388228054
 20
7.3074131743
 10
104.4982243762
 20
7.5072967631
 10
104.3543941854
 20
7.7041047717
 10
104.2077407767
 20
7.897278158
 10
104.0582557284
 20
8.086807012
 10
103.9059474624
 20
8.2727012437
 10
103.7512497878
 20
8.4544315412
 10
103.594156686
 20
8.6319851834
 10
103.4346741757
 20
8.8053748914
 10
103.2732541225
 20
8.9741095167
 10
103.1098905964
 20
9.1381763813
 10
102.9445895275
 20
9.2975881633
 10
102.7778205714
 20
9.4518917482
 10
102.6095787514
 20
9.6010730897
 10
102.4398690443
 20
9.745146234
 10
102.2691760355
 20
9.8837002059
 10
102.0974945673
 20
10.0167204465
 10
101.9248297973
 20
10.1442215146
 10
101.7516817846
 20
10.2658361117
 10
101.5782172152
 20
10.3814418051
 10
101.4042694029
 20
10.4911610275
 10
101.2298383478
 20
10.5949937789
  0
LWPOLYLINE
  5
381
100
AcDbEntity
  8
RACCORDO
100
AcDbPolyline
 62
250
  6
CONTINUOUS
 90
52
 70
0
 10
109.715119722
 20
0.797034818
 10
109.7117666797
 20
1.0503798702
 10
109.7017104644
 20
1.3073618423
 10
109.6849602113
 20
1.5677372178
 10
109.6615313269
 20
1.8312600216
 10
109.6314456728
 20
2.0976797167
 10
109.5947317431
 20
2.3667413592
 10
109.55142407
 20
2.6381902344
 10
109.5015635669
 20
2.9117685092
 10
109.4451981206
 20
3.1872129914
 10
109.3823815317
 20
3.4642611805
 10
109.3131732039
 20
3.7426514476
 10
109.237638878
 20
4.0221195469
 10
109.1558505163
 20
4.3023995264
 10
109.067885538
 20
4.5832263563
 10
108.9738266155
 20
4.8643360331
 10
108.8737623567
 20
5.1454633083
 10
108.7677880379
 20
5.4263401026
 10
108.6560048345
 20
5.7066981503
 10
108.5385190951
 20
5.9862708242
 10
108.4154420171
 20
6.2647936106
 10
108.2868902588
 20
6.5420025363
 10
108.1529855918
 20
6.8176349947
 10
108.0138552009
 20
7.0914291679
 10
107.8696315087
 20
7.3631245229
 10
107.7204518423
 20
7.6324625222
 10
107.5664573171
 20
7.8991885479
 10
107.40779304
 20
8.1630512689
 10
107.2446089663
 20
8.4238011574
 10
107.0770603282
 20
8.6811900256
 10
106.9053065258
 20
8.9349729522
 10
106.7295107039
 20
9.184908887
 10
106.549839406
 20
9.4307610605
 10
106.3664629059
 20
9.6722964611
 10
106.1795546761
 20
9.909286535
 10
105.9892924556
 20
10.1415058559
 10
105.7958579954
 20
10.3687326512
 10
105.5994358148
 20
10.5907503747
 10
105.400211334
 20
10.8073496492
 10
105.1983718952
 20
11.0183268283
 10
104.9941083568
 20
11.2234823077
 10
104.7876150249
 20
11.422620829
 10
104.5790877973
 20
11.6155534058
 10
104.3687235092
 20
11.8020978052
 10
104.1567226391
 20
11.9820761322
 10
103.943289229
 20
12.1553152675
 10
103.7286256672
 20
12.3216511953
 10
103.5129357295
 20
12.4809262733
 10
103.2964273775
 20
12.6329873758
 10
103.0793071415
 20
12.7776901302
 10
102.8617798776
 20
12.9148986861
 10
102.6440519102
 20
13.0444835192
  0
LINE
  5
382
100
AcDbEntity
  8
RACCORDO
100
AcDbLine
 62
250
  6
CONTINUOUS
 10
106.8866925973
 20
-129.0217391921
 11
106.8866925973
 21
0.797034818
  0
LINE
  5
383
100
AcDbEntity
  8
RACCORDO
100
AcDbLine
 62
250
  6
CONTINUOUS
 10
109.715119722
 20
-129.0217391921
 11
109.715119722
 21
0.797034818
  0
LINE
  5
384
100
AcDbEntity
  8
0
100
AcDbLine
 62
7
  6
CONTINUOUS
 10
111.482886675
 20
-128.0010527088
 11
111.482886675
 21
1.8177213013
  0
LWPOLYLINE
  5
385
100
AcDbEntity
  8
0
100
AcDbPolyline
 62
250
  6
CONTINUOUS
 90
10
 70
0
 10
93.7779678907
 20
-110.8788963623
 10
93.769185354
 20
-110.8999027747
 10
93.7423397524
 20
-110.9757191043
 10
93.7189693432
 20
-111.054807271
 10
93.6991185538
 20
-111.1370170721
 10
93.6828252862
 20
-111.2221917113
 10
93.6701207213
 20
-111.3101678143
 10
93.6610289393
 20
-111.4007773821
 10
93.6555670406
 20
-111.4938482447
 10
93.6537452828
 20
-111.5892031556
  0
LWPOLYLINE
  5
386
100
AcDbEntity
  8
0
100
AcDbPolyline
 62
250
  6
CONTINUOUS
 90
12
 70
0
 10
93.1839228345
 20
-110.7699328104
 10
93.1453897117
 20
-110.8379067082
 10
93.1081144112
 20
-110.9142012146
 10
93.0745697632
 20
-110.9944341209
 10
93.0448196401
 20
-111.078452676
 10
93.0189206933
 20
-111.1660968877
 10
92.9969222259
 20
-111.2571998851
 10
92.9788660997
 20
-111.3515882738
 10
92.9647866777
 20
-111.449082408
 10
92.9547107597
 20
-111.5494967125
 10
92.9486575269
 20
-111.6526400327
 10
92.9466385016
 20
-111.7583160294
  0
LWPOLYLINE
  5
387
100
AcDbEntity
  8
0
100
AcDbPolyline
 62
7
  6
CONTINUOUS
 90
19
 70
0
 10
92.6586980555
 20
-110.9100593809
 10
92.5948173541
 20
-110.9502477128
 10
92.5337158852
 20
-110.9954172015
 10
92.4758139555
 20
-111.0452688698
 10
92.4211298135
 20
-111.0998294222
 10
92.3696452108
 20
-111.1590721542
 10
92.3216532289
 20
-111.2226598205
 10
92.2771737875
 20
-111.2906172019
 10
92.2361869668
 20
-111.3629195176
 10
92.1989260886
 20
-111.4391551792
 10
92.1654124035
 20
-111.5193466201
 10
92.1356246608
 20
-111.6034714068
 10
92.1097324303
 20
-111.6910506504
 10
92.0877579298
 20
-111.7821040529
 10
92.0696789415
 20
-111.8766119123
 10
92.055598382
 20
-111.9740362327
 10
92.0455505567
 20
-112.0741976822
 10
92.0395011602
 20
-112.1772755927
 10
92.0374501924
 20
-112.2832699643
  0
LWPOLYLINE
  5
388
100
AcDbEntity
  8
0
100
AcDbPolyline
 62
7
  6
CONTINUOUS
 90
19
 70
0
 10
95.6588430163
 20
-116.1061281077
 10
95.7227237178
 20
-116.0659397758
 10
95.7838251867
 20
-116.0207702871
 10
95.8417271163
 20
-115.9709186187
 10
95.8964112583
 20
-115.9163580663
 10
95.947895861
 20
-115.8571153343
 10
95.995887843
 20
-115.7935276681
 10
96.0403672844
 20
-115.7255702866
 10
96.081354105
 20
-115.6532679709
 10
96.1186149833
 20
-115.5770323094
 10
96.1521286684
 20
-115.4968408685
 10
96.1819164111
 20
-115.4127160817
 10
96.2078086416
 20
-115.3251368382
 10
96.2297831421
 20
-115.2340834356
 10
96.2478621304
 20
-115.1395755763
 10
96.2619426899
 20
-115.0421512559
 10
96.2719905152
 20
-114.9419898064
 10
96.2780399117
 20
-114.8389118958
 10
96.2800908795
 20
-114.7329175243
  0
LWPOLYLINE
  5
389
100
AcDbEntity
  8
0
100
AcDbPolyline
 62
7
  6
CONTINUOUS
 90
25
 70
0
 10
109.4120604645
 20
-132.5784213202
 10
109.5726718313
 20
-132.4795066356
 10
109.7281744957
 20
-132.371185469
 10
109.8778281982
 20
-132.2539446635
 10
110.0216141624
 20
-132.1277555856
 10
110.1595511646
 20
-131.9926468688
 10
110.2911968752
 20
-131.8490517731
 10
110.4165310981
 20
-131.6969430558
 10
110.5355740294
 20
-131.5363479596
 10
110.6479439281
 20
-131.367781473
 10
110.7536193725
 20
-131.1912180063
 10
110.8526217843
 20
-131.0066831493
 10
110.9446336875
 20
-130.8147686592
 10
111.0296326412
 20
-130.615450846
 10
111.1076410863
 20
-130.4087533997
 10
111.178408869
 20
-130.1953391475
 10
111.2419127456
 20
-129.9751865272
 10
111.2981759599
 20
-129.748317101
 10
111.3470180898
 20
-129.5154583827
 10
111.3884153122
 20
-129.2765911454
 10
111.4223914502
 20
-129.0317346159
 10
111.4488375508
 20
-128.7816739881
 10
111.4677172963
 20
-128.5266709933
 10
111.4790670044
 20
-128.2664639002
 10
111.482886675
 20
-128.0010527088
  0
LWPOLYLINE
  5
38A
100
AcDbEntity
  8
RACCORDO
100
AcDbPolyline
 62
250
  6
CONTINUOUS
 90
27
 70
0
 10
107.6442935116
 20
-133.5991078035
 10
107.7204605826
 20
-133.5537690656
 10
107.8696399582
 20
-133.4566995435
 10
108.0138633383
 20
-133.3515496482
 10
108.1529934025
 20
-133.2384193338
 10
108.2868977437
 20
-133.1174162032
 10
108.4154491799
 20
-132.9886552007
 10
108.5385259357
 20
-132.8522583163
 10
108.6560113561
 20
-132.7083548037
 10
108.7677942457
 20
-132.5570807626
 10
108.8737682515
 20
-132.3985800146
 10
108.9738321908
 20
-132.2330039995
 10
109.0678907917
 20
-132.0605107659
 10
109.1558554415
 20
-131.8812632481
 10
109.2376434515
 20
-131.6954300198
 10
109.3131773924
 20
-131.5031867513
 10
109.3823853223
 20
-131.3047162626
 10
109.4452015274
 20
-131.1002068073
 10
109.5015666113
 20
-130.8898513691
 10
109.5514267564
 20
-130.6738503595
 10
109.594734063
 20
-130.4524117217
 10
109.6314476887
 20
-130.2257455641
 10
109.6615330045
 20
-129.9940671848
 10
109.6849613862
 20
-129.7576001822
 10
109.7017110748
 20
-129.5165704658
 10
109.7117668544
 20
-129.2712057901
 10
109.715119722
 20
-129.0217391921
  0
LINE
  5
38B
100
AcDbEntity
  8
RACCORDO
100
AcDbLine
 62
250
  6
CONTINUOUS
 10
111.482886675
 20
-128.0010527088
 11
109.715119722
 21
-129.0217391921
  0
LINE
  5
38C
100
AcDbEntity
  8
ASSI
100
AcDbLine
 62
7
  6
CONTINUOUS
 10
109.4120604645
 20
-132.5784213202
 11
107.6442935116
 21
-133.5991078035
  0
ENDSEC
  0
SECTION
  2
OBJECTS
  0
DICTIONARY
  5
C
100
AcDbDictionary
280
0
281
1
  3
ACAD_GROUP
350
D
  3
ACAD_MLINESTYLE
350
17
  3
ACAD_LAYOUT
350
1A
  3
ACAD_PLOTSETTINGS
350
19
  3
ACAD_PLOTSTYLENAME
350
E
  0
DICTIONARY
  5
D
102
{ACAD_REACTORS
330
C
102
}
100
AcDbDictionary
280
0
281
1
  0
ACDBDICTIONARYWDFLT
  5
E
102
{ACAD_REACTORS
330
C
102
}
100
AcDbDictionary
281
1
  3
Normal
350
F
100
AcDbDictionaryWithDefault
340
F
  0
DICTIONARY
  5
17
102
{ACAD_REACTORS
330
C
102
}
100
AcDbDictionary
280
0
281
1
  3
Standard
350
18
  0
DICTIONARY
  5
19
102
{ACAD_REACTORS
330
C
102
}
100
AcDbDictionary
281
1
  0
DICTIONARY
  5
1A
102
{ACAD_REACTORS
330
C
102
}
100
AcDbDictionary
281
1
  3
Model
350
38D
  3
Layout1
350
38E
  0
ACDBPLACEHOLDER
  5
F
102
{ACAD_REACTORS
330
E
102
}
  0
MLINESTYLE
  5
18
102
{ACAD_REACTORS
330
17
102
}
100
AcDbMlineStyle
  2
STANDARD
 70
0
  3

 62
256
 51
90.0
 52
90.0
 71
2
 49
0.5
 62
256
  6
BYLAYER
 49
-0.5
 62
256
  6
BYLAYER
  0
LAYOUT
  5
38D
102
{ACAD_REACTORS
330
1A
102
}
100
AcDbPlotSettings
  1

  2
none_device
  4
ANSI_C_(22.00_x_17.00_Inches)
  6

 40
0.0
 41
0.0
 42
0.0
 43
0.0
 44
558.8
 45
431.8
 46
0.0
 47
0.0
 48
0.0
 49
0.0
140
0.0
141
0.0
142
1.0
143
1.0
 70
1024
 72
1
 73
0
 74
0
  7

 75
0
147
1.0
148
0.0
149
0.0
100
AcDbLayout
  1
Model
 70
0
 71
0
 10
0.0
 20
0.0
 11
558.8
 21
431.8
 12
0.0
 22
0.0
 32
0.0
 14
0.0
 24
0.0
 34
0.0
 15
0.0
 25
0.0
 35
0.0
146
0.0
 13
0.0
 23
0.0
 33
0.0
 16
1.0
 26
0.0
 36
0.0
 17
0.0
 27
1.0
 37
0.0
 76
0
330
212
345
0
346
0
  0
LAYOUT
  5
38E
102
{ACAD_REACTORS
330
1A
102
}
100
AcDbPlotSettings
  1

  2
none_device
  4
ANSI_C_(22.00_x_17.00_Inches)
  6

 40
0.0
 41
0.0
 42
0.0
 43
0.0
 44
558.8
 45
431.8
 46
0.0
 47
0.0
 48
0.0
 49
0.0
140
0.0
141
0.0
142
1.0
143
1.0
 70
0
 72
1
 73
0
 74
0
  7

 75
0
147
1.0
148
0.0
149
0.0
100
AcDbLayout
  1
Layout1
 70
0
 71
1
 10
0.0
 20
0.0
 11
558.8
 21
431.8
 12
0.0
 22
0.0
 32
0.0
 14
0.0
 24
0.0
 34
0.0
 15
0.0
 25
0.0
 35
0.0
146
0.0
 13
0.0
 23
0.0
 33
0.0
 16
1.0
 26
0.0
 36
0.0
 17
0.0
 27
1.0
 37
0.0
 76
0
330
213
345
0
346
0
  0
ENDSEC
  0
EOF
