  0
SECTION
  2
HEADER
  9
$ACADVER
  1
AC1015
  9
$DWGCODEPAGE
  3
ANSI_1252
  9
$EXTMAX
 10
297.0
 20
210.0
 30
0.0
  9
$EXTMIN
 10
0.0
 20
0.0
 30
0.0
  9
$LIMMIN
 10
0.0
 20
0.0
  9
$LIMMAX
 10
297.0
 20
210.0
  9
$VIEWCTR
 10
148.5
 20
105.0
  9
$VIEWSIZE
 40
210.0
  9
$CLAYER
  8
0
  9
$LTSCALE
 40
16.335
  9
$CELTYPE
  6
BYLAYER
  9
$DIMSCALE
 40
1.0
  9
$DIMASZ
 40
3.0
  9
$DIMEXO
 40
1.85625
  9
$DIMDLI
 40
11.286
  9
$DIMEXE
 40
5.346
  9
$DIMCEN
 40
2.673
  9
$DIMLFAC
 40
1.0
  9
$DIMBLK
  1
_FILLED
  9
$DIMTXT
 40
3.0
  9
$DIMTOL
 70
1
  9
$DIMLIM
 70
0
  9
$DIMTFAC
 40
1.0
  9
$DIMTP
 40
0.01
  9
$DIMTM
 40
0.01
  9
$PDMODE
 70
3
  9
$PDSIZE
 40
3.0
  9
$HANDSEED
  5
480
  9
$TILEMODE
 70
1
  9
$MEASUREMENT
 70
1
  9
$INSUNITS
 70
4
  0
ENDSEC
  0
SECTION
  2
CLASSES
  0
CLASS
  1
ACDBDICTIONARYWDFLT
  2
AcDbDictionaryWithDefault
  3
AutoCAD 2000
 90
0
280
0
281
0
  0
CLASS
  1
ACDBPLACEHOLDER
  2
AcDbPlaceHolder
  3
AutoCAD 2000
 90
0
280
0
281
0
  0
CLASS
  1
LAYOUT
  2
AcDbLayout
  3
AutoCAD 2000
 90
0
280
0
281
0
  0
ENDSEC
  0
SECTION
  2
TABLES
  0
TABLE
  2
VPORT
  5
8
100
AcDbSymbolTable
 70
2
  0
VPORT
  5
1F4
100
AcDbSymbolTableRecord
100
AcDbViewportTableRecord
  2
*ACTIVE
 70
0
 10
0.0
 20
0.0
 11
1.0
 21
1.0
 12
148.5
 22
105.0
 13
0.0
 23
0.0
 14
1.0
 24
1.0
 15
0.0
 25
0.0
 16
0.0
 26
0.0
 36
1.0
 17
0.0
 27
0.0
 37
0.0
 40
210.0
 41
1.4142857143
 42
50.0
 43
0.0
 44
0.0
 50
0.0
 51
0.0
 71
0
 72
100
 73
1
 74
1
 75
0
 76
0
 77
0
 78
0
  0
ENDTAB
  0
TABLE
  2
LTYPE
  5
5
100
AcDbSymbolTable
 70
6
  0
LTYPE
  5
14
100
AcDbSymbolTableRecord
100
AcDbLinetypeTableRecord
  2
BYBLOCK
 70
0
  3

 72
65
 73
0
 40
0.0
  0
LTYPE
  5
15
100
AcDbSymbolTableRecord
100
AcDbLinetypeTableRecord
  2
BYLAYER
 70
0
  3

 72
65
 73
0
 40
0.0
  0
LTYPE
  5
16
100
AcDbSymbolTableRecord
100
AcDbLinetypeTableRecord
  2
CONTINUOUS
 70
64
  3
Solid line
 72
65
 73
0
 40
0.0
  0
LTYPE
  5
1F5
100
AcDbSymbolTableRecord
100
AcDbLinetypeTableRecord
  2
CENTER
 70
64
  3
____ _ ____ _ ____ _ ____ _ ____ _ ____ _ ____
 72
65
 73
4
 40
0.6
 49
0.375
 74
0
 49
-0.075
 74
0
 49
0.075
 74
0
 49
-0.075
 74
0
  0
LTYPE
  5
1F6
100
AcDbSymbolTableRecord
100
AcDbLinetypeTableRecord
  2
HIDDEN
 70
64
  3
- - - - - - - - - - - - - - - - - - - -
 72
65
 73
2
 40
0.2
 49
0.1
 74
0
 49
-0.1
 74
0
  0
LTYPE
  5
1F7
100
AcDbSymbolTableRecord
100
AcDbLinetypeTableRecord
  2
PHANTOM
 70
64
  3
_____ _ _ _____ _ _ _____ _ _ _____
 72
65
 73
6
 40
0.8
 49
0.45
 74
0
 49
-0.05
 74
0
 49
0.1
 74
0
 49
-0.05
 74
0
 49
0.1
 74
0
 49
-0.05
 74
0
  0
LTYPE
  5
1F8
100
AcDbSymbolTableRecord
100
AcDbLinetypeTableRecord
  2
DOT
 70
64
  3
. . . . . . . . . . . . . . . . . . . .
 72
65
 73
2
 40
0.2
 49
0.1
 74
0
 49
-0.1
 74
0
  0
LTYPE
  5
1F9
100
AcDbSymbolTableRecord
100
AcDbLinetypeTableRecord
  2
DASHED
 70
64
  3
- - - - - - - - - - - - - - - - - - - -
 72
65
 73
2
 40
0.2
 49
0.1
 74
0
 49
-0.1
 74
0
  0
ENDTAB
  0
TABLE
  2
LAYER
  5
2
100
AcDbSymbolTable
 70
36
  0
LAYER
  5
10
100
AcDbSymbolTableRecord
100
AcDbLayerTableRecord
  2
0
 70
0
 62
7
  6
CONTINUOUS
370
-3
390
F
  0
LAYER
  5
1FA
100
AcDbSymbolTableRecord
100
AcDbLayerTableRecord
  2
DEFAULT_1
 70
0
 62
7
  6
CENTER
370
-3
390
F
  0
LAYER
  5
1FB
100
AcDbSymbolTableRecord
100
AcDbLayerTableRecord
  2
DEFAULT_2
 70
0
 62
7
  6
HIDDEN
370
-3
390
F
  0
LAYER
  5
1FC
100
AcDbSymbolTableRecord
100
AcDbLayerTableRecord
  2
DEFAULT_3
 70
0
 62
7
  6
PHANTOM
370
-3
390
F
  0
LAYER
  5
1FD
100
AcDbSymbolTableRecord
100
AcDbLayerTableRecord
  2
ASSI
 70
0
 62
7
  6
CONTINUOUS
370
-3
390
F
  0
LAYER
  5
1FE
100
AcDbSymbolTableRecord
100
AcDbLayerTableRecord
  2
COLOR5
 70
0
 62
7
  6
CONTINUOUS
370
-3
390
F
  0
LAYER
  5
1FF
100
AcDbSymbolTableRecord
100
AcDbLayerTableRecord
  2
COORDINATE
 70
0
 62
7
  6
CONTINUOUS
370
-3
390
F
  0
LAYER
  5
200
100
AcDbSymbolTableRecord
100
AcDbLayerTableRecord
  2
COORD_ORIGINE
 70
0
 62
7
  6
CONTINUOUS
370
-3
390
F
  0
LAYER
  5
201
100
AcDbSymbolTableRecord
100
AcDbLayerTableRecord
  2
COPY_PUBLISH
 70
0
 62
7
  6
CONTINUOUS
370
-3
390
F
  0
LAYER
  5
202
100
AcDbSymbolTableRecord
100
AcDbLayerTableRecord
  2
COSMETIC
 70
0
 62
7
  6
CONTINUOUS
370
-3
390
F
  0
LAYER
  5
203
100
AcDbSymbolTableRecord
100
AcDbLayerTableRecord
  2
CURVE
 70
0
 62
7
  6
CONTINUOUS
370
-3
390
F
  0
LAYER
  5
204
100
AcDbSymbolTableRecord
100
AcDbLayerTableRecord
  2
DRAFT
 70
0
 62
7
  6
CONTINUOUS
370
-3
390
F
  0
LAYER
  5
205
100
AcDbSymbolTableRecord
100
AcDbLayerTableRecord
  2
IMPORT_IGES
 70
0
 62
7
  6
CONTINUOUS
370
-3
390
F
  0
LAYER
  5
206
100
AcDbSymbolTableRecord
100
AcDbLayerTableRecord
  2
INTF_1
 70
0
 62
7
  6
CONTINUOUS
370
-3
390
F
  0
LAYER
  5
207
100
AcDbSymbolTableRecord
100
AcDbLayerTableRecord
  2
INTF_2
 70
0
 62
7
  6
CONTINUOUS
370
-3
390
F
  0
LAYER
  5
208
100
AcDbSymbolTableRecord
100
AcDbLayerTableRecord
  2
NOTE
 70
0
 62
7
  6
CONTINUOUS
370
-3
390
F
  0
LAYER
  5
209
100
AcDbSymbolTableRecord
100
AcDbLayerTableRecord
  2
PIANI
 70
0
 62
7
  6
CONTINUOUS
370
-3
390
F
  0
LAYER
  5
20A
100
AcDbSymbolTableRecord
100
AcDbLayerTableRecord
  2
PIANI_ORIGINE
 70
0
 62
7
  6
CONTINUOUS
370
-3
390
F
  0
LAYER
  5
20B
100
AcDbSymbolTableRecord
100
AcDbLayerTableRecord
  2
PUNTI
 70
0
 62
7
  6
CONTINUOUS
370
-3
390
F
  0
LAYER
  5
20C
100
AcDbSymbolTableRecord
100
AcDbLayerTableRecord
  2
PUNZONI
 70
0
 62
7
  6
CONTINUOUS
370
-3
390
F
  0
LAYER
  5
20D
100
AcDbSymbolTableRecord
100
AcDbLayerTableRecord
  2
RACCORDO
 70
0
 62
7
  6
CONTINUOUS
370
-3
390
F
  0
LAYER
  5
20E
100
AcDbSymbolTableRecord
100
AcDbLayerTableRecord
  2
RGB
 70
0
 62
7
  6
CONTINUOUS
370
-3
390
F
  0
LAYER
  5
20F
100
AcDbSymbolTableRecord
100
AcDbLayerTableRecord
  2
RGB__255__255__255__
 70
0
 62
7
  6
CONTINUOUS
370
-3
390
F
  0
LAYER
  5
210
100
AcDbSymbolTableRecord
100
AcDbLayerTableRecord
  2
RGB____0____0____0__
 70
0
 62
7
  6
CONTINUOUS
370
-3
390
F
  0
LAYER
  5
211
100
AcDbSymbolTableRecord
100
AcDbLayerTableRecord
  2
SMUSSO
 70
0
 62
7
  6
CONTINUOUS
370
-3
390
F
  0
LAYER
  5
212
100
AcDbSymbolTableRecord
100
AcDbLayerTableRecord
  2
SNAPLINE
 70
0
 62
7
  6
CONTINUOUS
370
-3
390
F
  0
LAYER
  5
213
100
AcDbSymbolTableRecord
100
AcDbLayerTableRecord
  2
SUPERFICI
 70
0
 62
7
  6
CONTINUOUS
370
-3
390
F
  0
LAYER
  5
214
100
AcDbSymbolTableRecord
100
AcDbLayerTableRecord
  2
TRASH
 70
0
 62
7
  6
CONTINUOUS
370
-3
390
F
  0
LAYER
  5
215
100
AcDbSymbolTableRecord
100
AcDbLayerTableRecord
  2
XSEC_DATUMS
 70
0
 62
7
  6
CONTINUOUS
370
-3
390
F
  0
ENDTAB
  0
TABLE
  2
STYLE
  5
3
100
AcDbSymbolTable
 70
1
  0
STYLE
  5
11
100
AcDbSymbolTableRecord
100
AcDbTextStyleTableRecord
  2
STANDARD
 70
0
 40
0.0
 41
0.8
 50
0.0
 71
0
 42
0.2
  3
txt
  4

  0
STYLE
  5
216
100
AcDbSymbolTableRecord
100
AcDbTextStyleTableRecord
  2
TEXTSTYLE_1
 70
0
 40
0.0
 41
0.8
 50
0.0
 71
0
 42
0.2
  3
gdt
  4

  0
ENDTAB
  0
TABLE
  2
VIEW
  5
6
100
AcDbSymbolTable
 70
0
  0
ENDTAB
  0
TABLE
  2
UCS
  5
7
100
AcDbSymbolTable
 70
0
  0
ENDTAB
  0
TABLE
  2
APPID
  5
9
100
AcDbSymbolTable
 70
1
  0
APPID
  5
217
100
AcDbSymbolTableRecord
100
AcDbRegAppTableRecord
  2
ACAD
 70
0
  0
ENDTAB
  0
TABLE
  2
BLOCK_RECORD
  5
1
100
AcDbSymbolTable
 70
0
  0
BLOCK_RECORD
  5
218
100
AcDbSymbolTableRecord
100
AcDbBlockTableRecord
  2
*Model_Space
  0
BLOCK_RECORD
  5
219
100
AcDbSymbolTableRecord
100
AcDbBlockTableRecord
  2
*Paper_Space
  0
ENDTAB
  0
TABLE
  2
DIMSTYLE
  5
A
100
AcDbSymbolTable
 70
1
100
AcDbDimStyleTable
 71
0
  0
DIMSTYLE
105
21A
100
AcDbSymbolTableRecord
100
AcDbDimStyleTableRecord
  2
STANDARD
 70
0
  3

  4

 40
1.0
 41
3.0
 42
0.0625
 43
0.38
 44
0.18
 45
0.0
 46
0.0
 47
0.01
 48
0.01
140
3.0
141
0.09
142
0.0
143
25.4
144
1.0
145
0.0
146
1.0
147
0.09
 71
1.0
 72
0.0
 73
0
 74
0
 75
0
 76
0
 77
1
 78
8
170
0
171
2
172
0
173
0
174
0
175
0
176
0
177
0
178
0
270
2
271
2
272
2
273
2
274
2
275
0
280
0
281
0
282
0
283
1
284
8
285
0
286
0
287
3
288
0
340
11
  0
ENDTAB
  0
ENDSEC
  0
SECTION
  2
BLOCKS
  0
BLOCK
  5
20
100
AcDbEntity
  8
0
100
AcDbBlockBegin
  2
*Model_Space
 70
0
 10
0.0
 20
0.0
 30
0.0
  3
*Model_Space
  1

  0
ENDBLK
  5
21
100
AcDbEntity
  8
0
100
AcDbBlockEnd
  0
BLOCK
  5
1C
100
AcDbEntity
  8
0
100
AcDbBlockBegin
  2
*Paper_Space
 70
0
 10
0.0
 20
0.0
 30
0.0
  3
*Paper_Space
  1

  0
ENDBLK
  5
1D
100
AcDbEntity
  8
0
100
AcDbBlockEnd
  0
ENDSEC
  0
SECTION
  2
ENTITIES
  0
LWPOLYLINE
  5
21B
100
AcDbEntity
  8
RACCORDO
100
AcDbPolyline
 62
7
  6
CONTINUOUS
 90
28
 70
0
 10
-39.0620854571
 20
37.4878671889
 10
-39.1507686388
 20
37.4305835903
 10
-39.2994233274
 20
37.3244627671
 10
-39.4456279117
 20
37.2070646509
 10
-39.5897025474
 20
37.0778341852
 10
-39.7310825824
 20
36.9369615797
 10
-39.8684357568
 20
36.7856836603
 10
-40.0017530664
 20
36.624056411
 10
-40.1311046053
 20
36.4520007197
 10
-40.2554235984
 20
36.2710457927
 10
-40.3747205985
 20
36.0814094068
 10
-40.4890105461
 20
35.8832702716
 10
-40.5973043237
 20
35.6786623097
 10
-40.699569477
 20
35.4681691406
 10
-40.795893389
 20
35.2520840832
 10
-40.885582372
 20
35.0325431003
 10
-40.9684477429
 20
34.8109081531
 10
-41.0448735999
 20
34.586989666
 10
-41.115057143
 20
34.3608663405
 10
-41.1789438682
 20
34.1333464908
 10
-41.2366344544
 20
33.9046390748
 10
-41.2884182228
 20
33.673949941
 10
-41.3342030099
 20
33.4417487227
 10
-41.3738933617
 20
33.2084742354
 10
-41.407573097
 20
32.9732355236
 10
-41.4350753792
 20
32.7360131236
 10
-41.4561149163
 20
32.4977598095
 10
-41.4671432013
 20
32.3257840789
  0
LINE
  5
21C
100
AcDbEntity
  8
RACCORDO
100
AcDbLine
 62
7
  6
CONTINUOUS
 10
-39.0619219794
 20
37.4879707806
 11
-39.0620863637
 21
37.4878686476
  0
LINE
  5
21D
100
AcDbEntity
  8
RACCORDO
100
AcDbLine
 62
7
  6
CONTINUOUS
 10
-34.5703526598
 20
40.2780052621
 11
-39.0619219762
 21
37.4879707826
  0
LINE
  5
21E
100
AcDbEntity
  8
RACCORDO
100
AcDbLine
 62
253
  6
CONTINUOUS
 10
-33.7879558226
 20
40.4078469447
 11
-38.2769262225
 21
37.6194268378
  0
LINE
  5
21F
100
AcDbEntity
  8
RACCORDO
100
AcDbLine
 62
7
  6
CONTINUOUS
 10
-34.5344563958
 20
40.2992735843
 11
-14.7335456373
 21
51.4764531754
  0
LINE
  5
220
100
AcDbEntity
  8
RACCORDO
100
AcDbLine
 62
253
  6
CONTINUOUS
 10
-33.7879558226
 20
40.4078469447
 11
-13.9887703374
 21
51.584047791
  0
LWPOLYLINE
  5
221
100
AcDbEntity
  8
RACCORDO
100
AcDbPolyline
 62
7
  6
CONTINUOUS
 90
12
 70
0
 10
16.9189443533
 20
-51.5058971115
 10
17.0693160345
 20
-51.5305192575
 10
17.2233181779
 20
-51.5452878586
 10
17.3814834224
 20
-51.5497189398
 10
17.5429373859
 20
-51.5431833012
 10
17.7061936187
 20
-51.5252781596
 10
17.8706479057
 20
-51.4957142591
 10
18.0357138567
 20
-51.4542460349
 10
18.2000828976
 20
-51.4009357335
 10
18.3630734343
 20
-51.3358664879
 10
18.5245007422
 20
-51.2589828526
 10
18.6204520291
 20
-51.2071836907
  0
LINE
  5
222
100
AcDbEntity
  8
RACCORDO
100
AcDbLine
 62
7
  6
CONTINUOUS
 10
-39.2137667574
 20
-40.421633729
 11
-39.2130334692
 21
-40.421778264
  0
LINE
  5
223
100
AcDbEntity
  8
ASSI
100
AcDbLine
 62
7
  6
CONTINUOUS
 10
16.9201796544
 20
-51.5061471355
 11
-39.2137913791
 21
-40.4216288671
  0
LINE
  5
224
100
AcDbEntity
  8
RACCORDO
100
AcDbLine
 62
253
  6
CONTINUOUS
 10
15.3866880581
 20
-48.5663108836
 11
-40.7151261034
 21
-37.4881424778
  0
LINE
  5
225
100
AcDbEntity
  8
RACCORDO
100
AcDbLine
 62
7
  6
CONTINUOUS
 10
16.9201565832
 20
-51.5061425797
 11
16.9190154456
 21
-51.5059166335
  0
LWPOLYLINE
  5
226
100
AcDbEntity
  8
RACCORDO
100
AcDbPolyline
 62
7
  6
CONTINUOUS
 90
27
 70
0
 10
-41.4668336251
 20
-36.9837860997
 10
-41.4557666722
 20
-37.1439554418
 10
-41.4338596731
 20
-37.3681322732
 10
-41.4050240563
 20
-37.5852751825
 10
-41.3693975696
 20
-37.7953638786
 10
-41.3271384671
 20
-37.9982386731
 10
-41.2784251293
 20
-38.1936047459
 10
-41.2233557567
 20
-38.381533203
 10
-41.1620136556
 20
-38.5620556352
 10
-41.0945461811
 20
-38.7349503412
 10
-41.0209707374
 20
-38.9003610546
 10
-40.9413443546
 20
-39.0582797367
 10
-40.855923426
 20
-39.2083165282
 10
-40.7647379282
 20
-39.350557111
 10
-40.6679041547
 20
-39.4849368768
 10
-40.5659873962
 20
-39.610853602
 10
-40.4593101872
 20
-39.7281741449
 10
-40.3480234411
 20
-39.8369934824
 10
-40.23266922
 20
-39.937052521
 10
-40.113806437
 20
-40.0281856456
 10
-39.9916586319
 20
-40.1105270123
 10
-39.86640119
 20
-40.1842072702
 10
-39.7385411816
 20
-40.2491621567
 10
-39.6084802813
 20
-40.3054205792
 10
-39.4762654743
 20
-40.3531423382
 10
-39.3422189014
 20
-40.39233594
 10
-39.2131037592
 20
-40.4217587711
  0
LWPOLYLINE
  5
227
100
AcDbEntity
  8
RACCORDO
100
AcDbPolyline
 62
7
  6
CONTINUOUS
 90
22
 70
0
 10
-41.4671432464
 20
32.325803821
 10
-41.6378957962
 20
29.0020904833
 10
-41.7954047577
 20
25.6078147795
 10
-41.9354602272
 20
22.2211438145
 10
-42.0580441345
 20
18.8424628338
 10
-42.1631445519
 20
15.4721064593
 10
-42.2507511066
 20
12.1103894466
 10
-42.3208535996
 20
8.7576417403
 10
-42.3734447075
 20
5.4142051559
 10
-42.4085179447
 20
2.0804123489
 10
-42.4260674927
 20
-1.2434028863
 10
-42.4260910695
 20
-4.5568972811
 10
-42.4085874845
 20
-7.8597241114
 10
-42.3735566257
 20
-11.1515414856
 10
-42.3210019165
 20
-14.4320211912
 10
-42.2509274536
 20
-17.700837172
 10
-42.1633381598
 20
-20.957654989
 10
-42.0582418266
 20
-24.2021556575
 10
-41.9356464006
 20
-27.434036176
 10
-41.7955613585
 20
-30.6529753615
 10
-41.6380023344
 20
-33.8586083151
 10
-41.4668317232
 20
-36.9838375009
  0
LINE
  5
228
100
AcDbEntity
  8
ASSI
100
AcDbLine
 62
7
  6
CONTINUOUS
 10
10.7819019571
 20
-45.5150456641
 11
11.3281705167
 21
-45.6229085115
  0
LINE
  5
229
100
AcDbEntity
  8
ASSI
100
AcDbLine
 62
7
  6
CONTINUOUS
 10
7.0220365587
 20
-44.7726085613
 11
7.5070286248
 21
-44.8683714201
  0
LINE
  5
22A
100
AcDbEntity
  8
ASSI
100
AcDbLine
 62
7
  6
CONTINUOUS
 10
5.2702005347
 20
-44.4266815219
 11
5.7551804765
 21
-44.5224419865
  0
LINE
  5
22B
100
AcDbEntity
  8
ASSI
100
AcDbLine
 62
7
  6
CONTINUOUS
 10
3.3567047612
 20
-44.048838576
 11
3.8416968273
 21
-44.1446014347
  0
LINE
  5
22C
100
AcDbEntity
  8
ASSI
100
AcDbLine
 62
7
  6
CONTINUOUS
 10
1.769790285
 20
-43.7354778395
 11
2.2548005377
 21
-43.8312442895
  0
LINE
  5
22D
100
AcDbEntity
  8
ASSI
100
AcDbLine
 62
7
  6
CONTINUOUS
 10
4.3266771156
 20
-44.2403682719
 11
4.8116695283
 21
-44.3361375033
  0
LINE
  5
22E
100
AcDbEntity
  8
ASSI
100
AcDbLine
 62
7
  6
CONTINUOUS
 10
6.2137178916
 20
-44.6129935748
 11
6.6987103043
 21
-44.7087628061
  0
LINE
  5
22F
100
AcDbEntity
  8
ASSI
100
AcDbLine
 62
7
  6
CONTINUOUS
 10
9.3875343731
 20
-45.2397062809
 11
9.8725328479
 21
-45.3354767093
  0
LINE
  5
230
100
AcDbEntity
  8
ASSI
100
AcDbLine
 62
7
  6
CONTINUOUS
 10
8.5792096439
 20
-45.0800900973
 11
9.0642084652
 21
-45.1758668983
  0
LINE
  5
231
100
AcDbEntity
  8
ASSI
100
AcDbLine
 62
7
  6
CONTINUOUS
 10
7.6330999272
 20
-44.397171872
 11
8.3990621578
 21
-44.548422927
  0
LINE
  5
232
100
AcDbEntity
  8
ASSI
100
AcDbLine
 62
7
  6
CONTINUOUS
 10
8.2254121728
 20
-44.0345030877
 11
7.7553266554
 21
-43.9416774527
  0
LINE
  5
233
100
AcDbEntity
  8
ASSI
100
AcDbLine
 62
7
  6
CONTINUOUS
 10
9.8198373517
 20
-44.3493406154
 11
10.243129254
 21
-44.4329324423
  0
LINE
  5
234
100
AcDbEntity
  8
ASSI
100
AcDbLine
 62
7
  6
CONTINUOUS
 10
8.2039061536
 20
-43.9707450074
 11
7.830670714
 21
-43.8970439138
  0
LINE
  5
235
100
AcDbEntity
  8
ASSI
100
AcDbLine
 62
7
  6
CONTINUOUS
 10
10.3785183079
 20
-43.9923410837
 11
9.7884578669
 21
-43.8758246244
  0
LINE
  5
236
100
AcDbEntity
  8
ASSI
100
AcDbLine
 62
7
  6
CONTINUOUS
 10
10.4538516171
 20
-43.9477139127
 11
9.8637912704
 21
-43.8311973975
  0
LINE
  5
237
100
AcDbEntity
  8
ASSI
100
AcDbLine
 62
7
  6
CONTINUOUS
 10
9.7566343476
 20
-43.2543710564
 11
10.3467007564
 21
-43.3708887687
  0
LINE
  5
238
100
AcDbEntity
  8
ASSI
100
AcDbLine
 62
7
  6
CONTINUOUS
 10
6.5657649335
 20
-42.1562614078
 11
5.8325869606
 21
-42.0114841101
  0
LINE
  5
239
100
AcDbEntity
  8
ASSI
100
AcDbLine
 62
7
  6
CONTINUOUS
 10
4.9269097177
 20
-41.8326441713
 11
4.1937317448
 21
-41.6878668736
  0
LINE
  5
23A
100
AcDbEntity
  8
ASSI
100
AcDbLine
 62
7
  6
CONTINUOUS
 10
3.7087575187
 20
-41.5921012335
 11
3.2237651061
 21
-41.4963320022
  0
LINE
  5
23B
100
AcDbEntity
  8
ASSI
100
AcDbLine
 62
7
  6
CONTINUOUS
 10
2.9004388517
 20
-41.432486247
 11
2.4154403768
 21
-41.3367158185
  0
LINE
  5
23C
100
AcDbEntity
  8
ASSI
100
AcDbLine
 62
7
  6
CONTINUOUS
 10
1.3432654199
 20
-41.1249983384
 11
0.8582669451
 21
-41.02922791
  0
LINE
  5
23D
100
AcDbEntity
  8
ASSI
100
AcDbLine
 62
7
  6
CONTINUOUS
 10
8.1526790915
 20
-42.4696157549
 11
7.6676624301
 21
-42.3738417352
  0
LINE
  5
23E
100
AcDbEntity
  8
ASSI
100
AcDbLine
 62
7
  6
CONTINUOUS
 10
10.3902773111
 20
-42.9114641209
 11
9.2545890307
 21
-42.6872048658
  0
LINE
  5
23F
100
AcDbEntity
  8
ASSI
100
AcDbLine
 62
7
  6
CONTINUOUS
 10
6.6410743225
 20
-42.111648407
 11
5.9078963496
 21
-41.9668711093
  0
LINE
  5
240
100
AcDbEntity
  8
ASSI
100
AcDbLine
 62
7
  6
CONTINUOUS
 10
5.0022191067
 20
-41.7880311705
 11
4.2690411338
 21
-41.6432538729
  0
LINE
  5
241
100
AcDbEntity
  8
ASSI
100
AcDbLine
 62
7
  6
CONTINUOUS
 10
3.7840669077
 20
-41.5474882327
 11
3.299074495
 21
-41.4517190014
  0
LINE
  5
242
100
AcDbEntity
  8
ASSI
100
AcDbLine
 62
7
  6
CONTINUOUS
 10
2.9757482407
 20
-41.3878732462
 11
2.4907497658
 21
-41.2921028178
  0
LINE
  5
243
100
AcDbEntity
  8
ASSI
100
AcDbLine
 62
7
  6
CONTINUOUS
 10
1.4185748089
 20
-41.0803853376
 11
0.9335763341
 21
-40.9846149092
  0
LINE
  5
244
100
AcDbEntity
  8
ASSI
100
AcDbLine
 62
7
  6
CONTINUOUS
 10
10.4655868135
 20
-42.8668510529
 11
9.3298984195
 21
-42.6425918651
  0
LINE
  5
245
100
AcDbEntity
  8
ASSI
100
AcDbLine
 62
7
  6
CONTINUOUS
 10
8.2279884803
 20
-42.4250027542
 11
7.742971819
 21
-42.3292287345
  0
LINE
  5
246
100
AcDbEntity
  8
RACCORDO
100
AcDbLine
 62
7
  6
CONTINUOUS
 10
-33.976373851
 20
-26.8849581137
 11
-33.8283832133
 21
-26.9663742536
  0
LWPOLYLINE
  5
247
100
AcDbEntity
  8
RACCORDO
100
AcDbPolyline
 62
7
  6
CONTINUOUS
 90
41
 70
0
 10
-33.8283832133
 20
-26.9663742536
 10
-33.6828184084
 20
-27.0555459568
 10
-33.5400648313
 20
-27.1522445068
 10
-33.4005673724
 20
-27.2561784812
 10
-33.2647553726
 20
-27.3670310078
 10
-33.1329821671
 20
-27.4845233113
 10
-33.0056492515
 20
-27.6083057942
 10
-32.8831552323
 20
-27.7380007256
 10
-32.765828796
 20
-27.8732659122
 10
-32.6540191402
 20
-28.0137137204
 10
-32.5480847282
 20
-28.1589021786
 10
-32.4483488764
 20
-28.3083917598
 10
-32.3551138007
 20
-28.4617287358
 10
-32.2686636709
 20
-28.6184413018
 10
-32.1892599301
 20
-28.7780378218
 10
-32.1171494659
 20
-28.940010711
 10
-32.0525271896
 20
-29.1038717877
 10
-31.9955714726
 20
-29.26915154
 10
-31.94644995
 20
-29.4353262339
 10
-31.9052872621
 20
-29.6018923719
 10
-31.8721908672
 20
-29.768403929
 10
-31.8472531112
 20
-29.9343314484
 10
-31.8305261471
 20
-30.0991733202
 10
-31.8220542396
 20
-30.2625173221
 10
-31.821861137
 20
-30.4238226283
 10
-31.8299270452
 20
-30.582622785
 10
-31.8462509288
 20
-30.7386038921
 10
-31.8708041235
 20
-30.891270623
 10
-31.9035154895
 20
-31.0401482589
 10
-31.9443586981
 20
-31.1849327916
 10
-31.9932792211
 20
-31.3252335635
 10
-32.0501397239
 20
-31.4605180445
 10
-32.1147808326
 20
-31.5902823297
 10
-32.1870532461
 20
-31.7141612544
 10
-32.2667582798
 20
-31.8317294585
 10
-32.3535756348
 20
-31.9424869556
 10
-32.4472607325
 20
-32.0461166543
 10
-32.5475643944
 20
-32.142338003
 10
-32.6541041422
 20
-32.2307877055
 10
-32.7665782988
 20
-32.3112402861
 10
-32.7994986985
 20
-32.3325619101
  0
LINE
  5
248
100
AcDbEntity
  8
0
100
AcDbLine
 62
7
  6
CONTINUOUS
 10
-34.4123310731
 20
-26.6962559535
 11
-34.4123310731
 21
-28.6244527593
  0
LINE
  5
249
100
AcDbEntity
  8
0
100
AcDbLine
 62
7
  6
CONTINUOUS
 10
-34.4123310731
 20
-29.4773316266
 11
-34.4123310731
 21
-31.7122476496
  0
LWPOLYLINE
  5
24A
100
AcDbEntity
  8
RACCORDO
100
AcDbPolyline
 62
7
  6
CONTINUOUS
 90
7
 70
0
 10
-34.8226917422
 20
-26.5834273421
 10
-34.7368397407
 20
-26.6017540285
 10
-34.5835176097
 20
-26.6413029066
 10
-34.4303370199
 20
-26.6895513487
 10
-34.2777891538
 20
-26.7463533133
 10
-34.1263316994
 20
-26.811545164
 10
-33.976373851
 20
-26.8849581137
  0
LINE
  5
24B
100
AcDbEntity
  8
RACCORDO
100
AcDbLine
 62
253
  6
CONTINUOUS
 10
-7.5526775328
 20
-27.248538426
 11
-19.2440204839
 21
-24.9399024585
  0
LINE
  5
24C
100
AcDbEntity
  8
RACCORDO
100
AcDbLine
 62
253
  6
CONTINUOUS
 10
-7.4029346804
 20
-26.8630121183
 11
-19.0941641944
 21
-24.5543985508
  0
LINE
  5
24D
100
AcDbEntity
  8
RACCORDO
100
AcDbLine
 62
7
  6
CONTINUOUS
 10
-18.8877522117
 20
-24.4320693622
 11
-7.1964092606
 21
-26.7407053296
  0
LINE
  5
24E
100
AcDbEntity
  8
RACCORDO
100
AcDbLine
 62
7
  6
CONTINUOUS
 10
-6.6491211763
 20
-26.7464813913
 11
-18.6449594154
 21
-24.3777181333
  0
LINE
  5
24F
100
AcDbEntity
  8
RACCORDO
100
AcDbLine
 62
7
  6
CONTINUOUS
 10
-11.4547395098
 20
-24.7403712265
 11
-9.0731696494
 21
-25.2106489236
  0
LINE
  5
250
100
AcDbEntity
  8
RACCORDO
100
AcDbLine
 62
7
  6
CONTINUOUS
 10
26.8483003206
 20
42.6619701737
 11
25.4824182293
 21
41.8528267238
  0
LINE
  5
251
100
AcDbEntity
  8
RACCORDO
100
AcDbLine
 62
7
  6
CONTINUOUS
 10
24.3483003206
 20
42.076775795
 11
26.8526635883
 21
43.5192768132
  0
LINE
  5
252
100
AcDbEntity
  8
RACCORDO
100
AcDbLine
 62
253
  6
CONTINUOUS
 10
-11.2047395098
 20
-24.5922721602
 11
-8.8231696494
 21
-25.0625498572
  0
LINE
  5
253
100
AcDbEntity
  8
0
100
AcDbLine
 62
7
  6
CONTINUOUS
 10
-18.8922694141
 20
-22.9557715718
 11
-15.5064630606
 21
-23.6243512516
  0
LINE
  5
254
100
AcDbEntity
  8
RACCORDO
100
AcDbLine
 62
7
  6
CONTINUOUS
 10
-11.0186277873
 20
-24.5095969296
 11
-8.5325827101
 21
-25.0005048694
  0
LINE
  5
255
100
AcDbEntity
  8
RACCORDO
100
AcDbLine
 62
253
  6
CONTINUOUS
 10
-12.5037776155
 20
-21.8455716076
 11
-11.2047395098
 21
-22.1020867151
  0
LINE
  5
256
100
AcDbEntity
  8
RACCORDO
100
AcDbLine
 62
7
  6
CONTINUOUS
 10
-12.2131906762
 20
-21.7835266197
 11
-11.0186277873
 21
-22.0194114845
  0
LINE
  5
257
100
AcDbEntity
  8
RACCORDO
100
AcDbLine
 62
7
  6
CONTINUOUS
 10
-20.5332004789
 20
8.218275929
 11
-20.5332004789
 21
-22.3217342465
  0
LINE
  5
258
100
AcDbEntity
  8
ASSI
100
AcDbLine
 62
7
  6
CONTINUOUS
 10
-20.3513728797
 20
8.3666569231
 11
-20.3513728797
 21
3.8022037231
  0
LINE
  5
259
100
AcDbEntity
  8
ASSI
100
AcDbLine
 62
7
  6
CONTINUOUS
 10
-20.3513728797
 20
2.6923251401
 11
-20.3513728797
 21
-15.9313413134
  0
LINE
  5
25A
100
AcDbEntity
  8
ASSI
100
AcDbLine
 62
7
  6
CONTINUOUS
 10
-20.3513728797
 20
-17.0412198964
 11
-20.3513728797
 21
-20.1235515457
  0
LINE
  5
25B
100
AcDbEntity
  8
ASSI
100
AcDbLine
 62
7
  6
CONTINUOUS
 10
-20.3513728797
 20
-21.1745461452
 11
-20.3513728797
 21
-21.7758590586
  0
LINE
  5
25C
100
AcDbEntity
  8
0
100
AcDbLine
 62
7
  6
CONTINUOUS
 10
-18.8922694141
 20
9.4926911737
 11
-18.8922694141
 21
-22.9557715718
  0
LINE
  5
25D
100
AcDbEntity
  8
RACCORDO
100
AcDbLine
 62
7
  6
CONTINUOUS
 10
-20.0738138516
 20
9.3991017836
 11
-20.0737725931
 21
9.3991262333
  0
LINE
  5
25E
100
AcDbEntity
  8
RACCORDO
100
AcDbLine
 62
253
  6
CONTINUOUS
 10
-20.7943219
 20
8.0635085562
 11
-20.5332004789
 21
8.218275929
  0
LINE
  5
25F
100
AcDbEntity
  8
RACCORDO
100
AcDbLine
 62
253
  6
CONTINUOUS
 10
-20.3383507614
 20
8.9020106916
 11
-20.4155855813
 21
8.8562570727
  0
LINE
  5
260
100
AcDbEntity
  8
RACCORDO
100
AcDbLine
 62
7
  6
CONTINUOUS
 10
28.6784273395
 20
41.2217254367
 11
31.1827906073
 21
42.6642264549
  0
LWPOLYLINE
  5
261
100
AcDbEntity
  8
RACCORDO
100
AcDbPolyline
 62
7
  6
CONTINUOUS
 90
12
 70
0
 10
-20.0738321316
 20
9.399086798
 10
-20.0220872457
 20
9.4280750401
 10
-19.9374897875
 20
9.4687139013
 10
-19.8502568001
 20
9.5026390723
 10
-19.7606822816
 20
9.5298228776
 10
-19.6690036766
 20
9.5502749692
 10
-19.5755447101
 20
9.5639575838
 10
-19.4806510775
 20
9.570856174
 10
-19.3845978491
 20
9.5709922541
 10
-19.2877146335
 20
9.5643729215
 10
-19.1904062611
 20
9.5510490884
 10
-19.152323282
 20
9.5440355617
  0
LINE
  5
262
100
AcDbEntity
  8
ASSI
100
AcDbLine
 62
253
  6
CONTINUOUS
 10
-20.1863093702
 20
-16.003744269
 11
-20.4675147056
 21
-15.9482159388
  0
LINE
  5
263
100
AcDbEntity
  8
ASSI
100
AcDbLine
 62
7
  6
CONTINUOUS
 10
-20.4680614731
 20
-15.908299351
 11
-20.0894470571
 21
-15.9830626064
  0
LINE
  5
264
100
AcDbEntity
  8
DRAFT
100
AcDbLine
 62
7
  6
CONTINUOUS
 10
-13.0235037104
 20
-12.3366487845
 11
-13.0888682535
 21
-12.2523364354
  0
LINE
  5
265
100
AcDbEntity
  8
DRAFT
100
AcDbLine
 62
7
  6
CONTINUOUS
 10
-13.9521585919
 20
-12.0818664446
 11
-13.9521585919
 21
8.5171901064
  0
LINE
  5
266
100
AcDbEntity
  8
DRAFT
100
AcDbLine
 62
7
  6
CONTINUOUS
 10
-13.0888682535
 20
8.3467201155
 11
-13.0888682535
 21
-12.2523364354
  0
LINE
  5
267
100
AcDbEntity
  8
RACCORDO
100
AcDbLine
 62
253
  6
CONTINUOUS
 10
17.8770362605
 20
26.530960946
 11
22.5037943502
 21
29.292172752
  0
LINE
  5
268
100
AcDbEntity
  8
ASSI
100
AcDbLine
 62
7
  6
CONTINUOUS
 10
-20.1863093702
 20
3.7298007675
 11
-20.4494123252
 21
3.5739395596
  0
LINE
  5
269
100
AcDbEntity
  8
RACCORDO
100
AcDbLine
 62
253
  6
CONTINUOUS
 10
22.5037943502
 20
29.292172752
 11
41.7133363589
 21
40.5848077961
  0
LINE
  5
26A
100
AcDbEntity
  8
DRAFT
100
AcDbLine
 62
7
  6
CONTINUOUS
 10
-13.0888682535
 20
-12.2523364354
 11
-13.9521585919
 21
-12.0818664446
  0
LINE
  5
26B
100
AcDbEntity
  8
DRAFT
100
AcDbLine
 62
7
  6
CONTINUOUS
 10
-12.8692530112
 20
-12.2414752408
 11
-12.8692530112
 21
8.3033536991
  0
LINE
  5
26C
100
AcDbEntity
  8
0
100
AcDbLine
 62
7
  6
CONTINUOUS
 10
-11.4547395098
 20
-25.7975379399
 11
-11.4547395098
 21
-24.7403712265
  0
LINE
  5
26D
100
AcDbEntity
  8
RACCORDO
100
AcDbLine
 62
253
  6
CONTINUOUS
 10
-11.2047395098
 20
-22.1020867151
 11
-11.2047395098
 21
-24.5922721602
  0
LINE
  5
26E
100
AcDbEntity
  8
RACCORDO
100
AcDbLine
 62
7
  6
CONTINUOUS
 10
-11.0037776155
 20
-22.0351954669
 11
-11.0037776155
 21
-24.5095969296
  0
LINE
  5
26F
100
AcDbEntity
  8
RACCORDO
100
AcDbLine
 62
7
  6
CONTINUOUS
 10
-9.0587412346
 20
7.5509093838
 11
-9.0587412346
 21
-9.0594410382
  0
LINE
  5
270
100
AcDbEntity
  8
RACCORDO
100
AcDbLine
 62
7
  6
CONTINUOUS
 10
-8.9087412346
 20
7.5212895705
 11
-8.9087412346
 21
-8.9705815984
  0
LINE
  5
271
100
AcDbEntity
  8
RACCORDO
100
AcDbLine
 62
7
  6
CONTINUOUS
 10
-8.6401569475
 20
-25.7660002698
 11
-8.6401569475
 21
-26.3533206728
  0
LINE
  5
272
100
AcDbEntity
  8
RACCORDO
100
AcDbLine
 62
253
  6
CONTINUOUS
 10
19.1759699983
 20
24.864937579
 11
23.8027829925
 21
27.6261821515
  0
LINE
  5
273
100
AcDbEntity
  8
ASSI
100
AcDbLine
 62
7
  6
CONTINUOUS
 10
-20.4644967423
 20
2.6253109864
 11
-20.1863093702
 21
2.7901081467
  0
LINE
  5
274
100
AcDbEntity
  8
RACCORDO
100
AcDbLine
 62
253
  6
CONTINUOUS
 10
23.8027829925
 20
27.6261821515
 11
43.0123304289
 21
38.9188091945
  0
LINE
  5
275
100
AcDbEntity
  8
RACCORDO
100
AcDbLine
 62
7
  6
CONTINUOUS
 10
7.1500645549
 20
15.5279869788
 11
7.1506089157
 21
15.5282878457
  0
LWPOLYLINE
  5
276
100
AcDbEntity
  8
RACCORDO
100
AcDbPolyline
 62
7
  6
CONTINUOUS
 90
14
 70
0
 10
7.1500793593
 20
15.527994943
 10
7.1690735793
 20
15.5383782227
 10
7.2935863327
 20
15.6007882032
 10
7.4216345499
 20
15.6553589575
 10
7.5528277862
 20
15.701926536
 10
7.6868308435
 20
15.7403859183
 10
7.8233016895
 20
15.7706447925
 10
7.9618130514
 20
15.7926255638
 10
8.1020093855
 20
15.806290585
 10
8.2435277388
 20
15.8116241764
 10
8.3859126926
 20
15.8086362791
 10
8.5287617466
 20
15.7973707468
 10
8.6717399363
 20
15.7778903096
 10
8.7531876323
 20
15.7631353194
  0
LINE
  5
277
100
AcDbEntity
  8
RACCORDO
100
AcDbLine
 62
7
  6
CONTINUOUS
 10
-8.1927158308
 20
-10.1701437307
 11
-6.0388199951
 21
-10.5954636804
  0
LINE
  5
278
100
AcDbEntity
  8
RACCORDO
100
AcDbLine
 62
7
  6
CONTINUOUS
 10
-8.0427158308
 20
-10.0812842909
 11
-6.0388199861
 21
-10.4769844291
  0
LWPOLYLINE
  5
279
100
AcDbEntity
  8
RACCORDO
100
AcDbPolyline
 62
7
  6
CONTINUOUS
 90
17
 70
0
 10
-5.8521832707
 20
-25.493747481
 10
-5.8516439344
 20
-25.5269034358
 10
-5.8537960901
 20
-25.6309319644
 10
-5.8618826864
 20
-25.7336958365
 10
-5.8760013442
 20
-25.834757012
 10
-5.8961773863
 20
-25.9335738648
 10
-5.9223537986
 20
-26.0294771953
 10
-5.954475401
 20
-26.1220255536
 10
-5.992442822
 20
-26.2108189255
 10
-6.0360540897
 20
-26.2953017923
 10
-6.0851489373
 20
-26.3751114939
 10
-6.1395421666
 20
-26.4499596383
 10
-6.1989626083
 20
-26.5194736584
 10
-6.2631901924
 20
-26.5833979889
 10
-6.3320183098
 20
-26.6415603181
 10
-6.4052079332
 20
-26.693750489
 10
-6.4465243981
 20
-26.7194188091
  0
LINE
  5
27A
100
AcDbEntity
  8
RACCORDO
100
AcDbLine
 62
253
  6
CONTINUOUS
 10
-7.8901569475
 20
-26.5014197392
 11
-7.8901569475
 21
-26.2613956915
  0
LINE
  5
27B
100
AcDbEntity
  8
RACCORDO
100
AcDbLine
 62
7
  6
CONTINUOUS
 10
-7.8231696494
 20
-26.5146474143
 11
-7.8231696494
 21
-26.1758906557
  0
LINE
  5
27C
100
AcDbEntity
  8
0
100
AcDbLine
 62
7
  6
CONTINUOUS
 10
-7.4607373205
 20
43.2837403237
 11
-7.4768749078
 21
41.9377106437
  0
LINE
  5
27D
100
AcDbEntity
  8
RACCORDO
100
AcDbLine
 62
253
  6
CONTINUOUS
 10
-7.4607373205
 20
43.2837403238
 11
-7.4607378928
 21
43.283692524
  0
LINE
  5
27E
100
AcDbEntity
  8
0
100
AcDbLine
 62
7
  6
CONTINUOUS
 10
-5.283620328
 20
45.5326700615
 11
-5.2884609411
 21
45.1289164612
  0
LINE
  5
27F
100
AcDbEntity
  8
0
100
AcDbLine
 62
7
  6
CONTINUOUS
 10
-3.5128715549
 20
47.2528268828
 11
-3.518168097
 21
46.8110444276
  0
LINE
  5
280
100
AcDbEntity
  8
0
100
AcDbLine
 62
7
  6
CONTINUOUS
 10
7.2884466588
 20
15.0312530061
 11
8.2337036647
 21
15.8040453255
  0
LINE
  5
281
100
AcDbEntity
  8
0
100
AcDbLine
 62
7
  6
CONTINUOUS
 10
7.6976026437
 20
12.5030011052
 11
8.3317815605
 21
12.9446697994
  0
LINE
  5
282
100
AcDbEntity
  8
0
100
AcDbLine
 62
7
  6
CONTINUOUS
 10
10.13682248
 20
10.2230258324
 11
11.1109911238
 21
10.6169529821
  0
LINE
  5
283
100
AcDbEntity
  8
0
100
AcDbLine
 62
7
  6
CONTINUOUS
 10
-1.7428826634
 20
48.9096022841
 11
-1.7478752529
 21
48.493172394
  0
LINE
  5
284
100
AcDbEntity
  8
0
100
AcDbLine
 62
7
  6
CONTINUOUS
 10
10.2170379622
 20
12.512147032
 11
9.7268819109
 21
12.1022885673
  0
LINE
  5
285
100
AcDbEntity
  8
0
100
AcDbLine
 62
7
  6
CONTINUOUS
 10
-36.0128235304
 20
-27.1616449332
 11
-35.245245122
 21
-26.5341132726
  0
LINE
  5
286
100
AcDbEntity
  8
ASSI
100
AcDbLine
 62
253
  6
CONTINUOUS
 10
-20.1863093702
 20
3.7298007675
 11
-20.4458187167
 21
3.7810448901
  0
LINE
  5
287
100
AcDbEntity
  8
ASSI
100
AcDbLine
 62
7
  6
CONTINUOUS
 10
-20.4451303322
 20
3.8207175781
 11
-20.0894470571
 21
3.7504824301
  0
LINE
  5
288
100
AcDbEntity
  8
0
100
AcDbLine
 62
7
  6
CONTINUOUS
 10
2.5260852513
 20
50.4662326775
 11
2.5222379395
 21
50.1453299448
  0
LINE
  5
289
100
AcDbEntity
  8
0
100
AcDbLine
 62
7
  6
CONTINUOUS
 10
-33.084232227
 20
-29.6807509073
 11
-33.5743882783
 21
-30.090609372
  0
LINE
  5
28A
100
AcDbEntity
  8
0
100
AcDbLine
 62
7
  6
CONTINUOUS
 10
-35.6036675455
 20
-29.6898968341
 11
-34.9694886287
 21
-29.2482281399
  0
LINE
  5
28B
100
AcDbEntity
  8
DRAFT
100
AcDbLine
 62
7
  6
CONTINUOUS
 10
-10.2160942077
 20
-10.604461428
 11
-18.8922694141
 21
-15.9577100299
  0
LINE
  5
28C
100
AcDbEntity
  8
DRAFT
100
AcDbLine
 62
7
  6
CONTINUOUS
 10
-13.9521585919
 20
-12.0818664446
 11
-18.8922694141
 21
-15.0214764909
  0
LINE
  5
28D
100
AcDbEntity
  8
RACCORDO
100
AcDbLine
 62
253
  6
CONTINUOUS
 10
-9.0587412346
 20
-9.0594410382
 11
-8.9087412346
 21
-8.9705815984
  0
LINE
  5
28E
100
AcDbEntity
  8
ASSI
100
AcDbLine
 62
7
  6
CONTINUOUS
 10
-20.1863093702
 20
-16.003744269
 11
-20.4644967423
 21
-16.1685414293
  0
LINE
  5
28F
100
AcDbEntity
  8
ASSI
100
AcDbLine
 62
7
  6
CONTINUOUS
 10
-20.4494123252
 20
-17.0992980977
 11
-20.1863093702
 21
-16.9434368898
  0
LINE
  5
290
100
AcDbEntity
  8
RACCORDO
100
AcDbLine
 62
253
  6
CONTINUOUS
 10
-8.1927158308
 20
-10.1701437307
 11
-8.0427158308
 21
-10.0812842909
  0
LINE
  5
291
100
AcDbEntity
  8
0
100
AcDbLine
 62
7
  6
CONTINUOUS
 10
8.8889391162
 20
15.7315958726
 11
8.8889391162
 21
13.56844518
  0
LINE
  5
292
100
AcDbEntity
  8
0
100
AcDbLine
 62
7
  6
CONTINUOUS
 10
8.8889391162
 20
12.7155663127
 11
8.8889391162
 21
10.4806502897
  0
LINE
  5
293
100
AcDbEntity
  8
ASSI
100
AcDbLine
 62
7
  6
CONTINUOUS
 10
-20.3896790355
 20
-20.1462439694
 11
-20.3513728797
 21
-20.1235515457
  0
LINE
  5
294
100
AcDbEntity
  8
ASSI
100
AcDbLine
 62
7
  6
CONTINUOUS
 10
-20.3658527852
 20
-21.1831239871
 11
-20.0965341937
 21
-21.0235806593
  0
LINE
  5
295
100
AcDbEntity
  8
RACCORDO
100
AcDbLine
 62
253
  6
CONTINUOUS
 10
-20.3383507614
 20
-22.2957843185
 11
-20.5304910642
 21
-22.4096075163
  0
LINE
  5
296
100
AcDbEntity
  8
RACCORDO
100
AcDbLine
 62
253
  6
CONTINUOUS
 10
-20.7943216043
 20
-22.4763593333
 11
-20.5332004789
 21
-22.3217342465
  0
LWPOLYLINE
  5
297
100
AcDbEntity
  8
RACCORDO
100
AcDbPolyline
 62
7
  6
CONTINUOUS
 90
12
 70
0
 10
-36.3804261926
 20
-26.7915595361
 10
-36.2644965786
 20
-26.7323952592
 10
-36.1292995523
 20
-26.6748172139
 10
-35.9892957659
 20
-26.626816193
 10
-35.844950223
 20
-26.5885301308
 10
-35.6968737483
 20
-26.5600904621
 10
-35.5455639392
 20
-26.5415481381
 10
-35.3915429425
 20
-26.5329224234
 10
-35.2355110306
 20
-26.5341925072
 10
-35.0780739095
 20
-26.5452682041
 10
-34.9197116711
 20
-26.5660307338
 10
-34.8226939878
 20
-26.5834268033
  0
LINE
  5
298
100
AcDbEntity
  8
RACCORDO
100
AcDbLine
 62
7
  6
CONTINUOUS
 10
-19.1523467847
 20
9.5440474614
 11
-7.4610038339
 21
7.235411494
  0
LINE
  5
299
100
AcDbEntity
  8
RACCORDO
100
AcDbLine
 62
253
  6
CONTINUOUS
 10
-19.2440204839
 20
9.7645018808
 11
-7.5526775328
 21
7.4558659133
  0
LWPOLYLINE
  5
29A
100
AcDbEntity
  8
RACCORDO
100
AcDbPolyline
 62
7
  6
CONTINUOUS
 90
28
 70
0
 10
-7.4610084495
 20
7.2354073535
 10
-7.4257679856
 20
7.228013201
 10
-7.3261123229
 20
7.2024181371
 10
-7.2268844825
 20
7.1699863076
 10
-7.1285488586
 20
7.1308483975
 10
-7.0314849297
 20
7.0851676362
 10
-6.9360215178
 20
7.033086533
 10
-6.8425532456
 20
6.9748047984
 10
-6.7514754142
 20
6.9105788568
 10
-6.6631165314
 20
6.8406279337
 10
-6.5778531141
 20
6.7652328337
 10
-6.4960302848
 20
6.684718012
 10
-6.4179262257
 20
6.5993551489
 10
-6.3438698466
 20
6.5094875574
 10
-6.2741533439
 20
6.4154934917
 10
-6.2090030849
 20
6.3176813786
 10
-6.1486935662
 20
6.2164428877
 10
-6.0934595877
 20
6.112198403
 10
-6.0434769465
 20
6.0052877745
 10
-5.9989624313
 20
5.8961464968
 10
-5.9600852896
 20
5.7852230343
 10
-5.926962136
 20
5.6728728881
 10
-5.8997428703
 20
5.5595615255
 10
-5.8785330808
 20
5.4457489686
 10
-5.8633942273
 20
5.3317839427
 10
-5.8544033315
 20
5.2180962474
 10
-5.851599372
 20
5.105219084
 10
-5.8521911952
 20
5.0611320787
  0
LINE
  5
29B
100
AcDbEntity
  8
0
100
AcDbLine
 62
7
  6
CONTINUOUS
 10
10.725495994
 20
50.3679297144
 11
10.7216486822
 21
50.0470269817
  0
LINE
  5
29C
100
AcDbEntity
  8
RACCORDO
100
AcDbLine
 62
7
  6
CONTINUOUS
 10
-32.7988515583
 20
-32.3321525911
 11
-32.7995098865
 21
-32.3325697085
  0
LINE
  5
29D
100
AcDbEntity
  8
RACCORDO
100
AcDbLine
 62
253
  6
CONTINUOUS
 10
-19.0941641944
 20
-24.5543985508
 11
-18.8877522117
 21
-24.4320693622
  0
LINE
  5
29E
100
AcDbEntity
  8
0
100
AcDbLine
 62
7
  6
CONTINUOUS
 10
-19.8897699531
 20
-23.5466871659
 11
-18.8922694141
 21
-22.9557715718
  0
LINE
  5
29F
100
AcDbEntity
  8
RACCORDO
100
AcDbLine
 62
253
  6
CONTINUOUS
 10
-18.6449594154
 20
-24.3777181333
 11
-18.7744686858
 21
-24.4544389414
  0
LINE
  5
2A0
100
AcDbEntity
  8
RACCORDO
100
AcDbLine
 62
7
  6
CONTINUOUS
 10
-12.5037776155
 20
-21.8455716076
 11
-17.2448831036
 21
-24.6541847928
  0
LINE
  5
2A1
100
AcDbEntity
  8
ASSI
100
AcDbLine
 62
7
  6
CONTINUOUS
 10
-17.0515712405
 20
-24.6923572014
 11
-16.9104657524
 21
-24.6087668372
  0
LINE
  5
2A2
100
AcDbEntity
  8
ASSI
100
AcDbLine
 62
7
  6
CONTINUOUS
 10
-16.1391568609
 20
-24.8725274917
 11
-15.9980513729
 21
-24.7889371276
  0
LINE
  5
2A3
100
AcDbEntity
  8
RACCORDO
100
AcDbLine
 62
7
  6
CONTINUOUS
 10
-15.9458449979
 20
-24.9106999003
 11
-11.2047395098
 21
-22.1020867151
  0
LINE
  5
2A4
100
AcDbEntity
  8
0
100
AcDbLine
 62
7
  6
CONTINUOUS
 10
14.9559172638
 20
48.7093999079
 11
14.9509246743
 21
48.2929700179
  0
LINE
  5
2A5
100
AcDbEntity
  8
0
100
AcDbLine
 62
7
  6
CONTINUOUS
 10
16.6856768601
 20
47.0106659248
 11
16.6803803179
 21
46.5688834696
  0
LINE
  5
2A6
100
AcDbEntity
  8
0
100
AcDbLine
 62
7
  6
CONTINUOUS
 10
18.4146765747
 20
45.2485505217
 11
18.4098359616
 21
44.8447969214
  0
LINE
  5
2A7
100
AcDbEntity
  8
RACCORDO
100
AcDbLine
 62
253
  6
CONTINUOUS
 10
18.4146716096
 20
45.2481419954
 11
18.4146765747
 21
45.2485505219
  0
LINE
  5
2A8
100
AcDbEntity
  8
RACCORDO
100
AcDbLine
 62
253
  6
CONTINUOUS
 10
14.9559080314
 20
48.7086562416
 11
14.9559172638
 21
48.7093999082
  0
LINE
  5
2A9
100
AcDbEntity
  8
RACCORDO
100
AcDbLine
 62
253
  6
CONTINUOUS
 10
16.6856293363
 20
47.0071812997
 11
16.6856768601
 21
47.0106659253
  0
LINE
  5
2AA
100
AcDbEntity
  8
RACCORDO
100
AcDbLine
 62
7
  6
CONTINUOUS
 10
-11.2047395098
 20
-24.5922721602
 11
-11.4547395098
 21
-24.7403712265
  0
LINE
  5
2AB
100
AcDbEntity
  8
RACCORDO
100
AcDbLine
 62
253
  6
CONTINUOUS
 10
-8.8231696494
 20
-25.0625498572
 11
-9.0731696494
 21
-25.2106489236
  0
LINE
  5
2AC
100
AcDbEntity
  8
RACCORDO
100
AcDbLine
 62
253
  6
CONTINUOUS
 10
-8.3901569475
 20
-25.6179012035
 11
-8.6401569475
 21
-25.7660002698
  0
LINE
  5
2AD
100
AcDbEntity
  8
0
100
AcDbLine
 62
7
  6
CONTINUOUS
 10
-33.1644477093
 20
-31.9698721069
 11
-32.0867930506
 21
-31.5340980438
  0
LWPOLYLINE
  5
2AE
100
AcDbEntity
  8
RACCORDO
100
AcDbPolyline
 62
7
  6
CONTINUOUS
 90
48
 70
0
 10
8.7531748729
 20
15.7631377386
 10
8.8404879039
 20
15.7443670037
 10
8.9940156684
 20
15.7038990128
 10
9.1464692354
 20
15.6541674814
 10
9.2973621385
 20
15.5953461769
 10
9.4462588943
 20
15.5276199133
 10
9.5927850866
 20
15.4511693919
 10
9.7364904328
 20
15.3662331087
 10
9.876934782
 20
15.2730789903
 10
10.0137659069
 20
15.1719449684
 10
10.1465596823
 20
15.0631405642
 10
10.2749104683
 20
14.9470033695
 10
10.3984974433
 20
14.8238168845
 10
10.5169453393
 20
14.6939473123
 10
10.6298808238
 20
14.5577940757
 10
10.7370045115
 20
14.415708197
 10
10.837996764
 20
14.2680939249
 10
10.9325264746
 20
14.1154161067
 10
11.0203035584
 20
13.9581351233
 10
11.1010557583
 20
13.7967245084
 10
11.1745347609
 20
13.6316807342
 10
11.2405118673
 20
13.4635143183
 10
11.2987825666
 20
13.2927501898
 10
11.349181443
 20
13.1199084056
 10
11.3915560139
 20
12.9454979643
 10
11.4257864905
 20
12.7700622123
 10
11.4517791431
 20
12.5941382591
 10
11.4694548511
 20
12.4182306948
 10
11.4787749989
 20
12.2428943715
 10
11.4797241292
 20
12.0686608888
 10
11.4722920679
 20
11.8960009205
 10
11.4565163687
 20
11.7254685912
 10
11.4324572304
 20
11.5575686352
 10
11.4001558383
 20
11.3926959331
 10
11.3597081312
 20
11.2313601514
 10
11.3112382459
 20
11.0740630468
 10
11.2548348564
 20
10.9211858248
 10
11.1906384784
 20
10.7731665962
 10
11.1188434628
 20
10.6305191037
 10
11.0396555601
 20
10.4937098412
 10
10.9532973955
 20
10.36314614
 10
10.8600217406
 20
10.2392556283
 10
10.7601433011
 20
10.1224652125
 10
10.6539526419
 20
10.0131278625
 10
10.5417575494
 20
9.9115636769
 10
10.4239189283
 20
9.8181055361
 10
10.3007804443
 20
9.7330222333
 10
10.2877656478
 20
9.724716303
  0
LINE
  5
2AF
100
AcDbEntity
  8
0
100
AcDbLine
 62
7
  6
CONTINUOUS
 10
20.5372505813
 20
42.948071669
 11
20.5211129941
 21
41.6020419891
  0
LINE
  5
2B0
100
AcDbEntity
  8
RACCORDO
100
AcDbLine
 62
253
  6
CONTINUOUS
 10
-7.4029346804
 20
-26.8630121183
 11
-7.1964092606
 21
-26.7407053296
  0
LINE
  5
2B1
100
AcDbEntity
  8
RACCORDO
100
AcDbLine
 62
7
  6
CONTINUOUS
 10
-6.4453260972
 20
-26.7187139659
 11
-6.4465954356
 21
-26.7194651611
  0
LINE
  5
2B2
100
AcDbEntity
  8
RACCORDO
100
AcDbLine
 62
7
  6
CONTINUOUS
 10
23.8027829925
 20
27.6261821515
 11
23.8027829925
 21
-47.5493348532
  0
LINE
  5
2B3
100
AcDbEntity
  8
RACCORDO
100
AcDbLine
 62
7
  6
CONTINUOUS
 10
27.3483003206
 20
42.642854703
 11
27.3483003206
 21
42.8732333223
  0
LINE
  5
2B4
100
AcDbEntity
  8
RACCORDO
100
AcDbLine
 62
253
  6
CONTINUOUS
 10
15.3866878019
 20
20.8738935657
 11
-40.7151262939
 21
31.9520619585
  0
LINE
  5
2B5
100
AcDbEntity
  8
RACCORDO
100
AcDbLine
 62
253
  6
CONTINUOUS
 10
17.8770362605
 20
26.530960946
 11
-38.2769262225
 21
37.6194268378
  0
LINE
  5
2B6
100
AcDbEntity
  8
ASSI
100
AcDbLine
 62
7
  6
CONTINUOUS
 10
0.9335763341
 20
-40.9846149092
 11
0.8582669451
 21
-41.02922791
  0
LINE
  5
2B7
100
AcDbEntity
  8
ASSI
100
AcDbLine
 62
7
  6
CONTINUOUS
 10
1.4185748089
 20
-41.0803853376
 11
1.3432654199
 21
-41.1249983384
  0
LINE
  5
2B8
100
AcDbEntity
  8
RACCORDO
100
AcDbLine
 62
7
  6
CONTINUOUS
 10
22.5037943502
 20
29.292172752
 11
-33.7879558226
 21
40.4078469447
  0
LINE
  5
2B9
100
AcDbEntity
  8
ASSI
100
AcDbLine
 62
7
  6
CONTINUOUS
 10
2.4907497658
 20
-41.2921028178
 11
2.4154403768
 21
-41.3367158185
  0
LINE
  5
2BA
100
AcDbEntity
  8
ASSI
100
AcDbLine
 62
7
  6
CONTINUOUS
 10
2.9757482407
 20
-41.3878732462
 11
2.9004388517
 21
-41.432486247
  0
LINE
  5
2BB
100
AcDbEntity
  8
ASSI
100
AcDbLine
 62
7
  6
CONTINUOUS
 10
3.299074495
 20
-41.4517190014
 11
3.2237651061
 21
-41.4963320022
  0
LINE
  5
2BC
100
AcDbEntity
  8
ASSI
100
AcDbLine
 62
7
  6
CONTINUOUS
 10
3.7840669077
 20
-41.5474882327
 11
3.7087575187
 21
-41.5921012335
  0
LINE
  5
2BD
100
AcDbEntity
  8
ASSI
100
AcDbLine
 62
7
  6
CONTINUOUS
 10
4.2690411338
 20
-41.6432538729
 11
4.1937317448
 21
-41.6878668736
  0
LINE
  5
2BE
100
AcDbEntity
  8
ASSI
100
AcDbLine
 62
7
  6
CONTINUOUS
 10
5.0022191067
 20
-41.7880311705
 11
4.9269097177
 21
-41.8326441713
  0
LINE
  5
2BF
100
AcDbEntity
  8
ASSI
100
AcDbLine
 62
7
  6
CONTINUOUS
 10
2.2548005377
 20
-43.8312442895
 11
2.3301674183
 21
-43.7865972309
  0
LINE
  5
2C0
100
AcDbEntity
  8
ASSI
100
AcDbLine
 62
7
  6
CONTINUOUS
 10
5.9078963496
 20
-41.9668711093
 11
5.8325869606
 21
-42.0114841101
  0
LINE
  5
2C1
100
AcDbEntity
  8
ASSI
100
AcDbLine
 62
7
  6
CONTINUOUS
 10
6.6410743225
 20
-42.111648407
 11
6.5657649335
 21
-42.1562614078
  0
LINE
  5
2C2
100
AcDbEntity
  8
ASSI
100
AcDbLine
 62
7
  6
CONTINUOUS
 10
3.8416968273
 20
-44.1446014347
 11
3.9170637079
 21
-44.0999543761
  0
LINE
  5
2C3
100
AcDbEntity
  8
ASSI
100
AcDbLine
 62
7
  6
CONTINUOUS
 10
7.742971819
 20
-42.3292287345
 11
7.6676624301
 21
-42.3738417352
  0
LINE
  5
2C4
100
AcDbEntity
  8
ASSI
100
AcDbLine
 62
7
  6
CONTINUOUS
 10
4.8116695283
 20
-44.3361375033
 11
4.8870364089
 21
-44.2914904447
  0
LINE
  5
2C5
100
AcDbEntity
  8
ASSI
100
AcDbLine
 62
7
  6
CONTINUOUS
 10
8.2279884803
 20
-42.4250027542
 11
8.1526790915
 21
-42.4696157549
  0
LWPOLYLINE
  5
2C6
100
AcDbEntity
  8
RACCORDO
100
AcDbPolyline
 62
7
  6
CONTINUOUS
 90
49
 70
0
 10
43.1419746236
 20
39.0872377921
 10
43.1417209798
 20
39.114913884
 10
43.1402366037
 20
39.1597712384
 10
43.1374241193
 20
39.2046712935
 10
43.1332808945
 20
39.2496002674
 10
43.1278074681
 20
39.2945139196
 10
43.1210105305
 20
39.3393354672
 10
43.1128920678
 20
39.3840431303
 10
43.1034545145
 20
39.4286073118
 10
43.0927136218
 20
39.4729426477
 10
43.0806741992
 20
39.5170287062
 10
43.0673407138
 20
39.5608391458
 10
43.0527393532
 20
39.6042845002
 10
43.0368778156
 20
39.6473440339
 10
43.0197619752
 20
39.6899955738
 10
43.0014266822
 20
39.7321525632
 10
42.9818809339
 20
39.7737958353
 10
42.9611326925
 20
39.8149050011
 10
42.9392245385
 20
39.8553965835
 10
42.9161670947
 20
39.8952518859
 10
42.8919701918
 20
39.934452697
 10
42.8666822878
 20
39.9729204059
 10
42.84031545
 20
40.0106379334
 10
42.8128816252
 20
40.0475873883
 10
42.7844362991
 20
40.0836933371
 10
42.7549944892
 20
40.1189393092
 10
42.7245694948
 20
40.1533084542
 10
42.6932232219
 20
40.1867309708
 10
42.6609734917
 20
40.2191912567
 10
42.6278357582
 20
40.2506730665
 10
42.5938782865
 20
40.2811134459
 10
42.5591242103
 20
40.3104956857
 10
42.5235898546
 20
40.3388068244
 10
42.487342138
 20
40.3659968641
 10
42.4504069097
 20
40.3920503136
 10
42.4128041383
 20
40.4169553362
 10
42.3745990237
 20
40.4406726974
 10
42.3358186468
 20
40.4631895232
 10
42.2964884452
 20
40.484494498
 10
42.2566774825
 20
40.5045548811
 10
42.2164203717
 20
40.5233585898
 10
42.1757429498
 20
40.5408992183
 10
42.1347068355
 20
40.5571559553
 10
42.0933478671
 20
40.5721207681
 10
42.0516958531
 20
40.5857893793
 10
42.0098083927
 20
40.5981493495
 10
41.9677303282
 20
40.6091950341
 10
41.9254934498
 20
40.6189266945
 10
41.9027112654
 20
40.623619374
  0
LINE
  5
2C7
100
AcDbEntity
  8
RACCORDO
100
AcDbLine
 62
253
  6
CONTINUOUS
 10
43.0123304289
 20
38.9188091945
 11
43.0123304289
 21
-35.6169071515
  0
LINE
  5
2C8
100
AcDbEntity
  8
RACCORDO
100
AcDbLine
 62
7
  6
CONTINUOUS
 10
43.141974733
 20
39.0872349005
 11
43.141974733
 21
-35.4484942646
  0
LINE
  5
2C9
100
AcDbEntity
  8
ASSI
100
AcDbLine
 62
7
  6
CONTINUOUS
 10
5.7551804765
 20
-44.5224419865
 11
5.8305473569
 21
-44.477794928
  0
LINE
  5
2CA
100
AcDbEntity
  8
ASSI
100
AcDbLine
 62
7
  6
CONTINUOUS
 10
9.3298984195
 20
-42.6425918651
 11
9.2545890307
 21
-42.6872048658
  0
LINE
  5
2CB
100
AcDbEntity
  8
ASSI
100
AcDbLine
 62
7
  6
CONTINUOUS
 10
7.7553266554
 20
-43.9416774527
 11
7.830670714
 21
-43.8970439138
  0
LINE
  5
2CC
100
AcDbEntity
  8
ASSI
100
AcDbLine
 62
7
  6
CONTINUOUS
 10
6.6987103043
 20
-44.7087628061
 11
6.7740771849
 21
-44.6641157475
  0
LINE
  5
2CD
100
AcDbEntity
  8
ASSI
100
AcDbLine
 62
7
  6
CONTINUOUS
 10
10.4655868135
 20
-42.8668510529
 11
10.3902773111
 21
-42.9114641209
  0
LINE
  5
2CE
100
AcDbEntity
  8
ASSI
100
AcDbLine
 62
7
  6
CONTINUOUS
 10
7.5070286248
 20
-44.8683714201
 11
7.5823955052
 21
-44.8237243616
  0
LINE
  5
2CF
100
AcDbEntity
  8
ASSI
100
AcDbLine
 62
7
  6
CONTINUOUS
 10
9.8637912704
 20
-43.8311973975
 11
9.7884578669
 21
-43.8758246244
  0
LINE
  5
2D0
100
AcDbEntity
  8
ASSI
100
AcDbLine
 62
7
  6
CONTINUOUS
 10
10.4538516171
 20
-43.9477139127
 11
10.3785183079
 21
-43.9923410837
  0
LINE
  5
2D1
100
AcDbEntity
  8
ASSI
100
AcDbLine
 62
7
  6
CONTINUOUS
 10
9.0642084652
 20
-45.1758668983
 11
9.1395753458
 21
-45.1312198397
  0
LINE
  5
2D2
100
AcDbEntity
  8
ASSI
100
AcDbLine
 62
7
  6
CONTINUOUS
 10
9.8725328479
 20
-45.3354767093
 11
9.9478997283
 21
-45.2908296508
  0
LINE
  5
2D3
100
AcDbEntity
  8
ASSI
100
AcDbLine
 62
7
  6
CONTINUOUS
 10
11.3281705167
 20
-45.6229085115
 11
11.403537397
 21
-45.5782614531
  0
LWPOLYLINE
  5
2D4
100
AcDbEntity
  8
RACCORDO
100
AcDbPolyline
 62
7
  6
CONTINUOUS
 90
24
 70
0
 10
-13.7994253398
 20
51.6228652215
 10
-13.824738668
 20
51.6276253958
 10
-13.8680071883
 20
51.6346672033
 10
-13.9113292522
 20
51.6403449583
 10
-13.9546538259
 20
51.644658322
 10
-13.997947262
 20
51.6476116978
 10
-14.0411890567
 20
51.6492099486
 10
-14.0843374896
 20
51.6494566274
 10
-14.1273506453
 20
51.6483576957
 10
-14.1702052751
 20
51.645919019
 10
-14.2128561865
 20
51.6421473936
 10
-14.2552626565
 20
51.6370519158
 10
-14.2974060265
 20
51.6306396613
 10
-14.3392420212
 20
51.6229209201
 10
-14.380729096
 20
51.6139078163
 10
-14.4218508424
 20
51.6036081364
 10
-14.462564419
 20
51.5920354922
 10
-14.5028275126
 20
51.5792052412
 10
-14.5426231662
 20
51.5651264005
 10
-14.5819090571
 20
51.5498165681
 10
-14.6206444255
 20
51.5332943785
 10
-14.6588136605
 20
51.515569267
 10
-14.6963844526
 20
51.4966580634
 10
-14.7335898494
 20
51.4764281976
  0
LINE
  5
2D5
100
AcDbEntity
  8
DRAFT
100
AcDbLine
 62
7
  6
CONTINUOUS
 10
24.3483003206
 20
42.076775795
 11
28.6784273395
 21
41.2217254367
  0
LINE
  5
2D6
100
AcDbEntity
  8
RACCORDO
100
AcDbLine
 62
253
  6
CONTINUOUS
 10
26.8483003206
 20
42.6619701737
 11
30.0732728118
 21
42.0251496204
  0
LINE
  5
2D7
100
AcDbEntity
  8
RACCORDO
100
AcDbLine
 62
7
  6
CONTINUOUS
 10
27.0420249468
 20
42.7033334989
 11
30.1762092074
 21
42.0844404818
  0
LINE
  5
2D8
100
AcDbEntity
  8
RACCORDO
100
AcDbLine
 62
253
  6
CONTINUOUS
 10
-13.9887703374
 20
51.584047791
 11
-1.8286823431
 21
49.1828508859
  0
LINE
  5
2D9
100
AcDbEntity
  8
RACCORDO
100
AcDbLine
 62
253
  6
CONTINUOUS
 10
19.651765883
 20
44.9412051161
 11
26.8526635883
 21
43.5192768132
  0
LINE
  5
2DA
100
AcDbEntity
  8
RACCORDO
100
AcDbLine
 62
253
  6
CONTINUOUS
 10
31.1827906073
 20
42.6642264549
 11
41.7133363589
 21
40.5848077961
  0
LINE
  5
2DB
100
AcDbEntity
  8
RACCORDO
100
AcDbLine
 62
7
  6
CONTINUOUS
 10
-13.799415365
 20
51.6228633744
 11
-1.7176933864
 21
49.2371410476
  0
LINE
  5
2DC
100
AcDbEntity
  8
RACCORDO
100
AcDbLine
 62
7
  6
CONTINUOUS
 10
19.5593453876
 20
45.035661611
 11
27.0420249468
 21
43.5580911356
  0
LINE
  5
2DD
100
AcDbEntity
  8
RACCORDO
100
AcDbLine
 62
7
  6
CONTINUOUS
 10
31.3721519657
 20
42.7030407773
 11
41.9027031453
 21
40.6236210466
  0
LWPOLYLINE
  5
2DE
100
AcDbEntity
  8
RACCORDO
100
AcDbPolyline
 62
7
  6
CONTINUOUS
 90
36
 70
0
 10
42.4973639442
 20
-36.6390413933
 10
42.5290818175
 20
-36.6187140883
 10
42.5619286479
 20
-36.5962897953
 10
42.5940976495
 20
-36.5728899553
 10
42.625565101
 20
-36.5485320951
 10
42.6563212712
 20
-36.5232224545
 10
42.6863352549
 20
-36.4969835862
 10
42.7155773244
 20
-36.4698394533
 10
42.7440383455
 20
-36.4417962788
 10
42.7716900376
 20
-36.4128779025
 10
42.7985035385
 20
-36.3831104561
 10
42.8244680969
 20
-36.3525018217
 10
42.8495571817
 20
-36.3210781676
 10
42.8737445937
 20
-36.288866801
 10
42.8970194386
 20
-36.2558754964
 10
42.919358355
 20
-36.2221302182
 10
42.9407363726
 20
-36.1876610908
 10
42.9611399405
 20
-36.1524804258
 10
42.9805488001
 20
-36.1166132146
 10
42.9989397094
 20
-36.0800925223
 10
43.0162953254
 20
-36.042941195
 10
43.0325966435
 20
-36.0051880732
 10
43.0478256143
 20
-35.966864037
 10
43.0619672368
 20
-35.9279930231
 10
43.0750059113
 20
-35.8886017562
 10
43.0869257369
 20
-35.8487233158
 10
43.0977121241
 20
-35.8083887194
 10
43.1073520605
 20
-35.7676251466
 10
43.1158330741
 20
-35.7264648621
 10
43.1231426532
 20
-35.6849439013
 10
43.1292701753
 20
-35.6430907851
 10
43.1342063579
 20
-35.6009339037
 10
43.1379416568
 20
-35.5585062086
 10
43.1404673226
 20
-35.5158365347
 10
43.141776097
 20
-35.4729547127
 10
43.1419746709
 20
-35.4484979007
  0
LINE
  5
2DF
100
AcDbEntity
  8
RACCORDO
100
AcDbLine
 62
253
  6
CONTINUOUS
 10
23.8027829925
 20
-47.5493348532
 11
43.0123304289
 21
-35.6169071515
  0
LINE
  5
2E0
100
AcDbEntity
  8
RACCORDO
100
AcDbLine
 62
7
  6
CONTINUOUS
 10
23.2861553189
 20
-48.5724953712
 11
42.4974264674
 21
-36.6390028382
  0
LINE
  5
2E1
100
AcDbEntity
  8
RACCORDO
100
AcDbLine
 62
253
  6
CONTINUOUS
 10
23.8027829925
 20
-47.5493348532
 11
19.1759699983
 21
-50.1610692528
  0
LINE
  5
2E2
100
AcDbEntity
  8
RACCORDO
100
AcDbLine
 62
7
  6
CONTINUOUS
 10
18.6204530109
 20
-51.207185431
 11
23.2502854801
 21
-48.5937467434
  0
ARC
  5
2E3
100
AcDbEntity
  8
0
100
AcDbCircle
 62
7
  6
CONTINUOUS
 10
44.7300451349
 20
-388.5440971052
 40
368.0396482122
100
AcDbArc
 50
102.5129720834
 51
102.668951742
  0
ARC
  5
2E4
100
AcDbEntity
  8
0
100
AcDbCircle
 62
7
  6
CONTINUOUS
 10
88.0313153238
 20
-346.3511991644
 40
368.0396482107
100
AcDbArc
 50
102.5129720834
 51
102.668951742
  0
ARC
  5
2E5
100
AcDbEntity
  8
0
100
AcDbCircle
 62
7
  6
CONTINUOUS
 10
-25.9384200278
 20
-81.7489612024
 40
53.7049541564
100
AcDbArc
 50
99.6594968938
 51
99.8576343914
  0
ARC
  5
2E6
100
AcDbEntity
  8
0
100
AcDbCircle
 62
7
  6
CONTINUOUS
 10
-16.0685674515
 20
-21.9979835892
 40
19.7751278016
100
AcDbArc
 50
202.462142694
 51
202.5961156725
  0
ARC
  5
2E7
100
AcDbEntity
  8
0
100
AcDbCircle
 62
7
  6
CONTINUOUS
 10
-23.0075310139
 20
-34.176759726
 40
12.6442164789
100
AcDbArc
 50
153.5244600375
 51
153.7051137214
  0
ARC
  5
2E8
100
AcDbEntity
  8
0
100
AcDbCircle
 62
7
  6
CONTINUOUS
 10
-44.7779006463
 20
-24.1302367465
 40
12.6442164774
100
AcDbArc
 50
333.5244600375
 51
333.7051137214
  0
ARC
  5
2E9
100
AcDbEntity
  8
0
100
AcDbCircle
 62
7
  6
CONTINUOUS
 10
-36.9258850981
 20
-19.256214329
 40
11.0394345434
100
AcDbArc
 50
288.3959854296
 51
288.5937637341
  0
ARC
  5
2EA
100
AcDbEntity
  8
TRASH
100
AcDbCircle
 62
7
  6
CONTINUOUS
 10
-35.4967572831
 20
-39.9359036294
 40
10.700673843
100
AcDbArc
 50
87.1756445042
 51
87.390856329
  0
ARC
  5
2EB
100
AcDbEntity
  8
0
100
AcDbCircle
 62
7
  6
CONTINUOUS
 10
-28.3311057576
 20
-22.949830393
 40
9.9155761602
100
AcDbArc
 50
222.7002235171
 51
222.8237442693
  0
ARC
  5
2EC
100
AcDbEntity
  8
0
100
AcDbCircle
 62
7
  6
CONTINUOUS
 10
-31.2674630626
 20
-38.3109230416
 40
8.8552514155
100
AcDbArc
 50
101.8607832011
 51
101.9818576581
  0
ARC
  5
2ED
100
AcDbEntity
  8
0
100
AcDbCircle
 62
7
  6
CONTINUOUS
 10
-31.7022305634
 20
-22.3330595935
 40
8.3202677825
100
AcDbArc
 50
238.9998661962
 51
241.9234159879
  0
ARC
  5
2EE
100
AcDbEntity
  8
0
100
AcDbCircle
 62
7
  6
CONTINUOUS
 10
-28.4864750512
 20
-27.0718044586
 40
7.311277604
100
AcDbArc
 50
204.1519341916
 51
204.6265285405
  0
ARC
  5
2EF
100
AcDbEntity
  8
0
100
AcDbCircle
 62
7
  6
CONTINUOUS
 10
-28.7424451965
 20
-32.2358151877
 40
7.2379933432
100
AcDbArc
 50
151.9920557969
 51
152.4165690002
  0
ARC
  5
2F0
100
AcDbEntity
  8
0
100
AcDbCircle
 62
7
  6
CONTINUOUS
 10
-31.8890211154
 20
-35.4497498054
 40
5.9276914594
100
AcDbArc
 50
104.826682461
 51
105.0944921462
  0
ARC
  5
2F1
100
AcDbEntity
  8
0
100
AcDbCircle
 62
7
  6
CONTINUOUS
 10
-40.0064385814
 20
-28.6100656815
 40
5.6609353498
100
AcDbArc
 50
350.8849641846
 51
351.1874738739
  0
ARC
  5
2F2
100
AcDbEntity
  8
0
100
AcDbCircle
 62
7
  6
CONTINUOUS
 10
-38.9671661964
 20
-28.8152843729
 40
5.660892932
100
AcDbArc
 50
350.8849685496
 51
351.1874749695
  0
ARC
  5
2F3
100
AcDbEntity
  8
0
100
AcDbCircle
 62
7
  6
CONTINUOUS
 10
-35.9694795684
 20
-32.4183776397
 40
3.2995499357
100
AcDbArc
 50
60.3704199842
 51
61.1926378564
  0
ARC
  5
2F4
100
AcDbEntity
  8
0
100
AcDbCircle
 62
7
  6
CONTINUOUS
 10
-37.4581992004
 20
-29.2028672754
 40
3.1003025662
100
AcDbArc
 50
10.7525125473
 51
11.2044237611
  0
ARC
  5
2F5
100
AcDbEntity
  8
RACCORDO
100
AcDbCircle
 62
253
  6
CONTINUOUS
 10
-35.4865676752
 20
-29.4013092153
 40
3.0310134636
100
AcDbArc
 50
78.8220046245
 51
81.6822115999
  0
ARC
  5
2F6
100
AcDbEntity
  8
0
100
AcDbCircle
 62
7
  6
CONTINUOUS
 10
-37.2217699566
 20
-30.361155574
 40
2.9954006773
100
AcDbArc
 50
14.7952158191
 51
15.7063845548
  0
ARC
  5
2F7
100
AcDbEntity
  8
RACCORDO
100
AcDbCircle
 62
253
  6
CONTINUOUS
 10
-35.4746960673
 20
-29.3222446789
 40
2.951063242
100
AcDbArc
 50
81.6882106214
 51
83.1904493015
  0
ARC
  5
2F8
100
AcDbEntity
  8
0
100
AcDbCircle
 62
7
  6
CONTINUOUS
 10
-36.8818232197
 20
-27.6102557162
 40
2.7198990329
100
AcDbArc
 50
339.2584943965
 51
339.7637957787
  0
ARC
  5
2F9
100
AcDbEntity
  8
0
100
AcDbCircle
 62
7
  6
CONTINUOUS
 10
-36.8036584686
 20
-27.6388323074
 40
2.6366746481
100
AcDbArc
 50
339.758932438
 51
340.0198599604
  0
ARC
  5
2FA
100
AcDbEntity
  8
RACCORDO
100
AcDbCircle
 62
7
  6
CONTINUOUS
 10
-6.8792697905
 20
-25.4844110842
 40
1.2833200528
100
AcDbArc
 50
288.6540731306
 51
293.2075141846
  0
ARC
  5
2FB
100
AcDbEntity
  8
RACCORDO
100
AcDbCircle
 62
7
  6
CONTINUOUS
 10
-6.8737462589
 20
-25.4975800795
 40
1.269040033
100
AcDbArc
 50
293.2126078349
 51
294.7643146593
  0
ARC
  5
2FC
100
AcDbEntity
  8
TRASH
100
AcDbCircle
 62
7
  6
CONTINUOUS
 10
-33.9373742649
 20
-29.0096974323
 40
1.0533214468
100
AcDbArc
 50
169.2853370411
 51
171.1245070703
  0
ARC
  5
2FD
100
AcDbEntity
  8
0
100
AcDbCircle
 62
7
  6
CONTINUOUS
 10
-33.6255401403
 20
-28.9952751859
 40
0.9227233518
100
AcDbArc
 50
211.4952528836
 51
215.2001154132
  0
ARC
  5
2FE
100
AcDbEntity
  8
0
100
AcDbCircle
 62
7
  6
CONTINUOUS
 10
-34.0045639917
 20
-28.9539486166
 40
0.5242532905
100
AcDbArc
 50
137.4652591723
 51
141.0600838908
  0
ARC
  5
2FF
100
AcDbEntity
  8
0
100
AcDbCircle
 62
7
  6
CONTINUOUS
 10
-33.7802426351
 20
-29.353577693
 40
0.5234341297
100
AcDbArc
 50
316.560381983
 51
321.0621935481
  0
ARC
  5
300
100
AcDbEntity
  8
0
100
AcDbCircle
 62
7
  6
CONTINUOUS
 10
-34.0092816119
 20
-28.9496385865
 40
0.5178632891
100
AcDbArc
 50
135.6407125178
 51
137.4637804838
  0
ARC
  5
301
100
AcDbEntity
  8
0
100
AcDbCircle
 62
7
  6
CONTINUOUS
 10
-33.7752741564
 20
-29.3582008779
 40
0.5166476692
100
AcDbArc
 50
315.6396399531
 51
316.5537964406
  0
ARC
  5
302
100
AcDbEntity
  8
0
100
AcDbCircle
 62
7
  6
CONTINUOUS
 10
-27.5209455511
 20
-11.7534981514
 40
18.7036789172
100
AcDbArc
 50
251.1712761214
 51
252.6726192261
  0
ARC
  5
303
100
AcDbEntity
  8
0
100
AcDbCircle
 62
7
  6
CONTINUOUS
 10
-35.1641697132
 20
-11.0756546136
 40
17.9795516841
100
AcDbArc
 50
267.3754209036
 51
268.5524271764
  0
ARC
  5
304
100
AcDbEntity
  8
0
100
AcDbCircle
 62
7
  6
CONTINUOUS
 10
-23.8116755985
 20
-15.0770627249
 40
17.9020988963
100
AcDbArc
 50
233.8206961613
 51
233.9638565768
  0
ARC
  5
305
100
AcDbEntity
  8
0
100
AcDbCircle
 62
7
  6
CONTINUOUS
 10
-34.9102488371
 20
-13.2996768714
 40
16.8357993349
100
AcDbArc
 50
274.6098526711
 51
276.2016639261
  0
ARC
  5
306
100
AcDbEntity
  8
0
100
AcDbCircle
 62
7
  6
CONTINUOUS
 10
-1.4766304579
 20
18.0626611932
 40
12.6442164784
100
AcDbArc
 50
333.5244600375
 51
333.7051137214
  0
ARC
  5
307
100
AcDbEntity
  8
RACCORDO
100
AcDbCircle
 62
253
  6
CONTINUOUS
 10
-1.7241117292
 20
40.4208404486
 40
6.695330452
100
AcDbArc
 50
120.5880611834
 51
120.9791282016
  0
ARC
  5
308
100
AcDbEntity
  8
RACCORDO
100
AcDbCircle
 62
253
  6
CONTINUOUS
 10
-1.8318227856
 20
40.6000959972
 40
6.4862031776
100
AcDbArc
 50
120.978429084
 51
121.5154728464
  0
ARC
  5
309
100
AcDbEntity
  8
RACCORDO
100
AcDbCircle
 62
7
  6
CONTINUOUS
 10
-18.39206383
 20
8.8536721304
 40
1.9468871142
100
AcDbArc
 50
174.6212828584
 51
178.577277459
  0
ARC
  5
30A
100
AcDbEntity
  8
RACCORDO
100
AcDbCircle
 62
7
  6
CONTINUOUS
 10
-3.3822983515
 20
45.3794066127
 40
1.9264568555
100
AcDbArc
 50
149.4183283355
 51
155.2953719073
  0
ARC
  5
30B
100
AcDbEntity
  8
RACCORDO
100
AcDbCircle
 62
7
  6
CONTINUOUS
 10
-19.0203280922
 20
8.3040351813
 40
1.5011795219
100
AcDbArc
 50
153.4816866877
 51
157.5710243561
  0
ARC
  5
30C
100
AcDbEntity
  8
RACCORDO
100
AcDbCircle
 62
7
  6
CONTINUOUS
 10
-2.058700304
 20
47.2118550594
 40
1.4565899335
100
AcDbArc
 50
159.5945130784
 51
166.0651842244
  0
ARC
  5
30D
100
AcDbEntity
  8
RACCORDO
100
AcDbCircle
 62
253
  6
CONTINUOUS
 10
-3.8456525123
 20
45.5543218789
 40
1.4410079135
100
AcDbArc
 50
196.4134824053
 51
200.2546801609
  0
ARC
  5
30E
100
AcDbEntity
  8
RACCORDO
100
AcDbCircle
 62
7
  6
CONTINUOUS
 10
-19.1952742087
 20
8.4214902212
 40
1.2892625715
100
AcDbArc
 50
131.600618931
 51
136.132288917
  0
ARC
  5
30F
100
AcDbEntity
  8
RACCORDO
100
AcDbCircle
 62
7
  6
CONTINUOUS
 10
-19.2073117986
 20
8.4346462281
 40
1.2714324883
100
AcDbArc
 50
126.5105574566
 51
131.588592428
  0
ARC
  5
310
100
AcDbEntity
  8
0
100
AcDbCircle
 62
7
  6
CONTINUOUS
 10
17.3628501612
 20
-39.556063262
 40
53.7049541553
100
AcDbArc
 50
99.6594968938
 51
99.8576343914
  0
ARC
  5
311
100
AcDbEntity
  8
RACCORDO
100
AcDbCircle
 62
253
  6
CONTINUOUS
 10
41.9717057812
 20
-35.7926915463
 40
0.996305041
100
AcDbArc
 50
301.8479783758
 51
303.4529001861
  0
ARC
  5
312
100
AcDbEntity
  8
ASSI
100
AcDbCircle
 62
7
  6
CONTINUOUS
 10
10.5099784335
 20
-43.6642466439
 40
0.2889704283
100
AcDbArc
 50
258.8027367701
 51
264.4375502534
  0
ARC
  5
313
100
AcDbEntity
  8
0
100
AcDbCircle
 62
7
  6
CONTINUOUS
 10
6.3753850914
 20
22.9366836093
 40
11.0394345423
100
AcDbArc
 50
288.3959854296
 51
288.5937637341
  0
ARC
  5
314
100
AcDbEntity
  8
TRASH
100
AcDbCircle
 62
7
  6
CONTINUOUS
 10
7.8045129061
 20
2.2569943099
 40
10.7006738429
100
AcDbArc
 50
87.1756445042
 51
87.390856329
  0
ARC
  5
315
100
AcDbEntity
  8
0
100
AcDbCircle
 62
7
  6
CONTINUOUS
 10
12.0338071262
 20
3.8819748995
 40
8.8552514136
100
AcDbArc
 50
101.8607832011
 51
101.9818576581
  0
ARC
  5
316
100
AcDbEntity
  8
0
100
AcDbCircle
 62
7
  6
CONTINUOUS
 10
11.5990396258
 20
19.8598383459
 40
8.3202677825
100
AcDbArc
 50
238.9998661962
 51
241.9234159879
  0
ARC
  5
317
100
AcDbEntity
  8
0
100
AcDbCircle
 62
7
  6
CONTINUOUS
 10
11.4122490738
 20
6.7431481338
 40
5.9276914594
100
AcDbArc
 50
104.826682461
 51
105.0944921463
  0
ARC
  5
318
100
AcDbEntity
  8
0
100
AcDbCircle
 62
7
  6
CONTINUOUS
 10
3.2948316084
 20
13.5828322577
 40
5.6609353492
100
AcDbArc
 50
350.8849641846
 51
351.1874738739
  0
ARC
  5
319
100
AcDbEntity
  8
0
100
AcDbCircle
 62
7
  6
CONTINUOUS
 10
4.334103993
 20
13.3776135663
 40
5.6608929318
100
AcDbArc
 50
350.8849685496
 51
351.1874749696
  0
ARC
  5
31A
100
AcDbEntity
  8
0
100
AcDbCircle
 62
7
  6
CONTINUOUS
 10
7.3317906207
 20
9.7745202994
 40
3.2995499358
100
AcDbArc
 50
60.3704199842
 51
61.1926378564
  0
ARC
  5
31B
100
AcDbEntity
  8
0
100
AcDbCircle
 62
7
  6
CONTINUOUS
 10
5.8430709891
 20
12.9900306639
 40
3.1003025659
100
AcDbArc
 50
10.7525125473
 51
11.2044237611
  0
ARC
  5
31C
100
AcDbEntity
  8
0
100
AcDbCircle
 62
7
  6
CONTINUOUS
 10
6.0795002325
 20
11.8317423653
 40
2.9954006774
100
AcDbArc
 50
14.7952158191
 51
15.7063845548
  0
ARC
  5
31D
100
AcDbEntity
  8
0
100
AcDbCircle
 62
7
  6
CONTINUOUS
 10
6.4194469699
 20
14.582642223
 40
2.7198990324
100
AcDbArc
 50
339.2584943965
 51
339.7637957788
  0
ARC
  5
31E
100
AcDbEntity
  8
0
100
AcDbCircle
 62
7
  6
CONTINUOUS
 10
6.4976117214
 20
14.5540656316
 40
2.6366746473
100
AcDbArc
 50
339.758932438
 51
340.0198599605
  0
ARC
  5
31F
100
AcDbEntity
  8
0
100
AcDbCircle
 62
7
  6
CONTINUOUS
 10
9.5043740882
 20
14.2499000728
 40
2.0074778363
100
AcDbArc
 50
128.9232990143
 51
129.2681974219
  0
ARC
  5
320
100
AcDbEntity
  8
TRASH
100
AcDbCircle
 62
7
  6
CONTINUOUS
 10
9.3638959243
 20
13.183200507
 40
1.0533214468
100
AcDbArc
 50
169.2853370411
 51
171.1245070703
  0
ARC
  5
321
100
AcDbEntity
  8
0
100
AcDbCircle
 62
7
  6
CONTINUOUS
 10
9.6757300489
 20
13.1976227534
 40
0.9227233518
100
AcDbArc
 50
211.4952528836
 51
215.2001154132
  0
ARC
  5
322
100
AcDbEntity
  8
0
100
AcDbCircle
 62
7
  6
CONTINUOUS
 10
9.2967061975
 20
13.2389493227
 40
0.5242532905
100
AcDbArc
 50
137.4652591723
 51
141.0600838908
  0
ARC
  5
323
100
AcDbEntity
  8
0
100
AcDbCircle
 62
7
  6
CONTINUOUS
 10
9.5210275542
 20
12.8393202463
 40
0.5234341297
100
AcDbArc
 50
316.560381983
 51
321.0621935481
  0
ARC
  5
324
100
AcDbEntity
  8
0
100
AcDbCircle
 62
7
  6
CONTINUOUS
 10
9.2919885774
 20
13.2432593528
 40
0.5178632891
100
AcDbArc
 50
135.6407125178
 51
137.4637804837
  0
ARC
  5
325
100
AcDbEntity
  8
0
100
AcDbCircle
 62
7
  6
CONTINUOUS
 10
9.5259960328
 20
12.8346970614
 40
0.5166476692
100
AcDbArc
 50
315.6396399532
 51
316.5537964405
  0
ARC
  5
326
100
AcDbEntity
  8
0
100
AcDbCircle
 62
7
  6
CONTINUOUS
 10
8.137100476
 20
31.1172433257
 40
17.9795516841
100
AcDbArc
 50
267.3754209036
 51
268.5524271764
  0
ARC
  5
327
100
AcDbEntity
  8
0
100
AcDbCircle
 62
7
  6
CONTINUOUS
 10
8.3910213531
 20
28.893221068
 40
16.8357993349
100
AcDbArc
 50
274.6098526676
 51
276.2016639226
  0
ARC
  5
328
100
AcDbEntity
  8
RACCORDO
100
AcDbCircle
 62
7
  6
CONTINUOUS
 10
-0.9620103523
 20
38.5022392942
 40
8.8015922302
100
AcDbArc
 50
117.9511560904
 51
118.7971209405
  0
ARC
  5
329
100
AcDbEntity
  8
RACCORDO
100
AcDbCircle
 62
7
  6
CONTINUOUS
 10
0.0035450301
 20
41.1013660963
 40
7.4470868433
100
AcDbArc
 50
117.440373122
 51
118.140664557
  0
ARC
  5
32A
100
AcDbEntity
  8
RACCORDO
100
AcDbCircle
 62
7
  6
CONTINUOUS
 10
-0.1026669932
 20
41.3000320781
 40
7.2218110912
100
AcDbArc
 50
118.1409933584
 51
118.7980882402
  0
ARC
  5
32B
100
AcDbEntity
  8
RACCORDO
100
AcDbCircle
 62
253
  6
CONTINUOUS
 10
-0.1847988003
 20
41.6205476279
 40
6.8840857724
100
AcDbArc
 50
118.1618470924
 51
118.7979949951
  0
ARC
  5
32C
100
AcDbEntity
  8
RACCORDO
100
AcDbCircle
 62
7
  6
CONTINUOUS
 10
1.1919223007
 20
43.158992401
 40
6.739906627
100
AcDbArc
 50
115.2724554981
 51
118.0004836743
  0
ARC
  5
32D
100
AcDbEntity
  8
RACCORDO
100
AcDbCircle
 62
253
  6
CONTINUOUS
 10
-0.3176152033
 20
41.8617406432
 40
6.6087419418
100
AcDbArc
 50
118.7962444513
 51
119.5082760502
  0
ARC
  5
32E
100
AcDbEntity
  8
RACCORDO
100
AcDbCircle
 62
253
  6
CONTINUOUS
 10
1.0240543825
 20
43.6498921693
 40
6.2114720127
100
AcDbArc
 50
115.9074710218
 51
118.7606103848
  0
ARC
  5
32F
100
AcDbEntity
  8
RACCORDO
100
AcDbCircle
 62
7
  6
CONTINUOUS
 10
0.9355174523
 20
43.6481292258
 40
6.1876505403
100
AcDbArc
 50
118.0305633239
 51
118.7975162362
  0
ARC
  5
330
100
AcDbEntity
  8
RACCORDO
100
AcDbCircle
 62
253
  6
CONTINUOUS
 10
0.717777695
 20
44.2148710106
 40
5.5688259134
100
AcDbArc
 50
118.7950416082
 51
119.6404120709
  0
ARC
  5
331
100
AcDbEntity
  8
RACCORDO
100
AcDbCircle
 62
253
  6
CONTINUOUS
 10
0.543916836
 20
44.5203433189
 40
5.2173420192
100
AcDbArc
 50
119.6399984607
 51
120.5783129777
  0
ARC
  5
332
100
AcDbEntity
  8
RACCORDO
100
AcDbCircle
 62
7
  6
CONTINUOUS
 10
1.9792687826
 20
45.9213205261
 40
5.1666368674
100
AcDbArc
 50
117.8778435425
 51
118.7966370986
  0
ARC
  5
333
100
AcDbEntity
  8
RACCORDO
100
AcDbCircle
 62
253
  6
CONTINUOUS
 10
1.7731265765
 20
46.4668041443
 40
4.5720280917
100
AcDbArc
 50
118.7925419292
 51
119.8214426988
  0
ARC
  5
334
100
AcDbEntity
  8
RACCORDO
100
AcDbCircle
 62
253
  6
CONTINUOUS
 10
1.594243222
 20
46.7787911582
 40
4.2123961282
100
AcDbArc
 50
119.8208335808
 51
120.9779523537
  0
ARC
  5
335
100
AcDbEntity
  8
RACCORDO
100
AcDbCircle
 62
7
  6
CONTINUOUS
 10
4.5256906744
 20
48.8963155892
 40
2.7757861429
100
AcDbArc
 50
115.2240999562
 51
118.7546898565
  0
ARC
  5
336
100
AcDbEntity
  8
0
100
AcDbCircle
 62
7
  6
CONTINUOUS
 10
12.1970878241
 20
49.0144094525
 40
2.7058984958
100
AcDbArc
 50
308.537947189
 51
308.6589759266
  0
ARC
  5
337
100
AcDbEntity
  8
RACCORDO
100
AcDbCircle
 62
253
  6
CONTINUOUS
 10
13.0886056299
 20
49.4698939186
 40
1.7904413021
100
AcDbArc
 50
318.4022803215
 51
319.3140898897
  0
ARC
  5
338
100
AcDbEntity
  8
RACCORDO
100
AcDbCircle
 62
253
  6
CONTINUOUS
 10
-0.6271368358
 20
48.9679378745
 40
1.126062683
100
AcDbArc
 50
201.7037727675
 51
202.7421418672
  0
ARC
  5
339
100
AcDbEntity
  8
RACCORDO
100
AcDbCircle
 62
253
  6
CONTINUOUS
 10
3.2178510956
 20
50.5728357918
 40
0.7165750285
100
AcDbArc
 50
211.8034615102
 51
213.6422102342
  0
ARC
  5
33A
100
AcDbEntity
  8
0
100
AcDbCircle
 62
7
  6
CONTINUOUS
 10
27.2327027392
 20
20.1949143507
 40
19.7751278032
100
AcDbArc
 50
202.462142694
 51
202.5961156725
  0
ARC
  5
33B
100
AcDbEntity
  8
0
100
AcDbCircle
 62
7
  6
CONTINUOUS
 10
20.2937391758
 20
8.016138213
 40
12.6442164795
100
AcDbArc
 50
153.5244600376
 51
153.7051137214
  0
ARC
  5
33C
100
AcDbEntity
  8
0
100
AcDbCircle
 62
7
  6
CONTINUOUS
 10
14.9701644311
 20
19.2430675459
 40
9.9155761596
100
AcDbArc
 50
222.7002235171
 51
222.8237442693
  0
ARC
  5
33D
100
AcDbEntity
  8
0
100
AcDbCircle
 62
7
  6
CONTINUOUS
 10
14.8147951381
 20
15.1210934807
 40
7.311277604
100
AcDbArc
 50
204.1519341916
 51
204.6265285405
  0
ARC
  5
33E
100
AcDbEntity
  8
0
100
AcDbCircle
 62
7
  6
CONTINUOUS
 10
14.5588249923
 20
9.9570827518
 40
7.2379933428
100
AcDbArc
 50
151.9920557969
 51
152.4165690002
  0
ARC
  5
33F
100
AcDbEntity
  8
0
100
AcDbCircle
 62
7
  6
CONTINUOUS
 10
15.7803246381
 20
30.4393997879
 40
18.7036789172
100
AcDbArc
 50
251.1712761214
 51
252.6726192261
  0
ARC
  5
340
100
AcDbEntity
  8
0
100
AcDbCircle
 62
7
  6
CONTINUOUS
 10
19.4895945908
 20
27.1158352145
 40
17.9020988965
100
AcDbArc
 50
233.8206961613
 51
233.9638565767
  0
ARC
  5
341
100
AcDbEntity
  8
RACCORDO
100
AcDbCircle
 62
253
  6
CONTINUOUS
 10
16.4221601222
 20
45.765481484
 40
1.8220186911
100
AcDbArc
 50
326.7932329715
 51
328.4740167827
  0
ARC
  5
342
100
AcDbEntity
  8
RACCORDO
100
AcDbCircle
 62
253
  6
CONTINUOUS
 10
16.9557585813
 20
45.3180189134
 40
1.4659007149
100
AcDbArc
 50
340.2897686418
 51
341.8762065942
  0
ARC
  5
343
100
AcDbEntity
  8
RACCORDO
100
AcDbCircle
 62
253
  6
CONTINUOUS
 10
676.2967939176
 20
-15.8007380974
 40
661.9268818645
100
AcDbArc
 50
176.8238513134
 51
177.0519092365
  0
ARC
  5
344
100
AcDbEntity
  8
RACCORDO
100
AcDbCircle
 62
7
  6
CONTINUOUS
 10
616.6566999561
 20
-7.0410956763
 40
637.194536448
100
AcDbArc
 50
178.5662650988
 51
179.0454644249
  0
ARC
  5
345
100
AcDbEntity
  8
ASSI
100
AcDbCircle
 62
7
  6
CONTINUOUS
 10
602.7168643772
 20
-6.8381918809
 40
623.253212373
100
AcDbArc
 50
179.1299850521
 51
179.8414766579
  0
ARC
  5
346
100
AcDbEntity
  8
ASSI
100
AcDbCircle
 62
7
  6
CONTINUOUS
 10
585.8613452044
 20
-6.8389808632
 40
606.397614864
100
AcDbArc
 50
180.1579651784
 51
180.881542939
  0
ARC
  5
347
100
AcDbEntity
  8
RACCORDO
100
AcDbCircle
 62
7
  6
CONTINUOUS
 10
572.0148559562
 20
-7.0393727001
 40
592.549669892
100
AcDbArc
 50
180.9727774553
 51
181.2653428726
  0
ARC
  5
348
100
AcDbEntity
  8
RACCORDO
100
AcDbCircle
 62
7
  6
CONTINUOUS
 10
567.7367575162
 20
-7.1344687324
 40
588.2705147005
100
AcDbArc
 50
181.2652843089
 51
181.4768300797
  0
ARC
  5
349
100
AcDbEntity
  8
ASSI
100
AcDbCircle
 62
7
  6
CONTINUOUS
 10
562.5264222337
 20
-13.767562863
 40
559.5099529821
100
AcDbArc
 50
182.850505969
 51
183.1122454282
  0
ARC
  5
34A
100
AcDbEntity
  8
ASSI
100
AcDbCircle
 62
7
  6
CONTINUOUS
 10
565.3833373225
 20
-14.3304152187
 40
559.50992581
100
AcDbArc
 50
182.8506401987
 51
183.1123798253
  0
ARC
  5
34B
100
AcDbEntity
  8
ASSI
100
AcDbCircle
 62
7
  6
CONTINUOUS
 10
562.3350629518
 20
-13.7238556296
 40
559.2435693561
100
AcDbArc
 50
182.8517719552
 51
183.1136329104
  0
ARC
  5
34C
100
AcDbEntity
  8
ASSI
100
AcDbCircle
 62
7
  6
CONTINUOUS
 10
565.1919781564
 20
-14.2867085969
 40
559.2435422982
100
AcDbArc
 50
182.8519061857
 51
183.1137673084
  0
ARC
  5
34D
100
AcDbEntity
  8
ASSI
100
AcDbCircle
 62
7
  6
CONTINUOUS
 10
561.4534696532
 20
-13.7024155763
 40
558.9211967875
100
AcDbArc
 50
182.8503681237
 51
183.1123839483
  0
ARC
  5
34E
100
AcDbEntity
  8
ASSI
100
AcDbCircle
 62
7
  6
CONTINUOUS
 10
567.4842245078
 20
-14.8919872008
 40
558.9211925122
100
AcDbArc
 50
182.8505017026
 51
183.1125170314
  0
ARC
  5
34F
100
AcDbEntity
  8
ASSI
100
AcDbCircle
 62
7
  6
CONTINUOUS
 10
562.4233536843
 20
-13.8926435112
 40
558.9211792746
100
AcDbArc
 50
182.8505023549
 51
183.1125176884
  0
ARC
  5
350
100
AcDbEntity
  8
ASSI
100
AcDbCircle
 62
7
  6
CONTINUOUS
 10
562.4962055938
 20
-14.0105992396
 40
558.5084423831
100
AcDbArc
 50
182.939702053
 51
183.1125406896
  0
ARC
  5
351
100
AcDbEntity
  8
ASSI
100
AcDbCircle
 62
7
  6
CONTINUOUS
 10
563.5098718127
 20
-14.3059990881
 40
558.1196261071
100
AcDbArc
 50
182.9398454965
 51
183.1128046974
  0
ARC
  5
352
100
AcDbEntity
  8
ASSI
100
AcDbCircle
 62
7
  6
CONTINUOUS
 10
561.8702064209
 20
-13.9900467007
 40
557.806802728
100
AcDbArc
 50
182.9767427383
 51
183.1139811149
  0
SPLINE
  5
353
100
AcDbEntity
  8
0
100
AcDbSpline
 62
7
  6
CONTINUOUS
 70
0
 71
3
 72
10
 73
6
 74
4
 42
0.0000001
 43
0.0000001
 44
0.0000000001
 12
0.0549392628
 22
0.4260408303
 32
0.0
 13
-0.0522738011
 23
0.4263760798
 33
0.0
 40
0.0
 40
0.0
 40
0.0
 40
0.0
 40
0.3278037903
 40
0.6612803877
 40
1.0
 40
1.0
 40
1.0
 40
1.0
 10
-33.091506731
 20
-30.0369553287
 30
0.0
 10
-33.0855036314
 20
-29.990402729
 30
0.0
 10
-33.0775467431
 20
-29.8959077706
 30
0.0
 10
-33.0776377724
 20
-29.7525696374
 30
0.0
 10
-33.0855817398
 20
-29.6565209917
 30
0.0
 10
-33.0914837937
 20
-29.6083803449
 30
0.0
 11
-33.091506731
 21
-30.0369553287
 31
0.0
 11
-33.0795850326
 21
-29.896646709
 31
0.0
 11
-33.0795773673
 21
-29.7533956615
 31
0.0
 11
-33.0914837937
 21
-29.6083803449
 31
0.0
  0
LINE
  5
354
100
AcDbEntity
  8
0
100
AcDbLine
 62
7
  6
CONTINUOUS
 10
-33.5573755166
 20
-29.4562986659
 11
-33.574388192
 21
-29.4420849395
  0
SPLINE
  5
355
100
AcDbEntity
  8
0
100
AcDbSpline
 62
7
  6
CONTINUOUS
 70
0
 71
3
 72
14
 73
10
 74
8
 42
0.0000001
 43
0.0000001
 44
0.0000000001
 12
0.4939679001
 22
-0.3473564061
 32
0.0
 13
0.5010174273
 23
-0.3371087314
 33
0.0
 40
0.0
 40
0.0
 40
0.0
 40
0.0
 40
0.165923571
 40
0.3145313926
 40
0.4532931416
 40
0.5889151631
 40
0.7252354086
 40
0.8626389669
 40
1.0
 40
1.0
 40
1.0
 40
1.0
 10
-34.0712391786
 20
-29.0988847214
 30
0.0
 10
-34.0439188726
 20
-29.1180962599
 30
0.0
 10
-33.9921076989
 20
-29.1544835944
 30
0.0
 10
-33.9173380186
 20
-29.2067798904
 30
0.0
 10
-33.8474463526
 20
-29.2554081156
 30
0.0
 10
-33.7794513496
 20
-29.3024311262
 30
0.0
 10
-33.7115299819
 20
-29.3490792775
 30
0.0
 10
-33.6431521306
 20
-29.3956801728
 30
0.0
 10
-33.5973282825
 20
-29.4266497383
 30
0.0
 10
-33.574388192
 20
-29.4420849395
 30
0.0
 11
-34.0712391786
 21
-29.0988847214
 31
0.0
 11
-33.9892358634
 21
-29.1564589975
 31
0.0
 11
-33.9156921007
 21
-29.2078845452
 31
0.0
 11
-33.8469047362
 21
-29.255736158
 31
0.0
 11
-33.7795419587
 21
-29.3023149396
 31
0.0
 11
-33.7116819979
 21
-29.348915293
 31
0.0
 11
-33.643114837
 21
-29.3956404894
 31
0.0
 11
-33.574388192
 21
-29.4420849395
 31
0.0
  0
LINE
  5
356
100
AcDbEntity
  8
0
100
AcDbLine
 62
7
  6
CONTINUOUS
 10
-34.0935122623
 20
-29.0421083327
 11
-34.0712391786
 21
-29.0988847214
  0
SPLINE
  5
357
100
AcDbEntity
  8
0
100
AcDbSpline
 62
7
  6
CONTINUOUS
 70
0
 71
3
 72
18
 73
14
 74
12
 42
0.0000001
 43
0.0000001
 44
0.0000000001
 12
-0.4100116242
 22
-2.0555785445
 32
0.0
 13
-0.1061423428
 23
-2.0933756362
 33
0.0
 40
0.0
 40
0.0
 40
0.0
 40
0.0
 40
0.0804454558
 40
0.1720942948
 40
0.2637031248
 40
0.3556352635
 40
0.4478865179
 40
0.5397266733
 40
0.6312042435
 40
0.7233172896
 40
0.8160987263
 40
0.9086524661
 40
1.0
 40
1.0
 40
1.0
 40
1.0
 10
-33.8322917949
 20
-26.964235527
 30
0.0
 10
-33.8432863189
 20
-27.0193561779
 30
0.0
 10
-33.8661370092
 20
-27.1374086039
 30
0.0
 10
-33.8989502273
 20
-27.3187143939
 30
0.0
 10
-33.9307357855
 20
-27.5083463138
 30
0.0
 10
-33.9601095015
 20
-27.6987926664
 30
0.0
 10
-33.986996184
 20
-27.8897693876
 30
0.0
 10
-34.0113084052
 20
-28.0807707536
 30
0.0
 10
-34.0330619753
 20
-28.2719833033
 30
0.0
 10
-34.0522980338
 20
-28.4641266829
 30
0.0
 10
-34.0689500469
 20
-28.6572663434
 30
0.0
 10
-34.0828539216
 20
-28.8500867797
 30
0.0
 10
-34.0902803152
 20
-28.9783667654
 30
0.0
 10
-34.0935122623
 20
-29.0421083327
 30
0.0
 11
-33.8322917949
 21
-26.964235527
 31
0.0
 11
-33.864335517
 21
-27.1297821081
 31
0.0
 11
-33.8985459825
 21
-27.3188132881
 31
0.0
 11
-33.9302870455
 21
-27.5081897253
 31
0.0
 11
-33.9596579708
 21
-27.698633917
 31
0.0
 11
-33.986611772
 21
-27.8901107165
 31
0.0
 11
-34.0109150069
 21
-28.0810733483
 31
0.0
 11
-34.0325843255
 21
-28.2715878802
 31
0.0
 11
-34.0518117214
 21
-28.4637030291
 31
0.0
 11
-34.068510086
 21
-28.6574607194
 31
0.0
 11
-34.0824548082
 21
-28.8509575319
 31
0.0
 11
-34.0935122623
 21
-29.0421083327
 31
0.0
  0
SPLINE
  5
358
100
AcDbEntity
  8
0
100
AcDbSpline
 62
7
  6
CONTINUOUS
 70
0
 71
3
 72
18
 73
14
 74
12
 42
0.0000001
 43
0.0000001
 44
0.0000000001
 12
0.0974631794
 22
-1.8067309253
 32
0.0
 13
0.4620437556
 23
-1.7493688221
 33
0.0
 40
0.0
 40
0.0
 40
0.0
 40
0.0
 40
0.0985973321
 40
0.1967154701
 40
0.293312661
 40
0.3875031595
 40
0.4793905029
 40
0.570018059
 40
0.6594430442
 40
0.7469823656
 40
0.8326754581
 40
0.9168956935
 40
1.0
 40
1.0
 40
1.0
 40
1.0
 10
-34.0935123044
 20
-30.3236378141
 30
0.0
 10
-34.0903091013
 20
-30.3830174304
 30
0.0
 10
-34.0829659725
 20
-30.5014390969
 30
0.0
 10
-34.0690875959
 20
-30.6778044218
 30
0.0
 10
-34.0524580352
 20
-30.8512625145
 30
0.0
 10
-34.0332421056
 20
-31.0206716068
 30
0.0
 10
-34.0115101514
 20
-31.1861458133
 30
0.0
 10
-33.9872221516
 20
-31.3483589233
 30
0.0
 10
-33.9603583485
 20
-31.5075070107
 30
0.0
 10
-33.9310054288
 20
-31.6631876039
 30
0.0
 10
-33.8992416634
 20
-31.8151893123
 30
0.0
 10
-33.8650075211
 20
-31.9639099537
 30
0.0
 10
-33.8403088015
 20
-32.061766969
 30
0.0
 10
-33.8275095262
 20
-32.1102269966
 30
0.0
 11
-34.0935123044
 21
-30.3236378141
 31
0.0
 11
-34.0824545247
 21
-30.5016926361
 31
0.0
 11
-34.0685091191
 21
-30.6786748885
 31
0.0
 11
-34.0518099641
 21
-30.852654186
 31
0.0
 11
-34.0325820885
 21
-31.0219903483
 31
0.0
 11
-34.0109127212
 21
-31.1868292277
 31
0.0
 11
-33.9866094476
 21
-31.3489958994
 31
0.0
 11
-33.9596555775
 21
-31.5085368348
 31
0.0
 11
-33.9302849282
 21
-31.6641798332
 31
0.0
 11
-33.8985445176
 21
-31.8159457171
 31
0.0
 11
-33.8643348571
 21
-31.9644406581
 31
0.0
 11
-33.8275095262
 21
-32.1102269966
 31
0.0
  0
LINE
  5
359
100
AcDbEntity
  8
0
100
AcDbLine
 62
7
  6
CONTINUOUS
 10
-34.0712392849
 20
-30.2778181433
 11
-34.0935123044
 21
-30.3236378141
  0
SPLINE
  5
35A
100
AcDbEntity
  8
0
100
AcDbSpline
 62
7
  6
CONTINUOUS
 70
0
 71
3
 72
15
 73
11
 74
9
 42
0.0000001
 43
0.0000001
 44
0.0000000001
 12
-3.4136359241
 22
1.4819799441
 32
0.0
 13
-0.0
 23
3.7214479409
 33
0.0
 40
0.0
 40
0.0
 40
0.0
 40
0.0
 40
0.1200807152
 40
0.2436061432
 40
0.369752822
 40
0.4974565422
 40
0.625516315
 40
0.7527004894
 40
0.8778532242
 40
1.0
 40
1.0
 40
1.0
 40
1.0
 10
-34.8667400107
 20
-31.9050149106
 30
0.0
 10
-35.0033772918
 20
-31.8456958401
 30
0.0
 10
-35.2710663669
 20
-31.7023216455
 30
0.0
 10
-35.6392153001
 20
-31.4261083722
 30
0.0
 10
-35.9704963145
 20
-31.0931034408
 30
0.0
 10
-36.2555243281
 20
-30.7127997167
 30
0.0
 10
-36.486363268
 20
-30.2959080232
 30
0.0
 10
-36.6565015488
 20
-29.8541061538
 30
0.0
 10
-36.7610977175
 20
-29.3999390994
 30
0.0
 10
-36.7854213215
 20
-29.092730092
 30
0.0
 10
-36.7854213215
 20
-28.9412091363
 30
0.0
 11
-34.8667400107
 21
-31.9050149106
 31
0.0
 11
-35.2611726887
 21
-31.6949688419
 31
0.0
 11
-35.6294056739
 21
-31.4197915605
 31
0.0
 11
-35.9608841684
 21
-31.0873705741
 31
0.0
 11
-36.2461068819
 21
-30.7072341883
 31
0.0
 11
-36.4768983705
 21
-30.2902783925
 31
0.0
 11
-36.6466433726
 21
-29.8484545445
 31
0.0
 11
-36.7504764246
 21
-29.3944268042
 31
0.0
 11
-36.7854213215
 21
-28.9412091363
 31
0.0
  0
SPLINE
  5
35B
100
AcDbEntity
  8
0
100
AcDbSpline
 62
7
  6
CONTINUOUS
 70
0
 71
3
 72
12
 73
8
 74
6
 42
0.0000001
 43
0.0000001
 44
0.0000000001
 12
0.0
 22
2.0023745271
 32
0.0
 13
1.5527638145
 23
1.2697771938
 33
0.0
 40
0.0
 40
0.0
 40
0.0
 40
0.0
 40
0.2201407188
 40
0.4328245461
 40
0.6382977219
 40
0.8376958335
 40
1.0
 40
1.0
 40
1.0
 40
1.0
 10
-36.7854213215
 20
-28.9412091363
 30
0.0
 10
-36.7854213215
 20
-28.7942744137
 30
0.0
 10
-36.7631973291
 20
-28.5047671472
 30
0.0
 10
-36.6600866659
 20
-28.0892982674
 30
0.0
 10
-36.4902311396
 20
-27.7111170027
 30
0.0
 10
-36.2708027371
 20
-27.3996221001
 30
0.0
 10
-36.0968276043
 20
-27.2303448284
 30
0.0
 10
-36.0128209254
 20
-27.1616481187
 30
0.0
 11
-36.7854213215
 21
-28.9412091363
 31
0.0
 11
-36.7504764246
 21
-28.5017922859
 31
0.0
 11
-36.6466433726
 21
-28.0887714204
 31
0.0
 11
-36.4768983705
 21
-27.7139851093
 31
0.0
 11
-36.2461068819
 21
-27.3881759908
 31
0.0
 11
-36.0128209254
 21
-27.1616481187
 31
0.0
  0
LINE
  5
35C
100
AcDbEntity
  8
0
100
AcDbLine
 62
7
  6
CONTINUOUS
 10
-35.6036674724
 20
-29.0413724094
 11
-35.5645786141
 21
-29.0271850579
  0
SPLINE
  5
35D
100
AcDbEntity
  8
0
100
AcDbSpline
 62
7
  6
CONTINUOUS
 70
0
 71
3
 72
14
 73
10
 74
8
 42
0.0000001
 43
0.0000001
 44
0.0000000001
 12
0.4054071921
 22
0.1468623758
 32
0.0
 13
0.4087940857
 23
0.1371527501
 33
0.0
 40
0.0
 40
0.0
 40
0.0
 40
0.0
 40
0.0485033207
 40
0.1950625121
 40
0.3419026078
 40
0.489855194
 40
0.6436573007
 40
0.8107163592
 40
1.0
 40
1.0
 40
1.0
 40
1.0
 10
-35.5645786141
 20
-29.0271850579
 30
0.0
 10
-35.5580240824
 20
-29.0248106203
 30
0.0
 10
-35.5316611277
 20
-29.0152698951
 30
0.0
 10
-35.4854300857
 20
-28.9986091589
 30
0.0
 10
-35.4257001808
 20
-28.9772460609
 30
0.0
 10
-35.3649286533
 20
-28.955704762
 30
0.0
 10
-35.3013405007
 20
-28.9334123601
 30
0.0
 10
-35.2320435954
 20
-28.9094495335
 30
0.0
 10
-35.1835429422
 20
-28.8929902211
 30
0.0
 10
-35.1577502646
 20
-28.8843366304
 30
0.0
 11
-35.5645786141
 21
-29.0271850579
 31
0.0
 11
-35.5449127153
 21
-29.0200681078
 31
0.0
 11
-35.4854595042
 21
-28.9986466917
 31
0.0
 11
-35.4258407257
 21
-28.9773280166
 31
0.0
 11
-35.365709094
 21
-28.9560196642
 31
0.0
 11
-35.3031237736
 21
-28.9340853536
 31
0.0
 11
-35.2350414598
 21
-28.9105548073
 31
0.0
 11
-35.1577502646
 21
-28.8843366304
 31
0.0
  0
SPLINE
  5
35E
100
AcDbEntity
  8
0
100
AcDbSpline
 62
7
  6
CONTINUOUS
 70
0
 71
3
 72
9
 73
5
 74
3
 42
0.0000001
 43
0.0000001
 44
0.0000000001
 12
-0.6314258704
 22
-0.2552584014
 32
0.0
 13
-0.679454295
 23
-0.0266376538
 33
0.0
 40
0.0
 40
0.0
 40
0.0
 40
0.0
 40
0.4144662997
 40
1.0
 40
1.0
 40
1.0
 40
1.0
 10
-33.1644501362
 20
-31.9698661035
 30
0.0
 10
-33.2516850508
 20
-32.0051314386
 30
0.0
 10
-33.4685435212
 20
-32.0744863891
 30
0.0
 10
-33.6948950637
 20
-32.1050279153
 30
0.0
 10
-33.8275095262
 20
-32.1102269966
 30
0.0
 11
-33.1644501362
 21
-31.9698661035
 31
0.0
 11
-33.4330768482
 21
-32.0559545582
 31
0.0
 11
-33.8275095262
 21
-32.1102269966
 31
0.0
  0
LINE
  5
35F
100
AcDbEntity
  8
0
100
AcDbLine
 62
7
  6
CONTINUOUS
 10
-34.3382127872
 20
-28.5735168451
 11
-34.3433994763
 21
-28.5754833921
  0
LINE
  5
360
100
AcDbEntity
  8
0
100
AcDbLine
 62
7
  6
CONTINUOUS
 10
-34.9497102324
 20
-28.8054181609
 11
-35.0883335822
 21
-28.8580026949
  0
LINE
  5
361
100
AcDbEntity
  8
0
100
AcDbLine
 62
7
  6
CONTINUOUS
 10
-35.0883335822
 20
-28.8580026949
 11
-35.1577502646
 21
-28.8843366304
  0
LINE
  5
362
100
AcDbEntity
  8
0
100
AcDbLine
 62
7
  6
CONTINUOUS
 10
-34.3433994763
 20
-28.5754833921
 11
-34.3614194561
 21
-28.5814936627
  0
LINE
  5
363
100
AcDbEntity
  8
0
100
AcDbLine
 62
7
  6
CONTINUOUS
 10
-34.3614194561
 20
-28.5814936627
 11
-34.3795381502
 21
-28.5875716286
  0
LINE
  5
364
100
AcDbEntity
  8
0
100
AcDbLine
 62
7
  6
CONTINUOUS
 10
-34.4169879183
 20
-28.6004472066
 11
-34.420974735
 21
-28.6019806394
  0
LINE
  5
365
100
AcDbEntity
  8
0
100
AcDbLine
 62
7
  6
CONTINUOUS
 10
-34.420974735
 20
-28.6019806394
 11
-34.9497102324
 21
-28.8054181609
  0
LINE
  5
366
100
AcDbEntity
  8
0
100
AcDbLine
 62
7
  6
CONTINUOUS
 10
-33.4380253067
 20
-29.7280333915
 11
-33.4420321852
 21
-29.7315130798
  0
LINE
  5
367
100
AcDbEntity
  8
0
100
AcDbLine
 62
7
  6
CONTINUOUS
 10
-34.4123310731
 20
-31.7122476496
 11
-34.8667400107
 21
-31.9050149106
  0
LINE
  5
368
100
AcDbEntity
  8
0
100
AcDbLine
 62
7
  6
CONTINUOUS
 10
-33.9104797478
 20
-30.1382611252
 11
-34.0712392849
 21
-30.2778181433
  0
LINE
  5
369
100
AcDbEntity
  8
0
100
AcDbLine
 62
7
  6
CONTINUOUS
 10
-33.3777574338
 20
-29.7120666607
 11
-33.3985004289
 21
-29.7286644275
  0
LINE
  5
36A
100
AcDbEntity
  8
0
100
AcDbLine
 62
7
  6
CONTINUOUS
 10
-33.3985004289
 20
-29.7286644275
 11
-33.4222848447
 21
-29.7476955601
  0
LINE
  5
36B
100
AcDbEntity
  8
0
100
AcDbLine
 62
7
  6
CONTINUOUS
 10
-33.4222848447
 20
-29.7476955601
 11
-33.4371387939
 21
-29.7595808239
  0
LINE
  5
36C
100
AcDbEntity
  8
0
100
AcDbLine
 62
7
  6
CONTINUOUS
 10
-33.4371387939
 20
-29.7595808239
 11
-33.9104797478
 21
-30.1382611252
  0
SPLINE
  5
36D
100
AcDbEntity
  8
0
100
AcDbSpline
 62
7
  6
CONTINUOUS
 70
0
 71
3
 72
9
 73
5
 74
3
 42
0.0000001
 43
0.0000001
 44
0.0000000001
 12
-0.5423418301
 22
0.1054120582
 32
0.0
 13
-0.5076426813
 23
0.2169355995
 33
0.0
 40
0.0
 40
0.0
 40
0.0
 40
0.0
 40
0.3375905302
 40
1.0
 40
1.0
 40
1.0
 40
1.0
 10
-33.8855296138
 20
-31.8753334002
 30
0.0
 10
-33.9465594358
 20
-31.8634713626
 30
0.0
 10
-34.1259970214
 20
-31.8214283316
 30
0.0
 10
-34.3002419666
 20
-31.7601477148
 30
0.0
 10
-34.4123310731
 20
-31.7122476496
 30
0.0
 11
-33.8855296138
 21
-31.8753334002
 31
0.0
 11
-34.0671205036
 21
-31.8328922474
 31
0.0
 11
-34.4123310731
 21
-31.7122476496
 31
0.0
  0
SPLINE
  5
36E
100
AcDbEntity
  8
0
100
AcDbSpline
 62
7
  6
CONTINUOUS
 70
0
 71
3
 72
9
 73
5
 74
3
 42
0.0000001
 43
0.0000001
 44
0.0000000001
 12
0.0738327075
 22
-0.4660629472
 32
0.0
 13
0.0
 23
-0.4713341458
 33
0.0
 40
0.0
 40
0.0
 40
0.0
 40
0.0
 40
0.0355825663
 40
1.0
 40
1.0
 40
1.0
 40
1.0
 10
-31.9463557834
 20
-29.4343588824
 30
0.0
 10
-31.9454800644
 20
-29.4398867876
 30
0.0
 10
-31.9212854494
 20
-29.5953108623
 30
0.0
 10
-31.9088282155
 20
-29.7526466952
 30
0.0
 10
-31.9088282155
 20
-29.904167651
 30
0.0
 11
-31.9463557834
 21
-29.4343588824
 31
0.0
 11
-31.9437731123
 21
-29.450949983
 31
0.0
 11
-31.9088282155
 21
-29.904167651
 31
0.0
  0
SPLINE
  5
36F
100
AcDbEntity
  8
0
100
AcDbSpline
 62
7
  6
CONTINUOUS
 70
0
 71
3
 72
14
 73
10
 74
8
 42
0.0000001
 43
0.0000001
 44
0.0000000001
 12
0.0
 22
-2.5649305254
 32
0.0
 13
-2.3817941939
 23
-0.9628572522
 33
0.0
 40
0.0
 40
0.0
 40
0.0
 40
0.0
 40
0.1718581315
 40
0.3378948619
 40
0.4983024243
 40
0.6539673421
 40
0.8064198717
 40
0.9576609952
 40
1.0
 40
1.0
 40
1.0
 40
1.0
 10
-31.9088282155
 20
-29.904167651
 30
0.0
 10
-31.9088282155
 20
-30.0511023735
 30
0.0
 10
-31.9310522078
 20
-30.3406096401
 30
0.0
 10
-32.034162871
 20
-30.7560785198
 30
0.0
 10
-32.2040183973
 20
-31.1342597845
 30
0.0
 10
-32.436205711
 20
-31.4638669083
 30
0.0
 10
-32.7242753417
 20
-31.7348886019
 30
0.0
 10
-32.9789425567
 20
-31.8897210235
 30
0.0
 10
-33.1308358709
 20
-31.9562772976
 30
0.0
 10
-33.1644501362
 20
-31.9698661035
 30
0.0
 11
-31.9088282155
 21
-29.904167651
 31
0.0
 11
-31.9437731123
 21
-30.3435845013
 31
0.0
 11
-32.0476061643
 21
-30.7566053668
 31
0.0
 11
-32.2173511664
 21
-31.1313916779
 31
0.0
 11
-32.448142655
 21
-31.4572007965
 31
0.0
 11
-32.7333653685
 21
-31.7246939354
 31
0.0
 11
-33.064843863
 21
-31.9262038402
 31
0.0
 11
-33.1644501362
 21
-31.9698661035
 31
0.0
  0
SPLINE
  5
370
100
AcDbEntity
  8
0
100
AcDbSpline
 62
7
  6
CONTINUOUS
 70
0
 71
3
 72
14
 73
10
 74
8
 42
0.0000001
 43
0.0000001
 44
0.0000000001
 12
-0.4932563539
 22
-0.1965945027
 32
0.0
 13
-0.5013938113
 23
-0.1748012449
 33
0.0
 40
0.0
 40
0.0
 40
0.0
 40
0.0
 40
0.139355787
 40
0.2779040453
 40
0.4144189908
 40
0.5497207187
 40
0.6880633191
 40
0.8357602548
 40
1.0
 40
1.0
 40
1.0
 40
1.0
 10
-33.5743882783
 20
-30.090609372
 30
0.0
 10
-33.5973009875
 20
-30.0997415659
 30
0.0
 10
-33.6430307941
 20
-30.1178599872
 30
0.0
 10
-33.7113433038
 20
-30.1445768571
 30
0.0
 10
-33.7791149666
 20
-30.170704396
 30
0.0
 10
-33.8469903068
 20
-30.1964591454
 30
0.0
 10
-33.916873918
 20
-30.2224967152
 30
0.0
 10
-33.9917509027
 20
-30.2497974764
 30
0.0
 10
-34.0437896877
 20
-30.2682483726
 30
0.0
 10
-34.0712392849
 20
-30.2778181433
 30
0.0
 11
-33.5743882783
 21
-30.090609372
 31
0.0
 11
-33.6431837119
 21
-30.1178617329
 31
0.0
 11
-33.7117001426
 21
-30.1446521665
 31
0.0
 11
-33.7793383373
 21
-30.1707215138
 31
0.0
 11
-33.8465121444
 21
-30.1962016246
 31
0.0
 11
-33.9153511945
 21
-30.2218406213
 31
0.0
 11
-33.9890373927
 21
-30.2486908877
 31
0.0
 11
-34.0712392849
 21
-30.2778181433
 31
0.0
  0
LINE
  5
371
100
AcDbEntity
  8
0
100
AcDbLine
 62
7
  6
CONTINUOUS
 10
-33.5571499702
 20
-30.0810149239
 11
-33.5743882783
 21
-30.090609372
  0
SPLINE
  5
372
100
AcDbEntity
  8
0
100
AcDbSpline
 62
7
  6
CONTINUOUS
 70
0
 71
3
 72
18
 73
14
 74
12
 42
0.0000001
 43
0.0000001
 44
0.0000000001
 12
0.1073752023
 22
2.117693125
 32
0.0
 13
0.4181835227
 23
2.0787679396
 33
0.0
 40
0.0
 40
0.0
 40
0.0
 40
0.0
 40
0.0903010449
 40
0.1817957064
 40
0.2735148858
 40
0.364571185
 40
0.4549974075
 40
0.5457822049
 40
0.636973619
 40
0.727848651
 40
0.8184032751
 40
0.9089973737
 40
1.0
 40
1.0
 40
1.0
 40
1.0
 10
-35.132742789
 20
-28.836897078
 30
0.0
 10
-35.129510758
 20
-28.7731537774
 30
0.0
 10
-35.1220840951
 20
-28.644869437
 30
0.0
 10
-35.1081796292
 20
-28.4520424349
 30
0.0
 10
-35.091526923
 20
-28.2588972596
 30
0.0
 10
-35.0722903657
 20
-28.0667516353
 30
0.0
 10
-35.0505365824
 20
-27.8755395934
 30
0.0
 10
-35.026224315
 20
-27.6845397908
 30
0.0
 10
-34.9993376796
 20
-27.4935650082
 30
0.0
 10
-34.969964227
 20
-27.3031216398
 30
0.0
 10
-34.9381792352
 20
-27.113493959
 30
0.0
 10
-34.903921324
 20
-26.9242061186
 30
0.0
 10
-34.879425277
 20
-26.7982075713
 30
0.0
 10
-34.8667400107
 20
-26.7351497906
 30
0.0
 11
-35.132742789
 21
-28.836897078
 31
0.0
 11
-35.1216850093
 21
-28.6457410812
 31
0.0
 11
-35.1077396036
 21
-28.4522364163
 31
0.0
 11
-35.0910404486
 21
-28.2584720847
 31
0.0
 11
-35.071812573
 21
-28.066354879
 31
0.0
 11
-35.0501432057
 21
-27.8758422951
 31
0.0
 11
-35.0258399321
 21
-27.6848812863
 31
0.0
 11
-34.998886062
 21
-27.493405607
 31
0.0
 11
-34.9695154127
 21
-27.3029644827
 31
0.0
 11
-34.9377750022
 21
-27.1135927974
 31
0.0
 11
-34.9035653417
 21
-26.9245665062
 31
0.0
 11
-34.8667400107
 21
-26.7351497906
 31
0.0
  0
LINE
  5
373
100
AcDbEntity
  8
0
100
AcDbLine
 62
7
  6
CONTINUOUS
 10
-35.6036674724
 20
-29.0413724094
 11
-35.6183731342
 21
-29.0494665274
  0
SPLINE
  5
374
100
AcDbEntity
  8
0
100
AcDbSpline
 62
7
  6
CONTINUOUS
 70
0
 71
3
 72
10
 73
6
 74
4
 42
0.0000001
 43
0.0000001
 44
0.0000000001
 12
-0.0549392631
 22
-0.4260408308
 32
0.0
 13
0.0522738012
 23
-0.4263760803
 33
0.0
 40
0.0
 40
0.0
 40
0.0
 40
0.0
 40
0.3278037903
 40
0.6612803877
 40
1.0
 40
1.0
 40
1.0
 40
1.0
 10
-35.9874805262
 20
-29.0363386466
 30
0.0
 10
-35.9934836257
 20
-29.0828912464
 30
0.0
 10
-36.0014405141
 20
-29.1773862049
 30
0.0
 10
-36.0013494848
 20
-29.3207243383
 30
0.0
 10
-35.9934055174
 20
-29.4167729842
 30
0.0
 10
-35.9875034635
 20
-29.464913631
 30
0.0
 11
-35.9874805262
 21
-29.0363386466
 31
0.0
 11
-35.9994022246
 21
-29.1766472665
 31
0.0
 11
-35.9994098899
 21
-29.3198983142
 31
0.0
 11
-35.9875034635
 21
-29.464913631
 31
0.0
  0
SPLINE
  5
375
100
AcDbEntity
  8
0
100
AcDbSpline
 62
7
  6
CONTINUOUS
 70
0
 71
3
 72
14
 73
10
 74
8
 42
0.0000001
 43
0.0000001
 44
0.0000000001
 12
-0.4602599778
 22
0.3557604323
 32
0.0
 13
-0.4321893401
 23
0.3893804137
 33
0.0
 40
0.0
 40
0.0
 40
0.0
 40
0.0
 40
0.1684523127
 40
0.3184505812
 40
0.4577778446
 40
0.5932783615
 40
0.7288127307
 40
0.8647581087
 40
1.0
 40
1.0
 40
1.0
 40
1.0
 10
-35.1577503362
 20
-30.0632700316
 30
0.0
 10
-35.1835942887
 20
-30.0432938091
 30
0.0
 10
-35.232180665
 20
-30.005178631
 30
0.0
 10
-35.301307071
 20
-29.9494878035
 30
0.0
 10
-35.3648728057
 20
-29.8970884317
 30
0.0
 10
-35.4257488102
 20
-29.8458425526
 30
0.0
 10
-35.4856187894
 20
-29.7944259146
 30
0.0
 10
-35.5449521192
 20
-29.7424671854
 30
0.0
 10
-35.5841841776
 20
-29.7074503486
 30
0.0
 10
-35.6036675455
 20
-29.6898968341
 30
0.0
 11
-35.1577503362
 21
-30.0632700316
 31
0.0
 11
-35.234856598
 21
-30.0027947595
 31
0.0
 11
-35.3028113876
 21
-29.948058325
 31
0.0
 11
-35.3653549359
 21
-29.8965078988
 31
0.0
 11
-35.4256598422
 21
-29.8457480607
 31
0.0
 11
-35.4854753762
 21
-29.7943822189
 31
0.0
 11
-35.5449720029
 21
-29.7422836718
 31
0.0
 11
-35.6036675455
 21
-29.6898968341
 31
0.0
  0
SPLINE
  5
376
100
AcDbEntity
  8
0
100
AcDbSpline
 62
7
  6
CONTINUOUS
 70
0
 71
3
 72
18
 73
14
 74
12
 42
0.0000001
 43
0.0000001
 44
0.0000000001
 12
-0.4620435557
 22
1.7493680655
 32
0.0
 13
-0.0974632646
 23
1.806730137
 33
0.0
 40
0.0
 40
0.0
 40
0.0
 40
0.0
 40
0.0831058969
 40
0.1673283878
 40
0.2530237437
 40
0.3405646196
 40
0.4299902921
 40
0.5206187963
 40
0.612507275
 40
0.706696967
 40
0.8032910193
 40
0.9014052898
 40
1.0
 40
1.0
 40
1.0
 40
1.0
 10
-34.8667400107
 20
-31.9050149106
 30
0.0
 10
-34.8795395254
 20
-31.8565539766
 30
0.0
 10
-34.9042387821
 20
-31.758694749
 30
0.0
 10
-34.9384736384
 20
-31.6099705579
 30
0.0
 10
-34.9702379659
 20
-31.4579652926
 30
0.0
 10
-34.9995911429
 20
-31.3022820523
 30
0.0
 10
-35.0264549907
 20
-31.143132092
 30
0.0
 10
-35.0507429447
 20
-30.980917357
 30
0.0
 10
-35.0724746814
 20
-30.8154424178
 30
0.0
 10
-35.0916901054
 20
-30.6460350482
 30
0.0
 10
-35.1083189707
 20
-30.4725816989
 30
0.0
 10
-35.1221967599
 20
-30.2962222302
 30
0.0
 10
-35.129539626
 20
-30.1778045208
 30
0.0
 10
-35.1327427468
 20
-30.1184265094
 30
0.0
 11
-34.8667400107
 21
-31.9050149106
 31
0.0
 11
-34.9035660015
 21
-31.7592258379
 31
0.0
 11
-34.937776467
 21
-31.6107269619
 31
0.0
 11
-34.9695175301
 21
-31.4589570992
 31
0.0
 11
-34.9988884553
 21
-31.3033113604
 31
0.0
 11
-35.0258422565
 21
-31.1437692232
 31
0.0
 11
-35.0501454915
 21
-30.9816008827
 31
0.0
 11
-35.0718148101
 21
-30.8167599976
 31
0.0
 11
-35.091042206
 21
-30.6474253237
 31
0.0
 11
-35.1077405706
 21
-30.4734517311
 31
0.0
 11
-35.1216852928
 21
-30.2964765212
 31
0.0
 11
-35.1327427468
 21
-30.1184265094
 31
0.0
  0
SPLINE
  5
377
100
AcDbEntity
  8
0
100
AcDbSpline
 62
7
  6
CONTINUOUS
 70
0
 71
3
 72
11
 73
7
 74
5
 42
0.0000001
 43
0.0000001
 44
0.0000000001
 12
-0.2731737215
 22
-0.0579764686
 32
0.0
 13
-0.2703663928
 23
-0.06990345
 33
0.0
 40
0.0
 40
0.0
 40
0.0
 40
0.0
 40
0.2718347035
 40
0.5258396094
 40
0.7666192312
 40
1.0
 40
1.0
 40
1.0
 40
1.0
 10
-33.1058305793
 20
-29.6485975741
 30
0.0
 10
-33.1305832785
 20
-29.6538509128
 30
0.0
 10
-33.1784207592
 20
-29.6642223536
 30
0.0
 10
-33.2480037151
 20
-29.68006047
 30
0.0
 10
-33.3139233058
 20
-29.6958454077
 30
0.0
 10
-33.3567246616
 20
-29.7066286204
 30
0.0
 10
-33.3777574338
 20
-29.7120666607
 30
0.0
 11
-33.1058305793
 21
-29.6485975741
 31
0.0
 11
-33.1800136357
 21
-29.6647055686
 31
0.0
 11
-33.249173131
 21
-29.6804664438
 31
0.0
 11
-33.3145612413
 21
-29.696135893
 31
0.0
 11
-33.3777574338
 21
-29.7120666607
 31
0.0
  0
SPLINE
  5
378
100
AcDbEntity
  8
0
100
AcDbSpline
 62
7
  6
CONTINUOUS
 70
0
 71
3
 72
12
 73
8
 74
6
 42
0.0000001
 43
0.0000001
 44
0.0000000001
 12
-0.5380946529
 22
0.2877765645
 32
0.0
 13
-0.5610766686
 23
0.2399045196
 33
0.0
 40
0.0
 40
0.0
 40
0.0
 40
0.0
 40
0.1630161814
 40
0.3402459968
 40
0.5363644362
 40
0.7554865047
 40
1.0
 40
1.0
 40
1.0
 40
1.0
 10
-34.4169880049
 20
-29.5068551148
 30
0.0
 10
-34.4462273835
 20
-29.4912177026
 30
0.0
 10
-34.5076839217
 20
-29.4593766034
 30
0.0
 10
-34.6056329085
 20
-29.4113134493
 30
0.0
 10
-34.7147957685
 20
-29.3602459878
 30
0.0
 10
-34.8372294605
 20
-29.3052914735
 30
0.0
 10
-34.9237577037
 20
-29.2677830211
 30
0.0
 10
-34.9694879762
 20
-29.2482297236
 30
0.0
 11
-34.4169880049
 21
-29.5068551148
 31
0.0
 11
-34.5052722322
 21
-29.4610170905
 31
0.0
 11
-34.6023209937
 21
-29.4132933531
 31
0.0
 11
-34.7106800188
 21
-29.3624972597
 31
0.0
 11
-34.8326267199
 21
-29.3076544652
 31
0.0
 11
-34.9694879762
 21
-29.2482297236
 31
0.0
  0
SPLINE
  5
379
100
AcDbEntity
  8
TRASH
100
AcDbSpline
 62
7
  6
CONTINUOUS
 70
0
 71
3
 72
10
 73
6
 74
4
 42
0.0000001
 43
0.0000001
 44
0.0000000001
 12
-0.0747413402
 22
0.3957955347
 32
0.0
 13
0.0622110859
 23
0.3982408076
 33
0.0
 40
0.0
 40
0.0
 40
0.0
 40
0.0
 40
0.3823181593
 40
0.7559405694
 40
1.0
 40
1.0
 40
1.0
 40
1.0
 10
-34.9694879762
 20
-29.2482297236
 30
0.0
 10
-34.9790129667
 20
-29.1977897835
 30
0.0
 10
-34.9918989796
 20
-29.096808837
 30
0.0
 10
-34.9921710993
 20
-28.9622145488
 30
0.0
 10
-34.9831442549
 20
-28.8795809325
 30
0.0
 10
-34.9780831875
 20
-28.8471827909
 30
0.0
 11
-34.9694879762
 21
-29.2482297236
 31
0.0
 11
-34.9888037819
 21
-29.0954517256
 31
0.0
 11
-34.9888421351
 21
-28.9449600867
 31
0.0
 11
-34.9780831875
 21
-28.8471827909
 31
0.0
  0
SPLINE
  5
37A
100
AcDbEntity
  8
0
100
AcDbSpline
 62
7
  6
CONTINUOUS
 70
0
 71
3
 72
11
 73
7
 74
5
 42
0.0000001
 43
0.0000001
 44
0.0000000001
 12
0.9635355878
 22
0.7879340717
 32
0.0
 13
1.2415784691
 23
0.048675441
 33
0.0
 40
0.0
 40
0.0
 40
0.0
 40
0.0
 40
0.0531466432
 40
0.365350189
 40
0.6795664572
 40
1.0
 40
1.0
 40
1.0
 40
1.0
 10
-36.0128209254
 20
-27.1616481187
 30
0.0
 10
-35.9957513647
 20
-27.147689435
 30
0.0
 10
-35.876722803
 20
-27.0537932594
 30
0.0
 10
-35.6344414733
 20
-26.9064912009
 30
0.0
 10
-35.2618558212
 20
-26.7757680774
 30
0.0
 10
-34.9993544732
 20
-26.740348872
 30
0.0
 10
-34.8667400107
 20
-26.7351497906
 30
0.0
 11
-36.0128209254
 21
-27.1616481187
 31
0.0
 11
-35.9608841684
 21
-27.1206828518
 31
0.0
 11
-35.6294056739
 21
-26.919172947
 31
0.0
 11
-35.2611726887
 21
-26.789422229
 31
0.0
 11
-34.8667400107
 21
-26.7351497906
 31
0.0
  0
SPLINE
  5
37B
100
AcDbEntity
  8
0
100
AcDbSpline
 62
7
  6
CONTINUOUS
 70
0
 71
3
 72
9
 73
5
 74
3
 42
0.0000001
 43
0.0000001
 44
0.0000000001
 12
0.6088436303
 22
0.4274540288
 32
0.0
 13
0.6088436303
 23
0.4274540288
 33
0.0
 40
0.0
 40
0.0
 40
0.0
 40
0.0
 40
0.5002165115
 40
1.0
 40
1.0
 40
1.0
 40
1.0
 10
-35.6181811646
 20
-29.6742026761
 30
0.0
 10
-35.5166632857
 20
-29.6029294884
 30
0.0
 10
-35.3135656379
 20
-29.4606578212
 30
0.0
 10
-35.1110668149
 20
-29.3175344865
 30
0.0
 10
-35.0096368171
 20
-29.2463229979
 30
0.0
 11
-35.6181811646
 21
-29.6742026761
 31
0.0
 11
-35.3136275278
 21
-29.460383113
 31
0.0
 11
-35.0096368171
 21
-29.2463229979
 31
0.0
  0
LINE
  5
37C
100
AcDbEntity
  8
0
100
AcDbLine
 62
7
  6
CONTINUOUS
 10
-34.3382127872
 20
-29.550277491
 11
-34.3433994763
 21
-29.5535242075
  0
LINE
  5
37D
100
AcDbEntity
  8
0
100
AcDbLine
 62
7
  6
CONTINUOUS
 10
-34.9497098849
 20
-29.9330489726
 11
-34.4169880049
 21
-29.5068551148
  0
LINE
  5
37E
100
AcDbEntity
  8
0
100
AcDbLine
 62
7
  6
CONTINUOUS
 10
-34.9497098849
 20
-29.9330489726
 11
-35.1577503362
 21
-30.0632700316
  0
LINE
  5
37F
100
AcDbEntity
  8
0
100
AcDbLine
 62
7
  6
CONTINUOUS
 10
-35.1327427468
 20
-30.1184265094
 11
-34.9497098849
 21
-29.9330489726
  0
LINE
  5
380
100
AcDbEntity
  8
0
100
AcDbLine
 62
7
  6
CONTINUOUS
 10
-33.0838128143
 20
-29.6858323901
 11
-33.5571499702
 21
-30.0810149239
  0
LINE
  5
381
100
AcDbEntity
  8
0
100
AcDbLine
 62
7
  6
CONTINUOUS
 10
-34.8667400107
 20
-26.7351497906
 11
-34.7661463511
 21
-26.6586320072
  0
LINE
  5
382
100
AcDbEntity
  8
0
100
AcDbLine
 62
7
  6
CONTINUOUS
 10
-34.7661463511
 20
-26.6586320072
 11
-34.7028834673
 21
-26.610512865
  0
SPLINE
  5
383
100
AcDbEntity
  8
0
100
AcDbSpline
 62
7
  6
CONTINUOUS
 70
0
 71
3
 72
13
 73
9
 74
7
 42
0.0000001
 43
0.0000001
 44
0.0000000001
 12
-0.7700259015
 22
-0.591041664
 32
0.0
 13
-0.6330316306
 23
0.7358947562
 33
0.0
 40
0.0
 40
0.0
 40
0.0
 40
0.0
 40
0.1518005021
 40
0.3070097736
 40
0.4685549681
 40
0.6382894993
 40
0.8160509146
 40
1.0
 40
1.0
 40
1.0
 40
1.0
 10
-33.4597493364
 20
-29.7672271896
 30
0.0
 10
-33.4987127759
 20
-29.7971339967
 30
0.0
 10
-33.587101802
 20
-29.8461685925
 30
0.0
 10
-33.7374401486
 20
-29.8779484203
 30
0.0
 10
-33.8963435185
 20
-29.8666775197
 30
0.0
 10
-34.0539873864
 20
-29.8137104309
 30
0.0
 10
-34.2015071518
 20
-29.7228203265
 30
0.0
 10
-34.2868674463
 20
-29.6413573865
 30
0.0
 10
-34.3256826428
 20
-29.5962349974
 30
0.0
 11
-33.4597493364
 21
-29.7672271896
 31
0.0
 11
-33.5885937276
 21
-29.8387270039
 31
0.0
 11
-33.7358466428
 21
-29.8705984525
 31
0.0
 11
-33.892333742
 21
-29.8604954762
 31
0.0
 11
-34.0488397891
 21
-29.8089932253
 31
0.0
 11
-34.1961561012
 21
-29.7191443962
 31
0.0
 11
-34.3256826428
 21
-29.5962349974
 31
0.0
  0
SPLINE
  5
384
100
AcDbEntity
  8
0
100
AcDbSpline
 62
7
  6
CONTINUOUS
 70
0
 71
3
 72
9
 73
5
 74
3
 42
0.0000001
 43
0.0000001
 44
0.0000000001
 12
0.2367067157
 22
0.181686786
 32
0.0
 13
0.2985176274
 23
0.0212235802
 33
0.0
 40
0.0
 40
0.0
 40
0.0
 40
0.0
 40
0.4938191895
 40
1.0
 40
1.0
 40
1.0
 40
1.0
 10
-34.3256823252
 20
-28.5397692823
 30
0.0
 10
-34.2867188857
 20
-28.5098624752
 30
0.0
 10
-34.1982172288
 20
-28.4607653952
 30
0.0
 10
-34.099573092
 20
-28.4399518676
 30
0.0
 10
-34.0492051271
 20
-28.4363708779
 30
0.0
 11
-34.3256823252
 21
-28.5397692823
 31
0.0
 11
-34.196837934
 21
-28.468269468
 31
0.0
 11
-34.0492051271
 21
-28.4363708779
 31
0.0
  0
SPLINE
  5
385
100
AcDbEntity
  8
0
100
AcDbSpline
 62
7
  6
CONTINUOUS
 70
0
 71
3
 72
10
 73
6
 74
4
 42
0.0000001
 43
0.0000001
 44
0.0000000001
 12
0.0549392628
 22
0.4260408303
 32
0.0
 13
-0.0522738011
 23
0.4263760798
 33
0.0
 40
0.0
 40
0.0
 40
0.0
 40
0.0
 40
0.3278037903
 40
0.6612803877
 40
1.0
 40
1.0
 40
1.0
 40
1.0
 10
10.2097634583
 20
12.1559426106
 30
0.0
 10
10.2157665578
 20
12.2024952103
 30
0.0
 10
10.2237234461
 20
12.2969901687
 30
0.0
 10
10.2236324168
 20
12.4403283019
 30
0.0
 10
10.2156884494
 20
12.5363769476
 30
0.0
 10
10.2097863955
 20
12.5845175944
 30
0.0
 11
10.2097634583
 21
12.1559426106
 31
0.0
 11
10.2216851566
 21
12.2962512303
 31
0.0
 11
10.2216928219
 21
12.4395022778
 31
0.0
 11
10.2097863955
 21
12.5845175944
 31
0.0
  0
LINE
  5
386
100
AcDbEntity
  8
0
100
AcDbLine
 62
7
  6
CONTINUOUS
 10
9.7438946726
 20
12.7365992733
 11
9.7268819972
 21
12.7508129998
  0
SPLINE
  5
387
100
AcDbEntity
  8
0
100
AcDbSpline
 62
7
  6
CONTINUOUS
 70
0
 71
3
 72
14
 73
10
 74
8
 42
0.0000001
 43
0.0000001
 44
0.0000000001
 12
0.4939679001
 22
-0.3473564061
 32
0.0
 13
0.5010174273
 23
-0.3371087314
 33
0.0
 40
0.0
 40
0.0
 40
0.0
 40
0.0
 40
0.165923571
 40
0.3145313926
 40
0.4532931416
 40
0.5889151631
 40
0.7252354086
 40
0.8626389669
 40
1.0
 40
1.0
 40
1.0
 40
1.0
 10
9.2300310106
 20
13.0940132178
 30
0.0
 10
9.2573513166
 20
13.0748016794
 30
0.0
 10
9.3091624903
 20
13.0384143449
 30
0.0
 10
9.3839321706
 20
12.9861180489
 30
0.0
 10
9.4538238366
 20
12.9374898237
 30
0.0
 10
9.5218188397
 20
12.8904668131
 30
0.0
 10
9.5897402074
 20
12.8438186618
 30
0.0
 10
9.6581180586
 20
12.7972177665
 30
0.0
 10
9.7039419067
 20
12.766248201
 30
0.0
 10
9.7268819972
 20
12.7508129998
 30
0.0
 11
9.2300310106
 21
13.0940132178
 31
0.0
 11
9.3120343258
 21
13.0364389418
 31
0.0
 11
9.3855780885
 21
12.9850133941
 31
0.0
 11
9.454365453
 21
12.9371617813
 31
0.0
 11
9.5217282305
 21
12.8905829997
 31
0.0
 11
9.5895881913
 21
12.8439826463
 31
0.0
 11
9.6581553522
 21
12.7972574499
 31
0.0
 11
9.7268819972
 21
12.7508129998
 31
0.0
  0
LINE
  5
388
100
AcDbEntity
  8
0
100
AcDbLine
 62
7
  6
CONTINUOUS
 10
9.2077579269
 20
13.1507896066
 11
9.2300310106
 21
13.0940132178
  0
SPLINE
  5
389
100
AcDbEntity
  8
0
100
AcDbSpline
 62
7
  6
CONTINUOUS
 70
0
 71
3
 72
18
 73
14
 74
12
 42
0.0000001
 43
0.0000001
 44
0.0000000001
 12
-0.4181833586
 22
-2.0787671237
 32
0.0
 13
-0.1073752922
 23
-2.1176922871
 33
0.0
 40
0.0
 40
0.0
 40
0.0
 40
0.0
 40
0.0910043491
 40
0.1816008195
 40
0.2721577403
 40
0.3630342574
 40
0.4542262259
 40
0.545011816
 40
0.6354389841
 40
0.7264943314
 40
0.8182103943
 40
0.9097013749
 40
1.0
 40
1.0
 40
1.0
 40
1.0
 10
9.473760663
 20
15.2525360627
 30
0.0
 10
9.4610751616
 20
15.189477113
 30
0.0
 10
9.436578587
 20
15.063475771
 30
0.0
 10
9.4023199619
 20
14.8741835454
 30
0.0
 10
9.3705344037
 20
14.6845516255
 30
0.0
 10
9.3411606878
 20
14.4941052729
 30
0.0
 10
9.3142740053
 20
14.3031285517
 30
0.0
 10
9.2899617841
 20
14.1121271857
 30
0.0
 10
9.268208214
 20
13.920914636
 30
0.0
 10
9.2489721554
 20
13.7287712564
 30
0.0
 10
9.2323201423
 20
13.5356315959
 30
0.0
 10
9.2184162676
 20
13.3428111596
 30
0.0
 10
9.210989874
 20
13.2145311739
 30
0.0
 10
9.2077579269
 20
13.1507896066
 30
0.0
 11
9.473760663
 21
15.2525360627
 31
0.0
 11
9.4369346722
 21
15.0631158312
 31
0.0
 11
9.4027242067
 21
14.8740846512
 31
0.0
 11
9.3709831437
 21
14.684708214
 31
0.0
 11
9.3416122184
 21
14.4942640223
 31
0.0
 11
9.3146584172
 21
14.3027872228
 31
0.0
 11
9.2903551823
 21
14.111824591
 31
0.0
 11
9.2686858637
 21
13.9213100591
 31
0.0
 11
9.2494584678
 21
13.7291949102
 31
0.0
 11
9.2327601032
 21
13.5354372199
 31
0.0
 11
9.218815381
 21
13.3419404074
 31
0.0
 11
9.2077579269
 21
13.1507896066
 31
0.0
  0
SPLINE
  5
38A
100
AcDbEntity
  8
0
100
AcDbSpline
 62
7
  6
CONTINUOUS
 70
0
 71
3
 72
18
 73
14
 74
12
 42
0.0000001
 43
0.0000001
 44
0.0000000001
 12
0.0974631794
 22
-1.8067309253
 32
0.0
 13
0.4620437556
 23
-1.7493688221
 33
0.0
 40
0.0
 40
0.0
 40
0.0
 40
0.0
 40
0.0985973321
 40
0.1967154701
 40
0.293312661
 40
0.3875031595
 40
0.4793905029
 40
0.570018059
 40
0.6594430442
 40
0.7469823656
 40
0.8326754581
 40
0.9168956935
 40
1.0
 40
1.0
 40
1.0
 40
1.0
 10
9.2077578848
 20
11.8692601252
 30
0.0
 10
9.2109610879
 20
11.8098805089
 30
0.0
 10
9.2183042168
 20
11.6914588424
 30
0.0
 10
9.2321825933
 20
11.5150935175
 30
0.0
 10
9.248812154
 20
11.3416354248
 30
0.0
 10
9.2680280837
 20
11.1722263325
 30
0.0
 10
9.2897600379
 20
11.006752126
 30
0.0
 10
9.3140480376
 20
10.844539016
 30
0.0
 10
9.3409118407
 20
10.6853909286
 30
0.0
 10
9.3702647604
 20
10.5297103354
 30
0.0
 10
9.4020285258
 20
10.377708627
 30
0.0
 10
9.4362626681
 20
10.2289879856
 30
0.0
 10
9.4609613877
 20
10.1311309703
 30
0.0
 10
9.473760663
 20
10.0826709427
 30
0.0
 11
9.2077578848
 21
11.8692601252
 31
0.0
 11
9.2188156645
 21
11.6912053032
 31
0.0
 11
9.2327610702
 21
11.5142230508
 31
0.0
 11
9.2494602252
 21
11.3402437533
 31
0.0
 11
9.2686881007
 21
11.170907591
 31
0.0
 11
9.290357468
 21
11.0060687116
 31
0.0
 11
9.3146607416
 21
10.8439020399
 31
0.0
 11
9.3416146117
 21
10.6843611045
 31
0.0
 11
9.370985261
 21
10.5287181061
 31
0.0
 11
9.4027256716
 21
10.3769522222
 31
0.0
 11
9.4369353321
 21
10.2284572812
 31
0.0
 11
9.473760663
 21
10.0826709427
 31
0.0
  0
LINE
  5
38B
100
AcDbEntity
  8
0
100
AcDbLine
 62
7
  6
CONTINUOUS
 10
9.2300309043
 20
11.915079796
 11
9.2077578848
 21
11.8692601252
  0
SPLINE
  5
38C
100
AcDbEntity
  8
0
100
AcDbSpline
 62
7
  6
CONTINUOUS
 70
0
 71
3
 72
15
 73
11
 74
9
 42
0.0000001
 43
0.0000001
 44
0.0000000001
 12
-3.4136359241
 22
1.4819799441
 32
0.0
 13
0.0
 23
3.7214479409
 33
0.0
 40
0.0
 40
0.0
 40
0.0
 40
0.0
 40
0.1200807152
 40
0.2436061432
 40
0.369752822
 40
0.4974565422
 40
0.625516315
 40
0.7527004894
 40
0.8778532242
 40
1.0
 40
1.0
 40
1.0
 40
1.0
 10
8.4345301785
 20
10.2878830287
 30
0.0
 10
8.2978928974
 20
10.3472020992
 30
0.0
 10
8.0302038223
 20
10.4905762938
 30
0.0
 10
7.6620548891
 20
10.7667895671
 30
0.0
 10
7.3307738747
 20
11.0997944985
 30
0.0
 10
7.0457458611
 20
11.4800982226
 30
0.0
 10
6.8149069213
 20
11.8969899161
 30
0.0
 10
6.6447686404
 20
12.3387917855
 30
0.0
 10
6.5401724717
 20
12.7929588399
 30
0.0
 10
6.5158488678
 20
13.1001678473
 30
0.0
 10
6.5158488678
 20
13.251688803
 30
0.0
 11
8.4345301785
 21
10.2878830287
 31
0.0
 11
8.0400975005
 21
10.4979290974
 31
0.0
 11
7.6718645153
 21
10.7731063788
 31
0.0
 11
7.3403860208
 21
11.1055273652
 31
0.0
 11
7.0551633073
 21
11.485663751
 31
0.0
 11
6.8243718187
 21
11.9026195468
 31
0.0
 11
6.6546268166
 21
12.3444433948
 31
0.0
 11
6.5507937646
 21
12.7984711351
 31
0.0
 11
6.5158488678
 21
13.251688803
 31
0.0
  0
SPLINE
  5
38D
100
AcDbEntity
  8
0
100
AcDbSpline
 62
7
  6
CONTINUOUS
 70
0
 71
3
 72
12
 73
8
 74
6
 42
0.0000001
 43
0.0000001
 44
0.0000000001
 12
0.0
 22
2.0023745271
 32
0.0
 13
1.5527638145
 23
1.2697771938
 33
0.0
 40
0.0
 40
0.0
 40
0.0
 40
0.0
 40
0.2201407188
 40
0.4328245461
 40
0.6382977219
 40
0.8376958335
 40
1.0
 40
1.0
 40
1.0
 40
1.0
 10
6.5158488678
 20
13.251688803
 30
0.0
 10
6.5158488678
 20
13.3986235256
 30
0.0
 10
6.5380728601
 20
13.6881307921
 30
0.0
 10
6.6411835233
 20
14.1035996719
 30
0.0
 10
6.8110390496
 20
14.4817809365
 30
0.0
 10
7.0304674522
 20
14.7932758392
 30
0.0
 10
7.2044425849
 20
14.9625531109
 30
0.0
 10
7.2884492638
 20
15.0312498206
 30
0.0
 11
6.5158488678
 21
13.251688803
 31
0.0
 11
6.5507937646
 21
13.6911056534
 31
0.0
 11
6.6546268166
 21
14.1041265189
 31
0.0
 11
6.8243718187
 21
14.47891283
 31
0.0
 11
7.0551633073
 21
14.8047219485
 31
0.0
 11
7.2884492638
 21
15.0312498206
 31
0.0
  0
LINE
  5
38E
100
AcDbEntity
  8
0
100
AcDbLine
 62
7
  6
CONTINUOUS
 10
7.6976027168
 20
13.1515255299
 11
7.7366915752
 21
13.1657128814
  0
SPLINE
  5
38F
100
AcDbEntity
  8
0
100
AcDbSpline
 62
7
  6
CONTINUOUS
 70
0
 71
3
 72
14
 73
10
 74
8
 42
0.0000001
 43
0.0000001
 44
0.0000000001
 12
0.4054071921
 22
0.1468623758
 32
0.0
 13
0.4087940857
 23
0.1371527501
 33
0.0
 40
0.0
 40
0.0
 40
0.0
 40
0.0
 40
0.0485033207
 40
0.1950625121
 40
0.3419026078
 40
0.489855194
 40
0.6436573007
 40
0.8107163592
 40
1.0
 40
1.0
 40
1.0
 40
1.0
 10
7.7366915752
 20
13.1657128814
 30
0.0
 10
7.7432461068
 20
13.168087319
 30
0.0
 10
7.7696090616
 20
13.1776280442
 30
0.0
 10
7.8158401035
 20
13.1942887804
 30
0.0
 10
7.8755700084
 20
13.2156518784
 30
0.0
 10
7.9363415359
 20
13.2371931773
 30
0.0
 10
7.9999296885
 20
13.2594855792
 30
0.0
 10
8.0692265938
 20
13.2834484058
 30
0.0
 10
8.117727247
 20
13.2999077182
 30
0.0
 10
8.1435199246
 20
13.3085613089
 30
0.0
 11
7.7366915752
 21
13.1657128814
 31
0.0
 11
7.7563574739
 21
13.1728298315
 31
0.0
 11
7.815810685
 21
13.1942512476
 31
0.0
 11
7.8754294635
 21
13.2155699227
 31
0.0
 11
7.9355610952
 21
13.2368782751
 31
0.0
 11
7.9981464156
 21
13.2588125857
 31
0.0
 11
8.0662287294
 21
13.282343132
 31
0.0
 11
8.1435199246
 21
13.3085613089
 31
0.0
  0
SPLINE
  5
390
100
AcDbEntity
  8
0
100
AcDbSpline
 62
7
  6
CONTINUOUS
 70
0
 71
3
 72
9
 73
5
 74
3
 42
0.0000001
 43
0.0000001
 44
0.0000000001
 12
-0.6314258704
 22
-0.2552584014
 32
0.0
 13
-0.679454295
 23
-0.0266376538
 33
0.0
 40
0.0
 40
0.0
 40
0.0
 40
0.0
 40
0.4144662997
 40
1.0
 40
1.0
 40
1.0
 40
1.0
 10
10.1368200531
 20
10.2230318358
 30
0.0
 10
10.0495851384
 20
10.1877665007
 30
0.0
 10
9.8327266681
 20
10.1184115502
 30
0.0
 10
9.6063751255
 20
10.087870024
 30
0.0
 10
9.473760663
 20
10.0826709427
 30
0.0
 11
10.1368200531
 21
10.2230318358
 31
0.0
 11
9.868193341
 21
10.1369433811
 31
0.0
 11
9.473760663
 21
10.0826709427
 31
0.0
  0
LINE
  5
391
100
AcDbEntity
  8
0
100
AcDbLine
 62
7
  6
CONTINUOUS
 10
8.9630574021
 20
13.6193810941
 11
8.9578707129
 21
13.6174145472
  0
LINE
  5
392
100
AcDbEntity
  8
0
100
AcDbLine
 62
7
  6
CONTINUOUS
 10
8.3515599568
 20
13.3874797784
 11
8.212936607
 21
13.3348952444
  0
LINE
  5
393
100
AcDbEntity
  8
0
100
AcDbLine
 62
7
  6
CONTINUOUS
 10
8.212936607
 20
13.3348952444
 11
8.1435199246
 21
13.3085613089
  0
LINE
  5
394
100
AcDbEntity
  8
0
100
AcDbLine
 62
7
  6
CONTINUOUS
 10
8.9578707129
 20
13.6174145472
 11
8.9398507332
 21
13.6114042766
  0
LINE
  5
395
100
AcDbEntity
  8
0
100
AcDbLine
 62
7
  6
CONTINUOUS
 10
8.9398507332
 20
13.6114042766
 11
8.9217320391
 21
13.6053263107
  0
LINE
  5
396
100
AcDbEntity
  8
0
100
AcDbLine
 62
7
  6
CONTINUOUS
 10
8.8842822709
 20
13.5924507327
 11
8.8802954542
 21
13.5909172999
  0
LINE
  5
397
100
AcDbEntity
  8
0
100
AcDbLine
 62
7
  6
CONTINUOUS
 10
8.8802954542
 20
13.5909172999
 11
8.3515599568
 21
13.3874797784
  0
LINE
  5
398
100
AcDbEntity
  8
0
100
AcDbLine
 62
7
  6
CONTINUOUS
 10
9.8632448825
 20
12.4648645477
 11
9.859238004
 21
12.4613848595
  0
LINE
  5
399
100
AcDbEntity
  8
0
100
AcDbLine
 62
7
  6
CONTINUOUS
 10
8.8889391162
 20
10.4806502897
 11
8.4345301785
 21
10.2878830287
  0
LINE
  5
39A
100
AcDbEntity
  8
0
100
AcDbLine
 62
7
  6
CONTINUOUS
 10
9.3907904414
 20
12.0546368141
 11
9.2300309043
 21
11.915079796
  0
LINE
  5
39B
100
AcDbEntity
  8
0
100
AcDbLine
 62
7
  6
CONTINUOUS
 10
9.9235127555
 20
12.4808312786
 11
9.9027697603
 21
12.4642335118
  0
LINE
  5
39C
100
AcDbEntity
  8
0
100
AcDbLine
 62
7
  6
CONTINUOUS
 10
9.9027697603
 20
12.4642335118
 11
9.8789853446
 21
12.4452023792
  0
LINE
  5
39D
100
AcDbEntity
  8
0
100
AcDbLine
 62
7
  6
CONTINUOUS
 10
9.8789853446
 20
12.4452023792
 11
9.8641313954
 21
12.4333171154
  0
LINE
  5
39E
100
AcDbEntity
  8
0
100
AcDbLine
 62
7
  6
CONTINUOUS
 10
9.8641313954
 20
12.4333171154
 11
9.3907904414
 21
12.0546368141
  0
LINE
  5
39F
100
AcDbEntity
  8
0
100
AcDbLine
 62
7
  6
CONTINUOUS
 10
9.6727586063
 20
15.4039014758
 11
9.473760663
 21
15.2525360627
  0
SPLINE
  5
3A0
100
AcDbEntity
  8
0
100
AcDbSpline
 62
7
  6
CONTINUOUS
 70
0
 71
3
 72
9
 73
5
 74
3
 42
0.0000001
 43
0.0000001
 44
0.0000000001
 12
-0.5423418301
 22
0.1054120582
 32
0.0
 13
-0.5076426813
 23
0.2169355995
 33
0.0
 40
0.0
 40
0.0
 40
0.0
 40
0.0
 40
0.3375905302
 40
1.0
 40
1.0
 40
1.0
 40
1.0
 10
9.4157405755
 20
10.3175645391
 30
0.0
 10
9.3547107535
 20
10.3294265767
 30
0.0
 10
9.1752731678
 20
10.3714696077
 30
0.0
 10
9.0010282226
 20
10.4327502245
 30
0.0
 10
8.8889391162
 20
10.4806502897
 30
0.0
 11
9.4157405755
 21
10.3175645391
 31
0.0
 11
9.2341496856
 21
10.3600056919
 31
0.0
 11
8.8889391162
 21
10.4806502897
 31
0.0
  0
SPLINE
  5
3A1
100
AcDbEntity
  8
0
100
AcDbSpline
 62
7
  6
CONTINUOUS
 70
0
 71
3
 72
15
 73
11
 74
9
 42
0.0000001
 43
0.0000001
 44
0.0000000001
 12
3.4136359241
 22
-1.4819799441
 32
0.0
 13
0.0
 23
-3.7214479409
 33
0.0
 40
0.0
 40
0.0
 40
0.0
 40
0.0
 40
0.1200807152
 40
0.2436061432
 40
0.369752822
 40
0.4974565422
 40
0.625516315
 40
0.7527004894
 40
0.8778532242
 40
1.0
 40
1.0
 40
1.0
 40
1.0
 10
9.473760663
 20
15.2525360627
 30
0.0
 10
9.6103979441
 20
15.1932169921
 30
0.0
 10
9.8780870192
 20
15.0498427976
 30
0.0
 10
10.2462359524
 20
14.7736295243
 30
0.0
 10
10.5775169668
 20
14.4406245929
 30
0.0
 10
10.8625449804
 20
14.0603208688
 30
0.0
 10
11.0933839202
 20
13.6434291752
 30
0.0
 10
11.2635222011
 20
13.2016273059
 30
0.0
 10
11.3681183698
 20
12.7474602514
 30
0.0
 10
11.3924419737
 20
12.4402512441
 30
0.0
 10
11.3924419737
 20
12.2887302883
 30
0.0
 11
9.473760663
 21
15.2525360627
 31
0.0
 11
9.868193341
 21
15.042489994
 31
0.0
 11
10.2364263262
 21
14.7673127125
 31
0.0
 11
10.5679048207
 21
14.4348917262
 31
0.0
 11
10.8531275342
 21
14.0547553404
 31
0.0
 11
11.0839190228
 21
13.6377995446
 31
0.0
 11
11.2536640249
 21
13.1959756966
 31
0.0
 11
11.3574970769
 21
12.7419479563
 31
0.0
 11
11.3924419737
 21
12.2887302883
 31
0.0
  0
SPLINE
  5
3A2
100
AcDbEntity
  8
0
100
AcDbSpline
 62
7
  6
CONTINUOUS
 70
0
 71
3
 72
14
 73
10
 74
8
 42
0.0000001
 43
0.0000001
 44
0.0000000001
 12
0.0
 22
-2.5649305254
 32
0.0
 13
-2.3817941939
 23
-0.9628572522
 33
0.0
 40
0.0
 40
0.0
 40
0.0
 40
0.0
 40
0.1718581315
 40
0.3378948619
 40
0.4983024243
 40
0.6539673421
 40
0.8064198717
 40
0.9576609952
 40
1.0
 40
1.0
 40
1.0
 40
1.0
 10
11.3924419737
 20
12.2887302883
 30
0.0
 10
11.3924419737
 20
12.1417955658
 30
0.0
 10
11.3702179814
 20
11.8522882992
 30
0.0
 10
11.2671073182
 20
11.4368194195
 30
0.0
 10
11.0972517919
 20
11.0586381548
 30
0.0
 10
10.8650644782
 20
10.729031031
 30
0.0
 10
10.5769948476
 20
10.4580093374
 30
0.0
 10
10.3223276325
 20
10.3031769158
 30
0.0
 10
10.1704343183
 20
10.2366206417
 30
0.0
 10
10.1368200531
 20
10.2230318358
 30
0.0
 11
11.3924419737
 21
12.2887302883
 31
0.0
 11
11.3574970769
 21
11.849313438
 31
0.0
 11
11.2536640249
 21
11.4362925725
 31
0.0
 11
11.0839190228
 21
11.0615062614
 31
0.0
 11
10.8531275342
 21
10.7356971428
 31
0.0
 11
10.5679048207
 21
10.4682040039
 31
0.0
 11
10.2364263262
 21
10.2666940991
 31
0.0
 11
10.1368200531
 21
10.2230318358
 31
0.0
  0
SPLINE
  5
3A3
100
AcDbEntity
  8
0
100
AcDbSpline
 62
7
  6
CONTINUOUS
 70
0
 71
3
 72
14
 73
10
 74
8
 42
0.0000001
 43
0.0000001
 44
0.0000000001
 12
-0.4932563539
 22
-0.1965945027
 32
0.0
 13
-0.5013938113
 23
-0.1748012449
 33
0.0
 40
0.0
 40
0.0
 40
0.0
 40
0.0
 40
0.139355787
 40
0.2779040453
 40
0.4144189908
 40
0.5497207187
 40
0.6880633191
 40
0.8357602548
 40
1.0
 40
1.0
 40
1.0
 40
1.0
 10
9.7268819109
 20
12.1022885673
 30
0.0
 10
9.7039692018
 20
12.0931563734
 30
0.0
 10
9.6582393952
 20
12.0750379521
 30
0.0
 10
9.5899268854
 20
12.0483210822
 30
0.0
 10
9.5221552227
 20
12.0221935433
 30
0.0
 10
9.4542798825
 20
11.9964387939
 30
0.0
 10
9.3843962712
 20
11.9704012241
 30
0.0
 10
9.3095192866
 20
11.9431004629
 30
0.0
 10
9.2574805016
 20
11.9246495667
 30
0.0
 10
9.2300309043
 20
11.915079796
 30
0.0
 11
9.7268819109
 21
12.1022885673
 31
0.0
 11
9.6580864774
 21
12.0750362064
 31
0.0
 11
9.5895700466
 21
12.0482457728
 31
0.0
 11
9.5219318519
 21
12.0221764255
 31
0.0
 11
9.4547580448
 21
11.9966963147
 31
0.0
 11
9.3859189948
 21
11.971057318
 31
0.0
 11
9.3122327966
 21
11.9442070515
 31
0.0
 11
9.2300309043
 21
11.915079796
 31
0.0
  0
LINE
  5
3A4
100
AcDbEntity
  8
0
100
AcDbLine
 62
7
  6
CONTINUOUS
 10
9.744120219
 20
12.1118830154
 11
9.7268819109
 21
12.1022885673
  0
SPLINE
  5
3A5
100
AcDbEntity
  8
0
100
AcDbSpline
 62
7
  6
CONTINUOUS
 70
0
 71
3
 72
18
 73
14
 74
12
 42
0.0000001
 43
0.0000001
 44
0.0000000001
 12
0.1073752023
 22
2.117693125
 32
0.0
 13
0.4181835227
 23
2.0787679396
 33
0.0
 40
0.0
 40
0.0
 40
0.0
 40
0.0
 40
0.0903010449
 40
0.1817957064
 40
0.2735148858
 40
0.364571185
 40
0.4549974075
 40
0.5457822049
 40
0.636973619
 40
0.727848651
 40
0.8184032751
 40
0.9089973737
 40
1.0
 40
1.0
 40
1.0
 40
1.0
 10
8.1685274003
 20
13.3560008613
 30
0.0
 10
8.1717594312
 20
13.4197441619
 30
0.0
 10
8.1791860941
 20
13.5480285023
 30
0.0
 10
8.19309056
 20
13.7408555044
 30
0.0
 10
8.2097432662
 20
13.9340006797
 30
0.0
 10
8.2289798235
 20
14.126146304
 30
0.0
 10
8.2507336068
 20
14.3173583459
 30
0.0
 10
8.2750458742
 20
14.5083581485
 30
0.0
 10
8.3019325096
 20
14.6993329311
 30
0.0
 10
8.3313059623
 20
14.8897762995
 30
0.0
 10
8.363090954
 20
15.0794039803
 30
0.0
 10
8.3973488652
 20
15.2686918206
 30
0.0
 10
8.4218449122
 20
15.394690368
 30
0.0
 10
8.4345301785
 20
15.4577481487
 30
0.0
 11
8.1685274003
 21
13.3560008613
 31
0.0
 11
8.17958518
 21
13.5471568581
 31
0.0
 11
8.1935305856
 21
13.740661523
 31
0.0
 11
8.2102297406
 21
13.9344258546
 31
0.0
 11
8.2294576162
 21
14.1265430603
 31
0.0
 11
8.2511269835
 21
14.3170556442
 31
0.0
 11
8.2754302571
 21
14.508016653
 31
0.0
 11
8.3023841272
 21
14.6994923323
 31
0.0
 11
8.3317547765
 21
14.8899334566
 31
0.0
 11
8.3634951871
 21
15.0793051419
 31
0.0
 11
8.3977048476
 21
15.2683314331
 31
0.0
 11
8.4345301785
 21
15.4577481487
 31
0.0
  0
LINE
  5
3A6
100
AcDbEntity
  8
0
100
AcDbLine
 62
7
  6
CONTINUOUS
 10
7.6976027168
 20
13.1515255299
 11
7.6828970551
 21
13.1434314119
  0
SPLINE
  5
3A7
100
AcDbEntity
  8
0
100
AcDbSpline
 62
7
  6
CONTINUOUS
 70
0
 71
3
 72
10
 73
6
 74
4
 42
0.0000001
 43
0.0000001
 44
0.0000000001
 12
-0.0549392631
 22
-0.4260408308
 32
0.0
 13
0.0522738012
 23
-0.4263760803
 33
0.0
 40
0.0
 40
0.0
 40
0.0
 40
0.0
 40
0.3278037903
 40
0.6612803877
 40
1.0
 40
1.0
 40
1.0
 40
1.0
 10
7.313789663
 20
13.1565592927
 30
0.0
 10
7.3077865635
 20
13.1100066929
 30
0.0
 10
7.2998296752
 20
13.0155117344
 30
0.0
 10
7.2999207044
 20
12.872173601
 30
0.0
 10
7.3078646718
 20
12.7761249551
 30
0.0
 10
7.3137667257
 20
12.7279843083
 30
0.0
 11
7.313789663
 21
13.1565592927
 31
0.0
 11
7.3018679647
 21
13.0162506728
 31
0.0
 11
7.3018602993
 21
12.8729996251
 31
0.0
 11
7.3137667257
 21
12.7279843083
 31
0.0
  0
SPLINE
  5
3A8
100
AcDbEntity
  8
0
100
AcDbSpline
 62
7
  6
CONTINUOUS
 70
0
 71
3
 72
14
 73
10
 74
8
 42
0.0000001
 43
0.0000001
 44
0.0000000001
 12
-0.4602599778
 22
0.3557604323
 32
0.0
 13
-0.4321893401
 23
0.3893804137
 33
0.0
 40
0.0
 40
0.0
 40
0.0
 40
0.0
 40
0.1684523127
 40
0.3184505812
 40
0.4577778446
 40
0.5932783615
 40
0.7288127307
 40
0.8647581087
 40
1.0
 40
1.0
 40
1.0
 40
1.0
 10
8.1435198531
 20
12.1296279077
 30
0.0
 10
8.1176759005
 20
12.1496041302
 30
0.0
 10
8.0690895242
 20
12.1877193083
 30
0.0
 10
7.9999631183
 20
12.2434101358
 30
0.0
 10
7.9363973835
 20
12.2958095076
 30
0.0
 10
7.875521379
 20
12.3470553867
 30
0.0
 10
7.8156513998
 20
12.3984720247
 30
0.0
 10
7.75631807
 20
12.4504307539
 30
0.0
 10
7.7170860117
 20
12.4854475907
 30
0.0
 10
7.6976026437
 20
12.5030011052
 30
0.0
 11
8.1435198531
 21
12.1296279077
 31
0.0
 11
8.0664135912
 21
12.1901031797
 31
0.0
 11
7.9984588016
 21
12.2448396143
 31
0.0
 11
7.9359152533
 21
12.2963900405
 31
0.0
 11
7.875610347
 21
12.3471498786
 31
0.0
 11
7.815794813
 21
12.3985157204
 31
0.0
 11
7.7562981863
 21
12.4506142675
 31
0.0
 11
7.6976026437
 21
12.5030011052
 31
0.0
  0
SPLINE
  5
3A9
100
AcDbEntity
  8
0
100
AcDbSpline
 62
7
  6
CONTINUOUS
 70
0
 71
3
 72
18
 73
14
 74
12
 42
0.0000001
 43
0.0000001
 44
0.0000000001
 12
-0.4620435557
 22
1.7493680655
 32
0.0
 13
-0.0974632646
 23
1.806730137
 33
0.0
 40
0.0
 40
0.0
 40
0.0
 40
0.0
 40
0.0831058969
 40
0.1673283878
 40
0.2530237437
 40
0.3405646196
 40
0.4299902921
 40
0.5206187963
 40
0.612507275
 40
0.706696967
 40
0.8032910193
 40
0.9014052898
 40
1.0
 40
1.0
 40
1.0
 40
1.0
 10
8.4345301785
 20
10.2878830287
 30
0.0
 10
8.4217306638
 20
10.3363439627
 30
0.0
 10
8.3970314071
 20
10.4342031903
 30
0.0
 10
8.3627965508
 20
10.5829273814
 30
0.0
 10
8.3310322233
 20
10.7349326466
 30
0.0
 10
8.3016790463
 20
10.890615887
 30
0.0
 10
8.2748151985
 20
11.0497658473
 30
0.0
 10
8.2505272445
 20
11.2119805823
 30
0.0
 10
8.2287955078
 20
11.3774555215
 30
0.0
 10
8.2095800838
 20
11.5468628911
 30
0.0
 10
8.1929512185
 20
11.7203162404
 30
0.0
 10
8.1790734293
 20
11.8966757091
 30
0.0
 10
8.1717305632
 20
12.0150934185
 30
0.0
 10
8.1685274424
 20
12.0744714299
 30
0.0
 11
8.4345301785
 21
10.2878830287
 31
0.0
 11
8.3977041877
 21
10.4336721014
 31
0.0
 11
8.3634937222
 21
10.5821709774
 31
0.0
 11
8.3317526592
 21
10.7339408401
 31
0.0
 11
8.3023817339
 21
10.8895865789
 31
0.0
 11
8.2754279327
 21
11.0491287161
 31
0.0
 11
8.2511246978
 21
11.2112970566
 31
0.0
 11
8.2294553791
 21
11.3761379417
 31
0.0
 11
8.2102279833
 21
11.5454726156
 31
0.0
 11
8.1935296186
 21
11.7194462082
 31
0.0
 11
8.1795848965
 21
11.8964214181
 31
0.0
 11
8.1685274424
 21
12.0744714299
 31
0.0
  0
SPLINE
  5
3AA
100
AcDbEntity
  8
0
100
AcDbSpline
 62
7
  6
CONTINUOUS
 70
0
 71
3
 72
11
 73
7
 74
5
 42
0.0000001
 43
0.0000001
 44
0.0000000001
 12
-0.2731737215
 22
-0.0579764686
 32
0.0
 13
-0.2703663928
 23
-0.06990345
 33
0.0
 40
0.0
 40
0.0
 40
0.0
 40
0.0
 40
0.2718347035
 40
0.5258396094
 40
0.7666192312
 40
1.0
 40
1.0
 40
1.0
 40
1.0
 10
10.1954396099
 20
12.5443003652
 30
0.0
 10
10.1706869107
 20
12.5390470265
 30
0.0
 10
10.12284943
 20
12.5286755857
 30
0.0
 10
10.0532664741
 20
12.5128374693
 30
0.0
 10
9.9873468834
 20
12.4970525316
 30
0.0
 10
9.9445455277
 20
12.4862693189
 30
0.0
 10
9.9235127555
 20
12.4808312786
 30
0.0
 11
10.1954396099
 21
12.5443003652
 31
0.0
 11
10.1212565536
 21
12.5281923707
 31
0.0
 11
10.0520970582
 21
12.5124314955
 31
0.0
 11
9.9867089479
 21
12.4967620463
 31
0.0
 11
9.9235127555
 21
12.4808312786
 31
0.0
  0
SPLINE
  5
3AB
100
AcDbEntity
  8
0
100
AcDbSpline
 62
7
  6
CONTINUOUS
 70
0
 71
3
 72
12
 73
8
 74
6
 42
0.0000001
 43
0.0000001
 44
0.0000000001
 12
-0.5380946529
 22
0.2877765645
 32
0.0
 13
-0.5610766686
 23
0.2399045196
 33
0.0
 40
0.0
 40
0.0
 40
0.0
 40
0.0
 40
0.1630161814
 40
0.3402459968
 40
0.5363644362
 40
0.7554865047
 40
1.0
 40
1.0
 40
1.0
 40
1.0
 10
8.8842821843
 20
12.6860428245
 30
0.0
 10
8.8550428058
 20
12.7016802367
 30
0.0
 10
8.7935862676
 20
12.7335213359
 30
0.0
 10
8.6956372808
 20
12.78158449
 30
0.0
 10
8.5864744208
 20
12.8326519515
 30
0.0
 10
8.4640407288
 20
12.8876064658
 30
0.0
 10
8.3775124855
 20
12.9251149182
 30
0.0
 10
8.331782213
 20
12.9446682157
 30
0.0
 11
8.8842821843
 21
12.6860428245
 31
0.0
 11
8.795997957
 21
12.7318808488
 31
0.0
 11
8.6989491955
 21
12.7796045862
 31
0.0
 11
8.5905901704
 21
12.8304006796
 31
0.0
 11
8.4686434693
 21
12.8852434741
 31
0.0
 11
8.331782213
 21
12.9446682157
 31
0.0
  0
SPLINE
  5
3AC
100
AcDbEntity
  8
TRASH
100
AcDbSpline
 62
7
  6
CONTINUOUS
 70
0
 71
3
 72
10
 73
6
 74
4
 42
0.0000001
 43
0.0000001
 44
0.0000000001
 12
-0.0747413402
 22
0.3957955347
 32
0.0
 13
0.0622110859
 23
0.3982408076
 33
0.0
 40
0.0
 40
0.0
 40
0.0
 40
0.0
 40
0.3823181593
 40
0.7559405694
 40
1.0
 40
1.0
 40
1.0
 40
1.0
 10
8.331782213
 20
12.9446682157
 30
0.0
 10
8.3222572225
 20
12.9951081558
 30
0.0
 10
8.3093712096
 20
13.0960891023
 30
0.0
 10
8.3090990899
 20
13.2306833905
 30
0.0
 10
8.3181259343
 20
13.3133170068
 30
0.0
 10
8.3231870017
 20
13.3457151484
 30
0.0
 11
8.331782213
 21
12.9446682157
 31
0.0
 11
8.3124664073
 21
13.0974462137
 31
0.0
 11
8.3124280541
 21
13.2479378526
 31
0.0
 11
8.3231870017
 21
13.3457151484
 31
0.0
  0
SPLINE
  5
3AD
100
AcDbEntity
  8
0
100
AcDbSpline
 62
7
  6
CONTINUOUS
 70
0
 71
3
 72
11
 73
7
 74
5
 42
0.0000001
 43
0.0000001
 44
0.0000000001
 12
0.9635355878
 22
0.7879340717
 32
0.0
 13
1.2415784691
 23
0.048675441
 33
0.0
 40
0.0
 40
0.0
 40
0.0
 40
0.0
 40
0.0531466432
 40
0.365350189
 40
0.6795664572
 40
1.0
 40
1.0
 40
1.0
 40
1.0
 10
7.2884492638
 20
15.0312498206
 30
0.0
 10
7.3055188245
 20
15.0452085043
 30
0.0
 10
7.4245473862
 20
15.1391046799
 30
0.0
 10
7.666828716
 20
15.2864067383
 30
0.0
 10
8.039414368
 20
15.4171298619
 30
0.0
 10
8.301915716
 20
15.4525490673
 30
0.0
 10
8.4345301785
 20
15.4577481487
 30
0.0
 11
7.2884492638
 21
15.0312498206
 31
0.0
 11
7.3403860208
 21
15.0722150875
 31
0.0
 11
7.6718645153
 21
15.2737249923
 31
0.0
 11
8.0400975005
 21
15.4034757103
 31
0.0
 11
8.4345301785
 21
15.4577481487
 31
0.0
  0
SPLINE
  5
3AE
100
AcDbEntity
  8
0
100
AcDbSpline
 62
7
  6
CONTINUOUS
 70
0
 71
3
 72
9
 73
5
 74
3
 42
0.0000001
 43
0.0000001
 44
0.0000000001
 12
0.6088436303
 22
0.4274540288
 32
0.0
 13
0.6088436303
 23
0.4274540288
 33
0.0
 40
0.0
 40
0.0
 40
0.0
 40
0.0
 40
0.5002165115
 40
1.0
 40
1.0
 40
1.0
 40
1.0
 10
7.6830890246
 20
12.5186952632
 30
0.0
 10
7.7846069036
 20
12.5899684509
 30
0.0
 10
7.9877045514
 20
12.7322401181
 30
0.0
 10
8.1902033743
 20
12.8753634528
 30
0.0
 10
8.2916333721
 20
12.9465749414
 30
0.0
 11
7.6830890246
 21
12.5186952632
 31
0.0
 11
7.9876426614
 21
12.7325148263
 31
0.0
 11
8.2916333721
 21
12.9465749414
 31
0.0
  0
LINE
  5
3AF
100
AcDbEntity
  8
0
100
AcDbLine
 62
7
  6
CONTINUOUS
 10
8.9630574021
 20
12.6426204483
 11
8.9578707129
 21
12.6393737318
  0
LINE
  5
3B0
100
AcDbEntity
  8
0
100
AcDbLine
 62
7
  6
CONTINUOUS
 10
8.3515603044
 20
12.2598489667
 11
8.8842821843
 21
12.6860428245
  0
LINE
  5
3B1
100
AcDbEntity
  8
0
100
AcDbLine
 62
7
  6
CONTINUOUS
 10
8.3515603044
 20
12.2598489667
 11
8.1435198531
 21
12.1296279077
  0
LINE
  5
3B2
100
AcDbEntity
  8
0
100
AcDbLine
 62
7
  6
CONTINUOUS
 10
8.1685274424
 20
12.0744714299
 11
8.3515603044
 21
12.2598489667
  0
LINE
  5
3B3
100
AcDbEntity
  8
0
100
AcDbLine
 62
7
  6
CONTINUOUS
 10
10.2174573749
 20
12.5070655492
 11
9.744120219
 21
12.1118830154
  0
LINE
  5
3B4
100
AcDbEntity
  8
0
100
AcDbLine
 62
7
  6
CONTINUOUS
 10
8.4345301785
 20
15.4577481487
 11
8.7369733461
 21
15.6877904027
  0
LINE
  5
3B5
100
AcDbEntity
  8
0
100
AcDbLine
 62
7
  6
CONTINUOUS
 10
8.7369733461
 20
15.6877904027
 11
8.7875735109
 21
15.7262732933
  0
LINE
  5
3B6
100
AcDbEntity
  8
0
100
AcDbLine
 62
7
  6
CONTINUOUS
 10
8.7875735109
 20
15.7262732933
 11
8.8177833112
 21
15.7492481532
  0
SPLINE
  5
3B7
100
AcDbEntity
  8
0
100
AcDbSpline
 62
7
  6
CONTINUOUS
 70
0
 71
3
 72
13
 73
9
 74
7
 42
0.0000001
 43
0.0000001
 44
0.0000000001
 12
-0.7700259015
 22
-0.591041664
 32
0.0
 13
-0.6330316306
 23
0.7358947562
 33
0.0
 40
0.0
 40
0.0
 40
0.0
 40
0.0
 40
0.1518005021
 40
0.3070097736
 40
0.4685549681
 40
0.6382894993
 40
0.8160509146
 40
1.0
 40
1.0
 40
1.0
 40
1.0
 10
9.8415208528
 20
12.4256707497
 30
0.0
 10
9.8025574133
 20
12.3957639426
 30
0.0
 10
9.7141683872
 20
12.3467293468
 30
0.0
 10
9.5638300406
 20
12.314949519
 30
0.0
 10
9.4049266708
 20
12.3262204196
 30
0.0
 10
9.2472828029
 20
12.3791875084
 30
0.0
 10
9.0997630374
 20
12.4700776128
 30
0.0
 10
9.0144027429
 20
12.5515405528
 30
0.0
 10
8.9755875464
 20
12.5966629419
 30
0.0
 11
9.8415208528
 21
12.4256707497
 31
0.0
 11
9.7126764617
 21
12.3541709354
 31
0.0
 11
9.5654235464
 21
12.3222994868
 31
0.0
 11
9.4089364473
 21
12.3324024631
 31
0.0
 11
9.2524304001
 21
12.383904714
 31
0.0
 11
9.105114088
 21
12.4737535431
 31
0.0
 11
8.9755875464
 21
12.5966629419
 31
0.0
  0
SPLINE
  5
3B8
100
AcDbEntity
  8
0
100
AcDbSpline
 62
7
  6
CONTINUOUS
 70
0
 71
3
 72
9
 73
5
 74
3
 42
0.0000001
 43
0.0000001
 44
0.0000000001
 12
0.2367067157
 22
0.181686786
 32
0.0
 13
0.2985176274
 23
0.0212235802
 33
0.0
 40
0.0
 40
0.0
 40
0.0
 40
0.0
 40
0.4938191895
 40
1.0
 40
1.0
 40
1.0
 40
1.0
 10
8.9755878641
 20
13.653128657
 30
0.0
 10
9.0145513036
 20
13.6830354641
 30
0.0
 10
9.1030529605
 20
13.7321325441
 30
0.0
 10
9.2016970973
 20
13.7529460717
 30
0.0
 10
9.2520650621
 20
13.7565270614
 30
0.0
 11
8.9755878641
 21
13.653128657
 31
0.0
 11
9.1044322552
 21
13.7246284713
 31
0.0
 11
9.2520650621
 21
13.7565270614
 31
0.0
  0
SPLINE
  5
3B9
100
AcDbEntity
  8
0
100
AcDbSpline
 62
7
  6
CONTINUOUS
 70
0
 71
3
 72
31
 73
27
 74
25
 42
0.0000001
 43
0.0000001
 44
0.0000000001
 12
-24.5240297115
 22
-13.4820129403
 32
0.0
 13
0.3696812395
 23
28.1279013372
 33
0.0
 40
0.0
 40
0.0
 40
0.0
 40
0.0
 40
0.0341249399
 40
0.0724034143
 40
0.1145894266
 40
0.1603278068
 40
0.209180636
 40
0.2606460194
 40
0.3141728127
 40
0.3691731932
 40
0.4250340845
 40
0.4811279877
 40
0.536823536
 40
0.5914959843
 40
0.6445378134
 40
0.6953696789
 40
0.7434520697
 40
0.7882983209
 40
0.8294901671
 40
0.8666980751
 40
0.899710632
 40
0.9284811404
 40
0.9532058292
 40
0.9744516754
 40
0.993319337
 40
1.0
 40
1.0
 40
1.0
 40
1.0
 10
18.6464746962
 20
39.3757353131
 30
0.0
 10
18.3675143492
 20
39.2223776858
 30
0.0
 10
17.7565036577
 20
38.931473174
 30
0.0
 10
16.7548212005
 20
38.5556679
 30
0.0
 10
15.6257502438
 20
38.2193086614
 30
0.0
 10
14.3831987066
 20
37.9267173624
 30
0.0
 10
13.0424123162
 20
37.6816087268
 30
0.0
 10
11.6200609051
 20
37.4871377291
 30
0.0
 10
10.1338803943
 20
37.3458032781
 30
0.0
 10
8.6024552949
 20
37.2594249405
 30
0.0
 10
7.0449595482
 20
37.2291158295
 30
0.0
 10
5.4809068909
 20
37.2552700032
 30
0.0
 10
3.9298961238
 20
37.3375575818
 30
0.0
 10
2.4113568563
 20
37.4749290268
 30
0.0
 10
0.9442960514
 20
37.665628125
 30
0.0
 10
-0.4529531747
 20
37.9072141239
 30
0.0
 10
-1.762980318
 20
38.1965940783
 30
0.0
 10
-2.9695458849
 20
38.530068512
 30
0.0
 10
-4.0578331407
 20
38.9033990564
 30
0.0
 10
-5.0147152383
 20
39.3119204962
 30
0.0
 10
-5.8290288669
 20
39.7507576628
 30
0.0
 10
-6.4918392691
 20
40.215286179
 30
0.0
 10
-6.9962274284
 20
40.7021029733
 30
0.0
 10
-7.33560762
 20
41.2103260076
 30
0.0
 10
-7.4654901029
 20
41.6353740995
 30
0.0
 10
-7.4773914808
 20
41.8750038294
 30
0.0
 10
-7.4765682422
 20
41.9376415058
 30
0.0
 11
18.6464746962
 21
39.3757353131
 31
0.0
 11
17.7866896902
 21
38.9600350883
 31
0.0
 11
16.7852461725
 21
38.5796702472
 31
0.0
 11
15.6547378763
 21
38.2394240984
 31
0.0
 11
14.4093815995
 21
37.9435754347
 31
0.0
 11
13.0648384197
 21
37.6958447247
 31
0.0
 11
11.6380167475
 21
37.4993473257
 31
0.0
 11
10.1468596935
 21
37.3565543066
 31
0.0
 11
8.6101194226
 21
37.2692613725
 31
0.0
 11
7.0471213355
 21
37.2385662826
 31
0.0
 11
5.4775210399
 21
37.2648550455
 31
0.0
 11
3.9210571703
 21
37.3477970647
 31
0.0
 11
2.3973031629
 21
37.4863492963
 31
0.0
 11
0.9254211085
 21
37.6787693655
 31
0.0
 11
-0.4760792221
 21
37.9226374784
 31
0.0
 11
-1.789573149
 21
38.2148868518
 31
0.0
 11
-2.9985427241
 21
38.5518422804
 31
0.0
 11
-4.0877844535
 21
38.9292663542
 31
0.0
 11
-5.0436004903
 21
39.3424127464
 31
0.0
 11
-5.8539708935
 21
39.7860859015
 31
0.0
 11
-6.5087047849
 21
40.254706372
 31
0.0
 11
-6.999568506
 21
40.7423809837
 31
0.0
 11
-7.3203891607
 21
41.2429769454
 31
0.0
 11
-7.4671322432
 21
41.7501989724
 31
0.0
 11
-7.4765682422
 21
41.9376415058
 31
0.0
  0
SPLINE
  5
3BA
100
AcDbEntity
  8
0
100
AcDbSpline
 62
7
  6
CONTINUOUS
 70
0
 71
3
 72
29
 73
25
 74
23
 42
0.0000001
 43
0.0000001
 44
0.0000000001
 12
-20.7566501319
 22
-11.4109071375
 32
0.0
 13
0.2367092311
 23
23.8177160563
 33
0.0
 40
0.0
 40
0.0
 40
0.0
 40
0.0
 40
0.0369241209
 40
0.0786476065
 40
0.124845956
 40
0.1750539261
 40
0.2287013163
 40
0.2851383154
 40
0.3436555807
 40
0.4035016433
 40
0.4638989682
 40
0.5240593792
 40
0.5831992613
 40
0.6405548567
 40
0.6953980077
 40
0.7470529095
 40
0.7949149022
 40
0.8384732779
 40
0.8773420228
 40
0.9113063735
 40
0.9404007839
 40
0.9650452407
 40
0.9862600561
 40
1.0
 40
1.0
 40
1.0
 40
1.0
 10
16.8230885451
 20
42.9603873421
 30
0.0
 10
16.5676148586
 20
42.8199414371
 30
0.0
 10
16.0044921763
 20
42.5550060787
 30
0.0
 10
15.0775448424
 20
42.2170638519
 30
0.0
 10
14.0277747404
 20
41.9184064684
 30
0.0
 10
12.8701589811
 20
41.6635039388
 30
0.0
 10
11.6211617865
 20
41.4561246376
 30
0.0
 10
10.2987916936
 20
41.2993767214
 30
0.0
 10
8.9221705363
 20
41.19560436
 30
0.0
 10
7.5112593339
 20
41.1463632752
 30
0.0
 10
6.0865381068
 20
41.1523942755
 30
0.0
 10
4.6686966978
 20
41.2136141048
 30
0.0
 10
3.2783208451
 20
41.3291165962
 30
0.0
 10
1.9355799477
 20
41.4971857521
 30
0.0
 10
0.6599166682
 20
41.7153207745
 30
0.0
 10
-0.5302613868
 20
41.9802743587
 30
0.0
 10
-1.6178908903
 20
42.2881103193
 30
0.0
 10
-2.5875722085
 20
42.6342903356
 30
0.0
 10
-3.4259101126
 20
43.0138440285
 30
0.0
 10
-4.1218846688
 20
43.4216884193
 30
0.0
 10
-4.667076424
 20
43.8535073475
 30
0.0
 10
-5.0549227196
 20
44.3071429382
 30
0.0
 10
-5.2559934625
 20
44.7416068064
 30
0.0
 10
-5.2892434946
 20
45.0199233698
 30
0.0
 10
-5.2881593707
 20
45.1290080643
 30
0.0
 11
16.8230885451
 21
42.9603873421
 31
0.0
 11
16.0342680798
 21
42.5826453879
 31
0.0
 11
15.1073014772
 21
42.2399622484
 31
0.0
 11
14.0557059976
 21
41.9373350153
 31
0.0
 11
12.8948162712
 21
41.6791766752
 31
0.0
 11
11.6415606842
 21
41.4692517579
 31
0.0
 11
10.3142145252
 21
41.3106214415
 31
0.0
 11
8.9321334902
 21
41.2055989132
 31
0.0
 11
7.5154714327
 21
41.155715638
 31
0.0
 11
6.0848864756
 21
41.1616990263
 31
0.0
 11
4.661239769
 21
41.2234618269
 31
0.0
 11
3.2652912877
 21
41.3401033991
 31
0.0
 11
1.9173971039
 21
41.509922846
 31
0.0
 11
0.63721255
 21
41.7304438177
 31
0.0
 11
-0.5565944005
 21
41.9984506219
 31
0.0
 11
-1.646615354
 21
42.310035116
 31
0.0
 11
-2.6169553505
 21
42.6606536963
 31
0.0
 11
-3.4534646478
 21
43.0451935544
 31
0.0
 11
-4.1439450568
 21
43.4580472333
 31
0.0
 11
-4.6783278182
 21
43.8931943966
 31
0.0
 11
-5.048820428
 21
44.344289619
 31
0.0
 11
-5.2500202698
 21
44.8047549161
 31
0.0
 11
-5.2881593707
 21
45.1290080643
 31
0.0
  0
SPLINE
  5
3BB
100
AcDbEntity
  8
0
100
AcDbSpline
 62
7
  6
CONTINUOUS
 70
0
 71
3
 72
8
 73
4
 74
2
 42
0.0000001
 43
0.0000001
 44
0.0000000001
 12
-0.5836191716
 22
-0.3208429168
 32
0.0
 13
-0.6122153658
 23
-0.2636329399
 33
0.0
 40
0.0
 40
0.0
 40
0.0
 40
0.0
 40
1.0
 40
1.0
 40
1.0
 40
1.0
 10
15.3279626887
 20
44.9627622248
 30
0.0
 10
15.1334229648
 20
44.8558145859
 30
0.0
 10
14.9328512005
 20
44.7597617281
 30
0.0
 10
14.7287794119
 20
44.6718840814
 30
0.0
 11
15.3279626887
 21
44.9627622248
 31
0.0
 11
14.7287794119
 21
44.6718840814
 31
0.0
  0
SPLINE
  5
3BC
100
AcDbEntity
  8
0
100
AcDbSpline
 62
7
  6
CONTINUOUS
 70
0
 71
3
 72
28
 73
24
 74
22
 42
0.0000001
 43
0.0000001
 44
0.0000000001
 12
-17.9446816802
 22
-7.7273610742
 32
0.0
 13
0.2500660679
 23
19.6003935433
 33
0.0
 40
0.0
 40
0.0
 40
0.0
 40
0.0
 40
0.0074761614
 40
0.0548671651
 40
0.1076040916
 40
0.1650438508
 40
0.2264036441
 40
0.290797291
 40
0.3572644161
 40
0.4247962156
 40
0.4923596304
 40
0.5589208872
 40
0.6234690218
 40
0.6850399921
 40
0.7427423071
 40
0.795785926
 40
0.8435179838
 40
0.8854728025
 40
0.9214520814
 40
0.9516678221
 40
0.9769987129
 40
0.9993367704
 40
1.0
 40
1.0
 40
1.0
 40
1.0
 10
14.7287794119
 20
44.6718840814
 30
0.0
 10
14.6840602999
 20
44.652627082
 30
0.0
 10
14.3546355682
 20
44.5141820162
 30
0.0
 10
13.6936373652
 20
44.2811113002
 30
0.0
 10
12.7028489266
 20
44.0140728394
 30
0.0
 10
11.6084152199
 20
43.7916799317
 30
0.0
 10
10.4285955697
 20
43.6178100266
 30
0.0
 10
9.1833535259
 20
43.4955362636
 30
0.0
 10
7.8938182873
 20
43.4270142331
 30
0.0
 10
6.581926982
 20
43.4134569338
 30
0.0
 10
5.2700146107
 20
43.4551106317
 30
0.0
 10
3.9804174767
 20
43.5512523592
 30
0.0
 10
2.7350724654
 20
43.7002018795
 30
0.0
 10
1.5551195824
 20
43.8993502642
 30
0.0
 10
0.460504248
 20
44.1452074912
 30
0.0
 10
-0.5304209582
 20
44.4334749437
 30
0.0
 10
-1.4013276518
 20
44.7591742323
 30
0.0
 10
-2.1383457954
 20
45.1168862873
 30
0.0
 10
-2.7306533675
 20
45.5013928299
 30
0.0
 10
-3.1702649673
 20
45.9090514103
 30
0.0
 10
-3.450049951
 20
46.340727751
 30
0.0
 10
-3.5191667409
 20
46.6563912261
 30
0.0
 10
-3.5182173658
 20
46.8066772924
 30
0.0
 10
-3.5181620821
 20
46.8110104797
 30
0.0
 11
14.7287794119
 21
44.6718840814
 31
0.0
 11
14.5941445083
 21
44.6152621818
 31
0.0
 11
13.7232210194
 21
44.3032608613
 31
0.0
 11
12.7300939642
 21
44.0320966923
 31
0.0
 11
11.6317560219
 21
43.8064093689
 31
0.0
 11
10.4470000594
 21
43.6300604639
 31
0.0
 11
9.1960975796
 21
43.5060673559
 31
0.0
 11
7.9004518707
 21
43.4365516013
 31
0.0
 11
6.5822317901
 21
43.422702634
 31
0.0
 11
5.2639924488
 21
43.4647574136
 31
0.0
 11
3.9682892875
 21
43.5619963713
 31
0.0
 11
2.7172921463
 21
43.7127557214
 31
0.0
 11
1.5324059334
 21
43.9144559298
 31
0.0
 11
0.4339043802
 21
44.1636458498
 31
0.0
 11
-0.559416847
 21
44.456061773
 31
0.0
 11
-1.4305617467
 21
44.7867003817
 31
0.0
 11
-2.1646247881
 21
45.1499043578
 31
0.0
 11
-2.749045949
 21
45.5394591804
 31
0.0
 11
-3.1738256215
 21
45.9486994586
 31
0.0
 11
-3.4316957074
 21
46.3706229778
 31
0.0
 11
-3.5182439781
 21
46.7980105095
 31
0.0
 11
-3.5181620821
 21
46.8110104797
 31
0.0
  0
SPLINE
  5
3BD
100
AcDbEntity
  8
0
100
AcDbSpline
 62
7
  6
CONTINUOUS
 70
0
 71
3
 72
27
 73
23
 74
21
 42
0.0000001
 43
0.0000001
 44
0.0000000001
 12
-14.624445157
 22
-8.0397455545
 32
0.0
 13
0.2599944352
 23
16.7813109495
 33
0.0
 40
0.0
 40
0.0
 40
0.0
 40
0.0
 40
0.0420987186
 40
0.0902856329
 40
0.1440487096
 40
0.2026627778
 40
0.2652484776
 40
0.330814098
 40
0.3982894931
 40
0.4665563302
 40
0.5344767187
 40
0.6009213013
 40
0.6647975721
 40
0.7250793183
 40
0.7808387535
 40
0.8312845182
 40
0.8758123193
 40
0.914083052
 40
0.946160618
 40
0.9727689092
 40
0.995693711
 40
1.0
 40
1.0
 40
1.0
 40
1.0
 10
13.8328368323
 20
46.9651371076
 30
0.0
 10
13.6276133649
 20
46.8523161122
 30
0.0
 10
13.1701206142
 20
46.6417544575
 30
0.0
 10
12.4120519452
 20
46.3794496451
 30
0.0
 10
11.5471300905
 20
46.1534009628
 30
0.0
 10
10.5910965643
 20
45.9679692816
 30
0.0
 10
9.5613149593
 20
45.8266848842
 30
0.0
 10
8.4767576662
 20
45.7322745293
 30
0.0
 10
7.3574597818
 20
45.6865554357
 30
0.0
 10
6.2241487345
 20
45.6904131477
 30
0.0
 10
5.0978236007
 20
45.743782129
 30
0.0
 10
3.9993478947
 20
45.8456484073
 30
0.0
 10
2.9490393888
 20
45.9940679541
 30
0.0
 10
1.9662611656
 20
46.1862033393
 30
0.0
 10
1.069014545
 20
46.4183844224
 30
0.0
 10
0.2735034875
 20
46.686205212
 30
0.0
 10
-0.4062960069
 20
46.9847252315
 30
0.0
 10
-0.9592668844
 20
47.3088992551
 30
0.0
 10
-1.3771922375
 20
47.6548502896
 30
0.0
 10
-1.6541140281
 20
48.0222328611
 30
0.0
 10
-1.7440917955
 20
48.3166727249
 30
0.0
 10
-1.7480419909
 20
48.4689708893
 30
0.0
 10
-1.7476687871
 20
48.493059281
 30
0.0
 11
13.8328368323
 21
46.9651371076
 31
0.0
 11
13.1971345665
 21
46.6659885389
 31
0.0
 11
12.4385685684
 21
46.3990122526
 31
0.0
 11
11.5712694875
 21
46.1691815118
 31
0.0
 11
10.6113934644
 21
45.9807776281
 31
0.0
 11
9.5768211734
 21
45.8373102096
 31
0.0
 11
8.4868247388
 21
45.7414517827
 31
0.0
 11
7.3617087318
 21
45.6949880086
 31
0.0
 11
6.2224319348
 21
45.6987844196
 31
0.0
 11
5.0902169189
 21
45.7527702956
 31
0.0
 11
3.9861547077
 21
45.8559399819
 31
0.0
 11
2.9308118912
 21
46.0063716224
 31
0.0
 11
1.9438475093
 21
46.2012629604
 31
0.0
 11
1.0436468409
 21
46.436983539
 31
0.0
 11
0.2469789214
 21
46.7091423297
 31
0.0
 11
-0.4313158334
 21
47.0126695293
 31
0.0
 11
-0.9786020754
 21
47.3419110003
 31
0.0
 11
-1.3846848976
 21
47.690733597
 31
0.0
 11
-1.6419997453
 21
48.0526394146
 31
0.0
 11
-1.7457533297
 21
48.4208868322
 31
0.0
 11
-1.7476687871
 21
48.493059281
 31
0.0
  0
SPLINE
  5
3BE
100
AcDbEntity
  8
RACCORDO
100
AcDbSpline
 62
7
  6
CONTINUOUS
 70
0
 71
3
 72
11
 73
7
 74
5
 42
0.0000001
 43
0.0000001
 44
0.0000000001
 12
0.0136644565
 22
1.1397468361
 32
0.0
 13
0.9988427496
 23
0.5491108534
 33
0.0
 40
0.0
 40
0.0
 40
0.0
 40
0.0
 40
0.2012365532
 40
0.4240666839
 40
0.6826158344
 40
1.0
 40
1.0
 40
1.0
 40
1.0
 10
2.5260852508
 20
50.4662326379
 30
0.0
 10
2.5270018469
 20
50.5426855462
 30
0.0
 10
2.5562900955
 20
50.7045556542
 30
0.0
 10
2.6834296668
 20
50.9350718124
 30
0.0
 10
2.899611998
 20
51.152342159
 30
0.0
 10
3.0846972293
 20
51.2717192463
 30
0.0
 10
3.1903695202
 20
51.3298122763
 30
0.0
 11
2.5260852508
 21
50.4662326379
 31
0.0
 11
2.5659895985
 21
50.6921101025
 31
0.0
 11
2.6854818136
 21
50.9162341983
 31
0.0
 11
2.8895754513
 21
51.1288251451
 31
0.0
 11
3.1903695202
 21
51.3298122763
 31
0.0
  0
SPLINE
  5
3BF
100
AcDbEntity
  8
RACCORDO
100
AcDbSpline
 62
7
  6
CONTINUOUS
 70
0
 71
3
 72
21
 73
17
 74
15
 42
0.0000001
 43
0.0000001
 44
0.0000000001
 12
7.2805103106
 22
3.4366810557
 32
0.0
 13
-0.096451631
 23
-8.044991871
 33
0.0
 40
0.0
 40
0.0
 40
0.0
 40
0.0
 40
0.0455579924
 40
0.120737222
 40
0.2032950132
 40
0.2915564516
 40
0.3832969175
 40
0.4760051031
 40
0.5670943455
 40
0.6540907505
 40
0.7348717202
 40
0.8079104861
 40
0.8721599532
 40
0.9229966366
 40
0.9638976178
 40
1.0
 40
1.0
 40
1.0
 40
1.0
 10
3.3427620806
 20
51.4074246376
 30
0.0
 10
3.4533238918
 20
51.4596140674
 30
0.0
 10
3.75512103
 20
51.5802114062
 30
0.0
 10
4.2807416443
 20
51.7277872235
 30
0.0
 10
4.9303866751
 20
51.8472776859
 30
0.0
 10
5.6309950352
 20
51.922913675
 30
0.0
 10
6.362199093
 20
51.9538454526
 30
0.0
 10
7.1014759296
 20
51.9396084948
 30
0.0
 10
7.8258024774
 20
51.8806231988
 30
0.0
 10
8.5130233089
 20
51.7781089128
 30
0.0
 10
9.1432797181
 20
51.6335462303
 30
0.0
 10
9.6989831415
 20
51.4474642896
 30
0.0
 10
10.153369181
 20
51.223033933
 30
0.0
 10
10.4861543772
 20
50.9622431966
 30
0.0
 10
10.6838623163
 20
50.6737766696
 30
0.0
 10
10.7266567048
 20
50.4647441319
 30
0.0
 10
10.7254959935
 20
50.3679296748
 30
0.0
 11
3.3427620806
 21
51.4074246376
 31
0.0
 11
3.6825556404
 21
51.5459328291
 31
0.0
 11
4.2636473451
 21
51.7138249257
 31
0.0
 11
4.9164225585
 21
51.8366202629
 31
0.0
 11
5.6222687945
 21
51.9143530928
 31
0.0
 11
6.3596856595
 21
51.9462025511
 31
0.0
 11
7.1054359263
 21
51.9317550885
 31
0.0
 11
7.8358137544
 21
51.8714296462
 31
0.0
 11
8.5278292462
 21
51.7664320295
 31
0.0
 11
9.1606202787
 21
51.6181648801
 31
0.0
 11
9.716214838
 21
51.4267655608
 31
0.0
 11
10.1756532537
 21
51.1898555827
 31
0.0
 11
10.4908179396
 21
50.9291632751
 31
0.0
 11
10.6697589034
 21
50.6529960777
 31
0.0
 11
10.7254959935
 21
50.3679296748
 31
0.0
  0
SPLINE
  5
3C0
100
AcDbEntity
  8
0
100
AcDbSpline
 62
7
  6
CONTINUOUS
 70
0
 71
3
 72
23
 73
19
 74
17
 42
0.0000001
 43
0.0000001
 44
0.0000000001
 12
-7.1790147509
 22
-3.9466421672
 32
0.0
 13
0.0484566135
 23
8.2357983894
 33
0.0
 40
0.0
 40
0.0
 40
0.0
 40
0.0
 40
0.0517513423
 40
0.1122891215
 40
0.1805768965
 40
0.2551771786
 40
0.3343796066
 40
0.4162940997
 40
0.4989302269
 40
0.5802714384
 40
0.6583482189
 40
0.7313132576
 40
0.7975235277
 40
0.855640365
 40
0.9047752664
 40
0.9447528444
 40
0.9766574064
 40
1.0
 40
1.0
 40
1.0
 40
1.0
 10
10.1726474664
 20
49.3950371694
 30
0.0
 10
10.0488062497
 20
49.3269558261
 30
0.0
 10
9.7672634697
 20
49.2025662557
 30
0.0
 10
9.2962919559
 20
49.0544144697
 30
0.0
 10
8.7535193851
 20
48.933410498
 30
0.0
 10
8.153401181
 20
48.8430329668
 30
0.0
 10
7.5118953689
 20
48.7858417662
 30
0.0
 10
6.8463144755
 20
48.7634805927
 30
0.0
 10
6.1746518556
 20
48.7765939604
 30
0.0
 10
5.5150883355
 20
48.8248205522
 30
0.0
 10
4.8854460074
 20
48.9068011836
 30
0.0
 10
4.3026686019
 20
49.0202146007
 30
0.0
 10
3.7822382983
 20
49.1618601705
 30
0.0
 10
3.3377005537
 20
49.32778317
 30
0.0
 10
2.9795929341
 20
49.513752427
 30
0.0
 10
2.7157201875
 20
49.7162789784
 30
0.0
 10
2.5558567089
 20
49.9284290791
 30
0.0
 10
2.5220115756
 20
50.0813346867
 30
0.0
 10
2.5223886099
 20
50.1454163183
 30
0.0
 11
10.1726474664
 21
49.3950371694
 31
0.0
 11
9.7868884281
 21
49.2191525177
 31
0.0
 11
9.3147979375
 21
49.0671908476
 31
0.0
 11
8.7692533923
 21
48.9432972772
 31
0.0
 11
8.1651358258
 21
48.8508513003
 31
0.0
 11
7.5189239902
 21
48.792374602
 31
0.0
 11
6.84824486
 21
48.7694622744
 31
0.0
 11
6.1713928134
 21
48.7827393058
 31
0.0
 11
5.5068306099
 21
48.8318435336
 31
0.0
 11
4.8726857741
 21
48.9154355224
 31
0.0
 11
4.2862561238
 21
49.0312351007
 31
0.0
 11
3.7635379313
 21
49.1760835577
 31
0.0
 11
3.3187895863
 21
49.3460298053
 31
0.0
 11
2.9641426642
 21
49.5364381528
 31
0.0
 11
2.7092710086
 21
49.7421147569
 31
0.0
 11
2.5611268538
 21
49.9574492958
 31
0.0
 11
2.5223886099
 21
50.1454163183
 31
0.0
  0
SPLINE
  5
3C1
100
AcDbEntity
  8
RACCORDO
100
AcDbSpline
 62
7
  6
CONTINUOUS
 70
0
 71
3
 72
11
 73
7
 74
5
 42
0.0000001
 43
0.0000001
 44
0.0000000001
 12
0.0247107301
 22
2.0611120903
 32
0.0
 13
1.8063018932
 23
0.9930091337
 33
0.0
 40
0.0
 40
0.0
 40
0.0
 40
0.0
 40
0.194310543
 40
0.4171047833
 40
0.6856471847
 40
1.0
 40
1.0
 40
1.0
 40
1.0
 10
-1.7428826635
 20
48.9096022732
 30
0.0
 10
-1.7412821451
 20
49.0431008763
 30
0.0
 10
-1.6854858551
 20
49.3310505646
 30
0.0
 10
-1.4425087937
 20
49.7432478065
 30
0.0
 10
-1.038456308
 20
50.1290997728
 30
0.0
 10
-0.698783796
 20
50.344973271
 30
0.0
 10
-0.5095117676
 20
50.4490250099
 30
0.0
 11
-1.7428826635
 21
48.9096022732
 31
0.0
 11
-1.6693267574
 21
49.3033147025
 31
0.0
 11
-1.4438577757
 21
49.7033925346
 31
0.0
 11
-1.0513799788
 21
50.0937296005
 31
0.0
 11
-0.5095117676
 21
50.4490250099
 31
0.0
  0
SPLINE
  5
3C2
100
AcDbEntity
  8
RACCORDO
100
AcDbSpline
 62
7
  6
CONTINUOUS
 70
0
 71
3
 72
12
 73
8
 74
6
 42
0.0000001
 43
0.0000001
 44
0.0000000001
 12
3.8738146855
 22
2.0494239277
 32
0.0
 13
4.3570375124
 23
0.4740313485
 33
0.0
 40
0.0
 40
0.0
 40
0.0
 40
0.0
 40
0.1725809005
 40
0.3893572178
 40
0.6290818345
 40
0.8881452851
 40
1.0
 40
1.0
 40
1.0
 40
1.0
 10
-0.4365887427
 20
50.4883511738
 30
0.0
 10
-0.2137399338
 20
50.6062483161
 30
0.0
 10
0.3083841
 20
50.8363081079
 30
0.0
 10
1.1841264752
 20
51.1182454639
 30
0.0
 10
2.2032346802
 20
51.355152216
 30
0.0
 10
3.0842883444
 20
51.497917284
 30
0.0
 10
3.6223072952
 20
51.5627732746
 30
0.0
 10
3.7847590248
 20
51.5804474884
 30
0.0
 11
-0.4365887427
 21
50.4883511738
 31
0.0
 11
0.2530279192
 21
50.7992785425
 31
0.0
 11
1.1554851973
 21
51.0959068583
 31
0.0
 11
2.1778384929
 21
51.3375412216
 31
0.0
 11
3.2980743861
 21
51.5216689238
 31
0.0
 11
3.7847590248
 21
51.5804474884
 31
0.0
  0
SPLINE
  5
3C3
100
AcDbEntity
  8
RACCORDO
100
AcDbSpline
 62
7
  6
CONTINUOUS
 70
0
 71
3
 72
15
 73
11
 74
9
 42
0.0000001
 43
0.0000001
 44
0.0000000001
 12
6.4694180106
 22
-0.8606989035
 32
0.0
 13
-0.0782287675
 23
-6.5250301314
 33
0.0
 40
0.0
 40
0.0
 40
0.0
 40
0.0
 40
0.1737871184
 40
0.3406995097
 40
0.4931579474
 40
0.629214759
 40
0.747878804
 40
0.8482163476
 40
0.9299802851
 40
1.0
 40
1.0
 40
1.0
 40
1.0
 10
9.493133217
 20
51.5120892262
 30
0.0
 10
9.8679003883
 20
51.4622297655
 30
0.0
 10
10.6000533952
 20
51.344956696
 30
0.0
 10
11.6474862724
 20
51.1096772658
 30
0.0
 10
12.5960671673
 20
50.8201806208
 30
0.0
 10
13.416308341
 20
50.481378276
 30
0.0
 10
14.0884519056
 20
50.0950820007
 30
0.0
 10
14.5884807992
 20
49.6639929538
 30
0.0
 10
14.8920928642
 20
49.1953805788
 30
0.0
 10
14.9577431157
 20
48.8616934802
 30
0.0
 10
14.9559172637
 20
48.709399897
 30
0.0
 11
9.493133217
 21
51.5120892262
 31
0.0
 11
10.6126072483
 21
51.33081139
 31
0.0
 11
11.6746006716
 21
51.0889487597
 31
0.0
 11
12.6247195001
 21
50.7939312366
 31
0.0
 11
13.442522847
 21
50.4483085257
 31
0.0
 11
14.108322498
 21
50.0529396673
 31
0.0
 11
14.5940228812
 21
49.6138542153
 31
0.0
 11
14.8722456953
 21
49.1585870425
 31
0.0
 11
14.9559172637
 21
48.709399897
 31
0.0
  0
SPLINE
  5
3C4
100
AcDbEntity
  8
RACCORDO
100
AcDbSpline
 62
7
  6
CONTINUOUS
 70
0
 71
3
 72
8
 73
4
 74
2
 42
0.0000001
 43
0.0000001
 44
0.0000000001
 12
0.0037384495
 22
0.3118225722
 32
0.0
 13
0.0755248937
 23
0.3047617632
 33
0.0
 40
0.0
 40
0.0
 40
0.0
 40
0.0
 40
1.0
 40
1.0
 40
1.0
 40
1.0
 10
-3.512871555
 20
47.2528268743
 30
0.0
 10
-3.5116254052
 20
47.3567677317
 30
0.0
 10
-3.4975982378
 20
47.4610406667
 30
0.0
 10
-3.4724232732
 20
47.5626279211
 30
0.0
 11
-3.512871555
 21
47.2528268743
 31
0.0
 11
-3.4724232732
 21
47.5626279211
 31
0.0
  0
SPLINE
  5
3C5
100
AcDbEntity
  8
RACCORDO
100
AcDbSpline
 62
7
  6
CONTINUOUS
 70
0
 71
3
 72
10
 73
6
 74
4
 42
0.0000001
 43
0.0000001
 44
0.0000000001
 12
0.688445868
 22
1.8518242904
 32
0.0
 13
1.7222702787
 23
0.9468130017
 33
0.0
 40
0.0
 40
0.0
 40
0.0
 40
0.0
 40
0.2772963947
 40
0.610125219
 40
1.0
 40
1.0
 40
1.0
 40
1.0
 10
-3.4238871861
 20
47.7197123338
 30
0.0
 10
-3.360252667
 20
47.8908804003
 30
0.0
 10
-3.1510784663
 20
48.2388184266
 30
0.0
 10
-2.670757555
 20
48.6927803991
 30
0.0
 10
-2.268994121
 20
48.9474917749
 30
0.0
 10
-2.0451708717
 20
49.0705379455
 30
0.0
 11
-3.4238871861
 21
47.7197123338
 31
0.0
 11
-3.1527903274
 21
48.1924912273
 31
0.0
 11
-2.6865706098
 21
48.6513229183
 31
0.0
 11
-2.0451708717
 21
49.0705379455
 31
0.0
  0
SPLINE
  5
3C6
100
AcDbEntity
  8
RACCORDO
100
AcDbSpline
 62
7
  6
CONTINUOUS
 70
0
 71
3
 72
12
 73
8
 74
6
 42
0.0000001
 43
0.0000001
 44
0.0000000001
 12
2.5418908239
 22
-1.2774861563
 32
0.0
 13
-0.0340846641
 23
-2.8429881659
 33
0.0
 40
0.0
 40
0.0
 40
0.0
 40
0.0
 40
0.0548269001
 40
0.3550167824
 40
0.6091787827
 40
0.8186191378
 40
1.0
 40
1.0
 40
1.0
 40
1.0
 10
14.9065802778
 20
49.0548804801
 30
0.0
 10
14.9530349426
 20
49.0315336114
 30
0.0
 10
15.2522775892
 20
48.8771817851
 30
0.0
 10
15.7469194557
 20
48.5751618805
 30
0.0
 10
16.2877247154
 20
48.0844353835
 30
0.0
 10
16.6163496897
 20
47.5567318511
 30
0.0
 10
16.6877376285
 20
47.1825537978
 30
0.0
 10
16.68567686
 20
47.0106659162
 30
0.0
 11
14.9065802778
 21
49.0548804801
 31
0.0
 11
15.0452000532
 21
48.9833424927
 31
0.0
 11
15.7673988843
 21
48.5284941351
 31
0.0
 11
16.2917249653
 21
48.0312231548
 31
0.0
 11
16.5939612746
 21
47.5181454397
 31
0.0
 11
16.68567686
 21
47.0106659162
 31
0.0
  0
SPLINE
  5
3C7
100
AcDbEntity
  8
RACCORDO
100
AcDbSpline
 62
7
  6
CONTINUOUS
 70
0
 71
3
 72
9
 73
5
 74
3
 42
0.0000001
 43
0.0000001
 44
0.0000000001
 12
0.0080411921
 22
0.6707126049
 32
0.0
 13
0.2806890663
 23
0.6119087001
 33
0.0
 40
0.0
 40
0.0
 40
0.0
 40
0.0
 40
0.8201479177
 40
1.0
 40
1.0
 40
1.0
 40
1.0
 10
-5.283620328
 20
45.5326700567
 30
0.0
 10
-5.2814220057
 20
45.7160312388
 30
0.0
 10
-5.2360362627
 20
45.9406936148
 30
0.0
 10
-5.1492626325
 20
46.1478665212
 30
0.0
 10
-5.1324351281
 20
46.1845508724
 30
0.0
 11
-5.283620328
 21
45.5326700567
 31
0.0
 11
-5.1791367041
 21
46.0727798361
 31
0.0
 11
-5.1324351281
 21
46.1845508724
 31
0.0
  0
SPLINE
  5
3C8
100
AcDbEntity
  8
RACCORDO
100
AcDbSpline
 62
7
  6
CONTINUOUS
 70
0
 71
3
 72
10
 73
6
 74
4
 42
0.0000001
 43
0.0000001
 44
0.0000000001
 12
0.995311712
 22
1.6884403601
 32
0.0
 13
1.7109025401
 23
0.9405636209
 33
0.0
 40
0.0
 40
0.0
 40
0.0
 40
0.0
 40
0.1602524133
 40
0.5467605884
 40
1.0
 40
1.0
 40
1.0
 40
1.0
 10
-5.0407943441
 20
46.359522452
 30
0.0
 10
-4.9876273094
 20
46.4497146662
 30
0.0
 10
-4.7826128646
 20
46.7438275911
 30
0.0
 10
-4.3039943508
 20
47.1929475871
 30
0.0
 10
-3.8400726777
 20
47.486569295
 30
0.0
 10
-3.5815898575
 20
47.6286694624
 30
0.0
 11
-5.0407943441
 21
46.359522452
 31
0.0
 11
-4.8625815281
 21
46.6179495035
 31
0.0
 11
-4.3227980961
 21
47.1452826812
 31
0.0
 11
-3.5815898575
 21
47.6286694624
 31
0.0
  0
SPLINE
  5
3C9
100
AcDbEntity
  8
RACCORDO
100
AcDbSpline
 62
7
  6
CONTINUOUS
 70
0
 71
3
 72
11
 73
7
 74
5
 42
0.0000001
 43
0.0000001
 44
0.0000000001
 12
2.6284528425
 22
-1.4418554465
 32
0.0
 13
-0.0359025429
 23
-2.9946167065
 33
0.0
 40
0.0
 40
0.0
 40
0.0
 40
0.0
 40
0.2861136144
 40
0.5674122251
 40
0.7993956671
 40
1.0
 40
1.0
 40
1.0
 40
1.0
 10
16.609934898
 20
47.4715082706
 30
0.0
 10
16.8606136123
 20
47.3339967795
 30
0.0
 10
17.3424680877
 20
47.0331288351
 30
0.0
 10
17.9422842121
 20
46.4965447794
 30
0.0
 10
18.3314788364
 20
45.885097362
 30
0.0
 10
18.4170773099
 20
45.448794879
 30
0.0
 10
18.4146765747
 20
45.2485505168
 30
0.0
 11
16.609934898
 21
47.4715082706
 31
0.0
 11
17.3322919738
 21
47.0102347698
 31
0.0
 11
17.9476592469
 21
46.434881192
 31
0.0
 11
18.3053797347
 21
45.8393011528
 31
0.0
 11
18.4146765747
 21
45.2485505168
 31
0.0
  0
SPLINE
  5
3CA
100
AcDbEntity
  8
RACCORDO
100
AcDbSpline
 62
7
  6
CONTINUOUS
 70
0
 71
3
 72
12
 73
8
 74
6
 42
0.0000001
 43
0.0000001
 44
0.0000000001
 12
0.0464625244
 22
3.8754205307
 32
0.0
 13
3.3963118621
 23
1.8671124206
 33
0.0
 40
0.0
 40
0.0
 40
0.0
 40
0.0
 40
0.1548641086
 40
0.3223641085
 40
0.5133837939
 40
0.739269739
 40
1.0
 40
1.0
 40
1.0
 40
1.0
 10
-7.4607373206
 20
43.2837403196
 30
0.0
 10
-7.4583388615
 20
43.4837948349
 30
0.0
 10
-7.3993605519
 20
43.9013603763
 30
0.0
 10
-7.141541422
 20
44.5195261114
 30
0.0
 10
-6.6896785229
 20
45.1325203884
 30
0.0
 10
-6.0313957711
 20
45.7172671599
 30
0.0
 10
-5.4969959355
 20
46.053075514
 30
0.0
 10
-5.2018221761
 20
46.2153464169
 30
0.0
 11
-7.4607373206
 21
43.2837403196
 31
0.0
 11
-7.3779218815
 21
43.8782061792
 31
0.0
 11
-7.1321451816
 21
44.4790621957
 31
0.0
 11
-6.6992867827
 21
45.079669588
 31
0.0
 11
-6.0519539084
 21
45.6690767169
 31
0.0
 11
-5.2018221761
 21
46.2153464169
 31
0.0
  0
SPLINE
  5
3CB
100
AcDbEntity
  8
0
100
AcDbSpline
 62
7
  6
CONTINUOUS
 70
0
 71
3
 72
12
 73
8
 74
6
 42
0.0000001
 43
0.0000001
 44
0.0000000001
 12
2.6616679819
 22
1.463244116
 32
0.0
 13
0.0401226361
 23
3.0528071964
 33
0.0
 40
0.0
 40
0.0
 40
0.0
 40
0.0
 40
0.2752669414
 40
0.5125092629
 40
0.7159130278
 40
0.8942023928
 40
1.0
 40
1.0
 40
1.0
 40
1.0
 10
18.6464746962
 20
39.3757353131
 30
0.0
 10
18.8906977643
 20
39.5099962239
 30
0.0
 10
19.3334669316
 20
39.7835234053
 30
0.0
 10
19.8912948331
 20
40.2514427628
 30
0.0
 10
20.286706686
 20
40.7446191562
 30
0.0
 10
20.484374661
 20
41.2055492491
 30
0.0
 10
20.519391369
 20
41.4944512281
 30
0.0
 10
20.5208063286
 20
41.602111127
 30
0.0
 11
18.6464746962
 21
39.3757353131
 31
0.0
 11
19.3537888951
 21
39.8215432502
 31
0.0
 11
19.8997374005
 21
40.291852606
 31
0.0
 11
20.2774545932
 21
40.7807489675
 31
0.0
 11
20.4821904603
 21
41.2820841794
 31
0.0
 11
20.5208063286
 21
41.602111127
 31
0.0
  0
SPLINE
  5
3CC
100
AcDbEntity
  8
0
100
AcDbSpline
 62
7
  6
CONTINUOUS
 70
0
 71
3
 72
12
 73
8
 74
6
 42
0.0000001
 43
0.0000001
 44
0.0000000001
 12
2.2521724482
 22
1.2381251551
 32
0.0
 13
0.0256838172
 23
2.5843092956
 33
0.0
 40
0.0
 40
0.0
 40
0.0
 40
0.0
 40
0.2948991016
 40
0.5459400021
 40
0.7589325685
 40
0.9460808096
 40
1.0
 40
1.0
 40
1.0
 40
1.0
 10
16.8230885451
 20
42.9603873421
 30
0.0
 10
17.0444764223
 20
43.0820946741
 30
0.0
 10
17.4429467723
 20
43.3301067535
 30
0.0
 10
17.9363792272
 20
43.7589632508
 30
0.0
 10
18.2703112593
 20
44.2138118544
 30
0.0
 10
18.3955358715
 20
44.5908487553
 30
0.0
 10
18.4090727743
 20
44.7982573633
 30
0.0
 10
18.4095343912
 20
44.8447053183
 30
0.0
 11
16.8230885451
 21
42.9603873421
 31
0.0
 11
17.4622600944
 21
43.3676797826
 31
0.0
 11
17.9424621672
 21
43.7985834685
 31
0.0
 11
18.256692336
 21
44.2468148537
 31
0.0
 11
18.4003684173
 21
44.7058377154
 31
0.0
 11
18.4095343912
 21
44.8447053183
 31
0.0
  0
SPLINE
  5
3CD
100
AcDbEntity
  8
0
100
AcDbSpline
 62
7
  6
CONTINUOUS
 70
0
 71
3
 72
11
 73
7
 74
5
 42
0.0000001
 43
0.0000001
 44
0.0000000001
 12
1.9187075182
 22
1.0548037942
 32
0.0
 13
0.0280480362
 23
2.1984292091
 33
0.0
 40
0.0
 40
0.0
 40
0.0
 40
0.0
 40
0.3175453967
 40
0.5839828758
 40
0.8076093109
 40
1.0
 40
1.0
 40
1.0
 40
1.0
 10
15.3279626887
 20
44.9627622248
 30
0.0
 10
15.5310549354
 20
45.0744115879
 30
0.0
 10
15.8935718327
 20
45.3019704902
 30
0.0
 10
16.3332709657
 20
45.7005303433
 30
0.0
 10
16.6107998267
 20
46.1235965236
 30
0.0
 10
16.678575576
 20
46.4279316474
 30
0.0
 10
16.680374303
 20
46.5689174176
 30
0.0
 11
15.3279626887
 21
44.9627622248
 31
0.0
 11
15.9121197279
 21
45.3398151682
 31
0.0
 11
16.3366205371
 21
45.7399695315
 31
0.0
 11
16.5942017896
 21
46.1563785627
 31
0.0
 11
16.680374303
 21
46.5689174176
 31
0.0
  0
SPLINE
  5
3CE
100
AcDbEntity
  8
0
100
AcDbSpline
 62
7
  6
CONTINUOUS
 70
0
 71
3
 72
11
 73
7
 74
5
 42
0.0000001
 43
0.0000001
 44
0.0000000001
 12
1.5857814011
 22
0.8717786441
 32
0.0
 13
0.0281921355
 23
1.819658148
 33
0.0
 40
0.0
 40
0.0
 40
0.0
 40
0.0
 40
0.3302287809
 40
0.6050509341
 40
0.8345032339
 40
1.0
 40
1.0
 40
1.0
 40
1.0
 10
13.8328368323
 20
46.9651371076
 30
0.0
 10
14.0073937186
 20
47.0610992405
 30
0.0
 10
14.3175355088
 20
47.2567032053
 30
0.0
 10
14.6892544428
 20
47.6018175667
 30
0.0
 10
14.9040961576
 20
47.952970806
 30
0.0
 10
14.9491629727
 20
48.1927006179
 30
0.0
 10
14.9507182085
 20
48.2930831309
 30
0.0
 11
13.8328368323
 21
46.9651371076
 31
0.0
 11
14.3338334354
 21
47.2908853867
 31
0.0
 11
14.6907917571
 21
47.6371653022
 31
0.0
 11
14.8970623392
 21
47.9975263144
 31
0.0
 11
14.9507182085
 21
48.2930831309
 31
0.0
  0
SPLINE
  5
3CF
100
AcDbEntity
  8
0
100
AcDbSpline
 62
7
  6
CONTINUOUS
 70
0
 71
3
 72
11
 73
7
 74
5
 42
0.0000001
 43
0.0000001
 44
0.0000000001
 12
0.7776176589
 22
0.4274930125
 32
0.0
 13
0.0052487312
 23
0.8920865168
 33
0.0
 40
0.0
 40
0.0
 40
0.0
 40
0.0
 40
0.3927992609
 40
0.706565588
 40
0.9650055436
 40
1.0
 40
1.0
 40
1.0
 40
1.0
 10
10.1726474664
 20
49.3950371694
 30
0.0
 10
10.274463347
 20
49.4510101492
 30
0.0
 10
10.451188812
 20
49.5651187424
 30
0.0
 10
10.6509975689
 20
49.7747229332
 30
0.0
 10
10.7176781191
 20
49.949393894
 30
0.0
 10
10.7214367863
 20
50.0365345807
 30
0.0
 10
10.7214980118
 20
50.0469406082
 30
0.0
 11
10.1726474664
 21
49.3950371694
 31
0.0
 11
10.4615525513
 21
49.5900471279
 31
0.0
 11
10.6457231053
 21
49.7988630298
 31
0.0
 11
10.7201354356
 21
50.0157889217
 31
0.0
 11
10.7214980118
 21
50.0469406082
 31
0.0
  0
SPLINE
  5
3D0
100
AcDbEntity
  8
RACCORDO
100
AcDbSpline
 62
7
  6
CONTINUOUS
 70
0
 71
3
 72
12
 73
8
 74
6
 42
0.0000001
 43
0.0000001
 44
0.0000000001
 12
3.4958518159
 22
-1.9623498095
 32
0.0
 13
-0.0480276239
 23
-4.0059648539
 33
0.0
 40
0.0
 40
0.0
 40
0.0
 40
0.0
 40
0.1144726858
 40
0.3943075726
 40
0.625155851
 40
0.8210404797
 40
1.0
 40
1.0
 40
1.0
 40
1.0
 10
18.2335974017
 20
45.9991751742
 30
0.0
 10
18.3669905839
 20
45.9242966898
 30
0.0
 10
18.8197698858
 20
45.6543939344
 30
0.0
 10
19.4930427185
 20
45.1526497878
 30
0.0
 10
20.1166724628
 20
44.431799733
 30
0.0
 10
20.4680242436
 20
43.6914659782
 30
0.0
 10
20.5401155815
 20
43.1870401811
 30
0.0
 10
20.5372505813
 20
42.9480716649
 30
0.0
 11
18.2335974017
 21
45.9991751742
 31
0.0
 11
18.6275159551
 21
45.7636594759
 31
0.0
 11
19.5159983903
 21
45.0799635315
 31
0.0
 11
20.1097510108
 21
44.370893388
 31
0.0
 11
20.438149362
 21
43.658146582
 31
0.0
 11
20.5372505813
 21
42.9480716649
 31
0.0
  0
SPLINE
  5
3D1
100
AcDbEntity
  8
RACCORDO
100
AcDbSpline
 62
253
  6
CONTINUOUS
 70
0
 71
3
 72
15
 73
11
 74
9
 42
0.0000001
 43
0.0000001
 44
0.0000000001
 12
4.8380607949
 22
2.6597096403
 32
0.0
 13
-4.6856673846
 23
2.9271846474
 33
0.0
 40
0.0
 40
0.0
 40
0.0
 40
0.0
 40
0.171466477
 40
0.3142449572
 40
0.4337727763
 40
0.5407309602
 40
0.6506909854
 40
0.7785235999
 40
0.932327464
 40
1.0
 40
1.0
 40
1.0
 40
1.0
 10
18.0316878883
 20
41.762445111
 30
0.0
 10
18.308209635
 20
41.9144621249
 30
0.0
 10
18.7996759512
 20
42.2243332049
 30
0.0
 10
19.3895227243
 20
42.771159657
 30
0.0
 10
19.7518808686
 20
43.3611529764
 30
0.0
 10
19.8489514743
 20
43.9925798366
 30
0.0
 10
19.6593636487
 20
44.6166363236
 30
0.0
 10
19.2202482889
 20
45.2002555632
 30
0.0
 10
18.7223764014
 20
45.6128543296
 30
0.0
 10
18.3824611291
 20
45.8385595753
 30
0.0
 10
18.2767641308
 20
45.9045895781
 30
0.0
 11
18.0316878883
 21
41.762445111
 31
0.0
 11
18.8254422221
 21
42.2783085602
 31
0.0
 11
19.3917224866
 21
42.8266704131
 31
0.0
 11
19.7205143913
 21
43.3988358286
 31
0.0
 11
19.8038666394
 21
43.9834343029
 31
0.0
 11
19.6401369139
 21
44.5680224512
 31
0.0
 11
19.2317347055
 21
45.1436101736
 31
0.0
 11
18.5879211937
 21
45.6972785934
 31
0.0
 11
18.2767641308
 21
45.9045895781
 31
0.0
  0
SPLINE
  5
3D2
100
AcDbEntity
  8
0
100
AcDbSpline
 62
7
  6
CONTINUOUS
 70
0
 71
3
 72
8
 73
4
 74
2
 42
0.0000001
 43
0.0000001
 44
0.0000000001
 12
0.5113279669
 22
0.2811010404
 32
0.0
 13
0.4787380981
 23
0.3347121414
 33
0.0
 40
0.0
 40
0.0
 40
0.0
 40
0.0
 40
1.0
 40
1.0
 40
1.0
 40
1.0
 10
16.3844040098
 20
42.5728070287
 30
0.0
 10
16.5548466654
 20
42.6665073755
 30
0.0
 10
16.7215146241
 20
42.7677889117
 30
0.0
 10
16.8810939901
 20
42.8793596255
 30
0.0
 11
16.3844040098
 21
42.5728070287
 31
0.0
 11
16.8810939901
 21
42.8793596255
 31
0.0
  0
SPLINE
  5
3D3
100
AcDbEntity
  8
0
100
AcDbSpline
 62
7
  6
CONTINUOUS
 70
0
 71
3
 72
9
 73
5
 74
3
 42
0.0000001
 43
0.0000001
 44
0.0000000001
 12
0.5776674918
 22
0.403879123
 32
0.0
 13
0.483974999
 23
0.5131660304
 33
0.0
 40
0.0
 40
0.0
 40
0.0
 40
0.0
 40
0.240194256
 40
1.0
 40
1.0
 40
1.0
 40
1.0
 10
16.8810939901
 20
42.8793596255
 30
0.0
 10
16.9273447946
 20
42.9116961073
 30
0.0
 10
17.117421591
 20
43.0499208296
 30
0.0
 10
17.2957790006
 20
43.2042692873
 30
0.0
 10
17.418354662
 20
43.3342381198
 30
0.0
 11
16.8810939901
 21
42.8793596255
 31
0.0
 11
17.0179793741
 21
42.9790279072
 31
0.0
 11
17.418354662
 21
43.3342381198
 31
0.0
  0
SPLINE
  5
3D4
100
AcDbEntity
  8
RACCORDO
100
AcDbSpline
 62
253
  6
CONTINUOUS
 70
0
 71
3
 72
11
 73
7
 74
5
 42
0.0000001
 43
0.0000001
 44
0.0000000001
 12
1.8727644838
 22
1.0295467466
 32
0.0
 13
0.7267943316
 23
2.0290770044
 33
0.0
 40
0.0
 40
0.0
 40
0.0
 40
0.0
 40
0.3150407708
 40
0.621921459
 40
0.9115869221
 40
1.0
 40
1.0
 40
1.0
 40
1.0
 10
16.8279291582
 20
43.3641409375
 30
0.0
 10
17.0245948804
 20
43.4722573378
 30
0.0
 10
17.4030354464
 20
43.7048463694
 30
0.0
 10
17.9046083509
 20
44.121979165
 30
0.0
 10
18.2062878318
 20
44.5138452956
 30
0.0
 10
18.3143532889
 20
44.7638253137
 30
0.0
 10
18.3357726635
 20
44.8236242948
 30
0.0
 11
16.8279291582
 21
43.3641409375
 31
0.0
 11
17.3986997065
 21
43.7212404218
 31
0.0
 11
17.896748881
 21
44.1479344456
 31
0.0
 11
18.2606148888
 21
44.6487522734
 31
0.0
 11
18.3357726635
 21
44.8236242948
 31
0.0
  0
SPLINE
  5
3D5
100
AcDbEntity
  8
RACCORDO
100
AcDbSpline
 62
253
  6
CONTINUOUS
 70
0
 71
3
 72
9
 73
5
 74
3
 42
0.0000001
 43
0.0000001
 44
0.0000000001
 12
0.1226185369
 22
0.374697741
 32
0.0
 13
0.0034755679
 23
0.3929849587
 33
0.0
 40
0.0
 40
0.0
 40
0.0
 40
0.0
 40
0.8292166727
 40
1.0
 40
1.0
 40
1.0
 40
1.0
 10
18.3489310276
 20
44.8620195265
 30
0.0
 10
18.3828234726
 20
44.9655880645
 30
0.0
 10
18.4095201931
 20
45.0948738143
 30
0.0
 10
18.4143057279
 20
45.2257717218
 30
0.0
 10
18.4145035843
 20
45.2481434814
 30
0.0
 11
18.3489310276
 21
44.8620195265
 31
0.0
 11
18.4120320665
 21
45.1811083832
 31
0.0
 11
18.4145035843
 21
45.2481434814
 31
0.0
  0
SPLINE
  5
3D6
100
AcDbEntity
  8
RACCORDO
100
AcDbSpline
 62
253
  6
CONTINUOUS
 70
0
 71
3
 72
10
 73
6
 74
4
 42
0.0000001
 43
0.0000001
 44
0.0000000001
 12
1.5044688377
 22
0.8270773024
 32
0.0
 13
0.942922668
 23
1.4409094278
 33
0.0
 40
0.0
 40
0.0
 40
0.0
 40
0.0
 40
0.3848046382
 40
0.7596416795
 40
1.0
 40
1.0
 40
1.0
 40
1.0
 10
16.6386518397
 20
43.6763449741
 30
0.0
 10
16.8316273686
 20
43.7824327015
 30
0.0
 10
17.2029673719
 20
44.0106565103
 30
0.0
 10
17.6449795698
 20
44.3782590828
 30
0.0
 10
17.8710960627
 20
44.6521861406
 30
0.0
 10
17.946642499
 20
44.7676309973
 30
0.0
 11
16.6386518397
 21
43.6763449741
 31
0.0
 11
17.1987127207
 21
44.0267436834
 31
0.0
 11
17.6874151182
 21
44.4454316964
 31
0.0
 11
17.946642499
 21
44.7676309973
 31
0.0
  0
SPLINE
  5
3D7
100
AcDbEntity
  8
RACCORDO
100
AcDbSpline
 62
253
  6
CONTINUOUS
 70
0
 71
3
 72
13
 73
9
 74
7
 42
0.0000001
 43
0.0000001
 44
0.0000000001
 12
1.7552939822
 22
2.8621660851
 32
0.0
 13
-2.9161180906
 23
1.6495879608
 33
0.0
 40
0.0
 40
0.0
 40
0.0
 40
0.0
 40
0.0422791376
 40
0.2045568229
 40
0.3661128782
 40
0.5506781428
 40
0.7737145021
 40
1.0
 40
1.0
 40
1.0
 40
1.0
 10
17.9752545527
 20
44.8127749181
 30
0.0
 10
17.9999919913
 20
44.853111556
 30
0.0
 10
18.1119714605
 20
45.0531430306
 30
0.0
 10
18.2358531406
 20
45.4552575363
 30
0.0
 10
18.1386302234
 20
46.0334599849
 30
0.0
 10
17.7893367315
 20
46.5778527945
 30
0.0
 10
17.2599829275
 20
47.0543710824
 30
0.0
 10
16.8365784027
 20
47.3252163298
 30
0.0
 10
16.6166199914
 20
47.4496422742
 30
0.0
 11
17.9752545527
 21
44.8127749181
 31
0.0
 11
18.0444544554
 21
44.9368517952
 31
0.0
 11
18.1930301323
 21
45.4592188078
 31
0.0
 11
18.1111727598
 21
45.9936569097
 31
0.0
 11
17.7944444719
 21
46.5239442558
 31
0.0
 11
17.2508249191
 21
47.0354376967
 31
0.0
 11
16.6166199914
 21
47.4496422742
 31
0.0
  0
SPLINE
  5
3D8
100
AcDbEntity
  8
0
100
AcDbSpline
 62
7
  6
CONTINUOUS
 70
0
 71
3
 72
8
 73
4
 74
2
 42
0.0000001
 43
0.0000001
 44
0.0000000001
 12
0.5539614852
 22
0.3045386912
 32
0.0
 13
0.5037020556
 23
0.3837648899
 33
0.0
 40
0.0
 40
0.0
 40
0.0
 40
0.0
 40
1.0
 40
1.0
 40
1.0
 40
1.0
 10
14.7593743428
 20
44.6008334222
 30
0.0
 10
14.9440281712
 20
44.7023463192
 30
0.0
 10
15.1234557248
 20
44.814533947
 30
0.0
 10
15.29135641
 20
44.942455577
 30
0.0
 11
14.7593743428
 21
44.6008334222
 31
0.0
 11
15.29135641
 21
44.942455577
 31
0.0
  0
SPLINE
  5
3D9
100
AcDbEntity
  8
RACCORDO
100
AcDbSpline
 62
253
  6
CONTINUOUS
 70
0
 71
3
 72
11
 73
7
 74
5
 42
0.0000001
 43
0.0000001
 44
0.0000000001
 12
1.5541268388
 22
0.854376642
 32
0.0
 13
0.6692810559
 23
1.6522465201
 33
0.0
 40
0.0
 40
0.0
 40
0.0
 40
0.0
 40
0.2902935817
 40
0.5756547945
 40
0.8527581789
 40
1.0
 40
1.0
 40
1.0
 40
1.0
 10
15.3332592307
 20
45.4045446715
 30
0.0
 10
15.4836435795
 20
45.4872180233
 30
0.0
 10
15.7749927714
 20
45.6643667607
 30
0.0
 10
16.1716255494
 20
45.9784160126
 30
0.0
 10
16.4496483716
 20
46.2972008028
 30
0.0
 10
16.5685912644
 20
46.5216297011
 30
0.0
 10
16.6014399849
 20
46.6027229633
 30
0.0
 11
15.3332592307
 21
45.4045446715
 31
0.0
 11
15.7714870701
 21
45.6747471513
 31
0.0
 11
16.1648436465
 21
45.9931700262
 31
0.0
 11
16.4803543739
 21
46.3699545227
 31
0.0
 11
16.6014399849
 21
46.6027229633
 31
0.0
  0
SPLINE
  5
3DA
100
AcDbEntity
  8
RACCORDO
100
AcDbSpline
 62
253
  6
CONTINUOUS
 70
0
 71
3
 72
9
 73
5
 74
3
 42
0.0000001
 43
0.0000001
 44
0.0000000001
 12
0.1558564062
 22
0.384760935
 32
0.0
 13
0.0059025016
 23
0.416598811
 33
0.0
 40
0.0
 40
0.0
 40
0.0
 40
0.0
 40
0.4919141892
 40
1.0
 40
1.0
 40
1.0
 40
1.0
 10
16.6014399849
 20
46.6027229633
 30
0.0
 10
16.6269959775
 20
46.6658127511
 30
0.0
 10
16.6685844023
 20
46.7980278966
 30
0.0
 10
16.6837941969
 20
46.9366371555
 30
0.0
 10
16.684793856
 20
47.007193137
 30
0.0
 11
16.6014399849
 21
46.6027229633
 31
0.0
 11
16.6615287604
 21
46.7974370081
 31
0.0
 11
16.684793856
 21
47.007193137
 31
0.0
  0
SPLINE
  5
3DB
100
AcDbEntity
  8
0
100
AcDbSpline
 62
7
  6
CONTINUOUS
 70
0
 71
3
 72
26
 73
22
 74
20
 42
0.0000001
 43
0.0000001
 44
0.0000000001
 12
-18.8490005409
 22
-10.3621824062
 32
0.0
 13
-14.4313125722
 23
16.0013815222
 33
0.0
 40
0.0
 40
0.0
 40
0.0
 40
0.0
 40
0.0406087573
 40
0.0866806374
 40
0.1378195061
 40
0.1934595882
 40
0.2529097574
 40
0.3153848942
 40
0.3800308894
 40
0.4459465087
 40
0.5122037322
 40
0.5778674215
 40
0.6420148297
 40
0.7037553909
 40
0.7622513654
 40
0.8167403452
 40
0.8665615578
 40
0.911189861
 40
0.950285429
 40
0.983775624
 40
1.0
 40
1.0
 40
1.0
 40
1.0
 10
16.3844040098
 20
42.5728070287
 30
0.0
 10
16.1292591803
 20
42.4325419118
 30
0.0
 10
15.5648899338
 20
42.1687940064
 30
0.0
 10
14.633900215
 20
41.8347757585
 30
0.0
 10
13.5769791529
 20
41.541773024
 30
0.0
 10
12.4104261933
 20
41.2945412216
 30
0.0
 10
11.1521821635
 20
41.0970427547
 30
0.0
 10
9.8218688743
 20
40.9524865733
 30
0.0
 10
8.4402912894
 20
40.8632157685
 30
0.0
 10
7.029113879
 20
40.8306817407
 30
0.0
 10
5.6104861638
 20
40.855417602
 30
0.0
 10
4.2066808002
 20
40.9370315626
 30
0.0
 10
2.8397270706
 20
41.0742128608
 30
0.0
 10
1.5310468108
 20
41.2647522909
 30
0.0
 10
0.3010924761
 20
41.5055774647
 30
0.0
 10
-0.831014966
 20
41.7928077975
 30
0.0
 10
-1.8478536959
 20
42.1218358996
 30
0.0
 10
-2.7340983361
 20
42.4874827698
 30
0.0
 10
-3.4769372591
 20
42.8842776486
 30
0.0
 10
-3.996329384
 20
43.2569145276
 30
0.0
 10
-4.2533701652
 20
43.5060330182
 30
0.0
 10
-4.3314165123
 20
43.592570495
 30
0.0
 11
16.3844040098
 21
42.5728070287
 31
0.0
 11
15.5958133197
 21
42.1971963169
 31
0.0
 11
14.66464385
 21
41.8581193771
 31
0.0
 11
13.6055806996
 21
41.5609236552
 31
0.0
 11
12.435325927
 21
41.3102961053
 31
0.0
 11
11.172335149
 21
41.1101892735
 31
0.0
 11
9.8365264847
 21
40.9637589642
 31
0.0
 11
8.4489664347
 21
40.8733144707
 31
0.0
 11
7.0315376498
 21
40.8402821568
 31
0.0
 11
5.6065938288
 21
40.8651829618
 31
0.0
 11
4.1966071868
 21
40.9476241851
 31
0.0
 11
2.8238140556
 21
41.0863056794
 31
0.0
 11
1.5098642029
 21
41.2790403546
 31
0.0
 11
0.2754794027
 21
41.5227886698
 31
0.0
 11
-0.8598733592
 21
41.8137065686
 31
0.0
 11
-1.8782888916
 21
42.1472061017
 31
0.0
 11
-2.7637061731
 21
42.5180277824
 31
0.0
 11
-3.5021616443
 21
42.9203235312
 31
0.0
 11
-4.0820094213
 21
43.3477489039
 31
0.0
 11
-4.3314165123
 21
43.592570495
 31
0.0
  0
SPLINE
  5
3DC
100
AcDbEntity
  8
RACCORDO
100
AcDbSpline
 62
253
  6
CONTINUOUS
 70
0
 71
3
 72
10
 73
6
 74
4
 42
0.0000001
 43
0.0000001
 44
0.0000000001
 12
1.1067521569
 22
0.6084337312
 32
0.0
 13
0.8054399954
 23
0.9760997805
 33
0.0
 40
0.0
 40
0.0
 40
0.0
 40
0.0
 40
0.3986627788
 40
0.7905514342
 40
1.0
 40
1.0
 40
1.0
 40
1.0
 10
15.1439819122
 20
45.716748708
 30
0.0
 10
15.2910555423
 20
45.7976020021
 30
0.0
 10
15.5759908671
 20
45.9708502132
 30
0.0
 10
15.9072176361
 20
46.2331135632
 30
0.0
 10
16.0819360146
 20
46.4177930077
 30
0.0
 10
16.1381687652
 20
46.485940574
 30
0.0
 11
15.1439819122
 21
45.716748708
 31
0.0
 11
15.5725622323
 21
45.9810025248
 31
0.0
 11
15.9572580918
 21
46.2924155647
 31
0.0
 11
16.1381687652
 21
46.485940574
 31
0.0
  0
SPLINE
  5
3DD
100
AcDbEntity
  8
RACCORDO
100
AcDbSpline
 62
253
  6
CONTINUOUS
 70
0
 71
3
 72
14
 73
10
 74
8
 42
0.0000001
 43
0.0000001
 44
0.0000000001
 12
2.1216725278
 22
2.571220824
 32
0.0
 13
-2.9567291099
 23
1.529253637
 33
0.0
 40
0.0
 40
0.0
 40
0.0
 40
0.0
 40
0.0649538335
 40
0.2014384101
 40
0.3381306991
 40
0.4952497124
 40
0.6862655718
 40
0.919450098
 40
1.0
 40
1.0
 40
1.0
 40
1.0
 10
16.1381687652
 20
46.485940574
 30
0.0
 10
16.1841056866
 20
46.5416107905
 30
0.0
 10
16.3170012045
 20
46.7221700414
 30
0.0
 10
16.4757103468
 20
47.0712876271
 30
0.0
 10
16.4719401666
 20
47.5654354277
 30
0.0
 10
16.2249788764
 20
48.0593130486
 30
0.0
 10
15.7658820439
 20
48.5208951724
 30
0.0
 10
15.2966441712
 20
48.8308013655
 30
0.0
 10
14.9905825714
 20
48.9968702038
 30
0.0
 10
14.9111944914
 20
49.037930614
 30
0.0
 11
16.1381687652
 21
46.485940574
 31
0.0
 11
16.2658230478
 21
46.6609049208
 31
0.0
 11
16.4430087032
 21
47.0789762772
 31
0.0
 11
16.4402825777
 21
47.5337278762
 31
0.0
 11
16.2223641285
 21
48.0088539525
 31
0.0
 11
15.7871519422
 21
48.4719257907
 31
0.0
 11
15.1467931982
 21
48.9098447211
 31
0.0
 11
14.9111944914
 21
49.037930614
 31
0.0
  0
SPLINE
  5
3DE
100
AcDbEntity
  8
0
100
AcDbSpline
 62
7
  6
CONTINUOUS
 70
0
 71
3
 72
8
 73
4
 74
2
 42
0.0000001
 43
0.0000001
 44
0.0000000001
 12
0.5121142818
 22
0.2815333147
 32
0.0
 13
0.4581475929
 23
0.3649239403
 33
0.0
 40
0.0
 40
0.0
 40
0.0
 40
0.0
 40
1.0
 40
1.0
 40
1.0
 40
1.0
 10
13.394152297
 20
46.5775567941
 30
0.0
 10
13.5648570576
 20
46.6714012324
 30
0.0
 10
13.7302355414
 20
46.7762259935
 30
0.0
 10
13.8829514057
 20
46.8978673069
 30
0.0
 11
13.394152297
 21
46.5775567941
 31
0.0
 11
13.8829514057
 21
46.8978673069
 31
0.0
  0
SPLINE
  5
3DF
100
AcDbEntity
  8
0
100
AcDbSpline
 62
7
  6
CONTINUOUS
 70
0
 71
3
 72
8
 73
4
 74
2
 42
0.0000001
 43
0.0000001
 44
0.0000000001
 12
0.3008455516
 22
0.2406700707
 32
0.0
 13
0.2502075839
 23
0.2931938744
 33
0.0
 40
0.0
 40
0.0
 40
0.0
 40
0.0
 40
1.0
 40
1.0
 40
1.0
 40
1.0
 10
13.887418519
 20
46.9014331601
 30
0.0
 10
13.9877003695
 20
46.981656517
 30
0.0
 10
14.0824242257
 20
47.0691956935
 30
0.0
 10
14.1658267536
 20
47.166926985
 30
0.0
 11
13.887418519
 21
46.9014331601
 31
0.0
 11
14.1658267536
 21
47.166926985
 31
0.0
  0
SPLINE
  5
3E0
100
AcDbEntity
  8
RACCORDO
100
AcDbSpline
 62
253
  6
CONTINUOUS
 70
0
 71
3
 72
10
 73
6
 74
4
 42
0.0000001
 43
0.0000001
 44
0.0000000001
 12
1.2468312777
 22
0.6854418143
 32
0.0
 13
0.5829604962
 23
1.3057198424
 33
0.0
 40
0.0
 40
0.0
 40
0.0
 40
0.0
 40
0.3605705641
 40
0.7069466158
 40
1.0
 40
1.0
 40
1.0
 40
1.0
 10
13.8378294217
 20
47.3815669867
 30
0.0
 10
13.9876863074
 20
47.4639503673
 30
0.0
 10
14.273610378
 20
47.6411649677
 30
0.0
 10
14.6342556331
 20
47.9530665902
 30
0.0
 10
14.812536112
 20
48.2049712413
 30
0.0
 10
14.8694822941
 20
48.3325197809
 30
0.0
 11
13.8378294217
 21
47.3815669867
 31
0.0
 11
14.271295547
 21
47.6559828872
 31
0.0
 11
14.6381317623
 21
47.9850932006
 31
0.0
 11
14.8694822941
 21
48.3325197809
 31
0.0
  0
SPLINE
  5
3E1
100
AcDbEntity
  8
RACCORDO
100
AcDbSpline
 62
253
  6
CONTINUOUS
 70
0
 71
3
 72
9
 73
5
 74
3
 42
0.0000001
 43
0.0000001
 44
0.0000000001
 12
0.1577623878
 22
0.3533575284
 32
0.0
 13
0.0070593985
 23
0.3873438507
 33
0.0
 40
0.0
 40
0.0
 40
0.0
 40
0.0
 40
0.1120353655
 40
1.0
 40
1.0
 40
1.0
 40
1.0
 10
14.8694822941
 20
48.3325197809
 30
0.0
 10
14.8753739497
 20
48.3457159608
 30
0.0
 10
14.9255957604
 20
48.464657804
 30
0.0
 10
14.9534874683
 20
48.5940130616
 30
0.0
 10
14.9555769671
 20
48.7086622753
 30
0.0
 11
14.8694822941
 21
48.3325197809
 31
0.0
 11
14.8863469018
 21
48.3724980549
 31
0.0
 11
14.9555769671
 21
48.7086622753
 31
0.0
  0
SPLINE
  5
3E2
100
AcDbEntity
  8
RACCORDO
100
AcDbSpline
 62
253
  6
CONTINUOUS
 70
0
 71
3
 72
9
 73
5
 74
3
 42
0.0000001
 43
0.0000001
 44
0.0000000001
 12
-0.0064547947
 22
-0.2865198954
 32
0.0
 13
0.1523042709
 23
-0.2456758518
 33
0.0
 40
0.0
 40
0.0
 40
0.0
 40
0.0
 40
0.1615996294
 40
1.0
 40
1.0
 40
1.0
 40
1.0
 10
2.5264986235
 20
50.466223362
 30
0.0
 10
2.526150926
 20
50.4507895257
 30
0.0
 10
2.5291593466
 20
50.3554006635
 30
0.0
 10
2.5662980431
 20
50.2638538767
 30
0.0
 10
2.6088620288
 20
50.195195635
 30
0.0
 11
2.5264986235
 21
50.466223362
 31
0.0
 11
2.5280145384
 21
50.4200602498
 31
0.0
 11
2.6088620288
 21
50.195195635
 31
0.0
  0
SPLINE
  5
3E3
100
AcDbEntity
  8
RACCORDO
100
AcDbSpline
 62
253
  6
CONTINUOUS
 70
0
 71
3
 72
20
 73
16
 74
14
 42
0.0000001
 43
0.0000001
 44
0.0000000001
 12
4.4207242847
 22
-6.6448079283
 32
0.0
 13
6.9087477526
 23
3.7980636817
 33
0.0
 40
0.0
 40
0.0
 40
0.0
 40
0.0
 40
0.041838084
 40
0.0952432888
 40
0.1608928196
 40
0.2371285025
 40
0.3225880214
 40
0.4142282119
 40
0.5099442812
 40
0.6061735813
 40
0.7005304717
 40
0.7896636141
 40
0.8713190273
 40
0.9429404403
 40
1.0
 40
1.0
 40
1.0
 40
1.0
 10
2.6212928345
 20
50.1758496299
 30
0.0
 10
2.6829443792
 20
50.0831809526
 30
0.0
 10
2.8677622584
 20
49.9096265472
 30
0.0
 10
3.2345997747
 20
49.6949808395
 30
0.0
 10
3.7126670529
 20
49.5046755909
 30
0.0
 10
4.2887899225
 20
49.3433761973
 30
0.0
 10
4.9431881781
 20
49.21750379
 30
0.0
 10
5.6554290074
 20
49.131168653
 30
0.0
 10
6.3998742022
 20
49.0877086357
 30
0.0
 10
7.1527076632
 20
49.0885661448
 30
0.0
 10
7.8868954714
 20
49.1336834515
 30
0.0
 10
8.578674198
 20
49.2214758354
 30
0.0
 10
9.2036813791
 20
49.3485908379
 30
0.0
 10
9.7338152319
 20
49.5080169887
 30
0.0
 10
10.0450914094
 20
49.6437012487
 30
0.0
 10
10.1764947777
 20
49.7159398625
 30
0.0
 11
2.6212928345
 21
50.1758496299
 31
0.0
 11
2.851556506
 21
49.9396754983
 31
0.0
 11
3.2107065022
 21
49.7199310254
 31
0.0
 11
3.6893694151
 21
49.5230404754
 31
0.0
 11
4.2671764011
 21
49.3575631561
 31
0.0
 11
4.9283597473
 21
49.2280142033
 31
0.0
 11
5.6454341944
 21
49.1397740056
 31
0.0
 11
6.3987364037
 21
49.0952449689
 31
0.0
 11
7.1573991452
 21
49.0962631209
 31
0.0
 11
7.8998457516
 21
49.1427657221
 31
0.0
 11
8.5967536954
 21
49.232942293
 31
0.0
 11
9.2270335711
 21
49.3640132005
 31
0.0
 11
9.7664736026
 21
49.5308723109
 31
0.0
 11
10.1764947777
 21
49.7159398625
 31
0.0
  0
SPLINE
  5
3E4
100
AcDbEntity
  8
RACCORDO
100
AcDbSpline
 62
253
  6
CONTINUOUS
 70
0
 71
3
 72
9
 73
5
 74
3
 42
0.0000001
 43
0.0000001
 44
0.0000000001
 12
0.8579703675
 22
0.4716666769
 32
0.0
 13
0.652991885
 23
0.7356320504
 33
0.0
 40
0.0
 40
0.0
 40
0.0
 40
0.0
 40
0.5100398839
 40
1.0
 40
1.0
 40
1.0
 40
1.0
 10
13.6485521032
 20
47.6937710233
 30
0.0
 10
13.794418472
 20
47.773960629
 30
0.0
 10
14.0727292488
 20
47.9464550329
 30
0.0
 10
14.3208948658
 20
48.1610828385
 30
0.0
 10
14.4275415257
 20
48.2812262934
 30
0.0
 11
13.6485521032
 21
47.6937710233
 31
0.0
 11
14.0704756821
 21
47.9608792924
 31
0.0
 11
14.4275415257
 21
48.2812262934
 31
0.0
  0
SPLINE
  5
3E5
100
AcDbEntity
  8
RACCORDO
100
AcDbSpline
 62
253
  6
CONTINUOUS
 70
0
 71
3
 72
17
 73
13
 74
11
 42
0.0000001
 43
0.0000001
 44
0.0000000001
 12
4.5123030352
 22
5.2493009216
 32
0.0
 13
-6.8245864606
 23
0.9140590195
 33
0.0
 40
0.0
 40
0.0
 40
0.0
 40
0.0
 40
0.0609331661
 40
0.1201615651
 40
0.1828219582
 40
0.2585528134
 40
0.3521456764
 40
0.4657617889
 40
0.5980716968
 40
0.7479720131
 40
0.911764484
 40
1.0
 40
1.0
 40
1.0
 40
1.0
 10
14.4462877334
 20
48.3026838424
 30
0.0
 10
14.5379373702
 20
48.409302684
 30
0.0
 10
14.694162244
 20
48.6423098953
 30
0.0
 10
14.7707354793
 20
49.0719589672
 30
0.0
 10
14.6145163167
 20
49.5152009072
 30
0.0
 10
14.2585471972
 20
49.9212339603
 30
0.0
 10
13.7260998569
 20
50.2991150884
 30
0.0
 10
13.0258254434
 20
50.6458390741
 30
0.0
 10
12.1705900958
 20
50.9559986737
 30
0.0
 10
11.1810330912
 20
51.2214047463
 30
0.0
 10
10.2750372408
 20
51.3977525891
 30
0.0
 10
9.7028256134
 20
51.4828468301
 30
0.0
 10
9.5021019775
 20
51.5097309865
 30
0.0
 11
14.4462877334
 21
48.3026838424
 31
0.0
 11
14.6691480451
 21
48.6583144209
 31
0.0
 11
14.7344926467
 21
49.0608084477
 31
0.0
 11
14.6037418074
 21
49.4719082749
 31
0.0
 11
14.2741893743
 21
49.8759241423
 31
0.0
 11
13.7561410108
 21
50.2590848215
 31
0.0
 11
13.0592339272
 21
50.6142745347
 31
0.0
 11
12.2049930068
 21
50.9305224857
 31
0.0
 11
11.209320305
 21
51.2019402932
 31
0.0
 11
10.1029868344
 21
51.4201398617
 31
0.0
 11
9.5021019775
 21
51.5097309865
 31
0.0
  0
SPLINE
  5
3E6
100
AcDbEntity
  8
RACCORDO
100
AcDbSpline
 62
253
  6
CONTINUOUS
 70
0
 71
3
 72
12
 73
8
 74
6
 42
0.0000001
 43
0.0000001
 44
0.0000000001
 12
-4.3496037389
 22
-0.4759080248
 32
0.0
 13
-3.8337644312
 23
-2.107600679
 33
0.0
 40
0.0
 40
0.0
 40
0.0
 40
0.0
 40
0.2466159194
 40
0.4901629994
 40
0.702007876
 40
0.8694352603
 40
1.0
 40
1.0
 40
1.0
 40
1.0
 10
3.7794670546
 20
51.5786849868
 30
0.0
 10
3.4219065462
 20
51.5395628218
 30
0.0
 10
2.713191325
 20
51.4436793764
 30
0.0
 10
1.7080093411
 20
51.2457347973
 30
0.0
 10
0.8308429822
 20
51.0064379866
 30
0.0
 10
0.1313851728
 20
50.7518130823
 30
0.0
 10
-0.2620917336
 20
50.5653156865
 30
0.0
 10
-0.4289432186
 20
50.4735895752
 30
0.0
 11
3.7794670546
 21
51.5786849868
 31
0.0
 11
2.7104924623
 21
51.432364294
 31
0.0
 11
1.6656752021
 21
51.2234780912
 31
0.0
 11
0.7725999754
 21
50.9757397698
 31
0.0
 11
0.0856567185
 21
50.7215104953
 31
0.0
 11
-0.4289432186
 21
50.4735895752
 31
0.0
  0
SPLINE
  5
3E7
100
AcDbEntity
  8
0
100
AcDbSpline
 62
7
  6
CONTINUOUS
 70
0
 71
3
 72
9
 73
5
 74
3
 42
0.0000001
 43
0.0000001
 44
0.0000000001
 12
0.4350186094
 22
0.2391501964
 32
0.0
 13
0.2949056755
 23
0.401589328
 33
0.0
 40
0.0
 40
0.0
 40
0.0
 40
0.0
 40
0.646818415
 40
1.0
 40
1.0
 40
1.0
 40
1.0
 10
9.7339629311
 20
49.007456856
 30
0.0
 10
9.8277556136
 20
49.0590191063
 30
0.0
 10
9.9674107945
 20
49.1498248223
 30
0.0
 10
10.0847552267
 20
49.2695745712
 30
0.0
 10
10.1194736447
 20
49.3168525564
 30
0.0
 11
9.7339629311
 21
49.007456856
 31
0.0
 11
9.9990844606
 21
49.1885981575
 31
0.0
 11
10.1194736447
 21
49.3168525564
 31
0.0
  0
SPLINE
  5
3E8
100
AcDbEntity
  8
0
100
AcDbSpline
 62
7
  6
CONTINUOUS
 70
0
 71
3
 72
9
 73
5
 74
3
 42
0.0000001
 43
0.0000001
 44
0.0000000001
 12
0.0515878563
 22
0.0702500299
 32
0.0
 13
0.0402455291
 23
0.0780642699
 33
0.0
 40
0.0
 40
0.0
 40
0.0
 40
0.0
 40
0.8970305563
 40
1.0
 40
1.0
 40
1.0
 40
1.0
 10
10.1194736447
 20
49.3168525564
 30
0.0
 10
10.1348989391
 20
49.3378580308
 30
0.0
 10
10.1506148876
 20
49.3623716107
 30
0.0
 10
10.1642512324
 20
49.3882577851
 30
0.0
 10
10.1656325857
 20
49.3909371966
 30
0.0
 11
10.1194736447
 21
49.3168525564
 31
0.0
 11
10.1614209293
 21
49.3829413684
 31
0.0
 11
10.1656325857
 21
49.3909371966
 31
0.0
  0
SPLINE
  5
3E9
100
AcDbEntity
  8
RACCORDO
100
AcDbSpline
 62
253
  6
CONTINUOUS
 70
0
 71
3
 72
9
 73
5
 74
3
 42
0.0000001
 43
0.0000001
 44
0.0000000001
 12
0.518441463
 22
0.2850116638
 32
0.0
 13
0.3332583415
 23
0.4916652945
 33
0.0
 40
0.0
 40
0.0
 40
0.0
 40
0.0
 40
0.649939742
 40
1.0
 40
1.0
 40
1.0
 40
1.0
 10
10.1764947777
 20
49.7159398625
 30
0.0
 10
10.288813348
 20
49.7776866649
 30
0.0
 10
10.4548765478
 20
49.8864054688
 30
0.0
 10
10.5923411742
 20
50.0326933702
 30
0.0
 10
10.6312280079
 20
50.0900641968
 30
0.0
 11
10.1764947777
 21
49.7159398625
 31
0.0
 11
10.4925948374
 21
49.9348780085
 31
0.0
 11
10.6312280079
 21
50.0900641968
 31
0.0
  0
SPLINE
  5
3EA
100
AcDbEntity
  8
RACCORDO
100
AcDbSpline
 62
253
  6
CONTINUOUS
 70
0
 71
3
 72
9
 73
5
 74
3
 42
0.0000001
 43
0.0000001
 44
0.0000000001
 12
0.1656972057
 22
0.2444576933
 32
0.0
 13
0.0066797472
 23
0.2959817633
 33
0.0
 40
0.0
 40
0.0
 40
0.0
 40
0.0
 40
0.3125186811
 40
1.0
 40
1.0
 40
1.0
 40
1.0
 10
10.6312280079
 20
50.0900641968
 30
0.0
 10
10.6484891653
 20
50.1155300621
 30
0.0
 10
10.6978998408
 20
50.2009003893
 30
0.0
 10
10.7235514888
 20
50.3000947913
 30
0.0
 10
10.7250822226
 20
50.3679221023
 30
0.0
 11
10.6312280079
 21
50.0900641968
 31
0.0
 11
10.6770521886
 21
50.170239875
 31
0.0
 11
10.7250822226
 21
50.3679221023
 31
0.0
  0
SPLINE
  5
3EB
100
AcDbEntity
  8
RACCORDO
100
AcDbSpline
 62
253
  6
CONTINUOUS
 70
0
 71
3
 72
24
 73
20
 74
18
 42
0.0000001
 43
0.0000001
 44
0.0000000001
 12
7.5229931143
 22
4.1357432571
 32
0.0
 13
-7.5229931143
 23
-4.1357432571
 33
0.0
 40
0.0
 40
0.0
 40
0.0
 40
0.0
 40
0.042361184
 40
0.0753043085
 40
0.1026541701
 40
0.1314538713
 40
0.1677921237
 40
0.2141770074
 40
0.2711966277
 40
0.3374108404
 40
0.4116363761
 40
0.4912301186
 40
0.5743639508
 40
0.657943545
 40
0.7398968526
 40
0.8173131108
 40
0.8882345098
 40
0.9504412098
 40
1.0
 40
1.0
 40
1.0
 40
1.0
 10
9.9872174592
 20
50.0281438991
 30
0.0
 10
10.093445091
 20
50.0865422261
 30
0.0
 10
10.2749106974
 20
50.2053378776
 30
0.0
 10
10.473047865
 20
50.4319498855
 30
0.0
 10
10.5300849513
 20
50.6954933709
 30
0.0
 10
10.4189449609
 20
50.9499070549
 30
0.0
 10
10.1832977282
 20
51.171194552
 30
0.0
 10
9.8363545524
 20
51.3741991708
 30
0.0
 10
9.3842145124
 20
51.5541837416
 30
0.0
 10
8.839336413
 20
51.7067353389
 30
0.0
 10
8.2204280323
 20
51.8257813638
 30
0.0
 10
7.5468139951
 20
51.9074342993
 30
0.0
 10
6.8427421198
 20
51.9485373514
 30
0.0
 10
6.1307369297
 20
51.947726371
 30
0.0
 10
5.4363662023
 20
51.9050558212
 30
0.0
 10
4.7821048125
 20
51.8220249044
 30
0.0
 10
4.1909933861
 20
51.7018031002
 30
0.0
 10
3.6896098111
 20
51.55102397
 30
0.0
 10
3.3952148821
 20
51.4226976526
 30
0.0
 10
3.2709380696
 20
51.3543768418
 30
0.0
 11
9.9872174592
 21
50.0281438991
 31
0.0
 11
10.286176819
 21
50.235207586
 31
0.0
 11
10.4606252049
 21
50.4578068354
 31
0.0
 11
10.5046196709
 21
50.6884429899
 31
0.0
 11
10.4163996438
 21
50.9194094785
 31
0.0
 11
10.1986243619
 21
51.1427750844
 31
0.0
 11
9.858952102
 21
51.3506021848
 31
0.0
 11
9.4062486793
 21
51.5368147731
 31
0.0
 11
8.8597777791
 21
51.6933177966
 31
0.0
 11
8.234452292
 21
51.8158409494
 31
0.0
 11
7.5562667655
 21
51.8992956384
 31
0.0
 11
6.843818203
 21
51.9414097399
 31
0.0
 11
6.1262998488
 21
51.9404468048
 31
0.0
 11
5.4241182886
 21
51.8964661621
 31
0.0
 11
4.7650055538
 21
51.8111801252
 31
0.0
 11
4.1689083808
 21
51.6872176009
 31
0.0
 11
3.6587219761
 21
51.5294076266
 31
0.0
 11
3.2709380696
 21
51.3543768418
 31
0.0
  0
SPLINE
  5
3EC
100
AcDbEntity
  8
RACCORDO
100
AcDbSpline
 62
253
  6
CONTINUOUS
 70
0
 71
3
 72
13
 73
9
 74
7
 42
0.0000001
 43
0.0000001
 44
0.0000000001
 12
-2.0131995193
 22
-1.2089705174
 32
0.0
 13
1.4901222467
 23
-1.8229335646
 33
0.0
 40
0.0
 40
0.0
 40
0.0
 40
0.0
 40
0.1415945532
 40
0.3460201853
 40
0.5368705658
 40
0.7106382358
 40
0.8944750193
 40
1.0
 40
1.0
 40
1.0
 40
1.0
 10
-0.5739115873
 20
50.3903539589
 30
0.0
 10
-0.6689309495
 20
50.3332927455
 30
0.0
 10
-0.895474851
 20
50.1842744796
 30
0.0
 10
-1.2148029917
 20
49.9081029641
 30
0.0
 10
-1.472828468
 20
49.5347280512
 30
0.0
 10
-1.5511266221
 20
49.0954018909
 30
0.0
 10
-1.4263401591
 20
48.7413442255
 30
0.0
 10
-1.2960815286
 20
48.5547580881
 30
0.0
 10
-1.2436664882
 20
48.4906364117
 30
0.0
 11
-0.5739115873
 21
50.3903539589
 31
0.0
 11
-0.8508667998
 21
50.206481121
 31
0.0
 11
-1.2079326319
 21
49.8861350781
 31
0.0
 11
-1.4495391587
 21
49.5090463303
 31
0.0
 11
-1.5148837582
 21
49.1065524745
 31
0.0
 11
-1.3841329205
 21
48.6954525083
 31
0.0
 11
-1.2436664882
 21
48.4906364117
 31
0.0
  0
SPLINE
  5
3ED
100
AcDbEntity
  8
RACCORDO
100
AcDbSpline
 62
253
  6
CONTINUOUS
 70
0
 71
3
 72
23
 73
19
 74
17
 42
0.0000001
 43
0.0000001
 44
0.0000000001
 12
9.8356724759
 22
-12.0324205119
 32
0.0
 13
13.5731060093
 23
7.4617749615
 33
0.0
 40
0.0
 40
0.0
 40
0.0
 40
0.0
 40
0.0176739987
 40
0.0592746122
 40
0.1097752601
 40
0.1685850152
 40
0.2352134418
 40
0.3080167207
 40
0.3859553431
 40
0.4668777428
 40
0.5495061865
 40
0.6315029559
 40
0.7115645895
 40
0.7872044169
 40
0.855995017
 40
0.9158312463
 40
0.9631215935
 40
1.0
 40
1.0
 40
1.0
 40
1.0
 10
-1.2436664882
 20
48.4906364117
 30
0.0
 10
-1.1857212674
 20
48.4197494171
 30
0.0
 10
-0.97125237
 20
48.1980895989
 30
0.0
 10
-0.5064909421
 20
47.8682456374
 30
0.0
 10
0.1937834113
 20
47.5215215237
 30
0.0
 10
1.0490188033
 20
47.2113619838
 30
0.0
 10
2.0385757848
 20
46.9459558341
 30
0.0
 10
3.1409292656
 20
46.7313879212
 30
0.0
 10
4.3272079833
 20
46.5736275818
 30
0.0
 10
5.5707832807
 20
46.4763712724
 30
0.0
 10
6.8386278928
 20
46.4423119838
 30
0.0
 10
8.1021340356
 20
46.4722368244
 30
0.0
 10
9.3264345026
 20
46.5652007448
 30
0.0
 10
10.4760902133
 20
46.7177094833
 30
0.0
 10
11.5115997218
 20
46.9216255242
 30
0.0
 10
12.3887655866
 20
47.1609237371
 30
0.0
 10
13.0882239451
 20
47.4155470789
 30
0.0
 10
13.4817005964
 20
47.6020449
 30
0.0
 10
13.6485521032
 20
47.6937710233
 30
0.0
 11
-1.2436664882
 21
48.4906364117
 31
0.0
 11
-1.0545804883
 21
48.2914365623
 31
0.0
 11
-0.5365321247
 21
47.908275887
 31
0.0
 11
0.1603749581
 21
47.5530860927
 31
0.0
 11
1.0146158787
 21
47.2368381494
 31
0.0
 11
2.0102885802
 21
46.965420304
 31
0.0
 11
3.1166220509
 21
46.7472207372
 31
0.0
 11
4.3130350273
 21
46.5862991075
 31
0.0
 11
5.5625475804
 21
46.4876297992
 31
0.0
 11
6.8419073977
 21
46.4530490014
 31
0.0
 11
8.1115823969
 21
46.4836255345
 31
0.0
 11
9.347994889
 21
46.5787966802
 31
0.0
 11
10.5091164262
 21
46.7349965465
 31
0.0
 11
11.5539336846
 21
46.9438826119
 31
0.0
 11
12.4470089174
 21
47.1916214689
 31
0.0
 11
13.1339521643
 21
47.4458499353
 31
0.0
 11
13.6485521032
 21
47.6937710233
 31
0.0
  0
SPLINE
  5
3EE
100
AcDbEntity
  8
0
100
AcDbSpline
 62
7
  6
CONTINUOUS
 70
0
 71
3
 72
17
 73
13
 74
11
 42
0.0000001
 43
0.0000001
 44
0.0000000001
 12
3.7484678183
 22
2.0607091178
 32
0.0
 13
-4.1415777143
 23
1.0738396248
 33
0.0
 40
0.0
 40
0.0
 40
0.0
 40
0.0
 40
0.1090156042
 40
0.1980638226
 40
0.2717325284
 40
0.3395502233
 40
0.4138444148
 40
0.5038802919
 40
0.61401605
 40
0.7452883089
 40
0.8968159963
 40
1.0
 40
1.0
 40
1.0
 40
1.0
 10
11.8124239002
 20
48.597032684
 30
0.0
 10
11.9486377282
 20
48.6719158339
 30
0.0
 10
12.1881231822
 20
48.8245853461
 30
0.0
 10
12.4674686109
 20
49.0986176103
 30
0.0
 10
12.6208829214
 20
49.3996387983
 30
0.0
 10
12.6203683306
 20
49.7194264509
 30
0.0
 10
12.4668512767
 20
50.0226224177
 30
0.0
 10
12.1877232408
 20
50.3022722954
 30
0.0
 10
11.791278043
 20
50.5635260098
 30
0.0
 10
11.2837090265
 20
50.8037623626
 30
0.0
 10
10.7640130848
 20
50.9871280189
 30
0.0
 10
10.4143758459
 20
51.0859683264
 30
0.0
 10
10.2719276558
 20
51.1229026837
 30
0.0
 11
11.8124239002
 21
48.597032684
 31
0.0
 11
12.2013988831
 21
48.8542363005
 31
0.0
 11
12.4656113489
 21
49.1286149077
 31
0.0
 11
12.5991592277
 21
49.414039341
 31
0.0
 11
12.5990592806
 21
49.7041336901
 31
0.0
 11
12.4653137402
 21
49.9924177266
 31
0.0
 11
12.200910261
 21
50.2724516616
 31
0.0
 11
11.8117551796
 21
50.5379799996
 31
0.0
 11
11.3065415776
 21
50.7830712765
 31
0.0
 11
10.6965550921
 21
51.002250558
 31
0.0
 11
10.2719276558
 21
51.1229026837
 31
0.0
  0
SPLINE
  5
3EF
100
AcDbEntity
  8
0
100
AcDbSpline
 62
7
  6
CONTINUOUS
 70
0
 71
3
 72
10
 73
6
 74
4
 42
0.0000001
 43
0.0000001
 44
0.0000000001
 12
-1.6347316725
 22
-0.3822539531
 32
0.0
 13
-1.4707814805
 23
-0.8085577772
 33
0.0
 40
0.0
 40
0.0
 40
0.0
 40
0.0
 40
0.2847410997
 40
0.668285888
 40
1.0
 40
1.0
 40
1.0
 40
1.0
 10
2.9975169828
 20
51.2100866979
 30
0.0
 10
2.8423585514
 20
51.1738055609
 30
0.0
 10
2.4802276524
 20
51.0800667516
 30
0.0
 10
1.9485684833
 20
50.903862457
 30
0.0
 10
1.5827453791
 20
50.7385568857
 30
0.0
 10
1.4201190548
 20
50.649153544
 30
0.0
 11
2.9975169828
 21
51.2100866979
 31
0.0
 11
2.5350074492
 21
51.0895657957
 31
0.0
 11
1.9251674964
 21
50.883436666
 31
0.0
 11
1.4201190548
 21
50.649153544
 31
0.0
  0
SPLINE
  5
3F0
100
AcDbEntity
  8
0
100
AcDbSpline
 62
7
  6
CONTINUOUS
 70
0
 71
3
 72
28
 73
24
 74
22
 42
0.0000001
 43
0.0000001
 44
0.0000000001
 12
-11.6462595781
 22
-6.402496824
 32
0.0
 13
11.6462595781
 23
6.402496824
 33
0.0
 40
0.0
 40
0.0
 40
0.0
 40
0.0
 40
0.0418914734
 40
0.0903285331
 40
0.1446643139
 40
0.203991495
 40
0.2672192609
 40
0.3331283605
 40
0.400416731
 40
0.4677411152
 40
0.5337571914
 40
0.5971596703
 40
0.6567237835
 40
0.7113505947
 40
0.7601213314
 40
0.8023726512
 40
0.837820972
 40
0.8667999403
 40
0.8907122861
 40
0.9125401052
 40
0.936251132
 40
0.9649122123
 40
1.0
 40
1.0
 40
1.0
 40
1.0
 10
11.8124239002
 20
48.597032684
 30
0.0
 10
11.6497975759
 20
48.5076293423
 30
0.0
 10
11.2839744717
 20
48.342323771
 30
0.0
 10
10.6749523994
 20
48.1404795992
 30
0.0
 10
9.9765516594
 20
47.9704794393
 30
0.0
 10
9.2040062108
 20
47.8362869779
 30
0.0
 10
8.3741399053
 20
47.7409873618
 30
0.0
 10
7.5052909142
 20
47.6868019686
 30
0.0
 10
6.6167038518
 20
47.6749911289
 30
0.0
 10
5.7281005777
 20
47.7058378662
 30
0.0
 10
4.8592011604
 20
47.7786393017
 30
0.0
 10
4.0292594132
 20
47.8917222352
 30
0.0
 10
3.2565946812
 20
48.0424839504
 30
0.0
 10
2.5581180652
 20
48.2274485757
 30
0.0
 10
1.9488339285
 20
48.4424238654
 30
0.0
 10
1.441264912
 20
48.6826602182
 30
0.0
 10
1.0448197142
 20
48.9439139326
 30
0.0
 10
0.7656916783
 20
49.2235638103
 30
0.0
 10
0.6121746244
 20
49.5267597771
 30
0.0
 10
0.6116600336
 20
49.8465474297
 30
0.0
 10
0.7650743441
 20
50.1475686177
 30
0.0
 10
1.0444197728
 20
50.4216008819
 30
0.0
 10
1.2839052268
 20
50.5742703941
 30
0.0
 10
1.4201190548
 20
50.649153544
 30
0.0
 11
11.8124239002
 21
48.597032684
 31
0.0
 11
11.3073754586
 21
48.362749562
 31
0.0
 11
10.6975355058
 21
48.1566204323
 31
0.0
 11
9.9965268588
 21
47.983249879
 31
0.0
 11
9.2200088922
 21
47.8465107138
 31
0.0
 11
8.3853277343
 21
47.7494574638
 31
0.0
 11
7.511128783
 21
47.694258138
 31
0.0
 11
6.6169401981
 21
47.6821457984
 31
0.0
 11
5.7227366751
 21
47.7133910144
 31
0.0
 11
4.8484932431
 21
47.7872958197
 31
0.0
 11
4.0137390557
 21
47.9022093029
 31
0.0
 11
3.237121142
 21
48.0555644868
 31
0.0
 11
2.5359878629
 21
48.24393567
 31
0.0
 11
1.9260013774
 21
48.4631149515
 31
0.0
 11
1.4207877754
 21
48.7082062283
 31
0.0
 11
1.031632694
 21
48.9737345664
 31
0.0
 11
0.7672292148
 21
49.2537685014
 31
0.0
 11
0.6334836744
 21
49.5420525379
 31
0.0
 11
0.6333837273
 21
49.832146887
 31
0.0
 11
0.7669316061
 21
50.1175713202
 31
0.0
 11
1.0311440719
 21
50.3919499275
 31
0.0
 11
1.4201190548
 21
50.649153544
 31
0.0
  0
SPLINE
  5
3F1
100
AcDbEntity
  8
0
100
AcDbSpline
 62
7
  6
CONTINUOUS
 70
0
 71
3
 72
22
 73
18
 74
16
 42
0.0000001
 43
0.0000001
 44
0.0000000001
 12
-6.1313235003
 22
-3.3706769949
 32
0.0
 13
-3.1083088792
 23
6.3686438135
 33
0.0
 40
0.0
 40
0.0
 40
0.0
 40
0.0
 40
0.0564281425
 40
0.1228661696
 40
0.1980150436
 40
0.2800845353
 40
0.3669575542
 40
0.4563109638
 40
0.5457201954
 40
0.6327584308
 40
0.7150956825
 40
0.7906029913
 40
0.8574720985
 40
0.9143767176
 40
0.9607457533
 40
0.9973321923
 40
1.0
 40
1.0
 40
1.0
 40
1.0
 10
9.7339629311
 20
49.007456856
 30
0.0
 10
9.6186365324
 20
48.9440565088
 30
0.0
 10
9.3548736193
 20
48.8290578709
 30
0.0
 10
8.912589931
 20
48.6941101377
 30
0.0
 10
8.4016915331
 20
48.5860280852
 30
0.0
 10
7.8373373429
 20
48.5082924251
 30
0.0
 10
7.2362438177
 20
48.4633691523
 30
0.0
 10
6.6164802533
 20
48.4527058598
 30
0.0
 10
5.9967014851
 20
48.4766523354
 30
0.0
 10
5.395570034
 20
48.5344596838
 30
0.0
 10
4.831139434
 20
48.6243047031
 30
0.0
 10
4.3201954447
 20
48.7433349741
 30
0.0
 10
3.8777191694
 20
48.8878407665
 30
0.0
 10
3.5157294289
 20
49.0534077621
 30
0.0
 10
3.2434457927
 20
49.2363466283
 30
0.0
 10
3.1075813175
 20
49.3874371613
 30
0.0
 10
3.0654403231
 20
49.4699486706
 30
0.0
 10
3.0626761997
 20
49.4756121095
 30
0.0
 11
9.7339629311
 21
49.007456856
 31
0.0
 11
9.3741119245
 21
48.8450213507
 31
0.0
 11
8.9304653314
 21
48.7062271622
 31
0.0
 11
8.4165031291
 21
48.5952914816
 31
0.0
 11
7.847841799
 21
48.5155850336
 31
0.0
 11
7.241759828
 21
48.4695296582
 31
0.0
 11
6.6166727099
 21
48.4585247246
 31
0.0
 11
5.9915734005
 21
48.4829046123
 31
0.0
 11
5.3854552261
 21
48.5419285506
 31
0.0
 11
4.8167347807
 21
48.6338031271
 31
0.0
 11
4.3026923472
 21
48.7557367792
 31
0.0
 11
3.8589468449
 21
48.9040246147
 31
0.0
 11
3.4989812562
 21
49.0741609826
 31
0.0
 11
3.2337329535
 21
49.2609763756
 31
0.0
 11
3.0712613722
 21
49.4587945024
 31
0.0
 11
3.0626761997
 21
49.4756121095
 31
0.0
  0
SPLINE
  5
3F2
100
AcDbEntity
  8
RACCORDO
100
AcDbSpline
 62
253
  6
CONTINUOUS
 70
0
 71
3
 72
8
 73
4
 74
2
 42
0.0000001
 43
0.0000001
 44
0.0000000001
 12
-0.1149414035
 22
-0.0631886973
 32
0.0
 13
-0.1106790729
 23
-0.0706942996
 33
0.0
 40
0.0
 40
0.0
 40
0.0
 40
0.0
 40
1.0
 40
1.0
 40
1.0
 40
1.0
 10
3.2709380696
 20
51.3543768418
 30
0.0
 10
3.2326242685
 20
51.3333139427
 30
0.0
 10
3.1948500645
 20
51.3111545282
 30
0.0
 10
3.1579570402
 20
51.2875897617
 30
0.0
 11
3.2709380696
 21
51.3543768418
 31
0.0
 11
3.1579570402
 21
51.2875897617
 31
0.0
  0
SPLINE
  5
3F3
100
AcDbEntity
  8
RACCORDO
100
AcDbSpline
 62
253
  6
CONTINUOUS
 70
0
 71
3
 72
24
 73
20
 74
18
 42
0.0000001
 43
0.0000001
 44
0.0000000001
 12
-7.1333414134
 22
-4.5562956154
 32
0.0
 13
7.4080515107
 23
4.0725544498
 33
0.0
 40
0.0
 40
0.0
 40
0.0
 40
0.0
 40
0.0275027941
 40
0.0609567932
 40
0.0887311625
 40
0.1179776856
 40
0.154879777
 40
0.2019843579
 40
0.2598886886
 40
0.3271302657
 40
0.4025074688
 40
0.4833361693
 40
0.5677598864
 40
0.6526362822
 40
0.7358611597
 40
0.8144785889
 40
0.8865004051
 40
0.9496722444
 40
1.0
 40
1.0
 40
1.0
 40
1.0
 10
3.1579570402
 20
51.2875897617
 30
0.0
 10
3.0925614336
 20
51.245819475
 30
0.0
 10
2.9537560277
 20
51.1434536565
 30
0.0
 10
2.7851067015
 20
50.9505717462
 30
0.0
 10
2.7280706681
 20
50.6870279727
 30
0.0
 10
2.839210625
 20
50.432614171
 30
0.0
 10
3.0748577098
 20
50.2113263609
 30
0.0
 10
3.4218010256
 20
50.0083218574
 30
0.0
 10
3.8739409682
 20
49.8283369925
 30
0.0
 10
4.4188191322
 20
49.6757854967
 30
0.0
 10
5.0377274857
 20
49.5567393521
 30
0.0
 10
5.7113415351
 20
49.4750864239
 30
0.0
 10
6.4154134069
 20
49.4339834781
 30
0.0
 10
7.1274186186
 20
49.4347943093
 30
0.0
 10
7.8217892776
 20
49.4774653696
 30
0.0
 10
8.4760508898
 20
49.5604954671
 30
0.0
 10
9.0671617481
 20
49.6807191855
 30
0.0
 10
9.568546108
 20
49.8314957703
 30
0.0
 10
9.8629405905
 20
49.9598230574
 30
0.0
 10
9.9872174592
 20
50.0281438991
 30
0.0
 11
3.1579570402
 21
51.2875897617
 31
0.0
 11
2.9719786952
 21
51.1473119274
 31
0.0
 11
2.7975303428
 21
50.9247154794
 31
0.0
 11
2.753535861
 21
50.6940780056
 31
0.0
 11
2.8417558911
 21
50.4631117677
 31
0.0
 11
3.0595311697
 21
50.2397458849
 31
0.0
 11
3.3992034296
 21
50.0319187821
 31
0.0
 11
3.8519068503
 21
49.8457060296
 31
0.0
 11
4.3983777504
 21
49.6892030014
 31
0.0
 11
5.0237032368
 21
49.5666797894
 31
0.0
 11
5.7018887633
 21
49.4832251001
 31
0.0
 11
6.4143373264
 21
49.4411110466
 31
0.0
 11
7.1318556807
 21
49.4420739884
 31
0.0
 11
7.8340372429
 21
49.4860547995
 31
0.0
 11
8.4931499764
 21
49.5713407303
 31
0.0
 11
9.0892471575
 21
49.6953039345
 31
0.0
 11
9.5994335472
 21
49.8531126585
 31
0.0
 11
9.9872174592
 21
50.0281438991
 31
0.0
  0
SPLINE
  5
3F4
100
AcDbEntity
  8
0
100
AcDbSpline
 62
7
  6
CONTINUOUS
 70
0
 71
3
 72
20
 73
16
 74
14
 42
0.0000001
 43
0.0000001
 44
0.0000000001
 12
1.9381321993
 22
1.0654824553
 32
0.0
 13
-1.9381321993
 23
-1.0654824553
 33
0.0
 40
0.0
 40
0.0
 40
0.0
 40
0.0
 40
0.0533571296
 40
0.0921329902
 40
0.1284506336
 40
0.1767774748
 40
0.2425059598
 40
0.3250804071
 40
0.4212992653
 40
0.5265606304
 40
0.6354955929
 40
0.7424461385
 40
0.8419090829
 40
0.9289967708
 40
1.0
 40
1.0
 40
1.0
 40
1.0
 10
7.5038498482
 20
51.2498073695
 30
0.0
 10
7.5383209052
 20
51.2687577313
 30
0.0
 10
7.5956650819
 20
51.3060955762
 30
0.0
 10
7.6488899
 20
51.3936363716
 30
0.0
 10
7.6201759949
 20
51.4887892722
 30
0.0
 10
7.5326929437
 20
51.5614112067
 30
0.0
 10
7.4024757719
 20
51.6258723033
 30
0.0
 10
7.2294384739
 20
51.6789368431
 30
0.0
 10
7.0235462822
 20
51.7184423746
 30
0.0
 10
6.79559301
 20
51.7416503964
 30
0.0
 10
6.5586704642
 20
51.7472080192
 30
0.0
 10
6.3262865478
 20
51.7347553047
 30
0.0
 10
6.1116030439
 20
51.7050973118
 30
0.0
 10
5.9268449911
 20
51.6601293834
 30
0.0
 10
5.8176702556
 20
51.6170450778
 30
0.0
 10
5.7717990406
 20
51.5918275128
 30
0.0
 11
7.5038498482
 21
51.2498073695
 31
0.0
 11
7.5983117572
 21
51.3205412198
 31
0.0
 11
7.6369536349
 21
51.3971027596
 31
0.0
 11
7.6175297556
 21
51.4750425106
 31
0.0
 11
7.5411689648
 21
51.5498308975
 31
0.0
 11
7.412309074
 21
51.6171214914
 31
0.0
 11
7.2384389516
 21
51.6730036074
 31
0.0
 11
7.0296632973
 21
51.71422958
 31
0.0
 11
6.798115393
 21
51.7384035057
 31
0.0
 11
6.5572519615
 21
51.7441204836
 31
0.0
 11
6.3210711098
 21
51.7310482639
 31
0.0
 11
6.1032988106
 21
51.6999465564
 31
0.0
 11
5.9165911982
 21
51.6526228794
 31
0.0
 11
5.7717990406
 21
51.5918275128
 31
0.0
  0
SPLINE
  5
3F5
100
AcDbEntity
  8
0
100
AcDbSpline
 62
7
  6
CONTINUOUS
 70
0
 71
3
 72
20
 73
16
 74
14
 42
0.0000001
 43
0.0000001
 44
0.0000000001
 12
-1.9381321993
 22
-1.0654824553
 32
0.0
 13
1.9381321993
 23
1.0654824553
 33
0.0
 40
0.0
 40
0.0
 40
0.0
 40
0.0
 40
0.0710032292
 40
0.1580909171
 40
0.2575538615
 40
0.3645044071
 40
0.4734393696
 40
0.5787007347
 40
0.6749195929
 40
0.7574940402
 40
0.8232225252
 40
0.8715493664
 40
0.9078670098
 40
0.9466428704
 40
1.0
 40
1.0
 40
1.0
 40
1.0
 10
7.5038498482
 20
51.2498073695
 30
0.0
 10
7.4579786332
 20
51.2245898045
 30
0.0
 10
7.3488038977
 20
51.1815054989
 30
0.0
 10
7.1640458449
 20
51.1365375706
 30
0.0
 10
6.949362341
 20
51.1068795776
 30
0.0
 10
6.7169784246
 20
51.0944268631
 30
0.0
 10
6.4800558788
 20
51.0999844859
 30
0.0
 10
6.2521026066
 20
51.1231925077
 30
0.0
 10
6.0462104149
 20
51.1626980392
 30
0.0
 10
5.8731731169
 20
51.2157625791
 30
0.0
 10
5.7429559451
 20
51.2802236756
 30
0.0
 10
5.6554728939
 20
51.3528456101
 30
0.0
 10
5.6267589888
 20
51.4479985107
 30
0.0
 10
5.6799838069
 20
51.5355393061
 30
0.0
 10
5.7373279836
 20
51.572877151
 30
0.0
 10
5.7717990406
 20
51.5918275128
 30
0.0
 11
7.5038498482
 21
51.2498073695
 31
0.0
 11
7.3590576906
 21
51.1890120029
 31
0.0
 11
7.1723500782
 21
51.1416883259
 31
0.0
 11
6.954577779
 21
51.1105866184
 31
0.0
 11
6.7183969273
 21
51.0975143987
 31
0.0
 11
6.4775334958
 21
51.1032313767
 31
0.0
 11
6.2459855915
 21
51.1274053023
 31
0.0
 11
6.0372099372
 21
51.168631275
 31
0.0
 11
5.8633398148
 21
51.2245133909
 31
0.0
 11
5.734479924
 21
51.2918039848
 31
0.0
 11
5.6581191332
 21
51.3665923718
 31
0.0
 11
5.6386952539
 21
51.4445321227
 31
0.0
 11
5.6773371316
 21
51.5210936625
 31
0.0
 11
5.7717990406
 21
51.5918275128
 31
0.0
  0
SPLINE
  5
3F6
100
AcDbEntity
  8
RACCORDO
100
AcDbSpline
 62
253
  6
CONTINUOUS
 70
0
 71
3
 72
9
 73
5
 74
3
 42
0.0000001
 43
0.0000001
 44
0.0000000001
 12
-0.0063754571
 22
-0.3670346951
 32
0.0
 13
0.136362583
 23
-0.3426294981
 33
0.0
 40
0.0
 40
0.0
 40
0.0
 40
0.0
 40
0.2090426384
 40
1.0
 40
1.0
 40
1.0
 40
1.0
 10
-1.7425555941
 20
48.9095966031
 30
0.0
 10
-1.7429998416
 20
48.8840213028
 30
0.0
 10
-1.7397239975
 20
48.7617316055
 30
0.0
 10
-1.7093232634
 20
48.6418460644
 30
0.0
 10
-1.6733709338
 20
48.5515109565
 30
0.0
 11
-1.7425555941
 21
48.9095966031
 31
0.0
 11
-1.7404449336
 21
48.8329988396
 31
0.0
 11
-1.6733709338
 21
48.5515109565
 31
0.0
  0
SPLINE
  5
3F7
100
AcDbEntity
  8
RACCORDO
100
AcDbSpline
 62
253
  6
CONTINUOUS
 70
0
 71
3
 72
24
 73
20
 74
18
 42
0.0000001
 43
0.0000001
 44
0.0000000001
 12
6.3705807113
 22
-15.1992710081
 32
0.0
 13
14.2851582848
 23
7.853223598
 33
0.0
 40
0.0
 40
0.0
 40
0.0
 40
0.0
 40
0.0082455635
 40
0.0411039228
 40
0.0817123005
 40
0.1310084392
 40
0.1884154939
 40
0.2534547357
 40
0.3245215478
 40
0.4006012176
 40
0.4795934976
 40
0.5602511302
 40
0.6402921556
 40
0.7184442033
 40
0.7922799162
 40
0.8594297533
 40
0.9178388384
 40
0.9640011875
 40
1.0
 40
1.0
 40
1.0
 40
1.0
 10
-1.66565265
 20
48.5326195202
 30
0.0
 10
-1.6481429741
 20
48.4908440023
 30
0.0
 10
-1.5483646055
 20
48.2876747156
 30
0.0
 10
-1.2514782919
 20
47.9490339186
 30
0.0
 10
-0.7044642629
 20
47.5608146854
 30
0.0
 10
0.0149681675
 20
47.2046051728
 30
0.0
 10
0.8936008984
 20
46.8859602345
 30
0.0
 10
1.9102300019
 20
46.6132932685
 30
0.0
 10
3.0427414204
 20
46.3928552229
 30
0.0
 10
4.2614740816
 20
46.2307788938
 30
0.0
 10
5.5390708336
 20
46.1308619064
 30
0.0
 10
6.8416008558
 20
46.0958707216
 30
0.0
 10
8.1396737476
 20
46.1266142648
 30
0.0
 10
9.3974683937
 20
46.2221214997
 30
0.0
 10
10.5785762748
 20
46.378802043
 30
0.0
 10
11.6424149719
 20
46.5882978085
 30
0.0
 10
12.5435786776
 20
46.8341406483
 30
0.0
 10
13.2621717878
 20
47.0957322313
 30
0.0
 10
13.666413177
 20
47.2873314122
 30
0.0
 10
13.8378294217
 20
47.3815669867
 30
0.0
 11
-1.66565265
 21
48.5326195202
 31
0.0
 11
-1.606116756
 21
48.4106521405
 31
0.0
 11
-1.2675483373
 21
47.9955832523
 31
0.0
 11
-0.7353273175
 21
47.601940141
 31
0.0
 11
-0.0193542588
 21
47.2370332047
 31
0.0
 11
0.8582567864
 21
46.9121334125
 31
0.0
 11
1.8811689283
 21
46.6332902148
 31
0.0
 11
3.0177692173
 21
46.4091211922
 31
0.0
 11
4.2469133826
 21
46.2437970938
 31
0.0
 11
5.5306098208
 21
46.142428417
 31
0.0
 11
6.8449700787
 21
46.1069015027
 31
0.0
 11
8.1493805773
 21
46.1383145444
 31
0.0
 11
9.4196186232
 21
46.2360892926
 31
0.0
 11
10.6125060099
 21
46.3965623185
 31
0.0
 11
11.685907036
 21
46.6111631932
 31
0.0
 11
12.6034156179
 21
46.8656791308
 31
0.0
 11
13.3091509023
 21
47.1268634822
 31
0.0
 11
13.8378294217
 21
47.3815669867
 31
0.0
  0
SPLINE
  5
3F8
100
AcDbEntity
  8
RACCORDO
100
AcDbSpline
 62
253
  6
CONTINUOUS
 70
0
 71
3
 72
13
 73
9
 74
7
 42
0.0000001
 43
0.0000001
 44
0.0000000001
 12
-2.7781684733
 22
-1.5725614486
 32
0.0
 13
1.6191689131
 23
-2.7659052953
 33
0.0
 40
0.0
 40
0.0
 40
0.0
 40
0.0
 40
0.1812758789
 40
0.3829197199
 40
0.5732524136
 40
0.7434233218
 40
0.9128375742
 40
1.0
 40
1.0
 40
1.0
 40
1.0
 10
-3.5727462416
 20
47.61322671
 30
0.0
 10
-3.7406178855
 20
47.5182042238
 30
0.0
 10
-4.0864779759
 20
47.3013397764
 30
0.0
 10
-4.5574965661
 20
46.9096152853
 30
0.0
 10
-4.927231151
 20
46.4293517231
 30
0.0
 10
-5.0982226504
 20
45.8743216141
 30
0.0
 10
-5.0203995341
 20
45.4114935239
 30
0.0
 10
-4.9005379637
 20
45.1644976428
 30
0.0
 10
-4.8534944003
 20
45.0841366377
 30
0.0
 11
-3.5727462416
 21
47.61322671
 31
0.0
 11
-4.0610821917
 21
47.3028351437
 31
0.0
 11
-4.5497845805
 21
46.8841478539
 31
0.0
 11
-4.9068239237
 21
46.3927272545
 31
0.0
 11
-5.0553995989
 21
45.8703603926
 31
0.0
 11
-4.9735422276
 21
45.3359221964
 31
0.0
 11
-4.8534944003
 21
45.0841366377
 31
0.0
  0
SPLINE
  5
3F9
100
AcDbEntity
  8
RACCORDO
100
AcDbSpline
 62
253
  6
CONTINUOUS
 70
0
 71
3
 72
25
 73
21
 74
19
 42
0.0000001
 43
0.0000001
 44
0.0000000001
 12
11.4081066462
 22
-19.4876163483
 32
0.0
 13
19.7043371414
 23
10.8324011773
 33
0.0
 40
0.0
 40
0.0
 40
0.0
 40
0.0
 40
0.0150986936
 40
0.0482943208
 40
0.0884721141
 40
0.1356108968
 40
0.1896047114
 40
0.2494888052
 40
0.3146472797
 40
0.3836544144
 40
0.455652422
 40
0.5289818595
 40
0.6026866742
 40
0.6750526797
 40
0.7451471219
 40
0.8112131332
 40
0.8715532342
 40
0.924542441
 40
0.9667720141
 40
1.0
 40
1.0
 40
1.0
 40
1.0
 10
-4.8534944003
 20
45.0841366377
 30
0.0
 10
-4.7960785645
 20
44.9860574547
 30
0.0
 10
-4.5822938625
 20
44.6892420638
 30
0.0
 10
-4.0858898033
 20
44.2423848032
 30
0.0
 10
-3.3144542289
 20
43.7660265525
 30
0.0
 10
-2.3482582937
 20
43.3272390129
 30
0.0
 10
-1.2055858757
 20
42.9345062505
 30
0.0
 10
0.093739522
 20
42.5950084453
 30
0.0
 10
1.5220857045
 20
42.3163734192
 30
0.0
 10
3.0533459498
 20
42.1039227968
 30
0.0
 10
4.6542101266
 20
41.9624707178
 30
0.0
 10
6.2950824525
 20
41.894717064
 30
0.0
 10
7.9400942758
 20
41.9021846054
 30
0.0
 10
9.5587964934
 20
41.9847184182
 30
0.0
 10
11.1146515071
 20
42.1403113985
 30
0.0
 10
12.5710801683
 20
42.3645349248
 30
0.0
 10
13.8863554265
 20
42.648122009
 30
0.0
 10
15.0076356699
 20
42.9718290728
 30
0.0
 10
15.9096675184
 20
43.3111628794
 30
0.0
 10
16.4204066941
 20
43.5563653496
 30
0.0
 10
16.6386518397
 20
43.6763449741
 30
0.0
 11
-4.8534944003
 21
45.0841366377
 31
0.0
 11
-4.6568139402
 21
44.8056348115
 31
0.0
 11
-4.1131943875
 21
44.2941413762
 31
0.0
 11
-3.3509513976
 21
43.8092125952
 31
0.0
 11
-2.389433668
 21
43.3631591527
 31
0.0
 11
-1.2432724315
 21
42.9627698594
 31
0.0
 11
0.0584269616
 21
42.6182125515
 31
0.0
 11
1.4958668338
 21
42.3347284395
 31
0.0
 11
3.0325362116
 21
42.1195185116
 31
0.0
 11
4.6450670925
 21
41.9758560032
 31
0.0
 11
6.2925007982
 21
41.9073905306
 31
0.0
 11
7.9497789105
 21
41.915163902
 31
0.0
 11
9.5748112823
 21
41.9989790525
 31
0.0
 11
11.1429273549
 21
42.1575678914
 31
0.0
 11
12.6107533129
 21
42.3862515834
 31
0.0
 11
13.9362779559
 21
42.6758100934
 31
0.0
 11
15.0797228878
 21
43.0107590451
 31
0.0
 11
15.9668780437
 21
43.3493060594
 31
0.0
 11
16.6386518397
 21
43.6763449741
 31
0.0
  0
SPLINE
  5
3FA
100
AcDbEntity
  8
0
100
AcDbSpline
 62
7
  6
CONTINUOUS
 70
0
 71
3
 72
24
 73
20
 74
18
 42
0.0000001
 43
0.0000001
 44
0.0000000001
 12
-15.3115504308
 22
-8.4174796505
 32
0.0
 13
-13.6630016196
 23
10.9365840048
 33
0.0
 40
0.0
 40
0.0
 40
0.0
 40
0.0
 40
0.0455066053
 40
0.097594245
 40
0.1557094369
 40
0.2190683076
 40
0.2867203129
 40
0.3575934633
 40
0.4305309842
 40
0.5043240144
 40
0.5777425509
 40
0.6495658152
 40
0.7186128632
 40
0.7837744101
 40
0.8440475656
 40
0.8985769094
 40
0.9467092312
 40
0.9880779755
 40
1.0
 40
1.0
 40
1.0
 40
1.0
 10
14.7593743428
 20
44.6008334222
 30
0.0
 10
14.5271154487
 20
44.4731497807
 30
0.0
 10
14.0093541918
 20
44.2348494649
 30
0.0
 10
13.1514201892
 20
43.9379895276
 30
0.0
 10
12.1725565333
 20
43.6821619769
 30
0.0
 10
11.0905784707
 20
43.4723021701
 30
0.0
 10
9.9251370135
 20
43.3124054568
 30
0.0
 10
8.6977039094
 20
43.2055578097
 30
0.0
 10
7.4309536091
 20
43.1538158415
 30
0.0
 10
6.1483441005
 20
43.158181755
 30
0.0
 10
4.8736408053
 20
43.2185813806
 30
0.0
 10
3.6304557248
 20
43.3338671685
 30
0.0
 10
2.4417832241
 20
43.501838991
 30
0.0
 10
1.3295372111
 20
43.7192856246
 30
0.0
 10
0.3140904369
 20
43.9820534372
 30
0.0
 10
-0.5862184845
 20
44.2851560074
 30
0.0
 10
-1.3555724033
 20
44.6230020175
 30
0.0
 10
-1.8667233724
 20
44.9226595096
 30
0.0
 10
-2.1156224864
 20
45.1092839284
 30
0.0
 10
-2.1699193666
 20
45.1527460027
 30
0.0
 11
14.7593743428
 21
44.6008334222
 31
0.0
 11
14.0399268684
 21
44.2622760601
 31
0.0
 11
13.1814300203
 21
43.9601292451
 31
0.0
 11
12.1998759705
 21
43.7000214006
 31
0.0
 11
11.1135492139
 21
43.4867978436
 31
0.0
 11
9.9426859624
 21
43.3244305256
 31
0.0
 11
8.7090971831
 21
43.2159440425
 31
0.0
 11
7.4357623009
 21
43.1633592923
 31
0.0
 11
6.1464011355
 21
43.1676558292
 31
0.0
 11
4.8650320457
 21
43.228753617
 31
0.0
 11
3.6155245132
 21
43.3455145194
 31
0.0
 11
2.4211544993
 21
43.5157635019
 31
0.0
 11
1.3041708575
 21
43.7363291479
 31
0.0
 11
0.2853808796
 21
44.0031027368
 31
0.0
 11
-0.6162373048
 21
44.3111147814
 31
0.0
 11
-1.3838882548
 21
44.6546276
 31
0.0
 11
-2.0032720856
 21
45.0272421989
 31
0.0
 11
-2.1699193666
 21
45.1527460027
 31
0.0
  0
SPLINE
  5
3FB
100
AcDbEntity
  8
RACCORDO
100
AcDbSpline
 62
253
  6
CONTINUOUS
 70
0
 71
3
 72
9
 73
5
 74
3
 42
0.0000001
 43
0.0000001
 44
0.0000000001
 12
-0.0046664619
 22
-0.4230445837
 32
0.0
 13
0.1496471891
 23
-0.3938010679
 33
0.0
 40
0.0
 40
0.0
 40
0.0
 40
0.0
 40
0.600216132
 40
1.0
 40
1.0
 40
1.0
 40
1.0
 10
-3.5120324222
 20
47.2528176271
 30
0.0
 10
-3.5129660507
 20
47.1681782325
 30
0.0
 10
-3.498395201
 20
47.0269102672
 30
0.0
 10
-3.4573470469
 20
46.8925032892
 30
0.0
 10
-3.4374048696
 20
46.8400248511
 30
0.0
 11
-3.5120324222
 21
47.2528176271
 31
0.0
 11
-3.4859360347
 21
47.0010673443
 31
0.0
 11
-3.4374048696
 21
46.8400248511
 31
0.0
  0
SPLINE
  5
3FC
100
AcDbEntity
  8
RACCORDO
100
AcDbSpline
 62
253
  6
CONTINUOUS
 70
0
 71
3
 72
25
 73
21
 74
19
 42
0.0000001
 43
0.0000001
 44
0.0000000001
 12
7.0532148811
 22
-18.5607465693
 32
0.0
 13
17.3206959655
 23
9.5220014772
 33
0.0
 40
0.0
 40
0.0
 40
0.0
 40
0.0
 40
0.0185591053
 40
0.0514342424
 40
0.0915668962
 40
0.1395723714
 40
0.1948402761
 40
0.2569600157
 40
0.324484932
 40
0.3965970106
 40
0.4714349273
 40
0.5479791366
 40
0.6242322714
 40
0.6990986023
 40
0.7706191556
 40
0.8344546737
 40
0.8893706419
 40
0.9347808537
 40
0.9709474685
 40
1.0
 40
1.0
 40
1.0
 40
1.0
 10
-3.4374048696
 20
46.8400248511
 30
0.0
 10
-3.3937710837
 20
46.7252012347
 30
0.0
 10
-3.2259867642
 20
46.4236369239
 30
0.0
 10
-2.7963537896
 20
45.9916779138
 30
0.0
 10
-2.1279801529
 20
45.5502534221
 30
0.0
 10
-1.2720939935
 20
45.144870576
 30
0.0
 10
-0.2431234327
 20
44.7817904076
 30
0.0
 10
0.9356794728
 20
44.4699012086
 30
0.0
 10
2.2412438454
 20
44.2156071478
 30
0.0
 10
3.6421528501
 20
44.0253750584
 30
0.0
 10
5.110184069
 20
43.9031907222
 30
0.0
 10
6.6096777915
 20
43.8521392585
 30
0.0
 10
8.1100754416
 20
43.8732884292
 30
0.0
 10
9.5746275308
 20
43.9660557912
 30
0.0
 10
10.9511364385
 20
44.1257804977
 30
0.0
 10
12.1869552902
 20
44.3405028351
 30
0.0
 10
13.2399377448
 20
44.5907854688
 30
0.0
 10
14.0996372926
 20
44.8572541914
 30
0.0
 10
14.7787678893
 20
45.1237038831
 30
0.0
 10
15.1655225424
 20
45.3123319222
 30
0.0
 10
15.3332592307
 20
45.4045446715
 30
0.0
 11
-3.4374048696
 21
46.8400248511
 31
0.0
 11
-3.2631116576
 21
46.5152456611
 31
0.0
 11
-2.8181024455
 21
46.0417496655
 31
0.0
 11
-2.1633286365
 21
45.5939727917
 31
0.0
 11
-1.309790469
 21
45.1794933548
 31
0.0
 11
-0.2817554496
 21
44.8100654463
 31
0.0
 11
0.9040811834
 21
44.491706386
 31
0.0
 11
2.2135465491
 21
44.2335826307
 31
0.0
 11
3.6256481261
 21
44.0398338674
 31
0.0
 11
5.0996688767
 21
43.916052615
 31
0.0
 11
6.6117158981
 21
43.864235685
 31
0.0
 11
8.1187419439
 21
43.8858749019
 31
0.0
 11
9.5954783196
 21
43.9805874817
 31
0.0
 11
10.9994594558
 21
44.1455533816
 31
0.0
 11
12.2421182896
 21
44.364161084
 31
0.0
 11
13.2974295382
 21
44.6181328598
 31
0.0
 11
14.1538210447
 21
44.8868326924
 31
0.0
 11
14.8182538463
 21
45.1505396644
 31
0.0
 11
15.3332592307
 21
45.4045446715
 31
0.0
  0
SPLINE
  5
3FD
100
AcDbEntity
  8
RACCORDO
100
AcDbSpline
 62
253
  6
CONTINUOUS
 70
0
 71
3
 72
27
 73
23
 74
21
 42
0.0000001
 43
0.0000001
 44
0.0000000001
 12
-0.4385452731
 22
-28.1352947753
 32
0.0
 13
24.5201406964
 23
13.4798749657
 33
0.0
 40
0.0
 40
0.0
 40
0.0
 40
0.0
 40
0.0042271238
 40
0.0271361388
 40
0.0537687191
 40
0.0858121344
 40
0.124134286
 40
0.1686200589
 40
0.2191519288
 40
0.2748642837
 40
0.3352591806
 40
0.3990866726
 40
0.4656561741
 40
0.5335304999
 40
0.6019154732
 40
0.6693515748
 40
0.7350107044
 40
0.7975658648
 40
0.8562350681
 40
0.9099757738
 40
0.9580184066
 40
1.0
 40
1.0
 40
1.0
 40
1.0
 10
-7.46039814
 20
43.2836872282
 30
0.0
 10
-7.4610160684
 20
43.2440434369
 30
0.0
 10
-7.4546239592
 20
42.9895910392
 30
0.0
 10
-7.3047634589
 20
42.4963037036
 30
0.0
 10
-6.8411011814
 20
41.8800596089
 30
0.0
 10
-6.1404160598
 20
41.2993844739
 30
0.0
 10
-5.2135969697
 20
40.7557150943
 30
0.0
 10
-4.0730912721
 20
40.2546331632
 30
0.0
 10
-2.7393444598
 20
39.8054962779
 30
0.0
 10
-1.2336191697
 20
39.4157842717
 30
0.0
 10
0.414324804
 20
39.0936126983
 30
0.0
 10
2.1770807782
 20
38.8445554979
 30
0.0
 10
4.0191363138
 20
38.6738257849
 30
0.0
 10
5.9094345965
 20
38.584389758
 30
0.0
 10
7.8099150304
 20
38.578096414
 30
0.0
 10
9.6881867219
 20
38.6550476851
 30
0.0
 10
11.506813886
 20
38.8136352087
 30
0.0
 10
13.2344450813
 20
39.0510202356
 30
0.0
 10
14.8373281865
 20
39.3623365344
 30
0.0
 10
16.2863655291
 20
39.7415909774
 30
0.0
 10
17.5547201608
 20
40.1809723203
 30
0.0
 10
18.3194807576
 20
40.5331294456
 30
0.0
 10
18.6626122833
 20
40.721764989
 30
0.0
 11
-7.46039814
 21
43.2836872282
 31
0.0
 11
-7.4573444525
 21
43.1649023801
 31
0.0
 11
-7.2844620027
 21
42.5476351579
 31
0.0
 11
-6.8532296726
 21
41.9398715074
 31
0.0
 11
-6.1734263664
 21
41.3552524818
 31
0.0
 11
-5.2547582492
 21
40.8021964338
 31
0.0
 11
-4.1186574482
 21
40.2935617273
 31
0.0
 11
-2.7806837446
 21
39.8363406369
 31
0.0
 11
-1.2726492645
 21
39.4413891613
 31
0.0
 11
0.3852535572
 21
39.1140028581
 31
0.0
 11
2.1533535548
 21
38.8620158502
 31
0.0
 11
4.0079727285
 21
38.688798151
 31
0.0
 11
5.9050250423
 21
38.5984786246
 31
0.0
 11
7.8185046808
 21
38.5922812434
 31
0.0
 11
9.7038272553
 21
38.6703720999
 31
0.0
 11
11.5339560081
 21
38.8316070869
 31
0.0
 11
13.2676806139
 21
39.0723893565
 31
0.0
 11
14.8784915045
 21
39.3889990556
 31
0.0
 11
16.3319078031
 21
39.7747113311
 31
0.0
 11
17.5997999699
 21
40.2214316038
 31
0.0
 11
18.6626122833
 21
40.721764989
 31
0.0
  0
SPLINE
  5
3FE
100
AcDbEntity
  8
RACCORDO
100
AcDbSpline
 62
253
  6
CONTINUOUS
 70
0
 71
3
 72
8
 73
4
 74
2
 42
0.0000001
 43
0.0000001
 44
0.0000000001
 12
-0.0033163025
 22
-0.3898344418
 32
0.0
 13
0.1104961171
 23
-0.3752567163
 33
0.0
 40
0.0
 40
0.0
 40
0.0
 40
0.0
 40
1.0
 40
1.0
 40
1.0
 40
1.0
 10
-5.2834508818
 20
45.5326686203
 30
0.0
 10
-5.284556316
 20
45.4027238064
 30
0.0
 10
-5.2647678036
 20
45.2722258978
 30
0.0
 10
-5.2279357646
 20
45.1471403256
 30
0.0
 11
-5.2834508818
 21
45.5326686203
 31
0.0
 11
-5.2279357646
 21
45.1471403256
 31
0.0
  0
SPLINE
  5
3FF
100
AcDbEntity
  8
RACCORDO
100
AcDbSpline
 62
253
  6
CONTINUOUS
 70
0
 71
3
 72
25
 73
21
 74
19
 42
0.0000001
 43
0.0000001
 44
0.0000000001
 12
8.0777581197
 22
-21.8963297544
 32
0.0
 13
20.3295669019
 23
11.1761193925
 33
0.0
 40
0.0
 40
0.0
 40
0.0
 40
0.0
 40
0.0271341042
 40
0.0599240836
 40
0.09961091
 40
0.1461736602
 40
0.199507676
 40
0.2586599908
 40
0.323022234
 40
0.3911861069
 40
0.4623043042
 40
0.534737662
 40
0.6075418101
 40
0.6790235092
 40
0.7482614044
 40
0.8135200982
 40
0.8731228438
 40
0.925464549
 40
0.9671780503
 40
1.0
 40
1.0
 40
1.0
 40
1.0
 10
-5.1975529066
 20
45.05545403
 30
0.0
 10
-5.1244919964
 20
44.8574082656
 30
0.0
 10
-4.869562397
 20
44.4600866398
 30
0.0
 10
-4.2929259154
 20
43.9410049935
 30
0.0
 10
-3.506738164
 20
43.45553752
 30
0.0
 10
-2.522065774
 20
43.0083589991
 30
0.0
 10
-1.3575421056
 20
42.6081161312
 30
0.0
 10
-0.0333698419
 20
42.2621261055
 30
0.0
 10
1.4222904656
 20
41.978162786
 30
0.0
 10
2.9828328446
 20
41.7616495012
 30
0.0
 10
4.6143101813
 20
41.6174924018
 30
0.0
 10
6.2865607479
 20
41.5484431462
 30
0.0
 10
7.9630299738
 20
41.5560534035
 30
0.0
 10
9.6126864959
 20
41.6401655191
 30
0.0
 10
11.1982939923
 20
41.7987339418
 30
0.0
 10
12.6825739019
 20
42.0272448648
 30
0.0
 10
14.0230009603
 20
42.3162558446
 30
0.0
 10
15.1657237939
 20
42.6461514262
 30
0.0
 10
16.0850043826
 20
42.9919761725
 30
0.0
 10
16.6055104838
 20
43.2418669279
 30
0.0
 10
16.8279291582
 20
43.3641409375
 30
0.0
 11
-5.1975529066
 21
45.05545403
 31
0.0
 11
-4.8747677752
 21
44.5150260283
 31
0.0
 11
-4.3207526453
 21
43.9937513464
 31
0.0
 11
-3.5439332656
 21
43.4995493555
 31
0.0
 11
-2.5640285401
 21
43.0449660691
 31
0.0
 11
-1.3959493343
 21
42.636920197
 31
0.0
 11
-0.0693576798
 21
42.2857739511
 31
0.0
 11
1.3955702141
 21
41.9968688058
 31
0.0
 11
2.9616251653
 21
41.777543442
 31
0.0
 11
4.6049923034
 21
41.6311336682
 31
0.0
 11
6.2839297219
 21
41.5613589445
 31
0.0
 11
7.972899808
 21
41.5692809186
 31
0.0
 11
9.6290075212
 21
41.6546988637
 31
0.0
 11
11.2271105583
 21
41.8163203444
 31
0.0
 11
12.7230057131
 21
42.0493770445
 31
0.0
 11
14.0738780999
 21
42.3444728936
 31
0.0
 11
15.2391896801
 21
42.685826617
 31
0.0
 11
16.1433088442
 21
43.0308482328
 31
0.0
 11
16.8279291582
 21
43.3641409375
 31
0.0
  0
SPLINE
  5
400
100
AcDbEntity
  8
RACCORDO
100
AcDbSpline
 62
253
  6
CONTINUOUS
 70
0
 71
3
 72
30
 73
26
 74
24
 42
0.0000001
 43
0.0000001
 44
0.0000000001
 12
-24.7816044374
 22
-15.1963467685
 32
0.0
 13
25.4472549072
 23
13.9895532663
 33
0.0
 40
0.0
 40
0.0
 40
0.0
 40
0.0
 40
0.0210979863
 40
0.0482431683
 40
0.0709679446
 40
0.0913029514
 40
0.1122086765
 40
0.1365123578
 40
0.1657537217
 40
0.2007247738
 40
0.2413204677
 40
0.2874335539
 40
0.3382741158
 40
0.3933877526
 40
0.4516338195
 40
0.5123821198
 40
0.5743211432
 40
0.6367261602
 40
0.6982652801
 40
0.7581828158
 40
0.8152678097
 40
0.8688066598
 40
0.9178479699
 40
0.9616895268
 40
1.0
 40
1.0
 40
1.0
 40
1.0
 10
-5.2223480082
 20
46.1295779237
 30
0.0
 10
-5.3966286584
 20
46.0227071518
 30
0.0
 10
-5.7835097328
 20
45.7590775129
 30
0.0
 10
-6.2910956357
 20
45.2885140863
 30
0.0
 10
-6.6534531822
 20
44.6985204754
 30
0.0
 10
-6.7505239566
 20
44.0670936247
 30
0.0
 10
-6.5609360984
 20
43.443037127
 30
0.0
 10
-6.1218207599
 20
42.8594178719
 30
0.0
 10
-5.458230963
 20
42.3094845986
 30
0.0
 10
-4.5804791
 20
41.7945978255
 30
0.0
 10
-3.5003534722
 20
41.3200439714
 30
0.0
 10
-2.2372172303
 20
40.8946850231
 30
0.0
 10
-0.8112072887
 20
40.5256049753
 30
0.0
 10
0.749492062
 20
40.2204896394
 30
0.0
 10
2.4189250964
 20
39.9846178938
 30
0.0
 10
4.1634594564
 20
39.8229268908
 30
0.0
 10
5.9536825162
 20
39.7382257154
 30
0.0
 10
7.7535486694
 20
39.7322655899
 30
0.0
 10
9.5323818348
 20
39.8051429365
 30
0.0
 10
11.2547281546
 20
39.9553345572
 30
0.0
 10
12.890895914
 20
40.180152324
 30
0.0
 10
14.4089200675
 20
40.4749863434
 30
0.0
 10
15.7812428984
 20
40.8341641975
 30
0.0
 10
16.9824499364
 20
41.2502813337
 30
0.0
 10
17.7067224296
 20
41.5837963093
 30
0.0
 10
18.0316878883
 20
41.762445111
 30
0.0
 11
-5.2223480082
 21
46.1295779237
 31
0.0
 11
-5.7270146871
 21
45.78136426
 31
0.0
 11
-6.2932949399
 21
45.2330033796
 31
0.0
 11
-6.6220868496
 21
44.6608375481
 31
0.0
 11
-6.7054390964
 21
44.0762391829
 31
0.0
 11
-6.5417093713
 21
43.4916510002
 31
0.0
 11
-6.1333071631
 21
42.9160632595
 31
0.0
 11
-5.4894936512
 21
42.3623948465
 31
0.0
 11
-4.6194612409
 21
41.8386183984
 31
0.0
 11
-3.543507306
 21
41.3569115814
 31
0.0
 11
-2.2763679534
 21
40.9238964485
 31
0.0
 11
-0.8481710718
 21
40.5498542984
 31
0.0
 11
0.7219598906
 21
40.2398003141
 31
0.0
 11
2.3964540267
 21
40.0011538738
 31
0.0
 11
4.1528868893
 21
39.8371065891
 31
0.0
 11
5.9495064113
 21
39.7515687072
 31
0.0
 11
7.7616835696
 21
39.7456994452
 31
0.0
 11
9.5471943421
 21
39.8196560484
 31
0.0
 11
11.2804333239
 21
39.9723550304
 31
0.0
 11
12.9223719168
 21
40.2003899565
 31
0.0
 11
14.4479041709
 21
40.500237765
 31
0.0
 11
15.8243739109
 21
40.8655302079
 31
0.0
 11
17.0251433201
 21
41.2885996452
 31
0.0
 11
18.0316878883
 21
41.762445111
 31
0.0
  0
SPLINE
  5
401
100
AcDbEntity
  8
RACCORDO
100
AcDbSpline
 62
253
  6
CONTINUOUS
 70
0
 71
3
 72
30
 73
26
 74
24
 42
0.0000001
 43
0.0000001
 44
0.0000000001
 12
-18.7016090038
 22
-11.0527775105
 32
0.0
 13
19.028750204
 23
10.4609992528
 33
0.0
 40
0.0
 40
0.0
 40
0.0
 40
0.0
 40
0.0154703007
 40
0.0382633559
 40
0.0603968656
 40
0.0813075765
 40
0.1022501117
 40
0.1263222219
 40
0.1555876381
 40
0.1913136885
 40
0.2340481152
 40
0.2832475536
 40
0.3385464877
 40
0.3986571066
 40
0.4628512134
 40
0.5294718584
 40
0.5976114435
 40
0.6654919136
 40
0.732137852
 40
0.7958053765
 40
0.8526316949
 40
0.9015178397
 40
0.94194196
 40
0.9741374677
 40
1.0
 40
1.0
 40
1.0
 40
1.0
 10
-2.1102263347
 20
49.0121338054
 30
0.0
 10
-2.2066661731
 20
48.9551372081
 30
0.0
 10
-2.440557256
 20
48.8062045881
 30
0.0
 10
-2.7845111541
 20
48.5338648011
 30
0.0
 10
-3.10030084
 20
48.1717768788
 30
0.0
 10
-3.296330782
 20
47.7405638621
 30
0.0
 10
-3.2925605318
 20
47.2464160261
 30
0.0
 10
-3.0455993556
 20
46.7525383064
 30
0.0
 10
-2.5865024429
 20
46.2909561435
 30
0.0
 10
-1.9328433573
 20
45.8592497182
 30
0.0
 10
-1.0957998326
 20
45.462791384
 30
0.0
 10
-0.0894823558
 20
45.1077046045
 30
0.0
 10
1.0633688481
 20
44.8026816569
 30
0.0
 10
2.3401908594
 20
44.5539859719
 30
0.0
 10
3.710258468
 20
44.3679419159
 30
0.0
 10
5.1459705718
 20
44.2484474696
 30
0.0
 10
6.6124525213
 20
44.1985199958
 30
0.0
 10
8.0798184846
 20
44.2192035849
 30
0.0
 10
9.5121280015
 20
44.3099285607
 30
0.0
 10
10.8583325873
 20
44.4661371987
 30
0.0
 10
12.0669444687
 20
44.6761323288
 30
0.0
 10
13.0967452609
 20
44.9209045915
 30
0.0
 10
13.9375181032
 20
45.1815076734
 30
0.0
 10
14.6016979459
 20
45.4420903024
 30
0.0
 10
14.979938023
 20
45.6265660642
 30
0.0
 10
15.1439819122
 20
45.716748708
 30
0.0
 11
-2.1102263347
 21
49.0121338054
 31
0.0
 11
-2.3931826442
 21
48.8308485889
 31
0.0
 11
-2.7778784982
 21
48.5194360164
 31
0.0
 11
-3.0864434561
 21
48.150946501
 31
0.0
 11
-3.2636291107
 21
47.7328752056
 31
0.0
 11
-3.2609029846
 21
47.2781236427
 31
0.0
 11
-3.0429845376
 21
46.8029973711
 31
0.0
 11
-2.6077723512
 21
46.3399255242
 31
0.0
 11
-1.9674136072
 21
45.9020065784
 31
0.0
 11
-1.1326664249
 21
45.4966519758
 31
0.0
 11
-0.1272638746
 21
45.1353571327
 31
0.0
 11
1.0324661982
 21
44.8240068073
 31
0.0
 11
2.3131033245
 21
44.5715657193
 31
0.0
 11
3.6941171026
 21
44.382082401
 31
0.0
 11
5.1356868752
 21
44.2610262224
 31
0.0
 11
6.6144457623
 21
44.2103501069
 31
0.0
 11
8.0882941947
 21
44.2315129446
 31
0.0
 11
9.5325197889
 21
44.3241404069
 31
0.0
 11
10.905591723
 21
44.4854747194
 31
0.0
 11
12.1208930544
 21
44.6992696706
 31
0.0
 11
13.1529713467
 21
44.9476501352
 31
0.0
 11
13.9905089202
 21
45.2104345873
 31
0.0
 11
14.6403146684
 21
45.4683356066
 31
0.0
 11
15.1439819122
 21
45.716748708
 31
0.0
  0
SPLINE
  5
402
100
AcDbEntity
  8
RACCORDO
100
AcDbSpline
 62
253
  6
CONTINUOUS
 70
0
 71
3
 72
11
 73
7
 74
5
 42
0.0000001
 43
0.0000001
 44
0.0000000001
 12
2.6586398614
 22
1.4615794157
 32
0.0
 13
0.0476497752
 23
3.0506198067
 33
0.0
 40
0.0
 40
0.0
 40
0.0
 40
0.0
 40
0.3294685137
 40
0.6038142531
 40
0.833484047
 40
1.0
 40
1.0
 40
1.0
 40
1.0
 10
18.6626122833
 20
40.721764989
 30
0.0
 10
18.9545916579
 20
40.8822797882
 30
0.0
 10
19.4735299475
 20
41.2094748835
 30
0.0
 10
20.096352758
 20
41.7868664748
 30
0.0
 10
20.457933794
 20
42.3755987389
 30
0.0
 10
20.5342658415
 20
42.7787513572
 30
0.0
 10
20.5369106574
 20
42.9480769786
 30
0.0
 11
18.6626122833
 21
40.721764989
 31
0.0
 11
19.5007371229
 21
41.2664661516
 31
0.0
 11
20.0986749118
 21
41.84548128
 31
0.0
 11
20.445845767
 21
42.4496315687
 31
0.0
 11
20.5369106574
 21
42.9480769786
 31
0.0
  0
SPLINE
  5
403
100
AcDbEntity
  8
0
100
AcDbSpline
 62
7
  6
CONTINUOUS
 70
0
 71
3
 72
24
 73
20
 74
18
 42
0.0000001
 43
0.0000001
 44
0.0000000001
 12
-13.1102797896
 22
-7.2073376135
 32
0.0
 13
-9.4883951365
 23
11.6196121426
 33
0.0
 40
0.0
 40
0.0
 40
0.0
 40
0.0
 40
0.0463080022
 40
0.0995724266
 40
0.1591602018
 40
0.2241789012
 40
0.2935507926
 40
0.3660655612
 40
0.4404234891
 40
0.5152743905
 40
0.5892547969
 40
0.6610247534
 40
0.7293053249
 40
0.792918379
 40
0.8508317007
 40
0.9022160249
 40
0.9465287822
 40
0.983658183
 40
1.0
 40
1.0
 40
1.0
 40
1.0
 10
13.394152297
 20
46.5775567941
 30
0.0
 10
13.1917820083
 20
46.4663043253
 30
0.0
 10
12.7386860362
 20
46.2595814378
 30
0.0
 10
11.9861567333
 20
46.0044939448
 30
0.0
 10
11.1253744402
 20
45.7870026084
 30
0.0
 10
10.1734538047
 20
45.6117096488
 30
0.0
 10
9.1492871589
 20
45.482274148
 30
0.0
 10
8.0734969466
 20
45.4014351528
 30
0.0
 10
6.9678000351
 20
45.3708988927
 30
0.0
 10
5.8545677334
 20
45.3913172267
 30
0.0
 10
4.756330368
 20
45.462271375
 30
0.0
 10
3.6952977771
 20
45.582281922
 30
0.0
 10
2.6928754604
 20
45.7488375632
 30
0.0
 10
1.7691844507
 20
45.9584522295
 30
0.0
 10
0.9425594546
 20
46.2067465382
 30
0.0
 10
0.2290435098
 20
46.4886469628
 30
0.0
 10
-0.3583036624
 20
46.7986814331
 30
0.0
 10
-0.7525228855
 20
47.0900110341
 30
0.0
 10
-0.9376298708
 20
47.2842482429
 30
0.0
 10
-0.9893157432
 20
47.3475434348
 30
0.0
 11
13.394152297
 21
46.5775567941
 31
0.0
 11
12.7665134458
 21
46.2842189643
 31
0.0
 11
12.0132577401
 21
46.0241806313
 31
0.0
 11
11.1497192939
 21
45.8027354256
 31
0.0
 11
10.1934772598
 21
45.6243913331
 31
0.0
 11
9.1639979679
 21
45.4927789251
 31
0.0
 11
8.0822386479
 21
45.4105774507
 31
0.0
 11
6.9702208
 21
45.379460295
 31
0.0
 11
5.8505819007
 21
45.4000609134
 31
0.0
 11
4.7461145694
 21
45.4719599368
 31
0.0
 11
3.6793025758
 21
45.5936937084
 31
0.0
 11
2.6718631357
 21
45.7627840797
 31
0.0
 11
1.7443048109
 21
45.9757888582
 31
0.0
 11
0.915510014
 21
46.2283718811
 31
0.0
 11
0.2023506171
 21
46.5153912863
 31
0.0
 11
-0.3806555112
 21
46.8310041865
 31
0.0
 11
-0.8216400473
 21
47.1687856131
 31
0.0
 11
-0.9893157432
 21
47.3475434348
 31
0.0
  0
SPLINE
  5
404
100
AcDbEntity
  8
RACCORDO
100
AcDbSpline
 62
7
  6
CONTINUOUS
 70
0
 71
3
 72
10
 73
6
 74
4
 42
0.0000001
 43
0.0000001
 44
0.0000000001
 12
-0.7673778021
 22
30.5479938813
 32
0.0
 13
0.7452122368
 23
30.5485426425
 33
0.0
 40
0.0
 40
0.0
 40
0.0
 40
0.0
 40
0.3300454509
 40
0.6634551257
 40
1.0
 40
1.0
 40
1.0
 40
1.0
 10
-5.8521788631
 20
-25.4937318233
 30
0.0
 10
-5.9366020473
 20
-22.1329896854
 30
0.0
 10
-6.048562862
 20
-15.3756616788
 30
0.0
 10
-6.0477427399
 20
-5.1893700634
 30
0.0
 10
-5.9357833701
 20
1.6341430791
 30
0.0
 10
-5.8521842506
 20
5.0611282273
 30
0.0
 11
-5.8521788631
 21
-25.4937318233
 31
0.0
 11
-6.0201534227
 21
-15.4097237177
 31
0.0
 11
-6.0201529035
 21
-5.221513977
 31
0.0
 11
-5.8521842506
 21
5.0611282273
 31
0.0
  0
SPLINE
  5
405
100
AcDbEntity
  8
RACCORDO
100
AcDbSpline
 62
7
  6
CONTINUOUS
 70
0
 71
3
 72
14
 73
10
 74
8
 42
0.0000001
 43
0.0000001
 44
0.0000000001
 12
0.0
 22
1.4880593653
 32
0.0
 13
-1.4598694884
 23
0.2882737443
 33
0.0
 40
0.0
 40
0.0
 40
0.0
 40
0.0
 40
0.1759473261
 40
0.3491678446
 40
0.5085757248
 40
0.6473955903
 40
0.7715684625
 40
0.8869259004
 40
1.0
 40
1.0
 40
1.0
 40
1.0
 10
-7.8231696494
 20
-26.1758906557
 30
0.0
 10
-7.8231696494
 20
-26.0886173002
 30
0.0
 10
-7.8330970078
 20
-25.9151879072
 30
0.0
 10
-7.8824423856
 20
-25.6667789958
 30
0.0
 10
-7.9674947301
 20
-25.4473751124
 30
0.0
 10
-8.0823328569
 20
-25.2702149544
 30
0.0
 10
-8.2177541931
 20
-25.1379647071
 30
0.0
 10
-8.3685672968
 20
-25.0465423076
 30
0.0
 10
-8.4775582341
 20
-25.0113703008
 30
0.0
 10
-8.5325827101
 20
-25.0005048694
 30
0.0
 11
-7.8231696494
 21
-26.1758906557
 31
0.0
 11
-7.8392562264
 21
-25.9145652471
 31
0.0
 11
-7.8913040159
 21
-25.6621123008
 31
0.0
 11
-7.9790022174
 21
-25.4417107461
 31
0.0
 11
-8.0926207261
 21
-25.2691914466
 31
0.0
 11
-8.2254016871
 21
-25.1406939358
 31
0.0
 11
-8.3724226181
 21
-25.0520849039
 31
0.0
 11
-8.5325827101
 21
-25.0005048694
 31
0.0
  0
SPLINE
  5
406
100
AcDbEntity
  8
RACCORDO
100
AcDbSpline
 62
7
  6
CONTINUOUS
 70
0
 71
3
 72
9
 73
5
 74
3
 42
0.0000001
 43
0.0000001
 44
0.0000000001
 12
0.0184776637
 22
-0.008318494
 32
0.0
 13
0.0057039509
 23
-0.0146491566
 33
0.0
 40
0.0
 40
0.0
 40
0.0
 40
0.0
 40
0.8912500415
 40
1.0
 40
1.0
 40
1.0
 40
1.0
 10
-11.0163819776
 20
-22.0225432743
 30
0.0
 10
-11.0108925714
 20
-22.0250145603
 30
0.0
 10
-11.0055458475
 20
-22.0289211712
 30
0.0
 10
-11.0033219814
 20
-22.0337140445
 30
0.0
 10
-11.0031152133
 20
-22.0342450763
 30
0.0
 11
-11.0163819776
 21
-22.0225432743
 31
0.0
 11
-11.0038426048
 21
-22.0326820764
 31
0.0
 11
-11.0031152133
 21
-22.0342450763
 31
0.0
  0
SPLINE
  5
407
100
AcDbEntity
  8
RACCORDO
100
AcDbSpline
 62
7
  6
CONTINUOUS
 70
0
 71
3
 72
9
 73
5
 74
3
 42
0.0000001
 43
0.0000001
 44
0.0000000001
 12
-0.289493868
 22
-0.3010533938
 32
0.0
 13
-0.186521971
 23
-0.3736195955
 33
0.0
 40
0.0
 40
0.0
 40
0.0
 40
0.0
 40
0.4948577555
 40
1.0
 40
1.0
 40
1.0
 40
1.0
 10
-20.1247574392
 20
9.314943579
 30
0.0
 10
-20.1725102011
 20
9.2652840434
 30
0.0
 10
-20.2610904968
 20
9.1572962151
 30
0.0
 10
-20.3321643577
 20
9.0371979199
 30
0.0
 10
-20.3635710668
 20
8.9742875728
 30
0.0
 11
-20.1247574392
 21
9.314943579
 31
0.0
 11
-20.2558924445
 21
9.1554411528
 31
0.0
 11
-20.3635710668
 21
8.9742875728
 31
0.0
  0
SPLINE
  5
408
100
AcDbEntity
  8
RACCORDO
100
AcDbSpline
 62
7
  6
CONTINUOUS
 70
0
 71
3
 72
9
 73
5
 74
3
 42
0.0000001
 43
0.0000001
 44
0.0000000001
 12
-0.257555144
 22
-0.6236475266
 32
0.0
 13
0.0
 23
-0.673536891
 33
0.0
 40
0.0
 40
0.0
 40
0.0
 40
0.0
 40
0.4899579116
 40
1.0
 40
1.0
 40
1.0
 40
1.0
 10
-20.4079481876
 20
8.8767920477
 30
0.0
 10
-20.4500119144
 20
8.7749383678
 30
0.0
 10
-20.5132406076
 20
8.5579590449
 30
0.0
 10
-20.5332004789
 20
8.3327866498
 30
0.0
 10
-20.5332004789
 20
8.218275929
 30
0.0
 11
-20.4079481876
 21
8.8767920477
 31
0.0
 11
-20.5015836518
 21
8.5603500773
 31
0.0
 11
-20.5332004789
 21
8.218275929
 31
0.0
  0
SPLINE
  5
409
100
AcDbEntity
  8
ASSI
100
AcDbSpline
 62
7
  6
CONTINUOUS
 70
0
 71
3
 72
16
 73
12
 74
10
 42
0.0000001
 43
0.0000001
 44
0.0000000001
 12
0.7640244305
 22
-0.1508684064
 32
0.0
 13
-0.6732977416
 23
-0.3996357867
 33
0.0
 40
0.0
 40
0.0
 40
0.0
 40
0.0
 40
0.1134612512
 40
0.2342980529
 40
0.3580082023
 40
0.483131685
 40
0.6029649951
 40
0.7176432113
 40
0.8229692818
 40
0.9231414269
 40
1.0
 40
1.0
 40
1.0
 40
1.0
 10
10.3467007564
 20
-43.3708887687
 30
0.0
 10
10.3755964791
 20
-43.3765946748
 30
0.0
 10
10.4337173669
 20
-43.3972515176
 30
0.0
 10
10.5115922734
 20
-43.4494413068
 30
0.0
 10
10.5778813247
 20
-43.5199165294
 30
0.0
 10
10.6271026154
 20
-43.6029196194
 30
0.0
 10
10.6557366099
 20
-43.692671349
 30
0.0
 10
10.6611302575
 20
-43.7817863433
 30
0.0
 10
10.642268962
 20
-43.86406766
 30
0.0
 10
10.6026405998
 20
-43.9275842915
 30
0.0
 10
10.5662648398
 20
-43.9569250122
 30
0.0
 10
10.5490152719
 20
-43.967163491
 30
0.0
 11
10.3467007564
 21
-43.3708887687
 31
0.0
 11
10.4302096791
 21
-43.3997668086
 31
0.0
 11
10.5086861892
 21
-43.4517012687
 31
0.0
 11
10.5748105364
 21
-43.5217689939
 31
0.0
 11
10.6243645271
 21
-43.6056713918
 31
0.0
 11
10.6522435055
 21
-43.6947333848
 31
0.0
 11
10.6568085796
 21
-43.7839254653
 31
0.0
 11
10.6375689345
 21
-43.8636627413
 31
0.0
 11
10.5956769551
 21
-43.9294723691
 31
0.0
 11
10.5490152719
 21
-43.967163491
 31
0.0
  0
SPLINE
  5
40A
100
AcDbEntity
  8
ASSI
100
AcDbSpline
 62
7
  6
CONTINUOUS
 70
0
 71
3
 72
9
 73
5
 74
3
 42
0.0000001
 43
0.0000001
 44
0.0000000001
 12
0.1512367161
 22
0.038063248
 32
0.0
 13
0.1347306403
 23
0.0798076641
 33
0.0
 40
0.0
 40
0.0
 40
0.0
 40
0.0
 40
0.9886312298
 40
1.0
 40
1.0
 40
1.0
 40
1.0
 10
10.7559458278
 20
-44.4734558263
 30
0.0
 10
10.8057849414
 20
-44.4609123211
 30
0.0
 10
10.854794183
 20
-44.4412002777
 30
0.0
 10
10.8997506952
 20
-44.4146749785
 30
0.0
 10
10.9002612691
 20
-44.4143725402
 30
0.0
 11
10.7559458278
 21
-44.4734558263
 31
0.0
 11
10.8987279709
 21
-44.415277218
 31
0.0
 11
10.9002612691
 21
-44.4143725402
 31
0.0
  0
SPLINE
  5
40B
100
AcDbEntity
  8
ASSI
100
AcDbSpline
 62
7
  6
CONTINUOUS
 70
0
 71
3
 72
17
 73
13
 74
11
 42
0.0000001
 43
0.0000001
 44
0.0000000001
 12
0.936133732
 22
0.5545621268
 32
0.0
 13
-1.0825804972
 23
0.2207346713
 33
0.0
 40
0.0
 40
0.0
 40
0.0
 40
0.0
 40
0.085488484
 40
0.1903039876
 40
0.3106847748
 40
0.4399562838
 40
0.5701113961
 40
0.6930196776
 40
0.801609055
 40
0.8913219207
 40
0.9624917083
 40
1.0
 40
1.0
 40
1.0
 40
1.0
 10
-20.1863093702
 20
2.7901081467
 30
0.0
 10
-20.1596331524
 20
2.8059110386
 30
0.0
 10
-20.1079218563
 20
2.8536997803
 30
0.0
 10
-20.0453640927
 20
2.9480451448
 30
0.0
 10
-19.9932517346
 20
3.0661818826
 30
0.0
 10
-19.9558209247
 20
3.1991601628
 30
0.0
 10
-19.935907965
 20
3.3368107729
 30
0.0
 10
-19.9350274323
 20
3.4684208232
 30
0.0
 10
-19.9532527965
 20
3.5842331392
 30
0.0
 10
-19.9892867869
 20
3.6760086147
 30
0.0
 10
-20.038045967
 20
3.7326312029
 30
0.0
 10
-20.0760189992
 20
3.7474293949
 30
0.0
 10
-20.0895542475
 20
3.7501891883
 30
0.0
 11
-20.1863093702
 21
2.7901081467
 31
0.0
 11
-20.115876231
 21
2.8508645522
 31
0.0
 11
-20.0511491659
 21
2.9447629889
 31
0.0
 11
-19.9973719766
 21
3.0641963638
 31
0.0
 11
-19.9589013714
 21
3.1994888952
 31
0.0
 11
-19.9388540098
 21
3.3396799868
 31
0.0
 11
-19.9388540098
 21
3.4734121902
 31
0.0
 11
-19.9589013714
 21
3.5898513175
 31
0.0
 11
-19.9973719766
 21
3.6795641631
 31
0.0
 11
-20.0511491659
 21
3.7352827259
 31
0.0
 11
-20.0895542475
 21
3.7501891883
 31
0.0
  0
SPLINE
  5
40C
100
AcDbEntity
  8
ASSI
100
AcDbSpline
 62
7
  6
CONTINUOUS
 70
0
 71
3
 72
17
 73
13
 74
11
 42
0.0000001
 43
0.0000001
 44
0.0000000001
 12
0.936133732
 22
0.5545621268
 32
0.0
 13
-1.0825804972
 23
0.2207346713
 33
0.0
 40
0.0
 40
0.0
 40
0.0
 40
0.0
 40
0.085488484
 40
0.1903039876
 40
0.3106847748
 40
0.4399562838
 40
0.5701113961
 40
0.6930196776
 40
0.801609055
 40
0.8913219207
 40
0.9624917083
 40
1.0
 40
1.0
 40
1.0
 40
1.0
 10
-20.1863093702
 20
-16.9434368898
 30
0.0
 10
-20.1596331524
 20
-16.927633998
 30
0.0
 10
-20.1079218563
 20
-16.8798452562
 30
0.0
 10
-20.0453640927
 20
-16.7854998917
 30
0.0
 10
-19.9932517346
 20
-16.6673631539
 30
0.0
 10
-19.9558209247
 20
-16.5343848737
 30
0.0
 10
-19.935907965
 20
-16.3967342636
 30
0.0
 10
-19.9350274323
 20
-16.2651242133
 30
0.0
 10
-19.9532527965
 20
-16.1493118973
 30
0.0
 10
-19.9892867869
 20
-16.0575364218
 30
0.0
 10
-20.038045967
 20
-16.0009138336
 30
0.0
 10
-20.0760189992
 20
-15.9861156416
 30
0.0
 10
-20.0895542475
 20
-15.9833558482
 30
0.0
 11
-20.1863093702
 21
-16.9434368898
 31
0.0
 11
-20.115876231
 21
-16.8826804843
 31
0.0
 11
-20.0511491659
 21
-16.7887820476
 31
0.0
 11
-19.9973719766
 21
-16.6693486727
 31
0.0
 11
-19.9589013714
 21
-16.5340561413
 31
0.0
 11
-19.9388540098
 21
-16.3938650497
 31
0.0
 11
-19.9388540098
 21
-16.2601328463
 31
0.0
 11
-19.9589013714
 21
-16.143693719
 31
0.0
 11
-19.9973719766
 21
-16.0539808734
 31
0.0
 11
-20.0511491659
 21
-15.9982623106
 31
0.0
 11
-20.0895542475
 21
-15.9833558482
 31
0.0
  0
SPLINE
  5
40D
100
AcDbEntity
  8
RACCORDO
100
AcDbSpline
 62
7
  6
CONTINUOUS
 70
0
 71
3
 72
10
 73
6
 74
4
 42
0.0000001
 43
0.0000001
 44
0.0000000001
 12
0.7216053134
 22
-0.1424920976
 32
0.0
 13
0.6985663399
 23
0.2358988308
 33
0.0
 40
0.0
 40
0.0
 40
0.0
 40
0.0
 40
0.4382167773
 40
0.8614974418
 40
1.0
 40
1.0
 40
1.0
 40
1.0
 10
-7.1964092606
 20
-26.7407053296
 30
0.0
 10
-7.0910027423
 20
-26.7615194722
 30
0.0
 10
-6.8788524274
 20
-26.7816614577
 30
0.0
 10
-6.6335994016
 20
-26.7502070557
 30
0.0
 10
-6.5010462914
 20
-26.7112053085
 30
0.0
 10
-6.4687952163
 20
-26.7003144447
 30
0.0
 11
-7.1964092606
 21
-26.7407053296
 31
0.0
 11
-6.8753982283
 21
-26.7697876411
 31
0.0
 11
-6.56672347
 21
-26.7291398009
 31
0.0
 11
-6.4687952163
 21
-26.7003144447
 31
0.0
  0
SPLINE
  5
40E
100
AcDbEntity
  8
RACCORDO
100
AcDbSpline
 62
7
  6
CONTINUOUS
 70
0
 71
3
 72
16
 73
12
 74
10
 42
0.0000001
 43
0.0000001
 44
0.0000000001
 12
0.074170209
 22
-2.8766606455
 32
0.0
 13
2.8231029427
 23
-0.5574652134
 33
0.0
 40
0.0
 40
0.0
 40
0.0
 40
0.0
 40
0.108108993
 40
0.2202613686
 40
0.3339210062
 40
0.4488660923
 40
0.5646557882
 40
0.6780304496
 40
0.7887461041
 40
0.8967833596
 40
1.0
 40
1.0
 40
1.0
 40
1.0
 10
-20.3383507614
 20
-22.2957843185
 30
0.0
 10
-20.3356779392
 20
-22.3994486137
 30
0.0
 10
-20.312769912
 20
-22.6105158526
 30
0.0
 10
-20.2300638533
 20
-22.9211031723
 30
0.0
 10
-20.1009589372
 20
-23.2225856728
 30
0.0
 10
-19.9293747932
 20
-23.5061070547
 30
0.0
 10
-19.7203508929
 20
-23.7629609924
 30
0.0
 10
-19.4803799408
 20
-23.985248765
 30
0.0
 10
-19.216915077
 20
-24.1664545512
 30
0.0
 10
-18.9376620039
 20
-24.3011947769
 30
0.0
 10
-18.7420898158
 20
-24.3585382378
 30
0.0
 10
-18.6449594154
 20
-24.3777181333
 30
0.0
 11
-20.3383507614
 21
-22.2957843185
 31
0.0
 11
-20.3055665849
 21
-22.6051482925
 31
0.0
 11
-20.2231293559
 21
-22.917173538
 31
0.0
 11
-20.094701848
 21
-23.2179731711
 31
0.0
 11
-19.9235417367
 21
-23.5010131278
 31
0.0
 11
-19.713114642
 21
-23.7593570542
 31
0.0
 11
-19.4734997394
 21
-23.9807684086
 31
0.0
 11
-19.210640203
 21
-24.1607935407
 31
0.0
 11
-18.9302520197
 21
-24.2950877662
 31
0.0
 11
-18.6449594154
 21
-24.3777181333
 31
0.0
  0
SPLINE
  5
40F
100
AcDbEntity
  8
RACCORDO
100
AcDbSpline
 62
7
  6
CONTINUOUS
 70
0
 71
3
 72
15
 73
11
 74
9
 42
0.0000001
 43
0.0000001
 44
0.0000000001
 12
0.0
 22
-2.8783070743
 32
0.0
 13
2.8237802696
 23
-0.5575989621
 33
0.0
 40
0.0
 40
0.0
 40
0.0
 40
0.0
 40
0.1236725178
 40
0.2506968529
 40
0.3796847647
 40
0.5090155777
 40
0.6370289756
 40
0.7622184637
 40
0.8834217995
 40
1.0
 40
1.0
 40
1.0
 40
1.0
 10
-20.5332004789
 20
-22.3217342465
 30
0.0
 10
-20.5332004789
 20
-22.4403900742
 30
0.0
 10
-20.5110599864
 20
-22.6813627698
 30
0.0
 10
-20.4167108515
 20
-23.0348311055
 30
0.0
 10
-20.2643963311
 20
-23.3734714299
 30
0.0
 10
-20.0598701332
 20
-23.6844709217
 30
0.0
 10
-19.8107841287
 20
-23.9562121438
 30
0.0
 10
-19.5263158838
 20
-24.1784393808
 30
0.0
 10
-19.2171575399
 20
-24.3426136074
 30
0.0
 10
-18.9974826192
 20
-24.410401401
 30
0.0
 10
-18.8877522117
 20
-24.4320693622
 30
0.0
 11
-20.5332004789
 21
-22.3217342465
 31
0.0
 11
-20.5015836518
 21
-22.676294855
 31
0.0
 11
-20.4079481876
 21
-23.0297163583
 31
0.0
 11
-20.2558924445
 21
-23.3684169663
 31
0.0
 11
-20.0512598395
 21
-23.6793806045
 31
0.0
 11
-19.8019142889
 21
-23.9506571148
 31
0.0
 11
-19.5174380024
 21
-24.1718214929
 31
0.0
 11
-19.208763244
 21
-24.3343745159
 31
0.0
 11
-18.8877522117
 21
-24.4320693622
 31
0.0
  0
SPLINE
  5
410
100
AcDbEntity
  8
ASSI
100
AcDbSpline
 62
7
  6
CONTINUOUS
 70
0
 71
3
 72
11
 73
7
 74
5
 42
0.0000001
 43
0.0000001
 44
0.0000000001
 12
0.8858501259
 22
0.4207757852
 32
0.0
 13
0.7399128461
 23
-0.6436704802
 33
0.0
 40
0.0
 40
0.0
 40
0.0
 40
0.0
 40
0.2320588891
 40
0.4741515421
 40
0.7302886489
 40
1.0
 40
1.0
 40
1.0
 40
1.0
 10
-16.9104657524
 20
-24.6087668372
 30
0.0
 10
-16.8419426204
 20
-24.5762185835
 30
0.0
 10
-16.6892591811
 20
-24.5338836027
 30
0.0
 10
-16.4472749513
 20
-24.5471952923
 30
0.0
 10
-16.2080246497
 20
-24.6327346924
 30
0.0
 10
-16.0645723374
 20
-24.7310687159
 30
0.0
 10
-15.9980513729
 20
-24.7889371276
 30
0.0
 11
-16.9104657524
 21
-24.6087668372
 31
0.0
 11
-16.6914293872
 21
-24.5469902501
 31
0.0
 11
-16.4542585627
 21
-24.5578980893
 31
0.0
 11
-16.2170877382
 21
-24.6406563239
 31
0.0
 11
-15.9980513729
 21
-24.7889371276
 31
0.0
  0
SPLINE
  5
411
100
AcDbEntity
  8
ASSI
100
AcDbSpline
 62
7
  6
CONTINUOUS
 70
0
 71
3
 72
16
 73
12
 74
10
 42
0.0000001
 43
0.0000001
 44
0.0000000001
 12
1.1390218937
 22
-0.2249174387
 32
0.0
 13
-1.0034379423
 23
-0.5950922294
 33
0.0
 40
0.0
 40
0.0
 40
0.0
 40
0.0
 40
0.1114460815
 40
0.2289290998
 40
0.3504487952
 40
0.4729569569
 40
0.5931622644
 40
0.7083477354
 40
0.8171527766
 40
0.9201847893
 40
1.0
 40
1.0
 40
1.0
 40
1.0
 10
-20.3513728797
 20
-20.1235515457
 30
0.0
 10
-20.3090597041
 20
-20.1319069348
 30
0.0
 10
-20.2244493661
 20
-20.1625635307
 30
0.0
 10
-20.1123574044
 20
-20.2412612524
 30
0.0
 10
-20.0193883433
 20
-20.3475502853
 30
0.0
 10
-19.9526914288
 20
-20.4731463056
 30
0.0
 10
-19.9173728702
 20
-20.6084487636
 30
0.0
 10
-19.9164338176
 20
-20.7431685964
 30
0.0
 10
-19.9506061893
 20
-20.8669307901
 30
0.0
 10
-20.0138628905
 20
-20.9629114658
 30
0.0
 10
-20.0699775481
 20
-21.0078110626
 30
0.0
 10
-20.0966740851
 20
-21.0236435332
 30
0.0
 11
-20.3513728797
 21
-20.1235515457
 31
0.0
 11
-20.229379104
 21
-20.166673175
 31
0.0
 11
-20.1172685386
 21
-20.2443655001
 31
0.0
 11
-20.0241237146
 21
-20.3503343509
 31
0.0
 11
-19.9574906717
 21
-20.4759947613
 31
0.0
 11
-19.9227676228
 21
-20.6111664723
 31
0.0
 11
-19.9227676228
 21
-20.7448986757
 31
0.0
 11
-19.9574906717
 21
-20.8663571836
 31
0.0
 11
-20.0241237146
 21
-20.9657021502
 31
0.0
 11
-20.0966740851
 21
-21.0236435332
 31
0.0
  0
SPLINE
  5
412
100
AcDbEntity
  8
RACCORDO
100
AcDbSpline
 62
7
  6
CONTINUOUS
 70
0
 71
3
 72
10
 73
6
 74
4
 42
0.0000001
 43
0.0000001
 44
0.0000000001
 12
0.2601060157
 22
0.1540858323
 32
0.0
 13
0.2978598961
 23
-0.0590613563
 33
0.0
 40
0.0
 40
0.0
 40
0.0
 40
0.0
 40
0.5225862382
 40
0.9880851423
 40
1.0
 40
1.0
 40
1.0
 40
1.0
 10
-12.5037776155
 20
-21.8455716076
 30
0.0
 10
-12.4584683407
 20
-21.8187305624
 30
0.0
 10
-12.3654484216
 20
-21.7779962614
 30
0.0
 10
-12.2618482311
 20
-21.7741622388
 30
0.0
 10
-12.2143952127
 20
-21.7832899707
 30
0.0
 10
-12.2132122266
 20
-21.7835245399
 30
0.0
 11
-12.5037776155
 21
-21.8455716076
 31
0.0
 11
-12.357459874
 21
-21.7859774193
 31
0.0
 11
-12.2167650412
 21
-21.7828411928
 31
0.0
 11
-12.2132122266
 21
-21.7835245399
 31
0.0
  0
SPLINE
  5
413
100
AcDbEntity
  8
ASSI
100
AcDbSpline
 62
7
  6
CONTINUOUS
 70
0
 71
3
 72
18
 73
14
 74
12
 42
0.0000001
 43
0.0000001
 44
0.0000000001
 12
1.6973220352
 22
1.0054083213
 32
0.0
 13
-1.9274607127
 23
0.3806068427
 33
0.0
 40
0.0
 40
0.0
 40
0.0
 40
0.0
 40
0.0770958469
 40
0.1559720221
 40
0.2394876882
 40
0.3271439021
 40
0.4203130618
 40
0.5175041445
 40
0.6165062103
 40
0.7168513787
 40
0.8145451894
 40
0.9098441396
 40
1.0
 40
1.0
 40
1.0
 40
1.0
 10
10.9002612691
 20
-44.4143725402
 30
0.0
 10
10.9438800957
 20
-44.3885349382
 30
0.0
 10
11.0243530628
 20
-44.32329459
 30
0.0
 10
11.113781682
 20
-44.1918714157
 30
0.0
 10
11.1665691025
 20
-44.0349068761
 30
0.0
 10
11.1807044046
 20
-43.860867663
 30
0.0
 10
11.1560724498
 20
-43.679177205
 30
0.0
 10
11.0942566575
 20
-43.4988572746
 30
0.0
 10
10.9986025291
 20
-43.328673382
 30
0.0
 10
10.8743306447
 20
-43.1776819068
 30
0.0
 10
10.7270586163
 20
-43.0526774839
 30
0.0
 10
10.5648717997
 20
-42.9605120751
 30
0.0
 10
10.4482012707
 20
-42.9228997514
 30
0.0
 10
10.3902773111
 20
-42.9114617722
 30
0.0
 11
10.9002612691
 21
-44.4143725402
 31
0.0
 11
11.0180030453
 21
-44.319066735
 31
0.0
 11
11.10583101
 21
-44.1913919907
 31
0.0
 11
11.1592717108
 21
-44.0362570768
 31
0.0
 11
11.1743726717
 21
-43.8647040406
 31
0.0
 11
11.1507274339
 21
-43.6831900985
 31
0.0
 11
11.0893983278
 21
-43.502357595
 31
0.0
 11
10.99432568
 21
-43.3326687596
 31
0.0
 11
10.868966256
 21
-43.1805122412
 31
0.0
 11
10.722357874
 21
-43.0566340242
 31
0.0
 11
10.5591684258
 21
-42.9648462604
 31
0.0
 11
10.3902773111
 21
-42.9114617722
 31
0.0
  0
SPLINE
  5
414
100
AcDbEntity
  8
ASSI
100
AcDbSpline
 62
7
  6
CONTINUOUS
 70
0
 71
3
 72
9
 73
5
 74
3
 42
0.0000001
 43
0.0000001
 44
0.0000000001
 12
-0.0996580887
 22
0.0203199628
 32
0.0
 13
-0.0861767774
 23
-0.0510508011
 33
0.0
 40
0.0
 40
0.0
 40
0.0
 40
0.0
 40
0.2612198677
 40
1.0
 40
1.0
 40
1.0
 40
1.0
 10
-20.0895542475
 20
-15.9833558482
 30
0.0
 10
-20.0982318051
 20
-15.9815865222
 30
0.0
 10
-20.1321270279
 20
-15.9785069627
 30
0.0
 10
-20.1650874732
 20
-15.9911724965
 30
0.0
 10
-20.1863093702
 20
-16.003744269
 30
0.0
 11
-20.0895542475
 21
-15.9833558482
 31
0.0
 11
-20.115876231
 21
-15.9810520173
 31
0.0
 11
-20.1863093702
 21
-16.003744269
 31
0.0
  0
SPLINE
  5
415
100
AcDbEntity
  8
ASSI
100
AcDbSpline
 62
7
  6
CONTINUOUS
 70
0
 71
3
 72
9
 73
5
 74
3
 42
0.0000001
 43
0.0000001
 44
0.0000000001
 12
-0.0996580887
 22
0.0203199628
 32
0.0
 13
-0.0861767774
 23
-0.0510508011
 33
0.0
 40
0.0
 40
0.0
 40
0.0
 40
0.0
 40
0.2612198677
 40
1.0
 40
1.0
 40
1.0
 40
1.0
 10
-20.0895542475
 20
3.7501891883
 30
0.0
 10
-20.0982318051
 20
3.7519585143
 30
0.0
 10
-20.1321270279
 20
3.7550380738
 30
0.0
 10
-20.1650874732
 20
3.74237254
 30
0.0
 10
-20.1863093702
 20
3.7298007675
 30
0.0
 11
-20.0895542475
 21
3.7501891883
 31
0.0
 11
-20.115876231
 21
3.7524930192
 31
0.0
 11
-20.1863093702
 21
3.7298007675
 31
0.0
  0
SPLINE
  5
416
100
AcDbEntity
  8
ASSI
100
AcDbSpline
 62
7
  6
CONTINUOUS
 70
0
 71
3
 72
10
 73
6
 74
4
 42
0.0000001
 43
0.0000001
 44
0.0000000001
 12
-0.1517026853
 22
-0.0900431091
 32
0.0
 13
-0.1721445812
 23
0.0339926023
 33
0.0
 40
0.0
 40
0.0
 40
0.0
 40
0.0
 40
0.0876288265
 40
0.5309182674
 40
1.0
 40
1.0
 40
1.0
 40
1.0
 10
10.5490152719
 20
-43.967163491
 30
0.0
 10
10.5445840958
 20
-43.969793615
 30
0.0
 10
10.5171543626
 20
-43.9847292838
 30
0.0
 10
10.4596820251
 20
-44.0008406739
 30
0.0
 10
10.4054349341
 20
-43.997658066
 30
0.0
 10
10.3785183079
 20
-43.9923429631
 30
0.0
 11
10.5490152719
 21
-43.967163491
 31
0.0
 11
10.5354454643
 21
-43.9745500685
 31
0.0
 11
10.4607368577
 21
-43.9962037678
 31
0.0
 11
10.3785183079
 21
-43.9923429631
 31
0.0
  0
SPLINE
  5
417
100
AcDbEntity
  8
RACCORDO
100
AcDbSpline
 62
253
  6
CONTINUOUS
 70
0
 71
3
 72
14
 73
10
 74
8
 42
0.0000001
 43
0.0000001
 44
0.0000000001
 12
-3.7341781483
 22
-69.3747186415
 32
0.0
 13
3.9932512931
 23
-69.3602884736
 33
0.0
 40
0.0
 40
0.0
 40
0.0
 40
0.0
 40
0.1467173803
 40
0.2923105355
 40
0.4366789925
 40
0.5797258033
 40
0.7213562954
 40
0.8614780857
 40
1.0
 40
1.0
 40
1.0
 40
1.0
 10
-40.7151263241
 20
31.9520619641
 30
0.0
 10
-40.8977492692
 20
28.5592363047
 30
0.0
 10
-41.2112765647
 20
21.7967597347
 30
0.0
 10
-41.5264268178
 20
11.6885176173
 30
0.0
 10
-41.6844511721
 20
1.6615794762
 30
0.0
 10
-41.6852040581
 20
-8.2748378384
 30
0.0
 10
-41.52868579
 20
-18.1116863967
 30
0.0
 10
-41.215043217
 20
-27.8399199109
 30
0.0
 10
-40.8995103746
 20
-34.2855024987
 30
0.0
 10
-40.7151261034
 20
-37.4881424778
 30
0.0
 11
-40.7151263241
 21
31.9520619641
 31
0.0
 11
-41.1866429143
 21
21.7697623239
 31
0.0
 11
-41.5012306255
 21
11.659550005
 31
0.0
 11
-41.6585963255
 21
1.6307651962
 31
0.0
 11
-41.6585963255
 21
-8.3074326248
 31
0.0
 11
-41.5012306255
 21
-18.1459730625
 31
0.0
 11
-41.1866429143
 21
-27.8758703503
 31
0.0
 11
-40.7151261034
 21
-37.4881424778
 31
0.0
  0
SPLINE
  5
418
100
AcDbEntity
  8
RACCORDO
100
AcDbSpline
 62
253
  6
CONTINUOUS
 70
0
 71
3
 72
14
 73
10
 74
8
 42
0.0000001
 43
0.0000001
 44
0.0000000001
 12
-3.9575784695
 22
66.7253515416
 32
0.0
 13
3.4376961208
 23
66.7546638205
 33
0.0
 40
0.0
 40
0.0
 40
0.0
 40
0.0
 40
0.1440307037
 40
0.2897041587
 40
0.4369280029
 40
0.5856085723
 40
0.7356497801
 40
0.8869531333
 40
1.0
 40
1.0
 40
1.0
 40
1.0
 10
15.3866880581
 20
-48.5663108836
 30
0.0
 10
15.1966837874
 20
-45.3628111038
 30
0.0
 10
14.8715211699
 20
-38.9157587112
 30
0.0
 10
14.5482795596
 20
-29.1855460964
 30
0.0
 10
14.3869672255
 20
-19.3476678775
 30
0.0
 10
14.3877353976
 20
-9.4111734203
 30
0.0
 10
14.55058416
 20
0.6148906486
 30
0.0
 10
14.8471538196
 20
9.8434925199
 30
0.0
 10
15.1164051455
 20
15.7274802207
 30
0.0
 10
15.2459454038
 20
18.2429487472
 30
0.0
 11
15.3866880581
 21
-48.5663108836
 31
0.0
 11
14.9007611204
 21
-38.9511932467
 31
0.0
 11
14.576559244
 21
-29.2193974937
 31
0.0
 11
14.4143842656
 21
-19.3799073898
 31
0.0
 11
14.4143842656
 21
-9.4417095688
 31
0.0
 11
14.576559244
 21
0.5861255738
 31
0.0
 11
14.9007611204
 21
10.6944394276
 31
0.0
 11
15.2459454038
 21
18.2429487472
 31
0.0
  0
SPLINE
  5
419
100
AcDbEntity
  8
RACCORDO
100
AcDbSpline
 62
253
  6
CONTINUOUS
 70
0
 71
3
 72
37
 73
33
 74
31
 42
0.0000001
 43
0.0000001
 44
0.0000000001
 12
-10.0902954179
 22
1.9925033708
 32
0.0
 13
10.0903096161
 23
-1.9924314681
 33
0.0
 40
0.0
 40
0.0
 40
0.0
 40
0.0
 40
0.0224742782
 40
0.046547837
 40
0.0724626923
 40
0.1004717705
 40
0.1305263239
 40
0.1618033582
 40
0.1933010272
 40
0.2247160955
 40
0.2564705309
 40
0.2901344339
 40
0.3275491132
 40
0.3702660118
 40
0.4183768802
 40
0.4706482325
 40
0.5251835823
 40
0.578382659
 40
0.6270689866
 40
0.6702195766
 40
0.7074977919
 40
0.7395994757
 40
0.7683274651
 40
0.79546262
 40
0.8224854576
 40
0.849761692
 40
0.8771613948
 40
0.9040355369
 40
0.9298278179
 40
0.9544295809
 40
0.9778331169
 40
1.0
 40
1.0
 40
1.0
 40
1.0
 10
8.4022875035
 20
9.1214790628
 30
0.0
 10
8.3266968015
 20
9.1364057544
 30
0.0
 10
8.1713007849
 20
9.1735481721
 30
0.0
 10
7.9347498181
 20
9.2502747106
 30
0.0
 10
7.6876501226
 20
9.3532872124
 30
0.0
 10
7.4318195397
 20
9.4861155345
 30
0.0
 10
7.1728239819
 20
9.6503611956
 30
0.0
 10
6.9195748521
 20
9.8437681703
 30
0.0
 10
6.6803091076
 20
10.0611942597
 30
0.0
 10
6.4586794452
 20
10.2987806519
 30
0.0
 10
6.2522443083
 20
10.5592223036
 30
0.0
 10
6.0562174659
 20
10.8527357375
 30
0.0
 10
5.8682959813
 20
11.1952413869
 30
0.0
 10
5.6949307378
 20
11.6001383445
 30
0.0
 10
5.5524380452
 20
12.0707780765
 30
0.0
 10
5.4626082277
 20
12.595805326
 30
0.0
 10
5.4451678613
 20
13.1460113266
 30
0.0
 10
5.5073748112
 20
13.6807285587
 30
0.0
 10
5.6385916043
 20
14.1622662752
 30
0.0
 10
5.8166041214
 20
14.5692029287
 30
0.0
 10
6.0188577896
 20
14.8990502554
 30
0.0
 10
6.2298366452
 20
15.1620322054
 30
0.0
 10
6.4448971351
 20
15.3743367387
 30
0.0
 10
6.6682499088
 20
15.5509097657
 30
0.0
 10
6.9053192693
 20
15.699432479
 30
0.0
 10
7.1582507314
 20
15.8211235178
 30
0.0
 10
7.4227728222
 20
15.9134698735
 30
0.0
 10
7.6908940395
 20
15.9747928232
 30
0.0
 10
7.9543903395
 20
16.0062642038
 30
0.0
 10
8.2077318626
 20
16.0113130384
 30
0.0
 10
8.4479899077
 20
15.994100479
 30
0.0
 10
8.6025303769
 20
15.9698716961
 30
0.0
 10
8.6770872814
 20
15.9551496977
 30
0.0
 11
8.4022875035
 21
9.1214790628
 31
0.0
 11
8.1774424314
 21
9.1751030939
 31
0.0
 11
7.941878306
 21
9.2513610771
 31
0.0
 11
7.6957999507
 21
9.3537716264
 31
0.0
 11
7.4400426087
 21
9.4863488802
 31
0.0
 11
7.178884125
 21
9.6517227988
 31
0.0
 11
6.9231043851
 21
9.846813431
 31
0.0
 11
6.6832390855
 21
10.0645596322
 31
0.0
 11
6.4627436783
 21
10.3007392764
 31
0.0
 11
6.2597922965
 21
10.5566250874
 31
0.0
 11
6.0674309658
 21
10.8445102558
 31
0.0
 11
5.8822848848
 21
11.1818583174
 31
0.0
 11
5.7093765316
 21
11.5857525385
 31
0.0
 11
5.5661710482
 21
12.0594043384
 31
0.0
 11
5.4759663355
 21
12.5894010236
 31
0.0
 11
5.4590097876
 21
13.1500484384
 31
0.0
 11
5.5232535815
 21
13.6934238353
 31
0.0
 11
5.6558338871
 21
14.1762993648
 31
0.0
 11
5.8343915373
 21
14.5826051683
 31
0.0
 11
6.0352353075
 21
14.9092032705
 31
0.0
 11
6.2420786079
 21
15.1665518893
 31
0.0
 11
6.4524825832
 21
15.3739971421
 31
0.0
 11
6.6714957284
 21
15.5469822786
 31
0.0
 11
6.9070658606
 21
15.6944741632
 31
0.0
 11
7.1598792924
 21
15.8160801586
 31
0.0
 11
7.4259309613
 21
15.9089956104
 31
0.0
 11
7.6953589751
 21
15.9707038664
 31
0.0
 11
7.9587507961
 21
16.0022755359
 31
0.0
 11
8.2117306985
 21
16.0074398487
 31
0.0
 11
8.4518322861
 21
15.9903549566
 31
0.0
 11
8.6770872814
 21
15.9551496977
 31
0.0
  0
SPLINE
  5
41A
100
AcDbEntity
  8
RACCORDO
100
AcDbSpline
 62
253
  6
CONTINUOUS
 70
0
 71
3
 72
10
 73
6
 74
4
 42
0.0000001
 43
0.0000001
 44
0.0000000001
 12
-0.2978771198
 22
0.0590858405
 32
0.0
 13
-0.260124469
 23
-0.1540967641
 33
0.0
 40
0.0
 40
0.0
 40
0.0
 40
0.0
 40
0.0119849987
 40
0.4774508776
 40
1.0
 40
1.0
 40
1.0
 40
1.0
 10
-8.532583129
 20
-25.0005069804
 30
0.0
 10
-8.533773148
 20
-25.0002709325
 30
0.0
 10
-8.5812329244
 20
-24.9911402156
 30
0.0
 10
-8.6848404645
 20
-24.9949745145
 30
0.0
 10
-8.7778603784
 20
-25.0357088143
 30
0.0
 10
-8.8231696494
 20
-25.0625498572
 30
0.0
 11
-8.532583129
 21
-25.0005069804
 31
0.0
 11
-8.5361570891
 21
-24.9998194399
 31
0.0
 11
-8.6768519209
 21
-25.0029556718
 31
0.0
 11
-8.8231696494
 21
-25.0625498572
 31
0.0
  0
SPLINE
  5
41B
100
AcDbEntity
  8
RACCORDO
100
AcDbSpline
 62
253
  6
CONTINUOUS
 70
0
 71
3
 72
25
 73
21
 74
19
 42
0.0000001
 43
0.0000001
 44
0.0000000001
 12
6.6069855895
 22
-1.3046623171
 32
0.0
 13
-2.8264865935
 23
-6.1186570228
 33
0.0
 40
0.0
 40
0.0
 40
0.0
 40
0.0
 40
0.03410835
 40
0.0706373124
 40
0.1099668646
 40
0.1524966009
 40
0.198167085
 40
0.2457262007
 40
0.2936318826
 40
0.3414135038
 40
0.3897106479
 40
0.4409140039
 40
0.497846473
 40
0.56289927
 40
0.6362598068
 40
0.716048974
 40
0.7993692377
 40
0.8806877286
 40
0.9550903308
 40
1.0
 40
1.0
 40
1.0
 40
1.0
 10
8.6770872814
 20
15.9551496977
 30
0.0
 10
8.7522050737
 20
15.9403164047
 30
0.0
 10
8.9066125986
 20
15.9033965276
 30
0.0
 10
9.1416394383
 20
15.8270561713
 30
0.0
 10
9.3871351564
 20
15.7244543792
 30
0.0
 10
9.6413289471
 20
15.5919918202
 30
0.0
 10
9.8986756779
 20
15.4280031576
 30
0.0
 10
10.1502448645
 20
15.2347408618
 30
0.0
 10
10.3877791142
 20
15.0174172884
 30
0.0
 10
10.6076279204
 20
14.7799924194
 30
0.0
 10
10.8122521879
 20
14.5198497399
 30
0.0
 10
11.0064874387
 20
14.2268096968
 30
0.0
 10
11.1927521099
 20
13.8849494907
 30
0.0
 10
11.3648577207
 20
13.4807764177
 30
0.0
 10
11.5068402432
 20
13.0108158865
 30
0.0
 10
11.5972588099
 20
12.4862169966
 30
0.0
 10
11.616514782
 20
11.9359813669
 30
0.0
 10
11.557064001
 20
11.4006493862
 30
0.0
 10
11.4410680129
 20
10.9637362574
 30
0.0
 10
11.3406261322
 20
10.7148376698
 30
0.0
 10
11.2983139396
 20
10.6232420489
 30
0.0
 11
8.6770872814
 21
15.9551496977
 31
0.0
 11
8.9005197714
 21
15.9018364137
 31
0.0
 11
9.1345351009
 21
15.8259670746
 31
0.0
 11
9.3789791402
 21
15.723977263
 31
0.0
 11
9.6330671958
 21
15.5917829877
 31
0.0
 11
9.8925642969
 21
15.4266734645
 31
0.0
 11
10.1466833028
 21
15.2317138024
 31
0.0
 11
10.3848350655
 21
15.0140672518
 31
0.0
 11
10.6035720499
 21
14.7780545156
 31
0.0
 11
10.8047522982
 21
14.5224751204
 31
0.0
 11
10.9953455259
 21
14.2351014047
 31
0.0
 11
11.1788513299
 21
13.8984515594
 31
0.0
 11
11.3504959367
 21
13.4953735273
 31
0.0
 11
11.4932281473
 21
13.0223889569
 31
0.0
 11
11.5840592998
 21
12.4927759459
 31
0.0
 11
11.6028635428
 21
11.9319651566
 31
0.0
 11
11.5413538236
 21
11.3877855238
 31
0.0
 11
11.4117823096
 21
10.9037589444
 31
0.0
 11
11.2983139396
 21
10.6232420489
 31
0.0
  0
SPLINE
  5
41C
100
AcDbEntity
  8
RACCORDO
100
AcDbSpline
 62
253
  6
CONTINUOUS
 70
0
 71
3
 72
20
 73
16
 74
14
 42
0.0000001
 43
0.0000001
 44
0.0000000001
 12
-1.4812324804
 22
-3.2065085819
 32
0.0
 13
-3.4624242608
 23
0.6836886444
 33
0.0
 40
0.0
 40
0.0
 40
0.0
 40
0.0
 40
0.0400315625
 40
0.1485701948
 40
0.2419454336
 40
0.3254306317
 40
0.4042201015
 40
0.4826468253
 40
0.5618153587
 40
0.6413964015
 40
0.7195699868
 40
0.7947445538
 40
0.8665894106
 40
0.9350556692
 40
1.0
 40
1.0
 40
1.0
 40
1.0
 10
11.2983139396
 20
10.6232420489
 30
0.0
 10
11.2785485894
 20
10.580454866
 30
0.0
 10
11.2015441858
 20
10.4233510007
 30
0.0
 10
11.0539807306
 20
10.1789837204
 30
0.0
 10
10.8449619956
 20
9.9151929284
 30
0.0
 10
10.6315551505
 20
9.7023769957
 30
0.0
 10
10.4096832095
 20
9.5255280492
 30
0.0
 10
10.1739729901
 20
9.3768909902
 30
0.0
 10
9.9222380072
 20
9.2551741902
 30
0.0
 10
9.6586244555
 20
9.1628231765
 30
0.0
 10
9.3909876358
 20
9.1014850169
 30
0.0
 10
9.1274712783
 20
9.0700034123
 30
0.0
 10
8.8736303677
 20
9.0649910205
 30
0.0
 10
8.6324865012
 20
9.0823201572
 30
0.0
 10
8.4772424457
 20
9.1066784956
 30
0.0
 10
8.4022875035
 20
9.1214790628
 30
0.0
 11
11.2983139396
 21
10.6232420489
 31
0.0
 11
11.2360635829
 21
10.4963046055
 31
0.0
 11
11.0375870416
 21
10.168670003
 31
0.0
 11
10.8326712028
 21
9.9105790962
 31
0.0
 11
10.6238981899
 21
9.702665468
 31
0.0
 11
10.4063726504
 21
9.5294442605
 31
0.0
 11
10.1722055986
 21
9.3818692304
 31
0.0
 11
9.9206515934
 21
9.2602578186
 31
0.0
 11
9.6555991185
 21
9.1673513292
 31
0.0
 11
9.3866979006
 21
9.105618317
 31
0.0
 11
9.123274547
 21
9.0740174554
 31
0.0
 11
8.8697661583
 21
9.0688739973
 31
0.0
 11
8.6287420042
 21
9.0860663467
 31
0.0
 11
8.4022875035
 21
9.1214790628
 31
0.0
  0
SPLINE
  5
41D
100
AcDbEntity
  8
RACCORDO
100
AcDbSpline
 62
253
  6
CONTINUOUS
 70
0
 71
3
 72
36
 73
32
 74
30
 42
0.0000001
 43
0.0000001
 44
0.0000000001
 12
-9.5925372071
 22
1.894210396
 32
0.0
 13
9.7120275374
 23
-1.159327269
 33
0.0
 40
0.0
 40
0.0
 40
0.0
 40
0.0
 40
0.0235633124
 40
0.0489338152
 40
0.0763691172
 40
0.1061324322
 40
0.1381533648
 40
0.1715103787
 40
0.2050724374
 40
0.2384660056
 40
0.2720996684
 40
0.3075903021
 40
0.3468135265
 40
0.3912820425
 40
0.4409375352
 40
0.494313441
 40
0.5493350063
 40
0.6023582088
 40
0.6503646073
 40
0.692581899
 40
0.7289165224
 40
0.7601881148
 40
0.7882325459
 40
0.8148331993
 40
0.8414909979
 40
0.8686243607
 40
0.8961542625
 40
0.9234590617
 40
0.9499585823
 40
0.975493517
 40
1.0
 40
1.0
 40
1.0
 40
1.0
 10
-34.6241829079
 20
-32.9358849598
 30
0.0
 10
-34.6995268916
 20
-32.9210070027
 30
0.0
 10
-34.8549012979
 20
-32.8843040535
 30
0.0
 10
-35.092537231
 20
-32.8095373493
 30
0.0
 10
-35.3427721892
 20
-32.7098217458
 30
0.0
 10
-35.6041735735
 20
-32.5817749578
 30
0.0
 10
-35.8714285712
 20
-32.4238780416
 30
0.0
 10
-36.1355740474
 20
-32.2383258956
 30
0.0
 10
-36.3880369157
 20
-32.0300893252
 30
0.0
 10
-36.62484007
 20
-31.8029270725
 30
0.0
 10
-36.8485541508
 20
-31.5543424708
 30
0.0
 10
-37.0647230211
 20
-31.2746706042
 30
0.0
 10
-37.277002072
 20
-30.9488037054
 30
0.0
 10
-37.4803762437
 20
-30.5639248213
 30
0.0
 10
-37.6593525551
 20
-30.1166258746
 30
0.0
 10
-37.7917392087
 20
-29.6172872326
 30
0.0
 10
-37.8555906537
 20
-29.0931509124
 30
0.0
 10
-37.839817583
 20
-28.5826508737
 30
0.0
 10
-37.7511286703
 20
-28.1222238121
 30
0.0
 10
-37.6094515416
 20
-27.7330344182
 30
0.0
 10
-37.4370135804
 20
-27.4179161082
 30
0.0
 10
-37.2502380753
 20
-27.1671761946
 30
0.0
 10
-37.0552127712
 20
-26.9652570875
 30
0.0
 10
-36.8490604242
 20
-26.7977915482
 30
0.0
 10
-36.6270899788
 20
-26.6574239255
 30
0.0
 10
-36.3873350937
 20
-26.5429836143
 30
0.0
 10
-36.1338227592
 20
-26.4567998755
 30
0.0
 10
-35.8742558654
 20
-26.4003666297
 30
0.0
 10
-35.6167284093
 20
-26.3724769576
 30
0.0
 10
-35.3669149231
 20
-26.3698322571
 30
0.0
 10
-35.2041258971
 20
-26.3825286083
 30
0.0
 10
-35.1247900179
 20
-26.3919989529
 30
0.0
 11
-34.6241829079
 21
-32.9358849598
 31
0.0
 11
-34.8484423925
 21
-32.8830615844
 31
0.0
 11
-35.0851241384
 21
-32.8087718203
 31
0.0
 11
-35.3343911446
 21
-32.7096391163
 31
0.0
 11
-35.595826565
 21
-32.5817973925
 31
0.0
 11
-35.8654911149
 21
-32.422711028
 31
0.0
 11
-36.1324827395
 21
-32.2353770571
 31
0.0
 11
-36.3857254781
 21
-32.0266703443
 31
0.0
 11
-36.6214139108
 21
-31.8006995827
 31
0.0
 11
-36.8414407523
 21
-31.5562848389
 31
0.0
 11
-37.05366792
 21
-31.2817269885
 31
0.0
 11
-37.2629539798
 21
-30.9603492705
 31
0.0
 11
-37.465915837
 21
-30.5758234606
 31
0.0
 11
-37.6458450919
 21
-30.1248742804
 31
0.0
 11
-37.77874248
 21
-29.6201811502
 31
0.0
 11
-37.8424655883
 21
-29.0859801289
 31
0.0
 11
-37.8248939715
 21
-28.5678292639
 31
0.0
 11
-37.7347643937
 21
-28.1071679402
 31
0.0
 11
-37.592640536
 21
-27.7196150763
 31
0.0
 11
-37.4215936005
 21
-27.4082296698
 31
0.0
 11
-37.2387060929
 21
-27.1631882642
 31
0.0
 11
-37.0481117246
 21
-26.9660435971
 31
0.0
 11
-36.8462093402
 21
-26.8020774884
 31
0.0
 11
-36.6259307026
 21
-26.6627299029
 31
0.0
 11
-36.3865571148
 21
-26.548334125
 31
0.0
 11
-36.1317645498
 21
-26.4615055678
 31
0.0
 11
-35.8709301737
 21
-26.4045513226
 31
0.0
 11
-35.6133560655
 21
-26.3764155321
 31
0.0
 11
-35.3636977368
 21
-26.3735528352
 31
0.0
 11
-35.1247900179
 21
-26.3919989529
 31
0.0
  0
LINE
  5
41E
100
AcDbEntity
  8
ASSI
100
AcDbLine
 62
7
  6
CONTINUOUS
 10
9.7884578669
 20
-43.8758246244
 11
9.7566343476
 21
-43.2543710564
  0
SPLINE
  5
41F
100
AcDbEntity
  8
ASSI
100
AcDbSpline
 62
7
  6
CONTINUOUS
 70
0
 71
3
 72
10
 73
6
 74
4
 42
0.0000001
 43
0.0000001
 44
0.0000000001
 12
-0.0535692854
 22
0.9860891285
 32
0.0
 13
-0.0518227503
 23
0.9861824579
 33
0.0
 40
0.0
 40
0.0
 40
0.0
 40
0.0
 40
0.3331968506
 40
0.6665302644
 40
1.0
 40
1.0
 40
1.0
 40
1.0
 10
9.8725328479
 20
-45.3354767093
 30
0.0
 10
9.8665831422
 20
-45.225956112
 30
0.0
 10
9.8547460549
 20
-45.0068665055
 30
0.0
 10
9.8371809262
 20
-44.6781544167
 30
0.0
 10
9.8255977913
 20
-44.4589612833
 30
0.0
 10
9.8198373517
 20
-44.3493406154
 30
0.0
 11
9.8725328479
 21
-45.3354767093
 31
0.0
 11
9.8547808162
 21
-45.0069096575
 31
0.0
 11
9.8372156446
 21
-44.6781975087
 31
0.0
 11
9.8198373517
 21
-44.3493406154
 31
0.0
  0
SPLINE
  5
420
100
AcDbEntity
  8
RACCORDO
100
AcDbSpline
 62
253
  6
CONTINUOUS
 70
0
 71
3
 72
37
 73
33
 74
31
 42
0.0000001
 43
0.0000001
 44
0.0000000001
 12
9.7950499733
 22
-1.9342000043
 32
0.0
 13
-9.7950631495
 23
1.9341332771
 33
0.0
 40
0.0
 40
0.0
 40
0.0
 40
0.0
 40
0.0232054452
 40
0.0481647527
 40
0.075124518
 40
0.1043370636
 40
0.1357311348
 40
0.1684152655
 40
0.2013051942
 40
0.2340495281
 40
0.2670557564
 40
0.3019138863
 40
0.3404580036
 40
0.3841609459
 40
0.4329312381
 40
0.4853030667
 40
0.5391917933
 40
0.5909911566
 40
0.6377629865
 40
0.678796943
 40
0.7140391489
 40
0.7443379936
 40
0.7715023886
 40
0.7972794505
 40
0.8231323765
 40
0.8494720186
 40
0.87622367
 40
0.9027728537
 40
0.9285475988
 40
0.9533910322
 40
0.977239791
 40
1.0
 40
1.0
 40
1.0
 40
1.0
 10
-34.8989826857
 20
-26.4277950492
 30
0.0
 10
-34.8232165205
 20
-26.4427563732
 30
0.0
 10
-34.667070465
 20
-26.4797309953
 30
0.0
 10
-34.4284929741
 20
-26.5552375528
 30
0.0
 10
-34.1777040868
 20
-26.6560083201
 30
0.0
 10
-33.9162414228
 20
-26.7853939502
 30
0.0
 10
-33.6494574417
 20
-26.9448600917
 30
0.0
 10
-33.3862378447
 20
-27.1321600321
 30
0.0
 10
-33.1350017266
 20
-27.3422982673
 30
0.0
 10
-32.8995878745
 20
-27.5715314715
 30
0.0
 10
-32.6773832234
 20
-27.8224071318
 30
0.0
 10
-32.4629091485
 20
-28.104643754
 30
0.0
 10
-32.25264978
 20
-28.4333487784
 30
0.0
 10
-32.0517614769
 20
-28.8211297698
 30
0.0
 10
-31.8757038802
 20
-29.2709841603
 30
0.0
 10
-31.7463921173
 20
-29.7719461886
 30
0.0
 10
-31.6852397096
 20
-30.2962851318
 30
0.0
 10
-31.7027730666
 20
-30.8054660225
 30
0.0
 10
-31.7920242266
 20
-31.2634399248
 30
0.0
 10
-31.933199315
 20
-31.649621419
 30
0.0
 10
-32.104412105
 20
-31.9616860021
 30
0.0
 10
-32.2895720672
 20
-32.2096068042
 30
0.0
 10
-32.4828467408
 20
-32.4090488427
 30
0.0
 10
-32.687225609
 20
-32.5743276823
 30
0.0
 10
-32.9074452578
 20
-32.7127291052
 30
0.0
 10
-33.1454848574
 20
-32.8253840476
 30
0.0
 10
-33.3973086692
 20
-32.9099758409
 30
0.0
 10
-33.6551936732
 20
-32.9650691341
 30
0.0
 10
-33.9110421656
 20
-32.9919447694
 30
0.0
 10
-34.1592169294
 20
-32.9939496131
 30
0.0
 10
-34.3965288939
 20
-32.9750617207
 30
0.0
 10
-34.5498703463
 20
-32.950558719
 30
0.0
 10
-34.6241829079
 20
-32.9358849598
 30
0.0
 11
-34.8989826857
 21
-26.4277950492
 31
0.0
 11
-34.673495963
 21
-26.4810389689
 31
0.0
 11
-34.4358613417
 21
-26.5560703981
 31
0.0
 11
-34.1860296841
 21
-26.6562575051
 31
0.0
 11
-33.9245318034
 21
-26.7854340852
 31
0.0
 11
-33.6553800875
 21
-26.9460728429
 31
0.0
 11
-33.3893893898
 21
-27.1351145418
 31
0.0
 11
-33.1374108854
 21
-27.3456849257
 31
0.0
 11
-32.9031152424
 21
-27.5736893618
 31
0.0
 11
-32.6845720005
 21
-27.8203386132
 31
0.0
 11
-32.4739820077
 21
-28.0974251901
 31
0.0
 11
-32.2666481221
 21
-28.4216292792
 31
0.0
 11
-32.0660952095
 21
-28.8091469665
 31
0.0
 11
-31.8890504879
 21
-29.2627525281
 31
0.0
 11
-31.7592007876
 21
-29.7692636707
 31
0.0
 11
-31.6982219839
 21
-30.3038324656
 31
0.0
 11
-31.7176232726
 21
-30.8206433298
 31
0.0
 11
-31.8083490356
 21
-31.2787243845
 31
0.0
 11
-31.9499806931
 21
-31.6631553679
 31
0.0
 11
-32.1197592024
 21
-31.9713505255
 31
0.0
 11
-32.3010181391
 21
-32.2135430628
 31
0.0
 11
-32.4898582659
 21
-32.4082139723
 31
0.0
 11
-32.6899965999
 21
-32.5700177411
 31
0.0
 11
-32.9085147003
 21
-32.7074080658
 31
0.0
 11
-33.1461598022
 21
-32.8200283992
 31
0.0
 11
-33.3992813227
 21
-32.9052840794
 31
0.0
 11
-33.6584501715
 21
-32.9609148444
 31
0.0
 11
-33.9143554436
 21
-32.9880515103
 31
0.0
 11
-34.1623870553
 21
-32.9902844742
 31
0.0
 11
-34.3997622576
 21
-32.9715844816
 31
0.0
 11
-34.6241829079
 21
-32.9358849598
 31
0.0
  0
SPLINE
  5
421
100
AcDbEntity
  8
RACCORDO
100
AcDbSpline
 62
253
  6
CONTINUOUS
 70
0
 71
3
 72
16
 73
12
 74
10
 42
0.0000001
 43
0.0000001
 44
0.0000000001
 12
0.0733568951
 22
2.9965246129
 32
0.0
 13
2.9406725929
 23
-0.5805046869
 33
0.0
 40
0.0
 40
0.0
 40
0.0
 40
0.0
 40
0.1158873537
 40
0.233371442
 40
0.3491089355
 40
0.4609665281
 40
0.5694930071
 40
0.6779300044
 40
0.7870268663
 40
0.8953003264
 40
1.0
 40
1.0
 40
1.0
 40
1.0
 10
-21.2039661653
 20
8.0392287316
 30
0.0
 10
-21.2011324531
 20
8.1549818342
 30
0.0
 10
-21.1777850916
 20
8.3881070573
 30
0.0
 10
-21.0857426301
 20
8.7263394181
 30
0.0
 10
-20.935429631
 20
9.0389723948
 30
0.0
 10
-20.732274037
 20
9.3092480412
 30
0.0
 10
-20.4835323677
 20
9.5275278112
 30
0.0
 10
-20.1965544637
 20
9.6869962276
 30
0.0
 10
-19.8823248976
 20
9.7812135795
 30
0.0
 10
-19.5595168613
 20
9.8079839188
 30
0.0
 10
-19.3466496375
 20
9.7847614312
 30
0.0
 10
-19.2440204839
 20
9.7645018808
 30
0.0
 11
-21.2039661653
 21
8.0392287316
 31
0.0
 11
-21.1685297692
 21
8.3847798247
 31
0.0
 11
-21.0751063823
 21
8.7243108199
 31
0.0
 11
-20.9238035714
 21
9.0364916809
 31
0.0
 11
-20.7216279336
 21
9.3039625685
 31
0.0
 11
-20.4767510507
 21
9.518100855
 31
0.0
 11
-20.1925770208
 21
9.6758683617
 31
0.0
 11
-19.8794595286
 21
9.770168778
 31
0.0
 11
-19.5560883979
 21
9.7977035378
 31
0.0
 11
-19.2440204839
 21
9.7645018808
 31
0.0
  0
SPLINE
  5
422
100
AcDbEntity
  8
RACCORDO
100
AcDbSpline
 62
253
  6
CONTINUOUS
 70
0
 71
3
 72
10
 73
6
 74
4
 42
0.0000001
 43
0.0000001
 44
0.0000000001
 12
-0.7670012774
 22
30.5330050806
 32
0.0
 13
0.7448465879
 23
30.5335535726
 33
0.0
 40
0.0
 40
0.0
 40
0.0
 40
0.0
 40
0.3300143863
 40
0.663474644
 40
1.0
 40
1.0
 40
1.0
 40
1.0
 10
-20.7943216043
 20
-22.4763593333
 30
0.0
 10
-20.878695423
 20
-19.1175823551
 30
0.0
 10
-20.9906085263
 20
-12.3633713762
 30
0.0
 10
-20.9897887246
 20
-2.182077629
 30
0.0
 10
-20.8778751544
 20
4.6384035604
 30
0.0
 10
-20.7943219
 20
8.0635085562
 30
0.0
 11
-20.7943216043
 21
-22.4763593333
 31
0.0
 11
-20.9622043051
 21
-12.3982478547
 31
0.0
 11
-20.9622043147
 21
-2.2134921686
 31
0.0
 11
-20.7943219
 21
8.0635085562
 31
0.0
  0
SPLINE
  5
423
100
AcDbEntity
  8
RACCORDO
100
AcDbSpline
 62
253
  6
CONTINUOUS
 70
0
 71
3
 72
10
 73
6
 74
4
 42
0.0000001
 43
0.0000001
 44
0.0000000001
 12
-0.7676628478
 22
30.559341062
 32
0.0
 13
0.745489049
 23
30.5598900271
 33
0.0
 40
0.0
 40
0.0
 40
0.0
 40
0.0
 40
0.3300391965
 40
0.6634490313
 40
1.0
 40
1.0
 40
1.0
 40
1.0
 10
-21.2039661653
 20
-22.5269810523
 30
0.0
 10
-21.2884191084
 20
-19.1650542624
 30
0.0
 10
-21.4004202831
 20
-12.4052783132
 30
0.0
 10
-21.3995999776
 20
-2.2152029571
 30
0.0
 10
-21.2875978525
 20
4.610908534
 30
0.0
 10
-21.2039661653
 20
8.0392287316
 30
0.0
 11
-21.2039661653
 21
-22.5269810523
 31
0.0
 11
-21.3720000782
 21
-12.439418365
 31
0.0
 11
-21.3720000782
 21
-2.2474192807
 31
0.0
 11
-21.2039661653
 21
8.0392287316
 31
0.0
  0
SPLINE
  5
424
100
AcDbEntity
  8
RACCORDO
100
AcDbSpline
 62
253
  6
CONTINUOUS
 70
0
 71
3
 72
12
 73
8
 74
6
 42
0.0000001
 43
0.0000001
 44
0.0000000001
 12
0.4125466605
 22
-0.0814637003
 32
0.0
 13
0.3477619065
 23
0.2364164504
 33
0.0
 40
0.0
 40
0.0
 40
0.0
 40
0.0
 40
0.2099579126
 40
0.4328028829
 40
0.6499526664
 40
0.8436584189
 40
1.0
 40
1.0
 40
1.0
 40
1.0
 10
-21.2039661653
 20
-22.5269810523
 30
0.0
 10
-21.1750936867
 20
-22.5326823685
 30
0.0
 10
-21.1146186547
 20
-22.5397648402
 30
0.0
 10
-21.0233437123
 20
-22.5395211146
 30
0.0
 10
-20.9348825543
 20
-22.5289697571
 30
0.0
 10
-20.8576919452
 20
-22.5092321127
 30
0.0
 10
-20.8124437955
 20
-22.4887413932
 30
0.0
 10
-20.7943205801
 20
-22.4764208193
 30
0.0
 11
-21.2039661653
 21
-22.5269810523
 31
0.0
 11
-21.1163476022
 21
-22.5378490154
 31
0.0
 11
-21.0226385708
 21
-22.5376820612
 31
0.0
 11
-20.9320119643
 21
-22.5264965325
 31
0.0
 11
-20.8533389465
 21
-22.5053873471
 31
0.0
 11
-20.7943205801
 21
-22.4764208193
 31
0.0
  0
SPLINE
  5
425
100
AcDbEntity
  8
RACCORDO
100
AcDbSpline
 62
253
  6
CONTINUOUS
 70
0
 71
3
 72
12
 73
8
 74
6
 42
0.0000001
 43
0.0000001
 44
0.0000000001
 12
-0.012224208
 22
0.4275994639
 32
0.0
 13
0.3680421757
 23
0.2180268097
 33
0.0
 40
0.0
 40
0.0
 40
0.0
 40
0.0
 40
0.2194714056
 40
0.4460808378
 40
0.6614947129
 40
0.8494750038
 40
1.0
 40
1.0
 40
1.0
 40
1.0
 10
-19.2440204839
 20
-24.9399024585
 30
0.0
 10
-19.244914772
 20
-24.9086205067
 30
0.0
 10
-19.2409275156
 20
-24.8448011421
 30
0.0
 10
-19.2210840568
 20
-24.7522816231
 30
0.0
 10
-19.1889767579
 20
-24.6678900066
 30
0.0
 10
-19.1480362425
 20
-24.5999238363
 30
0.0
 10
-19.1126959122
 20
-24.5653251705
 30
0.0
 10
-19.0942293965
 20
-24.5543856756
 30
0.0
 11
-19.2440204839
 21
-24.9399024585
 31
0.0
 11
-19.2387173194
 21
-24.8461681597
 31
0.0
 11
-19.2183125262
 21
-24.7514023732
 31
0.0
 11
-19.184939013
 21
-24.6655096915
 31
0.0
 11
-19.1420849942
 21
-24.5974670466
 31
0.0
 11
-19.0942293965
 21
-24.5543856756
 31
0.0
  0
SPLINE
  5
426
100
AcDbEntity
  8
RACCORDO
100
AcDbSpline
 62
253
  6
CONTINUOUS
 70
0
 71
3
 72
12
 73
8
 74
6
 42
0.0000001
 43
0.0000001
 44
0.0000000001
 12
-0.0122242081
 22
0.4275994597
 32
0.0
 13
0.3680421717
 23
0.2180268081
 33
0.0
 40
0.0
 40
0.0
 40
0.0
 40
0.0
 40
0.2194689732
 40
0.4460775038
 40
0.6614919909
 40
0.8494736938
 40
1.0
 40
1.0
 40
1.0
 40
1.0
 10
-7.5526775328
 20
-27.248538426
 30
0.0
 10
-7.553571811
 20
-27.2172568212
 30
0.0
 10
-7.5495846461
 20
-27.1534379373
 30
0.0
 10
-7.5297414433
 20
-27.0609187649
 30
0.0
 10
-7.4976342807
 20
-26.9765269254
 30
0.0
 10
-7.456693683
 20
-26.9085602518
 30
0.0
 10
-7.421353122
 20
-26.873961233
 30
0.0
 10
-7.4028864458
 20
-26.863021643
 30
0.0
 11
-7.5526775328
 21
-27.248538426
 31
0.0
 11
-7.5473745096
 21
-27.1548051623
 31
0.0
 11
-7.526969984
 21
-27.0600397136
 31
0.0
 11
-7.493596582
 21
-26.9741467088
 31
0.0
 11
-7.4507424015
 21
-26.9061034528
 31
0.0
 11
-7.4028864458
 21
-26.863021643
 31
0.0
  0
SPLINE
  5
427
100
AcDbEntity
  8
RACCORDO
100
AcDbSpline
 62
253
  6
CONTINUOUS
 70
0
 71
3
 72
11
 73
7
 74
5
 42
0.0000001
 43
0.0000001
 44
0.0000000001
 12
-0.1835875374
 22
0.036252191
 32
0.0
 13
0.0007281255
 23
0.1900918226
 33
0.0
 40
0.0
 40
0.0
 40
0.0
 40
0.0
 40
0.4054356912
 40
0.7190108158
 40
0.9419234266
 40
1.0
 40
1.0
 40
1.0
 40
1.0
 10
-5.7021114375
 20
-25.5880613351
 30
0.0
 10
-5.7269224176
 20
-25.5831620244
 30
0.0
 10
-5.7706407553
 20
-25.5713159821
 30
0.0
 10
-5.8231228179
 20
-25.5451652435
 30
0.0
 10
-5.8498676291
 20
-25.5150444393
 30
0.0
 10
-5.8517859188
 20
-25.497428878
 30
0.0
 10
-5.8517718231
 20
-25.4937489174
 30
0.0
 11
-5.7021114375
 21
-25.5880613351
 31
0.0
 11
-5.7750635679
 21
-25.5672219862
 31
0.0
 11
-5.8262066595
 21
-25.5384514948
 31
0.0
 11
-5.8505349493
 21
-25.5045662482
 31
0.0
 11
-5.8517718231
 21
-25.4937489174
 31
0.0
  0
SPLINE
  5
428
100
AcDbEntity
  8
RACCORDO
100
AcDbSpline
 62
253
  6
CONTINUOUS
 70
0
 71
3
 72
11
 73
7
 74
5
 42
0.0000001
 43
0.0000001
 44
0.0000000001
 12
-0.1764931106
 22
0.0348512865
 32
0.0
 13
0.0125773505
 23
0.1841056322
 33
0.0
 40
0.0
 40
0.0
 40
0.0
 40
0.0
 40
0.4198265146
 40
0.7363780629
 40
0.9429373413
 40
1.0
 40
1.0
 40
1.0
 40
1.0
 10
-5.7021114375
 20
4.9781484488
 30
0.0
 10
-5.7268102667
 20
4.9830256135
 30
0.0
 10
-5.7702702143
 20
4.9940945665
 30
0.0
 10
-5.8207896192
 20
5.016376932
 30
0.0
 10
-5.8504298209
 20
5.0415293187
 30
0.0
 10
-5.8516286387
 20
5.0575720745
 30
0.0
 10
-5.8513894063
 20
5.0610739268
 30
0.0
 11
-5.7021114375
 21
4.9781484488
 31
0.0
 11
-5.7750628164
 21
4.997705197
 31
0.0
 11
-5.8262060216
 21
5.0227540793
 31
0.0
 11
-5.8505347999
 21
5.0508431364
 31
0.0
 11
-5.8513894063
 21
5.0610739268
 31
0.0
  0
SPLINE
  5
429
100
AcDbEntity
  8
RACCORDO
100
AcDbSpline
 62
253
  6
CONTINUOUS
 70
0
 71
3
 72
11
 73
7
 74
5
 42
0.0000001
 43
0.0000001
 44
0.0000000001
 12
-0.0070250885
 22
-0.2540589477
 32
0.0
 13
0.2511375388
 23
-0.0540858274
 33
0.0
 40
0.0
 40
0.0
 40
0.0
 40
0.0
 40
0.3447165446
 40
0.633831359
 40
0.858561535
 40
1.0
 40
1.0
 40
1.0
 40
1.0
 10
-7.5526775328
 20
7.4558659133
 30
0.0
 10
-7.5534847543
 20
7.4266731391
 30
0.0
 10
-7.5508739874
 20
7.3726249353
 30
0.0
 10
-7.5323597682
 20
7.3018457327
 30
0.0
 10
-7.5021087267
 20
7.2530070857
 30
0.0
 10
-7.4728130721
 20
7.2381227597
 30
0.0
 10
-7.4609729028
 20
7.2355728209
 30
0.0
 11
-7.5526775328
 21
7.4558659133
 31
0.0
 11
-7.5473743684
 21
7.3684147641
 31
0.0
 11
-7.5269695753
 21
7.2978244241
 31
0.0
 11
-7.4935960623
 21
7.2514724315
 31
0.0
 11
-7.4609729028
 21
7.2355728209
 31
0.0
  0
SPLINE
  5
42A
100
AcDbEntity
  8
RACCORDO
100
AcDbSpline
 62
253
  6
CONTINUOUS
 70
0
 71
3
 72
11
 73
7
 74
5
 42
0.0000001
 43
0.0000001
 44
0.0000000001
 12
-0.0070251899
 22
-0.2540626181
 32
0.0
 13
0.2511433046
 23
-0.0540727511
 33
0.0
 40
0.0
 40
0.0
 40
0.0
 40
0.0
 40
0.3447081226
 40
0.633818389
 40
0.8585465152
 40
1.0
 40
1.0
 40
1.0
 40
1.0
 10
-19.2440204839
 20
9.7645018808
 30
0.0
 10
-19.2448276973
 20
9.735309398
 30
0.0
 10
-19.2422169873
 20
9.6812615264
 30
0.0
 10
-19.2237030195
 20
9.6104824993
 30
0.0
 10
-19.1934514751
 20
9.5616423625
 30
0.0
 10
-19.1641539184
 20
9.5467575922
 30
0.0
 10
-19.1523122199
 20
9.5442079992
 30
0.0
 11
-19.2440204839
 21
9.7645018808
 31
0.0
 11
-19.2387174606
 21
9.6770515994
 31
0.0
 11
-19.2183129351
 21
9.6064612803
 31
0.0
 11
-19.1849395331
 21
9.5601088329
 31
0.0
 11
-19.1523122199
 21
9.5442079992
 31
0.0
  0
SPLINE
  5
42B
100
AcDbEntity
  8
RACCORDO
100
AcDbSpline
 62
253
  6
CONTINUOUS
 70
0
 71
3
 72
12
 73
8
 74
6
 42
0.0000001
 43
0.0000001
 44
0.0000000001
 12
0.4076239584
 22
-0.0804916379
 32
0.0
 13
0.3708899092
 23
0.1872882017
 33
0.0
 40
0.0
 40
0.0
 40
0.0
 40
0.0
 40
0.2128980581
 40
0.4385971541
 40
0.657099022
 40
0.8493382722
 40
1.0
 40
1.0
 40
1.0
 40
1.0
 10
-21.2039661653
 20
8.0392287316
 30
0.0
 10
-21.1750387156
 20
8.0335165605
 30
0.0
 10
-21.1146830121
 20
8.0254875352
 30
0.0
 10
-21.0236355236
 20
8.02208386
 30
0.0
 10
-20.9354434968
 20
8.0269869069
 30
0.0
 10
-20.8586463376
 20
8.0396399775
 30
0.0
 10
-20.812946885
 20
8.0541836344
 30
0.0
 10
-20.7943205801
 20
8.0635893557
 30
0.0
 11
-21.2039661653
 21
8.0392287316
 31
0.0
 11
-21.1163465042
 21
8.0270783732
 31
0.0
 11
-21.0226370128
 21
8.0235240579
 31
0.0
 11
-20.9320106653
 21
8.0289135332
 31
0.0
 11
-20.8533383251
 21
8.0427191086
 31
0.0
 11
-20.7943205801
 21
8.0635893557
 31
0.0
  0
SPLINE
  5
42C
100
AcDbEntity
  8
RACCORDO
100
AcDbSpline
 62
253
  6
CONTINUOUS
 70
0
 71
3
 72
9
 73
5
 74
3
 42
0.0000001
 43
0.0000001
 44
0.0000000001
 12
0.0965364064
 22
0.0571878066
 32
0.0
 13
-0.0000608007
 23
0.1111313418
 33
0.0
 40
0.0
 40
0.0
 40
0.0
 40
0.0
 40
0.5773191434
 40
1.0
 40
1.0
 40
1.0
 40
1.0
 10
-7.8901569475
 20
-26.2613956915
 30
0.0
 10
-7.871579509
 20
-26.2503904863
 30
0.0
 10
-7.8403629524
 20
-26.2286153016
 30
0.0
 10
-7.823161083
 20
-26.1915483526
 30
0.0
 10
-7.8231696494
 20
-26.1758906557
 30
0.0
 11
-7.8901569475
 21
-26.2613956915
 31
0.0
 11
-7.8402067363
 21
-26.2201513191
 31
0.0
 11
-7.8231696494
 21
-26.1758906557
 31
0.0
  0
SPLINE
  5
42D
100
AcDbEntity
  8
ASSI
100
AcDbSpline
 62
7
  6
CONTINUOUS
 70
0
 71
3
 72
9
 73
5
 74
3
 42
0.0000001
 43
0.0000001
 44
0.0000000001
 12
-0.0503242946
 22
0.9259421542
 32
0.0
 13
-0.0487834167
 23
0.9260246245
 33
0.0
 40
0.0
 40
0.0
 40
0.0
 40
0.0
 40
0.5323079125
 40
1.0
 40
1.0
 40
1.0
 40
1.0
 10
9.9478997283
 20
-45.2908296508
 30
0.0
 10
9.9389703883
 20
-45.1265342058
 30
0.0
 10
9.922332557
 20
-44.8178793636
 30
0.0
 10
9.9059515103
 20
-44.5092107939
 30
0.0
 10
9.8983463043
 20
-44.3648459973
 30
0.0
 11
9.9478997283
 21
-45.2908296508
 31
0.0
 11
9.9213302502
 21
-44.7979314866
 31
0.0
 11
9.8983463043
 21
-44.3648459973
 31
0.0
  0
SPLINE
  5
42E
100
AcDbEntity
  8
RACCORDO
100
AcDbSpline
 62
253
  6
CONTINUOUS
 70
0
 71
3
 72
13
 73
9
 74
7
 42
0.0000001
 43
0.0000001
 44
0.0000000001
 12
0.0
 22
0.7567252498
 32
0.0
 13
-0.7423898058
 23
0.1465963162
 33
0.0
 40
0.0
 40
0.0
 40
0.0
 40
0.0
 40
0.1657005535
 40
0.3365818221
 40
0.5090514526
 40
0.6791885729
 40
0.8435574687
 40
1.0
 40
1.0
 40
1.0
 40
1.0
 10
-8.3901569475
 20
-25.6179012035
 30
0.0
 10
-8.3901569475
 20
-25.5761046059
 30
0.0
 10
-8.4006298356
 20
-25.4909486397
 30
0.0
 10
-8.444193916
 20
-25.3691662047
 30
0.0
 10
-8.5129631255
 20
-25.2582552257
 30
0.0
 10
-8.6025116852
 20
-25.165535439
 30
0.0
 10
-8.7070026387
 20
-25.0971317391
 30
0.0
 10
-8.7844558693
 20
-25.0701944902
 30
0.0
 10
-8.8231696494
 20
-25.0625498572
 30
0.0
 11
-8.3901569475
 21
-25.6179012035
 31
0.0
 11
-8.4049114976
 21
-25.4933825166
 31
0.0
 11
-8.4481696494
 21
-25.3715225456
 31
0.0
 11
-8.5169834316
 21
-25.2606258461
 31
0.0
 11
-8.6066632985
 21
-25.1682498449
 31
0.0
 11
-8.7110977154
 21
-25.1006898138
 31
0.0
 11
-8.8231696494
 21
-25.0625498572
 31
0.0
  0
SPLINE
  5
42F
100
AcDbEntity
  8
RACCORDO
100
AcDbSpline
 62
7
  6
CONTINUOUS
 70
0
 71
3
 72
10
 73
6
 74
4
 42
0.0000001
 43
0.0000001
 44
0.0000000001
 12
0.1779585845
 22
0.1054220009
 32
0.0
 13
0.2059195224
 23
-0.092703295
 33
0.0
 40
0.0
 40
0.0
 40
0.0
 40
0.0
 40
0.6300326084
 40
0.9586154936
 40
1.0
 40
1.0
 40
1.0
 40
1.0
 10
-11.2047395098
 20
-22.1020867151
 30
0.0
 10
-11.1673662728
 20
-22.079946949
 30
0.0
 10
-11.1089880368
 20
-22.0555139863
 30
0.0
 10
-11.0463506091
 20
-22.0122510229
 30
0.0
 10
-11.0192226035
 20
-22.0212644476
 30
0.0
 10
-11.0163819776
 20
-22.0225432743
 30
0.0
 11
-11.2047395098
 21
-22.1020867151
 31
0.0
 11
-11.0899101489
 21
-22.0404703968
 31
0.0
 11
-11.0252421967
 21
-22.0195610239
 31
0.0
 11
-11.0163819776
 21
-22.0225432743
 31
0.0
  0
SPLINE
  5
430
100
AcDbEntity
  8
RACCORDO
100
AcDbSpline
 62
7
  6
CONTINUOUS
 70
0
 71
3
 72
10
 73
6
 74
4
 42
0.0000001
 43
0.0000001
 44
0.0000000001
 12
0.1777978622
 22
0.1053267896
 32
0.0
 13
0.2063381224
 23
-0.0917627512
 33
0.0
 40
0.0
 40
0.0
 40
0.0
 40
0.0
 40
0.6306021333
 40
0.9594820446
 40
1.0
 40
1.0
 40
1.0
 40
1.0
 10
-11.2047395098
 20
-24.5922721602
 30
0.0
 10
-11.1673662728
 20
-24.5701323941
 30
0.0
 10
-11.1089880368
 20
-24.5456994314
 30
0.0
 10
-11.0464071798
 20
-24.5024755407
 30
0.0
 10
-11.0193550268
 20
-24.5114060356
 30
0.0
 10
-11.0165682272
 20
-24.512645382
 30
0.0
 11
-11.2047395098
 21
-24.5922721602
 31
0.0
 11
-11.0899101489
 21
-24.5306558419
 31
0.0
 11
-11.0252421967
 21
-24.509746469
 31
0.0
 11
-11.0165682272
 21
-24.512645382
 31
0.0
  0
SPLINE
  5
431
100
AcDbEntity
  8
RACCORDO
100
AcDbSpline
 62
253
  6
CONTINUOUS
 70
0
 71
3
 72
13
 73
9
 74
7
 42
0.0000001
 43
0.0000001
 44
0.0000000001
 12
0.0445937933
 22
1.5811503489
 32
0.0
 13
1.3634505732
 23
0.8078475257
 33
0.0
 40
0.0
 40
0.0
 40
0.0
 40
0.0
 40
0.1904501509
 40
0.3831052959
 40
0.5729642117
 40
0.7564971096
 40
0.934576722
 40
1.0
 40
1.0
 40
1.0
 40
1.0
 10
-20.7943228869
 20
8.0635079699
 30
0.0
 10
-20.791491922
 20
8.1638847441
 30
0.0
 10
-20.7704687917
 20
8.3657635012
 30
0.0
 10
-20.6896406397
 20
8.658389883
 30
0.0
 10
-20.5586693736
 20
8.9285841725
 30
0.0
 10
-20.3822685834
 20
9.1621847683
 30
0.0
 10
-20.2116439417
 20
9.3115786833
 30
0.0
 10
-20.1035411472
 20
9.381473458
 30
0.0
 10
-20.0738073452
 20
9.3990908025
 30
0.0
 11
-20.7943228869
 21
8.0635079699
 31
0.0
 11
-20.7624291492
 21
8.3630649593
 31
0.0
 11
-20.6804833705
 21
8.6565782686
 31
0.0
 11
-20.5486626408
 21
8.9264158311
 31
0.0
 11
-20.3731017374
 21
9.1576243789
 31
0.0
 11
-20.1608499854
 21
9.3428115359
 31
0.0
 11
-20.0738073452
 21
9.3990908025
 31
0.0
  0
SPLINE
  5
432
100
AcDbEntity
  8
RACCORDO
100
AcDbSpline
 62
253
  6
CONTINUOUS
 70
0
 71
3
 72
16
 73
12
 74
10
 42
0.0000001
 43
0.0000001
 44
0.0000000001
 12
-2.8232181276
 22
0.5575410135
 32
0.0
 13
-0.0839172634
 23
2.8765205493
 33
0.0
 40
0.0
 40
0.0
 40
0.0
 40
0.0
 40
0.096940472
 40
0.2037089223
 40
0.3170287502
 40
0.4329106581
 40
0.549072378
 40
0.6662360959
 40
0.7827897936
 40
0.8951580781
 40
1.0
 40
1.0
 40
1.0
 40
1.0
 10
-19.094164007
 20
-24.5543984383
 30
0.0
 10
-19.1853920397
 20
-24.536382342
 30
0.0
 10
-19.3741703159
 20
-24.4822282783
 30
0.0
 10
-19.6506361659
 20
-24.3526916711
 30
0.0
 10
-19.9190808554
 20
-24.1721036282
 30
0.0
 10
-20.164624771
 20
-23.9479921041
 30
0.0
 10
-20.3783469096
 20
-23.6886347658
 30
0.0
 10
-20.5541373986
 20
-23.4014325079
 30
0.0
 10
-20.6859390292
 20
-23.0954456751
 30
0.0
 10
-20.768564315
 20
-22.7849563431
 30
0.0
 10
-20.7913896881
 20
-22.5768864354
 30
0.0
 10
-20.7943223705
 20
-22.4763597877
 30
0.0
 11
-19.094164007
 21
-24.5543984383
 31
0.0
 11
-19.3625414273
 21
-24.4782553932
 31
0.0
 11
-19.641139927
 21
-24.3486912974
 31
0.0
 11
-19.9121010888
 21
-24.1672392575
 31
0.0
 11
-20.1586993874
 21
-23.9427460653
 31
0.0
 11
-20.3713959943
 21
-23.6848589425
 31
0.0
 11
-20.547301933
 21
-23.397215343
 31
0.0
 11
-20.6796238862
 21
-23.0890077185
 31
0.0
 11
-20.7621454919
 21
-22.7763473143
 31
0.0
 11
-20.7943223705
 21
-22.4763597877
 31
0.0
  0
SPLINE
  5
433
100
AcDbEntity
  8
RACCORDO
100
AcDbSpline
 62
253
  6
CONTINUOUS
 70
0
 71
3
 72
14
 73
10
 74
8
 42
0.0000001
 43
0.0000001
 44
0.0000000001
 12
2.0732735342
 22
-0.4074307361
 32
0.0
 13
1.6683150296
 23
1.2966063066
 33
0.0
 40
0.0
 40
0.0
 40
0.0
 40
0.0
 40
0.1461569399
 40
0.3013687667
 40
0.4594563164
 40
0.6140144752
 40
0.7589163319
 40
0.8888515873
 40
1.0
 40
1.0
 40
1.0
 40
1.0
 10
15.3866939682
 20
-48.5664106051
 30
0.0
 10
15.48770174
 20
-48.5862602149
 30
0.0
 10
15.6986452849
 20
-48.6141529708
 30
0.0
 10
16.0225573155
 20
-48.62390396
 30
0.0
 10
16.3518948155
 20
-48.6027882651
 30
0.0
 10
16.6705978674
 20
-48.551842558
 30
0.0
 10
16.9634040005
 20
-48.4735632755
 30
0.0
 10
17.2162553697
 20
-48.371917106
 30
0.0
 10
17.3631366514
 20
-48.2842162663
 30
0.0
 10
17.4249468405
 20
-48.2361776887
 30
0.0
 11
15.3866939682
 21
-48.5664106051
 31
0.0
 11
15.6926644274
 21
-48.6082587925
 31
0.0
 11
16.0204482268
 21
-48.6187406067
 31
0.0
 11
16.3537892711
 21
-48.5973362128
 31
0.0
 11
16.676155859
 21
-48.5451071396
 31
0.0
 11
16.9715605563
 21
-48.4646436334
 31
0.0
 11
17.2253530751
 21
-48.3599361978
 31
0.0
 11
17.4249468405
 21
-48.2361776887
 31
0.0
  0
SPLINE
  5
434
100
AcDbEntity
  8
RACCORDO
100
AcDbSpline
 62
253
  6
CONTINUOUS
 70
0
 71
3
 72
14
 73
10
 74
8
 42
0.0000001
 43
0.0000001
 44
0.0000000001
 12
2.0175793761
 22
-0.4004973299
 32
0.0
 13
1.9201895067
 23
0.7374936668
 33
0.0
 40
0.0
 40
0.0
 40
0.0
 40
0.0
 40
0.1507071143
 40
0.3108573302
 40
0.4730598643
 40
0.6298008398
 40
0.7738965621
 40
0.898966495
 40
1.0
 40
1.0
 40
1.0
 40
1.0
 10
15.3866952066
 20
20.8740047558
 30
0.0
 10
15.4880497285
 20
20.8538854902
 30
0.0
 10
15.6986984532
 20
20.8202058359
 30
0.0
 10
16.0216309491
 20
20.7882237713
 30
0.0
 10
16.3500005227
 20
20.7741687455
 30
0.0
 10
16.6676229795
 20
20.7787102229
 30
0.0
 10
16.9590383589
 20
20.8014755311
 30
0.0
 10
17.20995797
 20
20.8411382879
 30
0.0
 10
17.3602790151
 20
20.8817982206
 30
0.0
 10
17.4249468405
 20
20.9066354107
 30
0.0
 11
15.3866952066
 21
20.8740047558
 31
0.0
 11
15.6926653707
 21
20.824205416
 31
0.0
 11
16.0204488424
 21
20.7914074944
 31
0.0
 11
16.353789572
 21
20.7772375666
 31
0.0
 11
16.6761559035
 21
20.7823983741
 31
0.0
 11
16.9715604441
 21
20.8066339726
 31
0.0
 11
17.2253529402
 21
20.8487424251
 31
0.0
 11
17.4249468405
 21
20.9066354107
 31
0.0
  0
SPLINE
  5
435
100
AcDbEntity
  8
RACCORDO
100
AcDbSpline
 62
253
  6
CONTINUOUS
 70
0
 71
3
 72
14
 73
10
 74
8
 42
0.0000001
 43
0.0000001
 44
0.0000000001
 12
2.2240666364
 22
-0.4482561896
 32
0.0
 13
0.0107227072
 23
-2.2687642095
 33
0.0
 40
0.0
 40
0.0
 40
0.0
 40
0.0
 40
0.1333148773
 40
0.2728112883
 40
0.4172903915
 40
0.5647268869
 40
0.7126397088
 40
0.8584765973
 40
1.0
 40
1.0
 40
1.0
 40
1.0
 10
17.876981356
 20
26.5309281794
 30
0.0
 10
17.9758150795
 20
26.5110084398
 30
0.0
 10
18.1737044024
 20
26.445772367
 30
0.0
 10
18.4476161783
 20
26.2849952715
 30
0.0
 10
18.6932064389
 20
26.0672174555
 30
0.0
 10
18.8985583815
 20
25.8032491815
 30
0.0
 10
19.0538787273
 20
25.505876089
 30
0.0
 10
19.151586429
 20
25.1896714969
 30
0.0
 10
19.1754641603
 20
24.9719653226
 30
0.0
 10
19.1759699983
 20
24.864937579
 30
0.0
 11
17.876981356
 21
26.5309281794
 31
0.0
 11
18.1647276266
 21
26.4377284361
 31
0.0
 11
18.4383746478
 21
26.2787254123
 31
0.0
 11
18.6842019402
 21
26.0618914138
 31
0.0
 11
18.8898838869
 21
25.7980983529
 31
0.0
 11
19.0451077321
 21
25.5005726382
 31
0.0
 11
19.1420906557
 21
25.1842320107
 31
0.0
 11
19.1759699983
 21
24.864937579
 31
0.0
  0
SPLINE
  5
436
100
AcDbEntity
  8
RACCORDO
100
AcDbSpline
 62
253
  6
CONTINUOUS
 70
0
 71
3
 72
10
 73
6
 74
4
 42
0.0000001
 43
0.0000001
 44
0.0000000001
 12
-0.7978274582
 22
0.1543187923
 32
0.0
 13
-0.6925533095
 23
-0.4298523916
 33
0.0
 40
0.0
 40
0.0
 40
0.0
 40
0.0
 40
0.3582085626
 40
0.7028371755
 40
1.0
 40
1.0
 40
1.0
 40
1.0
 10
-38.2769794961
 20
37.6193937458
 30
0.0
 10
-38.3722423717
 20
37.63781985
 30
0.0
 10
-38.5642493133
 20
37.6527634769
 30
0.0
 10
-38.8338827321
 20
37.6044169568
 30
0.0
 10
-38.9933176588
 20
37.530543126
 30
0.0
 10
-39.0619180247
 20
37.4879644091
 30
0.0
 11
-38.2769794961
 21
37.6193937458
 31
0.0
 11
-38.5673101886
 21
37.640344167
 31
0.0
 11
-38.8427556906
 21
37.589767812
 31
0.0
 11
-39.0619180247
 21
37.4879644091
 31
0.0
  0
SPLINE
  5
437
100
AcDbEntity
  8
RACCORDO
100
AcDbSpline
 62
253
  6
CONTINUOUS
 70
0
 71
3
 72
12
 73
8
 74
6
 42
0.0000001
 43
0.0000001
 44
0.0000000001
 12
-0.8595384019
 22
0.168836617
 32
0.0
 13
0.0089667845
 23
0.8792346999
 33
0.0
 40
0.0
 40
0.0
 40
0.0
 40
0.0
 40
0.3156105548
 40
0.5795775466
 40
0.7827004099
 40
0.9238346484
 40
1.0
 40
1.0
 40
1.0
 40
1.0
 10
-40.7151203439
 20
31.9521726968
 30
0.0
 10
-40.8055468079
 20
31.9699349029
 30
0.0
 10
-40.970406935
 20
32.0081711559
 30
0.0
 10
-41.188666694
 20
32.0795494684
 30
0.0
 10
-41.3468079894
 20
32.1591776848
 30
0.0
 10
-41.4470252899
 20
32.2369762235
 30
0.0
 10
-41.4664551122
 20
32.3034523813
 30
0.0
 10
-41.4662274594
 20
32.3257747879
 30
0.0
 11
-40.7151203439
 21
31.9521726968
 31
0.0
 11
-40.9841354633
 21
32.0159130897
 31
0.0
 11
-41.2028214328
 21
32.0910240509
 31
0.0
 11
-41.36033275
 21
32.1737805308
 31
0.0
 11
-41.4488578056
 21
32.2600783081
 31
0.0
 11
-41.4662274594
 21
32.3257747879
 31
0.0
  0
SPLINE
  5
438
100
AcDbEntity
  8
RACCORDO
100
AcDbSpline
 62
253
  6
CONTINUOUS
 70
0
 71
3
 72
12
 73
8
 74
6
 42
0.0000001
 43
0.0000001
 44
0.0000000001
 12
-0.9413310424
 22
0.1867742467
 32
0.0
 13
-0.059422827
 23
0.969352249
 33
0.0
 40
0.0
 40
0.0
 40
0.0
 40
0.0
 40
0.29010023
 40
0.5395648537
 40
0.7448490958
 40
0.9116464319
 40
1.0
 40
1.0
 40
1.0
 40
1.0
 10
-40.7151192513
 20
-37.4882413125
 30
0.0
 10
-40.8061460353
 20
-37.4701802286
 30
0.0
 10
-40.9738600317
 20
-37.4270323307
 30
0.0
 10
-41.194128599
 20
-37.3329274249
 30
0.0
 10
-41.3580694305
 20
-37.2170545676
 30
0.0
 10
-41.4474419531
 20
-37.0942741286
 30
0.0
 10
-41.4646486663
 20
-37.0123595388
 30
0.0
 10
-41.4663987392
 20
-36.9838109622
 30
0.0
 11
-40.7151192513
 21
-37.4882413125
 31
0.0
 11
-40.9841341789
 21
-37.4165498057
 31
0.0
 11
-41.2028200547
 21
-37.3191228545
 31
0.0
 11
-41.3603313985
 21
-37.2007922389
 31
0.0
 11
-41.448856612
 21
-37.067426433
 31
0.0
 11
-41.4663987392
 21
-36.9838109622
 31
0.0
  0
SPLINE
  5
439
100
AcDbEntity
  8
RACCORDO
100
AcDbSpline
 62
253
  6
CONTINUOUS
 70
0
 71
3
 72
16
 73
12
 74
10
 42
0.0000001
 43
0.0000001
 44
0.0000000001
 12
-3.2703684536
 22
0.6460680588
 32
0.0
 13
-0.0839426743
 23
3.3325166746
 33
0.0
 40
0.0
 40
0.0
 40
0.0
 40
0.0
 40
0.0966427215
 40
0.2033333059
 40
0.3165967285
 40
0.4324687164
 40
0.5486646489
 40
0.6659170133
 40
0.7826183632
 40
0.8951874805
 40
1.0
 40
1.0
 40
1.0
 40
1.0
 10
-19.2440204839
 20
-24.9399024585
 30
0.0
 10
-19.3493729198
 20
-24.9190898667
 30
0.0
 10
-19.5676440927
 20
-24.8564326987
 30
0.0
 10
-19.8873349281
 20
-24.7062585682
 30
0.0
 10
-20.1977714074
 20
-24.4965356443
 30
0.0
 10
-20.481437047
 20
-24.2361102092
 30
0.0
 10
-20.7279870268
 20
-23.9346507218
 30
0.0
 10
-20.9303559096
 20
-23.6008203803
 30
0.0
 10
-21.0815653241
 20
-23.2452024015
 30
0.0
 10
-21.1756523913
 20
-22.8847340503
 30
0.0
 10
-21.2010334176
 20
-22.6434108753
 30
0.0
 10
-21.2039661653
 20
-22.5269810523
 30
0.0
 11
-19.2440204839
 21
-24.9399024585
 31
0.0
 11
-19.5539324703
 21
-24.8518953102
 31
0.0
 11
-19.8762795333
 21
-24.7016053666
 31
0.0
 11
-20.1895952742
 21
-24.4909069127
 31
0.0
 11
-20.4744810964
 21
-24.230056587
 31
0.0
 11
-20.7198472148
 21
-23.9303338583
 31
0.0
 11
-20.9223540751
 21
-23.5960138617
 31
0.0
 11
-21.0741768969
 21
-23.2378293305
 31
0.0
 11
-21.1682261193
 21
-22.8745485872
 31
0.0
 11
-21.2039661653
 21
-22.5269810523
 31
0.0
  0
SPLINE
  5
43A
100
AcDbEntity
  8
RACCORDO
100
AcDbSpline
 62
253
  6
CONTINUOUS
 70
0
 71
3
 72
30
 73
26
 74
24
 42
0.0000001
 43
0.0000001
 44
0.0000000001
 12
-7.4929899366
 22
1.4796122077
 32
0.0
 13
6.6890059245
 23
3.6958117468
 33
0.0
 40
0.0
 40
0.0
 40
0.0
 40
0.0
 40
0.0280503199
 40
0.0582466442
 40
0.0909052544
 40
0.1263390929
 40
0.1644626964
 40
0.2041752069
 40
0.2441274066
 40
0.2838731799
 40
0.323898352
 40
0.366125957
 40
0.4127847227
 40
0.465667687
 40
0.5246944662
 40
0.5881100443
 40
0.6534399887
 40
0.716358741
 40
0.7732992017
 40
0.823362025
 40
0.866448429
 40
0.903535449
 40
0.9368018267
 40
0.9683640672
 40
1.0
 40
1.0
 40
1.0
 40
1.0
 10
-34.5018419822
 20
-32.608008442
 30
0.0
 10
-34.5719022372
 20
-32.59417391
 30
0.0
 10
-34.7163704024
 20
-32.560065707
 30
0.0
 10
-34.9373531333
 20
-32.4906393942
 30
0.0
 10
-35.1700982627
 20
-32.398093739
 30
0.0
 10
-35.4133128348
 20
-32.2792878282
 30
0.0
 10
-35.6620643491
 20
-32.1328160974
 30
0.0
 10
-35.9080169464
 20
-31.96071911
 30
0.0
 10
-36.1431893434
 20
-31.7676095236
 30
0.0
 10
-36.3638768685
 20
-31.5569704629
 30
0.0
 10
-36.5724782101
 20
-31.3264823349
 30
0.0
 10
-36.7741757798
 20
-31.0671785042
 30
0.0
 10
-36.9724127882
 20
-30.7650483291
 30
0.0
 10
-37.1625657436
 20
-30.4082093742
 30
0.0
 10
-37.3302438167
 20
-29.9935049416
 30
0.0
 10
-37.4547883733
 20
-29.5305662527
 30
0.0
 10
-37.5157209766
 20
-29.0446477778
 30
0.0
 10
-37.502618946
 20
-28.571370147
 30
0.0
 10
-37.4216017314
 20
-28.1445094875
 30
0.0
 10
-37.2911193861
 20
-27.7836884291
 30
0.0
 10
-37.1318200953
 20
-27.4915425268
 30
0.0
 10
-36.9590005852
 20
-27.2590923666
 30
0.0
 10
-36.7783704876
 20
-27.0719161961
 30
0.0
 10
-36.5873118744
 20
-26.9167019482
 30
0.0
 10
-36.4509828237
 20
-26.8305433148
 30
0.0
 10
-36.3804451764
 20
-26.7915698308
 30
0.0
 11
-34.5018419822
 21
-32.608008442
 31
0.0
 11
-34.7103807873
 21
-32.5589159865
 31
0.0
 11
-34.9304544802
 21
-32.4899399175
 31
0.0
 11
-35.1623022741
 21
-32.3979349192
 31
0.0
 11
-35.4055541485
 21
-32.279316322
 31
0.0
 11
-35.6565582256
 21
-32.1317346813
 31
0.0
 11
-35.9051676999
 21
-31.9579786594
 31
0.0
 11
-36.1410697837
 21
-31.7644278662
 31
0.0
 11
-36.3607191383
 21
-31.5548898881
 31
0.0
 11
-36.565883398
 21
-31.3282629352
 31
0.0
 11
-36.7639062478
 21
-31.0736913449
 31
0.0
 11
-36.9593545299
 21
-30.7757051504
 31
0.0
 11
-37.1491305793
 21
-30.4191623092
 31
0.0
 11
-37.3177059022
 21
-30.0010380299
 31
0.0
 11
-37.4427308131
 21
-29.5331046678
 31
0.0
 11
-37.5035531819
 21
-29.0378563574
 31
0.0
 11
-37.48878506
 21
-28.55753006
 31
0.0
 11
-37.4064275474
 21
-28.1305064543
 31
0.0
 11
-37.2755351216
 21
-27.7712443577
 31
0.0
 11
-37.117528599
 21
-27.4825790074
 31
0.0
 11
-36.9483138645
 21
-27.2554184715
 31
0.0
 11
-36.7717950686
 21
-27.0726707978
 31
0.0
 11
-36.5846747958
 21
-26.9206937358
 31
0.0
 11
-36.3804451764
 21
-26.7915698308
 31
0.0
  0
SPLINE
  5
43B
100
AcDbEntity
  8
RACCORDO
100
AcDbSpline
 62
253
  6
CONTINUOUS
 70
0
 71
3
 72
16
 73
12
 74
10
 42
0.0000001
 43
0.0000001
 44
0.0000000001
 12
0.0723972505
 22
-2.8906787353
 32
0.0
 13
-2.8368413927
 23
0.5599962724
 33
0.0
 40
0.0
 40
0.0
 40
0.0
 40
0.0
 40
0.1161257413
 40
0.2328211936
 40
0.346985033
 40
0.4569906051
 40
0.5639847194
 40
0.6717641387
 40
0.7815428624
 40
0.8919707785
 40
1.0
 40
1.0
 40
1.0
 40
1.0
 10
-5.7021114375
 20
-25.5880613351
 30
0.0
 10
-5.6993090427
 20
-25.6999554054
 30
0.0
 10
-5.7107718411
 20
-25.9251929444
 30
0.0
 10
-5.7847419143
 20
-26.2531915357
 30
0.0
 10
-5.9176057785
 20
-26.5561259354
 30
0.0
 10
-6.1050396489
 20
-26.8175307122
 30
0.0
 10
-6.3403651868
 20
-27.0278507458
 30
0.0
 10
-6.6164878629
 20
-27.1804154751
 30
0.0
 10
-6.9225332598
 20
-27.2691849663
 30
0.0
 10
-7.2400814551
 20
-27.2925694994
 30
0.0
 10
-7.4505236105
 20
-27.2687037464
 30
0.0
 10
-7.5526775328
 20
-27.248538426
 30
0.0
 11
-5.7021114375
 21
-25.5880613351
 31
0.0
 11
-5.7202396213
 21
-25.9233591079
 31
0.0
 11
-5.7956991099
 21
-26.2522483567
 31
0.0
 11
-5.9294710853
 21
-26.5540440164
 31
0.0
 11
-6.1155877693
 21
-26.8120016396
 31
0.0
 11
-6.3465233148
 21
-27.01788113
 31
0.0
 11
-6.6191825711
 21
-27.1688273278
 31
0.0
 11
-6.9238065201
 21
-27.2580962008
 31
0.0
 11
-7.2421716144
 21
-27.2826654033
 31
0.0
 11
-7.5526775328
 21
-27.248538426
 31
0.0
  0
SPLINE
  5
43C
100
AcDbEntity
  8
RACCORDO
100
AcDbSpline
 62
253
  6
CONTINUOUS
 70
0
 71
3
 72
10
 73
6
 74
4
 42
0.0000001
 43
0.0000001
 44
0.0000000001
 12
-0.745489049
 22
-30.5598900271
 32
0.0
 13
0.7676628478
 23
-30.559341062
 33
0.0
 40
0.0
 40
0.0
 40
0.0
 40
0.0
 40
0.3365509687
 40
0.6699608035
 40
1.0
 40
1.0
 40
1.0
 40
1.0
 10
-5.7021114375
 20
4.9781484488
 30
0.0
 10
-5.7857431247
 20
1.5498282513
 30
0.0
 10
-5.8977452499
 20
-5.2762832398
 30
0.0
 10
-5.8985655553
 20
-15.466358596
 30
0.0
 10
-5.7865643807
 20
-22.2261345451
 30
0.0
 10
-5.7021114375
 20
-25.5880613351
 30
0.0
 11
-5.7021114375
 21
4.9781484488
 31
0.0
 11
-5.8701453505
 21
-5.3084995634
 31
0.0
 11
-5.8701453505
 21
-15.5004986478
 31
0.0
 11
-5.7021114375
 21
-25.5880613351
 31
0.0
  0
SPLINE
  5
43D
100
AcDbEntity
  8
RACCORDO
100
AcDbSpline
 62
253
  6
CONTINUOUS
 70
0
 71
3
 72
15
 73
11
 74
9
 42
0.0000001
 43
0.0000001
 44
0.0000000001
 12
-1.4930917878
 22
-0.9456085272
 32
0.0
 13
-1.7328378742
 23
0.342171219
 33
0.0
 40
0.0
 40
0.0
 40
0.0
 40
0.0
 40
0.0719639382
 40
0.2099679676
 40
0.3502056412
 40
0.4894582071
 40
0.624715271
 40
0.7551395011
 40
0.8803858388
 40
1.0
 40
1.0
 40
1.0
 40
1.0
 10
-32.7995111567
 20
-32.3325677029
 30
0.0
 10
-32.8353274117
 20
-32.3552509408
 30
0.0
 10
-32.9419184002
 20
-32.4181343556
 30
0.0
 10
-33.1287931655
 20
-32.506414432
 30
0.0
 10
-33.3624018346
 20
-32.5846676055
 30
0.0
 10
-33.6017319998
 20
-32.6355809985
 30
0.0
 10
-33.8392612894
 20
-32.660347296
 30
0.0
 10
-34.0697452345
 20
-32.6620728067
 30
0.0
 10
-34.2902403587
 20
-32.6444416424
 30
0.0
 10
-34.4327513326
 20
-32.6216512831
 30
0.0
 10
-34.5018419822
 20
-32.608008442
 30
0.0
 11
-32.7995111567
 21
-32.3325677029
 31
0.0
 11
-32.9090332291
 21
-32.3971866228
 31
0.0
 11
-33.1293764637
 21
-32.5014265225
 31
0.0
 11
-33.3641845374
 21
-32.5803011395
 31
0.0
 11
-33.6047113188
 21
-32.6317203341
 31
0.0
 11
-33.8423023519
 21
-32.6567353218
 31
0.0
 11
-34.0726622181
 21
-32.6586762308
 31
0.0
 11
-34.2931950893
 21
-32.6412240842
 31
0.0
 11
-34.5018419822
 21
-32.608008442
 31
0.0
  0
SPLINE
  5
43E
100
AcDbEntity
  8
RACCORDO
100
AcDbSpline
 62
253
  6
CONTINUOUS
 70
0
 71
3
 72
30
 73
26
 74
24
 42
0.0000001
 43
0.0000001
 44
0.0000000001
 12
-7.7172284013
 22
1.5238929872
 32
0.0
 13
6.8876646866
 23
3.80798989
 33
0.0
 40
0.0
 40
0.0
 40
0.0
 40
0.0
 40
0.0273247874
 40
0.0565783096
 40
0.0880646543
 40
0.1220917472
 40
0.1586006761
 40
0.1965912115
 40
0.2348475145
 40
0.273003177
 40
0.3115732761
 40
0.3524676568
 40
0.3979267954
 40
0.4498405174
 40
0.5083256275
 40
0.5718892766
 40
0.6382302894
 40
0.7029721113
 40
0.7622482654
 40
0.814805574
 40
0.8602237166
 40
0.8993403552
 40
0.9343457986
 40
0.9674066029
 40
1.0
 40
1.0
 40
1.0
 40
1.0
 10
8.5248247147
 20
9.4132071037
 30
0.0
 10
8.454534173
 20
9.427087121
 30
0.0
 10
8.3100758557
 20
9.4616258893
 30
0.0
 10
8.0902192404
 20
9.5329918433
 30
0.0
 10
7.8606386221
 20
9.6288095204
 30
0.0
 10
7.6230077873
 20
9.7523718484
 30
0.0
 10
7.3825124967
 20
9.9051706805
 30
0.0
 10
7.1474427808
 20
10.0851043867
 30
0.0
 10
6.9254518538
 20
10.2873845002
 30
0.0
 10
6.7199257884
 20
10.5084213953
 30
0.0
 10
6.528596263
 20
10.7507275101
 30
0.0
 10
6.3470354547
 20
11.0238180331
 30
0.0
 10
6.1731460673
 20
11.3425157905
 30
0.0
 10
6.0129768546
 20
11.7192922407
 30
0.0
 10
5.881733527
 20
12.1572579534
 30
0.0
 10
5.7996690716
 20
12.6458232577
 30
0.0
 10
5.7850492652
 20
13.1577824606
 30
0.0
 10
5.8444834233
 20
13.6552898189
 30
0.0
 10
5.9679447029
 20
14.1033070907
 30
0.0
 10
6.1347079971
 20
14.4819375543
 30
0.0
 10
6.3237955053
 20
14.78887306
 30
0.0
 10
6.520808424
 20
15.0336147644
 30
0.0
 10
6.7214689959
 20
15.2312104653
 30
0.0
 10
6.9290623612
 20
15.3950337432
 30
0.0
 10
7.0752337576
 20
15.4866152045
 30
0.0
 10
7.1500645543
 20
15.5279869801
 30
0.0
 11
8.5248247147
 21
9.4132071037
 31
0.0
 11
8.31574876
 21
9.4630867726
 31
0.0
 11
8.096835529
 21
9.5340101679
 31
0.0
 11
7.8682068359
 21
9.6292677677
 31
0.0
 11
7.6306466448
 21
9.7525966389
 31
0.0
 11
7.3881437273
 21
9.9064454511
 31
0.0
 11
7.1507288979
 21
10.0879429187
 31
0.0
 11
6.9281865646
 21
10.2905161919
 31
0.0
 11
6.7237175107
 21
10.5102377834
 31
0.0
 11
6.535621428
 21
10.7482979129
 31
0.0
 11
6.3574605604
 21
11.0161414765
 31
0.0
 11
6.1861442151
 21
11.3300258109
 31
0.0
 11
6.026399972
 21
11.7058512448
 31
0.0
 11
5.8945002557
 21
12.146596296
 31
0.0
 11
5.8120913206
 21
12.6397658627
 31
0.0
 11
5.7979338585
 21
13.1614286737
 31
0.0
 11
5.8592688179
 21
13.6669969748
 31
0.0
 11
5.9839937133
 21
14.1162871116
 31
0.0
 11
6.1512666993
 21
14.4943653551
 31
0.0
 11
6.3390466018
 21
14.7983075231
 31
0.0
 11
6.5322090004
 21
15.037824357
 31
0.0
 11
6.7285336917
 21
15.2309061494
 31
0.0
 11
6.9327574837
 21
15.3919222564
 31
0.0
 11
7.1500645543
 21
15.5279869801
 31
0.0
  0
SPLINE
  5
43F
100
AcDbEntity
  8
RACCORDO
100
AcDbSpline
 62
253
  6
CONTINUOUS
 70
0
 71
3
 72
17
 73
13
 74
11
 42
0.0000001
 43
0.0000001
 44
0.0000000001
 12
0.2474653583
 22
4.4573227723
 32
0.0
 13
3.8332700792
 23
2.288013527
 33
0.0
 40
0.0
 40
0.0
 40
0.0
 40
0.0
 40
0.111857372
 40
0.2256873117
 40
0.3395709478
 40
0.4516304063
 40
0.5600815615
 40
0.6632684568
 40
0.7597511396
 40
0.8484083567
 40
0.9285322468
 40
1.0
 40
1.0
 40
1.0
 40
1.0
 10
17.4249468405
 20
20.9066354107
 30
0.0
 10
17.4341737821
 20
21.0728302144
 30
0.0
 10
17.4653451437
 20
21.4075634035
 30
0.0
 10
17.5474171427
 20
21.9065433813
 30
0.0
 10
17.6637604968
 20
22.3990013022
 30
0.0
 10
17.8119268748
 20
22.8744727309
 30
0.0
 10
17.9887953502
 20
23.3230088547
 30
0.0
 10
18.1906718856
 20
23.7352810195
 30
0.0
 10
18.4133523218
 20
24.102772995
 30
0.0
 10
18.6523732326
 20
24.4180085036
 30
0.0
 10
18.902844716
 20
24.6745185647
 30
0.0
 10
19.0846515983
 20
24.8104311836
 30
0.0
 10
19.1759699983
 20
24.864937579
 30
0.0
 11
17.4249468405
 21
20.9066354107
 31
0.0
 11
17.4708149224
 21
21.4038765618
 31
0.0
 11
17.5531353845
 21
21.9053225024
 31
0.0
 11
17.6701639644
 21
22.4000675691
 31
0.0
 11
17.8194089143
 21
22.8775404851
 31
0.0
 11
17.9977174578
 21
23.327655626
 31
0.0
 11
18.2013106103
 21
23.7408676686
 31
0.0
 11
18.4258696408
 21
24.1084137869
 31
0.0
 11
18.6666511068
 21
24.4225283982
 31
0.0
 11
18.9185083036
 21
24.676513983
 31
0.0
 11
19.1759699983
 21
24.864937579
 31
0.0
  0
SPLINE
  5
440
100
AcDbEntity
  8
RACCORDO
100
AcDbSpline
 62
253
  6
CONTINUOUS
 70
0
 71
3
 72
14
 73
10
 74
8
 42
0.0000001
 43
0.0000001
 44
0.0000000001
 12
-4.0962149127
 22
69.0583883882
 32
0.0
 13
3.8330842266
 23
69.0734930975
 33
0.0
 40
0.0
 40
0.0
 40
0.0
 40
0.0
 40
0.1385695847
 40
0.2787186176
 40
0.4203592084
 40
0.5634012498
 40
0.707752303
 40
0.8533176145
 40
1.0
 40
1.0
 40
1.0
 40
1.0
 10
17.4249468405
 20
-48.2361776887
 30
0.0
 10
17.2357432408
 20
-45.0463802901
 30
0.0
 10
16.9119507104
 20
-38.6269269959
 30
0.0
 10
16.5900727882
 20
-28.9383799242
 30
0.0
 10
16.4294411103
 20
-19.1426526959
 30
0.0
 10
16.4302060056
 20
-9.2487336985
 30
0.0
 10
16.5923675378
 20
0.7343691514
 30
0.0
 10
16.9157764343
 20
10.7975035983
 30
0.0
 10
17.2375315277
 20
17.5293471624
 30
0.0
 10
17.4249468405
 20
20.9066354107
 30
0.0
 11
17.4249468405
 21
-48.2361776887
 31
0.0
 11
16.9410666919
 21
-38.6621864093
 31
0.0
 11
16.6182330295
 21
-28.972085387
 31
0.0
 11
16.4567424497
 21
-19.174753349
 31
0.0
 11
16.4567424269
 21
-9.2791384338
 31
0.0
 11
16.6182329605
 21
0.7057277523
 31
0.0
 11
16.9410665791
 21
10.7707258021
 31
0.0
 11
17.4249468405
 21
20.9066354107
 31
0.0
  0
SPLINE
  5
441
100
AcDbEntity
  8
RACCORDO
100
AcDbSpline
 62
253
  6
CONTINUOUS
 70
0
 71
3
 72
17
 73
13
 74
11
 42
0.0000001
 43
0.0000001
 44
0.0000000001
 12
-2.7647151331
 22
-1.5603619839
 32
0.0
 13
-0.1880656629
 23
3.1690709355
 33
0.0
 40
0.0
 40
0.0
 40
0.0
 40
0.0
 40
0.0882548855
 40
0.1685099858
 40
0.2451296331
 40
0.3234528642
 40
0.4083858711
 40
0.5033384216
 40
0.6100591354
 40
0.7289519876
 40
0.8593959041
 40
1.0
 40
1.0
 40
1.0
 40
1.0
 10
19.1759699983
 20
-50.1610692528
 30
0.0
 10
19.0946367924
 20
-50.2069724422
 30
0.0
 10
18.9300923078
 20
-50.2802065578
 30
0.0
 10
18.6708169477
 20
-50.3227814087
 30
0.0
 10
18.42031105
 20
-50.2874634402
 30
0.0
 10
18.1886378149
 20
-50.1748401387
 30
0.0
 10
17.9825908604
 20
-49.9911443959
 30
0.0
 10
17.804962698
 20
-49.7429440152
 30
0.0
 10
17.6576692405
 20
-49.4358795247
 30
0.0
 10
17.542819203
 20
-49.0760038366
 30
0.0
 10
17.4624174792
 20
-48.6705460142
 30
0.0
 10
17.433761108
 20
-48.3847058066
 30
0.0
 10
17.4249468405
 20
-48.2361776887
 30
0.0
 11
19.1759699983
 21
-50.1610692528
 31
0.0
 11
18.9185256832
 21
-50.2716231455
 31
0.0
 11
18.6666687761
 21
-50.3101165372
 31
0.0
 11
18.4258871176
 21
-50.2756197608
 31
0.0
 11
18.2013275376
 21
-50.1688531912
 31
0.0
 11
17.9977332247
 21
-49.9920739209
 31
0.0
 11
17.8194218435
 21
-49.7490274511
 31
0.0
 11
17.6701739509
 21
-49.4448714712
 31
0.0
 11
17.5531424665
 21
-49.0860307464
 31
0.0
 11
17.470819318
 21
-48.6801825917
 31
0.0
 11
17.4249468405
 21
-48.2361776887
 31
0.0
  0
SPLINE
  5
442
100
AcDbEntity
  8
DRAFT
100
AcDbSpline
 62
7
  6
CONTINUOUS
 70
0
 71
3
 72
9
 73
5
 74
3
 42
0.0000001
 43
0.0000001
 44
0.0000000001
 12
0.6040360198
 22
-0.0457859915
 32
0.0
 13
0.5963937495
 23
0.1053354312
 33
0.0
 40
0.0
 40
0.0
 40
0.0
 40
0.0
 40
0.2470639862
 40
1.0
 40
1.0
 40
1.0
 40
1.0
 10
10.3223334871
 20
10.2979228956
 30
0.0
 10
10.3720786694
 20
10.2941522058
 30
0.0
 10
10.5738836088
 20
10.2847488423
 30
0.0
 10
10.7760700468
 20
10.2999924515
 30
0.0
 10
10.9257521576
 20
10.326429398
 30
0.0
 11
10.3223334871
 21
10.2979228956
 31
0.0
 11
10.4718194218
 21
10.2910102072
 31
0.0
 11
10.9257521576
 21
10.326429398
 31
0.0
  0
SPLINE
  5
443
100
AcDbEntity
  8
RACCORDO
100
AcDbSpline
 62
253
  6
CONTINUOUS
 70
0
 71
3
 72
16
 73
12
 74
10
 42
0.0000001
 43
0.0000001
 44
0.0000000001
 12
3.2747318643
 22
-0.6469135497
 32
0.0
 13
-0.0812140706
 23
-3.3370301465
 33
0.0
 40
0.0
 40
0.0
 40
0.0
 40
0.0
 40
0.0961455996
 40
0.2017288702
 40
0.3136077317
 40
0.4282263421
 40
0.5436365852
 40
0.6608112173
 40
0.778328068
 40
0.8926486291
 40
1.0
 40
1.0
 40
1.0
 40
1.0
 10
-7.5526775328
 20
7.4558659133
 30
0.0
 10
-7.44772718
 20
7.4351332829
 30
0.0
 10
-7.2309979217
 20
7.3720666772
 30
0.0
 10
-6.915755318
 20
7.218787746
 30
0.0
 10
-6.6132688274
 20
7.0037035181
 30
0.0
 10
-6.3408083814
 20
6.7360328098
 30
0.0
 10
-6.1081702413
 20
6.4258469688
 30
0.0
 10
-5.9218667602
 20
6.0821512433
 30
0.0
 10
-5.7882503144
 20
5.7159945102
 30
0.0
 10
-5.7123010685
 20
5.3449431261
 30
0.0
 10
-5.6992052903
 20
5.0975600358
 30
0.0
 10
-5.7021114375
 20
4.9781484488
 30
0.0
 11
-7.5526775328
 21
7.4558659133
 31
0.0
 11
-7.244305902
 21
7.3669462641
 31
0.0
 11
-6.9269194342
 21
7.2137176825
 31
0.0
 11
-6.6220643378
 21
6.9980071744
 31
0.0
 11
-6.3486838301
 21
6.7303411433
 31
0.0
 11
-6.1172492116
 21
6.4223654461
 31
0.0
 11
-5.9307831455
 21
6.0785429429
 31
0.0
 11
-5.796493719
 21
5.7099716938
 31
0.0
 11
-5.720458925
 21
5.3360192704
 31
0.0
 11
-5.7021114375
 21
4.9781484488
 31
0.0
  0
SPLINE
  5
444
100
AcDbEntity
  8
RACCORDO
100
AcDbSpline
 62
253
  6
CONTINUOUS
 70
0
 71
3
 72
15
 73
11
 74
9
 42
0.0000001
 43
0.0000001
 44
0.0000000001
 12
-1.5500565889
 22
-0.9817743431
 32
0.0
 13
-1.7991386675
 23
0.3552623527
 33
0.0
 40
0.0
 40
0.0
 40
0.0
 40
0.0
 40
0.0735388141
 40
0.2154089419
 40
0.3579842582
 40
0.4980014121
 40
0.632608703
 40
0.7612176527
 40
0.8837479981
 40
1.0
 40
1.0
 40
1.0
 40
1.0
 10
10.2877534699
 20
9.7247099322
 30
0.0
 10
10.2497570288
 20
9.7006437586
 30
0.0
 10
10.1364200545
 20
9.6333675383
 30
0.0
 10
9.9389779328
 20
9.5379282398
 30
0.0
 10
9.693581225
 20
9.4519357513
 30
0.0
 10
9.4445070665
 20
9.3947976361
 30
0.0
 10
9.1993298085
 20
9.3654433307
 30
0.0
 10
8.9632122361
 20
9.3607223075
 30
0.0
 10
8.7389265116
 20
9.3767981275
 30
0.0
 10
8.5945425387
 20
9.3994404505
 30
0.0
 10
8.5248247147
 20
9.4132071037
 30
0.0
 11
10.2877534699
 21
9.7247099322
 31
0.0
 11
10.1717349907
 21
9.6558564203
 31
0.0
 11
9.9374849244
 21
9.5426455767
 31
0.0
 11
9.6907442323
 21
9.4561388247
 31
0.0
 11
9.4404910368
 21
9.39863688
 31
0.0
 11
9.1954019807
 21
9.3691753674
 31
0.0
 11
8.9595984177
 21
9.3643358171
 31
0.0
 11
8.7354592684
 21
9.3802837645
 31
0.0
 11
8.5248247147
 21
9.4132071037
 31
0.0
  0
LINE
  5
445
100
AcDbEntity
  8
ASSI
100
AcDbLine
 62
7
  6
CONTINUOUS
 10
9.8637912704
 20
-43.8311973975
 11
9.8350024758
 21
-43.2698466318
  0
SPLINE
  5
446
100
AcDbEntity
  8
RACCORDO
100
AcDbSpline
 62
253
  6
CONTINUOUS
 70
0
 71
3
 72
12
 73
8
 74
6
 42
0.0000001
 43
0.0000001
 44
0.0000000001
 12
1.0818318411
 22
0.6100905744
 32
0.0
 13
0.0058192348
 23
1.2380194486
 33
0.0
 40
0.0
 40
0.0
 40
0.0
 40
0.0
 40
0.0598740342
 40
0.2820142227
 40
0.5108186223
 40
0.7497536093
 40
1.0
 40
1.0
 40
1.0
 40
1.0
 10
18.6208674636
 20
-51.2069220856
 30
0.0
 10
18.6424586758
 20
-51.194745891
 30
0.0
 10
18.7420016066
 20
-51.1335925614
 30
0.0
 10
18.9012502938
 20
-50.9914573968
 30
0.0
 10
19.0577634243
 20
-50.7498441603
 30
0.0
 10
19.1542126814
 20
-50.4669019981
 30
0.0
 10
19.1754845841
 20
-50.264339219
 30
0.0
 10
19.1759699983
 20
-50.1610692528
 30
0.0
 11
18.6208674636
 21
-51.2069220856
 31
0.0
 11
18.6842023374
 21
-51.1679985747
 31
0.0
 11
18.889884222
 21
-50.9854355331
 31
0.0
 11
19.0451079339
 21
-50.7484839899
 31
0.0
 11
19.1420907191
 21
-50.4690245878
 31
0.0
 11
19.1759699983
 21
-50.1610692528
 31
0.0
  0
SPLINE
  5
447
100
AcDbEntity
  8
RACCORDO
100
AcDbSpline
 62
253
  6
CONTINUOUS
 70
0
 71
3
 72
17
 73
13
 74
11
 42
0.0000001
 43
0.0000001
 44
0.0000000001
 12
-5.4081161278
 22
-3.3391798824
 32
0.0
 13
-0.343217439
 23
-6.3466561376
 33
0.0
 40
0.0
 40
0.0
 40
0.0
 40
0.0
 40
0.0707712186
 40
0.150358407
 40
0.2386927536
 40
0.3350414667
 40
0.4382557984
 40
0.5468682788
 40
0.659193857
 40
0.7734175518
 40
0.8876291484
 40
1.0
 40
1.0
 40
1.0
 40
1.0
 10
-38.2769259748
 20
37.6194267878
 30
0.0
 10
-38.4045056311
 20
37.540654178
 30
0.0
 10
-38.658147736
 20
37.3446163582
 30
0.0
 10
-39.0067405938
 20
36.9763269209
 30
0.0
 10
-39.33932644
 20
36.5244073771
 30
0.0
 10
-39.64920434
 20
35.9980065195
 30
0.0
 10
-39.9301561758
 20
35.4078100249
 30
0.0
 10
-40.1763251886
 20
34.7660019774
 30
0.0
 10
-40.3825640072
 20
34.0859229658
 30
0.0
 10
-40.5445274231
 20
33.3818020053
 30
0.0
 10
-40.6588384455
 20
32.6683374609
 30
0.0
 10
-40.7022704152
 20
32.1897883435
 30
0.0
 10
-40.7151262939
 20
31.9520619585
 30
0.0
 11
-38.2769259748
 21
37.6194267878
 31
0.0
 11
-38.6357312997
 21
37.3481446953
 31
0.0
 11
-38.9863495192
 21
36.9835193155
 31
0.0
 11
-39.3215440283
 21
36.5331114344
 31
0.0
 11
-39.6341538121
 21
36.00652687
 31
0.0
 11
-39.9175785324
 21
35.4148879157
 31
0.0
 11
-40.165812292
 21
34.7707295099
 31
0.0
 11
-40.3735967764
 21
34.0877019703
 31
0.0
 11
-40.5365436185
 21
33.3802268158
 31
0.0
 11
-40.6511813158
 21
32.6634149016
 31
0.0
 11
-40.7151262939
 21
31.9520619585
 31
0.0
  0
SPLINE
  5
448
100
AcDbEntity
  8
RACCORDO
100
AcDbSpline
 62
7
  6
CONTINUOUS
 70
0
 71
3
 72
13
 73
9
 74
7
 42
0.0000001
 43
0.0000001
 44
0.0000000001
 12
0.0
 22
0.7567252498
 32
0.0
 13
-0.7423898058
 23
0.1465963162
 33
0.0
 40
0.0
 40
0.0
 40
0.0
 40
0.0
 40
0.1657005535
 40
0.3365818221
 40
0.5090514526
 40
0.6791885729
 40
0.8435574687
 40
1.0
 40
1.0
 40
1.0
 40
1.0
 10
-8.6401569475
 20
-25.7660002698
 30
0.0
 10
-8.6401569475
 20
-25.7242036722
 30
0.0
 10
-8.6506298356
 20
-25.6390477061
 30
0.0
 10
-8.694193916
 20
-25.517265271
 30
0.0
 10
-8.7629631255
 20
-25.4063542921
 30
0.0
 10
-8.8525116852
 20
-25.3136345053
 30
0.0
 10
-8.9570026387
 20
-25.2452308055
 30
0.0
 10
-9.0344558693
 20
-25.2182935565
 30
0.0
 10
-9.0731696494
 20
-25.2106489236
 30
0.0
 11
-8.6401569475
 21
-25.7660002698
 31
0.0
 11
-8.6549114976
 21
-25.641481583
 31
0.0
 11
-8.6981696494
 21
-25.519621612
 31
0.0
 11
-8.7669834316
 21
-25.4087249125
 31
0.0
 11
-8.8566632985
 21
-25.3163489112
 31
0.0
 11
-8.9610977154
 21
-25.2487888801
 31
0.0
 11
-9.0731696494
 21
-25.2106489236
 31
0.0
  0
SPLINE
  5
449
100
AcDbEntity
  8
RACCORDO
100
AcDbSpline
 62
253
  6
CONTINUOUS
 70
0
 71
3
 72
17
 73
13
 74
11
 42
0.0000001
 43
0.0000001
 44
0.0000000001
 12
0.3516001758
 22
6.3640091431
 32
0.0
 13
5.4645048548
 23
3.2807654213
 33
0.0
 40
0.0
 40
0.0
 40
0.0
 40
0.0
 40
0.1120345224
 40
0.2259138477
 40
0.3398376914
 40
0.4519232821
 40
0.5603819701
 40
0.6635540977
 40
0.7599966065
 40
0.8485838689
 40
0.9286033546
 40
1.0
 40
1.0
 40
1.0
 40
1.0
 10
15.3866878019
 20
20.8738935657
 30
0.0
 10
15.3998182545
 20
21.111556474
 30
0.0
 10
15.4441824396
 20
21.5899631648
 30
0.0
 10
15.5609545351
 20
22.3030143873
 30
0.0
 10
15.7264079146
 20
23.0065199059
 30
0.0
 10
15.93709466
 20
23.6857964914
 30
0.0
 10
16.1885803673
 20
24.326636362
 30
0.0
 10
16.4756127018
 20
24.9157208692
 30
0.0
 10
16.7922176002
 20
25.4408885107
 30
0.0
 10
17.1320490145
 20
25.8914659106
 30
0.0
 10
17.4882668056
 20
26.2583109213
 30
0.0
 10
17.7469869077
 20
26.4528824453
 30
0.0
 10
17.8770360129
 20
26.5309609938
 30
0.0
 11
15.3866878019
 21
20.8738935657
 31
0.0
 11
15.452000504
 21
21.5849764383
 31
0.0
 11
15.5690900084
 21
22.3013042053
 31
0.0
 11
15.735521962
 21
23.0080911709
 31
0.0
 11
15.9477504926
 21
23.690241165
 31
0.0
 11
16.2012934612
 21
24.3333511856
 31
0.0
 11
16.490780062
 21
24.9237931281
 31
0.0
 11
16.8100758802
 21
25.4490574319
 31
0.0
 11
17.1524396246
 21
25.8980496369
 31
0.0
 11
17.5105565667
 21
26.2611942783
 31
0.0
 11
17.8770360129
 21
26.5309609938
 31
0.0
  0
SPLINE
  5
44A
100
AcDbEntity
  8
RACCORDO
100
AcDbSpline
 62
253
  6
CONTINUOUS
 70
0
 71
3
 72
15
 73
11
 74
9
 42
0.0000001
 43
0.0000001
 44
0.0000000001
 12
-3.477479827
 22
0.6872902135
 32
0.0
 13
-0.2081613361
 23
3.5245795431
 33
0.0
 40
0.0
 40
0.0
 40
0.0
 40
0.0
 40
0.0317062523
 40
0.1318940744
 40
0.2406447698
 40
0.3623436057
 40
0.4992287716
 40
0.6518055609
 40
0.8192635393
 40
1.0
 40
1.0
 40
1.0
 40
1.0
 10
16.9190352759
 20
-51.5058162981
 30
0.0
 10
16.8822826584
 20
-51.4985524992
 30
0.0
 10
16.7309253739
 20
-51.4608034024
 30
0.0
 10
16.4725769889
 20
-51.3348034998
 30
0.0
 10
16.1796322658
 20
-51.0726342415
 30
0.0
 10
15.9271086003
 20
-50.7183709628
 30
0.0
 10
15.7176970783
 20
-50.2800294965
 30
0.0
 10
15.5543886871
 20
-49.7662275197
 30
0.0
 10
15.4400023697
 20
-49.1870460991
 30
0.0
 10
15.3992288113
 20
-48.7786508881
 30
0.0
 10
15.3866880303
 20
-48.5663108775
 30
0.0
 11
16.9190352759
 21
-51.5058162981
 31
0.0
 11
16.810076581
 21
-51.4785940214
 31
0.0
 11
16.4907807191
 21
-51.3263481968
 31
0.0
 11
16.2012940274
 21
-51.074099955
 31
0.0
 11
15.9477509932
 21
-50.7271924233
 31
0.0
 11
15.7355223604
 21
-50.2929791802
 31
0.0
 11
15.5690903456
 21
-49.7806271043
 31
0.0
 11
15.4520007352
 21
-49.2010897464
 31
0.0
 11
15.3866880303
 21
-48.5663108775
 31
0.0
  0
SPLINE
  5
44B
100
AcDbEntity
  8
ASSI
100
AcDbSpline
 62
7
  6
CONTINUOUS
 70
0
 71
3
 72
19
 73
15
 74
13
 42
0.0000001
 43
0.0000001
 44
0.0000000001
 12
1.6966385383
 22
1.0051911694
 32
0.0
 13
-1.9280709654
 23
0.3807273465
 33
0.0
 40
0.0
 40
0.0
 40
0.0
 40
0.0
 40
0.0651922917
 40
0.137805929
 40
0.2136160965
 40
0.2929147692
 40
0.3772591929
 40
0.4647925013
 40
0.555894001
 40
0.6477902405
 40
0.7398973908
 40
0.830105512
 40
0.9168919573
 40
1.0
 40
1.0
 40
1.0
 40
1.0
 10
10.9755438821
 20
-44.3697738651
 30
0.0
 10
11.0124131336
 20
-44.3479302931
 30
0.0
 10
11.0846030882
 20
-44.292150266
 30
0.0
 10
11.1706211352
 20
-44.1796603288
 30
0.0
 10
11.2286672177
 20
-44.0405971714
 30
0.0
 10
11.2542663455
 20
-43.8845580852
 30
0.0
 10
11.2466270948
 20
-43.7190999385
 30
0.0
 10
11.2063908755
 20
-43.550635929
 30
0.0
 10
11.1356677195
 20
-43.3872003591
 30
0.0
 10
11.0373726309
 20
-43.2351909065
 30
0.0
 10
10.9161205502
 20
-43.1015589333
 30
0.0
 10
10.7769905524
 20
-42.9918898152
 30
0.0
 10
10.6261056553
 20
-42.9108611074
 30
0.0
 10
10.5190202372
 20
-42.8774023064
 30
0.0
 10
10.4656075025
 20
-42.8668551382
 30
0.0
 11
10.9755438821
 21
-44.3697738651
 31
0.0
 11
11.0769782296
 21
-44.2913970108
 31
0.0
 11
11.1640841884
 21
-44.1783570092
 31
0.0
 11
11.2222945277
 21
-44.0412091577
 31
0.0
 11
11.2484501366
 21
-43.887573863
 31
0.0
 11
11.2416502062
 21
-43.7219511523
 31
0.0
 11
11.2022863348
 21
-43.554485969
 31
0.0
 11
11.1315271819
 21
-43.3900196887
 31
0.0
 11
11.0335521954
 21
-43.238300708
 31
0.0
 11
10.911798656
 21
-43.1043465503
 31
0.0
 11
10.7723212675
 21
-42.9949095956
 31
0.0
 11
10.6217459721
 21
-42.9147951545
 31
0.0
 11
10.4656075025
 21
-42.8668551382
 31
0.0
  0
SPLINE
  5
44C
100
AcDbEntity
  8
RACCORDO
100
AcDbSpline
 62
253
  6
CONTINUOUS
 70
0
 71
3
 72
14
 73
10
 74
8
 42
0.0000001
 43
0.0000001
 44
0.0000000001
 12
0.0
 22
1.0013926576
 32
0.0
 13
-0.861563801
 23
-0.5103871781
 33
0.0
 40
0.0
 40
0.0
 40
0.0
 40
0.0
 40
0.2011107375
 40
0.3817646587
 40
0.5365641024
 40
0.6655882385
 40
0.7755480875
 40
0.8815016696
 40
1.0
 40
1.0
 40
1.0
 40
1.0
 10
-7.8901569475
 20
-26.2613956915
 30
0.0
 10
-7.8901569475
 20
-26.1942654195
 30
0.0
 10
-7.8973222328
 20
-26.0666429295
 30
0.0
 10
-7.9322065104
 20
-25.8902378986
 30
0.0
 10
-7.9896011498
 20
-25.7450108129
 30
0.0
 10
-8.0681527037
 20
-25.6370806433
 30
0.0
 10
-8.1692172762
 20
-25.573875557
 30
0.0
 10
-8.2851606564
 20
-25.5678102285
 30
0.0
 10
-8.3561256569
 20
-25.597741194
 30
0.0
 10
-8.3901569475
 20
-25.6179012035
 30
0.0
 11
-7.8901569475
 21
-26.2613956915
 31
0.0
 11
-7.9026055813
 21
-26.0603899895
 31
0.0
 11
-7.9395840633
 21
-25.8833041472
 31
0.0
 11
-7.9991952189
 21
-25.740209184
 31
0.0
 11
-8.0784697114
 21
-25.6381837822
 31
0.0
 11
-8.1733991108
 21
-25.58238702
 31
0.0
 11
-8.2792838879
 21
-25.575614596
 31
0.0
 11
-8.3901569475
 21
-25.6179012035
 31
0.0
  0
SPLINE
  5
44D
100
AcDbEntity
  8
RACCORDO
100
AcDbSpline
 62
253
  6
CONTINUOUS
 70
0
 71
3
 72
11
 73
7
 74
5
 42
0.0000001
 43
0.0000001
 44
0.0000000001
 12
-0.8518402823
 22
-0.5032527685
 32
0.0
 13
-0.9686231829
 23
0.1912561537
 33
0.0
 40
0.0
 40
0.0
 40
0.0
 40
0.0
 40
0.1704788438
 40
0.447321144
 40
0.7261912286
 40
1.0
 40
1.0
 40
1.0
 40
1.0
 10
-6.4466035553
 20
-26.7194514171
 30
0.0
 10
-6.4950104708
 20
-26.7480494005
 30
0.0
 10
-6.6273088144
 20
-26.8141711815
 30
0.0
 10
-6.8587289117
 20
-26.8811080881
 30
0.0
 10
-7.1327484547
 20
-26.9011242479
 30
0.0
 10
-7.3145286995
 20
-26.8804679056
 30
0.0
 10
-7.4029345407
 20
-26.8630120348
 30
0.0
 11
-6.4466035553
 21
-26.7194514171
 31
0.0
 11
-6.5973401951
 21
-26.7948336993
 31
0.0
 11
-6.8596905407
 21
-26.871536604
 31
0.0
 11
-7.134219577
 21
-26.8925919264
 31
0.0
 11
-7.4029345407
 21
-26.8630120348
 31
0.0
  0
SPLINE
  5
44E
100
AcDbEntity
  8
DRAFT
100
AcDbSpline
 62
7
  6
CONTINUOUS
 70
0
 71
3
 72
10
 73
6
 74
4
 42
0.0000001
 43
0.0000001
 44
0.0000000001
 12
0.7035353015
 22
-0.0533280471
 32
0.0
 13
0.6887001693
 23
0.1530402706
 33
0.0
 40
0.0
 40
0.0
 40
0.0
 40
0.0
 40
0.2121223292
 40
0.8538160912
 40
1.0
 40
1.0
 40
1.0
 40
1.0
 10
-32.9789367021
 20
-31.8949750437
 30
0.0
 10
-32.9291915199
 20
-31.8987457335
 30
0.0
 10
-32.7285045409
 20
-31.908096995
 30
0.0
 10
-32.4930156305
 20
-31.8905015017
 30
0.0
 10
-32.3112386378
 20
-31.8544280088
 30
0.0
 10
-32.2776796769
 20
-31.8469706671
 30
0.0
 11
-32.9789367021
 21
-31.8949750437
 31
0.0
 11
-32.8294507674
 21
-31.9018877321
 31
0.0
 11
-32.378822367
 21
-31.8670496537
 31
0.0
 11
-32.2776796769
 21
-31.8469706671
 31
0.0
  0
SPLINE
  5
44F
100
AcDbEntity
  8
DRAFT
100
AcDbSpline
 62
7
  6
CONTINUOUS
 70
0
 71
3
 72
9
 73
5
 74
3
 42
0.0000001
 43
0.0000001
 44
0.0000000001
 12
-0.3530009858
 22
-0.4523596467
 32
0.0
 13
-0.2371256609
 23
-0.5223617459
 33
0.0
 40
0.0
 40
0.0
 40
0.0
 40
0.0
 40
0.2566726742
 40
1.0
 40
1.0
 40
1.0
 40
1.0
 10
-35.5621229458
 20
-26.5435036547
 30
0.0
 10
-35.5923248482
 20
-26.5822064414
 30
0.0
 10
-35.7051877369
 20
-26.7367423325
 30
0.0
 10
-35.7987356857
 20
-26.904344988
 30
0.0
 10
-35.8574896802
 20
-27.0337735745
 30
0.0
 11
-35.5621229458
 21
-26.5435036547
 31
0.0
 11
-35.6489900022
 21
-26.662397572
 31
0.0
 11
-35.8574896802
 21
-27.0337735745
 31
0.0
  0
SPLINE
  5
450
100
AcDbEntity
  8
ASSI
100
AcDbSpline
 62
7
  6
CONTINUOUS
 70
0
 71
3
 72
9
 73
5
 74
3
 42
0.0000001
 43
0.0000001
 44
0.0000000001
 12
-0.0977680438
 22
-0.0328532729
 32
0.0
 13
-0.1025827276
 23
0.0099363232
 33
0.0
 40
0.0
 40
0.0
 40
0.0
 40
0.0
 40
0.4782806436
 40
1.0
 40
1.0
 40
1.0
 40
1.0
 10
10.5838156872
 20
-43.9410677046
 30
0.0
 10
10.5682288329
 20
-43.9463053994
 30
0.0
 10
10.5343858548
 20
-43.9536169444
 30
0.0
 10
10.4998081458
 20
-43.9535843415
 30
0.0
 10
10.4819683475
 20
-43.9518563508
 30
0.0
 11
10.5838156872
 21
-43.9410677046
 31
0.0
 11
10.5356878788
 21
-43.951619349
 31
0.0
 11
10.4819683475
 21
-43.9518563508
 31
0.0
  0
SPLINE
  5
451
100
AcDbEntity
  8
RACCORDO
100
AcDbSpline
 62
253
  6
CONTINUOUS
 70
0
 71
3
 72
15
 73
11
 74
9
 42
0.0000001
 43
0.0000001
 44
0.0000000001
 12
0.2025421677
 22
-3.5019574369
 32
0.0
 13
3.456297765
 23
-0.6791647156
 33
0.0
 40
0.0
 40
0.0
 40
0.0
 40
0.0
 40
0.1818008532
 40
0.3500801714
 40
0.5031625385
 40
0.6401645543
 40
0.7615283896
 40
0.8694659071
 40
0.9684268154
 40
1.0
 40
1.0
 40
1.0
 40
1.0
 10
-40.7151260744
 20
-37.4881424829
 30
0.0
 10
-40.7028519614
 20
-37.7003620996
 30
0.0
 10
-40.6629671693
 20
-38.1083627975
 30
0.0
 10
-40.5510382283
 20
-38.6869379569
 30
0.0
 10
-40.3912615646
 20
-39.1999133453
 30
0.0
 10
-40.1864155905
 20
-39.6372543004
 30
0.0
 10
-39.9394141351
 20
-39.9904439148
 30
0.0
 10
-39.6527404754
 20
-40.2516280923
 30
0.0
 10
-39.3989644477
 20
-40.3771849298
 30
0.0
 10
-39.2501207114
 20
-40.4143765761
 30
0.0
 10
-39.213745269
 20
-40.4215243737
 30
0.0
 11
-40.7151260744
 21
-37.4881424829
 31
0.0
 11
-40.6511810935
 21
-38.1226512813
 31
0.0
 11
-40.5365432885
 21
-38.7017044924
 31
0.0
 11
-40.3735963929
 21
-39.2133683778
 31
0.0
 11
-40.1658118102
 21
-39.6467040746
 31
0.0
 11
-39.9175779904
 21
-39.9925632201
 31
0.0
 11
-39.6341531811
 21
-40.2436144498
 31
0.0
 11
-39.3215433547
 21
-40.3945400135
 31
0.0
 11
-39.213745269
 21
-40.4215243737
 31
0.0
  0
SPLINE
  5
452
100
AcDbEntity
  8
DRAFT
100
AcDbSpline
 62
7
  6
CONTINUOUS
 70
0
 71
3
 72
9
 73
5
 74
3
 42
0.0000001
 43
0.0000001
 44
0.0000000001
 12
-0.4935128696
 22
-0.5470231011
 32
0.0
 13
-0.304483959
 23
-0.6707446669
 33
0.0
 40
0.0
 40
0.0
 40
0.0
 40
0.0
 40
0.4211124159
 40
1.0
 40
1.0
 40
1.0
 40
1.0
 10
7.8438987106
 20
15.7742186302
 30
0.0
 10
7.7746239117
 20
15.697432557
 30
0.0
 10
7.6226558338
 20
15.5037650878
 30
0.0
 10
7.5025345035
 20
15.2885529513
 30
0.0
 10
7.443780509
 20
15.1591243648
 30
0.0
 11
7.8438987106
 21
15.7742186302
 31
0.0
 11
7.652280187
 21
15.5305003674
 31
0.0
 11
7.443780509
 21
15.1591243648
 31
0.0
  0
SPLINE
  5
453
100
AcDbEntity
  8
RACCORDO
100
AcDbSpline
 62
7
  6
CONTINUOUS
 70
0
 71
3
 72
11
 73
7
 74
5
 42
0.0000001
 43
0.0000001
 44
0.0000000001
 12
-0.1939219395
 22
0.0382867994
 32
0.0
 13
-0.1709964469
 23
-0.0984931188
 33
0.0
 40
0.0
 40
0.0
 40
0.0
 40
0.0
 40
0.2299994761
 40
0.4707794657
 40
0.7257277921
 40
1.0
 40
1.0
 40
1.0
 40
1.0
 10
31.3721529327
 20
42.703040575
 30
0.0
 10
31.3572856179
 20
42.7059758896
 30
0.0
 10
31.3262276477
 20
42.7088144398
 30
0.0
 10
31.2784820999
 20
42.7034881444
 30
0.0
 10
31.2297999228
 20
42.6886500528
 30
0.0
 10
31.1984237983
 20
42.6732310966
 30
0.0
 10
31.1827906073
 20
42.6642264549
 30
0.0
 11
31.3721529327
 21
42.703040575
 31
0.0
 11
31.3269592468
 21
42.7072472455
 31
0.0
 11
31.2797143622
 21
42.7021968104
 31
0.0
 11
31.231505082
 21
42.6878108154
 31
0.0
 11
31.1827906073
 21
42.6642264549
 31
0.0
  0
SPLINE
  5
454
100
AcDbEntity
  8
RACCORDO
100
AcDbSpline
 62
7
  6
CONTINUOUS
 70
0
 71
3
 72
20
 73
16
 74
14
 42
0.0000001
 43
0.0000001
 44
0.0000000001
 12
0.788179035
 22
-0.1556134015
 32
0.0
 13
0.0
 23
-0.8020467702
 33
0.0
 40
0.0
 40
0.0
 40
0.0
 40
0.0
 40
0.0008081447
 40
0.0582322163
 40
0.1175516997
 40
0.1803992298
 40
0.2480318908
 40
0.3212996422
 40
0.4006821959
 40
0.4863499984
 40
0.5782242309
 40
0.6760271312
 40
0.7793219594
 40
0.8875445705
 40
1.0
 40
1.0
 40
1.0
 40
1.0
 10
27.0420259138
 20
43.5580909333
 30
0.0
 10
27.0422382347
 20
43.5580490139
 30
0.0
 10
27.0575328741
 20
43.5550056857
 30
0.0
 10
27.0877434944
 20
43.5455505722
 30
0.0
 10
27.1299928956
 20
43.5221097145
 30
0.0
 10
27.1692985072
 20
43.4896231767
 30
0.0
 10
27.205344035
 20
43.4485194596
 30
0.0
 10
27.2378693124
 20
43.3992382238
 30
0.0
 10
27.2666321932
 20
43.3422503774
 30
0.0
 10
27.2914025931
 20
43.2780805721
 30
0.0
 10
27.3119695716
 20
43.2073175635
 30
0.0
 10
27.328150108
 20
43.1306151938
 30
0.0
 10
27.3397959363
 20
43.0486866914
 30
0.0
 10
27.346797649
 20
42.9623100971
 30
0.0
 10
27.3483003206
 20
42.9032981603
 30
0.0
 10
27.3483003206
 20
42.8732333223
 30
0.0
 11
27.0420259138
 21
43.5580909333
 31
0.0
 11
27.0426626883
 21
43.5579642275
 31
0.0
 11
27.0866421626
 21
43.5442881956
 31
0.0
 11
27.1283517163
 21
43.5213996817
 31
0.0
 11
27.1673940368
 21
43.4895166386
 31
0.0
 11
27.2033972212
 21
43.4489427219
 31
0.0
 11
27.2360183218
 21
43.4000643966
 31
0.0
 11
27.2649466155
 21
43.3433472531
 31
0.0
 11
27.2899065661
 21
43.2793315688
 31
0.0
 11
27.3106604498
 21
43.2086271569
 31
0.0
 11
27.3270106217
 21
43.1319075522
 31
0.0
 11
27.3388013982
 21
43.0499035893
 31
0.0
 11
27.3459205399
 21
42.9633964356
 31
0.0
 11
27.3483003206
 21
42.8732333223
 31
0.0
  0
SPLINE
  5
455
100
AcDbEntity
  8
RACCORDO
100
AcDbSpline
 62
253
  6
CONTINUOUS
 70
0
 71
3
 72
12
 73
8
 74
6
 42
0.0000001
 43
0.0000001
 44
0.0000000001
 12
-0.0001136425
 22
-0.2221976755
 32
0.0
 13
-0.1895520768
 23
-0.1145877479
 33
0.0
 40
0.0
 40
0.0
 40
0.0
 40
0.0
 40
0.1530668539
 40
0.3268825176
 40
0.5223250089
 40
0.7456269641
 40
1.0
 40
1.0
 40
1.0
 40
1.0
 10
43.141974132
 20
39.0872349008
 30
0.0
 10
43.1419683337
 20
39.0758978678
 30
0.0
 10
43.1383600953
 20
39.0516770652
 30
0.0
 10
43.1220720272
 20
39.0162327401
 30
0.0
 10
43.0949285439
 20
38.9815402981
 30
0.0
 10
43.0577227197
 20
38.9483049092
 30
0.0
 10
43.0284027413
 20
38.928532135
 30
0.0
 10
43.0123304289
 20
38.9188161239
 30
0.0
 11
43.141974132
 21
39.0872349008
 31
0.0
 11
43.1371451931
 21
39.0536615592
 31
0.0
 11
43.1215499826
 21
39.0184622011
 31
0.0
 11
43.0953411511
 21
38.9840079898
 31
0.0
 11
43.0588026694
 21
38.9506722339
 31
0.0
 11
43.0123304289
 21
38.9188161239
 31
0.0
  0
SPLINE
  5
456
100
AcDbEntity
  8
RACCORDO
100
AcDbSpline
 62
253
  6
CONTINUOUS
 70
0
 71
3
 72
12
 73
8
 74
6
 42
0.0000001
 43
0.0000001
 44
0.0000000001
 12
-0.0001206969
 22
-0.2221940587
 32
0.0
 13
-0.1895489748
 23
-0.1145858724
 33
0.0
 40
0.0
 40
0.0
 40
0.0
 40
0.0
 40
0.1530529762
 40
0.3268714866
 40
0.5223171793
 40
0.7456227939
 40
1.0
 40
1.0
 40
1.0
 40
1.0
 10
43.1419741301
 20
-35.4484979004
 30
0.0
 10
43.1419679724
 20
-35.4598337211
 30
0.0
 10
43.1383595857
 20
-35.4840532078
 30
0.0
 10
43.1220720291
 20
-35.519496422
 30
0.0
 10
43.0949285457
 20
-35.554188865
 30
0.0
 10
43.0577227209
 20
-35.5874242548
 30
0.0
 10
43.0284027418
 20
-35.6071970296
 30
0.0
 10
43.0123304289
 20
-35.6169130409
 30
0.0
 11
43.1419741301
 21
-35.4484979004
 31
0.0
 11
43.1371451942
 21
-35.482067602
 31
0.0
 11
43.1215499844
 21
-35.5172669609
 31
0.0
 11
43.095341153
 21
-35.5517211731
 31
0.0
 11
43.0588026707
 21
-35.5850569299
 31
0.0
 11
43.0123304289
 21
-35.6169130409
 31
0.0
  0
SPLINE
  5
457
100
AcDbEntity
  8
RACCORDO
100
AcDbSpline
 62
253
  6
CONTINUOUS
 70
0
 71
3
 72
15
 73
11
 74
9
 42
0.0000001
 43
0.0000001
 44
0.0000000001
 12
0.6695285947
 22
0.3779369928
 32
0.0
 13
0.7535340095
 23
-0.1507593342
 33
0.0
 40
0.0
 40
0.0
 40
0.0
 40
0.0
 40
0.002141332
 40
0.14067302
 40
0.2797832078
 40
0.4199824623
 40
0.5617375661
 40
0.7054541076
 40
0.8514612
 40
1.0
 40
1.0
 40
1.0
 40
1.0
 10
-14.7335458155
 20
51.4764530717
 30
0.0
 10
-14.7330679211
 20
51.4767228346
 30
0.0
 10
-14.7016583137
 20
51.49441857
 30
0.0
 10
-14.6372677845
 20
51.526198129
 30
0.0
 10
-14.5365880758
 20
51.5631152272
 30
0.0
 10
-14.431778585
 20
51.5894023307
 30
0.0
 10
-14.3236500792
 20
51.6048647484
 30
0.0
 10
-14.2130319607
 20
51.6093926908
 30
0.0
 10
-14.1007855727
 20
51.6029648301
 30
0.0
 10
-14.0260800388
 20
51.5915123153
 30
0.0
 10
-13.9887703596
 20
51.5840477784
 30
0.0
 11
-14.7335458155
 21
51.4764530717
 31
0.0
 11
-14.7321114601
 21
51.4772611675
 31
0.0
 11
-14.6366538743
 21
51.5243881811
 31
0.0
 11
-14.5362987555
 21
51.5612230365
 31
0.0
 11
-14.4318100789
 21
51.5874853259
 31
0.0
 11
-14.323982849
 21
51.6029752546
 31
0.0
 11
-14.2136372227
 21
51.6075749431
 31
0.0
 11
-14.1016140076
 21
51.6012493579
 31
0.0
 11
-13.9887703596
 21
51.5840477784
 31
0.0
  0
SPLINE
  5
458
100
AcDbEntity
  8
RACCORDO
100
AcDbSpline
 62
7
  6
CONTINUOUS
 70
0
 71
3
 72
11
 73
7
 74
5
 42
0.0000001
 43
0.0000001
 44
0.0000000001
 12
0.1709964469
 22
0.0984931188
 32
0.0
 13
0.1939219395
 23
-0.0382867994
 33
0.0
 40
0.0
 40
0.0
 40
0.0
 40
0.0
 40
0.2742722079
 40
0.5292205343
 40
0.7700005239
 40
1.0
 40
1.0
 40
1.0
 40
1.0
 10
26.8526635883
 20
43.5192768132
 30
0.0
 10
26.8682967794
 20
43.528281455
 30
0.0
 10
26.8996729039
 20
43.5437004112
 30
0.0
 10
26.9483550809
 20
43.5585385027
 30
0.0
 10
26.9961006287
 20
43.5638647981
 30
0.0
 10
27.027158599
 20
43.5610262479
 30
0.0
 10
27.0420259138
 20
43.5580909333
 30
0.0
 11
26.8526635883
 21
43.5192768132
 31
0.0
 11
26.901378063
 21
43.5428611737
 31
0.0
 11
26.9495873432
 21
43.5572471687
 31
0.0
 11
26.9968322278
 21
43.5622976038
 31
0.0
 11
27.0420259138
 21
43.5580909333
 31
0.0
  0
SPLINE
  5
459
100
AcDbEntity
  8
RACCORDO
100
AcDbSpline
 62
7
  6
CONTINUOUS
 70
0
 71
3
 72
23
 73
19
 74
17
 42
0.0000001
 43
0.0000001
 44
0.0000000001
 12
-1.4875730608
 22
0.2937442419
 32
0.0
 13
0.0
 23
1.5162978899
 33
0.0
 40
0.0
 40
0.0
 40
0.0
 40
0.0
 40
0.0577153734
 40
0.1166118493
 40
0.1766702327
 40
0.2378290134
 40
0.2999887268
 40
0.3630170261
 40
0.4267542005
 40
0.4910189598
 40
0.55561437
 40
0.6203338659
 40
0.6849673021
 40
0.7493070144
 40
0.8131538738
 40
0.8763233094
 40
0.9386512613
 40
1.0
 40
1.0
 40
1.0
 40
1.0
 10
-8.1927158308
 20
-10.1701437307
 30
0.0
 10
-8.2213344423
 20
-10.1644925445
 30
0.0
 10
-8.2786035805
 20
-10.1500696836
 30
0.0
 10
-8.3627557026
 20
-10.1198146037
 30
0.0
 10
-8.4452543006
 20
-10.0810131762
 30
0.0
 10
-8.525300193
 20
-10.0340461794
 30
0.0
 10
-8.6021337768
 20
-9.9793676617
 30
0.0
 10
-8.6750217261
 20
-9.9175047349
 30
0.0
 10
-8.7432692613
 20
-9.8490518277
 30
0.0
 10
-8.8062251431
 20
-9.7746655807
 30
0.0
 10
-8.8632882695
 20
-9.6950587177
 30
0.0
 10
-8.9139132998
 20
-9.6109933833
 30
0.0
 10
-8.9576158923
 20
-9.5232740372
 30
0.0
 10
-8.9939772921
 20
-9.4327394923
 30
0.0
 10
-9.0226482693
 20
-9.3402561846
 30
0.0
 10
-9.0433523178
 20
-9.2467054044
 30
0.0
 10
-9.0558881974
 20
-9.1529917311
 30
0.0
 10
-9.0587412346
 20
-9.0904486926
 30
0.0
 10
-9.0587412346
 20
-9.0594410382
 30
0.0
 11
-8.1927158308
 21
-10.1701437307
 31
0.0
 11
-8.2776011643
 21
-10.1488569357
 31
0.0
 11
-8.3616690057
 21
-10.1187253905
 31
0.0
 11
-8.4441097356
 21
-10.0800392785
 31
0.0
 11
-8.5241294048
 21
-10.0331711679
 31
0.0
 11
-8.6009573801
 21
-9.9785724244
 31
0.0
 11
-8.6738537662
 21
-9.9167688636
 31
0.0
 11
-8.7421165309
 21
-9.8483556877
 31
0.0
 11
-8.8050882665
 21
-9.773991753
 31
0.0
 11
-8.8621625208
 21
-9.6943932247
 31
0.0
 11
-8.9127896375
 21
-9.6103266802
 31
0.0
 11
-8.9564820498
 21
-9.5226017263
 31
0.0
 11
-8.992818976
 21
-9.4320632023
 31
0.0
 11
-9.0214504714
 21
-9.3395830436
 31
0.0
 11
-9.0421007993
 21
-9.2460518848
 31
0.0
 11
-9.0545710855
 21
-9.1523704819
 31
0.0
 11
-9.0587412346
 21
-9.0594410382
 31
0.0
  0
SPLINE
  5
45A
100
AcDbEntity
  8
RACCORDO
100
AcDbSpline
 62
7
  6
CONTINUOUS
 70
0
 71
3
 72
12
 73
8
 74
6
 42
0.0000001
 43
0.0000001
 44
0.0000000001
 12
0.1741176629
 22
0.1031466533
 32
0.0
 13
0.1988763729
 23
-0.039294526
 33
0.0
 40
0.0
 40
0.0
 40
0.0
 40
0.0
 40
0.2707504189
 40
0.522097534
 40
0.7590200742
 40
0.9880339951
 40
1.0
 40
1.0
 40
1.0
 40
1.0
 10
26.8483003206
 20
42.6619701737
 30
0.0
 10
26.864014464
 20
42.6712791736
 30
0.0
 10
26.8955538886
 20
42.6872848575
 30
0.0
 10
26.9445502043
 20
42.7029726677
 30
0.0
 10
26.9928598374
 20
42.7090852427
 30
0.0
 10
27.0252359198
 20
42.7065585221
 30
0.0
 10
27.041228409
 20
42.7034907032
 30
0.0
 10
27.0420216608
 20
42.7033339704
 30
0.0
 11
26.8483003206
 21
42.6619701737
 31
0.0
 11
26.8973077277
 21
42.6864773171
 31
0.0
 11
26.9458434597
 21
42.7016991906
 31
0.0
 11
26.9934401238
 21
42.7074890478
 31
0.0
 11
27.0396393544
 21
42.7037909493
 31
0.0
 11
27.0420216608
 21
42.7033339704
 31
0.0
  0
SPLINE
  5
45B
100
AcDbEntity
  8
RACCORDO
100
AcDbSpline
 62
253
  6
CONTINUOUS
 70
0
 71
3
 72
25
 73
21
 74
19
 42
0.0000001
 43
0.0000001
 44
0.0000000001
 12
2.2342204707
 22
-0.4353999308
 32
0.0
 13
-0.0069224813
 23
-2.2762395065
 33
0.0
 40
0.0
 40
0.0
 40
0.0
 40
0.0
 40
0.0513369489
 40
0.1035843595
 40
0.1567335053
 40
0.2107504424
 40
0.2655777137
 40
0.3211361976
 40
0.3773277993
 40
0.4340388998
 40
0.4911434588
 40
0.5485060798
 40
0.6059853807
 40
0.6634373935
 40
0.720718703
 40
0.77768967
 40
0.8342181326
 40
0.8901825286
 40
0.9454742953
 40
1.0
 40
1.0
 40
1.0
 40
1.0
 10
41.7133363406
 20
40.5848077853
 30
0.0
 10
41.7515690279
 20
40.577357084
 30
0.0
 10
41.8280620349
 20
40.5587673796
 30
0.0
 10
41.9408378472
 20
40.5205929476
 30
0.0
 10
42.0518354662
 20
40.4721759792
 30
0.0
 10
42.1602018508
 20
40.4138922654
 30
0.0
 10
42.2651221479
 20
40.3461875534
 30
0.0
 10
42.3658033742
 20
40.2695783794
 30
0.0
 10
42.4614856008
 20
40.1846475142
 30
0.0
 10
42.5514461029
 20
40.0920400182
 30
0.0
 10
42.6350052504
 20
39.9924583456
 30
0.0
 10
42.7115314145
 20
39.8866572641
 30
0.0
 10
42.780445782
 20
39.7754382412
 30
0.0
 10
42.8412267177
 20
39.6596434096
 30
0.0
 10
42.8934136377
 20
39.540149444
 30
0.0
 10
42.936610539
 20
39.4178605319
 30
0.0
 10
42.9704889587
 20
39.2937027301
 30
0.0
 10
42.994790172
 20
39.1686126461
 30
0.0
 10
43.00932731
 20
39.0435495638
 30
0.0
 10
43.012456225
 20
38.9601803695
 30
0.0
 10
43.0123304073
 20
38.9188091818
 30
0.0
 11
41.7133363406
 21
40.5848077853
 31
0.0
 11
41.826908256
 21
40.5572999315
 31
0.0
 11
41.9395868043
 21
40.5192545058
 31
0.0
 11
42.0505107864
 21
40.4709615372
 31
0.0
 11
42.158835047
 21
40.4127889837
 31
0.0
 11
42.2637356063
 21
40.3451793915
 31
0.0
 11
42.3644143535
 21
40.2686471351
 31
0.0
 11
42.460104847
 21
40.1837748259
 31
0.0
 11
42.5500788977
 21
40.0912083723
 31
0.0
 11
42.6336519346
 21
39.9916520872
 31
0.0
 11
42.7101879413
 21
39.8858636184
 31
0.0
 11
42.779104458
 21
39.774648051
 31
0.0
 11
42.8398771142
 21
39.6588515781
 31
0.0
 11
42.8920434044
 21
39.5393553896
 31
0.0
 11
42.9352062069
 21
39.417069177
 31
0.0
 11
42.9690371359
 21
39.2929233464
 31
0.0
 11
42.9932788148
 21
39.1678622106
 31
0.0
 11
43.0077465322
 21
39.0428386424
 31
0.0
 11
43.0123304073
 21
38.9188091818
 31
0.0
  0
SPLINE
  5
45C
100
AcDbEntity
  8
RACCORDO
100
AcDbSpline
 62
253
  6
CONTINUOUS
 70
0
 71
3
 72
18
 73
14
 74
12
 42
0.0000001
 43
0.0000001
 44
0.0000000001
 12
0.0035651884
 22
-1.1676796728
 32
0.0
 13
-0.9747130052
 23
-0.6439959135
 33
0.0
 40
0.0
 40
0.0
 40
0.0
 40
0.0
 40
0.1042508188
 40
0.206735542
 40
0.3074108653
 40
0.4062901858
 40
0.5034450873
 40
0.5990045754
 40
0.6931534119
 40
0.7861287752
 40
0.8782132698
 40
0.9697249697
 40
1.0
 40
1.0
 40
1.0
 40
1.0
 10
43.0123304105
 20
-35.6169071629
 30
0.0
 10
43.0124543018
 20
-35.6574843503
 30
0.0
 10
43.0094760799
 20
-35.7380030658
 30
0.0
 10
42.9950816591
 20
-35.8569257157
 30
0.0
 10
42.9708990136
 20
-35.9721308058
 30
0.0
 10
42.9371034259
 20
-36.0827304071
 30
0.0
 10
42.8939427663
 20
-36.187883146
 30
0.0
 10
42.8417363392
 20
-36.286783004
 30
0.0
 10
42.780873752
 20
-36.3786691253
 30
0.0
 10
42.7118132164
 20
-36.4628310464
 30
0.0
 10
42.6350791287
 20
-36.5386154544
 30
0.0
 10
42.5698617089
 20
-36.5906033345
 30
0.0
 10
42.5307567246
 20
-36.6174489567
 30
0.0
 10
42.520920236
 20
-36.6239479553
 30
0.0
 11
43.0123304105
 21
-35.6169071629
 31
0.0
 11
43.0077463612
 21
-35.7385529513
 31
0.0
 11
42.9932784761
 21
-35.8573450464
 31
0.0
 11
42.9690366276
 21
-35.9723754729
 31
0.0
 11
42.9352055329
 21
-36.0827677192
 31
0.0
 11
42.8920425746
 21
-36.1876821098
 31
0.0
 11
42.8398761333
 21
-36.2863204174
 31
0.0
 11
42.7791033301
 21
-36.3779317343
 31
0.0
 11
42.7101866767
 21
-36.46181892
 31
0.0
 11
42.6336505445
 21
-36.537343719
 31
0.0
 11
42.550077391
 21
-36.6039313633
 31
0.0
 11
42.520920236
 21
-36.6239479553
 31
0.0
  0
SPLINE
  5
45D
100
AcDbEntity
  8
DRAFT
100
AcDbSpline
 62
7
  6
CONTINUOUS
 70
0
 71
3
 72
10
 73
6
 74
4
 42
0.0000001
 43
0.0000001
 44
0.0000000001
 12
-11.5658219171
 22
-6.5072477976
 32
0.0
 13
-11.5753585068
 23
-6.4902698839
 33
0.0
 40
0.0
 40
0.0
 40
0.0
 40
0.0
 40
0.463383422
 40
0.9629232664
 40
1.0
 40
1.0
 40
1.0
 40
1.0
 10
-6.0056711257
 20
-16.7162981827
 30
0.0
 10
-7.7921411716
 20
-17.7214151
 30
0.0
 10
-11.5050242262
 20
-19.8090977983
 30
0.0
 10
-15.36233753
 20
-21.9745524812
 30
0.0
 10
-17.4328068038
 20
-23.1355534739
 30
0.0
 10
-17.5758656315
 20
-23.2157661429
 30
0.0
 11
-6.0056711257
 21
-16.7162981827
 31
0.0
 11
-11.3659380335
 21
-19.7301255804
 31
0.0
 11
-17.1466974685
 21
-22.975113301
 31
0.0
 11
-17.5758656315
 21
-23.2157661429
 31
0.0
  0
SPLINE
  5
45E
100
AcDbEntity
  8
RACCORDO
100
AcDbSpline
 62
7
  6
CONTINUOUS
 70
0
 71
3
 72
23
 73
19
 74
17
 42
0.0000001
 43
0.0000001
 44
0.0000000001
 12
0.0
 22
-1.5162978899
 32
0.0
 13
1.4875730608
 23
-0.2937442419
 33
0.0
 40
0.0
 40
0.0
 40
0.0
 40
0.0
 40
0.0613487387
 40
0.1236766906
 40
0.1868461262
 40
0.2506929856
 40
0.3150326979
 40
0.3796661341
 40
0.44438563
 40
0.5089810402
 40
0.5732457995
 40
0.6369829739
 40
0.7000112732
 40
0.7621709866
 40
0.8233297673
 40
0.8833881507
 40
0.9422846266
 40
1.0
 40
1.0
 40
1.0
 40
1.0
 10
-8.9087412346
 20
-8.9705815984
 30
0.0
 10
-8.9087412346
 20
-9.0015892528
 30
0.0
 10
-8.9058881974
 20
-9.0641322913
 30
0.0
 10
-8.8933523178
 20
-9.1578459646
 30
0.0
 10
-8.8726482693
 20
-9.2513967448
 30
0.0
 10
-8.8439772921
 20
-9.3438800525
 30
0.0
 10
-8.8076158923
 20
-9.4344145973
 30
0.0
 10
-8.7639132998
 20
-9.5221339435
 30
0.0
 10
-8.7132882695
 20
-9.6061992779
 30
0.0
 10
-8.6562251431
 20
-9.6858061408
 30
0.0
 10
-8.5932692613
 20
-9.7601923879
 30
0.0
 10
-8.5250217261
 20
-9.8286452951
 30
0.0
 10
-8.4521337768
 20
-9.8905082219
 30
0.0
 10
-8.375300193
 20
-9.9451867396
 30
0.0
 10
-8.2952543006
 20
-9.9921537364
 30
0.0
 10
-8.2127557026
 20
-10.0309551638
 30
0.0
 10
-8.1286035805
 20
-10.0612102438
 30
0.0
 10
-8.0713344423
 20
-10.0756331047
 30
0.0
 10
-8.0427158308
 20
-10.0812842909
 30
0.0
 11
-8.9087412346
 21
-8.9705815984
 31
0.0
 11
-8.9045710855
 21
-9.0635110421
 31
0.0
 11
-8.8921007993
 21
-9.157192445
 31
0.0
 11
-8.8714504714
 21
-9.2507236038
 31
0.0
 11
-8.842818976
 21
-9.3432037625
 31
0.0
 11
-8.8064820498
 21
-9.4337422865
 31
0.0
 11
-8.7627896375
 21
-9.5214672404
 31
0.0
 11
-8.7121625208
 21
-9.6055337849
 31
0.0
 11
-8.6550882665
 21
-9.6851323131
 31
0.0
 11
-8.5921165309
 21
-9.7594962479
 31
0.0
 11
-8.5238537662
 21
-9.8279094238
 31
0.0
 11
-8.4509573801
 21
-9.8897129846
 31
0.0
 11
-8.3741294048
 21
-9.9443117281
 31
0.0
 11
-8.2941097356
 21
-9.9911798386
 31
0.0
 11
-8.2116690057
 21
-10.0298659507
 31
0.0
 11
-8.1276011643
 21
-10.0599974959
 31
0.0
 11
-8.0427158308
 21
-10.0812842909
 31
0.0
  0
SPLINE
  5
45F
100
AcDbEntity
  8
RACCORDO
100
AcDbSpline
 62
253
  6
CONTINUOUS
 70
0
 71
3
 72
11
 73
7
 74
5
 42
0.0000001
 43
0.0000001
 44
0.0000000001
 12
-0.1939607323
 22
0.0382354773
 32
0.0
 13
-0.1709626738
 23
-0.0984736655
 33
0.0
 40
0.0
 40
0.0
 40
0.0
 40
0.0
 40
0.1829625779
 40
0.4379638984
 40
0.7081578199
 40
1.0
 40
1.0
 40
1.0
 40
1.0
 10
41.9027024915
 20
40.6236177297
 30
0.0
 10
41.8908733063
 20
40.6259496169
 30
0.0
 10
41.8620961025
 20
40.6292185889
 30
0.0
 10
41.8153198664
 20
40.6255233154
 30
0.0
 10
41.7633768767
 20
40.6106301357
 30
0.0
 10
41.7299731598
 20
40.5943863141
 30
0.0
 10
41.7133417866
 20
40.5848067243
 30
0.0
 11
41.9027024915
 21
40.6236177297
 31
0.0
 11
41.8668030444
 21
40.6277115419
 31
0.0
 11
41.8166302717
 21
40.6239917786
 31
0.0
 11
41.7652911005
 21
40.6096383332
 31
0.0
 11
41.7133417866
 21
40.5848067243
 31
0.0
  0
SPLINE
  5
460
100
AcDbEntity
  8
DRAFT
100
AcDbSpline
 62
7
  6
CONTINUOUS
 70
0
 71
3
 72
17
 73
13
 74
11
 42
0.0000001
 43
0.0000001
 44
0.0000000001
 12
-1.711102149
 22
1.8804287811
 32
0.0
 13
-2.493908037
 23
0.4924606025
 33
0.0
 40
0.0
 40
0.0
 40
0.0
 40
0.0
 40
0.105025776
 40
0.2089484907
 40
0.3119823299
 40
0.4140008939
 40
0.5148937574
 40
0.6145687336
 40
0.7129540264
 40
0.8100002252
 40
0.9056818736
 40
1.0
 40
1.0
 40
1.0
 40
1.0
 10
-6.0388137371
 20
-11.5412061092
 30
0.0
 10
-6.0987170141
 20
-11.4753749452
 30
0.0
 10
-6.2216660125
 20
-11.347833893
 30
0.0
 10
-6.416043289
 20
-11.1684350016
 30
0.0
 10
-6.6187277123
 20
-11.0024652759
 30
0.0
 10
-6.8289719062
 20
-10.8505171882
 30
0.0
 10
-7.0457716927
 20
-10.7133204346
 30
0.0
 10
-7.2680920501
 20
-10.5915347679
 30
0.0
 10
-7.4948699085
 20
-10.4857473512
 30
0.0
 10
-7.7250262681
 20
-10.3964686907
 30
0.0
 10
-7.9574447404
 20
-10.324135222
 30
0.0
 10
-8.1143089196
 20
-10.2871756571
 30
0.0
 10
-8.1927158308
 20
-10.2716930034
 30
0.0
 11
-6.0388137371
 21
-11.5412061092
 31
0.0
 11
-6.2241427534
 21
-11.349027549
 31
0.0
 11
-6.4183165784
 21
-11.1698999391
 31
0.0
 11
-6.6210093179
 21
-11.0040172384
 31
0.0
 11
-6.831248008
 21
-10.8521758692
 31
0.0
 11
-7.0480234536
 21
-10.7151048696
 31
0.0
 11
-7.2702950696
 21
-10.5934623942
 31
0.0
 11
-7.4969958738
 21
-10.4878325541
 31
0.0
 11
-7.7270376061
 21
-10.3987226128
 31
0.0
 11
-7.9593154374
 21
-10.3265606892
 31
0.0
 11
-8.1927158308
 21
-10.2716930034
 31
0.0
  0
SPLINE
  5
461
100
AcDbEntity
  8
DRAFT
100
AcDbSpline
 62
7
  6
CONTINUOUS
 70
0
 71
3
 72
17
 73
13
 74
11
 42
0.0000001
 43
0.0000001
 44
0.0000000001
 12
-2.059420801
 22
0.4066643972
 32
0.0
 13
-1.7870250921
 23
-1.1026097006
 33
0.0
 40
0.0
 40
0.0
 40
0.0
 40
0.0
 40
0.1115729358
 40
0.2216185741
 40
0.3302343618
 40
0.4375473551
 40
0.5437146418
 40
0.6489203093
 40
0.7533718312
 40
0.8572955038
 40
0.9609310576
 40
1.0
 40
1.0
 40
1.0
 40
1.0
 10
-8.1927158308
 20
-10.2716930034
 30
0.0
 10
-8.2693077057
 20
-10.2565687565
 30
0.0
 10
-8.4225748214
 20
-10.2319348509
 30
0.0
 10
-8.6530083884
 20
-10.2121613385
 30
0.0
 10
-8.8813177715
 20
-10.2099168022
 30
0.0
 10
-9.1064097951
 20
-10.2252229213
 30
0.0
 10
-9.3272224141
 20
-10.2580144756
 30
0.0
 10
-9.5427067983
 20
-10.3081436243
 30
0.0
 10
-9.7518386614
 20
-10.3753786497
 30
0.0
 10
-9.9536220158
 20
-10.4594047534
 30
0.0
 10
-10.1069735727
 20
-10.5390003592
 30
0.0
 10
-10.1928131572
 20
-10.5900975423
 30
0.0
 10
-10.2160855506
 20
-10.6044568072
 30
0.0
 11
-8.1927158308
 21
-10.2716930034
 31
0.0
 11
-8.4239797425
 21
-10.2346453785
 31
0.0
 11
-8.654150255
 21
-10.215010536
 31
0.0
 11
-8.8821452543
 21
-10.2128803324
 31
0.0
 11
-9.1068894666
 21
-10.2282645827
 31
0.0
 11
-9.3273238259
 21
-10.2610904889
 31
0.0
 11
-9.5424095976
 21
-10.311203092
 31
0.0
 11
-9.7511332676
 21
-10.3783660044
 31
0.0
 11
-9.952511313
 21
-10.4622625254
 31
0.0
 11
-10.1455948308
 21
-10.5624971341
 31
0.0
 11
-10.2160855506
 21
-10.6044568072
 31
0.0
  0
SPLINE
  5
462
100
AcDbEntity
  8
RACCORDO
100
AcDbSpline
 62
253
  6
CONTINUOUS
 70
0
 71
3
 72
11
 73
7
 74
5
 42
0.0000001
 43
0.0000001
 44
0.0000000001
 12
-0.193952552
 22
0.0382246296
 32
0.0
 13
-0.1709539016
 23
-0.0984686129
 33
0.0
 40
0.0
 40
0.0
 40
0.0
 40
0.0
 40
0.1829206887
 40
0.4379350841
 40
0.7081428586
 40
1.0
 40
1.0
 40
1.0
 40
1.0
 10
-13.7994259709
 20
51.6228620191
 30
0.0
 10
-13.8112519491
 20
51.625192711
 30
0.0
 10
-13.840025801
 20
51.6284606491
 30
0.0
 10
-13.8867986486
 20
51.6247656421
 30
0.0
 10
-13.9387416358
 20
51.6098724623
 30
0.0
 10
-13.9721453511
 20
51.5936286413
 30
0.0
 10
-13.9887767235
 20
51.584049052
 30
0.0
 11
-13.7994259709
 21
51.6228620191
 31
0.0
 11
-13.8353154728
 21
51.6269538699
 31
0.0
 11
-13.8854882434
 21
51.6232341054
 31
0.0
 11
-13.9368274122
 21
51.60888066
 31
0.0
 11
-13.9887767235
 21
51.584049052
 31
0.0
  0
ELLIPSE
  5
463
100
AcDbEntity
  8
ASSI
100
AcDbEllipse
 62
7
  6
CONTINUOUS
 10
169.51776219
 20
93.1716555908
 30
0.0
 11
-141.542032919
 21
367.6586348612
 31
0.0
 40
0.5111996685
 41
-4.5306806969
 42
-4.5275739959
  0
ELLIPSE
  5
464
100
AcDbEntity
  8
ASSI
100
AcDbEllipse
 62
7
  6
CONTINUOUS
 10
173.2096020808
 20
92.4426448695
 30
0.0
 11
-60.3019606824
 21
361.9774806314
 31
0.0
 40
0.527749182
 41
-4.4174802914
 42
-4.4150552551
  0
ELLIPSE
  5
465
100
AcDbEntity
  8
ASSI
100
AcDbEllipse
 62
7
  6
CONTINUOUS
 10
173.2099284517
 20
92.4425804225
 30
0.0
 11
-60.2974770634
 21
361.9770750139
 31
0.0
 40
0.5277491336
 41
-4.4135218686
 42
-4.4119416559
  0
ELLIPSE
  5
466
100
AcDbEntity
  8
ASSI
100
AcDbEllipse
 62
7
  6
CONTINUOUS
 10
190.8378062392
 20
88.9616840995
 30
0.0
 11
169.029412296
 21
321.7894776651
 31
0.0
 40
0.3341090437
 41
-4.1249605481
 42
-4.1169276013
  0
ELLIPSE
  5
467
100
AcDbEntity
  8
ASSI
100
AcDbEllipse
 62
7
  6
CONTINUOUS
 10
170.9261006486
 20
92.893557443
 30
0.0
 11
-45.8613210634
 21
360.5955239124
 31
0.0
 40
0.5269680017
 41
-4.3948516721
 42
-4.3895538116
  0
ELLIPSE
  5
468
100
AcDbEntity
  8
ASSI
100
AcDbEllipse
 62
7
  6
CONTINUOUS
 10
188.0606465344
 20
89.510077112
 30
0.0
 11
159.2792401833
 21
323.8976570738
 31
0.0
 40
0.3498729345
 41
2.1528932258
 42
2.1581238555
  0
ELLIPSE
  5
469
100
AcDbEntity
  8
ASSI
100
AcDbEllipse
 62
7
  6
CONTINUOUS
 10
185.585540001
 20
89.9988250677
 30
0.0
 11
169.0289423696
 21
321.789578672
 31
0.0
 40
0.3341098107
 41
2.1582245461
 42
2.1637549895
  0
ELLIPSE
  5
46A
100
AcDbEntity
  8
ASSI
100
AcDbEllipse
 62
7
  6
CONTINUOUS
 10
166.4001704375
 20
93.7872721613
 30
0.0
 11
-60.3021815719
 21
361.9775006142
 31
0.0
 40
0.5277491843
 41
-4.4199818006
 42
-4.4119488538
  0
ELLIPSE
  5
46B
100
AcDbEntity
  8
ASSI
100
AcDbEllipse
 62
7
  6
CONTINUOUS
 10
188.545538266
 20
89.4143277617
 30
0.0
 11
159.2099715751
 21
323.7591283372
 31
0.0
 40
0.3498745913
 41
-4.1266109345
 42
-4.1222173605
  0
ELLIPSE
  5
46C
100
AcDbEntity
  8
ASSI
100
AcDbEllipse
 62
7
  6
CONTINUOUS
 10
171.4109677025
 20
92.7978129657
 30
0.0
 11
-45.843649192
 21
360.4412488543
 31
0.0
 40
0.5269681957
 41
-4.3975508637
 42
-4.3926770143
  0
ELLIPSE
  5
46D
100
AcDbEntity
  8
ASSI
100
AcDbEllipse
 62
7
  6
CONTINUOUS
 10
191.3229171336
 20
88.8658914721
 30
0.0
 11
168.9581366942
 21
321.6513831074
 31
0.0
 40
0.3341071911
 41
-4.1182759137
 42
-4.1168846253
  0
ELLIPSE
  5
46E
100
AcDbEntity
  8
ASSI
100
AcDbEllipse
 62
7
  6
CONTINUOUS
 10
173.6945162194
 20
92.3468910945
 30
0.0
 11
-60.2774002318
 21
361.8225289694
 31
0.0
 40
0.5277491957
 41
-4.4199444794
 42
-4.4119080588
  0
ELLIPSE
  5
46F
100
AcDbEntity
  8
ASSI
100
AcDbEllipse
 62
7
  6
CONTINUOUS
 10
170.0641337427
 20
93.0637661017
 30
0.0
 11
-141.5407098296
 21
367.658558195
 31
0.0
 40
0.511200188
 41
-4.5308722351
 42
-4.5275723297
  0
ELLIPSE
  5
470
100
AcDbEntity
  8
ASSI
100
AcDbEllipse
 62
7
  6
CONTINUOUS
 10
191.3223844121
 20
88.8659966661
 30
0.0
 11
168.9528964221
 21
321.6525094634
 31
0.0
 40
0.3341157478
 41
-4.121922057
 42
-4.1199952701
  0
ELLIPSE
  5
471
100
AcDbEntity
  8
ASSI
100
AcDbEllipse
 62
7
  6
CONTINUOUS
 10
191.3223844121
 20
88.8659966661
 30
0.0
 11
169.0253048063
 21
321.7903605389
 31
0.0
 40
0.3341157478
 41
-4.1224613956
 42
-4.1200363593
  0
ELLIPSE
  5
472
100
AcDbEntity
  8
ASSI
100
AcDbEllipse
 62
7
  6
CONTINUOUS
 10
191.3229171336
 20
88.8658914721
 30
0.0
 11
169.0305473242
 21
321.7892337002
 31
0.0
 40
0.3341071911
 41
-4.1185072713
 42
-4.1169270586
  0
ELLIPSE
  5
473
100
AcDbEntity
  8
ASSI
100
AcDbEllipse
 62
7
  6
CONTINUOUS
 10
173.6945162194
 20
92.3468910945
 30
0.0
 11
-60.3032334033
 21
361.9775957675
 31
0.0
 40
0.5277491957
 41
-4.4199834389
 42
-4.4119504922
  0
ELLIPSE
  5
474
100
AcDbEntity
  8
ASSI
100
AcDbEllipse
 62
7
  6
CONTINUOUS
 10
188.545538266
 20
89.4143277617
 30
0.0
 11
159.2782044201
 21
323.8978822494
 31
0.0
 40
0.3498745913
 41
-4.1275576342
 42
-4.1222597939
  0
ELLIPSE
  5
475
100
AcDbEntity
  8
ASSI
100
AcDbEllipse
 62
7
  6
CONTINUOUS
 10
171.4109677025
 20
92.7978129657
 30
0.0
 11
-45.8632964703
 21
360.5957236753
 31
0.0
 40
0.5269681957
 41
-4.3975898233
 42
-4.3923591936
  0
ELLIPSE
  5
476
100
AcDbEntity
  8
ASSI
100
AcDbEllipse
 62
7
  6
CONTINUOUS
 10
186.0707435814
 20
89.903014138
 30
0.0
 11
169.0310462335
 21
321.7891264639
 31
0.0
 40
0.3341063768
 41
-4.1249597179
 42
-4.1169267911
  0
ELLIPSE
  5
477
100
AcDbEntity
  8
ASSI
100
AcDbEllipse
 62
7
  6
CONTINUOUS
 10
166.8851836829
 20
93.6914988162
 30
0.0
 11
-60.3019551925
 21
361.9774801348
 31
0.0
 40
0.5277491819
 41
-4.4199814523
 42
-4.4144510089
  0
ELLIPSE
  5
478
100
AcDbEntity
  8
ASSI
100
AcDbEllipse
 62
7
  6
CONTINUOUS
 10
170.0641337427
 20
93.0637661017
 30
0.0
 11
-141.4800755115
 21
367.5010577417
 31
0.0
 40
0.511200188
 41
-4.5307855953
 42
-4.5275298964
  0
ELLIPSE
  5
479
100
AcDbEntity
  8
ASSI
100
AcDbEllipse
 62
7
  6
CONTINUOUS
 10
186.0707435814
 20
89.903014138
 30
0.0
 11
168.9586353897
 21
321.6512759171
 31
0.0
 40
0.3341063768
 41
-4.1249207583
 42
-4.1168843578
  0
ELLIPSE
  5
47A
100
AcDbEntity
  8
ASSI
100
AcDbEllipse
 62
7
  6
CONTINUOUS
 10
166.8851836829
 20
93.6914988162
 30
0.0
 11
-60.2761225686
 21
361.8224133862
 31
0.0
 40
0.5277491819
 41
-4.4199424927
 42
-4.4147202555
  0
ELLIPSE
  5
47B
100
AcDbEntity
  8
RACCORDO
100
AcDbEllipse
 62
7
  6
CONTINUOUS
 10
22.5036954215
 20
-47.2927026341
 30
0.0
 11
-0.7646456168
 21
1.2906012184
 31
0.0
 40
0.813738708
 41
3.1244231138
 42
4.0830604525
  0
ELLIPSE
  5
47C
100
AcDbEntity
  8
RACCORDO
100
AcDbEllipse
 62
7
  6
CONTINUOUS
 10
-33.7878568939
 20
38.9982348055
 30
0.0
 11
-0.7646456168
 21
1.2906012184
 31
0.0
 40
0.813738708
 41
-0.6292523755
 42
0.0483052571
  0
ELLIPSE
  5
47D
100
AcDbEntity
  8
RACCORDO
100
AcDbEllipse
 62
7
  6
CONTINUOUS
 10
22.5036954215
 20
27.8825996828
 30
0.0
 11
-0.7644446732
 21
1.2905939075
 31
0.0
 40
0.8138566568
 41
4.0832517753
 42
5.6539719497
  0
ENDSEC
  0
SECTION
  2
OBJECTS
  0
DICTIONARY
  5
C
100
AcDbDictionary
280
0
281
1
  3
ACAD_GROUP
350
D
  3
ACAD_MLINESTYLE
350
17
  3
ACAD_LAYOUT
350
1A
  3
ACAD_PLOTSETTINGS
350
19
  3
ACAD_PLOTSTYLENAME
350
E
  0
DICTIONARY
  5
D
102
{ACAD_REACTORS
330
C
102
}
100
AcDbDictionary
280
0
281
1
  0
ACDBDICTIONARYWDFLT
  5
E
102
{ACAD_REACTORS
330
C
102
}
100
AcDbDictionary
281
1
  3
Normal
350
F
100
AcDbDictionaryWithDefault
340
F
  0
DICTIONARY
  5
17
102
{ACAD_REACTORS
330
C
102
}
100
AcDbDictionary
280
0
281
1
  3
Standard
350
18
  0
DICTIONARY
  5
19
102
{ACAD_REACTORS
330
C
102
}
100
AcDbDictionary
281
1
  0
DICTIONARY
  5
1A
102
{ACAD_REACTORS
330
C
102
}
100
AcDbDictionary
281
1
  3
Model
350
47E
  3
Layout1
350
47F
  0
ACDBPLACEHOLDER
  5
F
102
{ACAD_REACTORS
330
E
102
}
  0
MLINESTYLE
  5
18
102
{ACAD_REACTORS
330
17
102
}
100
AcDbMlineStyle
  2
STANDARD
 70
0
  3

 62
256
 51
90.0
 52
90.0
 71
2
 49
0.5
 62
256
  6
BYLAYER
 49
-0.5
 62
256
  6
BYLAYER
  0
LAYOUT
  5
47E
102
{ACAD_REACTORS
330
1A
102
}
100
AcDbPlotSettings
  1

  2
none_device
  4
ISO_A4_(297.00_x_210.00_MM)
  6

 40
0.0
 41
0.0
 42
0.0
 43
0.0
 44
297.0
 45
210.0
 46
0.0
 47
0.0
 48
0.0
 49
0.0
140
0.0
141
0.0
142
1.0
143
1.0
 70
1024
 72
1
 73
0
 74
0
  7

 75
0
147
1.0
148
0.0
149
0.0
100
AcDbLayout
  1
Model
 70
0
 71
0
 10
0.0
 20
0.0
 11
297.0
 21
210.0
 12
0.0
 22
0.0
 32
0.0
 14
0.0
 24
0.0
 34
0.0
 15
0.0
 25
0.0
 35
0.0
146
0.0
 13
0.0
 23
0.0
 33
0.0
 16
1.0
 26
0.0
 36
0.0
 17
0.0
 27
1.0
 37
0.0
 76
0
330
218
345
0
346
0
  0
LAYOUT
  5
47F
102
{ACAD_REACTORS
330
1A
102
}
100
AcDbPlotSettings
  1

  2
none_device
  4
ISO_A4_(297.00_x_210.00_MM)
  6

 40
0.0
 41
0.0
 42
0.0
 43
0.0
 44
297.0
 45
210.0
 46
0.0
 47
0.0
 48
0.0
 49
0.0
140
0.0
141
0.0
142
1.0
143
1.0
 70
0
 72
1
 73
0
 74
0
  7

 75
0
147
1.0
148
0.0
149
0.0
100
AcDbLayout
  1
Layout1
 70
0
 71
1
 10
0.0
 20
0.0
 11
297.0
 21
210.0
 12
0.0
 22
0.0
 32
0.0
 14
0.0
 24
0.0
 34
0.0
 15
0.0
 25
0.0
 35
0.0
146
0.0
 13
0.0
 23
0.0
 33
0.0
 16
1.0
 26
0.0
 36
0.0
 17
0.0
 27
1.0
 37
0.0
 76
0
330
219
345
0
346
0
  0
ENDSEC
  0
EOF
