  0
SECTION
  2
HEADER
  9
$ACADVER
  1
AC1015
  9
$DWGCODEPAGE
  3
ANSI_1252
  9
$EXTMAX
 10
297.0
 20
210.0
 30
0.0
  9
$EXTMIN
 10
0.0
 20
0.0
 30
0.0
  9
$LIMMIN
 10
0.0
 20
0.0
  9
$LIMMAX
 10
297.0
 20
210.0
  9
$VIEWCTR
 10
148.5
 20
105.0
  9
$VIEWSIZE
 40
210.0
  9
$CLAYER
  8
0
  9
$LTSCALE
 40
16.335
  9
$CELTYPE
  6
BYLAYER
  9
$DIMSCALE
 40
1.0
  9
$DIMASZ
 40
3.0
  9
$DIMEXO
 40
1.85625
  9
$DIMDLI
 40
11.286
  9
$DIMEXE
 40
5.346
  9
$DIMCEN
 40
2.673
  9
$DIMLFAC
 40
1.0
  9
$DIMBLK
  1
_FILLED
  9
$DIMTXT
 40
3.0
  9
$DIMTOL
 70
1
  9
$DIMLIM
 70
0
  9
$DIMTFAC
 40
1.0
  9
$DIMTP
 40
0.01
  9
$DIMTM
 40
0.01
  9
$PDMODE
 70
3
  9
$PDSIZE
 40
3.0
  9
$HANDSEED
  5
4D1
  9
$TILEMODE
 70
1
  9
$MEASUREMENT
 70
1
  9
$INSUNITS
 70
4
  0
ENDSEC
  0
SECTION
  2
CLASSES
  0
CLASS
  1
ACDBDICTIONARYWDFLT
  2
AcDbDictionaryWithDefault
  3
AutoCAD 2000
 90
0
280
0
281
0
  0
CLASS
  1
ACDBPLACEHOLDER
  2
AcDbPlaceHolder
  3
AutoCAD 2000
 90
0
280
0
281
0
  0
CLASS
  1
LAYOUT
  2
AcDbLayout
  3
AutoCAD 2000
 90
0
280
0
281
0
  0
ENDSEC
  0
SECTION
  2
TABLES
  0
TABLE
  2
VPORT
  5
8
100
AcDbSymbolTable
 70
2
  0
VPORT
  5
1F4
100
AcDbSymbolTableRecord
100
AcDbViewportTableRecord
  2
*ACTIVE
 70
0
 10
0.0
 20
0.0
 11
1.0
 21
1.0
 12
148.5
 22
105.0
 13
0.0
 23
0.0
 14
1.0
 24
1.0
 15
0.0
 25
0.0
 16
0.0
 26
0.0
 36
1.0
 17
0.0
 27
0.0
 37
0.0
 40
210.0
 41
1.4142857143
 42
50.0
 43
0.0
 44
0.0
 50
0.0
 51
0.0
 71
0
 72
100
 73
1
 74
1
 75
0
 76
0
 77
0
 78
0
  0
ENDTAB
  0
TABLE
  2
LTYPE
  5
5
100
AcDbSymbolTable
 70
6
  0
LTYPE
  5
14
100
AcDbSymbolTableRecord
100
AcDbLinetypeTableRecord
  2
BYBLOCK
 70
0
  3

 72
65
 73
0
 40
0.0
  0
LTYPE
  5
15
100
AcDbSymbolTableRecord
100
AcDbLinetypeTableRecord
  2
BYLAYER
 70
0
  3

 72
65
 73
0
 40
0.0
  0
LTYPE
  5
16
100
AcDbSymbolTableRecord
100
AcDbLinetypeTableRecord
  2
CONTINUOUS
 70
64
  3
Solid line
 72
65
 73
0
 40
0.0
  0
LTYPE
  5
1F5
100
AcDbSymbolTableRecord
100
AcDbLinetypeTableRecord
  2
CENTER
 70
64
  3
____ _ ____ _ ____ _ ____ _ ____ _ ____ _ ____
 72
65
 73
4
 40
0.6
 49
0.375
 74
0
 49
-0.075
 74
0
 49
0.075
 74
0
 49
-0.075
 74
0
  0
LTYPE
  5
1F6
100
AcDbSymbolTableRecord
100
AcDbLinetypeTableRecord
  2
HIDDEN
 70
64
  3
- - - - - - - - - - - - - - - - - - - -
 72
65
 73
2
 40
0.2
 49
0.1
 74
0
 49
-0.1
 74
0
  0
LTYPE
  5
1F7
100
AcDbSymbolTableRecord
100
AcDbLinetypeTableRecord
  2
PHANTOM
 70
64
  3
_____ _ _ _____ _ _ _____ _ _ _____
 72
65
 73
6
 40
0.8
 49
0.45
 74
0
 49
-0.05
 74
0
 49
0.1
 74
0
 49
-0.05
 74
0
 49
0.1
 74
0
 49
-0.05
 74
0
  0
LTYPE
  5
1F8
100
AcDbSymbolTableRecord
100
AcDbLinetypeTableRecord
  2
DOT
 70
64
  3
. . . . . . . . . . . . . . . . . . . .
 72
65
 73
2
 40
0.2
 49
0.1
 74
0
 49
-0.1
 74
0
  0
LTYPE
  5
1F9
100
AcDbSymbolTableRecord
100
AcDbLinetypeTableRecord
  2
DASHED
 70
64
  3
- - - - - - - - - - - - - - - - - - - -
 72
65
 73
2
 40
0.2
 49
0.1
 74
0
 49
-0.1
 74
0
  0
ENDTAB
  0
TABLE
  2
LAYER
  5
2
100
AcDbSymbolTable
 70
36
  0
LAYER
  5
10
100
AcDbSymbolTableRecord
100
AcDbLayerTableRecord
  2
0
 70
0
 62
7
  6
CONTINUOUS
370
-3
390
F
  0
LAYER
  5
1FA
100
AcDbSymbolTableRecord
100
AcDbLayerTableRecord
  2
DEFAULT_1
 70
0
 62
7
  6
CENTER
370
-3
390
F
  0
LAYER
  5
1FB
100
AcDbSymbolTableRecord
100
AcDbLayerTableRecord
  2
DEFAULT_2
 70
0
 62
7
  6
HIDDEN
370
-3
390
F
  0
LAYER
  5
1FC
100
AcDbSymbolTableRecord
100
AcDbLayerTableRecord
  2
DEFAULT_3
 70
0
 62
7
  6
PHANTOM
370
-3
390
F
  0
LAYER
  5
1FD
100
AcDbSymbolTableRecord
100
AcDbLayerTableRecord
  2
ASSI
 70
0
 62
7
  6
CONTINUOUS
370
-3
390
F
  0
LAYER
  5
1FE
100
AcDbSymbolTableRecord
100
AcDbLayerTableRecord
  2
COLOR5
 70
0
 62
7
  6
CONTINUOUS
370
-3
390
F
  0
LAYER
  5
1FF
100
AcDbSymbolTableRecord
100
AcDbLayerTableRecord
  2
COORDINATE
 70
0
 62
7
  6
CONTINUOUS
370
-3
390
F
  0
LAYER
  5
200
100
AcDbSymbolTableRecord
100
AcDbLayerTableRecord
  2
COORD_ORIGINE
 70
0
 62
7
  6
CONTINUOUS
370
-3
390
F
  0
LAYER
  5
201
100
AcDbSymbolTableRecord
100
AcDbLayerTableRecord
  2
COPY_PUBLISH
 70
0
 62
7
  6
CONTINUOUS
370
-3
390
F
  0
LAYER
  5
202
100
AcDbSymbolTableRecord
100
AcDbLayerTableRecord
  2
COSMETIC
 70
0
 62
7
  6
CONTINUOUS
370
-3
390
F
  0
LAYER
  5
203
100
AcDbSymbolTableRecord
100
AcDbLayerTableRecord
  2
CURVE
 70
0
 62
7
  6
CONTINUOUS
370
-3
390
F
  0
LAYER
  5
204
100
AcDbSymbolTableRecord
100
AcDbLayerTableRecord
  2
DRAFT
 70
0
 62
7
  6
CONTINUOUS
370
-3
390
F
  0
LAYER
  5
205
100
AcDbSymbolTableRecord
100
AcDbLayerTableRecord
  2
IMPORT_IGES
 70
0
 62
7
  6
CONTINUOUS
370
-3
390
F
  0
LAYER
  5
206
100
AcDbSymbolTableRecord
100
AcDbLayerTableRecord
  2
INTF_1
 70
0
 62
7
  6
CONTINUOUS
370
-3
390
F
  0
LAYER
  5
207
100
AcDbSymbolTableRecord
100
AcDbLayerTableRecord
  2
INTF_2
 70
0
 62
7
  6
CONTINUOUS
370
-3
390
F
  0
LAYER
  5
208
100
AcDbSymbolTableRecord
100
AcDbLayerTableRecord
  2
NOTE
 70
0
 62
7
  6
CONTINUOUS
370
-3
390
F
  0
LAYER
  5
209
100
AcDbSymbolTableRecord
100
AcDbLayerTableRecord
  2
PIANI
 70
0
 62
7
  6
CONTINUOUS
370
-3
390
F
  0
LAYER
  5
20A
100
AcDbSymbolTableRecord
100
AcDbLayerTableRecord
  2
PIANI_ORIGINE
 70
0
 62
7
  6
CONTINUOUS
370
-3
390
F
  0
LAYER
  5
20B
100
AcDbSymbolTableRecord
100
AcDbLayerTableRecord
  2
PUNTI
 70
0
 62
7
  6
CONTINUOUS
370
-3
390
F
  0
LAYER
  5
20C
100
AcDbSymbolTableRecord
100
AcDbLayerTableRecord
  2
PUNZONI
 70
0
 62
7
  6
CONTINUOUS
370
-3
390
F
  0
LAYER
  5
20D
100
AcDbSymbolTableRecord
100
AcDbLayerTableRecord
  2
RACCORDO
 70
0
 62
7
  6
CONTINUOUS
370
-3
390
F
  0
LAYER
  5
20E
100
AcDbSymbolTableRecord
100
AcDbLayerTableRecord
  2
RGB
 70
0
 62
7
  6
CONTINUOUS
370
-3
390
F
  0
LAYER
  5
20F
100
AcDbSymbolTableRecord
100
AcDbLayerTableRecord
  2
RGB__255__255__255__
 70
0
 62
7
  6
CONTINUOUS
370
-3
390
F
  0
LAYER
  5
210
100
AcDbSymbolTableRecord
100
AcDbLayerTableRecord
  2
RGB____0____0____0__
 70
0
 62
7
  6
CONTINUOUS
370
-3
390
F
  0
LAYER
  5
211
100
AcDbSymbolTableRecord
100
AcDbLayerTableRecord
  2
SMUSSO
 70
0
 62
7
  6
CONTINUOUS
370
-3
390
F
  0
LAYER
  5
212
100
AcDbSymbolTableRecord
100
AcDbLayerTableRecord
  2
SNAPLINE
 70
0
 62
7
  6
CONTINUOUS
370
-3
390
F
  0
LAYER
  5
213
100
AcDbSymbolTableRecord
100
AcDbLayerTableRecord
  2
SUPERFICI
 70
0
 62
7
  6
CONTINUOUS
370
-3
390
F
  0
LAYER
  5
214
100
AcDbSymbolTableRecord
100
AcDbLayerTableRecord
  2
TRASH
 70
0
 62
7
  6
CONTINUOUS
370
-3
390
F
  0
LAYER
  5
215
100
AcDbSymbolTableRecord
100
AcDbLayerTableRecord
  2
XSEC_DATUMS
 70
0
 62
7
  6
CONTINUOUS
370
-3
390
F
  0
ENDTAB
  0
TABLE
  2
STYLE
  5
3
100
AcDbSymbolTable
 70
1
  0
STYLE
  5
11
100
AcDbSymbolTableRecord
100
AcDbTextStyleTableRecord
  2
STANDARD
 70
0
 40
0.0
 41
0.8
 50
0.0
 71
0
 42
0.2
  3
txt
  4

  0
STYLE
  5
216
100
AcDbSymbolTableRecord
100
AcDbTextStyleTableRecord
  2
TEXTSTYLE_1
 70
0
 40
0.0
 41
0.8
 50
0.0
 71
0
 42
0.2
  3
gdt
  4

  0
ENDTAB
  0
TABLE
  2
VIEW
  5
6
100
AcDbSymbolTable
 70
0
  0
ENDTAB
  0
TABLE
  2
UCS
  5
7
100
AcDbSymbolTable
 70
0
  0
ENDTAB
  0
TABLE
  2
APPID
  5
9
100
AcDbSymbolTable
 70
1
  0
APPID
  5
217
100
AcDbSymbolTableRecord
100
AcDbRegAppTableRecord
  2
ACAD
 70
0
  0
ENDTAB
  0
TABLE
  2
BLOCK_RECORD
  5
1
100
AcDbSymbolTable
 70
0
  0
BLOCK_RECORD
  5
218
100
AcDbSymbolTableRecord
100
AcDbBlockTableRecord
  2
*Model_Space
  0
BLOCK_RECORD
  5
219
100
AcDbSymbolTableRecord
100
AcDbBlockTableRecord
  2
*Paper_Space
  0
ENDTAB
  0
TABLE
  2
DIMSTYLE
  5
A
100
AcDbSymbolTable
 70
1
100
AcDbDimStyleTable
 71
0
  0
DIMSTYLE
105
21A
100
AcDbSymbolTableRecord
100
AcDbDimStyleTableRecord
  2
STANDARD
 70
0
  3

  4

 40
1.0
 41
3.0
 42
0.0625
 43
0.38
 44
0.18
 45
0.0
 46
0.0
 47
0.01
 48
0.01
140
3.0
141
0.09
142
0.0
143
25.4
144
1.0
145
0.0
146
1.0
147
0.09
 71
1.0
 72
0.0
 73
0
 74
0
 75
0
 76
0
 77
1
 78
8
170
0
171
2
172
0
173
0
174
0
175
0
176
0
177
0
178
0
270
2
271
2
272
2
273
2
274
2
275
0
280
0
281
0
282
0
283
1
284
8
285
0
286
0
287
3
288
0
340
11
  0
ENDTAB
  0
ENDSEC
  0
SECTION
  2
BLOCKS
  0
BLOCK
  5
20
100
AcDbEntity
  8
0
100
AcDbBlockBegin
  2
*Model_Space
 70
0
 10
0.0
 20
0.0
 30
0.0
  3
*Model_Space
  1

  0
ENDBLK
  5
21
100
AcDbEntity
  8
0
100
AcDbBlockEnd
  0
BLOCK
  5
1C
100
AcDbEntity
  8
0
100
AcDbBlockBegin
  2
*Paper_Space
 70
0
 10
0.0
 20
0.0
 30
0.0
  3
*Paper_Space
  1

  0
ENDBLK
  5
1D
100
AcDbEntity
  8
0
100
AcDbBlockEnd
  0
ENDSEC
  0
SECTION
  2
ENTITIES
  0
LWPOLYLINE
  5
21B
100
AcDbEntity
  8
RACCORDO
100
AcDbPolyline
 62
7
  6
CONTINUOUS
 90
28
 70
0
 10
-39.0620854571
 20
37.3860615916
 10
-39.1507686388
 20
37.328777993
 10
-39.2994233274
 20
37.2226571698
 10
-39.4456279117
 20
37.1052590536
 10
-39.5897025474
 20
36.9760285879
 10
-39.7310825824
 20
36.8351559824
 10
-39.8684357568
 20
36.683878063
 10
-40.0017530664
 20
36.5222508137
 10
-40.1311046053
 20
36.3501951224
 10
-40.2554235984
 20
36.1692401954
 10
-40.3747205985
 20
35.9796038095
 10
-40.4890105461
 20
35.7814646743
 10
-40.5973043237
 20
35.5768567124
 10
-40.699569477
 20
35.3663635433
 10
-40.795893389
 20
35.1502784859
 10
-40.885582372
 20
34.930737503
 10
-40.9684477429
 20
34.7091025558
 10
-41.0448735999
 20
34.4851840687
 10
-41.115057143
 20
34.2590607432
 10
-41.1789438682
 20
34.0315408935
 10
-41.2366344544
 20
33.8028334775
 10
-41.2884182228
 20
33.5721443437
 10
-41.3342030099
 20
33.3399431254
 10
-41.3738933617
 20
33.1066686381
 10
-41.407573097
 20
32.8714299263
 10
-41.4350753792
 20
32.6342075263
 10
-41.4561149163
 20
32.3959542122
 10
-41.4671432013
 20
32.2239784816
  0
LINE
  5
21C
100
AcDbEntity
  8
RACCORDO
100
AcDbLine
 62
7
  6
CONTINUOUS
 10
-39.0619219794
 20
37.3861651833
 11
-39.0620863637
 21
37.3860630503
  0
LINE
  5
21D
100
AcDbEntity
  8
RACCORDO
100
AcDbLine
 62
7
  6
CONTINUOUS
 10
-34.5703526598
 20
40.1761996648
 11
-39.0619219762
 21
37.3861651853
  0
LINE
  5
21E
100
AcDbEntity
  8
RACCORDO
100
AcDbLine
 62
253
  6
CONTINUOUS
 10
-33.7879558226
 20
40.3060413474
 11
-38.2769262225
 21
37.5176212405
  0
LINE
  5
21F
100
AcDbEntity
  8
RACCORDO
100
AcDbLine
 62
7
  6
CONTINUOUS
 10
-34.5344563958
 20
40.197467987
 11
-14.7335456373
 21
51.3746475781
  0
LINE
  5
220
100
AcDbEntity
  8
RACCORDO
100
AcDbLine
 62
253
  6
CONTINUOUS
 10
-33.7879558226
 20
40.3060413474
 11
-13.9887703374
 21
51.4822421937
  0
LWPOLYLINE
  5
221
100
AcDbEntity
  8
RACCORDO
100
AcDbPolyline
 62
7
  6
CONTINUOUS
 90
12
 70
0
 10
16.9189443533
 20
-51.6077027088
 10
17.0693160345
 20
-51.6323248548
 10
17.2233181779
 20
-51.6470934559
 10
17.3814834224
 20
-51.6515245371
 10
17.5429373859
 20
-51.6449888985
 10
17.7061936187
 20
-51.6270837569
 10
17.8706479057
 20
-51.5975198564
 10
18.0357138567
 20
-51.5560516322
 10
18.2000828976
 20
-51.5027413308
 10
18.3630734343
 20
-51.4376720852
 10
18.5245007422
 20
-51.3607884499
 10
18.6204520291
 20
-51.308989288
  0
LINE
  5
222
100
AcDbEntity
  8
RACCORDO
100
AcDbLine
 62
7
  6
CONTINUOUS
 10
-39.2137667574
 20
-40.5234393263
 11
-39.2130334692
 21
-40.5235838613
  0
LINE
  5
223
100
AcDbEntity
  8
ASSI
100
AcDbLine
 62
7
  6
CONTINUOUS
 10
16.9201796544
 20
-51.6079527328
 11
-39.2137913791
 21
-40.5234344644
  0
LINE
  5
224
100
AcDbEntity
  8
RACCORDO
100
AcDbLine
 62
253
  6
CONTINUOUS
 10
15.3866880581
 20
-48.6681164809
 11
-40.7151261034
 21
-37.5899480751
  0
LINE
  5
225
100
AcDbEntity
  8
RACCORDO
100
AcDbLine
 62
7
  6
CONTINUOUS
 10
16.9201565832
 20
-51.607948177
 11
16.9190154456
 21
-51.6077222308
  0
LWPOLYLINE
  5
226
100
AcDbEntity
  8
RACCORDO
100
AcDbPolyline
 62
7
  6
CONTINUOUS
 90
27
 70
0
 10
-41.4668336251
 20
-37.085591697
 10
-41.4557666722
 20
-37.2457610391
 10
-41.4338596731
 20
-37.4699378705
 10
-41.4050240563
 20
-37.6870807798
 10
-41.3693975696
 20
-37.8971694759
 10
-41.3271384671
 20
-38.1000442704
 10
-41.2784251293
 20
-38.2954103432
 10
-41.2233557567
 20
-38.4833388003
 10
-41.1620136556
 20
-38.6638612325
 10
-41.0945461811
 20
-38.8367559385
 10
-41.0209707374
 20
-39.0021666519
 10
-40.9413443546
 20
-39.160085334
 10
-40.855923426
 20
-39.3101221255
 10
-40.7647379282
 20
-39.4523627083
 10
-40.6679041547
 20
-39.5867424741
 10
-40.5659873962
 20
-39.7126591993
 10
-40.4593101872
 20
-39.8299797422
 10
-40.3480234411
 20
-39.9387990797
 10
-40.23266922
 20
-40.0388581183
 10
-40.113806437
 20
-40.1299912429
 10
-39.9916586319
 20
-40.2123326096
 10
-39.86640119
 20
-40.2860128675
 10
-39.7385411816
 20
-40.350967754
 10
-39.6084802813
 20
-40.4072261765
 10
-39.4762654743
 20
-40.4549479355
 10
-39.3422189014
 20
-40.4941415373
 10
-39.2131037592
 20
-40.5235643684
  0
LWPOLYLINE
  5
227
100
AcDbEntity
  8
RACCORDO
100
AcDbPolyline
 62
7
  6
CONTINUOUS
 90
22
 70
0
 10
-41.4671432464
 20
32.2239982237
 10
-41.6378957962
 20
28.900284886
 10
-41.7954047577
 20
25.5060091822
 10
-41.9354602272
 20
22.1193382172
 10
-42.0580441345
 20
18.7406572365
 10
-42.1631445519
 20
15.370300862
 10
-42.2507511066
 20
12.0085838493
 10
-42.3208535996
 20
8.655836143
 10
-42.3734447075
 20
5.3123995586
 10
-42.4085179447
 20
1.9786067516
 10
-42.4260674927
 20
-1.3452084836
 10
-42.4260910695
 20
-4.6587028784
 10
-42.4085874845
 20
-7.9615297087
 10
-42.3735566257
 20
-11.2533470829
 10
-42.3210019165
 20
-14.5338267885
 10
-42.2509274536
 20
-17.8026427693
 10
-42.1633381598
 20
-21.0594605863
 10
-42.0582418266
 20
-24.3039612548
 10
-41.9356464006
 20
-27.5358417733
 10
-41.7955613585
 20
-30.7547809588
 10
-41.6380023344
 20
-33.9604139124
 10
-41.4668317232
 20
-37.0856430982
  0
LINE
  5
228
100
AcDbEntity
  8
ASSI
100
AcDbLine
 62
7
  6
CONTINUOUS
 10
10.7819019571
 20
-45.6168512614
 11
11.3281705167
 21
-45.7247141088
  0
LINE
  5
229
100
AcDbEntity
  8
ASSI
100
AcDbLine
 62
7
  6
CONTINUOUS
 10
7.0220365587
 20
-44.8744141586
 11
7.5070286248
 21
-44.9701770174
  0
LINE
  5
22A
100
AcDbEntity
  8
ASSI
100
AcDbLine
 62
7
  6
CONTINUOUS
 10
5.2702005347
 20
-44.5284871192
 11
5.7551804765
 21
-44.6242475838
  0
LINE
  5
22B
100
AcDbEntity
  8
ASSI
100
AcDbLine
 62
7
  6
CONTINUOUS
 10
3.3567047612
 20
-44.1506441733
 11
3.8416968273
 21
-44.246407032
  0
LINE
  5
22C
100
AcDbEntity
  8
ASSI
100
AcDbLine
 62
7
  6
CONTINUOUS
 10
1.769790285
 20
-43.8372834368
 11
2.2548005377
 21
-43.9330498868
  0
LINE
  5
22D
100
AcDbEntity
  8
ASSI
100
AcDbLine
 62
7
  6
CONTINUOUS
 10
4.3266771156
 20
-44.3421738692
 11
4.8116695283
 21
-44.4379431006
  0
LINE
  5
22E
100
AcDbEntity
  8
ASSI
100
AcDbLine
 62
7
  6
CONTINUOUS
 10
6.2137178916
 20
-44.7147991721
 11
6.6987103043
 21
-44.8105684034
  0
LINE
  5
22F
100
AcDbEntity
  8
ASSI
100
AcDbLine
 62
7
  6
CONTINUOUS
 10
9.3875343731
 20
-45.3415118782
 11
9.8725328479
 21
-45.4372823066
  0
LINE
  5
230
100
AcDbEntity
  8
ASSI
100
AcDbLine
 62
7
  6
CONTINUOUS
 10
8.5792096439
 20
-45.1818956946
 11
9.0642084652
 21
-45.2776724956
  0
LINE
  5
231
100
AcDbEntity
  8
ASSI
100
AcDbLine
 62
7
  6
CONTINUOUS
 10
7.6330999272
 20
-44.4989774693
 11
8.3990621578
 21
-44.6502285243
  0
LINE
  5
232
100
AcDbEntity
  8
ASSI
100
AcDbLine
 62
7
  6
CONTINUOUS
 10
8.2254121728
 20
-44.136308685
 11
7.7553266554
 21
-44.04348305
  0
LINE
  5
233
100
AcDbEntity
  8
ASSI
100
AcDbLine
 62
7
  6
CONTINUOUS
 10
9.8198373517
 20
-44.4511462127
 11
10.243129254
 21
-44.5347380396
  0
LINE
  5
234
100
AcDbEntity
  8
ASSI
100
AcDbLine
 62
7
  6
CONTINUOUS
 10
8.2039061536
 20
-44.0725506047
 11
7.830670714
 21
-43.9988495111
  0
LINE
  5
235
100
AcDbEntity
  8
ASSI
100
AcDbLine
 62
7
  6
CONTINUOUS
 10
10.3785183079
 20
-44.094146681
 11
9.7884578669
 21
-43.9776302217
  0
LINE
  5
236
100
AcDbEntity
  8
ASSI
100
AcDbLine
 62
7
  6
CONTINUOUS
 10
10.4538516171
 20
-44.04951951
 11
9.8637912704
 21
-43.9330029948
  0
LINE
  5
237
100
AcDbEntity
  8
ASSI
100
AcDbLine
 62
7
  6
CONTINUOUS
 10
9.7566343476
 20
-43.3561766537
 11
10.3467007564
 21
-43.472694366
  0
LINE
  5
238
100
AcDbEntity
  8
ASSI
100
AcDbLine
 62
7
  6
CONTINUOUS
 10
6.5657649335
 20
-42.2580670051
 11
5.8325869606
 21
-42.1132897074
  0
LINE
  5
239
100
AcDbEntity
  8
ASSI
100
AcDbLine
 62
7
  6
CONTINUOUS
 10
4.9269097177
 20
-41.9344497686
 11
4.1937317448
 21
-41.7896724709
  0
LINE
  5
23A
100
AcDbEntity
  8
ASSI
100
AcDbLine
 62
7
  6
CONTINUOUS
 10
3.7087575187
 20
-41.6939068308
 11
3.2237651061
 21
-41.5981375995
  0
LINE
  5
23B
100
AcDbEntity
  8
ASSI
100
AcDbLine
 62
7
  6
CONTINUOUS
 10
2.9004388517
 20
-41.5342918443
 11
2.4154403768
 21
-41.4385214159
  0
LINE
  5
23C
100
AcDbEntity
  8
ASSI
100
AcDbLine
 62
7
  6
CONTINUOUS
 10
1.3432654199
 20
-41.2268039357
 11
0.8582669451
 21
-41.1310335073
  0
LINE
  5
23D
100
AcDbEntity
  8
ASSI
100
AcDbLine
 62
7
  6
CONTINUOUS
 10
10.3902773111
 20
-43.0132697182
 11
9.2545890307
 21
-42.7890104631
  0
LINE
  5
23E
100
AcDbEntity
  8
ASSI
100
AcDbLine
 62
7
  6
CONTINUOUS
 10
8.1526790915
 20
-42.5714213522
 11
7.6676624301
 21
-42.4756473325
  0
LINE
  5
23F
100
AcDbEntity
  8
ASSI
100
AcDbLine
 62
7
  6
CONTINUOUS
 10
6.6410743225
 20
-42.2134540043
 11
5.9078963496
 21
-42.0686767066
  0
LINE
  5
240
100
AcDbEntity
  8
ASSI
100
AcDbLine
 62
7
  6
CONTINUOUS
 10
5.0022191067
 20
-41.8898367678
 11
4.2690411338
 21
-41.7450594702
  0
LINE
  5
241
100
AcDbEntity
  8
ASSI
100
AcDbLine
 62
7
  6
CONTINUOUS
 10
3.7840669077
 20
-41.64929383
 11
3.299074495
 21
-41.5535245987
  0
LINE
  5
242
100
AcDbEntity
  8
ASSI
100
AcDbLine
 62
7
  6
CONTINUOUS
 10
2.9757482407
 20
-41.4896788435
 11
2.4907497658
 21
-41.3939084151
  0
LINE
  5
243
100
AcDbEntity
  8
ASSI
100
AcDbLine
 62
7
  6
CONTINUOUS
 10
1.4185748089
 20
-41.1821909349
 11
0.9335763341
 21
-41.0864205065
  0
LINE
  5
244
100
AcDbEntity
  8
ASSI
100
AcDbLine
 62
7
  6
CONTINUOUS
 10
10.4655868135
 20
-42.9686566502
 11
9.3298984195
 21
-42.7443974624
  0
LINE
  5
245
100
AcDbEntity
  8
ASSI
100
AcDbLine
 62
7
  6
CONTINUOUS
 10
8.2279884803
 20
-42.5268083515
 11
7.742971819
 21
-42.4310343318
  0
LINE
  5
246
100
AcDbEntity
  8
0
100
AcDbLine
 62
7
  6
CONTINUOUS
 10
-36.5004342868
 20
-29.4266137423
 11
-34.4407245387
 21
-29.8333351966
  0
LINE
  5
247
100
AcDbEntity
  8
0
100
AcDbLine
 62
7
  6
CONTINUOUS
 10
-33.6547071229
 20
-29.9885464571
 11
-31.8318428509
 21
-30.3484991195
  0
LINE
  5
248
100
AcDbEntity
  8
DRAFT
100
AcDbLine
 62
7
  6
CONTINUOUS
 10
-33.5427158308
 20
-24.8193483468
 11
-33.5427158308
 21
16.4981865007
  0
LINE
  5
249
100
AcDbEntity
  8
RACCORDO
100
AcDbLine
 62
253
  6
CONTINUOUS
 10
8.6350207782
 20
-34.5277732825
 11
-35.1751058789
 21
-25.8767881423
  0
LINE
  5
24A
100
AcDbEntity
  8
RACCORDO
100
AcDbLine
 62
253
  6
CONTINUOUS
 10
8.5001430618
 20
-34.1541422015
 11
-34.8360797953
 21
-25.596736675
  0
LWPOLYLINE
  5
24B
100
AcDbEntity
  8
RACCORDO
100
AcDbPolyline
 62
7
  6
CONTINUOUS
 90
48
 70
0
 10
-34.8223393789
 20
-26.6948772064
 10
-34.7369699612
 20
-26.7130975568
 10
-34.5841376006
 20
-26.7525081958
 10
-34.4314445734
 20
-26.8005910295
 10
-34.2793805494
 20
-26.8572006049
 10
-34.1284018804
 20
-26.9221738508
 10
-33.9789165817
 20
-26.9953425742
 10
-33.8313908886
 20
-27.0764896454
 10
-33.6862820854
 20
-27.1653681795
 10
-33.5439744828
 20
-27.2617502725
 10
-33.4049116402
 20
-27.3653453648
 10
-33.2695216663
 20
-27.4758376439
 10
-33.1381568268
 20
-27.5929491854
 10
-33.0112174809
 20
-27.7163314782
 10
-32.8891010579
 20
-27.8456079523
 10
-32.7721351972
 20
-27.9804375439
 10
-32.660668109
 20
-28.1204337946
 10
-32.5550571552
 20
-28.2651561008
 10
-32.4556245919
 20
-28.4141664875
 10
-32.3626717332
 20
-28.5670126146
 10
-32.2764819418
 20
-28.7232241345
 10
-32.1973157889
 20
-28.8823111101
 10
-32.1254194408
 20
-29.0437675553
 10
-32.0609872825
 20
-29.2071067599
 10
-32.0041971379
 20
-29.3718607313
 10
-31.9552161643
 20
-29.537507336
 10
-31.9141686631
 20
-29.7035446081
 10
-31.8811617746
 20
-29.8695279402
 10
-31.8562875893
 20
-30.0349294002
 10
-31.8395980915
 20
-30.1992489239
 10
-31.8311373923
 20
-30.3620757245
 10
-31.8309292246
 20
-30.5228703817
 10
-31.8389537991
 20
-30.6811680094
 10
-31.8552101012
 20
-30.8366563429
 10
-31.8796697122
 20
-30.9888414132
 10
-31.9122617467
 20
-31.1372499387
 10
-31.952960172
 20
-31.2815795362
 10
-32.0017109536
 20
-31.4214408196
 10
-32.0583772431
 20
-31.5563025112
 10
-32.1228002818
 20
-31.6856620782
 10
-32.1948314983
 20
-31.8091555146
 10
-32.2742728581
 20
-31.9263584713
 10
-32.3608048098
 20
-32.0367718911
 10
-32.454183569
 20
-32.1400796312
 10
-32.5541608426
 20
-32.2360020506
 10
-32.6603550825
 20
-32.3241766922
 10
-32.7724656267
 20
-32.404378849
 10
-32.8053561575
 20
-32.4256824353
  0
LINE
  5
24C
100
AcDbEntity
  8
0
100
AcDbLine
 62
7
  6
CONTINUOUS
 10
-29.286017101
 20
-23.2035221442
 11
-29.286017101
 21
-23.673032833
  0
LINE
  5
24D
100
AcDbEntity
  8
RACCORDO
100
AcDbLine
 62
253
  6
CONTINUOUS
 10
-27.586017101
 20
-22.1964484929
 11
-27.586017101
 21
15.3219444734
  0
LINE
  5
24E
100
AcDbEntity
  8
RACCORDO
100
AcDbLine
 62
7
  6
CONTINUOUS
 10
-27.5190298029
 20
-22.112463911
 11
-27.5190298029
 21
15.3087167983
  0
LINE
  5
24F
100
AcDbEntity
  8
0
100
AcDbLine
 62
7
  6
CONTINUOUS
 10
-26.7599608677
 20
-25.0209000168
 11
-26.7599608677
 21
-26.1587079167
  0
LINE
  5
250
100
AcDbEntity
  8
0
100
AcDbLine
 62
7
  6
CONTINUOUS
 10
8.1190299587
 20
-30.3550123997
 11
6.470543507
 21
-30.2039384723
  0
LINE
  5
251
100
AcDbEntity
  8
0
100
AcDbLine
 62
7
  6
CONTINUOUS
 10
5.8673639089
 20
-29.9103862133
 11
4.2188774572
 21
-29.759312286
  0
LINE
  5
252
100
AcDbEntity
  8
0
100
AcDbLine
 62
7
  6
CONTINUOUS
 10
3.0960826167
 20
-29.363153984
 11
1.4475961651
 21
-29.2120800567
  0
LINE
  5
253
100
AcDbEntity
  8
0
100
AcDbLine
 62
7
  6
CONTINUOUS
 10
0.8444165669
 20
-28.9185277977
 11
-0.8040698848
 21
-28.7674538704
  0
LINE
  5
254
100
AcDbEntity
  8
0
100
AcDbLine
 62
7
  6
CONTINUOUS
 10
-13.5316051359
 20
-26.0797606081
 11
-15.1800915876
 21
-25.9286866808
  0
LINE
  5
255
100
AcDbEntity
  8
0
100
AcDbLine
 62
7
  6
CONTINUOUS
 10
-15.7832711858
 20
-25.6351344218
 11
-17.4317576374
 21
-25.4840604945
  0
LINE
  5
256
100
AcDbEntity
  8
0
100
AcDbLine
 62
7
  6
CONTINUOUS
 10
-18.5545524779
 20
-25.0879021925
 11
-20.2030389295
 21
-24.9368282651
  0
LINE
  5
257
100
AcDbEntity
  8
0
100
AcDbLine
 62
7
  6
CONTINUOUS
 10
-20.8062185277
 20
-24.6432760061
 11
-22.4547049794
 21
-24.4922020788
  0
LINE
  5
258
100
AcDbEntity
  8
DRAFT
100
AcDbLine
 62
7
  6
CONTINUOUS
 10
8.4675461855
 20
-33.1149224565
 11
-33.5427158308
 21
-24.8193483468
  0
LINE
  5
259
100
AcDbEntity
  8
0
100
AcDbLine
 62
7
  6
CONTINUOUS
 10
0.5869153708
 20
-31.3940421208
 11
-0.1024038349
 21
-31.2579254131
  0
LINE
  5
25A
100
AcDbEntity
  8
0
100
AcDbLine
 62
7
  6
CONTINUOUS
 10
-21.0637197238
 20
-27.1187903293
 11
-21.7530389295
 21
-26.9826736215
  0
LINE
  5
25B
100
AcDbEntity
  8
RACCORDO
100
AcDbLine
 62
253
  6
CONTINUOUS
 10
5.1526700461
 20
-31.9726994781
 11
4.920543507
 21
-31.9268625132
  0
LINE
  5
25C
100
AcDbEntity
  8
RACCORDO
100
AcDbLine
 62
253
  6
CONTINUOUS
 10
0.9957481079
 20
-31.1518511342
 11
-0.1024038349
 21
-30.9350040975
  0
LINE
  5
25D
100
AcDbEntity
  8
RACCORDO
100
AcDbLine
 62
253
  6
CONTINUOUS
 10
-16.4979650485
 20
-27.6974476866
 11
-16.7300915876
 21
-27.6516107216
  0
LINE
  5
25E
100
AcDbEntity
  8
RACCORDO
100
AcDbLine
 62
253
  6
CONTINUOUS
 10
-20.6548869867
 20
-26.8765993426
 11
-21.7530389295
 21
-26.659752306
  0
LINE
  5
25F
100
AcDbEntity
  8
0
100
AcDbLine
 62
7
  6
CONTINUOUS
 10
1.4394085689
 20
-30.8890283339
 11
0.7500893632
 21
-30.7529116262
  0
LINE
  5
260
100
AcDbEntity
  8
0
100
AcDbLine
 62
7
  6
CONTINUOUS
 10
-20.2112265257
 20
-26.6137765424
 11
-20.9005457314
 21
-26.4776598346
  0
LINE
  5
261
100
AcDbEntity
  8
0
100
AcDbLine
 62
7
  6
CONTINUOUS
 10
-27.9290951628
 20
-24.7900364201
 11
-26.7599608677
 21
-25.0209000168
  0
LINE
  5
262
100
AcDbEntity
  8
0
100
AcDbLine
 62
7
  6
CONTINUOUS
 10
-15.6748356993
 20
-27.2098289341
 11
-14.5057014042
 21
-27.4406925308
  0
LINE
  5
263
100
AcDbEntity
  8
0
100
AcDbLine
 62
7
  6
CONTINUOUS
 10
-6.2784600682
 20
-29.0652882116
 11
-5.1093257731
 21
-29.2961518084
  0
LINE
  5
264
100
AcDbEntity
  8
0
100
AcDbLine
 62
7
  6
CONTINUOUS
 10
5.9757993954
 20
-31.4850807257
 11
7.1449336905
 21
-31.7159443224
  0
LINE
  5
265
100
AcDbEntity
  8
0
100
AcDbLine
 62
7
  6
CONTINUOUS
 10
-24.0047049794
 20
-24.8935853488
 11
-21.7530389295
 21
-25.3382115352
  0
LINE
  5
266
100
AcDbEntity
  8
0
100
AcDbLine
 62
7
  6
CONTINUOUS
 10
-18.9817576374
 20
-25.8854437645
 11
-16.7300915876
 21
-26.3300699508
  0
LINE
  5
267
100
AcDbEntity
  8
0
100
AcDbLine
 62
7
  6
CONTINUOUS
 10
-2.3540698848
 20
-29.1688371404
 11
-0.1024038349
 21
-29.6134633267
  0
LINE
  5
268
100
AcDbEntity
  8
0
100
AcDbLine
 62
7
  6
CONTINUOUS
 10
2.6688774572
 20
-30.160695556
 11
4.920543507
 21
-30.6053217424
  0
LINE
  5
269
100
AcDbEntity
  8
0
100
AcDbLine
 62
7
  6
CONTINUOUS
 10
-23.2047049794
 20
-24.9364992779
 11
-20.9530389295
 21
-25.3811254642
  0
LINE
  5
26A
100
AcDbEntity
  8
0
100
AcDbLine
 62
7
  6
CONTINUOUS
 10
-18.1817576374
 20
-25.9283576935
 11
-15.9300915876
 21
-26.3729838799
  0
LINE
  5
26B
100
AcDbEntity
  8
0
100
AcDbLine
 62
7
  6
CONTINUOUS
 10
5.720543507
 20
-30.6482356714
 11
3.4688774572
 21
-30.2036094851
  0
LINE
  5
26C
100
AcDbEntity
  8
0
100
AcDbLine
 62
7
  6
CONTINUOUS
 10
-1.5540698848
 20
-29.2117510695
 11
0.6975961651
 21
-29.6563772558
  0
LINE
  5
26D
100
AcDbEntity
  8
0
100
AcDbLine
 62
7
  6
CONTINUOUS
 10
-29.1058155128
 20
-23.7086164156
 11
-29.286017101
 21
-23.673032833
  0
LINE
  5
26E
100
AcDbEntity
  8
0
100
AcDbLine
 62
7
  6
CONTINUOUS
 10
-22.4547049794
 20
-24.4922020788
 11
-20.2030389295
 21
-24.9368282651
  0
LINE
  5
26F
100
AcDbEntity
  8
0
100
AcDbLine
 62
7
  6
CONTINUOUS
 10
-17.4317576374
 20
-25.4840604945
 11
-15.1800915876
 21
-25.9286866808
  0
LINE
  5
270
100
AcDbEntity
  8
0
100
AcDbLine
 62
7
  6
CONTINUOUS
 10
-0.8040698848
 20
-28.7674538704
 11
1.4475961651
 21
-29.2120800567
  0
LINE
  5
271
100
AcDbEntity
  8
0
100
AcDbLine
 62
7
  6
CONTINUOUS
 10
4.2188774572
 20
-29.759312286
 11
6.470543507
 21
-30.2039384723
  0
LINE
  5
272
100
AcDbEntity
  8
0
100
AcDbLine
 62
7
  6
CONTINUOUS
 10
0.8444165669
 20
-28.9185277977
 11
3.0960826167
 21
-29.363153984
  0
LINE
  5
273
100
AcDbEntity
  8
0
100
AcDbLine
 62
7
  6
CONTINUOUS
 10
5.8673639089
 20
-29.9103862133
 11
8.1190299587
 21
-30.3550123997
  0
LINE
  5
274
100
AcDbEntity
  8
0
100
AcDbLine
 62
7
  6
CONTINUOUS
 10
-13.5316051359
 20
-26.0797606081
 11
-15.7832711858
 21
-25.6351344218
  0
LINE
  5
275
100
AcDbEntity
  8
0
100
AcDbLine
 62
7
  6
CONTINUOUS
 10
-18.5545524779
 20
-25.0879021925
 11
-20.8062185277
 21
-24.6432760061
  0
LINE
  5
276
100
AcDbEntity
  8
RACCORDO
100
AcDbLine
 62
253
  6
CONTINUOUS
 10
8.381865116
 20
-30.2477454236
 11
-3.1542930931
 21
-27.9697530767
  0
LINE
  5
277
100
AcDbEntity
  8
RACCORDO
100
AcDbLine
 62
253
  6
CONTINUOUS
 10
-11.2118304656
 20
-26.3786680606
 11
-24.8049281877
 21
-23.6945012851
  0
LINE
  5
278
100
AcDbEntity
  8
RACCORDO
100
AcDbLine
 62
7
  6
CONTINUOUS
 10
8.3798050812
 20
-30.1677213977
 11
-2.9605684669
 21
-27.9283897514
  0
LINE
  5
279
100
AcDbEntity
  8
RACCORDO
100
AcDbLine
 62
7
  6
CONTINUOUS
 10
-11.111031501
 20
-26.3189551304
 11
-24.6112035615
 21
-23.6531379599
  0
LINE
  5
27A
100
AcDbEntity
  8
RACCORDO
100
AcDbLine
 62
253
  6
CONTINUOUS
 10
-6.0051804182
 20
-27.1248936222
 11
-8.0040353543
 21
-26.7301888891
  0
LINE
  5
27B
100
AcDbEntity
  8
RACCORDO
100
AcDbLine
 62
7
  6
CONTINUOUS
 10
-5.9043814536
 20
-27.065180692
 11
-7.880721757
 21
-26.6749218204
  0
LINE
  5
27C
100
AcDbEntity
  8
DRAFT
100
AcDbLine
 62
7
  6
CONTINUOUS
 10
-4.945508734
 20
-26.178162464
 11
-4.5416587751
 21
-26.2579088665
  0
LINE
  5
27D
100
AcDbEntity
  8
DRAFT
100
AcDbLine
 62
7
  6
CONTINUOUS
 10
-2.6951771659
 20
-26.6225251363
 11
8.3446608852
 21
-28.8025114139
  0
LINE
  5
27E
100
AcDbEntity
  8
RACCORDO
100
AcDbLine
 62
253
  6
CONTINUOUS
 10
-25.9307612126
 20
-21.8277261056
 11
-24.8049281877
 21
-22.0500391987
  0
LINE
  5
27F
100
AcDbEntity
  8
RACCORDO
100
AcDbLine
 62
253
  6
CONTINUOUS
 10
-9.1298683792
 20
-25.1453214958
 11
-8.0040353543
 21
-25.367634589
  0
LINE
  5
280
100
AcDbEntity
  8
RACCORDO
100
AcDbLine
 62
253
  6
CONTINUOUS
 10
-4.280126118
 20
-26.1029778971
 11
-3.1542930931
 21
-26.3252909903
  0
LINE
  5
281
100
AcDbEntity
  8
0
100
AcDbLine
 62
7
  6
CONTINUOUS
 10
-23.1991443483
 20
-25.0526557186
 11
-23.2047049794
 21
-24.9364992779
  0
LINE
  5
282
100
AcDbEntity
  8
0
100
AcDbLine
 62
7
  6
CONTINUOUS
 10
-20.9005457314
 20
-26.4776598346
 11
-20.9530389295
 21
-25.3811254642
  0
LINE
  5
283
100
AcDbEntity
  8
RACCORDO
100
AcDbLine
 62
7
  6
CONTINUOUS
 10
-24.3049281877
 20
-22.6935336868
 11
-24.3049281877
 21
-23.7136167558
  0
LINE
  5
284
100
AcDbEntity
  8
RACCORDO
100
AcDbLine
 62
7
  6
CONTINUOUS
 10
26.8483003206
 20
42.5601645764
 11
25.4824182293
 21
41.7510211265
  0
LINE
  5
285
100
AcDbEntity
  8
RACCORDO
100
AcDbLine
 62
7
  6
CONTINUOUS
 10
24.3483003206
 20
41.9749701977
 11
26.8526635883
 21
43.4174712159
  0
LINE
  5
286
100
AcDbEntity
  8
RACCORDO
100
AcDbLine
 62
7
  6
CONTINUOUS
 10
-25.6687099916
 20
-21.7998549202
 11
-24.6112035615
 21
-22.0086758735
  0
LINE
  5
287
100
AcDbEntity
  8
RACCORDO
100
AcDbLine
 62
7
  6
CONTINUOUS
 10
-8.936143753
 20
-25.1039581706
 11
-7.8786373229
 21
-25.3127791239
  0
LINE
  5
288
100
AcDbEntity
  8
RACCORDO
100
AcDbLine
 62
7
  6
CONTINUOUS
 10
-4.018074897
 20
-26.0751067118
 11
-2.9605684669
 21
-26.2839276651
  0
LINE
  5
289
100
AcDbEntity
  8
DRAFT
100
AcDbLine
 62
7
  6
CONTINUOUS
 10
-4.945508734
 20
-25.2414375631
 11
8.3204238498
 21
-27.8610005365
  0
LINE
  5
28A
100
AcDbEntity
  8
DRAFT
100
AcDbLine
 62
7
  6
CONTINUOUS
 10
-5.2482294579
 20
-24.8548036213
 11
8.3119666749
 21
-27.5324734706
  0
LINE
  5
28B
100
AcDbEntity
  8
0
100
AcDbLine
 62
7
  6
CONTINUOUS
 10
-18.1761970064
 20
-26.0445141343
 11
-18.1817576374
 21
-25.9283576935
  0
LINE
  5
28C
100
AcDbEntity
  8
0
100
AcDbLine
 62
7
  6
CONTINUOUS
 10
-21.7530389295
 20
-25.3382115352
 11
-21.7530389295
 21
-26.9826736215
  0
LINE
  5
28D
100
AcDbEntity
  8
RACCORDO
100
AcDbLine
 62
7
  6
CONTINUOUS
 10
28.6784273395
 20
41.1199198394
 11
31.1827906073
 21
42.5624208576
  0
LINE
  5
28E
100
AcDbEntity
  8
DRAFT
100
AcDbLine
 62
7
  6
CONTINUOUS
 10
-4.945508734
 20
-25.2414375631
 11
-5.2482294579
 21
-24.8548036213
  0
LINE
  5
28F
100
AcDbEntity
  8
DRAFT
100
AcDbLine
 62
7
  6
CONTINUOUS
 10
-13.0235037104
 20
-12.4384543818
 11
-13.0888682535
 21
-12.3541420327
  0
LINE
  5
290
100
AcDbEntity
  8
0
100
AcDbLine
 62
7
  6
CONTINUOUS
 10
-15.8840957775
 20
-27.3337938229
 11
-15.9300915876
 21
-26.3729838799
  0
LINE
  5
291
100
AcDbEntity
  8
0
100
AcDbLine
 62
7
  6
CONTINUOUS
 10
-16.7300915876
 20
-26.3300699508
 11
-16.7300915876
 21
-27.8349585814
  0
LINE
  5
292
100
AcDbEntity
  8
0
100
AcDbLine
 62
7
  6
CONTINUOUS
 10
-14.5057014042
 20
-27.4406925308
 11
-14.5057014042
 21
-28.3299449035
  0
LINE
  5
293
100
AcDbEntity
  8
DRAFT
100
AcDbLine
 62
7
  6
CONTINUOUS
 10
-13.9521585919
 20
-12.1836720419
 11
-13.9521585919
 21
12.6297288519
  0
LINE
  5
294
100
AcDbEntity
  8
DRAFT
100
AcDbLine
 62
7
  6
CONTINUOUS
 10
-13.0888682535
 20
12.4592588611
 11
-13.0888682535
 21
-12.3541420327
  0
LINE
  5
295
100
AcDbEntity
  8
RACCORDO
100
AcDbLine
 62
253
  6
CONTINUOUS
 10
17.8770362605
 20
26.4291553487
 11
22.5037943502
 21
29.1903671547
  0
LINE
  5
296
100
AcDbEntity
  8
RACCORDO
100
AcDbLine
 62
253
  6
CONTINUOUS
 10
22.5037943502
 20
29.1903671547
 11
41.7133363589
 21
40.4830021988
  0
LINE
  5
297
100
AcDbEntity
  8
DRAFT
100
AcDbLine
 62
7
  6
CONTINUOUS
 10
-13.0888682535
 20
-12.3541420327
 11
-13.9521585919
 21
-12.1836720419
  0
LINE
  5
298
100
AcDbEntity
  8
DRAFT
100
AcDbLine
 62
7
  6
CONTINUOUS
 10
-12.8692530112
 20
-12.3432808381
 11
-12.8692530112
 21
12.4158924446
  0
LINE
  5
299
100
AcDbEntity
  8
RACCORDO
100
AcDbLine
 62
7
  6
CONTINUOUS
 10
-9.0587412346
 20
7.7532205386
 11
-9.0587412346
 21
-9.1612466355
  0
LINE
  5
29A
100
AcDbEntity
  8
RACCORDO
100
AcDbLine
 62
7
  6
CONTINUOUS
 10
-8.9087412346
 20
7.7236007253
 11
-8.9087412346
 21
-9.0723871957
  0
LINE
  5
29B
100
AcDbEntity
  8
RACCORDO
100
AcDbLine
 62
253
  6
CONTINUOUS
 10
19.1759699983
 20
24.7631319817
 11
23.8027829925
 21
27.5243765542
  0
LINE
  5
29C
100
AcDbEntity
  8
RACCORDO
100
AcDbLine
 62
253
  6
CONTINUOUS
 10
23.8027829925
 20
27.5243765542
 11
43.0123304289
 21
38.8170035972
  0
LINE
  5
29D
100
AcDbEntity
  8
RACCORDO
100
AcDbLine
 62
7
  6
CONTINUOUS
 10
7.1548531392
 20
15.4168636762
 11
7.1553948372
 21
15.4171630696
  0
LWPOLYLINE
  5
29E
100
AcDbEntity
  8
RACCORDO
100
AcDbPolyline
 62
7
  6
CONTINUOUS
 90
14
 70
0
 10
7.154867794
 20
15.4168715666
 10
7.1738658021
 20
15.4272564346
 10
7.2979817709
 20
15.4894614507
 10
7.4256221534
 20
15.5438515991
 10
7.5563974262
 20
15.5902633538
 10
7.6899735137
 20
15.6285920755
 10
7.8260095086
 20
15.6587458565
 10
7.9640791291
 20
15.6806472891
 10
8.1038279576
 20
15.6942590288
 10
8.2448942102
 20
15.6995654852
 10
8.3868234534
 20
15.6965767668
 10
8.5292143491
 20
15.6853367415
 10
8.6717331612
 20
15.6659081206
 10
8.7527293885
 20
15.6512318434
  0
LINE
  5
29F
100
AcDbEntity
  8
0
100
AcDbLine
 62
7
  6
CONTINUOUS
 10
8.2584006613
 20
13.5932394834
 11
8.8167203982
 21
13.8265981084
  0
LINE
  5
2A0
100
AcDbEntity
  8
RACCORDO
100
AcDbLine
 62
7
  6
CONTINUOUS
 10
-8.1927158308
 20
-10.271949328
 11
8.1499552684
 21
-13.4990617702
  0
LINE
  5
2A1
100
AcDbEntity
  8
RACCORDO
100
AcDbLine
 62
7
  6
CONTINUOUS
 10
-8.0427158308
 20
-10.1830898882
 11
8.1496217021
 21
-13.3805166493
  0
LINE
  5
2A2
100
AcDbEntity
  8
RACCORDO
100
AcDbLine
 62
253
  6
CONTINUOUS
 10
-8.0040353543
 20
-25.367634589
 11
-8.0040353543
 21
-26.7301888891
  0
LINE
  5
2A3
100
AcDbEntity
  8
RACCORDO
100
AcDbLine
 62
7
  6
CONTINUOUS
 10
-7.8700607581
 20
-25.3246002427
 11
-7.8700607581
 21
-26.6749218204
  0
LINE
  5
2A4
100
AcDbEntity
  8
0
100
AcDbLine
 62
7
  6
CONTINUOUS
 10
-7.6420807362
 20
43.1979620771
 11
-7.6420807362
 21
41.8611481598
  0
LINE
  5
2A5
100
AcDbEntity
  8
RACCORDO
100
AcDbLine
 62
253
  6
CONTINUOUS
 10
-7.6420807362
 20
43.1979620773
 11
-7.6420807355
 21
43.1979151527
  0
LINE
  5
2A6
100
AcDbEntity
  8
0
100
AcDbLine
 62
7
  6
CONTINUOUS
 10
-5.4920807362
 20
45.4570923204
 11
-5.4920807362
 21
45.0561030705
  0
LINE
  5
2A7
100
AcDbEntity
  8
DRAFT
100
AcDbLine
 62
7
  6
CONTINUOUS
 10
-5.2482294579
 20
-24.8548036213
 11
-5.2482294579
 21
-16.3919096844
  0
LINE
  5
2A8
100
AcDbEntity
  8
0
100
AcDbLine
 62
7
  6
CONTINUOUS
 10
-5.1093257731
 20
-29.2961518084
 11
-5.1093257731
 21
-30.4339597082
  0
LINE
  5
2A9
100
AcDbEntity
  8
DRAFT
100
AcDbLine
 62
7
  6
CONTINUOUS
 10
-4.945508734
 20
-26.178162464
 11
-4.945508734
 21
-25.2414375631
  0
LINE
  5
2AA
100
AcDbEntity
  8
0
100
AcDbLine
 62
7
  6
CONTINUOUS
 10
7.1334466588
 20
14.8376259877
 11
8.0787036647
 21
15.610418307
  0
LINE
  5
2AB
100
AcDbEntity
  8
ASSI
100
AcDbLine
 62
7
  6
CONTINUOUS
 10
-1.6738793236
 20
7.1333276066
 11
-1.8238793236
 21
7.0444681668
  0
LINE
  5
2AC
100
AcDbEntity
  8
0
100
AcDbLine
 62
7
  6
CONTINUOUS
 10
8.9417278744
 20
11.7699769669
 11
8.2584006122
 21
11.3913424642
  0
LINE
  5
2AD
100
AcDbEntity
  8
0
100
AcDbLine
 62
7
  6
CONTINUOUS
 10
9.98182248
 20
10.029398814
 11
11.0739740692
 21
10.4710350392
  0
LINE
  5
2AE
100
AcDbEntity
  8
0
100
AcDbLine
 62
7
  6
CONTINUOUS
 10
-1.5485092537
 20
-29.3279075102
 11
-1.5540698848
 21
-29.2117510695
  0
LINE
  5
2AF
100
AcDbEntity
  8
0
100
AcDbLine
 62
7
  6
CONTINUOUS
 10
0.7500893632
 20
-30.7529116262
 11
0.6975961651
 21
-29.6563772558
  0
LINE
  5
2B0
100
AcDbEntity
  8
0
100
AcDbLine
 62
7
  6
CONTINUOUS
 10
-3.7420807362
 20
47.1863075235
 11
-3.7420807362
 21
46.7475497879
  0
LINE
  5
2B1
100
AcDbEntity
  8
RACCORDO
100
AcDbLine
 62
7
  6
CONTINUOUS
 10
-2.6542930931
 20
-26.9687854784
 11
-2.6542930931
 21
-27.9888685473
  0
LINE
  5
2B2
100
AcDbEntity
  8
0
100
AcDbLine
 62
7
  6
CONTINUOUS
 10
-1.9920807362
 20
48.8525752555
 11
-1.9920807362
 21
48.4389965053
  0
LINE
  5
2B3
100
AcDbEntity
  8
0
100
AcDbLine
 62
7
  6
CONTINUOUS
 10
-0.1024038349
 20
-29.6134633267
 11
-0.1024038349
 21
-31.2579254131
  0
LINE
  5
2B4
100
AcDbEntity
  8
0
100
AcDbLine
 62
7
  6
CONTINUOUS
 10
-36.1678235304
 20
-27.3552719516
 11
-35.299367626
 21
-26.6452681659
  0
LINE
  5
2B5
100
AcDbEntity
  8
0
100
AcDbLine
 62
7
  6
CONTINUOUS
 10
3.4744380882
 20
-30.3197659259
 11
3.4688774572
 21
-30.2036094851
  0
LINE
  5
2B6
100
AcDbEntity
  8
0
100
AcDbLine
 62
7
  6
CONTINUOUS
 10
5.7665393171
 20
-31.6090456145
 11
5.720543507
 21
-30.6482356714
  0
LINE
  5
2B7
100
AcDbEntity
  8
0
100
AcDbLine
 62
7
  6
CONTINUOUS
 10
2.2579192638
 20
50.4491488517
 11
2.2579192638
 21
50.1304432227
  0
LINE
  5
2B8
100
AcDbEntity
  8
0
100
AcDbLine
 62
7
  6
CONTINUOUS
 10
4.920543507
 20
-30.6053217424
 11
4.920543507
 21
-32.110210373
  0
LINE
  5
2B9
100
AcDbEntity
  8
DRAFT
100
AcDbLine
 62
7
  6
CONTINUOUS
 10
-10.2160942077
 20
-10.7062670253
 11
-27.5190298029
 21
-21.3822750104
  0
LINE
  5
2BA
100
AcDbEntity
  8
RACCORDO
100
AcDbLine
 62
7
  6
CONTINUOUS
 10
-33.5427158308
 20
-24.8193483468
 11
-34.8360797953
 21
-25.596736675
  0
LINE
  5
2BB
100
AcDbEntity
  8
DRAFT
100
AcDbLine
 62
7
  6
CONTINUOUS
 10
-13.9521585919
 20
-12.1836720419
 11
-27.5190298029
 21
-20.2566307962
  0
LINE
  5
2BC
100
AcDbEntity
  8
RACCORDO
100
AcDbLine
 62
253
  6
CONTINUOUS
 10
-9.0587412346
 20
-9.1612466355
 11
-8.9087412346
 21
-9.0723871957
  0
LINE
  5
2BD
100
AcDbEntity
  8
RACCORDO
100
AcDbLine
 62
253
  6
CONTINUOUS
 10
-8.1927158308
 20
-10.271949328
 11
-8.0427158308
 21
-10.1830898882
  0
LINE
  5
2BE
100
AcDbEntity
  8
RACCORDO
100
AcDbLine
 62
7
  6
CONTINUOUS
 10
-29.286017101
 20
-23.2035221442
 11
-27.586017101
 21
-22.1964484929
  0
LINE
  5
2BF
100
AcDbEntity
  8
0
100
AcDbLine
 62
7
  6
CONTINUOUS
 10
7.1449336905
 20
-31.7159443224
 11
7.1449336905
 21
-32.6051966951
  0
LWPOLYLINE
  5
2C0
100
AcDbEntity
  8
RACCORDO
100
AcDbPolyline
 62
7
  6
CONTINUOUS
 90
13
 70
0
 10
8.5030480821
 20
8.1997324746
 10
8.4015024502
 20
4.8373537369
 10
8.3107113659
 20
1.1998675825
 10
8.2400801703
 20
-2.4269040374
 10
8.1896183927
 20
-6.0425299445
 10
8.1593310504
 20
-9.6465817386
 10
8.1492224597
 20
-13.2386310733
 10
8.1592949106
 20
-16.818249592
 10
8.1895461159
 20
-20.3850120766
 10
8.2399732089
 20
-23.9384949707
 10
8.3105714488
 20
-27.4782745755
 10
8.4013313388
 20
-31.003929508
 10
8.5031491362
 20
-34.2499787418
  0
LINE
  5
2C1
100
AcDbEntity
  8
0
100
AcDbLine
 62
7
  6
CONTINUOUS
 10
-29.286017101
 20
-23.673032833
 11
-31.8014781698
 21
-25.163182576
  0
LINE
  5
2C2
100
AcDbEntity
  8
RACCORDO
100
AcDbLine
 62
7
  6
CONTINUOUS
 10
-25.9307612126
 20
-21.8277261056
 11
-31.6212765816
 21
-25.1987661586
  0
LINE
  5
2C3
100
AcDbEntity
  8
RACCORDO
100
AcDbLine
 62
7
  6
CONTINUOUS
 10
-24.8049281877
 20
-22.0500391987
 11
-30.4954435567
 21
-25.4210792518
  0
LINE
  5
2C4
100
AcDbEntity
  8
0
100
AcDbLine
 62
7
  6
CONTINUOUS
 10
-27.9290951628
 20
-24.7900364201
 11
-29.3696105318
 21
-25.643392345
  0
LINE
  5
2C5
100
AcDbEntity
  8
RACCORDO
100
AcDbLine
 62
7
  6
CONTINUOUS
 10
-24.8049281877
 20
-23.6945012851
 11
-26.9729661014
 21
-24.9788388485
  0
LINE
  5
2C6
100
AcDbEntity
  8
0
100
AcDbLine
 62
7
  6
CONTINUOUS
 10
-26.7599608677
 20
-25.0209000168
 11
-28.2004762367
 21
-25.8742559417
  0
LINE
  5
2C7
100
AcDbEntity
  8
0
100
AcDbLine
 62
7
  6
CONTINUOUS
 10
-24.0047049794
 20
-24.8935853488
 11
-26.2952203483
 21
-26.2504780994
  0
LWPOLYLINE
  5
2C8
100
AcDbEntity
  8
RACCORDO
100
AcDbPolyline
 62
7
  6
CONTINUOUS
 90
12
 70
0
 10
-36.3749608071
 20
-26.9023088879
 10
-36.2593102443
 20
-26.8432919341
 10
-36.1245463026
 20
-26.7859089838
 10
-35.9849908294
 20
-26.7380730157
 10
-35.8411073426
 20
-26.6999214724
 10
-35.6935053731
 20
-26.671585292
 10
-35.5426809587
 20
-26.653115133
 10
-35.3891546869
 20
-26.6445299387
 10
-35.2336254684
 20
-26.6458086965
 10
-35.0766974584
 20
-26.6568611391
 10
-34.9188490179
 20
-26.6775684709
 10
-34.8223416445
 20
-26.694876663
  0
LINE
  5
2C9
100
AcDbEntity
  8
ASSI
100
AcDbLine
 62
7
  6
CONTINUOUS
 10
-3.8625888119
 20
6.7271601086
 11
-9.0587412346
 21
7.7532205386
  0
LINE
  5
2CA
100
AcDbEntity
  8
0
100
AcDbLine
 62
7
  6
CONTINUOUS
 10
10.4579192638
 20
50.4491488517
 11
10.4579192638
 21
50.1304432227
  0
LINE
  5
2CB
100
AcDbEntity
  8
RACCORDO
100
AcDbLine
 62
7
  6
CONTINUOUS
 10
-32.8047163845
 20
-32.4252777841
 11
-32.8053670827
 21
-32.4256900685
  0
LINE
  5
2CC
100
AcDbEntity
  8
0
100
AcDbLine
 62
7
  6
CONTINUOUS
 10
-22.4547049794
 20
-24.4922020788
 11
-23.2047049794
 21
-24.9364992779
  0
LINE
  5
2CD
100
AcDbEntity
  8
0
100
AcDbLine
 62
7
  6
CONTINUOUS
 10
-21.7530389295
 20
-25.3382115352
 11
-24.0435542985
 21
-26.6951042857
  0
LINE
  5
2CE
100
AcDbEntity
  8
0
100
AcDbLine
 62
7
  6
CONTINUOUS
 10
-20.2030389295
 20
-24.9368282651
 11
-20.9530389295
 21
-25.3811254642
  0
LINE
  5
2CF
100
AcDbEntity
  8
0
100
AcDbLine
 62
7
  6
CONTINUOUS
 10
-21.9615922121
 20
-27.1062198073
 11
-21.7530389295
 21
-26.9826736215
  0
LINE
  5
2D0
100
AcDbEntity
  8
0
100
AcDbLine
 62
7
  6
CONTINUOUS
 10
-18.5545524779
 20
-25.0879021925
 11
-20.9005457314
 21
-26.4776598346
  0
LINE
  5
2D1
100
AcDbEntity
  8
0
100
AcDbLine
 62
7
  6
CONTINUOUS
 10
-18.9817576374
 20
-25.8854437645
 11
-21.2722730064
 21
-27.242336515
  0
LINE
  5
2D2
100
AcDbEntity
  8
0
100
AcDbLine
 62
7
  6
CONTINUOUS
 10
-17.4317576374
 20
-25.4840604945
 11
-18.1817576374
 21
-25.9283576935
  0
LINE
  5
2D3
100
AcDbEntity
  8
0
100
AcDbLine
 62
7
  6
CONTINUOUS
 10
-34.3595423148
 20
-30.4229209724
 11
-35.0428695771
 21
-30.8015554751
  0
LINE
  5
2D4
100
AcDbEntity
  8
0
100
AcDbLine
 62
7
  6
CONTINUOUS
 10
-35.0428695279
 20
-28.5996584559
 11
-34.4845497911
 21
-28.3662998309
  0
LINE
  5
2D5
100
AcDbEntity
  8
RACCORDO
100
AcDbLine
 62
7
  6
CONTINUOUS
 10
-34.895207608
 20
16.76525686
 11
8.5022630649
 21
8.1957570078
  0
LINE
  5
2D6
100
AcDbEntity
  8
RACCORDO
100
AcDbLine
 62
253
  6
CONTINUOUS
 10
-35.1751058789
 20
16.9921420758
 11
8.6350207782
 21
8.3411569356
  0
LINE
  5
2D7
100
AcDbEntity
  8
0
100
AcDbLine
 62
7
  6
CONTINUOUS
 10
6.8008359024
 20
12.766284197
 11
8.8605456505
 21
12.3595627427
  0
LINE
  5
2D8
100
AcDbEntity
  8
0
100
AcDbLine
 62
7
  6
CONTINUOUS
 10
9.6465630663
 20
12.2043514822
 11
11.4653466629
 21
11.8452046121
  0
LINE
  5
2D9
100
AcDbEntity
  8
0
100
AcDbLine
 62
7
  6
CONTINUOUS
 10
14.7079192638
 20
48.8525752555
 11
14.7079192638
 21
48.4389965053
  0
LINE
  5
2DA
100
AcDbEntity
  8
0
100
AcDbLine
 62
7
  6
CONTINUOUS
 10
16.4579192638
 20
47.1863075235
 11
16.4579192638
 21
46.7475497879
  0
LINE
  5
2DB
100
AcDbEntity
  8
0
100
AcDbLine
 62
7
  6
CONTINUOUS
 10
18.2079192638
 20
45.4570923204
 11
18.2079192638
 21
45.0561030705
  0
LINE
  5
2DC
100
AcDbEntity
  8
RACCORDO
100
AcDbLine
 62
253
  6
CONTINUOUS
 10
18.2079191668
 20
45.4565737043
 11
18.2079192638
 21
45.4570923208
  0
LINE
  5
2DD
100
AcDbEntity
  8
RACCORDO
100
AcDbLine
 62
253
  6
CONTINUOUS
 10
14.7079190442
 20
48.8519202692
 11
14.7079192638
 21
48.8525752559
  0
LINE
  5
2DE
100
AcDbEntity
  8
RACCORDO
100
AcDbLine
 62
253
  6
CONTINUOUS
 10
16.4579135543
 20
47.1826344616
 11
16.4579192638
 21
47.186307524
  0
LINE
  5
2DF
100
AcDbEntity
  8
0
100
AcDbLine
 62
7
  6
CONTINUOUS
 10
-16.7300915876
 20
-26.3300699508
 11
-19.0206069565
 21
-27.6869627013
  0
LINE
  5
2E0
100
AcDbEntity
  8
0
100
AcDbLine
 62
7
  6
CONTINUOUS
 10
-15.1800915876
 20
-25.9286866808
 11
-15.9300915876
 21
-26.3729838799
  0
LINE
  5
2E1
100
AcDbEntity
  8
0
100
AcDbLine
 62
7
  6
CONTINUOUS
 10
-15.6748356993
 20
-27.2098289341
 11
-17.1153510682
 21
-28.063184859
  0
LINE
  5
2E2
100
AcDbEntity
  8
0
100
AcDbLine
 62
7
  6
CONTINUOUS
 10
-13.5316051359
 20
-26.0797606081
 11
-15.4981295012
 21
-27.244722298
  0
LINE
  5
2E3
100
AcDbEntity
  8
0
100
AcDbLine
 62
7
  6
CONTINUOUS
 10
-14.5057014042
 20
-27.4406925308
 11
-15.9462167731
 21
-28.2940484557
  0
LINE
  5
2E4
100
AcDbEntity
  8
RACCORDO
100
AcDbLine
 62
7
  6
CONTINUOUS
 10
-9.1298683792
 20
-25.1453214958
 11
-14.8203837482
 21
-28.5163615489
  0
LINE
  5
2E5
100
AcDbEntity
  8
RACCORDO
100
AcDbLine
 62
7
  6
CONTINUOUS
 10
-8.0040353543
 20
-25.367634589
 11
-13.6945507233
 21
-28.7386746421
  0
LINE
  5
2E6
100
AcDbEntity
  8
0
100
AcDbLine
 62
7
  6
CONTINUOUS
 10
-33.3194477093
 20
-32.1634991253
 11
-32.1875388726
 21
-31.7057861569
  0
LWPOLYLINE
  5
2E7
100
AcDbEntity
  8
RACCORDO
100
AcDbPolyline
 62
7
  6
CONTINUOUS
 90
48
 70
0
 10
8.7527166084
 20
15.651234266
 10
8.8395486977
 20
15.6325704302
 10
8.9925896195
 20
15.5922430532
 10
9.1445607729
 20
15.5426810107
 10
9.2949771992
 20
15.4840574911
 10
9.4434047385
 20
15.4165567384
 10
9.5894701555
 20
15.3403588707
 10
9.7327245137
 20
15.2557015749
 10
9.872728978
 20
15.1628520345
 10
10.0091323796
 20
15.062047345
 10
10.1415118861
 20
14.9535961369
 10
10.2694630512
 20
14.837834924
 10
10.3926660754
 20
14.7150463029
 10
10.5107467879
 20
14.5855953874
 10
10.6233329627
 20
14.4498803688
 10
10.730126243
 20
14.3082510846
 10
10.8308078938
 20
14.1611105643
 10
10.9250478494
 20
14.0089222216
 10
11.0125570284
 20
13.8521447322
 10
11.0930639912
 20
13.6912501776
 10
11.1663211248
 20
13.5267334892
 10
11.2321005344
 20
13.3591033242
 10
11.2901982868
 20
13.1888829159
 10
11.3404493937
 20
13.0165907669
 10
11.3827018325
 20
12.8427341862
 10
11.4168361293
 20
12.6678548241
 10
11.4427587781
 20
12.492488165
 10
11.4603908661
 20
12.3171372117
 10
11.4696938642
 20
12.1423552014
 10
11.4706523546
 20
11.968672096
 10
11.4632561583
 20
11.79655698
 10
11.4475426756
 20
11.6265624345
 10
11.4235719635
 20
11.4591915783
 10
11.3913849954
 20
11.2948376581
 10
11.3510772865
 20
11.1340088685
 10
11.3027726115
 20
10.977205436
 10
11.2465591773
 20
10.8248069989
 10
11.1825768549
 20
10.6772503075
 10
11.1110194074
 20
10.5350477281
 10
11.0320918385
 20
10.3986644162
 10
10.9460159679
 20
10.2685064827
 10
10.8530437721
 20
10.1450004072
 10
10.7534890509
 20
10.0285720456
 10
10.6476414561
 20
9.9195733477
 10
10.5358077627
 20
9.8183234741
 10
10.4183478153
 20
9.725154388
 10
10.2956041535
 20
9.6403340984
 10
10.2825412576
 20
9.6319969653
  0
LINE
  5
2E8
100
AcDbEntity
  8
0
100
AcDbLine
 62
7
  6
CONTINUOUS
 10
20.3579192638
 20
43.1979620771
 11
20.3579192638
 21
41.8611481598
  0
LINE
  5
2E9
100
AcDbEntity
  8
DRAFT
100
AcDbLine
 62
7
  6
CONTINUOUS
 10
-6.3036693468
 20
-26.9863351398
 11
-4.945508734
 21
-26.178162464
  0
LINE
  5
2EA
100
AcDbEntity
  8
RACCORDO
100
AcDbLine
 62
7
  6
CONTINUOUS
 10
-8.0040353543
 20
-26.7301888891
 11
-11.9694964231
 21
-29.0793132171
  0
LINE
  5
2EB
100
AcDbEntity
  8
RACCORDO
100
AcDbLine
 62
7
  6
CONTINUOUS
 10
-4.280126118
 20
-26.1029778971
 11
-9.970641487
 21
-29.4740179502
  0
LINE
  5
2EC
100
AcDbEntity
  8
RACCORDO
100
AcDbLine
 62
7
  6
CONTINUOUS
 10
-3.1542930931
 20
-26.3252909903
 11
-8.8448084621
 21
-29.6963310434
  0
LINE
  5
2ED
100
AcDbEntity
  8
0
100
AcDbLine
 62
7
  6
CONTINUOUS
 10
-6.2784600682
 20
-29.0652882116
 11
-7.7189754372
 21
-29.9186441365
  0
LINE
  5
2EE
100
AcDbEntity
  8
RACCORDO
100
AcDbLine
 62
7
  6
CONTINUOUS
 10
-5.3223310067
 20
-29.2540906401
 11
-3.1542930931
 21
-27.9697530767
  0
LINE
  5
2EF
100
AcDbEntity
  8
0
100
AcDbLine
 62
7
  6
CONTINUOUS
 10
-5.1093257731
 20
-29.2961518084
 11
-6.5498411421
 21
-30.1495077333
  0
LINE
  5
2F0
100
AcDbEntity
  8
RACCORDO
100
AcDbLine
 62
7
  6
CONTINUOUS
 10
23.8027829925
 20
27.5243765542
 11
23.8027829925
 21
-47.6511404505
  0
LINE
  5
2F1
100
AcDbEntity
  8
RACCORDO
100
AcDbLine
 62
7
  6
CONTINUOUS
 10
27.3483003206
 20
42.5410491057
 11
27.3483003206
 21
42.771427725
  0
LINE
  5
2F2
100
AcDbEntity
  8
0
100
AcDbLine
 62
7
  6
CONTINUOUS
 10
-2.3540698848
 20
-29.1688371404
 11
-4.6445852537
 21
-30.5257298909
  0
LINE
  5
2F3
100
AcDbEntity
  8
0
100
AcDbLine
 62
7
  6
CONTINUOUS
 10
-0.8040698848
 20
-28.7674538704
 11
-1.5540698848
 21
-29.2117510695
  0
LINE
  5
2F4
100
AcDbEntity
  8
0
100
AcDbLine
 62
7
  6
CONTINUOUS
 10
-0.1024038349
 20
-29.6134633267
 11
-2.3929192039
 21
-30.9703560773
  0
LINE
  5
2F5
100
AcDbEntity
  8
0
100
AcDbLine
 62
7
  6
CONTINUOUS
 10
1.4475961651
 20
-29.2120800567
 11
0.6975961651
 21
-29.6563772558
  0
LINE
  5
2F6
100
AcDbEntity
  8
0
100
AcDbLine
 62
7
  6
CONTINUOUS
 10
-0.3109571175
 20
-31.3814715988
 11
-0.1024038349
 21
-31.2579254131
  0
LINE
  5
2F7
100
AcDbEntity
  8
0
100
AcDbLine
 62
7
  6
CONTINUOUS
 10
3.0960826167
 20
-29.363153984
 11
0.7500893632
 21
-30.7529116262
  0
LINE
  5
2F8
100
AcDbEntity
  8
0
100
AcDbLine
 62
7
  6
CONTINUOUS
 10
2.6688774572
 20
-30.160695556
 11
0.3783620882
 21
-31.5175883066
  0
LINE
  5
2F9
100
AcDbEntity
  8
RACCORDO
100
AcDbLine
 62
253
  6
CONTINUOUS
 10
15.3866878019
 20
20.7720879684
 11
-40.7151262939
 21
31.8502563612
  0
LINE
  5
2FA
100
AcDbEntity
  8
0
100
AcDbLine
 62
7
  6
CONTINUOUS
 10
4.2188774572
 20
-29.759312286
 11
3.4688774572
 21
-30.2036094851
  0
LINE
  5
2FB
100
AcDbEntity
  8
0
100
AcDbLine
 62
7
  6
CONTINUOUS
 10
4.920543507
 20
-30.6053217424
 11
2.6300281381
 21
-31.9622144929
  0
LINE
  5
2FC
100
AcDbEntity
  8
0
100
AcDbLine
 62
7
  6
CONTINUOUS
 10
6.470543507
 20
-30.2039384723
 11
5.720543507
 21
-30.6482356714
  0
LINE
  5
2FD
100
AcDbEntity
  8
0
100
AcDbLine
 62
7
  6
CONTINUOUS
 10
5.9757993954
 20
-31.4850807257
 11
4.5352840264
 21
-32.3384366506
  0
LINE
  5
2FE
100
AcDbEntity
  8
0
100
AcDbLine
 62
7
  6
CONTINUOUS
 10
8.1190299587
 20
-30.3550123997
 11
6.1525055934
 21
-31.5199740896
  0
LINE
  5
2FF
100
AcDbEntity
  8
0
100
AcDbLine
 62
7
  6
CONTINUOUS
 10
7.1449336905
 20
-31.7159443224
 11
5.7044183215
 21
-32.5693002473
  0
LINE
  5
300
100
AcDbEntity
  8
RACCORDO
100
AcDbLine
 62
7
  6
CONTINUOUS
 10
8.4277216471
 20
-31.8452779002
 11
6.8302513464
 21
-32.7916133405
  0
LINE
  5
301
100
AcDbEntity
  8
RACCORDO
100
AcDbLine
 62
253
  6
CONTINUOUS
 10
17.8770362605
 20
26.4291553487
 11
-38.2769262225
 21
37.5176212405
  0
LINE
  5
302
100
AcDbEntity
  8
RACCORDO
100
AcDbLine
 62
7
  6
CONTINUOUS
 10
8.4551057074
 20
-32.7183080578
 11
7.9560843713
 21
-33.0139264336
  0
LINE
  5
303
100
AcDbEntity
  8
ASSI
100
AcDbLine
 62
7
  6
CONTINUOUS
 10
0.9335763341
 20
-41.0864205065
 11
0.8582669451
 21
-41.1310335073
  0
LINE
  5
304
100
AcDbEntity
  8
ASSI
100
AcDbLine
 62
7
  6
CONTINUOUS
 10
1.4185748089
 20
-41.1821909349
 11
1.3432654199
 21
-41.2268039357
  0
LINE
  5
305
100
AcDbEntity
  8
RACCORDO
100
AcDbLine
 62
7
  6
CONTINUOUS
 10
22.5037943502
 20
29.1903671547
 11
-33.7879558226
 21
40.3060413474
  0
LINE
  5
306
100
AcDbEntity
  8
ASSI
100
AcDbLine
 62
7
  6
CONTINUOUS
 10
2.4907497658
 20
-41.3939084151
 11
2.4154403768
 21
-41.4385214159
  0
LINE
  5
307
100
AcDbEntity
  8
ASSI
100
AcDbLine
 62
7
  6
CONTINUOUS
 10
2.9757482407
 20
-41.4896788435
 11
2.9004388517
 21
-41.5342918443
  0
LINE
  5
308
100
AcDbEntity
  8
ASSI
100
AcDbLine
 62
7
  6
CONTINUOUS
 10
3.299074495
 20
-41.5535245987
 11
3.2237651061
 21
-41.5981375995
  0
LINE
  5
309
100
AcDbEntity
  8
ASSI
100
AcDbLine
 62
7
  6
CONTINUOUS
 10
3.7840669077
 20
-41.64929383
 11
3.7087575187
 21
-41.6939068308
  0
LINE
  5
30A
100
AcDbEntity
  8
ASSI
100
AcDbLine
 62
7
  6
CONTINUOUS
 10
4.2690411338
 20
-41.7450594702
 11
4.1937317448
 21
-41.7896724709
  0
LINE
  5
30B
100
AcDbEntity
  8
ASSI
100
AcDbLine
 62
7
  6
CONTINUOUS
 10
5.0022191067
 20
-41.8898367678
 11
4.9269097177
 21
-41.9344497686
  0
LINE
  5
30C
100
AcDbEntity
  8
ASSI
100
AcDbLine
 62
7
  6
CONTINUOUS
 10
2.2548005377
 20
-43.9330498868
 11
2.3301674183
 21
-43.8884028282
  0
LINE
  5
30D
100
AcDbEntity
  8
ASSI
100
AcDbLine
 62
7
  6
CONTINUOUS
 10
5.9078963496
 20
-42.0686767066
 11
5.8325869606
 21
-42.1132897074
  0
LINE
  5
30E
100
AcDbEntity
  8
ASSI
100
AcDbLine
 62
7
  6
CONTINUOUS
 10
6.6410743225
 20
-42.2134540043
 11
6.5657649335
 21
-42.2580670051
  0
LINE
  5
30F
100
AcDbEntity
  8
ASSI
100
AcDbLine
 62
7
  6
CONTINUOUS
 10
3.8416968273
 20
-44.246407032
 11
3.9170637079
 21
-44.2017599735
  0
LINE
  5
310
100
AcDbEntity
  8
ASSI
100
AcDbLine
 62
7
  6
CONTINUOUS
 10
7.742971819
 20
-42.4310343318
 11
7.6676624301
 21
-42.4756473325
  0
LINE
  5
311
100
AcDbEntity
  8
ASSI
100
AcDbLine
 62
7
  6
CONTINUOUS
 10
4.8116695283
 20
-44.4379431006
 11
4.8870364089
 21
-44.393296042
  0
LINE
  5
312
100
AcDbEntity
  8
ASSI
100
AcDbLine
 62
7
  6
CONTINUOUS
 10
8.2279884803
 20
-42.5268083515
 11
8.1526790915
 21
-42.5714213522
  0
LWPOLYLINE
  5
313
100
AcDbEntity
  8
RACCORDO
100
AcDbPolyline
 62
7
  6
CONTINUOUS
 90
49
 70
0
 10
43.1419746236
 20
38.9854321948
 10
43.1417209798
 20
39.0131082867
 10
43.1402366037
 20
39.0579656411
 10
43.1374241193
 20
39.1028656962
 10
43.1332808945
 20
39.1477946701
 10
43.1278074681
 20
39.1927083223
 10
43.1210105305
 20
39.2375298699
 10
43.1128920678
 20
39.282237533
 10
43.1034545145
 20
39.3268017145
 10
43.0927136218
 20
39.3711370504
 10
43.0806741992
 20
39.4152231089
 10
43.0673407138
 20
39.4590335485
 10
43.0527393532
 20
39.5024789029
 10
43.0368778156
 20
39.5455384366
 10
43.0197619752
 20
39.5881899765
 10
43.0014266822
 20
39.6303469659
 10
42.9818809339
 20
39.671990238
 10
42.9611326925
 20
39.7130994038
 10
42.9392245385
 20
39.7535909862
 10
42.9161670947
 20
39.7934462886
 10
42.8919701918
 20
39.8326470997
 10
42.8666822878
 20
39.8711148085
 10
42.84031545
 20
39.9088323361
 10
42.8128816252
 20
39.945781791
 10
42.7844362991
 20
39.9818877398
 10
42.7549944892
 20
40.0171337119
 10
42.7245694948
 20
40.0515028569
 10
42.6932232219
 20
40.0849253735
 10
42.6609734917
 20
40.1173856594
 10
42.6278357582
 20
40.1488674692
 10
42.5938782865
 20
40.1793078486
 10
42.5591242103
 20
40.2086900884
 10
42.5235898546
 20
40.2370012271
 10
42.487342138
 20
40.2641912668
 10
42.4504069097
 20
40.2902447163
 10
42.4128041383
 20
40.3151497389
 10
42.3745990237
 20
40.3388671001
 10
42.3358186468
 20
40.3613839259
 10
42.2964884452
 20
40.3826889007
 10
42.2566774825
 20
40.4027492838
 10
42.2164203717
 20
40.4215529925
 10
42.1757429498
 20
40.439093621
 10
42.1347068355
 20
40.455350358
 10
42.0933478671
 20
40.4703151708
 10
42.0516958531
 20
40.483983782
 10
42.0098083927
 20
40.4963437522
 10
41.9677303282
 20
40.5073894368
 10
41.9254934498
 20
40.5171210972
 10
41.9027112654
 20
40.5218137767
  0
LINE
  5
314
100
AcDbEntity
  8
RACCORDO
100
AcDbLine
 62
253
  6
CONTINUOUS
 10
43.0123304289
 20
38.8170035972
 11
43.0123304289
 21
-35.7187127488
  0
LINE
  5
315
100
AcDbEntity
  8
RACCORDO
100
AcDbLine
 62
7
  6
CONTINUOUS
 10
43.141974733
 20
38.9854293032
 11
43.141974733
 21
-35.5502998619
  0
LINE
  5
316
100
AcDbEntity
  8
ASSI
100
AcDbLine
 62
7
  6
CONTINUOUS
 10
5.7551804765
 20
-44.6242475838
 11
5.8305473569
 21
-44.5796005253
  0
LINE
  5
317
100
AcDbEntity
  8
ASSI
100
AcDbLine
 62
7
  6
CONTINUOUS
 10
9.3298984195
 20
-42.7443974624
 11
9.2545890307
 21
-42.7890104631
  0
LINE
  5
318
100
AcDbEntity
  8
ASSI
100
AcDbLine
 62
7
  6
CONTINUOUS
 10
7.7553266554
 20
-44.04348305
 11
7.830670714
 21
-43.9988495111
  0
LINE
  5
319
100
AcDbEntity
  8
ASSI
100
AcDbLine
 62
7
  6
CONTINUOUS
 10
6.6987103043
 20
-44.8105684034
 11
6.7740771849
 21
-44.7659213448
  0
LINE
  5
31A
100
AcDbEntity
  8
ASSI
100
AcDbLine
 62
7
  6
CONTINUOUS
 10
10.4655868135
 20
-42.9686566502
 11
10.3902773111
 21
-43.0132697182
  0
LINE
  5
31B
100
AcDbEntity
  8
ASSI
100
AcDbLine
 62
7
  6
CONTINUOUS
 10
7.5070286248
 20
-44.9701770174
 11
7.5823955052
 21
-44.9255299589
  0
LINE
  5
31C
100
AcDbEntity
  8
ASSI
100
AcDbLine
 62
7
  6
CONTINUOUS
 10
9.8637912704
 20
-43.9330029948
 11
9.7884578669
 21
-43.9776302217
  0
LINE
  5
31D
100
AcDbEntity
  8
ASSI
100
AcDbLine
 62
7
  6
CONTINUOUS
 10
10.4538516171
 20
-44.04951951
 11
10.3785183079
 21
-44.094146681
  0
LINE
  5
31E
100
AcDbEntity
  8
ASSI
100
AcDbLine
 62
7
  6
CONTINUOUS
 10
9.0642084652
 20
-45.2776724956
 11
9.1395753458
 21
-45.233025437
  0
LINE
  5
31F
100
AcDbEntity
  8
ASSI
100
AcDbLine
 62
7
  6
CONTINUOUS
 10
9.8725328479
 20
-45.4372823066
 11
9.9478997283
 21
-45.3926352481
  0
LINE
  5
320
100
AcDbEntity
  8
ASSI
100
AcDbLine
 62
7
  6
CONTINUOUS
 10
11.3281705167
 20
-45.7247141088
 11
11.403537397
 21
-45.6800670504
  0
LWPOLYLINE
  5
321
100
AcDbEntity
  8
RACCORDO
100
AcDbPolyline
 62
7
  6
CONTINUOUS
 90
24
 70
0
 10
-13.7994253398
 20
51.5210596242
 10
-13.824738668
 20
51.5258197985
 10
-13.8680071883
 20
51.532861606
 10
-13.9113292522
 20
51.538539361
 10
-13.9546538259
 20
51.5428527247
 10
-13.997947262
 20
51.5458061005
 10
-14.0411890567
 20
51.5474043513
 10
-14.0843374896
 20
51.5476510301
 10
-14.1273506453
 20
51.5465520984
 10
-14.1702052751
 20
51.5441134217
 10
-14.2128561865
 20
51.5403417963
 10
-14.2552626565
 20
51.5352463185
 10
-14.2974060265
 20
51.528834064
 10
-14.3392420212
 20
51.5211153228
 10
-14.380729096
 20
51.512102219
 10
-14.4218508424
 20
51.5018025391
 10
-14.462564419
 20
51.4902298949
 10
-14.5028275126
 20
51.4773996439
 10
-14.5426231662
 20
51.4633208032
 10
-14.5819090571
 20
51.4480109708
 10
-14.6206444255
 20
51.4314887812
 10
-14.6588136605
 20
51.4137636697
 10
-14.6963844526
 20
51.3948524661
 10
-14.7335898494
 20
51.3746226003
  0
LINE
  5
322
100
AcDbEntity
  8
DRAFT
100
AcDbLine
 62
7
  6
CONTINUOUS
 10
24.3483003206
 20
41.9749701977
 11
28.6784273395
 21
41.1199198394
  0
LINE
  5
323
100
AcDbEntity
  8
RACCORDO
100
AcDbLine
 62
253
  6
CONTINUOUS
 10
26.8483003206
 20
42.5601645764
 11
30.0732728118
 21
41.9233440231
  0
LINE
  5
324
100
AcDbEntity
  8
RACCORDO
100
AcDbLine
 62
7
  6
CONTINUOUS
 10
27.0420249468
 20
42.6015279016
 11
30.1762092074
 21
41.9826348845
  0
LINE
  5
325
100
AcDbEntity
  8
RACCORDO
100
AcDbLine
 62
253
  6
CONTINUOUS
 10
-13.9887703374
 20
51.4822421937
 11
-2.215795412
 21
49.157486734
  0
LINE
  5
326
100
AcDbEntity
  8
RACCORDO
100
AcDbLine
 62
253
  6
CONTINUOUS
 10
19.8156585562
 20
44.8070363829
 11
26.8526635883
 21
43.4174712159
  0
LINE
  5
327
100
AcDbEntity
  8
RACCORDO
100
AcDbLine
 62
253
  6
CONTINUOUS
 10
31.1827906073
 20
42.5624208576
 11
41.7133363589
 21
40.4830021988
  0
LINE
  5
328
100
AcDbEntity
  8
RACCORDO
100
AcDbLine
 62
7
  6
CONTINUOUS
 10
-13.799415365
 20
51.5210577771
 11
-2.1149922743
 21
49.2137882428
  0
LINE
  5
329
100
AcDbEntity
  8
RACCORDO
100
AcDbLine
 62
7
  6
CONTINUOUS
 10
19.7540985777
 20
44.8953989929
 11
27.0420249468
 21
43.4562855383
  0
LINE
  5
32A
100
AcDbEntity
  8
RACCORDO
100
AcDbLine
 62
7
  6
CONTINUOUS
 10
31.3721519657
 20
42.60123518
 11
41.9027031453
 21
40.5218154493
  0
LWPOLYLINE
  5
32B
100
AcDbEntity
  8
RACCORDO
100
AcDbPolyline
 62
7
  6
CONTINUOUS
 90
36
 70
0
 10
42.4973639442
 20
-36.7408469906
 10
42.5290818175
 20
-36.7205196856
 10
42.5619286479
 20
-36.6980953926
 10
42.5940976495
 20
-36.6746955526
 10
42.625565101
 20
-36.6503376924
 10
42.6563212712
 20
-36.6250280518
 10
42.6863352549
 20
-36.5987891835
 10
42.7155773244
 20
-36.5716450506
 10
42.7440383455
 20
-36.5436018761
 10
42.7716900376
 20
-36.5146834998
 10
42.7985035385
 20
-36.4849160534
 10
42.8244680969
 20
-36.454307419
 10
42.8495571817
 20
-36.4228837649
 10
42.8737445937
 20
-36.3906723983
 10
42.8970194386
 20
-36.3576810937
 10
42.919358355
 20
-36.3239358155
 10
42.9407363726
 20
-36.2894666881
 10
42.9611399405
 20
-36.2542860231
 10
42.9805488001
 20
-36.2184188119
 10
42.9989397094
 20
-36.1818981196
 10
43.0162953254
 20
-36.1447467923
 10
43.0325966435
 20
-36.1069936705
 10
43.0478256143
 20
-36.0686696343
 10
43.0619672368
 20
-36.0297986204
 10
43.0750059113
 20
-35.9904073535
 10
43.0869257369
 20
-35.9505289131
 10
43.0977121241
 20
-35.9101943167
 10
43.1073520605
 20
-35.8694307439
 10
43.1158330741
 20
-35.8282704594
 10
43.1231426532
 20
-35.7867494986
 10
43.1292701753
 20
-35.7448963824
 10
43.1342063579
 20
-35.702739501
 10
43.1379416568
 20
-35.6603118059
 10
43.1404673226
 20
-35.617642132
 10
43.141776097
 20
-35.57476031
 10
43.1419746709
 20
-35.550303498
  0
LINE
  5
32C
100
AcDbEntity
  8
RACCORDO
100
AcDbLine
 62
253
  6
CONTINUOUS
 10
23.8027829925
 20
-47.6511404505
 11
43.0123304289
 21
-35.7187127488
  0
LINE
  5
32D
100
AcDbEntity
  8
RACCORDO
100
AcDbLine
 62
7
  6
CONTINUOUS
 10
23.2861553189
 20
-48.6743009685
 11
42.4974264674
 21
-36.7408084355
  0
LINE
  5
32E
100
AcDbEntity
  8
RACCORDO
100
AcDbLine
 62
253
  6
CONTINUOUS
 10
23.8027829925
 20
-47.6511404505
 11
19.1759699983
 21
-50.2628748501
  0
LINE
  5
32F
100
AcDbEntity
  8
RACCORDO
100
AcDbLine
 62
7
  6
CONTINUOUS
 10
18.6204530109
 20
-51.3089910283
 11
23.2502854801
 21
-48.6955523407
  0
ARC
  5
330
100
AcDbEntity
  8
0
100
AcDbCircle
 62
7
  6
CONTINUOUS
 10
-61.6634128295
 20
-103.9472056456
 40
80.4143163849
100
AcDbArc
 50
70.2702814467
 51
70.5539124379
  0
ARC
  5
331
100
AcDbEntity
  8
0
100
AcDbCircle
 62
7
  6
CONTINUOUS
 10
-18.3621426401
 20
-61.7543077058
 40
80.4143163843
100
AcDbArc
 50
70.2702814467
 51
70.5539124379
  0
ARC
  5
332
100
AcDbEntity
  8
0
100
AcDbCircle
 62
7
  6
CONTINUOUS
 10
-31.4455325299
 20
-40.603730063
 40
12.1572477013
100
AcDbArc
 50
108.5480464569
 51
108.7764206579
  0
ARC
  5
333
100
AcDbEntity
  8
0
100
AcDbCircle
 62
7
  6
CONTINUOUS
 10
-72.86902874
 20
5.089588672
 40
52.5394752212
100
AcDbArc
 50
317.4278457447
 51
317.6088848556
  0
ARC
  5
334
100
AcDbEntity
  8
0
100
AcDbCircle
 62
7
  6
CONTINUOUS
 10
-16.2706951086
 20
-22.2110613948
 40
19.7241439981
100
AcDbArc
 50
202.4622330428
 51
202.5965542091
  0
ARC
  5
335
100
AcDbEntity
  8
0
100
AcDbCircle
 62
7
  6
CONTINUOUS
 10
-23.9917010676
 20
-15.3051063335
 40
17.8595456864
100
AcDbArc
 50
233.8203202503
 51
233.9638232833
  0
ARC
  5
336
100
AcDbEntity
  8
0
100
AcDbCircle
 62
7
  6
CONTINUOUS
 10
-18.5779075726
 20
-27.1123121605
 40
15.9559986851
100
AcDbArc
 50
183.9020378619
 51
185.7012922211
  0
ARC
  5
337
100
AcDbEntity
  8
0
100
AcDbCircle
 62
7
  6
CONTINUOUS
 10
-22.2373466342
 20
-32.1597068239
 40
13.2836776512
100
AcDbArc
 50
162.2958361445
 51
164.3843494374
  0
ARC
  5
338
100
AcDbEntity
  8
0
100
AcDbCircle
 62
7
  6
CONTINUOUS
 10
-23.1354809695
 20
-34.3837424045
 40
12.6743839859
100
AcDbArc
 50
153.52493343
 51
153.705155469
  0
ARC
  5
339
100
AcDbEntity
  8
0
100
AcDbCircle
 62
7
  6
CONTINUOUS
 10
-44.9590618756
 20
-24.3109490258
 40
12.6733918145
100
AcDbArc
 50
333.5249263754
 51
333.7051625236
  0
ARC
  5
33A
100
AcDbEntity
  8
0
100
AcDbCircle
 62
7
  6
CONTINUOUS
 10
-22.477935314
 20
-32.3835285011
 40
12.0643394663
100
AcDbArc
 50
173.0982253983
 51
175.0399718437
  0
ARC
  5
33B
100
AcDbEntity
  8
0
100
AcDbCircle
 62
7
  6
CONTINUOUS
 10
-37.0898720288
 20
-19.4227379416
 40
11.0679890329
100
AcDbArc
 50
288.3958524901
 51
288.5931179277
  0
ARC
  5
33C
100
AcDbEntity
  8
0
100
AcDbCircle
 62
7
  6
CONTINUOUS
 10
-26.2884479523
 20
-25.0651920415
 40
10.4664112009
100
AcDbArc
 50
213.2349524792
 51
213.3578448792
  0
ARC
  5
33D
100
AcDbEntity
  8
0
100
AcDbCircle
 62
7
  6
CONTINUOUS
 10
-26.3796526824
 20
-28.3534781727
 40
8.9957373205
100
AcDbArc
 50
195.9157399567
 51
198.8667872369
  0
ARC
  5
33E
100
AcDbEntity
  8
0
100
AcDbCircle
 62
7
  6
CONTINUOUS
 10
-37.0336526373
 20
-22.4195928504
 40
8.5272445905
100
AcDbArc
 50
289.2219660908
 51
289.5684770231
  0
ARC
  5
33F
100
AcDbEntity
  8
TRASH
100
AcDbCircle
 62
7
  6
CONTINUOUS
 10
-41.9031512716
 20
-28.0796242127
 40
7.8991819553
100
AcDbArc
 50
342.474575988
 51
342.7434613644
  0
ARC
  5
340
100
AcDbEntity
  8
0
100
AcDbCircle
 62
7
  6
CONTINUOUS
 10
-34.9870677861
 20
-37.2141336838
 40
7.4009916398
100
AcDbArc
 50
85.766558799
 51
85.9941543016
  0
ARC
  5
341
100
AcDbEntity
  8
0
100
AcDbCircle
 62
7
  6
CONTINUOUS
 10
-31.0724353082
 20
-24.7713596995
 40
6.9333533868
100
AcDbArc
 50
231.814931814
 51
232.2960129638
  0
ARC
  5
342
100
AcDbEntity
  8
0
100
AcDbCircle
 62
7
  6
CONTINUOUS
 10
-32.2248474654
 20
-34.9643518741
 40
5.225002183
100
AcDbArc
 50
104.8152192078
 51
105.1799881668
  0
ARC
  5
343
100
AcDbEntity
  8
0
100
AcDbCircle
 62
7
  6
CONTINUOUS
 10
-36.169684116
 20
-32.6934621717
 40
3.3927094399
100
AcDbArc
 50
60.3870295575
 51
61.1865890772
  0
ARC
  5
344
100
AcDbEntity
  8
0
100
AcDbCircle
 62
7
  6
CONTINUOUS
 10
-37.4492630942
 20
-30.5742665005
 40
3.0704661092
100
AcDbArc
 50
14.8012820166
 51
15.6900888107
  0
ARC
  5
345
100
AcDbEntity
  8
RACCORDO
100
AcDbCircle
 62
253
  6
CONTINUOUS
 10
-29.6055215091
 20
-25.9730065608
 40
2.8908774384
100
AcDbArc
 50
78.8266678703
 51
80.8138214223
  0
ARC
  5
346
100
AcDbEntity
  8
0
100
AcDbCircle
 62
7
  6
CONTINUOUS
 10
-34.6637883811
 20
-32.6650658911
 40
2.860419771
100
AcDbArc
 50
68.9139794309
 51
69.3429304622
  0
ARC
  5
347
100
AcDbEntity
  8
0
100
AcDbCircle
 62
7
  6
CONTINUOUS
 10
-37.1324809449
 20
-27.7718322067
 40
2.8207688308
100
AcDbArc
 50
341.1902915172
 51
341.4735819184
  0
ARC
  5
348
100
AcDbEntity
  8
0
100
AcDbCircle
 62
7
  6
CONTINUOUS
 10
-37.0715353009
 20
-27.7926300548
 40
2.7563722421
100
AcDbArc
 50
340.7012936194
 51
341.19105367
  0
ARC
  5
349
100
AcDbEntity
  8
0
100
AcDbCircle
 62
7
  6
CONTINUOUS
 10
-36.9576433467
 20
-27.8329749877
 40
2.6355442112
100
AcDbArc
 50
339.7617772021
 51
340.0228474176
  0
ARC
  5
34A
100
AcDbEntity
  8
0
100
AcDbCircle
 62
7
  6
CONTINUOUS
 10
-36.9408397999
 20
-27.8391729194
 40
2.6176340595
100
AcDbArc
 50
339.2367358869
 51
339.7618326455
  0
ARC
  5
34B
100
AcDbEntity
  8
DRAFT
100
AcDbCircle
 62
7
  6
CONTINUOUS
 10
-33.0822380194
 20
-29.582931599
 40
2.5990235076
100
AcDbArc
 50
264.4459729945
 51
264.7457527806
  0
ARC
  5
34C
100
AcDbEntity
  8
DRAFT
100
AcDbCircle
 62
7
  6
CONTINUOUS
 10
-33.8005793348
 20
-28.3829270045
 40
2.5882700295
100
AcDbArc
 50
156.537794629
 51
156.8476878957
  0
ARC
  5
34D
100
AcDbEntity
  8
DRAFT
100
AcDbCircle
 62
7
  6
CONTINUOUS
 10
-33.0835646709
 20
-29.5976103888
 40
2.5842849075
100
AcDbArc
 50
264.7452397595
 51
265.5839431862
  0
ARC
  5
34E
100
AcDbEntity
  8
DRAFT
100
AcDbCircle
 62
7
  6
CONTINUOUS
 10
-33.8077055338
 20
-28.3798351395
 40
2.5805019962
100
AcDbArc
 50
156.2723755163
 51
156.5377720902
  0
ARC
  5
34F
100
AcDbEntity
  8
TRASH
100
AcDbCircle
 62
7
  6
CONTINUOUS
 10
-33.9365566235
 20
-29.436674403
 40
1.0731217924
100
AcDbArc
 50
246.7860981255
 51
252.0095669111
  0
ARC
  5
350
100
AcDbEntity
  8
TRASH
100
AcDbCircle
 62
7
  6
CONTINUOUS
 10
-33.9509833973
 20
-29.4799974834
 40
1.027461089
100
AcDbArc
 50
252.0285677075
 51
254.5412354693
  0
ARC
  5
351
100
AcDbEntity
  8
0
100
AcDbCircle
 62
7
  6
CONTINUOUS
 10
-33.8022607653
 20
-29.2063949734
 40
0.8948128482
100
AcDbArc
 50
220.6967510557
 51
224.4782436739
  0
ARC
  5
352
100
AcDbEntity
  8
0
100
AcDbCircle
 62
7
  6
CONTINUOUS
 10
-33.9190653208
 20
-29.5644306912
 40
0.4997597653
100
AcDbArc
 50
302.8667828617
 51
307.5118273435
  0
ARC
  5
353
100
AcDbEntity
  8
0
100
AcDbCircle
 62
7
  6
CONTINUOUS
 10
-34.1763663408
 20
-29.1298198176
 40
0.4997597653
100
AcDbArc
 50
122.8667828617
 51
127.5118273435
  0
ARC
  5
354
100
AcDbEntity
  8
0
100
AcDbCircle
 62
7
  6
CONTINUOUS
 10
-33.918321095
 20
-29.5655594067
 40
0.4984078362
100
AcDbArc
 50
301.9319842343
 51
302.8653388685
  0
ARC
  5
355
100
AcDbEntity
  8
ASSI
100
AcDbCircle
 62
7
  6
CONTINUOUS
 10
10.5099784335
 20
-43.7660522412
 40
0.2889704283
100
AcDbArc
 50
258.8027367701
 51
264.4375502534
  0
ARC
  5
356
100
AcDbEntity
  8
0
100
AcDbCircle
 62
7
  6
CONTINUOUS
 10
27.0305750811
 20
19.9818365447
 40
19.7241439987
100
AcDbArc
 50
202.4622330428
 51
202.5965542091
  0
ARC
  5
357
100
AcDbEntity
  8
0
100
AcDbCircle
 62
7
  6
CONTINUOUS
 10
19.3095691199
 20
26.8877916034
 40
17.8595456835
100
AcDbArc
 50
233.8203202503
 51
233.9638232833
  0
ARC
  5
358
100
AcDbEntity
  8
0
100
AcDbCircle
 62
7
  6
CONTINUOUS
 10
24.7233626166
 20
15.0805857788
 40
15.9559986851
100
AcDbArc
 50
183.9020378619
 51
185.7012922211
  0
ARC
  5
359
100
AcDbEntity
  8
0
100
AcDbCircle
 62
7
  6
CONTINUOUS
 10
21.0639235551
 20
10.0331911154
 40
13.2836776512
100
AcDbArc
 50
162.2958361445
 51
164.3843494374
  0
ARC
  5
35A
100
AcDbEntity
  8
0
100
AcDbCircle
 62
7
  6
CONTINUOUS
 10
20.1657892204
 20
7.8091555345
 40
12.6743839866
100
AcDbArc
 50
153.52493343
 51
153.705155469
  0
ARC
  5
35B
100
AcDbEntity
  8
0
100
AcDbCircle
 62
7
  6
CONTINUOUS
 10
-1.6577916867
 20
17.8819489137
 40
12.6733918149
100
AcDbArc
 50
333.5249263755
 51
333.7051625236
  0
ARC
  5
35C
100
AcDbEntity
  8
0
100
AcDbCircle
 62
7
  6
CONTINUOUS
 10
11.855737659
 20
1.5891678773
 40
12.1572477003
100
AcDbArc
 50
108.5480464569
 51
108.7764206579
  0
ARC
  5
35D
100
AcDbEntity
  8
0
100
AcDbCircle
 62
7
  6
CONTINUOUS
 10
20.8233348752
 20
9.8093694382
 40
12.0643394663
100
AcDbArc
 50
173.0982253983
 51
175.0399718437
  0
ARC
  5
35E
100
AcDbEntity
  8
0
100
AcDbCircle
 62
7
  6
CONTINUOUS
 10
6.2113981611
 20
22.7701599956
 40
11.0679890307
100
AcDbArc
 50
288.3958524901
 51
288.5931179277
  0
ARC
  5
35F
100
AcDbEntity
  8
0
100
AcDbCircle
 62
7
  6
CONTINUOUS
 10
17.0128222293
 20
17.1277058928
 40
10.4664111918
100
AcDbArc
 50
213.2349524792
 51
213.3578448793
  0
ARC
  5
360
100
AcDbEntity
  8
0
100
AcDbCircle
 62
7
  6
CONTINUOUS
 10
16.9216175068
 20
13.8394197666
 40
8.9957373205
100
AcDbArc
 50
195.9157399567
 51
198.8667872369
  0
ARC
  5
361
100
AcDbEntity
  8
0
100
AcDbCircle
 62
7
  6
CONTINUOUS
 10
6.2676175518
 20
19.7733050892
 40
8.5272445907
100
AcDbArc
 50
289.2219660908
 51
289.5684770231
  0
ARC
  5
362
100
AcDbEntity
  8
TRASH
100
AcDbCircle
 62
7
  6
CONTINUOUS
 10
1.3981189164
 20
14.113273727
 40
7.8991819567
100
AcDbArc
 50
342.474575988
 51
342.7434613643
  0
ARC
  5
363
100
AcDbEntity
  8
0
100
AcDbCircle
 62
7
  6
CONTINUOUS
 10
8.3142024031
 20
4.978764255
 40
7.4009916403
100
AcDbArc
 50
85.766558799
 51
85.9941543016
  0
ARC
  5
364
100
AcDbEntity
  8
0
100
AcDbCircle
 62
7
  6
CONTINUOUS
 10
12.228834881
 20
17.4215382398
 40
6.9333533867
100
AcDbArc
 50
231.814931814
 51
232.2960129638
  0
ARC
  5
365
100
AcDbEntity
  8
0
100
AcDbCircle
 62
7
  6
CONTINUOUS
 10
14.3719001089
 20
8.1338600314
 40
6.3223077607
100
AcDbArc
 50
178.6324107122
 51
180.0015706877
  0
ARC
  5
366
100
AcDbEntity
  8
0
100
AcDbCircle
 62
7
  6
CONTINUOUS
 10
11.0764227237
 20
7.2285460656
 40
5.2250021826
100
AcDbArc
 50
104.8152192078
 51
105.1799881668
  0
ARC
  5
367
100
AcDbEntity
  8
0
100
AcDbCircle
 62
7
  6
CONTINUOUS
 10
7.1315860732
 20
9.4994357676
 40
3.39270944
100
AcDbArc
 50
60.3870295576
 51
61.1865890772
  0
ARC
  5
368
100
AcDbEntity
  8
0
100
AcDbCircle
 62
7
  6
CONTINUOUS
 10
5.8520070949
 20
11.6186314387
 40
3.0704661093
100
AcDbArc
 50
14.8012820166
 51
15.6900888107
  0
ARC
  5
369
100
AcDbEntity
  8
0
100
AcDbCircle
 62
7
  6
CONTINUOUS
 10
8.6374818081
 20
9.5278320482
 40
2.860419771
100
AcDbArc
 50
68.9139794309
 51
69.3429304622
  0
ARC
  5
36A
100
AcDbEntity
  8
0
100
AcDbCircle
 62
7
  6
CONTINUOUS
 10
6.1687892448
 20
14.4210657325
 40
2.8207688302
100
AcDbArc
 50
341.1902915171
 51
341.4735819184
  0
ARC
  5
36B
100
AcDbEntity
  8
0
100
AcDbCircle
 62
7
  6
CONTINUOUS
 10
6.2297348882
 20
14.4002678846
 40
2.7563722422
100
AcDbArc
 50
340.7012936194
 51
341.19105367
  0
ARC
  5
36C
100
AcDbEntity
  8
0
100
AcDbCircle
 62
7
  6
CONTINUOUS
 10
6.3436268435
 20
14.3599229512
 40
2.6355442101
100
AcDbArc
 50
339.7617772021
 51
340.0228474176
  0
ARC
  5
36D
100
AcDbEntity
  8
0
100
AcDbCircle
 62
7
  6
CONTINUOUS
 10
6.3604303894
 20
14.3537250199
 40
2.6176340594
100
AcDbArc
 50
339.2367358869
 51
339.7618326456
  0
ARC
  5
36E
100
AcDbEntity
  8
DRAFT
100
AcDbCircle
 62
7
  6
CONTINUOUS
 10
10.2190321699
 20
12.6099663406
 40
2.599023508
100
AcDbArc
 50
264.4459729945
 51
264.7457527807
  0
ARC
  5
36F
100
AcDbEntity
  8
DRAFT
100
AcDbCircle
 62
7
  6
CONTINUOUS
 10
9.5006908536
 20
13.8099709351
 40
2.5882700285
100
AcDbArc
 50
156.537794629
 51
156.8476878958
  0
ARC
  5
370
100
AcDbEntity
  8
DRAFT
100
AcDbCircle
 62
7
  6
CONTINUOUS
 10
10.2177055183
 20
12.5952875505
 40
2.5842849075
100
AcDbArc
 50
264.7452397595
 51
265.5839431862
  0
ARC
  5
371
100
AcDbEntity
  8
DRAFT
100
AcDbCircle
 62
7
  6
CONTINUOUS
 10
9.4935646552
 20
13.8130627999
 40
2.5805019959
100
AcDbArc
 50
156.2723755163
 51
156.5377720902
  0
ARC
  5
372
100
AcDbEntity
  8
TRASH
100
AcDbCircle
 62
7
  6
CONTINUOUS
 10
9.3647135657
 20
12.7562235363
 40
1.0731217924
100
AcDbArc
 50
246.7860981255
 51
252.0095669111
  0
ARC
  5
373
100
AcDbEntity
  8
TRASH
100
AcDbCircle
 62
7
  6
CONTINUOUS
 10
9.3502867919
 20
12.7129004559
 40
1.027461089
100
AcDbArc
 50
252.0285677075
 51
254.5412354693
  0
ARC
  5
374
100
AcDbEntity
  8
RACCORDO
100
AcDbCircle
 62
253
  6
CONTINUOUS
 10
41.9717057812
 20
-35.8944971435
 40
0.9963050411
100
AcDbArc
 50
301.8479783758
 51
303.452900186
  0
ARC
  5
375
100
AcDbEntity
  8
0
100
AcDbCircle
 62
7
  6
CONTINUOUS
 10
9.4990094239
 20
12.9865029659
 40
0.8948128482
100
AcDbArc
 50
220.6967510557
 51
224.4782436739
  0
ARC
  5
376
100
AcDbEntity
  8
0
100
AcDbCircle
 62
7
  6
CONTINUOUS
 10
9.3822048684
 20
12.6284672481
 40
0.4997597653
100
AcDbArc
 50
302.8667828617
 51
307.5118273434
  0
ARC
  5
377
100
AcDbEntity
  8
0
100
AcDbCircle
 62
7
  6
CONTINUOUS
 10
9.1249038485
 20
13.0630781217
 40
0.4997597653
100
AcDbArc
 50
122.8667828617
 51
127.5118273435
  0
ARC
  5
378
100
AcDbEntity
  8
0
100
AcDbCircle
 62
7
  6
CONTINUOUS
 10
9.3829490941
 20
12.6273385327
 40
0.4984078362
100
AcDbArc
 50
301.9319842344
 51
302.8653388684
  0
ARC
  5
379
100
AcDbEntity
  8
0
100
AcDbCircle
 62
7
  6
CONTINUOUS
 10
-241.8925625046
 20
173.802954241
 40
298.6275541246
100
AcDbArc
 50
326.9477672553
 51
327.1316441048
  0
ARC
  5
37A
100
AcDbEntity
  8
0
100
AcDbCircle
 62
7
  6
CONTINUOUS
 10
-285.1938326923
 20
131.6100563007
 40
298.6275541228
100
AcDbArc
 50
326.9477672553
 51
327.1316441048
  0
ARC
  5
37B
100
AcDbEntity
  8
0
100
AcDbCircle
 62
7
  6
CONTINUOUS
 10
-29.5677585512
 20
47.2824866117
 40
52.5394752218
100
AcDbArc
 50
317.4278457447
 51
317.6088848556
  0
ARC
  5
37C
100
AcDbEntity
  8
RACCORDO
100
AcDbCircle
 62
7
  6
CONTINUOUS
 10
-0.8809598327
 20
38.6333322487
 40
8.8885804414
100
AcDbArc
 50
119.2537624359
 51
120.576994772
  0
ARC
  5
37D
100
AcDbEntity
  8
RACCORDO
100
AcDbCircle
 62
253
  6
CONTINUOUS
 10
13.8734991362
 20
48.5350482417
 40
7.783536555
100
AcDbArc
 50
300.5825940696
 51
300.8392496699
  0
ARC
  5
37E
100
AcDbEntity
  8
RACCORDO
100
AcDbCircle
 62
7
  6
CONTINUOUS
 10
0.0146403842
 20
41.2470219529
 40
7.4866602838
100
AcDbArc
 50
118.9642765843
 51
119.8830193155
  0
ARC
  5
37F
100
AcDbEntity
  8
RACCORDO
100
AcDbCircle
 62
253
  6
CONTINUOUS
 10
-1.326833065
 20
48.2532746293
 40
7.4550033266
100
AcDbArc
 50
239.1666971979
 51
239.2987306406
  0
ARC
  5
380
100
AcDbEntity
  8
RACCORDO
100
AcDbCircle
 62
7
  6
CONTINUOUS
 10
-0.114131491
 20
41.4714884564
 40
7.2278797368
100
AcDbArc
 50
119.8844872908
 51
120.5813625801
  0
ARC
  5
381
100
AcDbEntity
  8
RACCORDO
100
AcDbCircle
 62
253
  6
CONTINUOUS
 10
-0.1841479376
 20
41.7616469653
 40
6.9225273303
100
AcDbArc
 50
119.7643186022
 51
120.5804244404
  0
ARC
  5
382
100
AcDbEntity
  8
RACCORDO
100
AcDbCircle
 62
253
  6
CONTINUOUS
 10
-1.6662215344
 20
40.504960003
 40
6.8111640439
100
AcDbArc
 50
122.1020550941
 51
122.885331524
  0
ARC
  5
383
100
AcDbEntity
  8
RACCORDO
100
AcDbCircle
 62
7
  6
CONTINUOUS
 10
1.1509637248
 20
43.2996682128
 40
6.7577323623
100
AcDbArc
 50
116.8229188727
 51
119.7344948379
  0
ARC
  5
384
100
AcDbEntity
  8
RACCORDO
100
AcDbCircle
 62
253
  6
CONTINUOUS
 10
-0.3376789973
 20
42.0212567466
 40
6.6209166308
100
AcDbArc
 50
120.5795456288
 51
121.3332617273
  0
ARC
  5
385
100
AcDbEntity
  8
RACCORDO
100
AcDbCircle
 62
253
  6
CONTINUOUS
 10
-1.8103053276
 20
40.7283018102
 40
6.5453791187
100
AcDbArc
 50
122.8876941609
 51
123.3377544219
  0
ARC
  5
386
100
AcDbEntity
  8
RACCORDO
100
AcDbCircle
 62
253
  6
CONTINUOUS
 10
0.9726466968
 20
43.7884035271
 40
6.2262128027
100
AcDbArc
 50
117.5361718135
 51
120.54188909
  0
ARC
  5
387
100
AcDbEntity
  8
RACCORDO
100
AcDbCircle
 62
7
  6
CONTINUOUS
 10
0.8739289621
 20
43.791848614
 40
6.1929527375
100
AcDbArc
 50
119.7673751401
 51
120.5807472415
  0
ARC
  5
388
100
AcDbEntity
  8
RACCORDO
100
AcDbCircle
 62
253
  6
CONTINUOUS
 10
0.6486675548
 20
44.3444737494
 40
5.5826581894
100
AcDbArc
 50
120.5782987239
 51
121.4726232361
  0
ARC
  5
389
100
AcDbEntity
  8
RACCORDO
100
AcDbCircle
 62
253
  6
CONTINUOUS
 10
0.4755926105
 20
44.6272634093
 40
5.2511089061
100
AcDbArc
 50
121.4729300958
 51
122.3890619369
  0
ARC
  5
38A
100
AcDbEntity
  8
RACCORDO
100
AcDbCircle
 62
7
  6
CONTINUOUS
 10
1.8679878351
 20
46.0390948039
 40
5.1698299189
100
AcDbArc
 50
119.6051309664
 51
120.5797970635
  0
ARC
  5
38B
100
AcDbEntity
  8
0
100
AcDbCircle
 62
7
  6
CONTINUOUS
 10
13.8276229008
 20
46.7836239715
 40
4.7607867499
100
AcDbArc
 50
305.9530911638
 51
306.5760565963
  0
ARC
  5
38C
100
AcDbEntity
  8
RACCORDO
100
AcDbCircle
 62
253
  6
CONTINUOUS
 10
1.6537567713
 20
46.5729048815
 40
4.5813452219
100
AcDbArc
 50
120.5757404215
 51
121.6646280303
  0
ARC
  5
38D
100
AcDbEntity
  8
RACCORDO
100
AcDbCircle
 62
253
  6
CONTINUOUS
 10
1.4759991312
 20
46.8611865663
 40
4.2426652743
100
AcDbArc
 50
121.6651221854
 51
122.7944524196
  0
ARC
  5
38E
100
AcDbEntity
  8
0
100
AcDbCircle
 62
7
  6
CONTINUOUS
 10
11.8221487406
 20
49.1074520754
 40
2.8085943174
100
AcDbArc
 50
309.9901342801
 51
310.4044133818
  0
ARC
  5
38F
100
AcDbEntity
  8
RACCORDO
100
AcDbCircle
 62
7
  6
CONTINUOUS
 10
4.321614266
 20
48.9764358549
 40
2.7656101475
100
AcDbArc
 50
116.9712838444
 51
120.5391789195
  0
ARC
  5
390
100
AcDbEntity
  8
RACCORDO
100
AcDbCircle
 62
7
  6
CONTINUOUS
 10
-3.1925897452
 20
45.1918194893
 40
2.3574142475
100
AcDbArc
 50
148.2834878272
 51
148.6718338896
  0
ARC
  5
391
100
AcDbEntity
  8
RACCORDO
100
AcDbCircle
 62
7
  6
CONTINUOUS
 10
-3.3287166812
 20
45.2721240812
 40
2.1993817496
100
AcDbArc
 50
148.6150100463
 51
154.0696510178
  0
ARC
  5
392
100
AcDbEntity
  8
RACCORDO
100
AcDbCircle
 62
7
  6
CONTINUOUS
 10
-3.4529156615
 20
45.3348289628
 40
2.0602679163
100
AcDbArc
 50
154.1275689678
 51
154.4311034534
  0
ARC
  5
393
100
AcDbEntity
  8
RACCORDO
100
AcDbCircle
 62
253
  6
CONTINUOUS
 10
16.6087560179
 20
45.5048808997
 40
1.6046745142
100
AcDbArc
 50
341.157141044
 51
344.3051850256
  0
ARC
  5
394
100
AcDbEntity
  8
RACCORDO
100
AcDbCircle
 62
7
  6
CONTINUOUS
 10
-2.1410728417
 20
47.1556387394
 40
1.6041408761
100
AcDbArc
 50
160.2160698356
 51
160.8685499712
  0
ARC
  5
395
100
AcDbEntity
  8
RACCORDO
100
AcDbCircle
 62
253
  6
CONTINUOUS
 10
-3.9336836982
 20
45.4864487191
 40
1.5604582672
100
AcDbArc
 50
195.4251923657
 51
199.17927388
  0
ARC
  5
396
100
AcDbEntity
  8
RACCORDO
100
AcDbCircle
 62
253
  6
CONTINUOUS
 10
15.1045331414
 20
47.2254239154
 40
1.3584756217
100
AcDbArc
 50
340.7032322346
 51
341.1740832238
  0
ARC
  5
397
100
AcDbEntity
  8
RACCORDO
100
AcDbCircle
 62
253
  6
CONTINUOUS
 10
-0.7922072195
 20
48.9126726817
 40
1.208202135
100
AcDbArc
 50
200.5263422935
 51
201.3526416288
  0
ARC
  5
398
100
AcDbEntity
  8
RACCORDO
100
AcDbCircle
 62
253
  6
CONTINUOUS
 10
13.5725615822
 20
48.8844200159
 40
1.138268364
100
AcDbArc
 50
338.8145136765
 51
339.2584063766
  0
ARC
  5
399
100
AcDbEntity
  8
RACCORDO
100
AcDbCircle
 62
253
  6
CONTINUOUS
 10
2.9769665309
 20
50.54436068
 40
0.7387353781
100
AcDbArc
 50
210.0930581329
 51
212.245968394
  0
ARC
  5
39A
100
AcDbEntity
  8
0
100
AcDbCircle
 62
7
  6
CONTINUOUS
 10
9.3384300017
 20
49.7377242829
 40
0.6354197045
100
AcDbArc
 50
325.2220759429
 51
329.4885541837
  0
ARC
  5
39B
100
AcDbEntity
  8
RACCORDO
100
AcDbCircle
 62
253
  6
CONTINUOUS
 10
676.2967939161
 20
-15.9025436946
 40
661.926881863
100
AcDbArc
 50
176.8238513134
 51
177.0519092365
  0
ARC
  5
39C
100
AcDbEntity
  8
RACCORDO
100
AcDbCircle
 62
253
  6
CONTINUOUS
 10
671.5513327719
 20
-15.6599079602
 40
657.1752221018
100
AcDbArc
 50
177.0517566546
 51
177.4082982941
  0
ARC
  5
39D
100
AcDbEntity
  8
ASSI
100
AcDbCircle
 62
7
  6
CONTINUOUS
 10
562.5264222335
 20
-13.8693684604
 40
559.5099529819
100
AcDbArc
 50
182.850505969
 51
183.1122454282
  0
ARC
  5
39E
100
AcDbEntity
  8
ASSI
100
AcDbCircle
 62
7
  6
CONTINUOUS
 10
565.3833373229
 20
-14.432220816
 40
559.5099258104
100
AcDbArc
 50
182.8506401987
 51
183.1123798253
  0
ARC
  5
39F
100
AcDbEntity
  8
ASSI
100
AcDbCircle
 62
7
  6
CONTINUOUS
 10
562.3350629507
 20
-13.825661227
 40
559.2435693551
100
AcDbArc
 50
182.8517719552
 51
183.1136329104
  0
ARC
  5
3A0
100
AcDbEntity
  8
ASSI
100
AcDbCircle
 62
7
  6
CONTINUOUS
 10
565.1919781558
 20
-14.3885141942
 40
559.2435422976
100
AcDbArc
 50
182.8519061857
 51
183.1137673084
  0
ARC
  5
3A1
100
AcDbEntity
  8
ASSI
100
AcDbCircle
 62
7
  6
CONTINUOUS
 10
561.4534696534
 20
-13.8042211736
 40
558.9211967876
100
AcDbArc
 50
182.8503681237
 51
183.1123839483
  0
ARC
  5
3A2
100
AcDbEntity
  8
ASSI
100
AcDbCircle
 62
7
  6
CONTINUOUS
 10
567.4842245074
 20
-14.9937927982
 40
558.9211925118
100
AcDbArc
 50
182.8505017026
 51
183.1125170314
  0
ARC
  5
3A3
100
AcDbEntity
  8
ASSI
100
AcDbCircle
 62
7
  6
CONTINUOUS
 10
562.4233536854
 20
-13.9944491084
 40
558.9211792757
100
AcDbArc
 50
182.8505023549
 51
183.1125176884
  0
ARC
  5
3A4
100
AcDbEntity
  8
ASSI
100
AcDbCircle
 62
7
  6
CONTINUOUS
 10
562.496205597
 20
-14.1124048367
 40
558.5084423863
100
AcDbArc
 50
182.939702053
 51
183.1125406896
  0
ARC
  5
3A5
100
AcDbEntity
  8
ASSI
100
AcDbCircle
 62
7
  6
CONTINUOUS
 10
563.5098718108
 20
-14.4078046855
 40
558.1196261052
100
AcDbArc
 50
182.9398454965
 51
183.1128046974
  0
ARC
  5
3A6
100
AcDbEntity
  8
ASSI
100
AcDbCircle
 62
7
  6
CONTINUOUS
 10
561.8702064209
 20
-14.091852298
 40
557.806802728
100
AcDbArc
 50
182.9767427383
 51
183.1139811149
  0
LINE
  5
3A7
100
AcDbEntity
  8
0
100
AcDbLine
 62
7
  6
CONTINUOUS
 10
-34.454849651
 20
-30.9337862216
 11
-34.4451862096
 21
-30.9195773546
  0
SPLINE
  5
3A8
100
AcDbEntity
  8
0
100
AcDbSpline
 62
7
  6
CONTINUOUS
 70
0
 71
3
 72
14
 73
10
 74
8
 42
0.0000001
 43
0.0000001
 44
0.0000000001
 12
-0.2176809815
 22
-0.4487486241
 32
0.0
 13
-0.2178609914
 23
-0.4486612595
 33
0.0
 40
0.0
 40
0.0
 40
0.0
 40
0.0
 40
0.1716728538
 40
0.3234273482
 40
0.4634585861
 40
0.598793128
 40
0.7333259465
 40
0.8674278409
 40
1.0
 40
1.0
 40
1.0
 40
1.0
 10
-34.2262391725
 20
-30.4714454287
 30
0.0
 10
-34.238695811
 20
-30.4971247477
 30
0.0
 10
-34.2622356104
 20
-30.5454691192
 30
0.0
 10
-34.2960947151
 20
-30.6146823634
 30
0.0
 10
-34.3273482929
 20
-30.6784446877
 30
0.0
 10
-34.3573474045
 20
-30.7396332942
 30
0.0
 10
-34.3868828407
 20
-30.7999513563
 30
0.0
 10
-34.4161571934
 20
-30.8598858775
 30
0.0
 10
-34.4355587756
 20
-30.8997506907
 30
0.0
 10
-34.4451862096
 20
-30.9195773546
 30
0.0
 11
-34.2262391725
 21
-30.4714454287
 31
0.0
 11
-34.2637103844
 21
-30.5484341659
 31
0.0
 11
-34.2969602885
 21
-30.6164286643
 31
0.0
 11
-34.327692952
 21
-30.6791453451
 31
0.0
 11
-34.3574010858
 21
-30.7397554217
 31
0.0
 11
-34.3869044194
 21
-30.8000205556
 31
0.0
 11
-34.4162545279
 21
-30.8601213659
 31
0.0
 11
-34.4451862096
 21
-30.9195773546
 31
0.0
  0
SPLINE
  5
3A9
100
AcDbEntity
  8
0
100
AcDbSpline
 62
7
  6
CONTINUOUS
 70
0
 71
3
 72
15
 73
11
 74
9
 42
0.0000001
 43
0.0000001
 44
0.0000000001
 12
-3.6187321372
 22
0.7145744679
 32
0.0
 13
-0.7001976157
 23
3.621541419
 33
0.0
 40
0.0
 40
0.0
 40
0.0
 40
0.0
 40
0.1160966458
 40
0.2362197097
 40
0.3599860015
 40
0.4866466502
 40
0.6151827044
 40
0.7444088903
 40
0.8730803329
 40
1.0
 40
1.0
 40
1.0
 40
1.0
 10
-34.5021247685
 20
-32.2620221871
 30
0.0
 10
-34.6421656562
 20
-32.2343689541
 30
0.0
 10
-34.9225210648
 20
-32.1522741203
 30
0.0
 10
-35.3227057564
 20
-31.9590803487
 30
0.0
 10
-35.6991565974
 20
-31.699375652
 30
0.0
 10
-36.0412260175
 20
-31.3806637974
 30
0.0
 10
-36.3394370181
 20
-31.0119930963
 30
0.0
 10
-36.5854455843
 20
-30.6037305645
 30
0.0
 10
-36.7723169322
 20
-30.1674873728
 30
0.0
 10
-36.8547885525
 20
-29.8629266735
 30
0.0
 10
-36.8844115019
 20
-29.7097117298
 30
0.0
 11
-34.5021247685
 21
-32.2620221871
 31
0.0
 11
-34.9134529794
 21
-32.1428816537
 31
0.0
 11
-35.3129911381
 21
-31.95132122
 31
0.0
 11
-35.6892871349
 21
-31.6928316535
 31
0.0
 11
-36.0315550588
 21
-31.3748221358
 31
0.0
 11
-36.3299843581
 21
-31.0064078911
 31
0.0
 11
-36.5760210436
 21
-30.5981489128
 31
0.0
 11
-36.762612875
 21
-30.1617472787
 31
0.0
 11
-36.8844115019
 21
-29.7097117298
 31
0.0
  0
SPLINE
  5
3AA
100
AcDbEntity
  8
0
100
AcDbSpline
 62
7
  6
CONTINUOUS
 70
0
 71
3
 72
11
 73
7
 74
5
 42
0.0000001
 43
0.0000001
 44
0.0000000001
 12
0.2963487114
 22
1.4157288021
 32
0.0
 13
1.1217590843
 23
0.9171952379
 33
0.0
 40
0.0
 40
0.0
 40
0.0
 40
0.0
 40
0.2916851053
 40
0.5736873147
 40
0.8479006492
 40
1.0
 40
1.0
 40
1.0
 40
1.0
 10
-36.8844115019
 20
-28.5820805849
 30
0.0
 10
-36.8555980002
 20
-28.4444315833
 30
0.0
 10
-36.776111721
 20
-28.1777529693
 30
0.0
 10
-36.5891255211
 20
-27.8115936083
 30
0.0
 10
-36.3765105959
 20
-27.5414138033
 30
0.0
 10
-36.2246852677
 20
-27.4017872564
 30
0.0
 10
-36.1678123249
 20
-27.3552856563
 30
0.0
 11
-36.8844115019
 21
-28.5820805849
 31
0.0
 11
-36.762612875
 21
-28.1781470704
 31
0.0
 11
-36.5760210436
 21
-27.8154363057
 31
0.0
 11
-36.3299843581
 21
-27.5043448033
 31
0.0
 11
-36.1678123249
 21
-27.3552856563
 31
0.0
  0
SPLINE
  5
3AB
100
AcDbEntity
  8
0
100
AcDbSpline
 62
7
  6
CONTINUOUS
 70
0
 71
3
 72
18
 73
14
 74
12
 42
0.0000001
 43
0.0000001
 44
0.0000000001
 12
2.0437517236
 22
-0.3169220271
 32
0.0
 13
2.0664756297
 23
-0.0838996468
 33
0.0
 40
0.0
 40
0.0
 40
0.0
 40
0.0
 40
0.088579559
 40
0.178713095
 40
0.2694414879
 40
0.359871938
 40
0.4500181976
 40
0.5408538783
 40
0.6324214181
 40
0.7239861279
 40
0.815532106
 40
0.9074137622
 40
1.0
 40
1.0
 40
1.0
 40
1.0
 10
-34.1775959505
 20
-29.3266884628
 30
0.0
 10
-34.117251075
 20
-29.3360460672
 30
0.0
 10
-33.9953933198
 20
-29.3542272299
 30
0.0
 10
-33.8113766212
 20
-29.379577587
 30
0.0
 10
-33.6258260067
 20
-29.4030609165
 30
0.0
 10
-33.4400257109
 20
-29.424553308
 30
0.0
 10
-33.2539379452
 20
-29.4441141809
 30
0.0
 10
-33.066879609
 20
-29.4618456571
 30
0.0
 10
-32.8786774397
 20
-29.4777700204
 30
0.0
 10
-32.6898378706
 20
-29.4918565015
 30
0.0
 10
-32.5006533087
 20
-29.5041063452
 30
0.0
 10
-32.3106560948
 20
-29.5145631522
 30
0.0
 10
-32.1836137697
 20
-29.5203297767
 30
0.0
 10
-32.119838035
 20
-29.5229190943
 30
0.0
 11
-34.1775959505
 21
-29.3266884628
 31
0.0
 11
-33.9964049052
 21
-29.3537333124
 31
0.0
 11
-33.8117382045
 21
-29.3791836587
 31
0.0
 11
-33.6255818687
 21
-29.4027530753
 31
0.0
 11
-33.4397953802
 21
-29.4242521204
 31
0.0
 11
-33.2543791729
 21
-29.443749607
 31
0.0
 11
-33.0673537839
 21
-29.4614844296
 31
0.0
 11
-32.8786505828
 21
-29.4774569575
 31
0.0
 11
-32.6898035072
 21
-29.4915489744
 31
0.0
 11
-32.5008660544
 21
-29.5037870539
 31
0.0
 11
-32.3111257688
 21
-29.5142332993
 31
0.0
 11
-32.119838035
 21
-29.5229190943
 31
0.0
  0
LINE
  5
3AC
100
AcDbEntity
  8
0
100
AcDbLine
 62
7
  6
CONTINUOUS
 10
-34.2262394343
 20
-29.2925118062
 11
-34.1775959505
 21
-29.3266884628
  0
SPLINE
  5
3AD
100
AcDbEntity
  8
0
100
AcDbSpline
 62
7
  6
CONTINUOUS
 70
0
 71
3
 72
14
 73
10
 74
8
 42
0.0000001
 43
0.0000001
 44
0.0000000001
 12
0.2106632969
 22
-0.5779359674
 32
0.0
 13
0.2250151984
 23
-0.5725008014
 33
0.0
 40
0.0
 40
0.0
 40
0.0
 40
0.0
 40
0.1366083925
 40
0.273293398
 40
0.4088296449
 40
0.5440091569
 40
0.6831048996
 40
0.8325881851
 40
1.0
 40
1.0
 40
1.0
 40
1.0
 10
-34.4451861736
 20
-28.7176803432
 30
0.0
 10
-34.4355933822
 20
-28.7439973111
 30
0.0
 10
-34.4162786839
 20
-28.7966009883
 30
0.0
 10
-34.3870334583
 20
-28.8751626396
 30
0.0
 10
-34.3575655254
 20
-28.9533279673
 30
0.0
 10
-34.327624735
 20
-29.0318426009
 30
0.0
 10
-34.29638794
 20
-29.1129230903
 30
0.0
 10
-34.2625029996
 20
-29.2000654025
 30
0.0
 10
-34.2387961685
 20
-29.2605640068
 30
0.0
 10
-34.2262394343
 20
-29.2925118062
 30
0.0
 11
-34.4451861736
 21
-28.7176803432
 31
0.0
 11
-34.4162253625
 21
-28.7965645078
 31
0.0
 11
-34.3868965467
 21
-28.8753628783
 31
0.0
 11
-34.3574902984
 21
-28.9533776634
 31
0.0
 11
-34.3278672981
 21
-29.0310756013
 31
0.0
 11
-34.2971136246
 21
-29.1109200777
 31
0.0
 11
-34.263800083
 21
-29.1966254213
 31
0.0
 11
-34.2262394343
 21
-29.2925118062
 31
0.0
  0
LINE
  5
3AE
100
AcDbEntity
  8
0
100
AcDbLine
 62
7
  6
CONTINUOUS
 10
-34.4451861736
 20
-28.7176803432
 11
-34.4549774495
 21
-28.6974160665
  0
SPLINE
  5
3AF
100
AcDbEntity
  8
0
100
AcDbSpline
 62
7
  6
CONTINUOUS
 70
0
 71
3
 72
18
 73
14
 74
12
 42
0.0000001
 43
0.0000001
 44
0.0000000001
 12
1.4653034882
 22
-0.6706565139
 32
0.0
 13
1.5652114725
 23
-0.3834155951
 33
0.0
 40
0.0
 40
0.0
 40
0.0
 40
0.0
 40
0.0798939394
 40
0.1615572347
 40
0.2453301343
 40
0.3315801148
 40
0.4203532048
 40
0.5109722231
 40
0.6034874747
 40
0.6989518876
 40
0.7974856371
 40
0.8981942867
 40
1.0
 40
1.0
 40
1.0
 40
1.0
 10
-36.8844115019
 20
-28.5820805849
 30
0.0
 10
-36.8453885459
 20
-28.5999410485
 30
0.0
 10
-36.7660768789
 20
-28.635186177
 30
0.0
 10
-36.6445634531
 20
-28.6862080639
 30
0.0
 10
-36.5189005675
 20
-28.7360997608
 30
0.0
 10
-36.388751456
 20
-28.78497392
 30
0.0
 10
-36.2542811187
 20
-28.8327351592
 30
0.0
 10
-36.1158201241
 20
-28.8792501565
 30
0.0
 10
-35.9731880563
 20
-28.9245712011
 30
0.0
 10
-35.8257837445
 20
-28.9688480123
 30
0.0
 10
-35.6734805466
 20
-29.0120490295
 30
0.0
 10
-35.5172590908
 20
-29.0538506274
 30
0.0
 10
-35.4117756674
 20
-29.0804578502
 30
0.0
 10
-35.3586598439
 20
-29.0934691496
 30
0.0
 11
-36.8844115019
 21
-28.5820805849
 31
0.0
 11
-36.7667722098
 21
-28.6343977165
 31
0.0
 11
-36.6454479842
 21
-28.6853765919
 31
0.0
 11
-36.5199879819
 21
-28.7352216538
 31
0.0
 11
-36.3898798046
 21
-28.7841124885
 31
0.0
 11
-36.2550832048
 21
-28.8320199308
 31
0.0
 11
-36.1166628075
 21
-28.8785493671
 31
0.0
 11
-35.9745834642
 21
-28.9237208892
 31
0.0
 11
-35.8272538808
 21
-28.9680003708
 31
0.0
 11
-35.6745007537
 21
-29.01135323
 31
0.0
 11
-35.5177310445
 21
-29.0533242285
 31
0.0
 11
-35.3586598439
 21
-29.0934691496
 31
0.0
  0
LINE
  5
3B0
100
AcDbEntity
  8
0
100
AcDbLine
 62
7
  6
CONTINUOUS
 10
-33.5970321852
 20
-29.9251400983
 11
-33.5930253067
 21
-29.92166041
  0
LINE
  5
3B1
100
AcDbEntity
  8
0
100
AcDbLine
 62
7
  6
CONTINUOUS
 10
-34.2262391725
 20
-30.4714454287
 11
-34.1900212222
 21
-30.4400054644
  0
LINE
  5
3B2
100
AcDbEntity
  8
0
100
AcDbLine
 62
7
  6
CONTINUOUS
 10
-34.1900212222
 20
-30.4400054644
 11
-34.0654793948
 21
-30.3318880722
  0
SPLINE
  5
3B3
100
AcDbEntity
  8
0
100
AcDbSpline
 62
7
  6
CONTINUOUS
 70
0
 71
3
 72
10
 73
6
 74
4
 42
0.0000001
 43
0.0000001
 44
0.0000000001
 12
-1.1160560158
 22
-0.4512932522
 32
0.0
 13
-1.178976558
 23
0.2328071033
 33
0.0
 40
0.0
 40
0.0
 40
0.0
 40
0.0
 40
0.3221805308
 40
0.6558317472
 40
1.0
 40
1.0
 40
1.0
 40
1.0
 10
-33.3194477059
 20
-32.1634991337
 30
0.0
 10
-33.439304879
 20
-32.2119651002
 30
0.0
 10
-33.6934622396
 20
-32.2853485776
 30
0.0
 10
-34.0951585465
 20
-32.3182159691
 30
0.0
 10
-34.3668693345
 20
-32.2887304584
 30
0.0
 10
-34.5021247685
 20
-32.2620221871
 30
0.0
 11
-33.3194477059
 21
-32.1634991337
 31
0.0
 11
-33.6912583988
 21
-32.2715573595
 31
0.0
 11
-34.0907965575
 21
-32.3053278511
 31
0.0
 11
-34.5021247685
 21
-32.2620221871
 31
0.0
  0
LINE
  5
3B4
100
AcDbEntity
  8
0
100
AcDbLine
 62
7
  6
CONTINUOUS
 10
-34.4932127872
 20
-28.7671438636
 11
-34.4983994763
 21
-28.7691104105
  0
LINE
  5
3B5
100
AcDbEntity
  8
0
100
AcDbLine
 62
7
  6
CONTINUOUS
 10
-35.1047098904
 20
-28.9990448391
 11
-34.5527444623
 21
-28.7420844623
  0
LINE
  5
3B6
100
AcDbEntity
  8
0
100
AcDbLine
 62
7
  6
CONTINUOUS
 10
-34.5527444623
 20
-28.7420844623
 11
-34.5407551166
 21
-28.7365037305
  0
LINE
  5
3B7
100
AcDbEntity
  8
0
100
AcDbLine
 62
7
  6
CONTINUOUS
 10
-34.5407551166
 20
-28.7365037305
 11
-34.5184166148
 21
-28.7261058163
  0
LINE
  5
3B8
100
AcDbEntity
  8
0
100
AcDbLine
 62
7
  6
CONTINUOUS
 10
-34.5184166148
 20
-28.7261058163
 11
-34.5134012005
 21
-28.7237713036
  0
LINE
  5
3B9
100
AcDbEntity
  8
0
100
AcDbLine
 62
7
  6
CONTINUOUS
 10
-34.5134012005
 20
-28.7237713036
 11
-34.4901914338
 21
-28.7129679812
  0
LINE
  5
3BA
100
AcDbEntity
  8
0
100
AcDbLine
 62
7
  6
CONTINUOUS
 10
-34.4901914338
 20
-28.7129679812
 11
-34.4700479876
 21
-28.7035920165
  0
LINE
  5
3BB
100
AcDbEntity
  8
0
100
AcDbLine
 62
7
  6
CONTINUOUS
 10
-35.1047098904
 20
-28.9990448391
 11
-35.3127503422
 21
-29.0779633613
  0
LINE
  5
3BC
100
AcDbEntity
  8
0
100
AcDbLine
 62
7
  6
CONTINUOUS
 10
-34.4983994763
 20
-28.7691104105
 11
-34.5164810805
 21
-28.7751412027
  0
LINE
  5
3BD
100
AcDbEntity
  8
0
100
AcDbLine
 62
7
  6
CONTINUOUS
 10
-34.5164810805
 20
-28.7751412027
 11
-34.5345377533
 21
-28.7811982412
  0
LINE
  5
3BE
100
AcDbEntity
  8
0
100
AcDbLine
 62
7
  6
CONTINUOUS
 10
-34.4700479876
 20
-28.7035920165
 11
-34.4553077169
 21
-28.704639056
  0
LINE
  5
3BF
100
AcDbEntity
  8
0
100
AcDbLine
 62
7
  6
CONTINUOUS
 10
-34.0654793948
 20
-30.3318880722
 11
-33.6434455252
 21
-30.0029946818
  0
LINE
  5
3C0
100
AcDbEntity
  8
0
100
AcDbLine
 62
7
  6
CONTINUOUS
 10
-33.6434455252
 20
-30.0029946818
 11
-33.6346975377
 21
-29.9961759904
  0
LINE
  5
3C1
100
AcDbEntity
  8
0
100
AcDbLine
 62
7
  6
CONTINUOUS
 10
-32.119838035
 20
-29.5229190943
 11
-31.9796856187
 21
-29.4547551109
  0
SPLINE
  5
3C2
100
AcDbEntity
  8
0
100
AcDbSpline
 62
7
  6
CONTINUOUS
 70
0
 71
3
 72
9
 73
5
 74
3
 42
0.0000001
 43
0.0000001
 44
0.0000000001
 12
-0.1305584559
 22
0.6944725949
 32
0.0
 13
0.0313624356
 23
0.7064646163
 33
0.0
 40
0.0
 40
0.0
 40
0.0
 40
0.0
 40
0.5478873221
 40
1.0
 40
1.0
 40
1.0
 40
1.0
 10
-36.5004342868
 20
-29.4266137423
 30
0.0
 10
-36.5242780611
 20
-29.2997828322
 30
0.0
 10
-36.5540951023
 20
-29.0654229152
 30
0.0
 10
-36.556751636
 20
-28.8294340976
 30
0.0
 10
-36.5520251845
 20
-28.7229668944
 30
0.0
 11
-36.5004342868
 21
-29.4266137423
 31
0.0
 11
-36.5487977636
 21
-29.0424882133
 31
0.0
 11
-36.5520251845
 21
-28.7229668944
 31
0.0
  0
LINE
  5
3C3
100
AcDbEntity
  8
0
100
AcDbLine
 62
7
  6
CONTINUOUS
 10
-36.8844115019
 20
-29.7097117298
 11
-36.5004342868
 21
-29.4266137423
  0
SPLINE
  5
3C4
100
AcDbEntity
  8
0
100
AcDbSpline
 62
7
  6
CONTINUOUS
 70
0
 71
3
 72
10
 73
6
 74
4
 42
0.0000001
 43
0.0000001
 44
0.0000000001
 12
0.3816702746
 22
-0.131874689
 32
0.0
 13
0.4033161689
 23
-0.0199799905
 33
0.0
 40
0.0
 40
0.0
 40
0.0
 40
0.0
 40
0.339545403
 40
0.6728035283
 40
1.0
 40
1.0
 40
1.0
 40
1.0
 10
-34.8920682244
 20
-31.2624176954
 30
0.0
 10
-34.8488700953
 20
-31.2773435102
 30
0.0
 10
-34.7619080583
 20
-31.303152367
 30
0.0
 10
-34.6297026674
 20
-31.3293885533
 30
0.0
 10
-34.5410750843
 20
-31.3382585492
 30
0.0
 10
-34.4970872085
 20
-31.3404376767
 30
0.0
 11
-34.8920682244
 21
-31.2624176954
 31
0.0
 11
-34.7605895293
 21
-31.301315992
 31
0.0
 11
-34.6285672548
 21
-31.3273941434
 31
0.0
 11
-34.4970872085
 21
-31.3404376767
 31
0.0
  0
SPLINE
  5
3C5
100
AcDbEntity
  8
0
100
AcDbSpline
 62
7
  6
CONTINUOUS
 70
0
 71
3
 72
18
 73
14
 74
12
 42
0.0000001
 43
0.0000001
 44
0.0000000001
 12
-2.0664748358
 22
0.0838996145
 32
0.0
 13
-2.0437509542
 23
0.3169218037
 33
0.0
 40
0.0
 40
0.0
 40
0.0
 40
0.0
 40
0.0925879871
 40
0.1844720389
 40
0.2760203209
 40
0.3675865026
 40
0.4591545702
 40
0.549991012
 40
0.6401381786
 40
0.7305676462
 40
0.8212929261
 40
0.911422819
 40
1.0
 40
1.0
 40
1.0
 40
1.0
 10
-32.119838035
 20
-30.6505502392
 30
0.0
 10
-32.1836149502
 20
-30.6479608738
 30
0.0
 10
-32.3106600807
 20
-30.6421941106
 30
0.0
 10
-32.5006616577
 20
-30.6317370058
 30
0.0
 10
-32.689850386
 20
-30.6194867873
 30
0.0
 10
-32.8786928305
 20
-30.6053999473
 30
0.0
 10
-33.06689681
 20
-30.589475264
 30
0.0
 10
-33.2539565645
 20
-30.5717434712
 30
0.0
 10
-33.4400447077
 20
-30.5521823561
 30
0.0
 10
-33.6258427249
 20
-30.5306900219
 30
0.0
 10
-33.8113879544
 20
-30.5072072087
 30
0.0
 10
-33.9953983317
 20
-30.4818576323
 30
0.0
 10
-34.1172519325
 20
-30.4636770761
 30
0.0
 10
-34.1775951652
 20
-30.4543197295
 30
0.0
 11
-32.119838035
 21
-30.6505502392
 31
0.0
 11
-32.3111293087
 21
-30.6418642664
 31
0.0
 11
-32.5008744653
 21
-30.631417695
 31
0.0
 11
-32.6898165937
 21
-30.6191792076
 31
0.0
 11
-32.8786666216
 21
-30.6050868257
 31
0.0
 11
-33.0673708237
 21
-30.5891140457
 31
0.0
 11
-33.2543976909
 21
-30.5713789007
 31
0.0
 11
-33.4398156714
 21
-30.5518810255
 31
0.0
 11
-33.6256000466
 21
-30.5303820188
 31
0.0
 11
-33.8117499029
 21
-30.5068132574
 31
0.0
 11
-33.9964090565
 21
-30.4813638615
 31
0.0
 11
-34.1775951652
 21
-30.4543197295
 31
0.0
  0
SPLINE
  5
3C6
100
AcDbEntity
  8
0
100
AcDbSpline
 62
7
  6
CONTINUOUS
 70
0
 71
3
 72
13
 73
9
 74
7
 42
0.0000001
 43
0.0000001
 44
0.0000000001
 12
-0.4116048646
 22
-1.9663350626
 32
0.0
 13
-1.8657110032
 23
-0.7544269951
 33
0.0
 40
0.0
 40
0.0
 40
0.0
 40
0.0
 40
0.2100084632
 40
0.4130454012
 40
0.6104744777
 40
0.8044381847
 40
0.997594673
 40
1.0
 40
1.0
 40
1.0
 40
1.0
 10
-32.119838035
 20
-30.6505502392
 30
0.0
 10
-32.1486515367
 20
-30.7881992408
 30
0.0
 10
-32.228137816
 20
-31.0548778548
 30
0.0
 10
-32.4151240159
 20
-31.4210372158
 30
0.0
 10
-32.6629491473
 20
-31.7359602893
 30
0.0
 10
-32.9645958654
 20
-31.9898273889
 30
0.0
 10
-33.1963945204
 20
-32.1135579771
 30
0.0
 10
-33.3179518241
 20
-32.1628942525
 30
0.0
 10
-33.3194477059
 20
-32.1634991337
 30
0.0
 11
-32.119838035
 21
-30.6505502392
 31
0.0
 11
-32.2416366619
 21
-31.0544837537
 31
0.0
 11
-32.4282284934
 21
-31.4171945184
 31
0.0
 11
-32.6742651788
 21
-31.7282860209
 31
0.0
 11
-32.9726944781
 21
-31.9788413306
 31
0.0
 11
-33.314962402
 21
-32.1616786884
 31
0.0
 11
-33.3194477059
 21
-32.1634991337
 31
0.0
  0
SPLINE
  5
3C7
100
AcDbEntity
  8
0
100
AcDbSpline
 62
7
  6
CONTINUOUS
 70
0
 71
3
 72
18
 73
14
 74
12
 42
0.0000001
 43
0.0000001
 44
0.0000000001
 12
-1.5652121967
 22
0.3834156723
 32
0.0
 13
-1.4653041445
 23
0.6706568142
 33
0.0
 40
0.0
 40
0.0
 40
0.0
 40
0.0
 40
0.1018084136
 40
0.2025210051
 40
0.3010579046
 40
0.3965230688
 40
0.4890371106
 40
0.5796551186
 40
0.6684274676
 40
0.7546758641
 40
0.8384465117
 40
0.9201075973
 40
1.0
 40
1.0
 40
1.0
 40
1.0
 10
-35.3586591429
 20
-30.2211004662
 30
0.0
 10
-35.4117763999
 20
-30.2080888191
 30
0.0
 10
-35.5172633272
 20
-30.1814806987
 30
0.0
 10
-35.6734899091
 20
-30.1396776258
 30
0.0
 10
-35.8257971767
 20
-30.0964752553
 30
0.0
 10
-35.973202868
 20
-30.0521977705
 30
0.0
 10
-36.1158341711
 20
-30.0068767037
 30
0.0
 10
-36.2542936454
 20
-29.9603619707
 30
0.0
 10
-36.3887622808
 20
-29.9126011021
 30
0.0
 10
-36.5189090792
 20
-29.8637276007
 30
0.0
 10
-36.6445689473
 20
-29.8138369418
 30
0.0
 10
-36.7660794232
 20
-29.7628162013
 30
0.0
 10
-36.845389279
 20
-29.7275718579
 30
0.0
 10
-36.8844115019
 20
-29.7097117298
 30
0.0
 11
-35.3586591429
 21
-30.2211004662
 31
0.0
 11
-35.5177346288
 21
-30.1809544418
 31
0.0
 11
-35.6745105181
 21
-30.138981683
 31
0.0
 11
-35.827268544
 21
-30.0956272322
 31
0.0
 11
-35.9745992813
 21
-30.0513471438
 31
0.0
 11
-36.1166767541
 21
-30.0061759527
 31
0.0
 11
-36.2550955958
 21
-29.959646793
 31
0.0
 11
-36.3898910568
 21
-29.9117395212
 31
0.0
 11
-36.5199968338
 21
-29.8628493784
 31
0.0
 11
-36.6454534654
 21
-29.8130054975
 31
0.0
 11
-36.76677443
 21
-29.7620279019
 31
0.0
 11
-36.8844115019
 21
-29.7097117298
 31
0.0
  0
SPLINE
  5
3C8
100
AcDbEntity
  8
0
100
AcDbSpline
 62
7
  6
CONTINUOUS
 70
0
 71
3
 72
14
 73
10
 74
8
 42
0.0000001
 43
0.0000001
 44
0.0000000001
 12
-0.2891542151
 22
0.534829293
 32
0.0
 13
-0.2487558547
 23
0.5547729784
 33
0.0
 40
0.0
 40
0.0
 40
0.0
 40
0.0
 40
0.1360367768
 40
0.2723221692
 40
0.4076363453
 40
0.5427717075
 40
0.682012431
 40
0.8318750769
 40
1.0
 40
1.0
 40
1.0
 40
1.0
 10
-35.0428695771
 20
-30.8015554751
 30
0.0
 10
-35.0559814462
 20
-30.7773033241
 30
0.0
 10
-35.0820078505
 20
-30.7286346672
 30
0.0
 10
-35.1202885336
 20
-30.6554247526
 30
0.0
 10
-35.1577908414
 20
-30.582018034
 30
0.0
 10
-35.1948481633
 20
-30.5077157175
 30
0.0
 10
-35.2324381457
 20
-30.4303889053
 30
0.0
 10
-35.2720264123
 20
-30.3466055173
 30
0.0
 10
-35.2988094289
 20
-30.2879873924
 30
0.0
 10
-35.3127501153
 20
-30.2568970043
 30
0.0
 11
-35.0428695771
 21
-30.8015554751
 31
0.0
 11
-35.0818710646
 21
-30.7286193698
 31
0.0
 11
-35.1202631001
 21
-30.6551900168
 31
0.0
 11
-35.1576887646
 21
-30.5819259038
 31
0.0
 11
-35.1943539404
 21
-30.5083997244
 31
0.0
 11
-35.2313613435
 21
-30.432259934
 31
0.0
 11
-35.2702787694
 21
-30.3498743106
 31
0.0
 11
-35.3127501153
 21
-30.2568970043
 31
0.0
  0
SPLINE
  5
3C9
100
AcDbEntity
  8
0
100
AcDbSpline
 62
7
  6
CONTINUOUS
 70
0
 71
3
 72
15
 73
11
 74
9
 42
0.0000001
 43
0.0000001
 44
0.0000000001
 12
3.6187321372
 22
-0.7145744679
 32
0.0
 13
0.7001976157
 23
-3.621541419
 33
0.0
 40
0.0
 40
0.0
 40
0.0
 40
0.0
 40
0.1160966458
 40
0.2362197097
 40
0.3599860015
 40
0.4866466502
 40
0.6151827044
 40
0.7444088903
 40
0.8730803329
 40
1.0
 40
1.0
 40
1.0
 40
1.0
 10
-34.5021247685
 20
-26.970608637
 30
0.0
 10
-34.3620838807
 20
-26.99826187
 30
0.0
 10
-34.0817284721
 20
-27.0803567038
 30
0.0
 10
-33.6815437805
 20
-27.2735504754
 30
0.0
 10
-33.3050929396
 20
-27.5332551721
 30
0.0
 10
-32.9630235194
 20
-27.8519670267
 30
0.0
 10
-32.6648125188
 20
-28.2206377278
 30
0.0
 10
-32.4188039526
 20
-28.6289002596
 30
0.0
 10
-32.2319326047
 20
-29.0651434513
 30
0.0
 10
-32.1494609844
 20
-29.3697041506
 30
0.0
 10
-32.119838035
 20
-29.5229190943
 30
0.0
 11
-34.5021247685
 21
-26.970608637
 31
0.0
 11
-34.0907965575
 21
-27.0897491704
 31
0.0
 11
-33.6912583988
 21
-27.2813096041
 31
0.0
 11
-33.314962402
 21
-27.5397991707
 31
0.0
 11
-32.9726944781
 21
-27.8578086884
 31
0.0
 11
-32.6742651788
 21
-28.226222933
 31
0.0
 11
-32.4282284934
 21
-28.6344819113
 31
0.0
 11
-32.2416366619
 21
-29.0708835454
 31
0.0
 11
-32.119838035
 21
-29.5229190943
 31
0.0
  0
SPLINE
  5
3CA
100
AcDbEntity
  8
0
100
AcDbSpline
 62
7
  6
CONTINUOUS
 70
0
 71
3
 72
10
 73
6
 74
4
 42
0.0000001
 43
0.0000001
 44
0.0000000001
 12
-0.3816702751
 22
0.1318746893
 32
0.0
 13
-0.4033161695
 23
0.0199799905
 33
0.0
 40
0.0
 40
0.0
 40
0.0
 40
0.0
 40
0.339545403
 40
0.6728035283
 40
1.0
 40
1.0
 40
1.0
 40
1.0
 10
-34.4969190323
 20
-28.1981303176
 30
0.0
 10
-34.5401171614
 20
-28.1832045027
 30
0.0
 10
-34.6270791985
 20
-28.1573956459
 30
0.0
 10
-34.7592845897
 20
-28.1311594595
 30
0.0
 10
-34.8479121728
 20
-28.1222894636
 30
0.0
 10
-34.8919000487
 20
-28.1201103361
 30
0.0
 11
-34.4969190323
 21
-28.1981303176
 31
0.0
 11
-34.6283977275
 21
-28.1592320209
 31
0.0
 11
-34.7604200022
 21
-28.1331538694
 31
0.0
 11
-34.8919000487
 21
-28.1201103361
 31
0.0
  0
LINE
  5
3CB
100
AcDbEntity
  8
0
100
AcDbLine
 62
7
  6
CONTINUOUS
 10
-35.0428695279
 20
-28.5996584559
 11
-35.0307070303
 21
-28.5839691573
  0
SPLINE
  5
3CC
100
AcDbEntity
  8
0
100
AcDbSpline
 62
7
  6
CONTINUOUS
 70
0
 71
3
 72
14
 73
10
 74
8
 42
0.0000001
 43
0.0000001
 44
0.0000000001
 12
0.2543108067
 22
0.4868490029
 32
0.0
 13
0.282637864
 23
0.4709689754
 33
0.0
 40
0.0
 40
0.0
 40
0.0
 40
0.0
 40
0.1646356699
 40
0.3124627678
 40
0.4508558821
 40
0.5864832347
 40
0.7231960529
 40
0.8614062267
 40
1.0
 40
1.0
 40
1.0
 40
1.0
 10
-35.3127503422
 20
-29.0779633613
 30
0.0
 10
-35.2987941322
 20
-29.0512457907
 30
0.0
 10
-35.2719797106
 20
-29.0007084933
 30
0.0
 10
-35.232482343
 20
-28.9282228645
 30
0.0
 10
-35.1949036998
 20
-28.8607441816
 30
0.0
 10
-35.1577827084
 20
-28.7953429052
 30
0.0
 10
-35.1201914092
 20
-28.7302495772
 30
0.0
 10
-35.0818689152
 20
-28.664953601
 30
0.0
 10
-35.0559268106
 20
-28.621416245
 30
0.0
 10
-35.0428695279
 20
-28.5996584559
 30
0.0
 11
-35.3127503422
 21
-29.0779633613
 31
0.0
 11
-35.2703820771
 21
-28.998073628
 31
0.0
 11
-35.2315431998
 21
-28.9267682428
 31
0.0
 11
-35.1945667201
 21
-28.8603527485
 31
0.0
 11
-35.1578007152
 21
-28.7955616155
 31
0.0
 11
-35.1202529547
 21
-28.7305309931
 31
0.0
 11
-35.081832312
 21
-28.6650568323
 31
0.0
 11
-35.0428695279
 21
-28.5996584559
 31
0.0
  0
SPLINE
  5
3CD
100
AcDbEntity
  8
0
100
AcDbSpline
 62
7
  6
CONTINUOUS
 70
0
 71
3
 72
12
 73
8
 74
6
 42
0.0000001
 43
0.0000001
 44
0.0000000001
 12
-0.0872524106
 22
0.5958012546
 32
0.0
 13
-0.1461594968
 23
0.5841485425
 33
0.0
 40
0.0
 40
0.0
 40
0.0
 40
0.0
 40
0.2424338031
 40
0.4606539805
 40
0.6569234394
 40
0.8351704222
 40
1.0
 40
1.0
 40
1.0
 40
1.0
 10
-34.3595435793
 20
-30.422915964
 30
0.0
 10
-34.3665945572
 20
-30.3747685093
 30
0.0
 10
-34.3805270216
 20
-30.2833589996
 30
0.0
 10
-34.4023473995
 20
-30.1533143744
 30
0.0
 10
-34.4241597632
 20
-30.0363495496
 30
0.0
 10
-34.4462805676
 20
-29.9303679029
 30
0.0
 10
-34.4620169812
 20
-29.8633181849
 30
0.0
 10
-34.4700474505
 20
-29.8312231991
 30
0.0
 11
-34.3595435793
 21
-30.422915964
 31
0.0
 11
-34.3816384333
 21
-30.27861468
 31
0.0
 11
-34.4034882066
 21
-30.1490413776
 31
0.0
 11
-34.4252564924
 21
-30.0328785319
 31
0.0
 11
-34.4472804315
 21
-29.9278298854
 31
0.0
 11
-34.4700474505
 21
-29.8312231991
 31
0.0
  0
SPLINE
  5
3CE
100
AcDbEntity
  8
0
100
AcDbSpline
 62
7
  6
CONTINUOUS
 70
0
 71
3
 72
12
 73
8
 74
6
 42
0.0000001
 43
0.0000001
 44
0.0000000001
 12
1.3682812672
 22
1.1187616664
 32
0.0
 13
1.7308597554
 23
-0.3417849517
 33
0.0
 40
0.0
 40
0.0
 40
0.0
 40
0.0
 40
0.0961668545
 40
0.3161102729
 40
0.5383027063
 40
0.7655695092
 40
1.0
 40
1.0
 40
1.0
 40
1.0
 10
-36.1678123249
 20
-27.3552856563
 30
0.0
 10
-36.1239512231
 20
-27.3194230595
 30
0.0
 10
-35.9744870963
 20
-27.2080185108
 30
0.0
 10
-35.6931675642
 20
-27.0578544335
 30
0.0
 10
-35.3124025124
 20
-26.9474144058
 30
0.0
 10
-34.9090909904
 20
-26.914414855
 30
0.0
 10
-34.6373802025
 20
-26.9439003657
 30
0.0
 10
-34.5021247685
 20
-26.970608637
 30
0.0
 11
-36.1678123249
 21
-27.3552856563
 31
0.0
 11
-36.0315550588
 21
-27.2537894935
 31
0.0
 11
-35.6892871349
 21
-27.0709521357
 31
0.0
 11
-35.3129911381
 21
-26.9610734646
 31
0.0
 11
-34.9134529794
 21
-26.927302973
 31
0.0
 11
-34.5021247685
 21
-26.970608637
 31
0.0
  0
LINE
  5
3CF
100
AcDbEntity
  8
0
100
AcDbLine
 62
7
  6
CONTINUOUS
 10
-34.4923636422
 20
-28.2623685348
 11
-34.5168631398
 21
-28.2535657569
  0
SPLINE
  5
3D0
100
AcDbEntity
  8
0
100
AcDbSpline
 62
7
  6
CONTINUOUS
 70
0
 71
3
 72
9
 73
5
 74
3
 42
0.0000001
 43
0.0000001
 44
0.0000000001
 12
0.5453136597
 22
0.2290878678
 32
0.0
 13
0.545143145
 23
0.2294933757
 33
0.0
 40
0.0
 40
0.0
 40
0.0
 40
0.0
 40
0.605165227
 40
1.0
 40
1.0
 40
1.0
 40
1.0
 10
-35.0307070303
 20
-28.5839691573
 30
0.0
 10
-34.9207054087
 20
-28.5377571534
 30
0.0
 10
-34.7388958537
 20
-28.4614856972
 30
0.0
 10
-34.5572129918
 20
-28.3849129468
 30
0.0
 10
-34.4854658352
 20
-28.3547089585
 30
0.0
 11
-35.0307070303
 21
-28.5839691573
 31
0.0
 11
-34.7007021656
 21
-28.4453331457
 31
0.0
 11
-34.4854658352
 21
-28.3547089585
 31
0.0
  0
LINE
  5
3D1
100
AcDbEntity
  8
0
100
AcDbLine
 62
7
  6
CONTINUOUS
 10
-34.4932127872
 20
-29.7439045094
 11
-34.4983994763
 21
-29.7471512259
  0
LINE
  5
3D2
100
AcDbEntity
  8
0
100
AcDbLine
 62
7
  6
CONTINUOUS
 10
-35.1047101095
 20
-30.1266762152
 11
-35.3586591429
 21
-30.2211004662
  0
LINE
  5
3D3
100
AcDbEntity
  8
0
100
AcDbLine
 62
7
  6
CONTINUOUS
 10
-35.1047101095
 20
-30.1266762152
 11
-35.3127501153
 21
-30.2568970043
  0
LINE
  5
3D4
100
AcDbEntity
  8
0
100
AcDbLine
 62
7
  6
CONTINUOUS
 10
-34.4700474505
 20
-29.8312231991
 11
-35.1047101095
 21
-30.1266762152
  0
LINE
  5
3D5
100
AcDbEntity
  8
0
100
AcDbLine
 62
7
  6
CONTINUOUS
 10
-34.3706222414
 20
-30.4582967191
 11
-35.0305456551
 21
-30.8203194233
  0
SPLINE
  5
3D6
100
AcDbEntity
  8
0
100
AcDbSpline
 62
7
  6
CONTINUOUS
 70
0
 71
3
 72
11
 73
7
 74
5
 42
0.0000001
 43
0.0000001
 44
0.0000000001
 12
0.0316404672
 22
-0.5247972791
 32
0.0
 13
-0.3668919771
 23
-0.3751709398
 33
0.0
 40
0.0
 40
0.0
 40
0.0
 40
0.0
 40
0.0886543881
 40
0.4071905122
 40
0.7101503085
 40
1.0
 40
1.0
 40
1.0
 40
1.0
 10
-33.3976347616
 20
-29.4287732603
 30
0.0
 10
-33.3966997395
 20
-29.4442817875
 30
0.0
 10
-33.39449793
 20
-29.515642058
 30
0.0
 10
-33.4080312333
 20
-29.6402690545
 30
0.0
 10
-33.4637375433
 20
-29.7914284886
 30
0.0
 10
-33.5254460662
 20
-29.8768045406
 30
0.0
 10
-33.5608939083
 20
-29.9130522676
 30
0.0
 11
-33.3976347616
 21
-29.4287732603
 31
0.0
 11
-33.3962131842
 21
-29.4753599087
 31
0.0
 11
-33.415196144
 21
-29.6414304416
 31
0.0
 11
-33.4711918965
 21
-29.7902207809
 31
0.0
 11
-33.5608939083
 21
-29.9130522676
 31
0.0
  0
SPLINE
  5
3D7
100
AcDbEntity
  8
0
100
AcDbSpline
 62
7
  6
CONTINUOUS
 70
0
 71
3
 72
13
 73
9
 74
7
 42
0.0000001
 43
0.0000001
 44
0.0000000001
 12
-0.584390974
 22
0.8283727855
 32
0.0
 13
0.7087966443
 23
0.724790728
 33
0.0
 40
0.0
 40
0.0
 40
0.0
 40
0.0
 40
0.1785712001
 40
0.3559957323
 40
0.5282632952
 40
0.6931460571
 40
0.8499660979
 40
1.0
 40
1.0
 40
1.0
 40
1.0
 10
-34.5345380357
 20
-29.7207908746
 30
0.0
 10
-34.5693231683
 20
-29.6714830338
 30
0.0
 10
-34.6291744647
 20
-29.5660842382
 30
0.0
 10
-34.6856288982
 20
-29.395526969
 30
0.0
 10
-34.7055864568
 20
-29.221454987
 30
0.0
 10
-34.6874004283
 20
-29.0539814543
 30
0.0
 10
-34.6316941182
 20
-28.9028220202
 30
0.0
 10
-34.5699855954
 20
-28.8174459682
 30
0.0
 10
-34.5345377533
 20
-28.7811982412
 30
0.0
 11
-34.5345380357
 21
-29.7207908746
 31
0.0
 11
-34.6238803827
 21
-29.5633444947
 31
0.0
 11
-34.6800511076
 21
-29.3924739441
 31
0.0
 11
-34.6992184774
 21
-29.2188906001
 31
0.0
 11
-34.6802355175
 21
-29.0528200672
 31
0.0
 11
-34.6242397651
 21
-28.9040297279
 31
0.0
 11
-34.5345377533
 21
-28.7811982412
 31
0.0
  0
LINE
  5
3D8
100
AcDbEntity
  8
0
100
AcDbLine
 62
7
  6
CONTINUOUS
 10
-31.8309458283
 20
-30.5100408204
 11
-32.119838035
 21
-30.6505502392
  0
LINE
  5
3D9
100
AcDbEntity
  8
0
100
AcDbLine
 62
7
  6
CONTINUOUS
 10
8.8464205382
 20
11.2591117177
 11
8.8560839796
 21
11.2733205847
  0
SPLINE
  5
3DA
100
AcDbEntity
  8
0
100
AcDbSpline
 62
7
  6
CONTINUOUS
 70
0
 71
3
 72
14
 73
10
 74
8
 42
0.0000001
 43
0.0000001
 44
0.0000000001
 12
-0.2176809815
 22
-0.4487486241
 32
0.0
 13
-0.2178609914
 23
-0.4486612595
 33
0.0
 40
0.0
 40
0.0
 40
0.0
 40
0.0
 40
0.1716728538
 40
0.3234273482
 40
0.4634585861
 40
0.598793128
 40
0.7333259465
 40
0.8674278409
 40
1.0
 40
1.0
 40
1.0
 40
1.0
 10
9.0750310167
 20
11.7214525106
 30
0.0
 10
9.0625743782
 20
11.6957731916
 30
0.0
 10
9.0390345788
 20
11.6474288201
 30
0.0
 10
9.0051754741
 20
11.5782155759
 30
0.0
 10
8.9739218963
 20
11.5144532516
 30
0.0
 10
8.9439227847
 20
11.4532646451
 30
0.0
 10
8.9143873485
 20
11.392946583
 30
0.0
 10
8.8851129958
 20
11.3330120618
 30
0.0
 10
8.8657114136
 20
11.2931472486
 30
0.0
 10
8.8560839796
 20
11.2733205847
 30
0.0
 11
9.0750310167
 21
11.7214525106
 31
0.0
 11
9.0375598048
 21
11.6444637734
 31
0.0
 11
9.0043099007
 21
11.576469275
 31
0.0
 11
8.9735772372
 21
11.5137525942
 31
0.0
 11
8.9438691034
 21
11.4531425176
 31
0.0
 11
8.9143657698
 21
11.3928773837
 31
0.0
 11
8.8850156613
 21
11.3327765734
 31
0.0
 11
8.8560839796
 21
11.2733205847
 31
0.0
  0
SPLINE
  5
3DB
100
AcDbEntity
  8
0
100
AcDbSpline
 62
7
  6
CONTINUOUS
 70
0
 71
3
 72
15
 73
11
 74
9
 42
0.0000001
 43
0.0000001
 44
0.0000000001
 12
-3.6187321372
 22
0.7145744679
 32
0.0
 13
-0.7001976157
 23
3.621541419
 33
0.0
 40
0.0
 40
0.0
 40
0.0
 40
0.0
 40
0.1160966458
 40
0.2362197097
 40
0.3599860015
 40
0.4866466502
 40
0.6151827044
 40
0.7444088903
 40
0.8730803329
 40
1.0
 40
1.0
 40
1.0
 40
1.0
 10
8.7991454208
 20
9.9308757522
 30
0.0
 10
8.659104533
 20
9.9585289852
 30
0.0
 10
8.3787491244
 20
10.040623819
 30
0.0
 10
7.9785644328
 20
10.2338175906
 30
0.0
 10
7.6021135919
 20
10.4935222873
 30
0.0
 10
7.2600441717
 20
10.8122341419
 30
0.0
 10
6.9618331711
 20
11.180904843
 30
0.0
 10
6.7158246049
 20
11.5891673748
 30
0.0
 10
6.528953257
 20
12.0254105664
 30
0.0
 10
6.4464816367
 20
12.3299712658
 30
0.0
 10
6.4168586873
 20
12.4831862095
 30
0.0
 11
8.7991454208
 21
9.9308757522
 31
0.0
 11
8.3878172098
 21
10.0500162856
 31
0.0
 11
7.9882790511
 21
10.2415767192
 31
0.0
 11
7.6119830543
 21
10.5000662858
 31
0.0
 11
7.2697151304
 21
10.8180758035
 31
0.0
 11
6.9712858311
 21
11.1864900482
 31
0.0
 11
6.7252491456
 21
11.5947490265
 31
0.0
 11
6.5386573142
 21
12.0311506606
 31
0.0
 11
6.4168586873
 21
12.4831862095
 31
0.0
  0
SPLINE
  5
3DC
100
AcDbEntity
  8
0
100
AcDbSpline
 62
7
  6
CONTINUOUS
 70
0
 71
3
 72
11
 73
7
 74
5
 42
0.0000001
 43
0.0000001
 44
0.0000000001
 12
0.2963487114
 22
1.4157288021
 32
0.0
 13
1.1217590843
 23
0.9171952379
 33
0.0
 40
0.0
 40
0.0
 40
0.0
 40
0.0
 40
0.2916851053
 40
0.5736873147
 40
0.8479006492
 40
1.0
 40
1.0
 40
1.0
 40
1.0
 10
6.4168586873
 20
13.6108173544
 30
0.0
 10
6.445672189
 20
13.748466356
 30
0.0
 10
6.5251584682
 20
14.0151449699
 30
0.0
 10
6.7121446682
 20
14.381304331
 30
0.0
 10
6.9247595933
 20
14.651484136
 30
0.0
 10
7.0765849215
 20
14.7911106829
 30
0.0
 10
7.1334578643
 20
14.837612283
 30
0.0
 11
6.4168586873
 21
13.6108173544
 31
0.0
 11
6.5386573142
 21
14.0147508689
 31
0.0
 11
6.7252491456
 21
14.3774616336
 31
0.0
 11
6.9712858311
 21
14.688553136
 31
0.0
 11
7.1334578643
 21
14.837612283
 31
0.0
  0
SPLINE
  5
3DD
100
AcDbEntity
  8
0
100
AcDbSpline
 62
7
  6
CONTINUOUS
 70
0
 71
3
 72
18
 73
14
 74
12
 42
0.0000001
 43
0.0000001
 44
0.0000000001
 12
2.0437517236
 22
-0.3169220271
 32
0.0
 13
2.0664756297
 23
-0.0838996468
 33
0.0
 40
0.0
 40
0.0
 40
0.0
 40
0.0
 40
0.088579559
 40
0.178713095
 40
0.2694414879
 40
0.359871938
 40
0.4500181976
 40
0.5408538783
 40
0.6324214181
 40
0.7239861279
 40
0.815532106
 40
0.9074137622
 40
1.0
 40
1.0
 40
1.0
 40
1.0
 10
9.1236742388
 20
12.8662094765
 30
0.0
 10
9.1840191142
 20
12.8568518721
 30
0.0
 10
9.3058768694
 20
12.8386707094
 30
0.0
 10
9.4898935681
 20
12.8133203523
 30
0.0
 10
9.6754441826
 20
12.7898370228
 30
0.0
 10
9.8612444783
 20
12.7683446313
 30
0.0
 10
10.047332244
 20
12.7487837584
 30
0.0
 10
10.2343905802
 20
12.7310522822
 30
0.0
 10
10.4225927495
 20
12.7151279189
 30
0.0
 10
10.6114323186
 20
12.7010414378
 30
0.0
 10
10.8006168805
 20
12.6887915941
 30
0.0
 10
10.9906140944
 20
12.6783347871
 30
0.0
 10
11.1176564195
 20
12.6725681626
 30
0.0
 10
11.1814321542
 20
12.669978845
 30
0.0
 11
9.1236742388
 21
12.8662094765
 31
0.0
 11
9.3048652841
 21
12.8391646269
 31
0.0
 11
9.4895319847
 21
12.8137142806
 31
0.0
 11
9.6756883206
 21
12.790144864
 31
0.0
 11
9.8614748091
 21
12.7686458189
 31
0.0
 11
10.0468910164
 21
12.7491483323
 31
0.0
 11
10.2339164054
 21
12.7314135097
 31
0.0
 11
10.4226196064
 21
12.7154409818
 31
0.0
 11
10.6114666821
 21
12.7013489649
 31
0.0
 11
10.8004041348
 21
12.6891108854
 31
0.0
 11
10.9901444204
 21
12.67866464
 31
0.0
 11
11.1814321542
 21
12.669978845
 31
0.0
  0
LINE
  5
3DE
100
AcDbEntity
  8
0
100
AcDbLine
 62
7
  6
CONTINUOUS
 10
9.0750307549
 20
12.9003861331
 11
9.1236742388
 21
12.8662094765
  0
SPLINE
  5
3DF
100
AcDbEntity
  8
0
100
AcDbSpline
 62
7
  6
CONTINUOUS
 70
0
 71
3
 72
14
 73
10
 74
8
 42
0.0000001
 43
0.0000001
 44
0.0000000001
 12
0.2106632969
 22
-0.5779359674
 32
0.0
 13
0.2250151984
 23
-0.5725008014
 33
0.0
 40
0.0
 40
0.0
 40
0.0
 40
0.0
 40
0.1366083925
 40
0.273293398
 40
0.4088296449
 40
0.5440091569
 40
0.6831048996
 40
0.8325881851
 40
1.0
 40
1.0
 40
1.0
 40
1.0
 10
8.8560840156
 20
13.4752175961
 30
0.0
 10
8.865676807
 20
13.4489006282
 30
0.0
 10
8.8849915053
 20
13.396296951
 30
0.0
 10
8.9142367309
 20
13.3177352997
 30
0.0
 10
8.9437046638
 20
13.239569972
 30
0.0
 10
8.9736454542
 20
13.1610553384
 30
0.0
 10
9.0048822492
 20
13.079974849
 30
0.0
 10
9.0387671896
 20
12.9928325368
 30
0.0
 10
9.0624740207
 20
12.9323339325
 30
0.0
 10
9.0750307549
 20
12.9003861331
 30
0.0
 11
8.8560840156
 21
13.4752175961
 31
0.0
 11
8.8850448267
 21
13.3963334315
 31
0.0
 11
8.9143736425
 21
13.317535061
 31
0.0
 11
8.9437798908
 21
13.2395202759
 31
0.0
 11
8.9734028911
 21
13.161822338
 31
0.0
 11
9.0041565647
 21
13.0819778615
 31
0.0
 11
9.0374701062
 21
12.996272518
 31
0.0
 11
9.0750307549
 21
12.9003861331
 31
0.0
  0
LINE
  5
3E0
100
AcDbEntity
  8
0
100
AcDbLine
 62
7
  6
CONTINUOUS
 10
8.8560840156
 20
13.4752175961
 11
8.8462927397
 21
13.4954818728
  0
SPLINE
  5
3E1
100
AcDbEntity
  8
0
100
AcDbSpline
 62
7
  6
CONTINUOUS
 70
0
 71
3
 72
18
 73
14
 74
12
 42
0.0000001
 43
0.0000001
 44
0.0000000001
 12
1.4653034882
 22
-0.6706565139
 32
0.0
 13
1.5652114725
 23
-0.3834155951
 33
0.0
 40
0.0
 40
0.0
 40
0.0
 40
0.0
 40
0.0798939394
 40
0.1615572347
 40
0.2453301343
 40
0.3315801148
 40
0.4203532048
 40
0.5109722231
 40
0.6034874747
 40
0.6989518876
 40
0.7974856371
 40
0.8981942867
 40
1.0
 40
1.0
 40
1.0
 40
1.0
 10
6.4168586873
 20
13.6108173544
 30
0.0
 10
6.4558816433
 20
13.5929568908
 30
0.0
 10
6.5351933103
 20
13.5577117623
 30
0.0
 10
6.6567067362
 20
13.5066898754
 30
0.0
 10
6.7823696217
 20
13.4567981785
 30
0.0
 10
6.9125187332
 20
13.4079240193
 30
0.0
 10
7.0469890705
 20
13.3601627801
 30
0.0
 10
7.1854500652
 20
13.3136477828
 30
0.0
 10
7.328082133
 20
13.2683267382
 30
0.0
 10
7.4754864447
 20
13.224049927
 30
0.0
 10
7.6277896426
 20
13.1808489098
 30
0.0
 10
7.7840110984
 20
13.1390473119
 30
0.0
 10
7.8894945218
 20
13.1124400891
 30
0.0
 10
7.9426103453
 20
13.0994287897
 30
0.0
 11
6.4168586873
 21
13.6108173544
 31
0.0
 11
6.5344979794
 21
13.5585002228
 31
0.0
 11
6.655822205
 21
13.5075213474
 31
0.0
 11
6.7812822073
 21
13.4576762855
 31
0.0
 11
6.9113903847
 21
13.4087854508
 31
0.0
 11
7.0461869844
 21
13.3608780085
 31
0.0
 11
7.1846073817
 21
13.3143485722
 31
0.0
 11
7.326686725
 21
13.2691770501
 31
0.0
 11
7.4740163084
 21
13.2248975685
 31
0.0
 11
7.6267694355
 21
13.1815447093
 31
0.0
 11
7.7835391447
 21
13.1395737108
 31
0.0
 11
7.9426103453
 21
13.0994287897
 31
0.0
  0
LINE
  5
3E2
100
AcDbEntity
  8
0
100
AcDbLine
 62
7
  6
CONTINUOUS
 10
9.704238004
 20
12.267757841
 11
9.7082448825
 21
12.2712375293
  0
LINE
  5
3E3
100
AcDbEntity
  8
0
100
AcDbLine
 62
7
  6
CONTINUOUS
 10
9.0750310167
 20
11.7214525106
 11
9.111248967
 21
11.7528924749
  0
LINE
  5
3E4
100
AcDbEntity
  8
0
100
AcDbLine
 62
7
  6
CONTINUOUS
 10
9.111248967
 20
11.7528924749
 11
9.2357907944
 21
11.8610098671
  0
SPLINE
  5
3E5
100
AcDbEntity
  8
0
100
AcDbSpline
 62
7
  6
CONTINUOUS
 70
0
 71
3
 72
10
 73
6
 74
4
 42
0.0000001
 43
0.0000001
 44
0.0000000001
 12
-1.1160560158
 22
-0.4512932522
 32
0.0
 13
-1.178976558
 23
0.2328071033
 33
0.0
 40
0.0
 40
0.0
 40
0.0
 40
0.0
 40
0.3221805308
 40
0.6558317472
 40
1.0
 40
1.0
 40
1.0
 40
1.0
 10
9.9818224834
 20
10.0293988056
 30
0.0
 10
9.8619653102
 20
9.9809328391
 30
0.0
 10
9.6078079496
 20
9.9075493617
 30
0.0
 10
9.2061116427
 20
9.8746819702
 30
0.0
 10
8.9344008548
 20
9.9041674809
 30
0.0
 10
8.7991454208
 20
9.9308757522
 30
0.0
 11
9.9818224834
 21
10.0293988056
 31
0.0
 11
9.6100117904
 21
9.9213405798
 31
0.0
 11
9.2104736317
 21
9.8875700882
 31
0.0
 11
8.7991454208
 21
9.9308757522
 31
0.0
  0
LINE
  5
3E6
100
AcDbEntity
  8
0
100
AcDbLine
 62
7
  6
CONTINUOUS
 10
8.8080574021
 20
13.4257540757
 11
8.8028707129
 21
13.4237875288
  0
LINE
  5
3E7
100
AcDbEntity
  8
0
100
AcDbLine
 62
7
  6
CONTINUOUS
 10
8.1965602989
 20
13.1938531002
 11
8.7485257269
 21
13.4508134769
  0
LINE
  5
3E8
100
AcDbEntity
  8
0
100
AcDbLine
 62
7
  6
CONTINUOUS
 10
8.7485257269
 20
13.4508134769
 11
8.7605150727
 21
13.4563942088
  0
LINE
  5
3E9
100
AcDbEntity
  8
0
100
AcDbLine
 62
7
  6
CONTINUOUS
 10
8.7605150727
 20
13.4563942088
 11
8.7828535745
 21
13.466792123
  0
LINE
  5
3EA
100
AcDbEntity
  8
0
100
AcDbLine
 62
7
  6
CONTINUOUS
 10
8.7828535745
 20
13.466792123
 11
8.7878689887
 21
13.4691266357
  0
LINE
  5
3EB
100
AcDbEntity
  8
0
100
AcDbLine
 62
7
  6
CONTINUOUS
 10
8.7878689887
 20
13.4691266357
 11
8.8110787554
 21
13.4799299581
  0
LINE
  5
3EC
100
AcDbEntity
  8
0
100
AcDbLine
 62
7
  6
CONTINUOUS
 10
8.8110787554
 20
13.4799299581
 11
8.8312222016
 21
13.4893059228
  0
LINE
  5
3ED
100
AcDbEntity
  8
0
100
AcDbLine
 62
7
  6
CONTINUOUS
 10
8.1965602989
 20
13.1938531002
 11
7.988519847
 21
13.114934578
  0
LINE
  5
3EE
100
AcDbEntity
  8
0
100
AcDbLine
 62
7
  6
CONTINUOUS
 10
8.8028707129
 20
13.4237875288
 11
8.7847891087
 21
13.4177567366
  0
LINE
  5
3EF
100
AcDbEntity
  8
0
100
AcDbLine
 62
7
  6
CONTINUOUS
 10
8.7847891087
 20
13.4177567366
 11
8.766732436
 21
13.4116996981
  0
LINE
  5
3F0
100
AcDbEntity
  8
0
100
AcDbLine
 62
7
  6
CONTINUOUS
 10
8.8312222016
 20
13.4893059228
 11
8.8459624723
 21
13.4882588833
  0
LINE
  5
3F1
100
AcDbEntity
  8
0
100
AcDbLine
 62
7
  6
CONTINUOUS
 10
9.2357907944
 20
11.8610098671
 11
9.6578246641
 21
12.1899032575
  0
LINE
  5
3F2
100
AcDbEntity
  8
0
100
AcDbLine
 62
7
  6
CONTINUOUS
 10
9.6578246641
 20
12.1899032575
 11
9.6665726515
 21
12.1967219489
  0
LINE
  5
3F3
100
AcDbEntity
  8
0
100
AcDbLine
 62
7
  6
CONTINUOUS
 10
11.1814321542
 20
12.669978845
 11
11.396047607
 21
12.774360222
  0
SPLINE
  5
3F4
100
AcDbEntity
  8
0
100
AcDbSpline
 62
7
  6
CONTINUOUS
 70
0
 71
3
 72
9
 73
5
 74
3
 42
0.0000001
 43
0.0000001
 44
0.0000000001
 12
-0.1305584559
 22
0.6944725949
 32
0.0
 13
0.0313624356
 23
0.7064646163
 33
0.0
 40
0.0
 40
0.0
 40
0.0
 40
0.0
 40
0.5478873221
 40
1.0
 40
1.0
 40
1.0
 40
1.0
 10
6.8008359024
 20
12.766284197
 30
0.0
 10
6.7769921282
 20
12.893115107
 30
0.0
 10
6.747175087
 20
13.1274750241
 30
0.0
 10
6.7445185532
 20
13.3634638417
 30
0.0
 10
6.7492450048
 20
13.4699310449
 30
0.0
 11
6.8008359024
 21
12.766284197
 31
0.0
 11
6.7524724256
 21
13.150409726
 31
0.0
 11
6.7492450048
 21
13.4699310449
 31
0.0
  0
LINE
  5
3F5
100
AcDbEntity
  8
0
100
AcDbLine
 62
7
  6
CONTINUOUS
 10
6.4168586873
 20
12.4831862095
 11
6.8008359024
 21
12.766284197
  0
SPLINE
  5
3F6
100
AcDbEntity
  8
0
100
AcDbSpline
 62
7
  6
CONTINUOUS
 70
0
 71
3
 72
10
 73
6
 74
4
 42
0.0000001
 43
0.0000001
 44
0.0000000001
 12
0.3816702746
 22
-0.131874689
 32
0.0
 13
0.4033161689
 23
-0.0199799905
 33
0.0
 40
0.0
 40
0.0
 40
0.0
 40
0.0
 40
0.339545403
 40
0.6728035283
 40
1.0
 40
1.0
 40
1.0
 40
1.0
 10
8.4092019649
 20
10.9304802439
 30
0.0
 10
8.4524000939
 20
10.9155544291
 30
0.0
 10
8.5393621309
 20
10.8897455723
 30
0.0
 10
8.6715675218
 20
10.863509386
 30
0.0
 10
8.7601951049
 20
10.8546393901
 30
0.0
 10
8.8041829807
 20
10.8524602626
 30
0.0
 11
8.4092019649
 21
10.9304802439
 31
0.0
 11
8.5406806599
 21
10.8915819473
 31
0.0
 11
8.6727029344
 21
10.8655037958
 31
0.0
 11
8.8041829807
 21
10.8524602626
 31
0.0
  0
SPLINE
  5
3F7
100
AcDbEntity
  8
0
100
AcDbSpline
 62
7
  6
CONTINUOUS
 70
0
 71
3
 72
18
 73
14
 74
12
 42
0.0000001
 43
0.0000001
 44
0.0000000001
 12
-2.0664748358
 22
0.0838996145
 32
0.0
 13
-2.0437509542
 23
0.3169218037
 33
0.0
 40
0.0
 40
0.0
 40
0.0
 40
0.0
 40
0.0925879871
 40
0.1844720389
 40
0.2760203209
 40
0.3675865026
 40
0.4591545702
 40
0.549991012
 40
0.6401381786
 40
0.7305676462
 40
0.8212929261
 40
0.911422819
 40
1.0
 40
1.0
 40
1.0
 40
1.0
 10
11.1814321542
 20
11.5423477001
 30
0.0
 10
11.117655239
 20
11.5449370655
 30
0.0
 10
10.9906101086
 20
11.5507038287
 30
0.0
 10
10.8006085315
 20
11.5611609335
 30
0.0
 10
10.6114198032
 20
11.573411152
 30
0.0
 10
10.4225773587
 20
11.587497992
 30
0.0
 10
10.2343733792
 20
11.6034226753
 30
0.0
 10
10.0473136248
 20
11.6211544681
 30
0.0
 10
9.8612254815
 20
11.6407155832
 30
0.0
 10
9.6754274643
 20
11.6622079174
 30
0.0
 10
9.4898822348
 20
11.6856907306
 30
0.0
 10
9.3058718575
 20
11.711040307
 30
0.0
 10
9.1840182568
 20
11.7292208632
 30
0.0
 10
9.123675024
 20
11.7385782098
 30
0.0
 11
11.1814321542
 21
11.5423477001
 31
0.0
 11
10.9901408805
 21
11.5510336729
 31
0.0
 11
10.8003957239
 21
11.5614802443
 31
0.0
 11
10.6114535955
 21
11.5737187317
 31
0.0
 11
10.4226035676
 21
11.5878111136
 31
0.0
 11
10.2338993655
 21
11.6037838936
 31
0.0
 11
10.0468724983
 21
11.6215190386
 31
0.0
 11
9.8614545178
 21
11.6410169138
 31
0.0
 11
9.6756701426
 21
11.6625159205
 31
0.0
 11
9.4895202863
 21
11.6860846819
 31
0.0
 11
9.3048611327
 21
11.7115340778
 31
0.0
 11
9.123675024
 21
11.7385782098
 31
0.0
  0
SPLINE
  5
3F8
100
AcDbEntity
  8
0
100
AcDbSpline
 62
7
  6
CONTINUOUS
 70
0
 71
3
 72
13
 73
9
 74
7
 42
0.0000001
 43
0.0000001
 44
0.0000000001
 12
-0.4116048646
 22
-1.9663350626
 32
0.0
 13
-1.8657110032
 23
-0.7544269951
 33
0.0
 40
0.0
 40
0.0
 40
0.0
 40
0.0
 40
0.2100084632
 40
0.4130454012
 40
0.6104744777
 40
0.8044381847
 40
0.997594673
 40
1.0
 40
1.0
 40
1.0
 40
1.0
 10
11.1814321542
 20
11.5423477001
 30
0.0
 10
11.1526186525
 20
11.4046986985
 30
0.0
 10
11.0731323733
 20
11.1380200845
 30
0.0
 10
10.8861461734
 20
10.7718607235
 30
0.0
 10
10.6383210419
 20
10.45693765
 30
0.0
 10
10.3366743239
 20
10.2030705504
 30
0.0
 10
10.1048756688
 20
10.0793399622
 30
0.0
 10
9.9833183651
 20
10.0300036868
 30
0.0
 10
9.9818224834
 20
10.0293988056
 30
0.0
 11
11.1814321542
 21
11.5423477001
 31
0.0
 11
11.0596335273
 21
11.1384141856
 31
0.0
 11
10.8730416959
 21
10.7757034209
 31
0.0
 11
10.6270050104
 21
10.4646119184
 31
0.0
 11
10.3285757111
 21
10.2140566087
 31
0.0
 11
9.9863077872
 21
10.0312192509
 31
0.0
 11
9.9818224834
 21
10.0293988056
 31
0.0
  0
SPLINE
  5
3F9
100
AcDbEntity
  8
0
100
AcDbSpline
 62
7
  6
CONTINUOUS
 70
0
 71
3
 72
18
 73
14
 74
12
 42
0.0000001
 43
0.0000001
 44
0.0000000001
 12
-1.5652121967
 22
0.3834156723
 32
0.0
 13
-1.4653041445
 23
0.6706568142
 33
0.0
 40
0.0
 40
0.0
 40
0.0
 40
0.0
 40
0.1018084136
 40
0.2025210051
 40
0.3010579046
 40
0.3965230688
 40
0.4890371106
 40
0.5796551186
 40
0.6684274676
 40
0.7546758641
 40
0.8384465117
 40
0.9201075973
 40
1.0
 40
1.0
 40
1.0
 40
1.0
 10
7.9426110463
 20
11.9717974731
 30
0.0
 10
7.8894937894
 20
11.9848091202
 30
0.0
 10
7.784006862
 20
12.0114172406
 30
0.0
 10
7.6277802802
 20
12.0532203135
 30
0.0
 10
7.4754730125
 20
12.096422684
 30
0.0
 10
7.3280673212
 20
12.1407001688
 30
0.0
 10
7.1854360181
 20
12.1860212356
 30
0.0
 10
7.0469765438
 20
12.2325359686
 30
0.0
 10
6.9125079084
 20
12.2802968372
 30
0.0
 10
6.78236111
 20
12.3291703386
 30
0.0
 10
6.6567012419
 20
12.3790609975
 30
0.0
 10
6.535190766
 20
12.430081738
 30
0.0
 10
6.4558809103
 20
12.4653260814
 30
0.0
 10
6.4168586873
 20
12.4831862095
 30
0.0
 11
7.9426110463
 21
11.9717974731
 31
0.0
 11
7.7835355604
 21
12.0119434975
 31
0.0
 11
7.6267596711
 21
12.0539162563
 31
0.0
 11
7.4740016452
 21
12.0972707071
 31
0.0
 11
7.3266709079
 21
12.1415507955
 31
0.0
 11
7.1845934351
 21
12.1867219866
 31
0.0
 11
7.0461745934
 21
12.2332511463
 31
0.0
 11
6.9113791325
 21
12.2811584181
 31
0.0
 11
6.7812733554
 21
12.3300485609
 31
0.0
 11
6.6558167238
 21
12.3798924418
 31
0.0
 11
6.5344957592
 21
12.4308700374
 31
0.0
 11
6.4168586873
 21
12.4831862095
 31
0.0
  0
SPLINE
  5
3FA
100
AcDbEntity
  8
0
100
AcDbSpline
 62
7
  6
CONTINUOUS
 70
0
 71
3
 72
14
 73
10
 74
8
 42
0.0000001
 43
0.0000001
 44
0.0000000001
 12
-0.2891542151
 22
0.534829293
 32
0.0
 13
-0.2487558547
 23
0.5547729784
 33
0.0
 40
0.0
 40
0.0
 40
0.0
 40
0.0
 40
0.1360367768
 40
0.2723221692
 40
0.4076363453
 40
0.5427717075
 40
0.682012431
 40
0.8318750769
 40
1.0
 40
1.0
 40
1.0
 40
1.0
 10
8.2584006122
 20
11.3913424642
 30
0.0
 10
8.245288743
 20
11.4155946152
 30
0.0
 10
8.2192623387
 20
11.4642632721
 30
0.0
 10
8.1809816557
 20
11.5374731867
 30
0.0
 10
8.1434793479
 20
11.6108799053
 30
0.0
 10
8.1064220259
 20
11.6851822218
 30
0.0
 10
8.0688320435
 20
11.762509034
 30
0.0
 10
8.029243777
 20
11.846292422
 30
0.0
 10
8.0024607603
 20
11.9049105468
 30
0.0
 10
7.988520074
 20
11.936000935
 30
0.0
 11
8.2584006122
 21
11.3913424642
 31
0.0
 11
8.2193991246
 21
11.4642785695
 31
0.0
 11
8.1810070891
 21
11.5377079225
 31
0.0
 11
8.1435814246
 21
11.6109720355
 31
0.0
 11
8.1069162489
 21
11.6844982149
 31
0.0
 11
8.0699088457
 21
11.7606380053
 31
0.0
 11
8.0309914198
 21
11.8430236287
 31
0.0
 11
7.988520074
 21
11.936000935
 31
0.0
  0
SPLINE
  5
3FB
100
AcDbEntity
  8
0
100
AcDbSpline
 62
7
  6
CONTINUOUS
 70
0
 71
3
 72
15
 73
11
 74
9
 42
0.0000001
 43
0.0000001
 44
0.0000000001
 12
3.6187321372
 22
-0.7145744679
 32
0.0
 13
0.7001976157
 23
-3.621541419
 33
0.0
 40
0.0
 40
0.0
 40
0.0
 40
0.0
 40
0.1160966458
 40
0.2362197097
 40
0.3599860015
 40
0.4866466502
 40
0.6151827044
 40
0.7444088903
 40
0.8730803329
 40
1.0
 40
1.0
 40
1.0
 40
1.0
 10
8.7991454208
 20
15.2222893023
 30
0.0
 10
8.9391863085
 20
15.1946360693
 30
0.0
 10
9.2195417171
 20
15.1125412355
 30
0.0
 10
9.6197264087
 20
14.9193474639
 30
0.0
 10
9.9961772496
 20
14.6596427672
 30
0.0
 10
10.3382466698
 20
14.3409309126
 30
0.0
 10
10.6364576704
 20
13.9722602115
 30
0.0
 10
10.8824662366
 20
13.5639976797
 30
0.0
 10
11.0693375845
 20
13.127754488
 30
0.0
 10
11.1518092048
 20
12.8231937887
 30
0.0
 10
11.1814321542
 20
12.669978845
 30
0.0
 11
8.7991454208
 21
15.2222893023
 31
0.0
 11
9.2104736317
 21
15.1031487689
 31
0.0
 11
9.6100117904
 21
14.9115883352
 31
0.0
 11
9.9863077872
 21
14.6530987686
 31
0.0
 11
10.3285757111
 21
14.3350892509
 31
0.0
 11
10.6270050104
 21
13.9666750063
 31
0.0
 11
10.8730416959
 21
13.558416028
 31
0.0
 11
11.0596335273
 21
13.1220143939
 31
0.0
 11
11.1814321542
 21
12.669978845
 31
0.0
  0
SPLINE
  5
3FC
100
AcDbEntity
  8
0
100
AcDbSpline
 62
7
  6
CONTINUOUS
 70
0
 71
3
 72
10
 73
6
 74
4
 42
0.0000001
 43
0.0000001
 44
0.0000000001
 12
-0.3816702751
 22
0.1318746893
 32
0.0
 13
-0.4033161695
 23
0.0199799905
 33
0.0
 40
0.0
 40
0.0
 40
0.0
 40
0.0
 40
0.339545403
 40
0.6728035283
 40
1.0
 40
1.0
 40
1.0
 40
1.0
 10
8.8043511569
 20
13.9947676217
 30
0.0
 10
8.7611530278
 20
14.0096934366
 30
0.0
 10
8.6741909907
 20
14.0355022934
 30
0.0
 10
8.5419855996
 20
14.0617384798
 30
0.0
 10
8.4533580164
 20
14.0706084757
 30
0.0
 10
8.4093701405
 20
14.0727876032
 30
0.0
 11
8.8043511569
 21
13.9947676217
 31
0.0
 11
8.6728724617
 21
14.0336659184
 31
0.0
 11
8.540850187
 21
14.0597440699
 31
0.0
 11
8.4093701405
 21
14.0727876032
 31
0.0
  0
LINE
  5
3FD
100
AcDbEntity
  8
0
100
AcDbLine
 62
7
  6
CONTINUOUS
 10
8.2584006613
 20
13.5932394834
 11
8.270563159
 21
13.608928782
  0
SPLINE
  5
3FE
100
AcDbEntity
  8
0
100
AcDbSpline
 62
7
  6
CONTINUOUS
 70
0
 71
3
 72
14
 73
10
 74
8
 42
0.0000001
 43
0.0000001
 44
0.0000000001
 12
0.2543108067
 22
0.4868490029
 32
0.0
 13
0.282637864
 23
0.4709689754
 33
0.0
 40
0.0
 40
0.0
 40
0.0
 40
0.0
 40
0.1646356699
 40
0.3124627678
 40
0.4508558821
 40
0.5864832347
 40
0.7231960529
 40
0.8614062267
 40
1.0
 40
1.0
 40
1.0
 40
1.0
 10
7.988519847
 20
13.114934578
 30
0.0
 10
8.002476057
 20
13.1416521486
 30
0.0
 10
8.0292904787
 20
13.192189446
 30
0.0
 10
8.0687878462
 20
13.2646750748
 30
0.0
 10
8.1063664895
 20
13.3321537577
 30
0.0
 10
8.1434874808
 20
13.3975550341
 30
0.0
 10
8.18107878
 20
13.4626483621
 30
0.0
 10
8.219401274
 20
13.5279443383
 30
0.0
 10
8.2453433787
 20
13.5714816943
 30
0.0
 10
8.2584006613
 20
13.5932394834
 30
0.0
 11
7.988519847
 21
13.114934578
 31
0.0
 11
8.0308881121
 21
13.1948243113
 31
0.0
 11
8.0697269894
 21
13.2661296965
 31
0.0
 11
8.1067034691
 21
13.3325451908
 31
0.0
 11
8.143469474
 21
13.3973363238
 31
0.0
 11
8.1810172345
 21
13.4623669462
 31
0.0
 11
8.2194378772
 21
13.527841107
 31
0.0
 11
8.2584006613
 21
13.5932394834
 31
0.0
  0
SPLINE
  5
3FF
100
AcDbEntity
  8
0
100
AcDbSpline
 62
7
  6
CONTINUOUS
 70
0
 71
3
 72
12
 73
8
 74
6
 42
0.0000001
 43
0.0000001
 44
0.0000000001
 12
-0.0872524106
 22
0.5958012546
 32
0.0
 13
-0.1461594968
 23
0.5841485425
 33
0.0
 40
0.0
 40
0.0
 40
0.0
 40
0.0
 40
0.2424338031
 40
0.4606539805
 40
0.6569234394
 40
0.8351704222
 40
1.0
 40
1.0
 40
1.0
 40
1.0
 10
8.9417266099
 20
11.7699819753
 30
0.0
 10
8.934675632
 20
11.81812943
 30
0.0
 10
8.9207431677
 20
11.9095389397
 30
0.0
 10
8.8989227898
 20
12.0395835649
 30
0.0
 10
8.877110426
 20
12.1565483897
 30
0.0
 10
8.8549896216
 20
12.2625300364
 30
0.0
 10
8.8392532081
 20
12.3295797544
 30
0.0
 10
8.8312227387
 20
12.3616747402
 30
0.0
 11
8.9417266099
 21
11.7699819753
 31
0.0
 11
8.919631756
 21
11.9142832593
 31
0.0
 11
8.8977819826
 21
12.0438565617
 31
0.0
 11
8.8760136969
 21
12.1600194074
 31
0.0
 11
8.8539897577
 21
12.2650680539
 31
0.0
 11
8.8312227387
 21
12.3616747402
 31
0.0
  0
SPLINE
  5
400
100
AcDbEntity
  8
0
100
AcDbSpline
 62
7
  6
CONTINUOUS
 70
0
 71
3
 72
12
 73
8
 74
6
 42
0.0000001
 43
0.0000001
 44
0.0000000001
 12
1.3682812672
 22
1.1187616664
 32
0.0
 13
1.7308597554
 23
-0.3417849517
 33
0.0
 40
0.0
 40
0.0
 40
0.0
 40
0.0
 40
0.0961668545
 40
0.3161102729
 40
0.5383027063
 40
0.7655695092
 40
1.0
 40
1.0
 40
1.0
 40
1.0
 10
7.1334578643
 20
14.837612283
 30
0.0
 10
7.1773189662
 20
14.8734748798
 30
0.0
 10
7.3267830929
 20
14.9848794285
 30
0.0
 10
7.6081026251
 20
15.1350435058
 30
0.0
 10
7.9888676769
 20
15.2454835335
 30
0.0
 10
8.3921791988
 20
15.2784830843
 30
0.0
 10
8.6638899867
 20
15.2489975736
 30
0.0
 10
8.7991454208
 20
15.2222893023
 30
0.0
 11
7.1334578643
 21
14.837612283
 31
0.0
 11
7.2697151304
 21
14.9391084458
 31
0.0
 11
7.6119830543
 21
15.1219458036
 31
0.0
 11
7.9882790511
 21
15.2318244747
 31
0.0
 11
8.3878172098
 21
15.2655949663
 31
0.0
 11
8.7991454208
 21
15.2222893023
 31
0.0
  0
LINE
  5
401
100
AcDbEntity
  8
0
100
AcDbLine
 62
7
  6
CONTINUOUS
 10
8.808906547
 20
13.9305294045
 11
8.7844070494
 21
13.9393321824
  0
SPLINE
  5
402
100
AcDbEntity
  8
0
100
AcDbSpline
 62
7
  6
CONTINUOUS
 70
0
 71
3
 72
9
 73
5
 74
3
 42
0.0000001
 43
0.0000001
 44
0.0000000001
 12
0.5453136597
 22
0.2290878678
 32
0.0
 13
0.545143145
 23
0.2294933757
 33
0.0
 40
0.0
 40
0.0
 40
0.0
 40
0.0
 40
0.605165227
 40
1.0
 40
1.0
 40
1.0
 40
1.0
 10
8.270563159
 20
13.608928782
 30
0.0
 10
8.3805647805
 20
13.6551407858
 30
0.0
 10
8.5623743356
 20
13.7314122421
 30
0.0
 10
8.7440571974
 20
13.8079849925
 30
0.0
 10
8.8158043541
 20
13.8381889808
 30
0.0
 11
8.270563159
 21
13.608928782
 31
0.0
 11
8.6005680236
 21
13.7475647935
 31
0.0
 11
8.8158043541
 21
13.8381889808
 31
0.0
  0
LINE
  5
403
100
AcDbEntity
  8
0
100
AcDbLine
 62
7
  6
CONTINUOUS
 10
8.8080574021
 20
12.4489934299
 11
8.8028707129
 21
12.4457467134
  0
LINE
  5
404
100
AcDbEntity
  8
0
100
AcDbLine
 62
7
  6
CONTINUOUS
 10
8.1965600797
 20
12.0662217241
 11
7.9426110463
 21
11.9717974731
  0
LINE
  5
405
100
AcDbEntity
  8
0
100
AcDbLine
 62
7
  6
CONTINUOUS
 10
8.1965600797
 20
12.0662217241
 11
7.988520074
 21
11.936000935
  0
LINE
  5
406
100
AcDbEntity
  8
0
100
AcDbLine
 62
7
  6
CONTINUOUS
 10
8.8312227387
 20
12.3616747402
 11
8.1965600797
 21
12.0662217241
  0
LINE
  5
407
100
AcDbEntity
  8
0
100
AcDbLine
 62
7
  6
CONTINUOUS
 10
8.9306479478
 20
11.7346012202
 11
8.2707245341
 21
11.372578516
  0
SPLINE
  5
408
100
AcDbEntity
  8
0
100
AcDbSpline
 62
7
  6
CONTINUOUS
 70
0
 71
3
 72
11
 73
7
 74
5
 42
0.0000001
 43
0.0000001
 44
0.0000000001
 12
0.0316404672
 22
-0.5247972791
 32
0.0
 13
-0.3668919771
 23
-0.3751709398
 33
0.0
 40
0.0
 40
0.0
 40
0.0
 40
0.0
 40
0.0886543881
 40
0.4071905122
 40
0.7101503085
 40
1.0
 40
1.0
 40
1.0
 40
1.0
 10
9.9036354276
 20
12.764124679
 30
0.0
 10
9.9045704497
 20
12.7486161518
 30
0.0
 10
9.9067722592
 20
12.6772558813
 30
0.0
 10
9.8932389559
 20
12.5526288848
 30
0.0
 10
9.8375326459
 20
12.4014694507
 30
0.0
 10
9.775824123
 20
12.3160933987
 30
0.0
 10
9.7403762809
 20
12.2798456717
 30
0.0
 11
9.9036354276
 21
12.764124679
 31
0.0
 11
9.905057005
 21
12.7175380306
 31
0.0
 11
9.8860740452
 21
12.5514674977
 31
0.0
 11
9.8300782927
 21
12.4026771584
 31
0.0
 11
9.7403762809
 21
12.2798456717
 31
0.0
  0
SPLINE
  5
409
100
AcDbEntity
  8
0
100
AcDbSpline
 62
7
  6
CONTINUOUS
 70
0
 71
3
 72
13
 73
9
 74
7
 42
0.0000001
 43
0.0000001
 44
0.0000000001
 12
-0.584390974
 22
0.8283727855
 32
0.0
 13
0.7087966443
 23
0.724790728
 33
0.0
 40
0.0
 40
0.0
 40
0.0
 40
0.0
 40
0.1785712001
 40
0.3559957323
 40
0.5282632952
 40
0.6931460571
 40
0.8499660979
 40
1.0
 40
1.0
 40
1.0
 40
1.0
 10
8.7667321535
 20
12.4721070647
 30
0.0
 10
8.731947021
 20
12.5214149055
 30
0.0
 10
8.6720957245
 20
12.6268137011
 30
0.0
 10
8.615641291
 20
12.7973709703
 30
0.0
 10
8.5956837324
 20
12.9714429523
 30
0.0
 10
8.613869761
 20
13.138916485
 30
0.0
 10
8.669576071
 20
13.2900759191
 30
0.0
 10
8.7312845938
 20
13.3754519711
 30
0.0
 10
8.766732436
 20
13.4116996981
 30
0.0
 11
8.7667321535
 21
12.4721070647
 31
0.0
 11
8.6773898066
 21
12.6295534446
 31
0.0
 11
8.6212190816
 21
12.8004239952
 31
0.0
 11
8.6020517119
 21
12.9740073392
 31
0.0
 11
8.6210346717
 21
13.1400778721
 31
0.0
 11
8.6770304242
 21
13.2888682114
 31
0.0
 11
8.766732436
 21
13.4116996981
 31
0.0
  0
LINE
  5
40A
100
AcDbEntity
  8
0
100
AcDbLine
 62
7
  6
CONTINUOUS
 10
11.451918798
 20
11.6739045798
 11
11.1814321542
 21
11.5423477001
  0
SPLINE
  5
40B
100
AcDbEntity
  8
RACCORDO
100
AcDbSpline
 62
7
  6
CONTINUOUS
 70
0
 71
3
 72
21
 73
17
 74
15
 42
0.0000001
 43
0.0000001
 44
0.0000000001
 12
7.2089737624
 22
3.6755619057
 32
0.0
 13
0.0
 23
-8.0862394032
 33
0.0
 40
0.0
 40
0.0
 40
0.0
 40
0.0
 40
0.0455123115
 40
0.120467625
 40
0.2025195527
 40
0.2900689364
 40
0.3809782026
 40
0.4728353098
 40
0.5631617002
 40
0.6495795501
 40
0.7300567983
 40
0.8031211166
 40
0.8676928185
 40
0.920387088
 40
0.9627360607
 40
1.0
 40
1.0
 40
1.0
 40
1.0
 10
3.067288715
 20
51.4412415064
 30
0.0
 10
3.1766544016
 20
51.4970026126
 30
0.0
 10
3.4755886151
 20
51.6269231436
 30
0.0
 10
3.9978512533
 20
51.7885385158
 30
0.0
 10
4.6441747977
 20
51.9224850967
 30
0.0
 10
5.3413431891
 20
52.0110566167
 30
0.0
 10
6.0692773737
 20
52.0531485376
 30
0.0
 10
6.8058653642
 20
52.0480145274
 30
0.0
 10
7.528515227
 20
51.9957984219
 30
0.0
 10
8.2154687389
 20
51.8974604428
 30
0.0
 10
8.8470781252
 20
51.7542637219
 30
0.0
 10
9.4056239076
 20
51.5666668051
 30
0.0
 10
9.8667912199
 20
51.3366836268
 30
0.0
 10
10.2078190855
 20
51.066766974
 30
0.0
 10
10.4122769159
 20
50.7661522704
 30
0.0
 10
10.4579192638
 20
50.5495905261
 30
0.0
 10
10.4579192638
 20
50.4491488148
 30
0.0
 11
3.067288715
 21
51.4412415064
 31
0.0
 11
3.4042016647
 21
51.5903477092
 31
0.0
 11
3.9818409169
 21
51.7739181763
 31
0.0
 11
4.6309687282
 21
51.9112283945
 31
0.0
 11
5.333070666
 21
52.0019994391
 31
0.0
 11
6.0669195858
 21
52.0451096408
 31
0.0
 11
6.8096795436
 21
52.0398529103
 31
0.0
 11
7.5381191984
 21
51.9863643783
 31
0.0
 11
8.2296105429
 21
51.8855935271
 31
0.0
 11
8.8635806568
 21
51.7387321847
 31
0.0
 11
9.4220262537
 21
51.5458551445
 31
0.0
 11
9.8853861729
 21
51.3051684096
 31
0.0
 11
10.2126494549
 21
51.0322972725
 31
0.0
 11
10.398238238
 21
50.744504552
 31
0.0
 11
10.4579192638
 21
50.4491488148
 31
0.0
  0
SPLINE
  5
40C
100
AcDbEntity
  8
RACCORDO
100
AcDbSpline
 62
7
  6
CONTINUOUS
 70
0
 71
3
 72
11
 73
7
 74
5
 42
0.0000001
 43
0.0000001
 44
0.0000000001
 12
0.0
 22
1.1725396073
 32
0.0
 13
1.0094305565
 23
0.5965727805
 33
0.0
 40
0.0
 40
0.0
 40
0.0
 40
0.0
 40
0.2012808312
 40
0.4243345187
 40
0.6839635132
 40
1.0
 40
1.0
 40
1.0
 40
1.0
 10
2.2579192638
 20
50.4491488148
 30
0.0
 10
2.2579192638
 20
50.5278187304
 30
0.0
 10
2.2850043522
 20
50.6947142978
 30
0.0
 10
2.4090454859
 20
50.9358057509
 30
0.0
 10
2.6237953551
 20
51.1666017004
 30
0.0
 10
2.8099929347
 20
51.2955595724
 30
0.0
 10
2.9163318969
 20
51.3584058276
 30
0.0
 11
2.2579192638
 21
50.4491488148
 31
0.0
 11
2.2948356468
 21
50.6822534722
 31
0.0
 11
2.4114326414
 21
50.9163644234
 31
0.0
 11
2.6150201781
 21
51.1426979506
 31
0.0
 11
2.9163318969
 21
51.3584058276
 31
0.0
  0
SPLINE
  5
40D
100
AcDbEntity
  8
RACCORDO
100
AcDbSpline
 62
7
  6
CONTINUOUS
 70
0
 71
3
 72
12
 73
8
 74
6
 42
0.0000001
 43
0.0000001
 44
0.0000000001
 12
4.288823956
 22
2.4372223156
 32
0.0
 13
4.9083809735
 23
0.4945111097
 33
0.0
 40
0.0
 40
0.0
 40
0.0
 40
0.0
 40
0.1543018672
 40
0.3484364474
 40
0.5623937475
 40
0.7931200695
 40
1.0
 40
1.0
 40
1.0
 40
1.0
 10
-0.6860101448
 20
50.5340070065
 30
0.0
 10
-0.4654189633
 20
50.6593629912
 30
0.0
 10
0.0534304647
 20
50.9066735432
 30
0.0
 10
0.9268361541
 20
51.2138970509
 30
0.0
 10
1.9451204226
 20
51.4758869051
 30
0.0
 10
2.9996485515
 20
51.6687529593
 30
0.0
 10
3.7139173006
 20
51.7579485847
 30
0.0
 10
4.0523991387
 20
51.7920500594
 30
0.0
 11
-0.6860101448
 21
50.5340070065
 31
0.0
 11
-0.0015148091
 21
50.8672296492
 31
0.0
 11
0.8998374442
 21
51.1904934639
 31
0.0
 11
1.9209068905
 21
51.4572625064
 31
0.0
 11
3.0399168361
 21
51.6645980981
 31
0.0
 11
4.0523991387
 21
51.7920500594
 31
0.0
  0
SPLINE
  5
40E
100
AcDbEntity
  8
RACCORDO
100
AcDbSpline
 62
7
  6
CONTINUOUS
 70
0
 71
3
 72
16
 73
12
 74
10
 42
0.0000001
 43
0.0000001
 44
0.0000000001
 12
7.1169043307
 22
-0.7186485391
 32
0.0
 13
0.0
 23
-7.1521648067
 33
0.0
 40
0.0
 40
0.0
 40
0.0
 40
0.0
 40
0.0745864273
 40
0.2375592401
 40
0.3899966912
 40
0.5294803047
 40
0.6543563293
 40
0.7636237449
 40
0.8565140831
 40
0.9332663223
 40
1.0
 40
1.0
 40
1.0
 40
1.0
 10
8.6671559766
 20
51.7916831291
 30
0.0
 10
8.8440974658
 20
51.7738159868
 30
0.0
 10
9.4069457022
 20
51.7098571909
 30
0.0
 10
10.3261669654
 20
51.5662695704
 30
0.0
 10
11.3851045691
 20
51.3279526855
 30
0.0
 10
12.3354725515
 20
51.0335311547
 30
0.0
 10
13.1576139568
 20
50.685740363
 30
0.0
 10
13.8312275956
 20
50.28693923
 30
0.0
 10
14.3325129895
 20
49.8408403122
 30
0.0
 10
14.6388324874
 20
49.356433766
 30
0.0
 10
14.7079192638
 20
49.0116719982
 30
0.0
 10
14.7079192638
 20
48.8525752445
 30
0.0
 11
8.6671559766
 21
51.7916831291
 31
0.0
 11
9.1972441527
 21
51.7313366791
 31
0.0
 11
10.3485467069
 21
51.5492778728
 31
0.0
 11
11.4114618559
 21
51.3066394631
 31
0.0
 11
12.3629121079
 21
51.0066932788
 31
0.0
 11
13.1825912956
 21
50.6519902941
 31
0.0
 11
13.8494594126
 21
50.2445262824
 31
0.0
 11
14.3360148734
 21
49.7921466804
 31
0.0
 11
14.6183794078
 21
49.3213914213
 31
0.0
 11
14.7079192638
 21
48.8525752445
 31
0.0
  0
SPLINE
  5
40F
100
AcDbEntity
  8
RACCORDO
100
AcDbSpline
 62
7
  6
CONTINUOUS
 70
0
 71
3
 72
11
 73
7
 74
5
 42
0.0000001
 43
0.0000001
 44
0.0000000001
 12
0.0
 22
2.1369029663
 32
0.0
 13
1.8396437418
 23
1.0872282145
 33
0.0
 40
0.0
 40
0.0
 40
0.0
 40
0.0
 40
0.1978300735
 40
0.422124996
 40
0.6891044751
 40
1.0
 40
1.0
 40
1.0
 40
1.0
 10
-1.9920807362
 20
48.8525752445
 30
0.0
 10
-1.9920807362
 20
48.9934898014
 30
0.0
 10
-1.9388700518
 20
49.2961841403
 30
0.0
 10
-1.6979295169
 20
49.7321569034
 30
0.0
 10
-1.294465497
 20
50.1440217187
 30
0.0
 10
-0.9527461457
 20
50.3772408916
 30
0.0
 10
-0.7621004767
 20
50.4899123537
 30
0.0
 11
-1.9920807362
 21
48.8525752445
 31
0.0
 11
-1.9214763479
 21
49.2693812324
 31
0.0
 11
-1.6971530818
 21
49.692942554
 31
0.0
 11
-1.3056535064
 21
50.1079231273
 31
0.0
 11
-0.7621004767
 21
50.4899123537
 31
0.0
  0
SPLINE
  5
410
100
AcDbEntity
  8
RACCORDO
100
AcDbSpline
 62
7
  6
CONTINUOUS
 70
0
 71
3
 72
12
 73
8
 74
6
 42
0.0000001
 43
0.0000001
 44
0.0000000001
 12
2.6431855623
 22
-1.3401572505
 32
0.0
 13
-0.0
 23
-2.9618304345
 33
0.0
 40
0.0
 40
0.0
 40
0.0
 40
0.0
 40
0.0715134965
 40
0.3626339993
 40
0.6107258197
 40
0.8179331936
 40
1.0
 40
1.0
 40
1.0
 40
1.0
 10
14.6161298692
 20
49.3292365225
 30
0.0
 10
14.679137683
 20
49.2972900789
 30
0.0
 10
14.9963432381
 20
49.1306982036
 30
0.0
 10
15.5086459369
 20
48.80811673
 30
0.0
 10
16.0510698886
 20
48.2997178366
 30
0.0
 10
16.3827842984
 20
47.7532384783
 30
0.0
 10
16.4579192638
 20
47.3660578511
 30
0.0
 10
16.4579192638
 20
47.186307515
 30
0.0
 11
14.6161298692
 21
49.3292365225
 31
0.0
 11
14.80374111
 21
49.2306140674
 31
0.0
 11
15.5271143068
 21
48.761353446
 31
0.0
 11
16.0528980677
 21
48.2480395521
 31
0.0
 11
16.3597544876
 21
47.7165483345
 31
0.0
 11
16.4579192638
 21
47.186307515
 31
0.0
  0
SPLINE
  5
411
100
AcDbEntity
  8
RACCORDO
100
AcDbSpline
 62
7
  6
CONTINUOUS
 70
0
 71
3
 72
8
 73
4
 74
2
 42
0.0000001
 43
0.0000001
 44
0.0000000001
 12
0.0
 22
0.5023897061
 32
0.0
 13
0.1654664134
 23
0.4770064423
 33
0.0
 40
0.0
 40
0.0
 40
0.0
 40
0.0
 40
1.0
 40
1.0
 40
1.0
 40
1.0
 10
-3.7420807362
 20
47.186307515
 30
0.0
 10
-3.7420807362
 20
47.3537707503
 30
0.0
 10
-3.7117711373
 20
47.5223721697
 30
0.0
 10
-3.6566156662
 20
47.6813743171
 30
0.0
 11
-3.7420807362
 21
47.186307515
 31
0.0
 11
-3.6566156662
 21
47.6813743171
 31
0.0
  0
SPLINE
  5
412
100
AcDbEntity
  8
RACCORDO
100
AcDbSpline
 62
7
  6
CONTINUOUS
 70
0
 71
3
 72
10
 73
6
 74
4
 42
0.0000001
 43
0.0000001
 44
0.0000000001
 12
0.6846096074
 22
1.9033089486
 32
0.0
 13
1.733332731
 23
1.0243984786
 33
0.0
 40
0.0
 40
0.0
 40
0.0
 40
0.0
 40
0.2737652439
 40
0.6092012422
 40
1.0
 40
1.0
 40
1.0
 40
1.0
 10
-3.6505304869
 20
47.698598745
 30
0.0
 10
-3.5880563816
 20
47.8722853579
 30
0.0
 10
-3.383381365
 20
48.2329254445
 30
0.0
 10
-2.9073982636
 20
48.7143137879
 30
0.0
 10
-2.5025438608
 20
48.9899977599
 30
0.0
 10
-2.2767491014
 20
49.1234423109
 30
0.0
 11
-3.6505304869
 21
47.698598745
 31
0.0
 11
-3.3868761866
 21
48.1828104185
 31
0.0
 11
-2.9211249723
 21
48.6718936082
 31
0.0
 11
-2.2767491014
 21
49.1234423109
 31
0.0
  0
SPLINE
  5
413
100
AcDbEntity
  8
RACCORDO
100
AcDbSpline
 62
7
  6
CONTINUOUS
 70
0
 71
3
 72
11
 73
7
 74
5
 42
0.0000001
 43
0.0000001
 44
0.0000000001
 12
2.7510971792
 22
-1.5194364907
 32
0.0
 13
0.0
 23
-3.1395843085
 33
0.0
 40
0.0
 40
0.0
 40
0.0
 40
0.0
 40
0.2986159077
 40
0.57163481
 40
0.7997760091
 40
1.0
 40
1.0
 40
1.0
 40
1.0
 10
16.3250209987
 20
47.7981701297
 30
0.0
 10
16.5988614591
 20
47.6469274941
 30
0.0
 10
17.1059129303
 20
47.3255520259
 30
0.0
 10
17.7256728672
 20
46.7524020817
 30
0.0
 10
18.1181816343
 20
46.1182959821
 30
0.0
 10
18.2079192638
 20
45.6666323491
 30
0.0
 10
18.2079192638
 20
45.4570923157
 30
0.0
 11
16.3250209987
 21
47.7981701297
 31
0.0
 11
17.1111306095
 21
47.2870705559
 31
0.0
 11
17.7284275295
 21
46.6923623694
 31
0.0
 11
18.0912620076
 21
46.0747931453
 31
0.0
 11
18.2079192638
 21
45.4570923157
 31
0.0
  0
SPLINE
  5
414
100
AcDbEntity
  8
RACCORDO
100
AcDbSpline
 62
7
  6
CONTINUOUS
 70
0
 71
3
 72
9
 73
5
 74
3
 42
0.0000001
 43
0.0000001
 44
0.0000000001
 12
0.0
 22
0.7909462287
 32
0.0
 13
0.3425128957
 23
0.7158817531
 33
0.0
 40
0.0
 40
0.0
 40
0.0
 40
0.0
 40
0.7359516795
 40
1.0
 40
1.0
 40
1.0
 40
1.0
 10
-5.4920807362
 20
45.4570923157
 30
0.0
 10
-5.4920807362
 20
45.6511250508
 30
0.0
 10
-5.4435543427
 20
45.9165815819
 30
0.0
 10
-5.341561918
 20
46.1610234736
 30
0.0
 10
-5.3114152664
 20
46.2240325984
 30
0.0
 11
-5.4920807362
 21
45.4570923157
 31
0.0
 11
-5.3916960422
 21
46.0304693591
 31
0.0
 11
-5.3114152664
 21
46.2240325984
 31
0.0
  0
SPLINE
  5
415
100
AcDbEntity
  8
RACCORDO
100
AcDbSpline
 62
7
  6
CONTINUOUS
 70
0
 71
3
 72
10
 73
6
 74
4
 42
0.0000001
 43
0.0000001
 44
0.0000000001
 12
1.0053658952
 22
1.6267976057
 32
0.0
 13
1.6397451659
 23
0.9690882905
 33
0.0
 40
0.0
 40
0.0
 40
0.0
 40
0.0
 40
0.1128487189
 40
0.522431571
 40
1.0
 40
1.0
 40
1.0
 40
1.0
 10
-5.1979468944
 20
46.4311518251
 30
0.0
 10
-5.16012881
 20
46.4923458337
 30
0.0
 10
-4.9721117976
 20
46.7677259526
 30
0.0
 10
-4.5204659501
 20
47.2215468714
 30
0.0
 10
-4.0524279003
 20
47.5397561408
 30
0.0
 10
-3.7913977261
 20
47.6940247983
 30
0.0
 11
-5.1979468944
 21
46.4311518251
 31
0.0
 11
-5.0766662526
 21
46.6095271773
 31
0.0
 11
-4.5368135065
 21
47.1727039285
 31
0.0
 11
-3.7913977261
 21
47.6940247983
 31
0.0
  0
SPLINE
  5
416
100
AcDbEntity
  8
RACCORDO
100
AcDbSpline
 62
7
  6
CONTINUOUS
 70
0
 71
3
 72
12
 73
8
 74
6
 42
0.0000001
 43
0.0000001
 44
0.0000000001
 12
3.6632282033
 22
-2.0496129843
 32
0.0
 13
-0.0
 23
-4.1947440297
 33
0.0
 40
0.0
 40
0.0
 40
0.0
 40
0.0
 40
0.1259139383
 40
0.398591782
 40
0.6280745254
 40
0.8223653431
 40
1.0
 40
1.0
 40
1.0
 40
1.0
 10
17.9368233492
 20
46.3904213412
 30
0.0
 10
18.0905738458
 20
46.3043963936
 30
0.0
 10
18.5693083514
 20
46.0178387227
 30
0.0
 10
19.2739398326
 20
45.4853505584
 30
0.0
 10
19.9140183558
 20
44.7385375359
 30
0.0
 10
20.2790155634
 20
43.9692934974
 30
0.0
 10
20.3579192638
 20
43.4463393783
 30
0.0
 10
20.3579192638
 20
43.1979620728
 30
0.0
 11
17.9368233492
 21
46.3904213412
 31
0.0
 11
18.3898862323
 21
46.1182244709
 31
0.0
 11
19.2923670305
 21
45.4154881622
 31
0.0
 11
19.90757053
 21
44.6751068065
 31
0.0
 11
20.2490582291
 21
43.9350989991
 31
0.0
 11
20.3579192638
 21
43.1979620728
 31
0.0
  0
SPLINE
  5
417
100
AcDbEntity
  8
RACCORDO
100
AcDbSpline
 62
7
  6
CONTINUOUS
 70
0
 71
3
 72
12
 73
8
 74
6
 42
0.0000001
 43
0.0000001
 44
0.0000000001
 12
0.0
 22
3.9880408306
 32
0.0
 13
3.4332744499
 23
2.0290628916
 33
0.0
 40
0.0
 40
0.0
 40
0.0
 40
0.0
 40
0.1565375388
 40
0.3252279882
 40
0.5180143712
 40
0.7442816325
 40
1.0
 40
1.0
 40
1.0
 40
1.0
 10
-7.6420807362
 20
43.1979620728
 30
0.0
 10
-7.6420807362
 20
43.4060547716
 30
0.0
 10
-7.5875556556
 20
43.8401528044
 30
0.0
 10
-7.3344040197
 20
44.4874446748
 30
0.0
 10
-6.8846378154
 20
45.1343336592
 30
0.0
 10
-6.2287166709
 20
45.7536628926
 30
0.0
 10
-5.6951935699
 20
46.1129668876
 30
0.0
 10
-5.402543124
 20
46.2859231043
 30
0.0
 11
-7.6420807362
 21
43.1979620728
 31
0.0
 11
-7.5654043294
 21
43.8175134187
 31
0.0
 11
-7.324409183
 21
44.445610837
 31
0.0
 11
-6.8919153933
 21
45.0812711368
 31
0.0
 11
-6.2430196518
 21
45.7083225211
 31
0.0
 11
-5.402543124
 21
46.2859231043
 31
0.0
  0
SPLINE
  5
418
100
AcDbEntity
  8
0
100
AcDbSpline
 62
7
  6
CONTINUOUS
 70
0
 71
3
 72
23
 73
19
 74
17
 42
0.0000001
 43
0.0000001
 44
0.0000000001
 12
0.0447153862
 22
-8.2808988815
 32
0.0
 13
7.0863553252
 23
4.1880312325
 33
0.0
 40
0.0
 40
0.0
 40
0.0
 40
0.0
 40
0.0236078069
 40
0.0563920059
 40
0.0968098344
 40
0.1460535353
 40
0.2040455458
 40
0.2699722733
 40
0.3425544399
 40
0.4201990821
 40
0.50110321
 40
0.5833378218
 40
0.6649241545
 40
0.7439075798
 40
0.8184325951
 40
0.8868232725
 40
0.947678061
 40
1.0
 40
1.0
 40
1.0
 40
1.0
 10
2.258095491
 20
50.1305429778
 30
0.0
 10
2.2584473684
 20
50.0653783573
 30
0.0
 10
2.2912945874
 20
49.9090083685
 30
0.0
 10
2.4481397078
 20
49.6876006648
 30
0.0
 10
2.7118720527
 20
49.4755397363
 30
0.0
 10
3.0697940288
 20
49.2823934211
 30
0.0
 10
3.5141530876
 20
49.1116346883
 30
0.0
 10
4.0343762877
 20
48.9674805835
 30
0.0
 10
4.6169924277
 20
48.8539136406
 30
0.0
 10
5.2465487542
 20
48.7741208976
 30
0.0
 10
5.9061290937
 20
48.7303604858
 30
0.0
 10
6.5779273018
 20
48.7238700148
 30
0.0
 10
7.2437737959
 20
48.7548326433
 30
0.0
 10
7.8856827428
 20
48.822374602
 30
0.0
 10
8.4863482098
 20
48.9245776293
 30
0.0
 10
9.0298175127
 20
49.0585849092
 30
0.0
 10
9.5016386041
 20
49.2205882605
 30
0.0
 10
9.782933996
 20
49.3550180996
 30
0.0
 10
9.9065246131
 20
49.4280600712
 30
0.0
 11
2.258095491
 21
50.1305429778
 31
0.0
 11
2.2962047947
 21
49.9392556233
 31
0.0
 11
2.4436088628
 21
49.7132103162
 31
0.0
 11
2.6977851148
 21
49.498546035
 31
0.0
 11
3.0518002851
 21
49.301118262
 31
0.0
 11
3.4959977627
 21
49.126312312
 31
0.0
 11
4.0182609984
 21
48.9788964356
 31
0.0
 11
4.6043440126
 21
48.8628917537
 31
0.0
 11
5.2382599884
 21
48.7814625717
 31
0.0
 11
5.9027173505
 21
48.7368300653
 31
0.0
 11
6.5795914341
 21
48.7302116929
 31
0.0
 11
7.2504188788
 21
48.7617879866
 31
0.0
 11
7.8969012606
 21
48.8306976273
 31
0.0
 11
8.5014042254
 21
48.9350609396
 31
0.0
 11
9.047438508
 21
49.0720311645
 31
0.0
 11
9.5201097167
 21
49.2378721112
 31
0.0
 11
9.9065246131
 21
49.4280600712
 31
0.0
  0
SPLINE
  5
419
100
AcDbEntity
  8
0
100
AcDbSpline
 62
7
  6
CONTINUOUS
 70
0
 71
3
 72
12
 73
8
 74
6
 42
0.0000001
 43
0.0000001
 44
0.0000000001
 12
-0.0036834596
 22
-3.1932682005
 32
0.0
 13
-2.7367850527
 23
-1.617438126
 33
0.0
 40
0.0
 40
0.0
 40
0.0
 40
0.0
 40
0.1145234084
 40
0.2941244794
 40
0.4968852734
 40
0.7308426296
 40
1.0
 40
1.0
 40
1.0
 40
1.0
 10
20.3576925517
 20
41.8612352912
 30
0.0
 10
20.3575519376
 20
41.7393339718
 30
0.0
 10
20.3227246447
 20
41.4260450595
 30
0.0
 10
20.121977249
 20
40.9310184879
 30
0.0
 10
19.7257398995
 20
40.4050187533
 30
0.0
 10
19.1663053282
 20
39.9034693975
 30
0.0
 10
18.7206502173
 20
39.6078817976
 30
0.0
 10
18.4751082612
 20
39.4627666667
 30
0.0
 11
20.3576925517
 21
41.8612352912
 31
0.0
 11
20.3176949389
 21
41.4984353379
 31
0.0
 11
20.111180322
 21
40.9661388683
 31
0.0
 11
19.7317104676
 21
40.4450976598
 31
0.0
 11
19.1840574291
 21
39.941864108
 31
0.0
 11
18.4751082612
 21
39.4627666667
 31
0.0
  0
SPLINE
  5
41A
100
AcDbEntity
  8
0
100
AcDbSpline
 62
7
  6
CONTINUOUS
 70
0
 71
3
 72
12
 73
8
 74
6
 42
0.0000001
 43
0.0000001
 44
0.0000000001
 12
0.0038001662
 22
-2.7040500734
 32
0.0
 13
-2.3157333362
 23
-1.3685968446
 33
0.0
 40
0.0
 40
0.0
 40
0.0
 40
0.0
 40
0.0620379356
 40
0.2509316829
 40
0.4637172855
 40
0.7115650959
 40
1.0
 40
1.0
 40
1.0
 40
1.0
 10
18.2076277081
 20
45.0560177994
 30
0.0
 10
18.207706293
 20
45.0000999046
 30
0.0
 10
18.1945966298
 20
44.7740211858
 30
0.0
 10
18.0672889399
 20
44.3699132949
 30
0.0
 10
17.7329748308
 20
43.8853398748
 30
0.0
 10
17.2381391885
 20
43.4257680961
 30
0.0
 10
16.8369003442
 20
43.1576281494
 30
0.0
 10
16.6142542366
 20
43.0260444495
 30
0.0
 11
18.2076277081
 21
45.0560177994
 31
0.0
 11
18.1978146187
 21
44.8887653729
 31
0.0
 11
18.0525143498
 21
44.401874251
 31
0.0
 11
17.7366805506
 21
43.9245232584
 31
0.0
 11
17.2549187891
 21
43.4636732476
 31
0.0
 11
16.6142542366
 21
43.0260444495
 31
0.0
  0
SPLINE
  5
41B
100
AcDbEntity
  8
0
100
AcDbSpline
 62
7
  6
CONTINUOUS
 70
0
 71
3
 72
27
 73
23
 74
21
 42
0.0000001
 43
0.0000001
 44
0.0000000001
 12
-0.0441108213
 22
-16.851640601
 32
0.0
 13
14.435654152
 23
8.5314618977
 33
0.0
 40
0.0
 40
0.0
 40
0.0
 40
0.0
 40
0.0036817021
 40
0.0276258194
 40
0.0549438327
 40
0.087427814
 40
0.1258623559
 40
0.1703706764
 40
0.2206615898
 40
0.2761693708
 40
0.3361349377
 40
0.399658676
 40
0.4657397935
 40
0.5333092647
 40
0.6012597648
 40
0.6684743127
 40
0.7338546312
 40
0.7963500707
 40
0.8549882601
 40
0.9089096028
 40
0.9574098931
 40
1.0
 40
1.0
 40
1.0
 40
1.0
 10
-1.9919573274
 20
48.4388855092
 30
0.0
 10
-1.9920114617
 20
48.4182046022
 30
0.0
 10
-1.9874373798
 20
48.2630878544
 30
0.0
 10
-1.901623345
 20
47.960033947
 30
0.0
 10
-1.626617762
 20
47.5734531249
 30
0.0
 10
-1.2094119314
 20
47.2112133407
 30
0.0
 10
-0.6569687968
 20
46.873874145
 30
0.0
 10
0.0223221756
 20
46.5653586655
 30
0.0
 10
0.8173234425
 20
46.2907275482
 30
0.0
 10
1.7141092476
 20
46.054981259
 30
0.0
 10
2.6965158041
 20
45.8625595266
 30
0.0
 10
3.7465750594
 20
45.7171260271
 30
0.0
 10
4.8449473995
 20
45.6214582536
 30
0.0
 10
5.9713316635
 20
45.5773842822
 30
0.0
 10
7.1048754523
 20
45.5857461541
 30
0.0
 10
8.2245867424
 20
45.6463843272
 30
0.0
 10
9.3097422848
 20
45.7581393923
 30
0.0
 10
10.3403092426
 20
45.9188787101
 30
0.0
 10
11.2973166515
 20
46.1255248263
 30
0.0
 10
12.1634001006
 20
46.3741829712
 30
0.0
 10
12.9228094172
 20
46.6601026499
 30
0.0
 10
13.3800183026
 20
46.8874146328
 30
0.0
 10
13.5849569873
 20
47.0085332576
 30
0.0
 11
-1.9919573274
 21
48.4388855092
 31
0.0
 11
-1.990107183
 21
48.3769083623
 31
0.0
 11
-1.8876343941
 21
47.9887045638
 31
0.0
 11
-1.6315625418
 21
47.6088888522
 31
0.0
 11
-1.22666176
 21
47.2445364755
 31
0.0
 11
-0.6804745844
 21
46.9024346292
 31
0.0
 11
-0.0031754486
 21
46.5889560233
 31
0.0
 11
0.7926188461
 21
46.3099401713
 31
0.0
 11
1.6920841576
 21
46.0705846104
 31
0.0
 11
2.6784651491
 21
45.8753480819
 31
0.0
 11
3.7333874089
 21
45.7278674729
 31
0.0
 11
4.8371997314
 21
45.6308900681
 31
0.0
 11
5.9693401814
 21
45.5862223731
 31
0.0
 11
7.1087191245
 21
45.5946964626
 31
0.0
 11
8.2341120868
 21
45.6561544802
 31
0.0
 11
9.3245551267
 21
45.7694515794
 31
0.0
 11
10.3597353536
 21
45.9324772496
 31
0.0
 11
11.3203693184
 21
46.142194631
 31
0.0
 11
12.188562228
 21
46.3946970857
 31
0.0
 11
12.9481412913
 21
46.6852809705
 31
0.0
 11
13.5849569873
 21
47.0085332576
 31
0.0
  0
SPLINE
  5
41C
100
AcDbEntity
  8
0
100
AcDbSpline
 62
7
  6
CONTINUOUS
 70
0
 71
3
 72
11
 73
7
 74
5
 42
0.0000001
 43
0.0000001
 44
0.0000000001
 12
0.0003951636
 22
-2.3009354721
 32
0.0
 13
-1.9729260533
 23
-1.165997971
 33
0.0
 40
0.0
 40
0.0
 40
0.0
 40
0.0
 40
0.2019574142
 40
0.425921891
 40
0.6893226576
 40
1.0
 40
1.0
 40
1.0
 40
1.0
 10
16.4579188824
 20
46.7475399399
 30
0.0
 10
16.4579454844
 20
46.5926429471
 30
0.0
 10
16.3904502925
 20
46.2660313516
 30
0.0
 10
16.1100441208
 20
45.8112143253
 30
0.0
 10
15.6691408446
 20
45.3842027515
 30
0.0
 10
15.3039200863
 20
45.1380385705
 30
0.0
 10
15.0996056119
 20
45.0172888536
 30
0.0
 11
16.4579188824
 21
46.7475399399
 31
0.0
 11
16.3701586186
 21
46.2931566096
 31
0.0
 11
16.1110910661
 21
45.8500717401
 31
0.0
 11
15.68514404
 21
45.4223429688
 31
0.0
 11
15.0996056119
 21
45.0172888536
 31
0.0
  0
SPLINE
  5
41D
100
AcDbEntity
  8
0
100
AcDbSpline
 62
7
  6
CONTINUOUS
 70
0
 71
3
 72
11
 73
7
 74
5
 42
0.0000001
 43
0.0000001
 44
0.0000000001
 12
-0.0049827834
 22
-1.9035708933
 32
0.0
 13
-1.6306596918
 23
-0.9637187815
 33
0.0
 40
0.0
 40
0.0
 40
0.0
 40
0.0
 40
0.1748647473
 40
0.4049710548
 40
0.6768655252
 40
1.0
 40
1.0
 40
1.0
 40
1.0
 10
14.707795855
 20
48.4391075014
 30
0.0
 10
14.7075054173
 20
48.328151687
 30
0.0
 10
14.6625871964
 20
48.070624917
 30
0.0
 10
14.4458388201
 20
47.6937183626
 30
0.0
 10
14.0731455953
 20
47.3239992194
 30
0.0
 10
13.760597775
 20
47.1123368451
 30
0.0
 10
13.5849569873
 20
47.0085332576
 30
0.0
 11
14.707795855
 21
48.4391075014
 31
0.0
 11
14.6529105619
 21
48.1117242652
 31
0.0
 11
14.44535542
 21
47.7284603447
 31
0.0
 11
14.0871466446
 21
47.3584323685
 31
0.0
 11
13.5849569873
 21
47.0085332576
 31
0.0
  0
SPLINE
  5
41E
100
AcDbEntity
  8
0
100
AcDbSpline
 62
7
  6
CONTINUOUS
 70
0
 71
3
 72
11
 73
7
 74
5
 42
0.0000001
 43
0.0000001
 44
0.0000000001
 12
0.0050457759
 22
-0.9344336183
 32
0.0
 13
-0.7996388727
 23
-0.4725860361
 33
0.0
 40
0.0
 40
0.0
 40
0.0
 40
0.0
 40
0.0428649048
 40
0.3035472914
 40
0.615267524
 40
1.0
 40
1.0
 40
1.0
 40
1.0
 10
10.4577430367
 20
50.1303434677
 30
0.0
 10
10.4578151322
 20
50.1169919983
 30
0.0
 10
10.4543424245
 20
50.0225322375
 30
0.0
 10
10.3873807442
 20
49.8367981609
 30
0.0
 10
10.1875057009
 20
49.6123427753
 30
0.0
 10
10.0090736275
 20
49.4886664698
 30
0.0
 10
9.9065246131
 20
49.4280600712
 30
0.0
 11
10.4577430367
 21
50.1303434677
 31
0.0
 11
10.4562448184
 21
50.0903704157
 31
0.0
 11
10.3810642663
 21
49.8602030909
 31
0.0
 11
10.196142806
 21
49.6374072125
 31
0.0
 11
9.9065246131
 21
49.4280600712
 31
0.0
  0
SPLINE
  5
41F
100
AcDbEntity
  8
0
100
AcDbSpline
 62
7
  6
CONTINUOUS
 70
0
 71
3
 72
27
 73
23
 74
21
 42
0.0000001
 43
0.0000001
 44
0.0000000001
 12
0.0033833333
 22
-19.7002724117
 32
0.0
 13
17.7884368273
 23
8.3219742674
 33
0.0
 40
0.0
 40
0.0
 40
0.0
 40
0.0
 40
0.0232074758
 40
0.0493059108
 40
0.0799892304
 40
0.1161858143
 40
0.1581641414
 40
0.2057732342
 40
0.258585665
 40
0.3159803682
 40
0.3771948127
 40
0.4413621453
 40
0.507540963
 40
0.5747414723
 40
0.6419499348
 40
0.7081524274
 40
0.7723585972
 40
0.8336260899
 40
0.891086671
 40
0.9439759197
 40
0.9916702118
 40
1.0
 40
1.0
 40
1.0
 40
1.0
 10
-3.7420803547
 20
46.747559636
 30
0.0
 10
-3.7420541818
 20
46.595161771
 30
0.0
 10
-3.6763768384
 20
46.2713243412
 30
0.0
 10
-3.3998625224
 20
45.8180994903
 30
0.0
 10
-2.9613154224
 20
45.3906475515
 30
0.0
 10
-2.3697112167
 20
44.9897787554
 30
0.0
 10
-1.6333272309
 20
44.6191878091
 30
0.0
 10
-0.7630572424
 20
44.2841211125
 30
0.0
 10
0.2272740538
 20
43.9900616059
 30
0.0
 10
1.3213808469
 20
43.7420422481
 30
0.0
 10
2.5009490435
 20
43.5443797639
 30
0.0
 10
3.746061271
 20
43.4005313263
 30
0.0
 10
5.0355980321
 20
43.3130164281
 30
0.0
 10
6.3476366234
 20
43.2833679946
 30
0.0
 10
7.6598500999
 20
43.3121052343
 30
0.0
 10
8.9499090931
 20
43.3987250699
 30
0.0
 10
10.1958794572
 20
43.5417094258
 30
0.0
 10
11.3766331432
 20
43.7385568969
 30
0.0
 10
12.4722067627
 20
43.9858142445
 30
0.0
 10
13.4643385061
 20
44.2792113688
 30
0.0
 10
14.1301846221
 20
44.5345249992
 30
0.0
 10
14.4639330524
 20
44.6866043145
 30
0.0
 10
14.5133243562
 20
44.7097110756
 30
0.0
 11
-3.7420803547
 21
46.747559636
 31
0.0
 11
-3.6570171036
 21
46.3001631812
 31
0.0
 11
-3.4006004171
 21
45.8568979678
 31
0.0
 11
-2.9772127533
 21
45.428872054
 31
0.0
 11
-2.3940983924
 21
45.0234090819
 31
0.0
 11
-1.661234583
 21
44.6474466353
 31
0.0
 11
-0.7911608279
 21
44.3074175358
 31
0.0
 11
0.2012356697
 21
44.0091397758
 31
0.0
 11
1.2989747305
 21
43.7577169702
 31
0.0
 11
2.4832737349
 21
43.5574510331
 31
0.0
 11
3.7338689985
 21
43.4117685702
 31
0.0
 11
5.0293624897
 21
43.3231622488
 31
0.0
 11
6.3475879557
 21
43.2931481475
 31
0.0
 11
7.6659901932
 21
43.3222398161
 31
0.0
 11
8.9620109744
 21
43.409939488
 31
0.0
 11
10.2134750245
 21
43.5547465975
 31
0.0
 11
11.3989694466
 21
43.7541834547
 31
0.0
 11
12.4982101023
 21
44.0048376399
 31
0.0
 11
13.4923886795
 21
44.3024203903
 31
0.0
 11
14.3644945068
 21
44.6418399826
 31
0.0
 11
14.5133243562
 21
44.7097110756
 31
0.0
  0
SPLINE
  5
420
100
AcDbEntity
  8
0
100
AcDbSpline
 62
7
  6
CONTINUOUS
 70
0
 71
3
 72
8
 73
4
 74
2
 42
0.0000001
 43
0.0000001
 44
0.0000000001
 12
0.6001563407
 22
0.2807714737
 32
0.0
 13
0.5699086032
 23
0.3368156013
 33
0.0
 40
0.0
 40
0.0
 40
0.0
 40
0.0
 40
1.0
 40
1.0
 40
1.0
 40
1.0
 10
14.5133243562
 20
44.7097110756
 30
0.0
 10
14.7133764698
 20
44.8033015668
 30
0.0
 10
14.9096360775
 20
44.9050169864
 30
0.0
 10
15.0996056119
 20
45.0172888536
 30
0.0
 11
14.5133243562
 21
44.7097110756
 31
0.0
 11
15.0996056119
 21
45.0172888536
 31
0.0
  0
SPLINE
  5
421
100
AcDbEntity
  8
0
100
AcDbSpline
 62
7
  6
CONTINUOUS
 70
0
 71
3
 72
29
 73
25
 74
23
 42
0.0000001
 43
0.0000001
 44
0.0000000001
 12
0.0328016133
 22
-23.3403487456
 32
0.0
 13
20.8306360525
 23
10.2932749333
 33
0.0
 40
0.0
 40
0.0
 40
0.0
 40
0.0
 40
0.0139207694
 40
0.036494764
 40
0.0623267255
 40
0.0924846373
 40
0.1274437149
 40
0.1672813012
 40
0.2118119842
 40
0.2606686252
 40
0.3133518653
 40
0.3692630245
 40
0.427728411
 40
0.4880191779
 40
0.5493688719
 40
0.6109898158
 40
0.6720889594
 40
0.7318836109
 40
0.7896174047
 40
0.8445769669
 40
0.8961100369
 40
0.9436464319
 40
0.9867244915
 40
1.0
 40
1.0
 40
1.0
 40
1.0
 10
-5.4917891805
 20
45.0561883416
 30
0.0
 10
-5.4916369726
 20
44.9478831377
 30
0.0
 10
-5.4585895275
 20
44.663709988
 30
0.0
 10
-5.2636311188
 20
44.2138340717
 30
0.0
 10
-4.8775544606
 20
43.7372334295
 30
0.0
 10
-4.333372627
 20
43.2856497394
 30
0.0
 10
-3.6382062166
 20
42.8614308909
 30
0.0
 10
-2.800645808
 20
42.4689560666
 30
0.0
 10
-1.8317136757
 20
42.1133620454
 30
0.0
 10
-0.744770724
 20
41.7996921326
 30
0.0
 10
0.4448210214
 20
41.5325373179
 30
0.0
 10
1.7200292404
 20
41.3158516617
 30
0.0
 10
3.0624702605
 20
41.1528552273
 30
0.0
 10
4.4527191151
 20
41.0459728404
 30
0.0
 10
5.8706190041
 20
40.9967947566
 30
0.0
 10
7.2955926294
 20
41.0060526112
 30
0.0
 10
8.7069552329
 20
41.0736086225
 30
0.0
 10
10.0842292273
 20
41.1984579419
 30
0.0
 10
11.4074540717
 20
41.378742211
 30
0.0
 10
12.6575069479
 20
41.6117825822
 30
0.0
 10
13.8163771645
 20
41.8941096485
 30
0.0
 10
14.8675954598
 20
42.2215853598
 30
0.0
 10
15.6158964005
 20
42.5179522359
 30
0.0
 10
16.010626825
 20
42.7044648256
 30
0.0
 10
16.1028059204
 20
42.7500143119
 30
0.0
 11
-5.4917891805
 21
45.0561883416
 31
0.0
 11
-5.4546240245
 21
44.7341094857
 31
0.0
 11
-5.2550184774
 21
44.2494735948
 31
0.0
 11
-4.8860701479
 21
43.7766001781
 31
0.0
 11
-4.3531591335
 21
43.3223847948
 31
0.0
 11
-3.6640564768
 21
42.8934509278
 31
0.0
 11
-2.8288108464
 21
42.496053399
 31
0.0
 11
-1.8596020042
 21
42.1359871592
 31
0.0
 11
-0.7705631976
 21
41.8185027848
 31
0.0
 11
0.4224249351
 21
41.5482299131
 31
0.0
 11
1.7019659408
 21
41.329109731
 31
0.0
 11
3.0494012302
 21
41.1643375043
 31
0.0
 11
4.4450821626
 21
41.0563159831
 31
0.0
 11
5.8686565674
 21
41.0066203643
 31
0.0
 11
7.2993655239
 21
41.015975322
 31
0.0
 11
8.7163460741
 21
41.0842444398
 31
0.0
 11
10.0989354506
 21
41.2104322004
 31
0.0
 11
11.4269723871
 21
41.3926985019
 31
0.0
 11
12.6810911145
 21
41.6283854913
 31
0.0
 11
13.8430037578
 21
41.9140563215
 31
0.0
 11
14.8957670143
 21
42.2455452686
 31
0.0
 11
15.824029225
 21
42.6180184773
 31
0.0
 11
16.1028059204
 21
42.7500143119
 31
0.0
  0
SPLINE
  5
422
100
AcDbEntity
  8
0
100
AcDbSpline
 62
7
  6
CONTINUOUS
 70
0
 71
3
 72
8
 73
4
 74
2
 42
0.0000001
 43
0.0000001
 44
0.0000000001
 12
0.5213513449
 22
0.2576211651
 32
0.0
 13
0.5002753748
 23
0.2956624101
 33
0.0
 40
0.0
 40
0.0
 40
0.0
 40
0.0
 40
1.0
 40
1.0
 40
1.0
 40
1.0
 10
16.1028059204
 20
42.7500143119
 30
0.0
 10
16.276589702
 20
42.8358880336
 30
0.0
 10
16.4474957784
 20
42.9274903128
 30
0.0
 10
16.6142542366
 20
43.0260444495
 30
0.0
 11
16.1028059204
 21
42.7500143119
 31
0.0
 11
16.6142542366
 21
43.0260444495
 31
0.0
  0
SPLINE
  5
423
100
AcDbEntity
  8
0
100
AcDbSpline
 62
7
  6
CONTINUOUS
 70
0
 71
3
 72
31
 73
27
 74
25
 42
0.0000001
 43
0.0000001
 44
0.0000000001
 12
-0.0325811382
 22
-28.2452705377
 32
0.0
 13
24.2075608322
 23
14.3066521753
 33
0.0
 40
0.0
 40
0.0
 40
0.0
 40
0.0
 40
0.0061765375
 40
0.02587754
 40
0.0477492151
 40
0.0728873038
 40
0.1018888501
 40
0.1349853795
 40
0.1721612323
 40
0.2132307644
 40
0.2578860055
 40
0.3057272298
 40
0.3562841871
 40
0.4090322721
 40
0.4634059418
 40
0.5188106396
 40
0.5746339201
 40
0.6302561789
 40
0.6850612426
 40
0.7384470241
 40
0.7898364734
 40
0.8386891592
 40
0.8845140558
 40
0.9268845491
 40
0.9654575271
 40
1.0
 40
1.0
 40
1.0
 40
1.0
 10
-7.6418540241
 20
41.8610610285
 30
0.0
 10
-7.6419211036
 20
41.8029083712
 30
0.0
 10
-7.6294066739
 20
41.5593492362
 30
0.0
 10
-7.5049895141
 20
41.1216534262
 30
0.0
 10
-7.1682067154
 20
40.5872041513
 30
0.0
 10
-6.6652906924
 20
40.0769071024
 30
0.0
 10
-6.0035453665
 20
39.5922132485
 30
0.0
 10
-5.1901843937
 20
39.136654009
 30
0.0
 10
-4.2342195323
 20
38.7149134817
 30
0.0
 10
-3.1468000512
 20
38.3319437606
 30
0.0
 10
-1.9410211199
 20
37.9924831076
 30
0.0
 10
-0.6316673501
 20
37.7008213729
 30
0.0
 10
0.7650483944
 20
37.4606752659
 30
0.0
 10
2.2317365659
 20
37.2751145378
 30
0.0
 10
3.7500798913
 20
37.1465134311
 30
0.0
 10
5.30108294
 20
37.0765176278
 30
0.0
 10
6.8653240004
 20
37.0660227694
 30
0.0
 10
8.4232091161
 20
37.1151631518
 30
0.0
 10
9.9552268599
 20
37.2233099524
 30
0.0
 10
11.4422035483
 20
37.3890794733
 30
0.0
 10
12.8655533516
 20
37.6103497587
 30
0.0
 10
14.2075377321
 20
37.8842934946
 30
0.0
 10
15.451482854
 20
38.2074059753
 30
0.0
 10
16.582135903
 20
38.575617005
 30
0.0
 10
17.5855710568
 20
38.9842319479
 30
0.0
 10
18.1963785895
 20
39.2980376181
 30
0.0
 10
18.4751082612
 20
39.4627666667
 30
0.0
 11
-7.6418540241
 21
41.8610610285
 31
0.0
 11
-7.6328187493
 21
41.6870031879
 31
0.0
 11
-7.4878394393
 21
41.1523353681
 31
0.0
 11
-7.16874168
 21
40.6265812805
 31
0.0
 11
-6.679538311
 21
40.1163525877
 31
0.0
 11
-6.0263813486
 21
39.6280657115
 31
0.0
 11
-5.2174846204
 21
39.1678611428
 31
0.0
 11
-4.2630204721
 21
38.741526221
 31
0.0
 11
-3.1749918442
 21
38.3544223552
 31
0.0
 11
-1.9670813281
 21
38.011417601
 31
0.0
 11
-0.6544790992
 21
37.7168254422
 31
0.0
 11
0.7463081078
 21
37.4743505462
 31
0.0
 11
2.217664581
 21
37.2870421755
 31
0.0
 11
3.7410871591
 21
37.1572558415
 31
0.0
 11
5.2974179192
 21
37.0866236826
 31
0.0
 11
6.8670850991
 21
37.0760339393
 31
0.0
 11
8.4303492231
 21
37.1256197837
 31
0.0
 11
9.9675513379
 21
37.2347576451
 31
0.0
 11
11.4593602351
 21
37.4020750515
 31
0.0
 11
12.8870155521
 21
37.6254678894
 31
0.0
 11
14.232563695
 21
37.9021268643
 31
0.0
 11
15.4790836153
 21
38.2285728291
 31
0.0
 11
16.6108996016
 21
38.6007005363
 31
0.0
 11
17.6137784112
 21
39.0138302642
 31
0.0
 11
18.4751082612
 21
39.4627666667
 31
0.0
  0
SPLINE
  5
424
100
AcDbEntity
  8
RACCORDO
100
AcDbSpline
 62
253
  6
CONTINUOUS
 70
0
 71
3
 72
15
 73
11
 74
9
 42
0.0000001
 43
0.0000001
 44
0.0000000001
 12
-4.7165062156
 22
-3.1027397021
 32
0.0
 13
4.8468358444
 23
-2.893124189
 33
0.0
 40
0.0
 40
0.0
 40
0.0
 40
0.0
 40
0.1114416091
 40
0.2561815356
 40
0.3790033013
 40
0.4898036952
 40
0.6027807974
 40
0.7318829558
 40
0.8850919139
 40
1.0
 40
1.0
 40
1.0
 40
1.0
 10
-5.4074718774
 20
46.1966087346
 30
0.0
 10
-5.5826768913
 20
46.081350633
 30
0.0
 10
-5.9726641614
 20
45.7966778283
 30
0.0
 10
-6.4826821828
 20
45.291477586
 30
0.0
 10
-6.8444268607
 20
44.6648211158
 30
0.0
 10
-6.9427540629
 20
44.0021779507
 30
0.0
 10
-6.758415164
 20
43.3472623864
 30
0.0
 10
-6.3223564776
 20
42.7331356569
 30
0.0
 10
-5.7552770393
 20
42.2401978159
 30
0.0
 10
-5.3334825793
 20
41.9627600464
 30
0.0
 10
-5.1478357024
 20
41.8519455919
 30
0.0
 11
-5.4074718774
 21
46.1966087346
 31
0.0
 11
-5.9134113381
 21
45.8229291096
 31
0.0
 11
-6.4816718905
 21
45.2369502541
 31
0.0
 11
-6.8125034964
 21
44.6284060985
 31
0.0
 11
-6.8979141659
 21
44.0094075815
 31
0.0
 11
-6.7362177865
 21
43.3931281763
 31
0.0
 11
-6.3297925668
 21
42.7890466992
 31
0.0
 11
-5.687855323
 21
42.2107205301
 31
0.0
 11
-5.1478357024
 21
41.8519455919
 31
0.0
  0
SPLINE
  5
425
100
AcDbEntity
  8
RACCORDO
100
AcDbSpline
 62
253
  6
CONTINUOUS
 70
0
 71
3
 72
23
 73
19
 74
17
 42
0.0000001
 43
0.0000001
 44
0.0000000001
 12
20.3416646809
 22
-12.0786501944
 32
0.0
 13
20.3479508986
 23
12.0256252997
 33
0.0
 40
0.0
 40
0.0
 40
0.0
 40
0.0
 40
0.0152124377
 40
0.0653046114
 40
0.1220548003
 40
0.1845322734
 40
0.2522110557
 40
0.3237167139
 40
0.3982979099
 40
0.4743642172
 40
0.5510439001
 40
0.6267180447
 40
0.7004751423
 40
0.7708431401
 40
0.8369625782
 40
0.8976812854
 40
0.9521548207
 40
1.0
 40
1.0
 40
1.0
 40
1.0
 10
-5.1330742303
 20
41.843157408
 30
0.0
 10
-5.0299254612
 20
41.7819088367
 30
0.0
 10
-4.5807592922
 20
41.5295953486
 30
0.0
 10
-3.7036786967
 20
41.1310438912
 30
0.0
 10
-2.4413507792
 20
40.6948639843
 30
0.0
 10
-1.0160733653
 20
40.3201137804
 30
0.0
 10
0.5440364464
 20
40.0145437237
 30
0.0
 10
2.2130734696
 20
39.7834203456
 30
0.0
 10
3.9574443814
 20
39.6315784315
 30
0.0
 10
5.7477618866
 20
39.5616582856
 30
0.0
 10
7.5479987532
 20
39.57511435
 30
0.0
 10
9.3274896889
 20
39.6717142428
 30
0.0
 10
11.0507878819
 20
39.8494657396
 30
0.0
 10
12.6882046791
 20
40.105213941
 30
0.0
 10
14.2077783007
 20
40.4337567978
 30
0.0
 10
15.581938813
 20
40.8288361669
 30
0.0
 10
16.7852634228
 20
41.2823966681
 30
0.0
 10
17.5090890195
 20
41.6424384575
 30
0.0
 10
17.8336061389
 20
41.8342278569
 30
0.0
 11
-5.1330742303
 21
41.843157408
 31
0.0
 11
-4.8195714343
 21
41.6664782296
 31
0.0
 11
-3.7451976293
 21
41.1689725274
 31
0.0
 11
-2.479448287
 21
40.7250432706
 31
0.0
 11
-1.0524182967
 21
40.3452304406
 31
0.0
 11
0.516784542
 21
40.034626879
 31
0.0
 11
2.1906115312
 21
39.8006651284
 31
0.0
 11
3.9466471431
 21
39.6464738181
 31
0.0
 11
5.7431487913
 21
39.5757295226
 31
0.0
 11
7.5554890212
 21
39.5893878928
 31
0.0
 11
9.3414400833
 21
39.6871523522
 31
0.0
 11
11.0753901783
 21
39.8675966809
 31
0.0
 11
12.7182948073
 21
40.1266915152
 31
0.0
 11
14.2450331232
 21
40.460436799
 31
0.0
 11
15.6229233053
 21
40.8617415289
 31
0.0
 11
16.8252979635
 21
41.3222069254
 31
0.0
 11
17.8336061389
 21
41.8342278569
 31
0.0
  0
SPLINE
  5
426
100
AcDbEntity
  8
RACCORDO
100
AcDbSpline
 62
253
  6
CONTINUOUS
 70
0
 71
3
 72
13
 73
9
 74
7
 42
0.0000001
 43
0.0000001
 44
0.0000000001
 12
-2.8202994952
 22
-1.7172499688
 32
0.0
 13
1.5745106326
 23
-2.916438437
 33
0.0
 40
0.0
 40
0.0
 40
0.0
 40
0.0
 40
0.1784003711
 40
0.3795873225
 40
0.5718469786
 40
0.7457289027
 40
0.9183440916
 40
1.0
 40
1.0
 40
1.0
 40
1.0
 10
-3.7806553593
 20
47.6765596388
 30
0.0
 10
-3.9483695182
 20
47.5744402949
 30
0.0
 10
-4.2955761078
 20
47.3406589409
 30
0.0
 10
-4.7680224144
 20
46.9206668638
 30
0.0
 10
-5.1382081443
 20
46.4081169963
 30
0.0
 10
-5.3090026023
 20
45.823866847
 30
0.0
 10
-5.2354561945
 20
45.3440097534
 30
0.0
 10
-5.1200197304
 20
45.0874659696
 30
0.0
 10
-5.0771636984
 20
45.008084493
 30
0.0
 11
-3.7806553593
 21
47.6765596388
 31
0.0
 11
-4.2673114348
 21
47.344751628
 31
0.0
 11
-4.7575315409
 21
46.8967245853
 31
0.0
 11
-5.116330298
 21
46.3732412199
 31
0.0
 11
-5.2667527829
 21
45.8193239662
 31
0.0
 11
-5.1867611962
 21
45.2551697731
 31
0.0
 11
-5.0771636984
 21
45.008084493
 31
0.0
  0
SPLINE
  5
427
100
AcDbEntity
  8
RACCORDO
100
AcDbSpline
 62
253
  6
CONTINUOUS
 70
0
 71
3
 72
14
 73
10
 74
8
 42
0.0000001
 43
0.0000001
 44
0.0000000001
 12
3.0694237422
 22
-5.6854397777
 32
0.0
 13
6.3161970687
 23
-1.236481862
 33
0.0
 40
0.0
 40
0.0
 40
0.0
 40
0.0
 40
0.0575714739
 40
0.1758872156
 40
0.3177104018
 40
0.4832139982
 40
0.6722302413
 40
0.8815367859
 40
1.0
 40
1.0
 40
1.0
 40
1.0
 10
-5.0771636984
 20
45.008084493
 30
0.0
 10
-5.0182599488
 20
44.8989781103
 30
0.0
 10
-4.8049138271
 20
44.5829852395
 30
0.0
 10
-4.3059976931
 20
44.1110356707
 30
0.0
 10
-3.5352909792
 20
43.6147233654
 30
0.0
 10
-2.5697592837
 20
43.160791659
 30
0.0
 10
-1.4277837155
 20
42.7577752874
 30
0.0
 10
-0.3554755617
 20
42.4730244648
 30
0.0
 10
0.332400081
 20
42.3266903708
 30
0.0
 10
0.5818124162
 20
42.2778644989
 30
0.0
 11
-5.0771636984
 21
45.008084493
 31
0.0
 11
-4.8718603357
 21
44.6979786452
 31
0.0
 11
-4.3299793125
 21
44.1631450307
 31
0.0
 11
-3.5693595429
 21
43.6587941262
 31
0.0
 11
-2.6093085171
 21
43.1977296964
 31
0.0
 11
-1.4644351439
 21
42.7869690487
 31
0.0
 11
-0.1638120691
 21
42.4369434104
 31
0.0
 11
0.5818124162
 21
42.2778644989
 31
0.0
  0
SPLINE
  5
428
100
AcDbEntity
  8
RACCORDO
100
AcDbSpline
 62
253
  6
CONTINUOUS
 70
0
 71
3
 72
19
 73
15
 74
13
 42
0.0000001
 43
0.0000001
 44
0.0000000001
 12
15.8659795167
 22
-3.1059822361
 32
0.0
 13
13.9159395851
 23
8.2243109381
 33
0.0
 40
0.0
 40
0.0
 40
0.0
 40
0.0
 40
0.0434327199
 40
0.1393495828
 40
0.239430793
 40
0.3413981382
 40
0.4439486794
 40
0.5447229958
 40
0.6424482701
 40
0.7347021274
 40
0.819138738
 40
0.893500563
 40
0.9529827799
 40
1.0
 40
1.0
 40
1.0
 40
1.0
 10
0.5818124162
 20
42.2778644989
 30
0.0
 10
0.8115132974
 20
42.2328974135
 30
0.0
 10
1.5506599455
 20
42.0996802801
 30
0.0
 10
2.8296676518
 20
41.9260134127
 30
0.0
 10
4.4304217615
 20
41.7939971527
 30
0.0
 10
6.0714311622
 20
41.7403607621
 30
0.0
 10
7.7168455859
 20
41.7663196114
 30
0.0
 10
9.3362275063
 20
41.8713790019
 30
0.0
 10
10.8930424721
 20
42.0530246662
 30
0.0
 10
12.3506837498
 20
42.3061835579
 30
0.0
 10
13.6673651682
 20
42.6206086152
 30
0.0
 10
14.7900175838
 20
42.9753427384
 30
0.0
 10
15.6932359278
 20
43.3441434608
 30
0.0
 10
16.2037073352
 20
43.6085331321
 30
0.0
 10
16.4218035999
 20
43.7374278779
 30
0.0
 11
0.5818124162
 21
42.2778644989
 31
0.0
 11
1.272779403
 21
42.1529772076
 31
0.0
 11
2.8088498498
 21
41.9422837015
 31
0.0
 11
4.4210403785
 21
41.8080674779
 31
0.0
 11
6.0684009581
 21
41.7537382484
 31
0.0
 11
7.7258742836
 21
41.7801228217
 31
0.0
 11
9.3513652521
 21
41.8865514849
 31
0.0
 11
10.920196357
 21
42.0714130852
 31
0.0
 11
12.3889729803
 21
42.3292853437
 31
0.0
 11
13.7156473347
 21
42.6499596016
 31
0.0
 11
14.8603826883
 21
43.0166284699
 31
0.0
 11
15.7488149184
 21
43.3842922661
 31
0.0
 11
16.4218035999
 21
43.7374278779
 31
0.0
  0
SPLINE
  5
429
100
AcDbEntity
  8
RACCORDO
100
AcDbSpline
 62
253
  6
CONTINUOUS
 70
0
 71
3
 72
9
 73
5
 74
3
 42
0.0000001
 43
0.0000001
 44
0.0000000001
 12
-0.0023409932
 22
-0.2891339594
 32
0.0
 13
0.1460302108
 23
-0.2520647366
 33
0.0
 40
0.0
 40
0.0
 40
0.0
 40
0.0
 40
0.1447975278
 40
1.0
 40
1.0
 40
1.0
 40
1.0
 10
2.258188567
 20
50.4491466679
 30
0.0
 10
2.258075577
 20
50.4351913737
 30
0.0
 10
2.2615640157
 20
50.3389346558
 30
0.0
 10
2.2961752208
 20
50.2458098552
 30
0.0
 10
2.3378036866
 20
50.1739543932
 30
0.0
 11
2.258188567
 21
50.4491466679
 31
0.0
 11
2.2597383416
 21
50.4073815689
 31
0.0
 11
2.3378036866
 21
50.1739543932
 31
0.0
  0
SPLINE
  5
42A
100
AcDbEntity
  8
RACCORDO
100
AcDbSpline
 62
253
  6
CONTINUOUS
 70
0
 71
3
 72
20
 73
16
 74
14
 42
0.0000001
 43
0.0000001
 44
0.0000000001
 12
4.2670161954
 22
-6.7658164723
 32
0.0
 13
6.8142734633
 23
4.027231034
 33
0.0
 40
0.0
 40
0.0
 40
0.0
 40
0.0
 40
0.0426090951
 40
0.0963023449
 40
0.1619100497
 40
0.2378899515
 40
0.3229661556
 40
0.414169963
 40
0.5094558758
 40
0.6053202961
 40
0.6994275092
 40
0.7884769376
 40
0.8702626755
 40
0.9422779396
 40
1.0
 40
1.0
 40
1.0
 40
1.0
 10
2.3521697325
 20
50.1502047215
 30
0.0
 10
2.4127742988
 20
50.0541096156
 30
0.0
 10
2.5958177182
 20
49.8726404901
 30
0.0
 10
2.9626387367
 20
49.649123324
 30
0.0
 10
3.4406113497
 20
49.4527517336
 30
0.0
 10
4.0165809885
 20
49.2884019394
 30
0.0
 10
4.6708515929
 20
49.1624229226
 30
0.0
 10
5.3830518572
 20
49.0789308062
 30
0.0
 10
6.1275847801
 20
49.0411445212
 30
0.0
 10
6.8806594857
 20
49.0503267072
 30
0.0
 10
7.6152602001
 20
49.1061230556
 30
0.0
 10
8.3076372666
 20
49.2066093769
 30
0.0
 10
8.9334403268
 20
49.3480061685
 30
0.0
 10
9.4644848854
 20
49.5226104301
 30
0.0
 10
9.7754133116
 20
49.6692789723
 30
0.0
 10
9.9065246131
 20
49.7467656633
 30
0.0
 11
2.3521697325
 21
50.1502047215
 31
0.0
 11
2.581628563
 21
49.9030262433
 31
0.0
 11
2.9400443926
 21
49.6746312959
 31
0.0
 11
3.4180653915
 21
49.4717093902
 31
0.0
 11
3.9953506656
 21
49.3030868508
 31
0.0
 11
4.6561467376
 21
49.1733646122
 31
0.0
 11
5.3729844294
 21
49.0879299832
 31
0.0
 11
6.126206834
 21
49.0491074467
 31
0.0
 11
6.8849500316
 21
49.0584998552
 31
0.0
 11
7.6276349481
 21
49.1158043662
 31
0.0
 11
8.3249297359
 21
49.2187853825
 31
0.0
 11
8.9557331042
 21
49.3642728781
 31
0.0
 11
9.4958129201
 21
49.5466028518
 31
0.0
 11
9.9065246131
 21
49.7467656633
 31
0.0
  0
SPLINE
  5
42B
100
AcDbEntity
  8
RACCORDO
100
AcDbSpline
 62
253
  6
CONTINUOUS
 70
0
 71
3
 72
10
 73
6
 74
4
 42
0.0000001
 43
0.0000001
 44
0.0000000001
 12
1.2978470688
 22
0.767026745
 32
0.0
 13
0.5480387538
 23
1.4140107493
 33
0.0
 40
0.0
 40
0.0
 40
0.0
 40
0.0
 40
0.3483074139
 40
0.6861054368
 40
1.0
 40
1.0
 40
1.0
 40
1.0
 10
13.5849569873
 20
47.4221119968
 30
0.0
 10
13.7356402393
 20
47.5111656974
 30
0.0
 10
14.0236216001
 20
47.7028038957
 30
0.0
 10
14.3946989544
 20
48.0457903817
 30
0.0
 10
14.5765583772
 20
48.3251129487
 30
0.0
 10
14.6339005056
 20
48.4730630442
 30
0.0
 11
13.5849569873
 21
47.4221119968
 31
0.0
 11
14.019429319
 21
47.7169981264
 31
0.0
 11
14.3874567811
 21
48.0689812778
 31
0.0
 11
14.6339005056
 21
48.4730630442
 31
0.0
  0
SPLINE
  5
42C
100
AcDbEntity
  8
RACCORDO
100
AcDbSpline
 62
253
  6
CONTINUOUS
 70
0
 71
3
 72
8
 73
4
 74
2
 42
0.0000001
 43
0.0000001
 44
0.0000000001
 12
0.1340852205
 22
0.3540738136
 32
0.0
 13
0.0017702799
 23
0.3782727766
 33
0.0
 40
0.0
 40
0.0
 40
0.0
 40
0.0
 40
1.0
 40
1.0
 40
1.0
 40
1.0
 10
14.6370555645
 20
48.4812979128
 30
0.0
 10
14.681750638
 20
48.5993225173
 30
0.0
 10
14.7071311727
 20
48.7258302692
 30
0.0
 10
14.707721266
 20
48.8519211947
 30
0.0
 11
14.6370555645
 21
48.4812979128
 31
0.0
 11
14.707721266
 21
48.8519211947
 31
0.0
  0
SPLINE
  5
42D
100
AcDbEntity
  8
RACCORDO
100
AcDbSpline
 62
253
  6
CONTINUOUS
 70
0
 71
3
 72
19
 73
15
 74
13
 42
0.0000001
 43
0.0000001
 44
0.0000000001
 12
-6.9490854104
 22
-4.4089248307
 32
0.0
 13
8.0785727633
 23
-1.5593528308
 33
0.0
 40
0.0
 40
0.0
 40
0.0
 40
0.0
 40
0.0418096407
 40
0.1038019546
 40
0.1646393921
 40
0.2228148
 40
0.2812584823
 40
0.3474767686
 40
0.4265477423
 40
0.5219643791
 40
0.6353819498
 40
0.7655223342
 40
0.911542302
 40
1.0
 40
1.0
 40
1.0
 40
1.0
 10
-2.337245785
 20
49.0614583649
 30
0.0
 10
-2.4340920398
 20
49.0000131773
 30
0.0
 10
-2.6694427174
 20
48.8393193642
 30
0.0
 10
-3.0152035182
 20
48.546569992
 30
0.0
 10
-3.3320719263
 20
48.1593813441
 30
0.0
 10
-3.5277489501
 20
47.7030702146
 30
0.0
 10
-3.5264833399
 20
47.1858089032
 30
0.0
 10
-3.2840296033
 20
46.6667439613
 30
0.0
 10
-2.826263696
 20
46.1816362425
 30
0.0
 10
-2.173187715
 20
45.7311920714
 30
0.0
 10
-1.3366568565
 20
45.3205220623
 30
0.0
 10
-0.3309057239
 20
44.9558069552
 30
0.0
 10
0.6355206664
 20
44.6957934561
 30
0.0
 10
1.264712942
 20
44.5624560537
 30
0.0
 10
1.5029169252
 20
44.5164771331
 30
0.0
 11
-2.337245785
 21
49.0614583649
 31
0.0
 11
-2.6208668449
 21
48.8666897868
 31
0.0
 11
-3.0066937001
 21
48.5332223424
 31
0.0
 11
-3.3165820872
 21
48.1402430334
 31
0.0
 11
-3.4952517236
 21
47.6962819221
 31
0.0
 11
-3.4941199707
 21
47.2155115226
 31
0.0
 11
-3.2778455333
 21
46.7155581231
 31
0.0
 11
-2.8442130662
 21
46.2307314578
 31
0.0
 11
-2.2053250489
 21
45.7747471567
 31
0.0
 11
-1.3719147014
 21
45.3553232766
 31
0.0
 11
-0.36767719
 21
44.9843535559
 31
0.0
 11
0.7910786217
 21
44.6678808677
 31
0.0
 11
1.5029169252
 21
44.5164771331
 31
0.0
  0
SPLINE
  5
42E
100
AcDbEntity
  8
RACCORDO
100
AcDbSpline
 62
253
  6
CONTINUOUS
 70
0
 71
3
 72
19
 73
15
 74
13
 42
0.0000001
 43
0.0000001
 44
0.0000000001
 12
13.4334748247
 22
-2.5929737355
 32
0.0
 13
11.7761682696
 23
6.9597075294
 33
0.0
 40
0.0
 40
0.0
 40
0.0
 40
0.0
 40
0.0421775208
 40
0.1440017962
 40
0.249685596
 40
0.357822206
 40
0.4656205114
 40
0.5715614892
 40
0.6729036055
 40
0.7635172131
 40
0.8416480125
 40
0.9064409545
 40
0.9582264711
 40
1.0
 40
1.0
 40
1.0
 40
1.0
 10
1.5029169252
 20
44.5164771331
 30
0.0
 10
1.6917804797
 20
44.4800220653
 30
0.0
 10
2.338395003
 20
44.3648365068
 30
0.0
 10
3.4676178177
 20
44.2150334833
 30
0.0
 10
4.9032748162
 20
44.1044249943
 30
0.0
 10
6.3699355162
 20
44.0677272866
 30
0.0
 10
7.8377318279
 20
44.1057157455
 30
0.0
 10
9.2707340907
 20
44.2173986062
 30
0.0
 10
10.6178271698
 20
44.3973988384
 30
0.0
 10
11.8274304445
 20
44.6327732736
 30
0.0
 10
12.8582564319
 20
44.9029639182
 30
0.0
 10
13.6999921258
 20
45.1878066829
 30
0.0
 10
14.3650558053
 20
45.4706700896
 30
0.0
 10
14.7431776067
 20
45.6695302492
 30
0.0
 10
14.9071549753
 20
45.7664407638
 30
0.0
 11
1.5029169252
 21
44.5164771331
 31
0.0
 11
2.0709603133
 21
44.4150171074
 31
0.0
 11
3.4514495992
 21
44.2298176726
 31
0.0
 11
4.892740966
 21
44.11762874
 31
0.0
 11
6.3714720131
 21
44.080258965
 31
0.0
 11
7.8455440215
 21
44.118789341
 31
0.0
 11
9.2902407901
 21
44.2325532166
 31
0.0
 11
10.6640176165
 21
44.4181796111
 31
0.0
 11
11.8801918131
 21
44.6575422874
 31
0.0
 11
12.9132456811
 21
44.9314632132
 31
0.0
 11
13.7517896229
 21
45.2184807777
 31
0.0
 11
14.4025655938
 21
45.4982774121
 31
0.0
 11
14.9071549753
 21
45.7664407638
 31
0.0
  0
SPLINE
  5
42F
100
AcDbEntity
  8
RACCORDO
100
AcDbSpline
 62
253
  6
CONTINUOUS
 70
0
 71
3
 72
15
 73
11
 74
9
 42
0.0000001
 43
0.0000001
 44
0.0000000001
 12
4.9645306936
 22
2.9641202368
 32
0.0
 13
-4.8980476356
 23
3.0793589546
 33
0.0
 40
0.0
 40
0.0
 40
0.0
 40
0.0
 40
0.1616888304
 40
0.3028876259
 40
0.4227043343
 40
0.5307938708
 40
0.6410068352
 40
0.7669503386
 40
0.9164108406
 40
1.0
 40
1.0
 40
1.0
 40
1.0
 10
17.8635825335
 20
41.852034267
 30
0.0
 10
18.1311522539
 20
42.0117893118
 30
0.0
 10
18.615429493
 20
42.3422087829
 30
0.0
 10
19.1985202565
 20
42.9197936122
 30
0.0
 10
19.560265533
 20
43.5464498151
 30
0.0
 10
19.6585925641
 20
44.2090929851
 30
0.0
 10
19.4742536996
 20
44.8640085403
 30
0.0
 10
19.0381949921
 20
45.4781352542
 30
0.0
 10
18.5128343222
 20
45.9348087822
 30
0.0
 10
18.1408016727
 20
46.1873772919
 30
0.0
 10
18.0043271112
 20
46.2731776341
 30
0.0
 11
17.8635825335
 21
41.852034267
 31
0.0
 11
18.6292498657
 21
42.3883411904
 31
0.0
 11
19.1975104182
 21
42.9743210118
 31
0.0
 11
19.528342024
 21
43.5828647543
 31
0.0
 11
19.6137526936
 21
44.2018633796
 31
0.0
 11
19.4520563141
 21
44.8181427507
 31
0.0
 11
19.0456310944
 21
45.4222242097
 31
0.0
 11
18.4036938506
 21
46.0005503855
 31
0.0
 11
18.0043271112
 21
46.2731776341
 31
0.0
  0
SPLINE
  5
430
100
AcDbEntity
  8
RACCORDO
100
AcDbSpline
 62
253
  6
CONTINUOUS
 70
0
 71
3
 72
9
 73
5
 74
3
 42
0.0000001
 43
0.0000001
 44
0.0000000001
 12
0.8667470759
 22
0.5122469391
 32
0.0
 13
0.6478923242
 23
0.7760959076
 33
0.0
 40
0.0
 40
0.0
 40
0.0
 40
0.0
 40
0.5076592599
 40
1.0
 40
1.0
 40
1.0
 40
1.0
 10
13.3925063506
 20
47.73250618
 30
0.0
 10
13.5391770769
 20
47.8191884806
 30
0.0
 10
13.8194904053
 20
48.0057224133
 30
0.0
 10
14.0673067771
 20
48.2347824357
 30
0.0
 10
14.1736347059
 20
48.3621503136
 30
0.0
 11
13.3925063506
 21
47.73250618
 31
0.0
 11
13.8154093424
 21
48.0195395726
 31
0.0
 11
14.1736347059
 21
48.3621503136
 31
0.0
  0
SPLINE
  5
431
100
AcDbEntity
  8
RACCORDO
100
AcDbSpline
 62
253
  6
CONTINUOUS
 70
0
 71
3
 72
17
 73
13
 74
11
 42
0.0000001
 43
0.0000001
 44
0.0000000001
 12
4.8902685408
 22
5.8579446925
 32
0.0
 13
-7.5615221318
 23
0.7679301444
 33
0.0
 40
0.0
 40
0.0
 40
0.0
 40
0.0
 40
0.0617353696
 40
0.118511975
 40
0.1780050701
 40
0.248512168
 40
0.3344586624
 40
0.4380227361
 40
0.5581681523
 40
0.6940244397
 40
0.842337802
 40
1.0
 40
1.0
 40
1.0
 40
1.0
 10
14.1736347059
 20
48.3621503136
 30
0.0
 10
14.2742688845
 20
48.4826977739
 30
0.0
 10
14.4404871408
 20
48.7392027155
 30
0.0
 10
14.5193667044
 20
49.1994823007
 30
0.0
 10
14.3676114643
 20
49.6642164419
 30
0.0
 10
14.0134412332
 20
50.0917244454
 30
0.0
 10
13.4813945926
 20
50.4866305955
 30
0.0
 10
12.7815084527
 20
50.8462610368
 30
0.0
 10
11.9266968404
 20
51.1651319115
 30
0.0
 10
10.9375651652
 20
51.4350617591
 30
0.0
 10
9.8382064666
 20
51.6493958703
 30
0.0
 10
9.0691399956
 20
51.7493109373
 30
0.0
 10
8.6717512625
 20
51.7896687888
 30
0.0
 11
14.1736347059
 21
48.3621503136
 31
0.0
 11
14.4165880269
 21
48.7634868467
 31
0.0
 11
14.4833506501
 21
49.1897524731
 31
0.0
 11
14.3540281392
 21
49.622967398
 31
0.0
 11
14.0258590458
 21
50.046513458
 31
0.0
 11
13.5091017868
 21
50.4459435551
 31
0.0
 11
12.8133695981
 21
50.8138399527
 31
0.0
 11
11.9601510724
 21
51.1388393697
 31
0.0
 11
10.9653292293
 21
51.4148904427
 31
0.0
 11
9.8596487853
 21
51.6334618838
 31
0.0
 11
8.6717512625
 21
51.7896687888
 31
0.0
  0
SPLINE
  5
432
100
AcDbEntity
  8
RACCORDO
100
AcDbSpline
 62
253
  6
CONTINUOUS
 70
0
 71
3
 72
13
 73
9
 74
7
 42
0.0000001
 43
0.0000001
 44
0.0000000001
 12
-4.9004822365
 22
-0.4970928377
 32
0.0
 13
-4.239874096
 23
-2.50576274
 33
0.0
 40
0.0
 40
0.0
 40
0.0
 40
0.0
 40
0.0856548224
 40
0.3243006477
 40
0.5417939964
 40
0.7315235768
 40
0.8820476309
 40
1.0
 40
1.0
 40
1.0
 40
1.0
 10
4.0475315494
 20
51.7900291312
 30
0.0
 10
3.9076149042
 20
51.7758363317
 30
0.0
 10
3.3784051646
 20
51.7168347398
 30
0.0
 10
2.4983894763
 20
51.583788929
 30
0.0
 10
1.4618257053
 20
51.3566994766
 30
0.0
 10
0.5836161309
 20
51.0939176467
 30
0.0
 10
-0.1167519283
 20
50.8169091986
 30
0.0
 10
-0.5099667582
 20
50.6157685489
 30
0.0
 10
-0.6766678229
 20
50.5172483317
 30
0.0
 11
4.0475315494
 21
51.7900291312
 31
0.0
 11
3.6282350386
 21
51.7432296056
 31
0.0
 11
2.4664480933
 21
51.5653551338
 31
0.0
 11
1.4207924603
 21
51.3330511186
 31
0.0
 11
0.5267579935
 21
51.0613327583
 31
0.0
 11
-0.1611463643
 21
50.7850111544
 31
0.0
 11
-0.6766678229
 21
50.5172483317
 31
0.0
  0
SPLINE
  5
433
100
AcDbEntity
  8
RACCORDO
100
AcDbSpline
 62
253
  6
CONTINUOUS
 70
0
 71
3
 72
13
 73
9
 74
7
 42
0.0000001
 43
0.0000001
 44
0.0000000001
 12
-2.041518908
 22
-1.3157363364
 32
0.0
 13
1.4733194998
 23
-1.9390387443
 33
0.0
 40
0.0
 40
0.0
 40
0.0
 40
0.0
 40
0.1402921925
 40
0.3445282839
 40
0.5378282184
 40
0.7156014716
 40
0.9018804538
 40
1.0
 40
1.0
 40
1.0
 40
1.0
 10
-0.8219421743
 20
50.4276518172
 30
0.0
 10
-0.9174118956
 20
50.3661226387
 30
0.0
 10
-1.145647763
 20
50.2052142262
 30
0.0
 10
-1.4669453641
 20
49.9082362257
 30
0.0
 10
-1.7246484003
 20
49.5105520641
 30
0.0
 10
-1.8035282105
 20
49.0502724667
 30
0.0
 10
-1.6835984081
 20
48.6830003488
 30
0.0
 10
-1.5572787376
 20
48.4892683437
 30
0.0
 10
-1.5090915907
 20
48.4258491432
 30
0.0
 11
-0.8219421743
 21
50.4276518172
 31
0.0
 11
-1.0995708147
 21
50.2302147553
 31
0.0
 11
-1.4577961782
 21
49.887604966
 31
0.0
 11
-1.7007494992
 21
49.4862678169
 31
0.0
 11
-1.7675121225
 21
49.0600023603
 31
0.0
 11
-1.6381896116
 21
48.6267872974
 31
0.0
 11
-1.5090915907
 21
48.4258491432
 31
0.0
  0
SPLINE
  5
434
100
AcDbEntity
  8
RACCORDO
100
AcDbSpline
 62
253
  6
CONTINUOUS
 70
0
 71
3
 72
23
 73
19
 74
17
 42
0.0000001
 43
0.0000001
 44
0.0000000001
 12
9.448475563
 22
-12.4351576105
 32
0.0
 13
13.39954032
 23
7.9191193197
 33
0.0
 40
0.0
 40
0.0
 40
0.0
 40
0.0
 40
0.0191243352
 40
0.0610867551
 40
0.1116507647
 40
0.1703104277
 40
0.2366407497
 40
0.3090530992
 40
0.3865511302
 40
0.4670265166
 40
0.549236008
 40
0.630879214
 40
0.7106834807
 40
0.7861956433
 40
0.8550147497
 40
0.9150488738
 40
0.9626775808
 40
1.0
 40
1.0
 40
1.0
 40
1.0
 10
-1.5090915907
 20
48.4258491432
 30
0.0
 10
-1.4488596526
 20
48.3465777688
 30
0.0
 10
-1.233481012
 20
48.1104364841
 30
0.0
 10
-0.7655560363
 20
47.7631240418
 30
0.0
 10
-0.0656699565
 20
47.4034934758
 30
0.0
 10
0.7891417005
 20
47.0846226586
 30
0.0
 10
1.7782733525
 20
46.8146927352
 30
0.0
 10
2.8802883065
 20
46.5998407741
 30
0.0
 10
4.0663729448
 20
46.446014289
 30
0.0
 10
5.3099392195
 20
46.3568143042
 30
0.0
 10
6.5779877963
 20
46.3347185337
 30
0.0
 10
7.8419288105
 20
46.380245494
 30
0.0
 10
9.0669033464
 20
46.4920195455
 30
0.0
 10
10.2174489813
 20
46.6659660112
 30
0.0
 10
11.2540130072
 20
46.8930547682
 30
0.0
 10
12.1322220578
 20
47.1558379674
 30
0.0
 10
12.8325907004
 20
47.4328448884
 30
0.0
 10
13.2258052637
 20
47.6339859497
 30
0.0
 10
13.3925063506
 20
47.73250618
 30
0.0
 11
-1.5090915907
 21
48.4258491432
 31
0.0
 11
-1.3100205183
 21
48.2032411593
 31
0.0
 11
-0.7932632594
 21
47.8038110663
 31
0.0
 11
-0.0975310708
 21
47.435914588
 31
0.0
 11
0.7556874548
 21
47.1109151787
 31
0.0
 11
1.7505092977
 21
46.8348640681
 31
0.0
 11
2.8561897416
 21
46.6162926286
 31
0.0
 11
4.0521596732
 21
46.4592674642
 31
0.0
 11
5.3014528591
 21
46.3686425506
 31
0.0
 11
6.5808210689
 21
46.3461043776
 31
0.0
 11
7.8507319627
 21
46.3923496695
 31
0.0
 11
9.087603488
 21
46.5065250287
 31
0.0
 11
10.2493904332
 21
46.6843996179
 31
0.0
 11
11.2950460665
 21
46.9167034966
 31
0.0
 11
12.1890805337
 21
47.1884223889
 31
0.0
 11
12.8769848918
 21
47.4647431904
 31
0.0
 11
13.3925063506
 21
47.73250618
 31
0.0
  0
SPLINE
  5
435
100
AcDbEntity
  8
0
100
AcDbSpline
 62
7
  6
CONTINUOUS
 70
0
 71
3
 72
28
 73
24
 74
22
 42
0.0000001
 43
0.0000001
 44
0.0000000001
 12
-11.5428653157
 22
-6.8218256405
 32
0.0
 13
11.5428653157
 23
6.8218256405
 33
0.0
 40
0.0
 40
0.0
 40
0.0
 40
0.0
 40
0.0356376053
 40
0.0651118122
 40
0.089854697
 40
0.1127299269
 40
0.1374246321
 40
0.1668215152
 40
0.2023703691
 40
0.2444769011
 40
0.29291909
 40
0.3470836858
 40
0.4060943779
 40
0.4688899812
 40
0.5342804796
 40
0.6009932567
 40
0.66771506
 40
0.7331323623
 40
0.7959717146
 40
0.8550416736
 40
0.909278946
 40
0.9578042381
 40
1.0
 40
1.0
 40
1.0
 40
1.0
 10
1.1648382649
 20
50.6884746951
 30
0.0
 10
1.0277182387
 20
50.6074368518
 30
0.0
 10
0.7861939888
 20
50.4421194398
 30
0.0
 10
0.5062813999
 20
50.1485835499
 30
0.0
 10
0.3535858206
 20
49.8301302599
 30
0.0
 10
0.3524984142
 20
49.4955914069
 30
0.0
 10
0.5032798362
 20
49.176789161
 30
0.0
 10
0.7816260381
 20
48.8829183177
 30
0.0
 10
1.1777103286
 20
48.6103343974
 30
0.0
 10
1.684967306
 20
48.3614960346
 30
0.0
 10
2.2939063137
 20
48.1406919757
 30
0.0
 10
2.9920595015
 20
47.952686817
 30
0.0
 10
3.7644646888
 20
47.8017094413
 30
0.0
 10
4.594246855
 20
47.6912244741
 30
0.0
 10
5.4631108095
 20
47.6237730553
 30
0.0
 10
6.3518195298
 20
47.6009085439
 30
0.0
 10
7.2406639656
 20
47.6231574106
 30
0.0
 10
8.1099294743
 20
47.6900067671
 30
0.0
 10
8.9403761882
 20
47.7999199488
 30
0.0
 10
9.7136699383
 20
47.9503589842
 30
0.0
 10
10.4129892031
 20
48.1379043598
 30
0.0
 10
11.0230972902
 20
48.35822959
 30
0.0
 10
11.3886469304
 20
48.5367684193
 30
0.0
 10
11.5510002627
 20
48.6327191296
 30
0.0
 11
1.1648382649
 21
50.6884746951
 31
0.0
 11
0.7749219419
 21
50.4122744712
 31
0.0
 11
0.5097205534
 21
50.1192830126
 31
0.0
 11
0.3751582602
 21
49.8160452646
 31
0.0
 11
0.3742409617
 21
49.5093350572
 31
0.0
 11
0.5069891486
 21
49.2060037897
 31
0.0
 11
0.770437446
 21
48.9128273814
 31
0.0
 11
1.1587008542
 21
48.6363549088
 31
0.0
 11
1.6631062102
 21
48.38276231
 31
0.0
 11
2.2723859318
 21
48.1577144247
 31
0.0
 11
2.9729297169
 21
47.9662384507
 31
0.0
 11
3.749088575
 21
47.8126116448
 31
0.0
 11
4.5835243998
 21
47.7002657762
 31
0.0
 11
5.4575972737
 21
47.6317104658
 31
0.0
 11
6.3517818531
 21
47.608477126
 31
0.0
 11
7.2461035321
 21
47.6310847512
 31
0.0
 11
8.1205846422
 21
47.6990283244
 31
0.0
 11
8.9556907205
 21
47.8107900984
 31
0.0
 11
9.7327668772
 21
47.9638735
 31
0.0
 11
10.4344545149
 21
48.1548588988
 31
0.0
 11
11.0450790915
 21
48.3794799967
 31
0.0
 11
11.5510002627
 21
48.6327191296
 31
0.0
  0
SPLINE
  5
436
100
AcDbEntity
  8
RACCORDO
100
AcDbSpline
 62
253
  6
CONTINUOUS
 70
0
 71
3
 72
8
 73
4
 74
2
 42
0.0000001
 43
0.0000001
 44
0.0000000001
 12
-0.1153591953
 22
-0.0681772069
 32
0.0
 13
-0.1107443756
 23
-0.0758051001
 33
0.0
 40
0.0
 40
0.0
 40
0.0
 40
0.0
 40
1.0
 40
1.0
 40
1.0
 40
1.0
 10
3.0017645513
 20
51.3857418059
 30
0.0
 10
2.9633114862
 20
51.3630160703
 30
0.0
 10
2.9254470315
 20
51.3391599581
 30
0.0
 10
2.8885322397
 20
51.3138915915
 30
0.0
 11
3.0017645513
 21
51.3857418059
 31
0.0
 11
2.8885322397
 21
51.3138915915
 31
0.0
  0
SPLINE
  5
437
100
AcDbEntity
  8
RACCORDO
100
AcDbSpline
 62
253
  6
CONTINUOUS
 70
0
 71
3
 72
24
 73
20
 74
18
 42
0.0000001
 43
0.0000001
 44
0.0000000001
 12
-7.0471833713
 22
-4.8238336049
 32
0.0
 13
7.3408459669
 23
4.3384350307
 33
0.0
 40
0.0
 40
0.0
 40
0.0
 40
0.0
 40
0.0280403387
 40
0.0626319525
 40
0.0917635328
 40
0.1220744714
 40
0.1594820537
 40
0.2066207269
 40
0.264219386
 40
0.3309240849
 40
0.4056146567
 40
0.4856848148
 40
0.5693387581
 40
0.6535005854
 40
0.736119705
 40
0.8142984795
 40
0.8861001889
 40
0.9493243763
 40
1.0
 40
1.0
 40
1.0
 40
1.0
 10
2.8885322397
 20
51.3138915915
 30
0.0
 10
2.8226637702
 20
51.2688042821
 30
0.0
 10
2.6822911019
 20
51.1580521947
 30
0.0
 10
2.513722844
 20
50.951213659
 30
0.0
 10
2.4567089259
 20
50.6760252819
 30
0.0
 10
2.5646674887
 20
50.4093668188
 30
0.0
 10
2.7998469245
 20
50.1762080864
 30
0.0
 10
3.1467746396
 20
49.9648132435
 30
0.0
 10
3.5988250487
 20
49.7790910246
 30
0.0
 10
4.143558295
 20
49.623654562
 30
0.0
 10
4.7623459194
 20
49.5045075856
 30
0.0
 10
5.4359216046
 20
49.4255434934
 30
0.0
 10
6.1400764453
 20
49.389806581
 30
0.0
 10
6.8523098226
 20
49.3984906147
 30
0.0
 10
7.5470709822
 20
49.4512615758
 30
0.0
 10
8.2018985185
 20
49.5462971604
 30
0.0
 10
8.7937620093
 20
49.6800281759
 30
0.0
 10
9.2960078027
 20
49.8451596587
 30
0.0
 10
9.5900733272
 20
49.9838755462
 30
0.0
 10
9.7140739764
 20
50.0571598464
 30
0.0
 11
2.8885322397
 21
51.3138915915
 31
0.0
 11
2.702048787
 21
51.1635390175
 31
0.0
 11
2.5268021685
 21
50.9262797047
 31
0.0
 11
2.4819944762
 21
50.6819488439
 31
0.0
 11
2.5694135301
 21
50.4387195804
 31
0.0
 11
2.7864276178
 21
50.2049461415
 31
0.0
 11
3.125405527
 21
49.988937704
 31
0.0
 11
3.5775018471
 21
49.7970206874
 31
0.0
 11
4.1234793293
 21
49.6375430129
 31
0.0
 11
4.7484385446
 21
49.5148559106
 31
0.0
 11
5.4264001557
 21
49.4340546363
 31
0.0
 11
6.138773242
 21
49.3973376054
 31
0.0
 11
6.856367689
 21
49.4062206448
 31
0.0
 11
7.5587746365
 21
49.4604175524
 31
0.0
 11
8.2182532348
 21
49.5578135049
 31
0.0
 11
8.8148455155
 21
49.6954114535
 31
0.0
 11
9.3256369972
 21
49.8678520014
 31
0.0
 11
9.7140739764
 21
50.0571598464
 31
0.0
  0
SPLINE
  5
438
100
AcDbEntity
  8
0
100
AcDbSpline
 62
7
  6
CONTINUOUS
 70
0
 71
3
 72
10
 73
6
 74
4
 42
0.0000001
 43
0.0000001
 44
0.0000000001
 12
1.5737923324
 22
0.9301102103
 32
0.0
 13
1.7764412039
 23
0.4337563769
 33
0.0
 40
0.0
 40
0.0
 40
0.0
 40
0.0
 40
0.3094817448
 40
0.6653869674
 40
1.0
 40
1.0
 40
1.0
 40
1.0
 10
1.1648382649
 20
50.6884746951
 30
0.0
 10
1.3271915973
 20
50.7844254054
 30
0.0
 10
1.6927412374
 20
50.9629642347
 30
0.0
 10
2.2665899506
 20
51.1701953016
 30
0.0
 10
2.6725381084
 20
51.2821511024
 30
0.0
 10
2.8706782345
 20
51.3305312813
 30
0.0
 11
1.1648382649
 21
50.6884746951
 31
0.0
 11
1.6707594362
 21
50.941713828
 31
0.0
 11
2.2813840127
 21
51.1663349259
 31
0.0
 11
2.8706782345
 21
51.3305312813
 31
0.0
  0
SPLINE
  5
439
100
AcDbEntity
  8
0
100
AcDbSpline
 62
7
  6
CONTINUOUS
 70
0
 71
3
 72
17
 73
13
 74
11
 42
0.0000001
 43
0.0000001
 44
0.0000000001
 12
4.4208318693
 22
-1.0790442849
 32
0.0
 13
-3.9165731795
 23
-2.3146921157
 33
0.0
 40
0.0
 40
0.0
 40
0.0
 40
0.0
 40
0.1367132824
 40
0.2794813698
 40
0.4035771048
 40
0.5083461502
 40
0.5949842001
 40
0.6677640621
 40
0.7351815944
 40
0.8081034507
 40
0.8949693878
 40
1.0
 40
1.0
 40
1.0
 40
1.0
 10
9.8443532193
 20
51.3307278621
 30
0.0
 10
10.0458153645
 20
51.2815546334
 30
0.0
 10
10.4546563858
 20
51.1686359152
 30
0.0
 10
11.0308712216
 20
50.9596977901
 30
0.0
 10
11.538128199
 20
50.7108594273
 30
0.0
 10
11.9342124895
 20
50.438275507
 30
0.0
 10
12.2125586915
 20
50.1444046637
 30
0.0
 10
12.3633401135
 20
49.8256024178
 30
0.0
 10
12.3622527071
 20
49.4910635648
 30
0.0
 10
12.2095571277
 20
49.1726102748
 30
0.0
 10
11.9296445388
 20
48.8790743849
 30
0.0
 10
11.6881202889
 20
48.7137569729
 30
0.0
 10
11.5510002627
 20
48.6327191296
 30
0.0
 11
9.8443532193
 21
51.3307278621
 31
0.0
 11
10.4434525958
 21
51.1634794
 31
0.0
 11
11.0527323175
 21
50.9384315147
 31
0.0
 11
11.5571376735
 21
50.6848389159
 31
0.0
 11
11.9454010816
 21
50.4083664433
 31
0.0
 11
12.208849379
 21
50.115190035
 31
0.0
 11
12.341597566
 21
49.8118587675
 31
0.0
 11
12.3406802674
 21
49.5051485601
 31
0.0
 11
12.2061179743
 21
49.2019108121
 31
0.0
 11
11.9409165858
 21
48.9089193535
 31
0.0
 11
11.5510002627
 21
48.6327191296
 31
0.0
  0
SPLINE
  5
43A
100
AcDbEntity
  8
RACCORDO
100
AcDbSpline
 62
253
  6
CONTINUOUS
 70
0
 71
3
 72
9
 73
5
 74
3
 42
0.0000001
 43
0.0000001
 44
0.0000000001
 12
-0.0014864224
 22
-0.3716865056
 32
0.0
 13
0.1308596909
 23
-0.3495281708
 33
0.0
 40
0.0
 40
0.0
 40
0.0
 40
0.0
 40
0.1795555082
 40
1.0
 40
1.0
 40
1.0
 40
1.0
 10
-1.9918855786
 20
48.8525744754
 30
0.0
 10
-1.9919745437
 20
48.8303283556
 30
0.0
 10
-1.9881706699
 20
48.7065077862
 30
0.0
 10
-1.9594896088
 20
48.584620603
 30
0.0
 10
-1.9237019046
 20
48.4890311155
 30
0.0
 11
-1.9918855786
 21
48.8525744754
 31
0.0
 11
-1.9898064857
 21
48.7859253578
 31
0.0
 11
-1.9237019046
 21
48.4890311155
 31
0.0
  0
SPLINE
  5
43B
100
AcDbEntity
  8
RACCORDO
100
AcDbSpline
 62
253
  6
CONTINUOUS
 70
0
 71
3
 72
24
 73
20
 74
18
 42
0.0000001
 43
0.0000001
 44
0.0000000001
 12
6.0213523963
 22
-15.4029025581
 32
0.0
 13
14.1006323438
 23
8.3334642343
 33
0.0
 40
0.0
 40
0.0
 40
0.0
 40
0.0
 40
0.0087860482
 40
0.0423937123
 40
0.0833606551
 40
0.1327251369
 40
0.1899932119
 40
0.2547499768
 40
0.3254444822
 40
0.4011040209
 40
0.4796702835
 40
0.5599295128
 40
0.6396358916
 40
0.7175469586
 40
0.791267748
 40
0.8584542489
 40
0.9170642165
 40
0.9635629731
 40
1.0
 40
1.0
 40
1.0
 40
1.0
 10
-1.9174748442
 20
48.4727577222
 30
0.0
 10
-1.8998402135
 20
48.4276475075
 30
0.0
 10
-1.8017156798
 20
48.2149701324
 30
0.0
 10
-1.5070410022
 20
47.8592773634
 30
0.0
 10
-0.9604386448
 20
47.4535673387
 30
0.0
 10
-0.2414051036
 20
47.0840982859
 30
0.0
 10
0.6367922955
 20
46.7565037472
 30
0.0
 10
1.6529844352
 20
46.47918925
 30
0.0
 10
2.7851480647
 20
46.2584593845
 30
0.0
 10
4.0036813372
 20
46.1004245306
 30
0.0
 10
5.2812688192
 20
46.0087842721
 30
0.0
 10
6.584008387
 20
45.9860838973
 30
0.0
 10
7.882528047
 20
46.032856401
 30
0.0
 10
9.1410152
 20
46.14768837
 30
0.0
 10
10.3230373654
 20
46.3263931209
 30
0.0
 10
11.3879593931
 20
46.5596955757
 30
0.0
 10
12.2901948978
 20
46.8296658663
 30
0.0
 10
13.0097231111
 20
47.1142534286
 30
0.0
 10
13.4136952806
 20
47.3208964433
 30
0.0
 10
13.5849569873
 20
47.4221119968
 30
0.0
 11
-1.9174748442
 21
48.4727577222
 31
0.0
 11
-1.8569457117
 21
48.3408585436
 31
0.0
 11
-1.5197984774
 21
47.9057251622
 31
0.0
 11
-0.9889038841
 21
47.4953675375
 31
0.0
 11
-0.2741378624
 21
47.1174062934
 31
0.0
 11
0.6024228173
 21
46.7835156142
 31
0.0
 11
1.6244608229
 21
46.4999123969
 31
0.0
 11
2.7603902197
 21
46.2753613278
 31
0.0
 11
3.9890792195
 21
46.1140402931
 31
0.0
 11
5.2725502892
 21
46.0209360878
 31
0.0
 11
6.5869191694
 21
45.9977812559
 31
0.0
 11
7.8915720161
 21
46.045291719
 31
0.0
 11
9.1622816534
 21
46.1625905924
 31
0.0
 11
10.3558526528
 21
46.3453313117
 31
0.0
 11
11.4301149894
 21
46.5839906621
 31
0.0
 11
12.3486090505
 21
46.863142672
 31
0.0
 11
13.0553317364
 21
47.1470237609
 31
0.0
 11
13.5849569873
 21
47.4221119968
 31
0.0
  0
SPLINE
  5
43C
100
AcDbEntity
  8
RACCORDO
100
AcDbSpline
 62
253
  6
CONTINUOUS
 70
0
 71
3
 72
9
 73
5
 74
3
 42
0.0000001
 43
0.0000001
 44
0.0000000001
 12
0.5250558827
 22
0.3103076736
 32
0.0
 13
0.3303828868
 23
0.5155111756
 33
0.0
 40
0.0
 40
0.0
 40
0.0
 40
0.0
 40
0.6468178317
 40
1.0
 40
1.0
 40
1.0
 40
1.0
 10
9.9065246131
 20
49.7467656633
 30
0.0
 10
10.0197297822
 20
49.8136698421
 30
0.0
 10
10.1872863206
 20
49.9314331193
 30
0.0
 10
10.3236208609
 20
50.0867157753
 30
0.0
 10
10.3625159757
 20
50.1474055602
 30
0.0
 11
9.9065246131
 21
49.7467656633
 31
0.0
 11
10.2234244453
 21
49.9817097239
 31
0.0
 11
10.3625159757
 21
50.1474055602
 31
0.0
  0
SPLINE
  5
43D
100
AcDbEntity
  8
RACCORDO
100
AcDbSpline
 62
253
  6
CONTINUOUS
 70
0
 71
3
 72
9
 73
5
 74
3
 42
0.0000001
 43
0.0000001
 44
0.0000000001
 12
0.17198118
 22
0.2683499172
 32
0.0
 13
0.0025962998
 23
0.3193065738
 33
0.0
 40
0.0
 40
0.0
 40
0.0
 40
0.0
 40
0.3038805338
 40
1.0
 40
1.0
 40
1.0
 40
1.0
 10
10.3625159757
 20
50.1474055602
 30
0.0
 10
10.3799365533
 20
50.1745876656
 30
0.0
 10
10.4311535358
 20
50.2678972565
 30
0.0
 10
10.4570473701
 20
50.3750430519
 30
0.0
 10
10.457649815
 20
50.4491348924
 30
0.0
 11
10.3625159757
 21
50.1474055602
 31
0.0
 11
10.4087258162
 21
50.2325752841
 31
0.0
 11
10.457649815
 21
50.4491348924
 31
0.0
  0
SPLINE
  5
43E
100
AcDbEntity
  8
RACCORDO
100
AcDbSpline
 62
253
  6
CONTINUOUS
 70
0
 71
3
 72
24
 73
20
 74
18
 42
0.0000001
 43
0.0000001
 44
0.0000000001
 12
7.4562053604
 22
4.4066123547
 32
0.0
 13
-7.4562053604
 23
-4.4066123547
 33
0.0
 40
0.0
 40
0.0
 40
0.0
 40
0.0
 40
0.043077995
 40
0.0771346798
 40
0.1058153992
 40
0.1356574063
 40
0.1724862104
 40
0.2188955729
 40
0.2756030815
 40
0.3412757521
 40
0.4148107403
 40
0.4936420853
 40
0.5760017689
 40
0.6588614784
 40
0.740202347
 40
0.8171715729
 40
0.8878623778
 40
0.950108432
 40
1.0
 40
1.0
 40
1.0
 40
1.0
 10
9.7140739764
 20
50.0571598464
 30
0.0
 10
9.8211401022
 20
50.1204358548
 30
0.0
 10
10.0046813621
 20
50.249426586
 30
0.0
 10
10.2021147115
 20
50.491688849
 30
0.0
 10
10.2591296995
 20
50.7668769785
 30
0.0
 10
10.1511710888
 20
51.0335353042
 30
0.0
 10
9.9159915104
 20
51.2666937463
 30
0.0
 10
9.5690639347
 20
51.4780886901
 30
0.0
 10
9.1170134292
 20
51.6638106237
 30
0.0
 10
8.5722802484
 20
51.8192471835
 30
0.0
 10
7.9534925973
 20
51.9383940422
 30
0.0
 10
7.2799169246
 20
52.0173581413
 30
0.0
 10
6.5757620792
 20
52.053095159
 30
0.0
 10
5.8635287257
 20
52.0444109785
 30
0.0
 10
5.1687674899
 20
51.9916405205
 30
0.0
 10
4.5139401919
 20
51.8966041335
 30
0.0
 10
3.9220760936
 20
51.762874993
 30
0.0
 10
3.4198311383
 20
51.5977410157
 30
0.0
 10
3.1257651435
 20
51.4590260726
 30
0.0
 10
3.0017645513
 20
51.3857418059
 30
0.0
 11
9.7140739764
 21
50.0571598464
 31
0.0
 11
10.0137897407
 21
50.2793614158
 31
0.0
 11
10.1890363592
 21
50.5166235107
 31
0.0
 11
10.2338440514
 21
50.7609530613
 31
0.0
 11
10.1464249976
 21
51.0041825737
 31
0.0
 11
9.9294109099
 21
51.2379557377
 31
0.0
 11
9.5904330006
 21
51.4539641728
 31
0.0
 11
9.1383366805
 21
51.6458810263
 31
0.0
 11
8.5923591983
 21
51.8053586962
 31
0.0
 11
7.9673999831
 21
51.9280457397
 31
0.0
 11
7.289438372
 21
52.0088470137
 31
0.0
 11
6.5770652856
 21
52.0455640923
 31
0.0
 11
5.8594708386
 21
52.0366810595
 31
0.0
 11
5.1570638911
 21
51.9824843191
 31
0.0
 11
4.4975852928
 21
51.8850882613
 31
0.0
 11
3.9009930121
 21
51.747490988
 31
0.0
 11
3.3902015304
 21
51.5750491982
 31
0.0
 11
3.0017645513
 21
51.3857418059
 31
0.0
  0
SPLINE
  5
43F
100
AcDbEntity
  8
0
100
AcDbSpline
 62
7
  6
CONTINUOUS
 70
0
 71
3
 72
20
 73
16
 74
14
 42
0.0000001
 43
0.0000001
 44
0.0000000001
 12
-1.9209246919
 22
-1.1352652013
 32
0.0
 13
1.9209246919
 23
1.1352652013
 33
0.0
 40
0.0
 40
0.0
 40
0.0
 40
0.0
 40
0.0543752798
 40
0.0947984859
 40
0.1326206771
 40
0.1815363404
 40
0.2471128117
 40
0.3290647493
 40
0.4243896689
 40
0.5286457515
 40
0.636605209
 40
0.7427397366
 40
0.8416675763
 40
0.9286177565
 40
1.0
 40
1.0
 40
1.0
 40
1.0
 10
5.492405764
 20
51.6173258556
 30
0.0
 10
5.4575888248
 20
51.596749068
 30
0.0
 10
5.3994245929
 20
51.5556650783
 30
0.0
 10
5.3470627038
 20
51.463689134
 30
0.0
 10
5.3744082049
 20
51.3648373314
 30
0.0
 10
5.4616694709
 20
51.2878230502
 30
0.0
 10
5.592131999
 20
51.2210220982
 30
0.0
 10
5.7651721307
 20
51.1666364449
 30
0.0
 10
5.9710939605
 20
51.1271192764
 30
0.0
 10
6.1990806648
 20
51.1050654988
 30
0.0
 10
6.4360947941
 20
51.1017971867
 30
0.0
 10
6.668640254
 20
51.117531627
 30
0.0
 10
6.8835721109
 20
51.1512930365
 30
0.0
 10
7.0686846556
 20
51.2009531772
 30
0.0
 10
7.1777261256
 20
51.2476873357
 30
0.0
 10
7.2234327636
 20
51.274699928
 30
0.0
 11
5.492405764
 21
51.6173258556
 31
0.0
 11
5.3976862438
 21
51.5415048591
 31
0.0
 11
5.3587719765
 21
51.4601342165
 31
0.0
 11
5.3779245177
 21
51.3779428939
 31
0.0
 11
5.4540307915
 21
51.2997075521
 31
0.0
 11
5.5826677777
 21
51.2299749449
 31
0.0
 11
5.7563595624
 21
51.1727976779
 31
0.0
 11
5.9650118104
 21
51.131498686
 31
0.0
 11
6.1964984114
 21
51.1084781165
 31
0.0
 11
6.4373662056
 21
51.1050738413
 31
0.0
 11
6.6736168323
 21
51.1214837045
 31
0.0
 11
6.8915202639
 21
51.1567540244
 31
0.0
 11
7.0784127449
 21
51.2088350183
 31
0.0
 11
7.2234327636
 21
51.274699928
 31
0.0
  0
SPLINE
  5
440
100
AcDbEntity
  8
0
100
AcDbSpline
 62
7
  6
CONTINUOUS
 70
0
 71
3
 72
20
 73
16
 74
14
 42
0.0000001
 43
0.0000001
 44
0.0000000001
 12
1.9209246919
 22
1.1352652013
 32
0.0
 13
-1.9209246919
 23
-1.1352652013
 33
0.0
 40
0.0
 40
0.0
 40
0.0
 40
0.0
 40
0.0713822435
 40
0.1583324237
 40
0.2572602634
 40
0.363394791
 40
0.4713542485
 40
0.5756103311
 40
0.6709352507
 40
0.7528871883
 40
0.8184636596
 40
0.8673793229
 40
0.9052015141
 40
0.9456247202
 40
1.0
 40
1.0
 40
1.0
 40
1.0
 10
5.492405764
 20
51.6173258556
 30
0.0
 10
5.5381124021
 20
51.644338448
 30
0.0
 10
5.647153872
 20
51.6910726065
 30
0.0
 10
5.8322664167
 20
51.7407327472
 30
0.0
 10
6.0471982737
 20
51.7744941567
 30
0.0
 10
6.2797437336
 20
51.790228597
 30
0.0
 10
6.5167578629
 20
51.7869602849
 30
0.0
 10
6.7447445672
 20
51.7649065073
 30
0.0
 10
6.950666397
 20
51.7253893388
 30
0.0
 10
7.1237065287
 20
51.6710036855
 30
0.0
 10
7.2541690568
 20
51.6042027335
 30
0.0
 10
7.3414303227
 20
51.5271884522
 30
0.0
 10
7.3687758239
 20
51.4283366496
 30
0.0
 10
7.3164139348
 20
51.3363607053
 30
0.0
 10
7.2582497028
 20
51.2952767157
 30
0.0
 10
7.2234327636
 20
51.274699928
 30
0.0
 11
5.492405764
 21
51.6173258556
 31
0.0
 11
5.6374257828
 21
51.6831907654
 31
0.0
 11
5.8243182638
 21
51.7352717593
 31
0.0
 11
6.0422216953
 21
51.7705420792
 31
0.0
 11
6.278472322
 21
51.7869519424
 31
0.0
 11
6.5193401162
 21
51.7835476672
 31
0.0
 11
6.7508267172
 21
51.7605270977
 31
0.0
 11
6.9594789652
 21
51.7192281058
 31
0.0
 11
7.1331707499
 21
51.6620508388
 31
0.0
 11
7.2618077362
 21
51.5923182316
 31
0.0
 11
7.3379140099
 21
51.5140828898
 31
0.0
 11
7.3570665512
 21
51.4318915672
 31
0.0
 11
7.3181522838
 21
51.3505209246
 31
0.0
 11
7.2234327636
 21
51.274699928
 31
0.0
  0
SPLINE
  5
441
100
AcDbEntity
  8
0
100
AcDbSpline
 62
7
  6
CONTINUOUS
 70
0
 71
3
 72
21
 73
17
 74
15
 42
0.0000001
 43
0.0000001
 44
0.0000000001
 12
3.5524675063
 22
-6.0380828006
 32
0.0
 13
6.0009403354
 23
3.5465517034
 33
0.0
 40
0.0
 40
0.0
 40
0.0
 40
0.0
 40
0.0324082079
 40
0.0795312321
 40
0.1369376385
 40
0.2041600229
 40
0.27994317
 40
0.3625297533
 40
0.4498296196
 40
0.5395440283
 40
0.6292726045
 40
0.7166143862
 40
0.799268841
 40
0.8751427022
 40
0.9424738936
 40
1.0
 40
1.0
 40
1.0
 40
1.0
 10
2.8298841814
 20
49.4152480041
 30
0.0
 10
2.8682605499
 20
49.3500201898
 30
0.0
 10
2.9919014769
 20
49.2088290917
 30
0.0
 10
3.2539653195
 20
49.0249178885
 30
0.0
 10
3.6158243178
 20
48.8534553567
 30
0.0
 10
4.058154074
 20
48.7053787164
 30
0.0
 10
4.5689422477
 20
48.5850562871
 30
0.0
 10
5.1332739839
 20
48.496223344
 30
0.0
 10
5.7343924158
 20
48.4416861355
 30
0.0
 10
6.3542678463
 20
48.4231691763
 30
0.0
 10
6.9742519518
 20
48.4412578766
 30
0.0
 10
7.5757000085
 20
48.4953821693
 30
0.0
 10
8.14055124
 20
48.583822137
 30
0.0
 10
8.6520965232
 20
48.70381255
 30
0.0
 10
9.0951838195
 20
48.8515353492
 30
0.0
 10
9.358697619
 20
48.9758638058
 30
0.0
 10
9.4737678632
 20
49.0438702427
 30
0.0
 11
2.8298841814
 21
49.4152480041
 31
0.0
 11
2.9737681279
 21
49.2406606458
 31
0.0
 11
3.238388218
 21
49.0460517102
 31
0.0
 11
3.5977936804
 21
48.8701154196
 31
0.0
 11
4.0410641619
 21
48.7181975092
 31
0.0
 11
4.5547311133
 21
48.5949139278
 31
0.0
 11
5.1231870242
 21
48.5040105846
 31
0.0
 11
5.7291596494
 21
48.4482495317
 31
0.0
 11
6.3542368174
 21
48.4293250405
 31
0.0
 11
6.9794258746
 21
48.4478121221
 31
0.0
 11
7.5857307679
 21
48.5031490558
 31
0.0
 11
8.1547292299
 21
48.593654457
 31
0.0
 11
8.6691325304
 21
48.7165783647
 31
0.0
 11
9.1133107853
 21
48.8681857983
 31
0.0
 11
9.4737678632
 21
49.0438702427
 31
0.0
  0
SPLINE
  5
442
100
AcDbEntity
  8
RACCORDO
100
AcDbSpline
 62
253
  6
CONTINUOUS
 70
0
 71
3
 72
9
 73
5
 74
3
 42
0.0000001
 43
0.0000001
 44
0.0000000001
 12
0.0000331687
 22
-0.4272192828
 32
0.0
 13
0.1432852806
 23
-0.4009581333
 33
0.0
 40
0.0
 40
0.0
 40
0.0
 40
0.0
 40
0.5865430968
 40
1.0
 40
1.0
 40
1.0
 40
1.0
 10
-3.7413721401
 20
47.186307579
 30
0.0
 10
-3.7413656551
 20
47.102780072
 30
0.0
 10
-3.7268827647
 20
46.9603704786
 30
0.0
 10
-3.6877582171
 20
46.8238198146
 30
0.0
 10
-3.6680107876
 20
46.7685601786
 30
0.0
 11
-3.7413721401
 21
47.186307579
 31
0.0
 11
-3.7158984379
 21
46.9377370081
 31
0.0
 11
-3.6680107876
 21
46.7685601786
 31
0.0
  0
SPLINE
  5
443
100
AcDbEntity
  8
RACCORDO
100
AcDbSpline
 62
253
  6
CONTINUOUS
 70
0
 71
3
 72
25
 73
21
 74
19
 42
0.0000001
 43
0.0000001
 44
0.0000000001
 12
6.7127921339
 22
-18.7845436195
 32
0.0
 13
17.0950346079
 23
10.1031539591
 33
0.0
 40
0.0
 40
0.0
 40
0.0
 40
0.0
 40
0.0192242878
 40
0.0527181572
 40
0.0931359268
 40
0.1411787585
 40
0.1963052441
 40
0.2581582033
 40
0.3253368725
 40
0.3970590182
 40
0.4714997044
 40
0.5476680809
 40
0.623598166
 40
0.6982200021
 40
0.7696025362
 40
0.8334282058
 40
0.8884613361
 40
0.9340996654
 40
0.9705759001
 40
1.0
 40
1.0
 40
1.0
 40
1.0
 10
-3.6680107876
 20
46.7685601786
 30
0.0
 10
-3.6249945715
 20
46.6481870208
 30
0.0
 10
-3.4605642292
 20
46.3336825424
 30
0.0
 10
-3.0330077763
 20
45.8805883701
 30
0.0
 10
-2.3652303743
 20
45.420004326
 30
0.0
 10
-1.5098684175
 20
45.0000898926
 30
0.0
 10
-0.4814769531
 20
44.6271646524
 30
0.0
 10
0.6967831984
 20
44.3101581401
 30
0.0
 10
2.0019115573
 20
44.0555255057
 30
0.0
 10
3.4025546463
 20
43.8697157675
 30
0.0
 10
4.8705295192
 20
43.7566174201
 30
0.0
 10
6.3702060164
 20
43.7190935337
 30
0.0
 10
7.8710437029
 20
43.7579371212
 30
0.0
 10
9.3363041294
 20
43.8721341511
 30
0.0
 10
10.7137215369
 20
44.0561860126
 30
0.0
 10
11.9505540989
 20
44.2968589692
 30
0.0
 10
13.0045848149
 20
44.573132179
 30
0.0
 10
13.8652689198
 20
44.8643862312
 30
0.0
 10
14.5453032079
 20
45.1536182742
 30
0.0
 10
14.9319369434
 20
45.3569545102
 30
0.0
 10
15.0996056119
 20
45.4560465806
 30
0.0
 11
-3.6680107876
 21
46.7685601786
 31
0.0
 11
-3.4947550797
 21
46.4265293204
 31
0.0
 11
-3.0513611477
 21
45.9307887866
 31
0.0
 11
-2.3980911728
 21
45.464539891
 31
0.0
 11
-1.5459199337
 21
45.0356744671
 31
0.0
 11
-0.5190761792
 21
44.6563538908
 31
0.0
 11
0.6657642611
 21
44.33275716
 31
0.0
 11
1.9744571866
 21
44.0742012177
 31
0.0
 11
3.3860224647
 21
43.8848327714
 31
0.0
 11
4.8597585424
 21
43.7701183744
 31
0.0
 11
6.3717770973
 21
43.7319073205
 31
0.0
 11
7.879031752
 21
43.7713050338
 31
0.0
 11
9.3562499086
 21
43.8876298258
 31
0.0
 11
10.7609518054
 21
44.0774346398
 31
0.0
 11
12.0045031534
 21
44.3221856206
 31
0.0
 11
13.0608119386
 21
44.602272797
 31
0.0
 11
13.9182324683
 21
44.8957512502
 31
0.0
 11
14.5836573313
 21
45.1818467283
 31
0.0
 11
15.0996056119
 21
45.4560465806
 31
0.0
  0
SPLINE
  5
444
100
AcDbEntity
  8
RACCORDO
100
AcDbSpline
 62
253
  6
CONTINUOUS
 70
0
 71
3
 72
11
 73
7
 74
5
 42
0.0000001
 43
0.0000001
 44
0.0000000001
 12
1.9041124369
 22
1.1253291699
 32
0.0
 13
0.7192207645
 23
2.1090148361
 33
0.0
 40
0.0
 40
0.0
 40
0.0
 40
0.0
 40
0.3114686154
 40
0.617470847
 40
0.9098939931
 40
1.0
 40
1.0
 40
1.0
 40
1.0
 10
16.6142542366
 20
43.4270336947
 30
0.0
 10
16.811944658
 20
43.5438686008
 30
0.0
 10
17.1929279437
 20
43.7952702419
 30
0.0
 10
17.696622302
 20
44.2430385354
 30
0.0
 10
17.9976522556
 20
44.6598393547
 30
0.0
 10
18.1058306677
 20
44.9232682228
 30
0.0
 10
18.1274327047
 20
44.9866131913
 30
0.0
 11
16.6142542366
 21
43.4270336947
 31
0.0
 11
17.1863348476
 21
43.8108446594
 31
0.0
 11
17.6859307575
 21
44.2674395
 31
0.0
 11
18.0515898277
 21
44.8009332243
 31
0.0
 11
18.1274327047
 21
44.9866131913
 31
0.0
  0
SPLINE
  5
445
100
AcDbEntity
  8
RACCORDO
100
AcDbSpline
 62
253
  6
CONTINUOUS
 70
0
 71
3
 72
9
 73
5
 74
3
 42
0.0000001
 43
0.0000001
 44
0.0000000001
 12
0.105823188
 22
0.3769300388
 32
0.0
 13
-0.0011053254
 23
0.3909007096
 33
0.0
 40
0.0
 40
0.0
 40
0.0
 40
0.0
 40
0.766597982
 40
1.0
 40
1.0
 40
1.0
 40
1.0
 10
18.1536022177
 20
45.0707950608
 30
0.0
 10
18.1806434985
 20
45.1671129965
 30
0.0
 10
18.2038209937
 20
45.2959231186
 30
0.0
 10
18.2077870904
 20
45.4261607495
 30
0.0
 10
18.2077010953
 20
45.4565730877
 30
0.0
 11
18.1536022177
 21
45.0707950608
 31
0.0
 11
18.2048891307
 21
45.3654430634
 31
0.0
 11
18.2077010953
 21
45.4565730877
 31
0.0
  0
SPLINE
  5
446
100
AcDbEntity
  8
0
100
AcDbSpline
 62
7
  6
CONTINUOUS
 70
0
 71
3
 72
9
 73
5
 74
3
 42
0.0000001
 43
0.0000001
 44
0.0000000001
 12
-0.444536091
 22
-0.4671903234
 32
0.0
 13
-0.5177151548
 23
-0.3841738066
 33
0.0
 40
0.0
 40
0.0
 40
0.0
 40
0.0
 40
0.7016115526
 40
1.0
 40
1.0
 40
1.0
 40
1.0
 10
17.1499216813
 20
43.3839147242
 30
0.0
 10
17.0459577957
 20
43.2746526815
 30
0.0
 10
16.8859869608
 20
43.1302139291
 30
0.0
 10
16.7160183467
 20
42.9986063313
 30
0.0
 10
16.6645249396
 20
42.9603953228
 30
0.0
 11
17.1499216813
 21
43.3839147242
 31
0.0
 11
16.8165615295
 21
43.0782891353
 31
0.0
 11
16.6645249396
 21
42.9603953228
 31
0.0
  0
SPLINE
  5
447
100
AcDbEntity
  8
0
100
AcDbSpline
 62
7
  6
CONTINUOUS
 70
0
 71
3
 72
8
 73
4
 74
2
 42
0.0000001
 43
0.0000001
 44
0.0000000001
 12
-0.4268075695
 22
-0.3095766456
 32
0.0
 13
-0.4534393448
 23
-0.2679823479
 33
0.0
 40
0.0
 40
0.0
 40
0.0
 40
0.0
 40
1.0
 40
1.0
 40
1.0
 40
1.0
 10
16.6227888817
 20
42.9297768524
 30
0.0
 10
16.4805196918
 20
42.8265846372
 30
0.0
 10
16.332643935
 20
42.7311820703
 30
0.0
 10
16.1814974867
 20
42.641854621
 30
0.0
 11
16.6227888817
 21
42.9297768524
 31
0.0
 11
16.1814974867
 21
42.641854621
 31
0.0
  0
SPLINE
  5
448
100
AcDbEntity
  8
RACCORDO
100
AcDbSpline
 62
253
  6
CONTINUOUS
 70
0
 71
3
 72
8
 73
4
 74
2
 42
0.0000001
 43
0.0000001
 44
0.0000000001
 12
0.0012497113
 22
-0.3898408204
 32
0.0
 13
0.1038873924
 23
-0.3766226531
 33
0.0
 40
0.0
 40
0.0
 40
0.0
 40
0.0
 40
1.0
 40
1.0
 40
1.0
 40
1.0
 10
-5.4918610041
 20
45.4570930251
 30
0.0
 10
-5.4914444336
 20
45.327146085
 30
0.0
 10
-5.4725611249
 20
45.1969389219
 30
0.0
 10
-5.437931994
 20
45.0713980376
 30
0.0
 11
-5.4918610041
 21
45.4570930251
 31
0.0
 11
-5.437931994
 21
45.0713980376
 31
0.0
  0
SPLINE
  5
449
100
AcDbEntity
  8
RACCORDO
100
AcDbSpline
 62
253
  6
CONTINUOUS
 70
0
 71
3
 72
25
 73
21
 74
19
 42
0.0000001
 43
0.0000001
 44
0.0000000001
 12
7.6965273288
 22
-22.1314569423
 32
0.0
 13
20.064369228
 23
11.858028723
 33
0.0
 40
0.0
 40
0.0
 40
0.0
 40
0.0
 40
0.027986137
 40
0.0612785213
 40
0.1011855718
 40
0.1477559537
 40
0.200942465
 40
0.2598383799
 40
0.3238717119
 40
0.3916684111
 40
0.4624085861
 40
0.5344819341
 40
0.6069675016
 40
0.6781975841
 40
0.74727252
 40
0.8124801092
 40
0.8721622436
 40
0.9247232657
 40
0.9667669178
 40
1.0
 40
1.0
 40
1.0
 40
1.0
 10
-5.4075291543
 20
44.9737991553
 30
0.0
 10
-5.3357304648
 20
44.7673411597
 30
0.0
 10
-5.0854142893
 20
44.3521719152
 30
0.0
 10
-4.5099228233
 20
43.8077858542
 30
0.0
 10
-3.7244778656
 20
43.3019827481
 30
0.0
 10
-2.7404824209
 20
42.8393704592
 30
0.0
 10
-1.5766689263
 20
42.4286473316
 30
0.0
 10
-0.2531465951
 20
42.0771866865
 30
0.0
 10
1.201992116
 20
41.7928282946
 30
0.0
 10
2.7621972542
 20
41.5809797457
 30
0.0
 10
4.3935624192
 20
41.446438904
 30
0.0
 10
6.0659526814
 20
41.3917768759
 30
0.0
 10
7.7428322073
 20
41.418232046
 30
0.0
 10
9.39318143
 20
41.525300495
 30
0.0
 10
10.9797672327
 20
41.7104198048
 30
0.0
 10
12.4652829595
 20
41.9684194148
 30
0.0
 10
13.8071430366
 20
42.2888580949
 30
0.0
 10
14.9512643448
 20
42.6503740373
 30
0.0
 10
15.8717540477
 20
43.0262292193
 30
0.0
 10
16.3919872929
 20
43.2956740804
 30
0.0
 10
16.6142542366
 20
43.4270336947
 30
0.0
 11
-5.4075291543
 21
44.9737991553
 31
0.0
 11
-5.0866063957
 21
44.4059529337
 31
0.0
 11
-4.534363041
 21
43.8608917401
 31
0.0
 11
-3.7591979226
 21
43.3468962199
 31
0.0
 11
-2.7807879485
 21
42.8770148922
 31
0.0
 11
-1.6140212338
 21
42.4583993365
 31
0.0
 11
-0.2885264798
 21
42.1016801897
 31
0.0
 11
1.1755367901
 21
41.8122837348
 31
0.0
 11
2.740981357
 21
41.59756116
 31
0.0
 11
4.3840016344
 21
41.4607783106
 31
0.0
 11
6.0628645284
 21
41.4054101563
 31
0.0
 11
7.7520335609
 21
41.4322992311
 31
0.0
 11
9.4086086404
 21
41.5407631251
 31
0.0
 11
11.0074403835
 21
41.7291597779
 31
0.0
 11
12.5043043835
 21
41.9919632134
 31
0.0
 11
13.8563484669
 21
42.3187698362
 31
0.0
 11
15.0229751474
 21
42.6924500501
 31
0.0
 11
15.9283958041
 21
43.0671452487
 31
0.0
 11
16.6142542366
 21
43.4270336947
 31
0.0
  0
SPLINE
  5
44A
100
AcDbEntity
  8
RACCORDO
100
AcDbSpline
 62
253
  6
CONTINUOUS
 70
0
 71
3
 72
10
 73
6
 74
4
 42
0.0000001
 43
0.0000001
 44
0.0000000001
 12
1.6266346891
 22
0.9613400075
 32
0.0
 13
0.8964228239
 23
1.6711371612
 33
0.0
 40
0.0
 40
0.0
 40
0.0
 40
0.0
 40
0.3577588724
 40
0.7092385049
 40
1.0
 40
1.0
 40
1.0
 40
1.0
 10
16.4218035999
 20
43.7374278779
 30
0.0
 10
16.6157845974
 20
43.8520705169
 30
0.0
 10
16.989619647
 20
44.0987539484
 30
0.0
 10
17.4625224671
 20
44.5191533099
 30
0.0
 10
17.706587761
 20
44.8471983025
 30
0.0
 10
17.7934695078
 20
45.009165749
 30
0.0
 11
16.4218035999
 21
43.7374278779
 31
0.0
 11
16.9831499624
 21
44.1140368526
 31
0.0
 11
17.4733700684
 21
44.5620646134
 31
0.0
 11
17.7934695078
 21
45.009165749
 31
0.0
  0
SPLINE
  5
44B
100
AcDbEntity
  8
RACCORDO
100
AcDbSpline
 62
253
  6
CONTINUOUS
 70
0
 71
3
 72
13
 73
9
 74
7
 42
0.0000001
 43
0.0000001
 44
0.0000000001
 12
1.6527506411
 22
3.0811051894
 32
0.0
 13
-3.0279580283
 23
1.7301740424
 33
0.0
 40
0.0
 40
0.0
 40
0.0
 40
0.0
 40
0.0244730647
 40
0.1892362407
 40
0.3527990441
 40
0.5365194554
 40
0.7550737734
 40
1.0
 40
1.0
 40
1.0
 40
1.0
 10
17.7934695078
 20
45.009165749
 30
0.0
 10
17.8069521323
 20
45.0343004446
 30
0.0
 10
17.9068083965
 20
45.2311575871
 30
0.0
 10
18.0248410854
 20
45.6349219531
 30
0.0
 10
17.9320158817
 20
46.240564783
 30
0.0
 10
17.5865290928
 20
46.8135819775
 30
0.0
 10
17.0363318827
 20
47.3340409104
 30
0.0
 10
16.584154901
 20
47.6294515005
 30
0.0
 10
16.3369461229
 20
47.7707065004
 30
0.0
 11
17.7934695078
 21
45.009165749
 31
0.0
 11
17.8321688256
 21
45.0855474815
 31
0.0
 11
17.9825913105
 21
45.6394648848
 31
0.0
 11
17.9025997239
 21
46.2036189842
 31
0.0
 11
17.5876988636
 21
46.7608100735
 31
0.0
 11
17.0458178405
 21
47.2956436936
 31
0.0
 11
16.3369461229
 21
47.7707065004
 31
0.0
  0
SPLINE
  5
44C
100
AcDbEntity
  8
0
100
AcDbSpline
 62
7
  6
CONTINUOUS
 70
0
 71
3
 72
8
 73
4
 74
2
 42
0.0000001
 43
0.0000001
 44
0.0000000001
 12
-0.3990098497
 22
-0.2987341397
 32
0.0
 13
-0.4285610307
 23
-0.253279281
 33
0.0
 40
0.0
 40
0.0
 40
0.0
 40
0.0
 40
1.0
 40
1.0
 40
1.0
 40
1.0
 10
14.9522783011
 20
44.933738871
 30
0.0
 10
14.8192750179
 20
44.8341608244
 30
0.0
 10
14.679875514
 20
44.7432223966
 30
0.0
 10
14.5370218371
 20
44.6587959696
 30
0.0
 11
14.9522783011
 21
44.933738871
 31
0.0
 11
14.5370218371
 21
44.6587959696
 31
0.0
  0
SPLINE
  5
44D
100
AcDbEntity
  8
0
100
AcDbSpline
 62
7
  6
CONTINUOUS
 70
0
 71
3
 72
8
 73
4
 74
2
 42
0.0000001
 43
0.0000001
 44
0.0000000001
 12
-0.2162312559
 22
-0.2469484726
 32
0.0
 13
-0.2500097519
 23
-0.2128117479
 33
0.0
 40
0.0
 40
0.0
 40
0.0
 40
0.0
 40
1.0
 40
1.0
 40
1.0
 40
1.0
 10
13.8773247413
 20
47.1979455764
 30
0.0
 10
13.805247656
 20
47.1156294189
 30
0.0
 10
13.7259559419
 20
47.0396773827
 30
0.0
 10
13.6426193579
 20
46.9687401334
 30
0.0
 11
13.8773247413
 21
47.1979455764
 31
0.0
 11
13.6426193579
 21
46.9687401334
 31
0.0
  0
SPLINE
  5
44E
100
AcDbEntity
  8
0
100
AcDbSpline
 62
7
  6
CONTINUOUS
 70
0
 71
3
 72
8
 73
4
 74
2
 42
0.0000001
 43
0.0000001
 44
0.0000000001
 12
-0.4445341897
 22
-0.3728843204
 32
0.0
 13
-0.4984592535
 23
-0.2945890836
 33
0.0
 40
0.0
 40
0.0
 40
0.0
 40
0.0
 40
1.0
 40
1.0
 40
1.0
 40
1.0
 10
13.6271078751
 20
46.9556331791
 30
0.0
 10
13.4789298118
 20
46.8313384056
 30
0.0
 10
13.3183533219
 20
46.7225397903
 30
0.0
 10
13.1522002374
 20
46.6243434291
 30
0.0
 11
13.6271078751
 21
46.9556331791
 31
0.0
 11
13.1522002374
 21
46.6243434291
 31
0.0
  0
SPLINE
  5
44F
100
AcDbEntity
  8
0
100
AcDbSpline
 62
7
  6
CONTINUOUS
 70
0
 71
3
 72
24
 73
20
 74
18
 42
0.0000001
 43
0.0000001
 44
0.0000000001
 12
9.8803151153
 22
-11.2342317144
 32
0.0
 13
12.8350596113
 23
7.5855116004
 33
0.0
 40
0.0
 40
0.0
 40
0.0
 40
0.0
 40
0.0095362898
 40
0.047334817
 40
0.0921187133
 40
0.1438423303
 40
0.2020117059
 40
0.2658336667
 40
0.334303859
 40
0.4062665745
 40
0.4804616124
 40
0.5555651967
 40
0.6302282896
 40
0.7031140595
 40
0.7729357444
 40
0.8384963956
 40
0.8987331268
 40
0.9527712623
 40
1.0
 40
1.0
 40
1.0
 40
1.0
 10
-1.1608906141
 20
47.1973123373
 30
0.0
 10
-1.1294834312
 20
47.161601374
 30
0.0
 10
-0.9668478593
 20
46.9901813963
 30
0.0
 10
-0.6027172576
 20
46.708536486
 30
0.0
 10
-0.0158202619
 20
46.3866009343
 30
0.0
 10
0.6972302324
 20
46.0960850243
 30
0.0
 10
1.5233988035
 20
45.8424734203
 30
0.0
 10
2.4466959915
 20
45.6308972687
 30
0.0
 10
3.4488296437
 20
45.4657495051
 30
0.0
 10
4.509710523
 20
45.3504798645
 30
0.0
 10
5.6079552463
 20
45.2875008274
 30
0.0
 10
6.7213690506
 20
45.2781302983
 30
0.0
 10
7.8274314267
 20
45.3225646076
 30
0.0
 10
8.9037772642
 20
45.4198730486
 30
0.0
 10
9.9286935235
 20
45.5680219777
 30
0.0
 10
10.8815607511
 20
45.7639033245
 30
0.0
 10
11.7434874542
 20
46.0034716681
 30
0.0
 10
12.4973526486
 20
46.2817090293
 30
0.0
 10
12.9501390159
 20
46.5049253831
 30
0.0
 10
13.1522002374
 20
46.6243434291
 30
0.0
 11
-1.1608906141
 21
47.1973123373
 31
0.0
 11
-1.0629595656
 21
47.093614875
 31
0.0
 11
-0.6231148156
 21
46.7413186884
 31
0.0
 11
-0.0411563433
 21
46.4140176106
 31
0.0
 11
0.6710688549
 21
46.1183745475
 31
0.0
 11
1.499061928
 21
45.8604079394
 31
0.0
 11
2.4259673246
 21
45.6453692426
 31
0.0
 11
3.4329159238
 21
45.4776360247
 31
0.0
 11
4.4994091561
 21
45.3606228503
 31
0.0
 11
5.6037362946
 21
45.2967117704
 31
0.0
 11
6.7234164236
 21
45.28720383
 31
0.0
 11
7.8356560843
 21
45.3322925836
 31
0.0
 11
8.9178132848
 21
45.4310601541
 31
0.0
 11
9.9478584252
 21
45.5814959185
 31
0.0
 11
10.9048227568
 21
45.7805374386
 31
0.0
 11
11.7692252455
 21
46.024132803
 31
0.0
 11
12.5234691493
 21
46.3073231125
 31
0.0
 11
13.1522002374
 21
46.6243434291
 31
0.0
  0
SPLINE
  5
450
100
AcDbEntity
  8
0
100
AcDbSpline
 62
7
  6
CONTINUOUS
 70
0
 71
3
 72
9
 73
5
 74
3
 42
0.0000001
 43
0.0000001
 44
0.0000000001
 12
-0.2924449433
 22
-0.4217111946
 32
0.0
 13
-0.4402398808
 23
-0.2601814735
 33
0.0
 40
0.0
 40
0.0
 40
0.0
 40
0.0
 40
0.3560427532
 40
1.0
 40
1.0
 40
1.0
 40
1.0
 10
9.8603440763
 20
49.3752827018
 30
0.0
 10
9.825636442
 20
49.3252336302
 30
0.0
 10
9.7090541806
 20
49.1979803925
 30
0.0
 10
9.568266417
 20
49.0997188245
 30
0.0
 10
9.4737678632
 20
49.0438702427
 30
0.0
 11
9.8603440763
 21
49.3752827018
 31
0.0
 11
9.739551458
 21
49.2382936148
 31
0.0
 11
9.4737678632
 21
49.0438702427
 31
0.0
  0
SPLINE
  5
451
100
AcDbEntity
  8
RACCORDO
100
AcDbSpline
 62
253
  6
CONTINUOUS
 70
0
 71
3
 72
11
 73
7
 74
5
 42
0.0000001
 43
0.0000001
 44
0.0000000001
 12
1.6155481603
 22
0.9547878765
 32
0.0
 13
0.6227647998
 23
1.778695012
 33
0.0
 40
0.0
 40
0.0
 40
0.0
 40
0.0
 40
0.2806078334
 40
0.5584747094
 40
0.8311645985
 40
1.0
 40
1.0
 40
1.0
 40
1.0
 10
15.0996056119
 20
45.4560465806
 30
0.0
 10
15.2507174349
 20
45.5453535664
 30
0.0
 10
15.5438414491
 20
45.7367098795
 30
0.0
 10
15.9420397474
 20
46.073855811
 30
0.0
 10
16.2293312089
 20
46.4249045741
 30
0.0
 10
16.3516408047
 20
46.6763982712
 30
0.0
 10
16.386689053
 20
46.7765005
 30
0.0
 11
15.0996056119
 21
45.4560465806
 31
0.0
 11
15.5388253653
 21
45.7465301344
 31
0.0
 11
15.9333383996
 21
46.0875043569
 31
0.0
 11
16.2502023489
 21
46.4893299339
 31
0.0
 11
16.386689053
 21
46.7765005
 31
0.0
  0
SPLINE
  5
452
100
AcDbEntity
  8
RACCORDO
100
AcDbSpline
 62
253
  6
CONTINUOUS
 70
0
 71
3
 72
9
 73
5
 74
3
 42
0.0000001
 43
0.0000001
 44
0.0000000001
 12
0.1298454781
 22
0.3808617365
 32
0.0
 13
0.0011712846
 23
0.4039028931
 33
0.0
 40
0.0
 40
0.0
 40
0.0
 40
0.0
 40
0.4027302055
 40
1.0
 40
1.0
 40
1.0
 40
1.0
 10
16.390334925
 20
46.7870521692
 30
0.0
 10
16.4077658237
 20
46.8381803444
 30
0.0
 10
16.4434096293
 20
46.9676379635
 30
0.0
 10
16.4569722968
 20
47.1022235157
 30
0.0
 10
16.4572054878
 20
47.182636515
 30
0.0
 11
16.390334925
 21
46.7870521692
 31
0.0
 11
16.4328941225
 21
46.9432850392
 31
0.0
 11
16.4572054878
 21
47.182636515
 31
0.0
  0
SPLINE
  5
453
100
AcDbEntity
  8
0
100
AcDbSpline
 62
7
  6
CONTINUOUS
 70
0
 71
3
 72
24
 73
20
 74
18
 42
0.0000001
 43
0.0000001
 44
0.0000000001
 12
13.8997505235
 22
-10.3976066639
 32
0.0
 13
14.9211043664
 23
8.818362648
 33
0.0
 40
0.0
 40
0.0
 40
0.0
 40
0.0
 40
0.0008100398
 40
0.0428926378
 40
0.0916255136
 40
0.1466898434
 40
0.2074662052
 40
0.2731234687
 40
0.3426766312
 40
0.4150299093
 40
0.4890128098
 40
0.5634129049
 40
0.6370071942
 40
0.7085931563
 40
0.7770204178
 40
0.8412243142
 40
0.9002636594
 40
0.9533674071
 40
1.0
 40
1.0
 40
1.0
 40
1.0
 10
-2.2371018414
 20
44.934291731
 30
0.0
 10
-2.2333487241
 20
44.9314842391
 30
0.0
 10
-2.0343606984
 20
44.7831812853
 30
0.0
 10
-1.5810857869
 20
44.5063973332
 30
0.0
 10
-0.812307381
 20
44.1572390959
 30
0.0
 10
0.0874245918
 20
43.8464290291
 30
0.0
 10
1.1023498442
 20
43.5796263424
 30
0.0
 10
2.2141752286
 20
43.3618556393
 30
0.0
 10
3.4025656432
 20
43.1972632357
 30
0.0
 10
4.6456337407
 20
43.0889925219
 30
0.0
 10
5.9204039557
 20
43.0391123987
 30
0.0
 10
7.2032768663
 20
43.0485758346
 30
0.0
 10
8.4704950329
 20
43.11720227
 30
0.0
 10
9.6986051978
 20
43.2436795592
 30
0.0
 10
10.8649354674
 20
43.4255941165
 30
0.0
 10
11.9480157085
 20
43.6594630743
 30
0.0
 10
12.9281939833
 20
43.9408785796
 30
0.0
 10
13.7876452458
 20
44.2644643238
 30
0.0
 10
14.3050852418
 20
44.5217215978
 30
0.0
 10
14.5370218371
 20
44.6587959696
 30
0.0
 11
-2.2371018414
 21
44.934291731
 31
0.0
 11
-2.2258281225
 21
44.9258894318
 31
0.0
 11
-1.6076881453
 21
44.5387202764
 31
0.0
 11
-0.8411639736
 21
44.1839450877
 31
0.0
 11
0.0594654977
 21
43.8681726563
 31
0.0
 11
1.0774232454
 21
43.5972852251
 31
0.0
 11
2.193746643
 21
43.3763289144
 31
0.0
 11
3.3876406975
 21
43.2094197222
 31
0.0
 11
4.6368654217
 21
43.099666851
 31
0.0
 11
5.9181501226
 21
43.049114789
 31
0.0
 11
7.2076268906
 21
43.0587052255
 31
0.0
 11
8.4812752132
 21
43.128259509
 31
0.0
 11
9.715369432
 21
43.2564819745
 31
0.0
 11
10.8869207067
 21
43.4409840803
 31
0.0
 11
11.9741052537
 21
43.6783289012
 31
0.0
 11
12.956670882
 21
43.9640951523
 31
0.0
 11
13.816314253
 21
44.2929595489
 31
0.0
 11
14.5370218371
 21
44.6587959696
 31
0.0
  0
SPLINE
  5
454
100
AcDbEntity
  8
0
100
AcDbSpline
 62
7
  6
CONTINUOUS
 70
0
 71
3
 72
26
 73
22
 74
20
 42
0.0000001
 43
0.0000001
 44
0.0000000001
 12
14.8367286688
 22
-15.5405841119
 32
0.0
 13
18.4565475185
 23
10.9078071738
 33
0.0
 40
0.0
 40
0.0
 40
0.0
 40
0.0
 40
0.009673039
 40
0.0437288918
 40
0.0832374276
 40
0.1281716073
 40
0.1782263952
 40
0.2329033179
 40
0.2915626391
 40
0.3534591017
 40
0.4177693886
 40
0.4836153984
 40
0.5500854267
 40
0.6162543614
 40
0.6812035429
 40
0.7440407811
 40
0.8039210979
 40
0.8600690977
 40
0.9118046321
 40
0.9585749875
 40
1.0
 40
1.0
 40
1.0
 40
1.0
 10
-4.4326048485
 20
43.3823627046
 30
0.0
 10
-4.3847660968
 20
43.3322544791
 30
0.0
 10
-4.160581675
 20
43.1132033512
 30
0.0
 10
-3.6828062943
 20
42.7547210274
 30
0.0
 10
-2.9407072696
 20
42.3427661829
 30
0.0
 10
-2.0551942338
 20
41.9655676682
 30
0.0
 10
-1.0390522348
 20
41.6286566056
 30
0.0
 10
0.0924342035
 20
41.337280598
 30
0.0
 10
1.3218833804
 20
41.0960861074
 30
0.0
 10
2.6302051342
 20
40.9089486268
 30
0.0
 10
3.9969701632
 20
40.7788827556
 30
0.0
 10
5.4007731979
 20
40.7079846629
 30
0.0
 10
6.8195963317
 20
40.6973969268
 30
0.0
 10
8.2311741393
 20
40.7472900929
 30
0.0
 10
9.6133611098
 20
40.8568603764
 30
0.0
 10
10.9444944462
 20
41.0243410607
 30
0.0
 10
12.2037691842
 20
41.247036379
 30
0.0
 10
13.3715623996
 20
41.521353506
 30
0.0
 10
14.4299292736
 20
41.8429355101
 30
0.0
 10
15.3625560733
 20
42.206609424
 30
0.0
 10
15.9266432496
 20
42.4912359382
 30
0.0
 10
16.1814974867
 20
42.641854621
 30
0.0
 11
-4.4326048485
 21
43.3823627046
 31
0.0
 11
-4.2842726503
 21
43.2368474481
 31
0.0
 11
-3.7058649353
 21
42.7912945249
 31
0.0
 11
-2.9687453316
 21
42.3740492285
 31
0.0
 11
-2.0845386557
 21
41.9916917663
 31
0.0
 11
-1.0671893752
 21
41.6502521439
 31
0.0
 11
0.0672583041
 21
41.3551150683
 31
0.0
 11
1.3009134646
 21
41.1109350273
 31
0.0
 11
2.6143206275
 21
40.9215628861
 31
0.0
 11
3.9867665772
 21
40.7899851565
 31
0.0
 11
5.3966070212
 21
40.7182768978
 31
0.0
 11
6.8216079335
 21
40.7075689922
 31
0.0
 11
8.2392961985
 21
40.7580303098
 31
0.0
 11
9.6273140254
 21
40.8688650453
 31
0.0
 11
10.9637715439
 21
41.0383252688
 31
0.0
 11
12.2275920204
 21
41.2637384913
 31
0.0
 11
13.3988442513
 21
41.5415498118
 31
0.0
 11
14.459056889
 21
41.8673779796
 31
0.0
 11
15.391509747
 21
42.23608449
 31
0.0
 11
16.1814974867
 21
42.641854621
 31
0.0
  0
SPLINE
  5
455
100
AcDbEntity
  8
RACCORDO
100
AcDbSpline
 62
253
  6
CONTINUOUS
 70
0
 71
3
 72
11
 73
7
 74
5
 42
0.0000001
 43
0.0000001
 44
0.0000000001
 12
2.7338879522
 22
1.6157259415
 32
0.0
 13
0.0086698538
 23
3.191347546
 33
0.0
 40
0.0
 40
0.0
 40
0.0
 40
0.0
 40
0.3223858364
 40
0.5937948476
 40
0.8241034332
 40
1.0
 40
1.0
 40
1.0
 40
1.0
 10
18.4751082612
 20
40.7995805796
 30
0.0
 10
18.7688971793
 20
40.9732096326
 30
0.0
 10
19.2918507308
 20
41.3272590277
 30
0.0
 10
19.9163238059
 20
41.9458293583
 30
0.0
 10
20.2811310367
 20
42.5777943656
 30
0.0
 10
20.3572106769
 20
43.010846929
 30
0.0
 10
20.3577190094
 20
43.1979626213
 30
0.0
 11
18.4751082612
 21
40.7995805796
 31
0.0
 11
19.3152281099
 21
41.3846698273
 31
0.0
 11
19.9152568915
 21
42.0034058161
 31
0.0
 11
20.264581467
 21
42.6459680096
 31
0.0
 11
20.3577190094
 21
43.1979626213
 31
0.0
  0
SPLINE
  5
456
100
AcDbEntity
  8
RACCORDO
100
AcDbSpline
 62
253
  6
CONTINUOUS
 70
0
 71
3
 72
27
 73
23
 74
21
 42
0.0000001
 43
0.0000001
 44
0.0000000001
 12
-0.0759375734
 22
-28.2535657323
 32
0.0
 13
24.2036038523
 23
14.3043136028
 33
0.0
 40
0.0
 40
0.0
 40
0.0
 40
0.0
 40
0.0035982201
 40
0.0275273128
 40
0.0548717701
 40
0.0873221626
 40
0.1258088784
 40
0.1702754568
 40
0.2206523237
 40
0.2761132721
 40
0.3361913976
 40
0.3996666222
 40
0.4658719865
 40
0.5333956771
 40
0.6014638583
 40
0.6686394281
 40
0.7341132449
 40
0.7965785751
 40
0.8552724752
 40
0.9091721911
 40
0.9575280463
 40
1.0
 40
1.0
 40
1.0
 40
1.0
 10
-7.6418806068
 20
43.1979146149
 30
0.0
 10
-7.6419716868
 20
43.1640270991
 30
0.0
 10
-7.6345295145
 20
42.9048810595
 30
0.0
 10
-7.4916311073
 20
42.397195179
 30
0.0
 10
-7.0311963493
 20
41.7487382124
 30
0.0
 10
-6.3317198589
 20
41.1407132395
 30
0.0
 10
-5.4057842304
 20
40.574953837
 30
0.0
 10
-4.2661318853
 20
40.0570879118
 30
0.0
 10
-2.9332385826
 20
39.5965251669
 30
0.0
 10
-1.4282867697
 20
39.2008260368
 30
0.0
 10
0.2190347094
 20
38.8781743234
 30
0.0
 10
1.9813725349
 20
38.6341309292
 30
0.0
 10
3.8232554855
 20
38.4738008779
 30
0.0
 10
5.713653493
 20
38.3999721554
 30
0.0
 10
7.6145253638
 20
38.414180384
 30
0.0
 10
9.4934915956
 20
38.5161803155
 30
0.0
 10
11.3131238417
 20
38.7038683395
 30
0.0
 10
13.0420739057
 20
38.9739128383
 30
0.0
 10
14.646593069
 20
39.3208223451
 30
0.0
 10
16.0975708889
 20
39.7379852022
 30
0.0
 10
17.3681613596
 20
40.2169030736
 30
0.0
 10
18.1324501475
 20
40.5970698647
 30
0.0
 10
18.4751082612
 20
40.7995805796
 30
0.0
 11
-7.6418806068
 21
43.1979146149
 31
0.0
 11
-7.6389283755
 21
43.0963549444
 31
0.0
 11
-7.4681929376
 21
42.4456249298
 31
0.0
 11
-7.0390481117
 21
41.8077747154
 31
0.0
 11
-6.3612259587
 21
41.1971195408
 31
0.0
 11
-5.4444041073
 21
40.6224535799
 31
0.0
 11
-4.309971767
 21
40.0971368149
 31
0.0
 11
-2.9734657767
 21
39.6283914909
 31
0.0
 11
-1.4666634182
 21
39.2273467486
 31
0.0
 11
0.1902593967
 21
38.8993801462
 31
0.0
 11
1.9576549532
 21
38.6523397068
 31
0.0
 11
3.8118546696
 21
38.4895289403
 31
0.0
 11
5.7087825203
 21
38.4148299765
 31
0.0
 11
7.6224343462
 21
38.4292518405
 31
0.0
 11
9.5082218231
 21
38.532481436
 31
0.0
 11
11.339101441
 21
38.7230127614
 31
0.0
 11
13.0738460854
 21
38.996591218
 31
0.0
 11
14.6859304575
 21
39.3489932962
 31
0.0
 11
16.1408466037
 21
39.7727309769
 31
0.0
 11
17.4104337508
 21
40.2589376846
 31
0.0
 11
18.4751082612
 21
40.7995805796
 31
0.0
  0
SPLINE
  5
457
100
AcDbEntity
  8
RACCORDO
100
AcDbSpline
 62
253
  6
CONTINUOUS
 70
0
 71
3
 72
16
 73
12
 74
10
 42
0.0000001
 43
0.0000001
 44
0.0000000001
 12
4.1372604605
 22
2.4451181504
 32
0.0
 13
-4.2610715261
 23
2.2286217924
 33
0.0
 40
0.0
 40
0.0
 40
0.0
 40
0.0
 40
0.1071615541
 40
0.2132762468
 40
0.3174140041
 40
0.4169951004
 40
0.5170354082
 40
0.6303837603
 40
0.7657325878
 40
0.9290609153
 40
1.0
 40
1.0
 40
1.0
 40
1.0
 10
14.9071549753
 20
45.7664407638
 30
0.0
 10
15.0549400621
 20
45.8537816507
 30
0.0
 10
15.3416111614
 20
46.0409246604
 30
0.0
 10
15.7310418268
 20
46.3706494465
 30
0.0
 10
16.0479105447
 20
46.7578379117
 30
0.0
 10
16.2435874501
 20
47.2141491073
 30
0.0
 10
16.242321907
 20
47.7314103819
 30
0.0
 10
15.9998680645
 20
48.2504752309
 30
0.0
 10
15.5421022319
 20
48.7355829066
 30
0.0
 10
15.0522919817
 20
49.0734182787
 30
0.0
 10
14.7239547608
 20
49.2558772092
 30
0.0
 10
14.6231959228
 20
49.3085760059
 30
0.0
 11
14.9071549753
 21
45.7664407638
 31
0.0
 11
15.3367053727
 21
46.0505291617
 31
0.0
 11
15.7225322279
 21
46.3839970704
 31
0.0
 11
16.032420615
 21
46.7769762214
 31
0.0
 11
16.2110902514
 21
47.2209373934
 31
0.0
 11
16.2099584983
 21
47.7017078289
 31
0.0
 11
15.9936840607
 21
48.2016610345
 31
0.0
 11
15.5600515934
 21
48.6864876911
 31
0.0
 11
14.9211635759
 21
49.1424719768
 31
0.0
 11
14.6231959228
 21
49.3085760059
 31
0.0
  0
SPLINE
  5
458
100
AcDbEntity
  8
RACCORDO
100
AcDbSpline
 62
7
  6
CONTINUOUS
 70
0
 71
3
 72
10
 73
6
 74
4
 42
0.0000001
 43
0.0000001
 44
0.0000000001
 12
0.0014907295
 22
-0.1098548998
 32
0.0
 13
-0.0954336349
 23
-0.0565345289
 33
0.0
 40
0.0
 40
0.0
 40
0.0
 40
0.0
 40
0.0056959923
 40
0.4203999948
 40
1.0
 40
1.0
 40
1.0
 40
1.0
 10
-27.5190377859
 20
-22.1124506572
 30
0.0
 10
-27.5190349555
 20
-22.1126592348
 30
0.0
 10
-27.5189300957
 20
-22.1280519429
 30
0.0
 10
-27.5371117331
 20
-22.1642583277
 30
0.0
 10
-27.5675793225
 20
-22.1855260218
 30
0.0
 10
-27.586017101
 20
-22.1964484929
 30
0.0
 11
-27.5190377859
 21
-22.1124506572
 31
0.0
 11
-27.5190335364
 21
-22.1130763144
 31
0.0
 11
-27.5362688775
 21
-22.1557252478
 31
0.0
 11
-27.586017101
 21
-22.1964484929
 31
0.0
  0
SPLINE
  5
459
100
AcDbEntity
  8
RACCORDO
100
AcDbSpline
 62
7
  6
CONTINUOUS
 70
0
 71
3
 72
8
 73
4
 74
2
 42
0.0000001
 43
0.0000001
 44
0.0000000001
 12
0.0082145464
 22
-0.007215362
 32
0.0
 13
0.0041720494
 23
-0.0113563243
 33
0.0
 40
0.0
 40
0.0
 40
0.0
 40
0.0
 40
1.0
 40
1.0
 40
1.0
 40
1.0
 10
-7.8783505642
 20
-25.3135143526
 30
0.0
 10
-7.8756123821
 20
-25.3159194733
 30
0.0
 10
-7.8733235657
 20
-25.3194935339
 30
0.0
 10
-7.8719328825
 20
-25.3232789753
 30
0.0
 11
-7.8783505642
 21
-25.3135143526
 31
0.0
 11
-7.8719328825
 21
-25.3232789753
 31
0.0
  0
SPLINE
  5
45A
100
AcDbEntity
  8
RACCORDO
100
AcDbSpline
 62
7
  6
CONTINUOUS
 70
0
 71
3
 72
13
 73
9
 74
7
 42
0.0000001
 43
0.0000001
 44
0.0000000001
 12
0.0
 22
0.8001839419
 32
0.0
 13
-0.7911909594
 23
0.1526215538
 33
0.0
 40
0.0
 40
0.0
 40
0.0
 40
0.0
 40
0.2525222087
 40
0.4781420579
 40
0.6716015444
 40
0.8328580724
 40
0.9703282424
 40
1.0
 40
1.0
 40
1.0
 40
1.0
 10
-2.6542930931
 20
-26.9687854784
 30
0.0
 10
-2.6542930931
 20
-26.9014307396
 30
0.0
 10
-2.6614867614
 20
-26.7737034918
 30
0.0
 10
-2.6964560026
 20
-26.597285722
 30
0.0
 10
-2.7538016568
 20
-26.452310358
 30
0.0
 10
-2.8322613767
 20
-26.3445265643
 30
0.0
 10
-2.9091146754
 20
-26.2964090367
 30
0.0
 10
-2.9526782136
 20
-26.2855488153
 30
0.0
 10
-2.9605035557
 20
-26.2840392987
 30
0.0
 11
-2.6542930931
 21
-26.9687854784
 31
0.0
 11
-2.666829137
 21
-26.7671105043
 31
0.0
 11
-2.7038086592
 21
-26.5904009668
 31
0.0
 11
-2.7633773519
 21
-26.4475178199
 31
0.0
 11
-2.8425481922
 21
-26.3456258212
 31
0.0
 11
-2.9373512236
 21
-26.289834261
 31
0.0
 11
-2.9605035557
 21
-26.2840392987
 31
0.0
  0
SPLINE
  5
45B
100
AcDbEntity
  8
RACCORDO
100
AcDbSpline
 62
7
  6
CONTINUOUS
 70
0
 71
3
 72
13
 73
9
 74
7
 42
0.0000001
 43
0.0000001
 44
0.0000000001
 12
0.0
 22
0.8001839419
 32
0.0
 13
-0.7911909594
 23
0.1526215538
 33
0.0
 40
0.0
 40
0.0
 40
0.0
 40
0.0
 40
0.2525222087
 40
0.4781420579
 40
0.6716015444
 40
0.8328580724
 40
0.9703282424
 40
1.0
 40
1.0
 40
1.0
 40
1.0
 10
-24.3049281877
 20
-22.6935336868
 30
0.0
 10
-24.3049281877
 20
-22.626178948
 30
0.0
 10
-24.3121218561
 20
-22.4984517002
 30
0.0
 10
-24.3470910973
 20
-22.3220339304
 30
0.0
 10
-24.4044367514
 20
-22.1770585664
 30
0.0
 10
-24.4828964713
 20
-22.0692747728
 30
0.0
 10
-24.55974977
 20
-22.0211572451
 30
0.0
 10
-24.6033133082
 20
-22.0102970237
 30
0.0
 10
-24.6111386503
 20
-22.0087875071
 30
0.0
 11
-24.3049281877
 21
-22.6935336868
 31
0.0
 11
-24.3174642316
 21
-22.4918587128
 31
0.0
 11
-24.3544437538
 21
-22.3151491753
 31
0.0
 11
-24.4140124465
 21
-22.1722660284
 31
0.0
 11
-24.4931832868
 21
-22.0703740297
 31
0.0
 11
-24.5879863182
 21
-22.0145824694
 31
0.0
 11
-24.6111386503
 21
-22.0087875071
 31
0.0
  0
SPLINE
  5
45C
100
AcDbEntity
  8
RACCORDO
100
AcDbSpline
 62
7
  6
CONTINUOUS
 70
0
 71
3
 72
9
 73
5
 74
3
 42
0.0000001
 43
0.0000001
 44
0.0000000001
 12
0.1731151601
 22
0.1025527743
 32
0.0
 13
0.1989498176
 23
-0.0383776254
 33
0.0
 40
0.0
 40
0.0
 40
0.0
 40
0.0
 40
0.5916571974
 40
1.0
 40
1.0
 40
1.0
 40
1.0
 10
-9.1298683792
 20
-25.1453214958
 30
0.0
 10
-9.0957267691
 20
-25.1250961335
 30
0.0
 10
-9.0321662101
 20
-25.0983248818
 30
0.0
 10
-8.9631587505
 20
-25.0988460619
 30
0.0
 10
-8.9360788418
 20
-25.1040698042
 30
0.0
 11
-9.1298683792
 21
-25.1453214958
 31
0.0
 11
-9.0186079123
 21
-25.1029712666
 31
0.0
 11
-8.9360788418
 21
-25.1040698042
 31
0.0
  0
SPLINE
  5
45D
100
AcDbEntity
  8
ASSI
100
AcDbSpline
 62
7
  6
CONTINUOUS
 70
0
 71
3
 72
16
 73
12
 74
10
 42
0.0000001
 43
0.0000001
 44
0.0000000001
 12
0.7640244305
 22
-0.1508684064
 32
0.0
 13
-0.6732977416
 23
-0.3996357867
 33
0.0
 40
0.0
 40
0.0
 40
0.0
 40
0.0
 40
0.1134612512
 40
0.2342980529
 40
0.3580082023
 40
0.483131685
 40
0.6029649951
 40
0.7176432113
 40
0.8229692818
 40
0.9231414269
 40
1.0
 40
1.0
 40
1.0
 40
1.0
 10
10.3467007564
 20
-43.472694366
 30
0.0
 10
10.3755964791
 20
-43.4784002721
 30
0.0
 10
10.4337173669
 20
-43.4990571149
 30
0.0
 10
10.5115922734
 20
-43.5512469041
 30
0.0
 10
10.5778813247
 20
-43.6217221267
 30
0.0
 10
10.6271026154
 20
-43.7047252167
 30
0.0
 10
10.6557366099
 20
-43.7944769463
 30
0.0
 10
10.6611302575
 20
-43.8835919406
 30
0.0
 10
10.642268962
 20
-43.9658732573
 30
0.0
 10
10.6026405998
 20
-44.0293898888
 30
0.0
 10
10.5662648398
 20
-44.0587306095
 30
0.0
 10
10.5490152719
 20
-44.0689690883
 30
0.0
 11
10.3467007564
 21
-43.472694366
 31
0.0
 11
10.4302096791
 21
-43.5015724059
 31
0.0
 11
10.5086861892
 21
-43.553506866
 31
0.0
 11
10.5748105364
 21
-43.6235745912
 31
0.0
 11
10.6243645271
 21
-43.7074769891
 31
0.0
 11
10.6522435055
 21
-43.7965389821
 31
0.0
 11
10.6568085796
 21
-43.8857310626
 31
0.0
 11
10.6375689345
 21
-43.9654683386
 31
0.0
 11
10.5956769551
 21
-44.0312779664
 31
0.0
 11
10.5490152719
 21
-44.0689690883
 31
0.0
  0
SPLINE
  5
45E
100
AcDbEntity
  8
ASSI
100
AcDbSpline
 62
7
  6
CONTINUOUS
 70
0
 71
3
 72
9
 73
5
 74
3
 42
0.0000001
 43
0.0000001
 44
0.0000000001
 12
0.1512367161
 22
0.038063248
 32
0.0
 13
0.1347306403
 23
0.0798076641
 33
0.0
 40
0.0
 40
0.0
 40
0.0
 40
0.0
 40
0.9886312298
 40
1.0
 40
1.0
 40
1.0
 40
1.0
 10
10.7559458278
 20
-44.5752614236
 30
0.0
 10
10.8057849414
 20
-44.5627179184
 30
0.0
 10
10.854794183
 20
-44.543005875
 30
0.0
 10
10.8997506952
 20
-44.5164805758
 30
0.0
 10
10.9002612691
 20
-44.5161781375
 30
0.0
 11
10.7559458278
 21
-44.5752614236
 31
0.0
 11
10.8987279709
 21
-44.5170828153
 31
0.0
 11
10.9002612691
 21
-44.5161781375
 31
0.0
  0
SPLINE
  5
45F
100
AcDbEntity
  8
RACCORDO
100
AcDbSpline
 62
7
  6
CONTINUOUS
 70
0
 71
3
 72
10
 73
6
 74
4
 42
0.0000001
 43
0.0000001
 44
0.0000000001
 12
0.2302467817
 22
0.1363973336
 32
0.0
 13
0.2629993292
 23
-0.0522622594
 33
0.0
 40
0.0
 40
0.0
 40
0.0
 40
0.0
 40
0.4586043946
 40
0.9665004341
 40
1.0
 40
1.0
 40
1.0
 40
1.0
 10
-25.9307612126
 20
-21.8277261056
 30
0.0
 10
-25.8955638173
 20
-21.8068753
 30
0.0
 10
-25.8094345815
 20
-21.7826738929
 30
0.0
 10
-25.7195770403
 20
-21.7900796897
 30
0.0
 10
-25.6720452596
 20
-21.7992023983
 30
0.0
 10
-25.6691084719
 20
-21.7997859859
 30
0.0
 11
-25.9307612126
 21
-21.8277261056
 31
0.0
 11
-25.8136654993
 21
-21.790968678
 31
0.0
 11
-25.6779317181
 21
-21.798093016
 31
0.0
 11
-25.6691084719
 21
-21.7997859859
 31
0.0
  0
SPLINE
  5
460
100
AcDbEntity
  8
RACCORDO
100
AcDbSpline
 62
7
  6
CONTINUOUS
 70
0
 71
3
 72
10
 73
6
 74
4
 42
0.0000001
 43
0.0000001
 44
0.0000000001
 12
0.2302467817
 22
0.1363973336
 32
0.0
 13
0.2629993292
 23
-0.0522622594
 33
0.0
 40
0.0
 40
0.0
 40
0.0
 40
0.0
 40
0.4586043946
 40
0.9665004341
 40
1.0
 40
1.0
 40
1.0
 40
1.0
 10
-4.280126118
 20
-26.1029778971
 30
0.0
 10
-4.2449287227
 20
-26.0821270916
 30
0.0
 10
-4.1587994869
 20
-26.0579256845
 30
0.0
 10
-4.0689419457
 20
-26.0653314813
 30
0.0
 10
-4.021410165
 20
-26.0744541898
 30
0.0
 10
-4.0184733772
 20
-26.0750377775
 30
0.0
 11
-4.280126118
 21
-26.1029778971
 31
0.0
 11
-4.1630304047
 21
-26.0662204695
 31
0.0
 11
-4.0272966235
 21
-26.0733448076
 31
0.0
 11
-4.0184733772
 21
-26.0750377775
 31
0.0
  0
SPLINE
  5
461
100
AcDbEntity
  8
ASSI
100
AcDbSpline
 62
7
  6
CONTINUOUS
 70
0
 71
3
 72
9
 73
5
 74
3
 42
0.0000001
 43
0.0000001
 44
0.0000000001
 12
-0.0977680438
 22
-0.0328532729
 32
0.0
 13
-0.1025827276
 23
0.0099363232
 33
0.0
 40
0.0
 40
0.0
 40
0.0
 40
0.0
 40
0.4782806436
 40
1.0
 40
1.0
 40
1.0
 40
1.0
 10
10.5838156872
 20
-44.0428733019
 30
0.0
 10
10.5682288329
 20
-44.0481109967
 30
0.0
 10
10.5343858548
 20
-44.0554225417
 30
0.0
 10
10.4998081458
 20
-44.0553899388
 30
0.0
 10
10.4819683475
 20
-44.0536619481
 30
0.0
 11
10.5838156872
 21
-44.0428733019
 31
0.0
 11
10.5356878788
 21
-44.0534249463
 31
0.0
 11
10.4819683475
 21
-44.0536619481
 31
0.0
  0
SPLINE
  5
462
100
AcDbEntity
  8
RACCORDO
100
AcDbSpline
 62
7
  6
CONTINUOUS
 70
0
 71
3
 72
13
 73
9
 74
7
 42
0.0000001
 43
0.0000001
 44
0.0000000001
 12
-0.3638827021
 22
0.0700964363
 32
0.0
 13
-0.2178991125
 23
0.295304392
 33
0.0
 40
0.0
 40
0.0
 40
0.0
 40
0.0
 40
0.1228150695
 40
0.2840987993
 40
0.4582839177
 40
0.6395166711
 40
0.822127753
 40
1.0
 40
1.0
 40
1.0
 40
1.0
 10
-34.8946541578
 20
16.7651034713
 30
0.0
 10
-34.9095509176
 20
16.7679731042
 30
0.0
 10
-34.9422810569
 20
16.7800034049
 30
0.0
 10
-34.9911032371
 20
16.8081007112
 30
0.0
 10
-35.0414485021
 20
16.8464976196
 30
0.0
 10
-35.089820516
 20
16.891257029
 30
0.0
 10
-35.1347269079
 20
16.940072116
 30
0.0
 10
-35.1621864774
 20
16.9746332572
 30
0.0
 10
-35.1751058789
 20
16.9921420758
 30
0.0
 11
-34.8946541578
 21
16.7651034713
 31
0.0
 11
-34.9373886619
 21
16.779381297
 31
0.0
 11
-34.9890234518
 21
16.8083178921
 31
0.0
 11
-35.0401190161
 21
16.8467319348
 31
0.0
 11
-35.0890638337
 21
16.8917670978
 31
0.0
 11
-35.1344978951
 21
16.9410322075
 31
0.0
 11
-35.1751058789
 21
16.9921420758
 31
0.0
  0
SPLINE
  5
463
100
AcDbEntity
  8
RACCORDO
100
AcDbSpline
 62
7
  6
CONTINUOUS
 70
0
 71
3
 72
13
 73
9
 74
7
 42
0.0000001
 43
0.0000001
 44
0.0000000001
 12
0.0122089789
 22
-0.3133892567
 32
0.0
 13
0.1983859256
 23
-0.2407966988
 33
0.0
 40
0.0
 40
0.0
 40
0.0
 40
0.0
 40
0.0072824784
 40
0.1834186016
 40
0.3765389572
 40
0.5812115708
 40
0.7913701956
 40
1.0
 40
1.0
 40
1.0
 40
1.0
 10
8.5031388843
 20
-34.2499746905
 30
0.0
 10
8.5031685215
 20
-34.2507354407
 30
0.0
 10
8.5040241306
 20
-34.2698874849
 30
0.0
 10
8.5111072837
 20
-34.308622345
 30
0.0
 10
8.5315383875
 20
-34.364923769
 30
0.0
 10
8.5600947015
 20
-34.4214597505
 30
0.0
 10
8.5948544934
 20
-34.4762953916
 30
0.0
 10
8.6212243726
 20
-34.5110274931
 30
0.0
 10
8.6350207782
 20
-34.5277732825
 30
0.0
 11
8.5031388843
 21
-34.2499746905
 31
0.0
 11
8.5032405543
 21
-34.2522558246
 31
0.0
 11
8.5121982257
 21
-34.3064741853
 31
0.0
 11
8.5321934019
 21
-34.3633119817
 31
0.0
 11
8.5607238067
 21
-34.4204405667
 31
0.0
 11
8.5957005516
 21
-34.4759005516
 31
0.0
 11
8.6350207782
 21
-34.5277732825
 31
0.0
  0
SPLINE
  5
464
100
AcDbEntity
  8
RACCORDO
100
AcDbSpline
 62
7
  6
CONTINUOUS
 70
0
 71
3
 72
11
 73
7
 74
5
 42
0.0000001
 43
0.0000001
 44
0.0000000001
 12
-0.0334343193
 22
0.0720080818
 32
0.0
 13
0.0565638341
 23
0.0566465019
 33
0.0
 40
0.0
 40
0.0
 40
0.0
 40
0.0
 40
0.0185571034
 40
0.2615839919
 40
0.6608477843
 40
1.0
 40
1.0
 40
1.0
 40
1.0
 10
8.5037436945
 20
8.200012472
 30
0.0
 10
8.5035368798
 20
8.2004578925
 30
0.0
 10
8.5011437223
 20
8.2068170291
 30
0.0
 10
8.516805336
 20
8.2223646955
 30
0.0
 10
8.5304122652
 20
8.2416324095
 30
0.0
 10
8.5438915776
 20
8.2557675943
 30
0.0
 10
8.5502861608
 20
8.2621715232
 30
0.0
 11
8.5037436945
 21
8.200012472
 31
0.0
 11
8.5032405757
 21
8.201359112
 31
0.0
 11
8.5121982475
 21
8.2183307836
 31
0.0
 11
8.5321934245
 21
8.2427068574
 31
0.0
 11
8.5502861608
 21
8.2621715232
 31
0.0
  0
SPLINE
  5
465
100
AcDbEntity
  8
RACCORDO
100
AcDbSpline
 62
7
  6
CONTINUOUS
 70
0
 71
3
 72
10
 73
6
 74
4
 42
0.0000001
 43
0.0000001
 44
0.0000000001
 12
0.0828356283
 22
0.0829566923
 32
0.0
 13
0.086976262
 23
0.0762099521
 33
0.0
 40
0.0
 40
0.0
 40
0.0
 40
0.0
 40
0.1247712557
 40
0.542904886
 40
1.0
 40
1.0
 40
1.0
 40
1.0
 10
8.5502861608
 20
8.2621715232
 30
0.0
 10
8.5537313292
 20
8.2656217267
 30
0.0
 10
8.5689790698
 20
8.2805227113
 30
0.0
 10
8.5965059418
 20
8.3070096138
 30
0.0
 10
8.6217686367
 20
8.3295452033
 30
0.0
 10
8.6350207782
 20
8.3411569356
 30
0.0
 11
8.5502861608
 21
8.2621715232
 31
0.0
 11
8.5607238308
 21
8.2724433379
 31
0.0
 11
8.5957005799
 21
8.3058300872
 31
0.0
 11
8.6350207782
 21
8.3411569356
 31
0.0
  0
SPLINE
  5
466
100
AcDbEntity
  8
RACCORDO
100
AcDbSpline
 62
7
  6
CONTINUOUS
 70
0
 71
3
 72
9
 73
5
 74
3
 42
0.0000001
 43
0.0000001
 44
0.0000000001
 12
-0.1989498176
 22
0.0383776254
 32
0.0
 13
-0.1731151601
 23
-0.1025527743
 33
0.0
 40
0.0
 40
0.0
 40
0.0
 40
0.0
 40
0.4083428026
 40
1.0
 40
1.0
 40
1.0
 40
1.0
 10
-24.6111386503
 20
-22.0087875071
 30
0.0
 10
-24.638218559
 20
-22.0035637648
 30
0.0
 10
-24.7072260186
 20
-22.0030425847
 30
0.0
 10
-24.7707865776
 20
-22.0298138364
 30
0.0
 10
-24.8049281877
 20
-22.0500391987
 30
0.0
 11
-24.6111386503
 21
-22.0087875071
 31
0.0
 11
-24.6936677208
 21
-22.0076889695
 31
0.0
 11
-24.8049281877
 21
-22.0500391987
 31
0.0
  0
SPLINE
  5
467
100
AcDbEntity
  8
DRAFT
100
AcDbSpline
 62
7
  6
CONTINUOUS
 70
0
 71
3
 72
9
 73
5
 74
3
 42
0.0000001
 43
0.0000001
 44
0.0000000001
 12
-0.5373049011
 22
-0.5824958754
 32
0.0
 13
-0.3188082375
 23
-0.7253129778
 33
0.0
 40
0.0
 40
0.0
 40
0.0
 40
0.0
 40
0.4234297506
 40
1.0
 40
1.0
 40
1.0
 40
1.0
 10
-35.7406162617
 20
-26.6798372746
 30
0.0
 10
-35.8164532218
 20
-26.7620526357
 30
0.0
 10
-35.9810539222
 20
-26.9696053501
 30
0.0
 10
-36.1088025407
 20
-27.2020710291
 30
0.0
 10
-36.1700743223
 20
-27.3414689906
 30
0.0
 11
-35.7406162617
 21
-26.6798372746
 31
0.0
 11
-35.9492395776
 21
-26.9422873379
 31
0.0
 11
-36.1700743223
 21
-27.3414689906
 31
0.0
  0
SPLINE
  5
468
100
AcDbEntity
  8
ASSI
100
AcDbSpline
 62
7
  6
CONTINUOUS
 70
0
 71
3
 72
18
 73
14
 74
12
 42
0.0000001
 43
0.0000001
 44
0.0000000001
 12
1.6973220352
 22
1.0054083213
 32
0.0
 13
-1.9274607127
 23
0.3806068427
 33
0.0
 40
0.0
 40
0.0
 40
0.0
 40
0.0
 40
0.0770958469
 40
0.1559720221
 40
0.2394876882
 40
0.3271439021
 40
0.4203130618
 40
0.5175041445
 40
0.6165062103
 40
0.7168513787
 40
0.8145451894
 40
0.9098441396
 40
1.0
 40
1.0
 40
1.0
 40
1.0
 10
10.9002612691
 20
-44.5161781375
 30
0.0
 10
10.9438800957
 20
-44.4903405355
 30
0.0
 10
11.0243530628
 20
-44.4251001873
 30
0.0
 10
11.113781682
 20
-44.293677013
 30
0.0
 10
11.1665691025
 20
-44.1367124734
 30
0.0
 10
11.1807044046
 20
-43.9626732603
 30
0.0
 10
11.1560724498
 20
-43.7809828023
 30
0.0
 10
11.0942566575
 20
-43.6006628719
 30
0.0
 10
10.9986025291
 20
-43.4304789793
 30
0.0
 10
10.8743306447
 20
-43.2794875041
 30
0.0
 10
10.7270586163
 20
-43.1544830812
 30
0.0
 10
10.5648717997
 20
-43.0623176724
 30
0.0
 10
10.4482012707
 20
-43.0247053487
 30
0.0
 10
10.3902773111
 20
-43.0132673695
 30
0.0
 11
10.9002612691
 21
-44.5161781375
 31
0.0
 11
11.0180030453
 21
-44.4208723323
 31
0.0
 11
11.10583101
 21
-44.293197588
 31
0.0
 11
11.1592717108
 21
-44.1380626741
 31
0.0
 11
11.1743726717
 21
-43.9665096379
 31
0.0
 11
11.1507274339
 21
-43.7849956958
 31
0.0
 11
11.0893983278
 21
-43.6041631923
 31
0.0
 11
10.99432568
 21
-43.4344743569
 31
0.0
 11
10.868966256
 21
-43.2823178385
 31
0.0
 11
10.722357874
 21
-43.1584396215
 31
0.0
 11
10.5591684258
 21
-43.0666518577
 31
0.0
 11
10.3902773111
 21
-43.0132673695
 31
0.0
  0
SPLINE
  5
469
100
AcDbEntity
  8
DRAFT
100
AcDbSpline
 62
7
  6
CONTINUOUS
 70
0
 71
3
 72
10
 73
6
 74
4
 42
0.0000001
 43
0.0000001
 44
0.0000000001
 12
-0.6905335947
 22
-0.6502870455
 32
0.0
 13
-0.3815561007
 23
-0.8680691368
 33
0.0
 40
0.0
 40
0.0
 40
0.0
 40
0.0
 40
0.0472773508
 40
0.5182481824
 40
1.0
 40
1.0
 40
1.0
 40
1.0
 10
7.670338224
 20
15.6239130309
 30
0.0
 10
7.6594560243
 20
15.6136650813
 30
0.0
 10
7.541314073
 20
15.5001149027
 30
0.0
 10
7.3381314265
 20
15.2558930176
 30
0.0
 10
7.1924676485
 20
14.9908269102
 30
0.0
 10
7.1311958669
 20
14.8514289487
 30
0.0
 11
7.670338224
 21
15.6239130309
 31
0.0
 11
7.6380078317
 21
15.5928394496
 31
0.0
 11
7.3520306116
 21
15.2506106014
 31
0.0
 11
7.1311958669
 21
14.8514289487
 31
0.0
  0
SPLINE
  5
46A
100
AcDbEntity
  8
ASSI
100
AcDbSpline
 62
7
  6
CONTINUOUS
 70
0
 71
3
 72
19
 73
15
 74
13
 42
0.0000001
 43
0.0000001
 44
0.0000000001
 12
1.6966385412
 22
1.0051911691
 32
0.0
 13
-1.9280709658
 23
0.3807273466
 33
0.0
 40
0.0
 40
0.0
 40
0.0
 40
0.0
 40
0.0651923096
 40
0.1378059598
 40
0.2136161337
 40
0.2929147989
 40
0.3772591952
 40
0.464792454
 40
0.5558938964
 40
0.647790106
 40
0.7398972706
 40
0.8301054364
 40
0.91689193
 40
1.0
 40
1.0
 40
1.0
 40
1.0
 10
10.9755438817
 20
-44.4715794626
 30
0.0
 10
11.0124131434
 20
-44.4497358846
 30
0.0
 10
11.0846031127
 20
-44.3939558423
 30
0.0
 10
11.1706211649
 20
-44.2814658773
 30
0.0
 10
11.228667235
 20
-44.1424027062
 30
0.0
 10
11.2542663454
 20
-43.9863636367
 30
0.0
 10
11.2466270915
 20
-43.8209055466
 30
0.0
 10
11.2063909013
 20
-43.6524416222
 30
0.0
 10
11.135667805
 20
-43.4890061256
 30
0.0
 10
11.0373727751
 20
-43.3369966928
 30
0.0
 10
10.9161207119
 20
-43.2033646776
 30
0.0
 10
10.7769906786
 20
-43.0936954894
 30
0.0
 10
10.6261057199
 20
-43.012666727
 30
0.0
 10
10.5190202548
 20
-42.9792079072
 30
0.0
 10
10.4656075025
 20
-42.9686607355
 30
0.0
 11
10.9755438817
 21
-44.4715794626
 31
0.0
 11
11.0769782545
 21
-44.3932025835
 31
0.0
 11
11.1640842189
 21
-44.2801625542
 31
0.0
 11
11.2222945481
 21
-44.1430146846
 31
0.0
 11
11.2484501402
 21
-43.989379402
 31
0.0
 11
11.2416502056
 21
-43.8237567455
 31
0.0
 11
11.2022863642
 21
-43.656291655
 31
0.0
 11
11.1315272792
 21
-43.4918254682
 31
0.0
 11
11.0335523571
 21
-43.3401065157
 31
0.0
 11
10.9117988297
 21
-43.2061523094
 31
0.0
 11
10.7723213925
 21
-43.0967152745
 31
0.0
 11
10.621746022
 21
-43.0166007726
 31
0.0
 11
10.4656075025
 21
-42.9686607355
 31
0.0
  0
SPLINE
  5
46B
100
AcDbEntity
  8
RACCORDO
100
AcDbSpline
 62
7
  6
CONTINUOUS
 70
0
 71
3
 72
9
 73
5
 74
3
 42
0.0000001
 43
0.0000001
 44
0.0000000001
 12
-0.1989498176
 22
0.0383776254
 32
0.0
 13
-0.1731151601
 23
-0.1025527743
 33
0.0
 40
0.0
 40
0.0
 40
0.0
 40
0.0
 40
0.4083428026
 40
1.0
 40
1.0
 40
1.0
 40
1.0
 10
-2.9605035557
 20
-26.2840392987
 30
0.0
 10
-2.9875834644
 20
-26.2788155563
 30
0.0
 10
-3.056590924
 20
-26.2782943763
 30
0.0
 10
-3.120151483
 20
-26.305065628
 30
0.0
 10
-3.1542930931
 20
-26.3252909903
 30
0.0
 11
-2.9605035557
 21
-26.2840392987
 31
0.0
 11
-3.0430326261
 21
-26.2829407611
 31
0.0
 11
-3.1542930931
 21
-26.3252909903
 31
0.0
  0
SPLINE
  5
46C
100
AcDbEntity
  8
ASSI
100
AcDbSpline
 62
7
  6
CONTINUOUS
 70
0
 71
3
 72
10
 73
6
 74
4
 42
0.0000001
 43
0.0000001
 44
0.0000000001
 12
-0.1517026853
 22
-0.0900431091
 32
0.0
 13
-0.1721445812
 23
0.0339926023
 33
0.0
 40
0.0
 40
0.0
 40
0.0
 40
0.0
 40
0.0876288265
 40
0.5309182674
 40
1.0
 40
1.0
 40
1.0
 40
1.0
 10
10.5490152719
 20
-44.0689690883
 30
0.0
 10
10.5445840958
 20
-44.0715992123
 30
0.0
 10
10.5171543626
 20
-44.0865348811
 30
0.0
 10
10.4596820251
 20
-44.1026462712
 30
0.0
 10
10.4054349341
 20
-44.0994636633
 30
0.0
 10
10.3785183079
 20
-44.0941485604
 30
0.0
 11
10.5490152719
 21
-44.0689690883
 31
0.0
 11
10.5354454643
 21
-44.0763556658
 31
0.0
 11
10.4607368577
 21
-44.0980093651
 31
0.0
 11
10.3785183079
 21
-44.0941485604
 31
0.0
  0
SPLINE
  5
46D
100
AcDbEntity
  8
RACCORDO
100
AcDbSpline
 62
253
  6
CONTINUOUS
 70
0
 71
3
 72
15
 73
11
 74
9
 42
0.0000001
 43
0.0000001
 44
0.0000000001
 12
-1.488352773
 22
-0.9426148548
 32
0.0
 13
-1.727343156
 23
0.3410861771
 33
0.0
 40
0.0
 40
0.0
 40
0.0
 40
0.0
 40
0.0715344311
 40
0.2094301708
 40
0.349552026
 40
0.4887526644
 40
0.624064775
 40
0.7546406099
 40
0.8801126413
 40
1.0
 40
1.0
 40
1.0
 40
1.0
 10
-32.8053683473
 20
-32.4256880717
 30
0.0
 10
-32.840857837
 20
-32.4481645441
 30
0.0
 10
-32.9468259624
 20
-32.5107079243
 30
0.0
 10
-33.132722858
 20
-32.5986218724
 30
0.0
 10
-33.3653970647
 20
-32.6766915155
 30
0.0
 10
-33.6038758514
 20
-32.727558995
 30
0.0
 10
-33.840730403
 20
-32.7523769246
 30
0.0
 10
-34.0707378312
 20
-32.7541920409
 30
0.0
 10
-34.2909202133
 20
-32.7366423695
 30
0.0
 10
-34.4332713689
 20
-32.7138897444
 30
0.0
 10
-34.5023002384
 20
-32.7002591041
 30
0.0
 11
-32.8053683473
 21
-32.4256880717
 31
0.0
 11
-32.9138794259
 21
-32.4897384533
 31
0.0
 11
-33.1333080475
 21
-32.5936583188
 31
0.0
 11
-33.3671391068
 21
-32.6723343344
 31
0.0
 11
-33.6067860346
 21
-32.7237010006
 31
0.0
 11
-33.8437073144
 21
-32.7487676583
 31
0.0
 11
-34.0736028357
 21
-32.7507983045
 31
0.0
 11
-34.293837039
 21
-32.7334269673
 31
0.0
 11
-34.5023002384
 21
-32.7002591041
 31
0.0
  0
SPLINE
  5
46E
100
AcDbEntity
  8
RACCORDO
100
AcDbSpline
 62
253
  6
CONTINUOUS
 70
0
 71
3
 72
15
 73
11
 74
9
 42
0.0000001
 43
0.0000001
 44
0.0000000001
 12
0.2025421677
 22
-3.5019574369
 32
0.0
 13
3.456297765
 23
-0.6791647156
 33
0.0
 40
0.0
 40
0.0
 40
0.0
 40
0.0
 40
0.1818008532
 40
0.3500801714
 40
0.5031625385
 40
0.6401645543
 40
0.7615283896
 40
0.8694659071
 40
0.9684268154
 40
1.0
 40
1.0
 40
1.0
 40
1.0
 10
-40.7151260744
 20
-37.5899480802
 30
0.0
 10
-40.7028519614
 20
-37.8021676969
 30
0.0
 10
-40.6629671693
 20
-38.2101683948
 30
0.0
 10
-40.5510382283
 20
-38.7887435542
 30
0.0
 10
-40.3912615646
 20
-39.3017189426
 30
0.0
 10
-40.1864155905
 20
-39.7390598977
 30
0.0
 10
-39.9394141351
 20
-40.0922495121
 30
0.0
 10
-39.6527404754
 20
-40.3534336896
 30
0.0
 10
-39.3989644477
 20
-40.4789905271
 30
0.0
 10
-39.2501207114
 20
-40.5161821734
 30
0.0
 10
-39.213745269
 20
-40.523329971
 30
0.0
 11
-40.7151260744
 21
-37.5899480802
 31
0.0
 11
-40.6511810935
 21
-38.2244568786
 31
0.0
 11
-40.5365432885
 21
-38.8035100897
 31
0.0
 11
-40.3735963929
 21
-39.3151739751
 31
0.0
 11
-40.1658118102
 21
-39.7485096719
 31
0.0
 11
-39.9175779904
 21
-40.0943688174
 31
0.0
 11
-39.6341531811
 21
-40.3454200471
 31
0.0
 11
-39.3215433547
 21
-40.4963456108
 31
0.0
 11
-39.213745269
 21
-40.523329971
 31
0.0
  0
SPLINE
  5
46F
100
AcDbEntity
  8
RACCORDO
100
AcDbSpline
 62
253
  6
CONTINUOUS
 70
0
 71
3
 72
15
 73
11
 74
9
 42
0.0000001
 43
0.0000001
 44
0.0000000001
 12
-1.5451504264
 22
-0.9786749242
 32
0.0
 13
-1.7934496891
 23
0.3541389464
 33
0.0
 40
0.0
 40
0.0
 40
0.0
 40
0.0
 40
0.0731169621
 40
0.2148823721
 40
0.357347368
 40
0.4973180785
 40
0.6319829916
 40
0.7607408557
 40
0.8834882842
 40
1.0
 40
1.0
 40
1.0
 40
1.0
 10
10.2825293021
 20
9.631990723
 30
0.0
 10
10.2448704004
 20
9.6081381438
 30
0.0
 10
10.1321799931
 20
9.5412197995
 30
0.0
 10
9.9357494094
 20
9.4461765591
 30
0.0
 10
9.6913204394
 20
9.360394247
 30
0.0
 10
9.4431230683
 20
9.3033199917
 30
0.0
 10
9.1986384383
 20
9.2739226287
 30
0.0
 10
8.9630100075
 20
9.2691137536
 30
0.0
 10
8.7390473855
 20
9.2851064224
 30
0.0
 10
8.5948297036
 20
9.307709458
 30
0.0
 10
8.52517707
 20
9.3214632368
 30
0.0
 11
10.2825293021
 21
9.631990723
 31
0.0
 11
10.1675526753
 21
9.5637289459
 31
0.0
 11
9.9342588366
 21
9.4508701301
 31
0.0
 11
9.6885290586
 21
9.3645885307
 31
0.0
 11
9.4391799867
 21
9.3071567501
 31
0.0
 11
9.194776276
 21
9.277651772
 31
0.0
 11
8.9594481927
 21
9.2727242903
 31
0.0
 11
8.7356176787
 21
9.2885899603
 31
0.0
 11
8.52517707
 21
9.3214632368
 31
0.0
  0
SPLINE
  5
470
100
AcDbEntity
  8
ASSI
100
AcDbSpline
 62
7
  6
CONTINUOUS
 70
0
 71
3
 72
9
 73
5
 74
3
 42
0.0000001
 43
0.0000001
 44
0.0000000001
 12
-0.0503242946
 22
0.9259421542
 32
0.0
 13
-0.0487834167
 23
0.9260246245
 33
0.0
 40
0.0
 40
0.0
 40
0.0
 40
0.0
 40
0.5323079125
 40
1.0
 40
1.0
 40
1.0
 40
1.0
 10
9.9478997283
 20
-45.3926352481
 30
0.0
 10
9.9389703883
 20
-45.2283398031
 30
0.0
 10
9.922332557
 20
-44.9196849609
 30
0.0
 10
9.9059515103
 20
-44.6110163912
 30
0.0
 10
9.8983463043
 20
-44.4666515946
 30
0.0
 11
9.9478997283
 21
-45.3926352481
 31
0.0
 11
9.9213302502
 21
-44.8997370839
 31
0.0
 11
9.8983463043
 21
-44.4666515946
 31
0.0
  0
SPLINE
  5
471
100
AcDbEntity
  8
RACCORDO
100
AcDbSpline
 62
253
  6
CONTINUOUS
 70
0
 71
3
 72
12
 73
8
 74
6
 42
0.0000001
 43
0.0000001
 44
0.0000000001
 12
-1.4147863644
 22
-42.8533590353
 32
0.0
 13
1.4748054995
 23
-42.8513354494
 33
0.0
 40
0.0
 40
0.0
 40
0.0
 40
0.0
 40
0.1999184118
 40
0.3997751352
 40
0.6012573559
 40
0.8027512039
 40
1.0
 40
1.0
 40
1.0
 40
1.0
 10
8.6350207782
 20
8.3411569356
 30
0.0
 10
8.5407401638
 20
5.4854317755
 30
0.0
 10
8.3884725404
 20
-0.2264047089
 30
0.0
 10
8.2709094294
 20
-8.8191459427
 30
0.0
 10
8.2678356757
 20
-17.4352439736
 30
0.0
 10
8.3824519628
 20
-26.013295699
 30
0.0
 10
8.5380529084
 20
-31.7103151723
 30
0.0
 10
8.6350207782
 20
-34.5277732825
 30
0.0
 11
8.6350207782
 21
8.3411569356
 31
0.0
 11
8.4069797827
 21
-0.2276523472
 31
0.0
 11
8.2901795384
 21
-8.7960544678
 31
0.0
 11
8.287585906
 21
-17.4349482172
 31
0.0
 11
8.4035524967
 21
-26.0735625466
 31
0.0
 11
8.6350207782
 21
-34.5277732825
 31
0.0
  0
LINE
  5
472
100
AcDbEntity
  8
ASSI
100
AcDbLine
 62
7
  6
CONTINUOUS
 10
9.8637912704
 20
-43.9330029948
 11
9.8350024758
 21
-43.3716522291
  0
SPLINE
  5
473
100
AcDbEntity
  8
RACCORDO
100
AcDbSpline
 62
253
  6
CONTINUOUS
 70
0
 71
3
 72
12
 73
8
 74
6
 42
0.0000001
 43
0.0000001
 44
0.0000000001
 12
1.0818318411
 22
0.6100905744
 32
0.0
 13
0.0058192348
 23
1.2380194486
 33
0.0
 40
0.0
 40
0.0
 40
0.0
 40
0.0
 40
0.0598740342
 40
0.2820142227
 40
0.5108186223
 40
0.7497536093
 40
1.0
 40
1.0
 40
1.0
 40
1.0
 10
18.6208674636
 20
-51.3087276829
 30
0.0
 10
18.6424586758
 20
-51.2965514883
 30
0.0
 10
18.7420016066
 20
-51.2353981587
 30
0.0
 10
18.9012502938
 20
-51.0932629941
 30
0.0
 10
19.0577634243
 20
-50.8516497576
 30
0.0
 10
19.1542126814
 20
-50.5687075954
 30
0.0
 10
19.1754845841
 20
-50.3661448163
 30
0.0
 10
19.1759699983
 20
-50.2628748501
 30
0.0
 11
18.6208674636
 21
-51.3087276829
 31
0.0
 11
18.6842023374
 21
-51.269804172
 31
0.0
 11
18.889884222
 21
-51.0872411304
 31
0.0
 11
19.0451079339
 21
-50.8502895872
 31
0.0
 11
19.1420907191
 21
-50.5708301851
 31
0.0
 11
19.1759699983
 21
-50.2628748501
 31
0.0
  0
SPLINE
  5
474
100
AcDbEntity
  8
RACCORDO
100
AcDbSpline
 62
253
  6
CONTINUOUS
 70
0
 71
3
 72
17
 73
13
 74
11
 42
0.0000001
 43
0.0000001
 44
0.0000000001
 12
-5.4081161278
 22
-3.3391798824
 32
0.0
 13
-0.343217439
 23
-6.3466561376
 33
0.0
 40
0.0
 40
0.0
 40
0.0
 40
0.0
 40
0.0707712186
 40
0.150358407
 40
0.2386927536
 40
0.3350414667
 40
0.4382557984
 40
0.5468682788
 40
0.659193857
 40
0.7734175518
 40
0.8876291484
 40
1.0
 40
1.0
 40
1.0
 40
1.0
 10
-38.2769259748
 20
37.5176211905
 30
0.0
 10
-38.4045056311
 20
37.4388485807
 30
0.0
 10
-38.658147736
 20
37.2428107609
 30
0.0
 10
-39.0067405938
 20
36.8745213236
 30
0.0
 10
-39.33932644
 20
36.4226017798
 30
0.0
 10
-39.64920434
 20
35.8962009222
 30
0.0
 10
-39.9301561758
 20
35.3060044276
 30
0.0
 10
-40.1763251886
 20
34.6641963801
 30
0.0
 10
-40.3825640072
 20
33.9841173685
 30
0.0
 10
-40.5445274231
 20
33.279996408
 30
0.0
 10
-40.6588384455
 20
32.5665318636
 30
0.0
 10
-40.7022704152
 20
32.0879827462
 30
0.0
 10
-40.7151262939
 20
31.8502563612
 30
0.0
 11
-38.2769259748
 21
37.5176211905
 31
0.0
 11
-38.6357312997
 21
37.246339098
 31
0.0
 11
-38.9863495192
 21
36.8817137182
 31
0.0
 11
-39.3215440283
 21
36.4313058371
 31
0.0
 11
-39.6341538121
 21
35.9047212727
 31
0.0
 11
-39.9175785324
 21
35.3130823184
 31
0.0
 11
-40.165812292
 21
34.6689239126
 31
0.0
 11
-40.3735967764
 21
33.985896373
 31
0.0
 11
-40.5365436185
 21
33.2784212185
 31
0.0
 11
-40.6511813158
 21
32.5616093043
 31
0.0
 11
-40.7151262939
 21
31.8502563612
 31
0.0
  0
SPLINE
  5
475
100
AcDbEntity
  8
RACCORDO
100
AcDbSpline
 62
7
  6
CONTINUOUS
 70
0
 71
3
 72
10
 73
6
 74
4
 42
0.0000001
 43
0.0000001
 44
0.0000000001
 12
0.0081134513
 22
0.0058388428
 32
0.0
 13
0.0085675
 23
0.0051495748
 33
0.0
 40
0.0
 40
0.0
 40
0.0
 40
0.0
 40
0.3393223589
 40
0.6724827358
 40
1.0
 40
1.0
 40
1.0
 40
1.0
 10
-34.8444193969
 20
-25.6022431047
 30
0.0
 10
-34.8435017051
 20
-25.6015826881
 30
0.0
 10
-34.8416659266
 20
-25.6002973337
 30
0.0
 10
-34.8388854594
 20
-25.5984605534
 30
0.0
 10
-34.8370151301
 20
-25.5972988665
 30
0.0
 10
-34.8360797953
 20
-25.596736675
 30
0.0
 11
-34.8444193969
 21
-25.6022431047
 31
0.0
 11
-34.8416404392
 21
-25.6002983246
 31
0.0
 11
-34.8388612917
 21
-25.5984633688
 31
0.0
 11
-34.8360797953
 21
-25.596736675
 31
0.0
  0
SPLINE
  5
476
100
AcDbEntity
  8
RACCORDO
100
AcDbSpline
 62
253
  6
CONTINUOUS
 70
0
 71
3
 72
12
 73
8
 74
6
 42
0.0000001
 43
0.0000001
 44
0.0000000001
 12
-1.5299786337
 22
42.3383946148
 32
0.0
 13
1.4687659777
 23
42.3405640642
 33
0.0
 40
0.0
 40
0.0
 40
0.0
 40
0.0
 40
0.1935485835
 40
0.3902719389
 40
0.5914229552
 40
0.7963564467
 40
1.0
 40
1.0
 40
1.0
 40
1.0
 10
-34.8444193969
 20
-25.6022431047
 30
0.0
 10
-34.943127796
 20
-22.870731003
 30
0.0
 10
-35.1019600862
 20
-17.3613699418
 30
0.0
 10
-35.2230305395
 20
-9.0098991947
 30
0.0
 10
-35.2252303171
 20
-0.4967465228
 30
0.0
 10
-35.1053383504
 20
8.1132784459
 30
0.0
 10
-34.9445548238
 20
13.8811815591
 30
0.0
 10
-34.8448532496
 20
16.7553091974
 30
0.0
 11
-34.8444193969
 21
-25.6022431047
 31
0.0
 11
-35.0812529064
 21
-17.4057789111
 31
0.0
 11
-35.2025675131
 21
-9.0722743138
 31
0.0
 11
-35.2052607676
 21
-0.5503047599
 31
0.0
 11
-35.0848464548
 21
8.1310786194
 31
0.0
 11
-34.8448532496
 21
16.7553091974
 31
0.0
  0
SPLINE
  5
477
100
AcDbEntity
  8
RACCORDO
100
AcDbSpline
 62
253
  6
CONTINUOUS
 70
0
 71
3
 72
17
 73
13
 74
11
 42
0.0000001
 43
0.0000001
 44
0.0000000001
 12
0.3516001758
 22
6.3640091431
 32
0.0
 13
5.4645048548
 23
3.2807654213
 33
0.0
 40
0.0
 40
0.0
 40
0.0
 40
0.0
 40
0.1120345224
 40
0.2259138477
 40
0.3398376914
 40
0.4519232821
 40
0.5603819701
 40
0.6635540977
 40
0.7599966065
 40
0.8485838689
 40
0.9286033546
 40
1.0
 40
1.0
 40
1.0
 40
1.0
 10
15.3866878019
 20
20.7720879684
 30
0.0
 10
15.3998182545
 20
21.0097508767
 30
0.0
 10
15.4441824396
 20
21.4881575675
 30
0.0
 10
15.5609545351
 20
22.20120879
 30
0.0
 10
15.7264079146
 20
22.9047143086
 30
0.0
 10
15.93709466
 20
23.5839908941
 30
0.0
 10
16.1885803673
 20
24.2248307647
 30
0.0
 10
16.4756127018
 20
24.8139152719
 30
0.0
 10
16.7922176002
 20
25.3390829134
 30
0.0
 10
17.1320490145
 20
25.7896603133
 30
0.0
 10
17.4882668056
 20
26.156505324
 30
0.0
 10
17.7469869077
 20
26.351076848
 30
0.0
 10
17.8770360129
 20
26.4291553965
 30
0.0
 11
15.3866878019
 21
20.7720879684
 31
0.0
 11
15.452000504
 21
21.483170841
 31
0.0
 11
15.5690900084
 21
22.199498608
 31
0.0
 11
15.735521962
 21
22.9062855736
 31
0.0
 11
15.9477504926
 21
23.5884355677
 31
0.0
 11
16.2012934612
 21
24.2315455883
 31
0.0
 11
16.490780062
 21
24.8219875308
 31
0.0
 11
16.8100758802
 21
25.3472518346
 31
0.0
 11
17.1524396246
 21
25.7962440396
 31
0.0
 11
17.5105565667
 21
26.159388681
 31
0.0
 11
17.8770360129
 21
26.4291553965
 31
0.0
  0
SPLINE
  5
478
100
AcDbEntity
  8
RACCORDO
100
AcDbSpline
 62
253
  6
CONTINUOUS
 70
0
 71
3
 72
12
 73
8
 74
6
 42
0.0000001
 43
0.0000001
 44
0.0000000001
 12
-1.565946498
 22
42.8491017506
 32
0.0
 13
1.5034770521
 23
42.8513391392
 33
0.0
 40
0.0
 40
0.0
 40
0.0
 40
0.0
 40
0.1934537044
 40
0.3901424606
 40
0.5912300109
 40
0.7961517721
 40
1.0
 40
1.0
 40
1.0
 40
1.0
 10
-35.1751058789
 20
-25.8767881423
 30
0.0
 10
-35.2760852626
 20
-23.1136823217
 30
0.0
 10
-35.4385897258
 20
-17.539678873
 30
0.0
 10
-35.5624270539
 20
-9.0901138692
 30
0.0
 10
-35.5646494864
 20
-0.4757062223
 30
0.0
 10
-35.4419200272
 20
8.2401440743
 30
0.0
 10
-35.2772662565
 20
14.0804188931
 30
0.0
 10
-35.1751058789
 20
16.9921420758
 30
0.0
 11
-35.1751058789
 21
-25.8767881423
 31
0.0
 11
-35.4173792053
 21
-17.5854758733
 31
0.0
 11
-35.5414931906
 21
-9.1528264465
 31
0.0
 11
-35.5442254627
 21
-0.5306539303
 31
0.0
 11
-35.4209977186
 21
8.25505704
 31
0.0
 11
-35.1751058789
 21
16.9921420758
 31
0.0
  0
SPLINE
  5
479
100
AcDbEntity
  8
RACCORDO
100
AcDbSpline
 62
253
  6
CONTINUOUS
 70
0
 71
3
 72
15
 73
11
 74
9
 42
0.0000001
 43
0.0000001
 44
0.0000000001
 12
-3.477479827
 22
0.6872902135
 32
0.0
 13
-0.2081613361
 23
3.5245795431
 33
0.0
 40
0.0
 40
0.0
 40
0.0
 40
0.0
 40
0.0317062523
 40
0.1318940744
 40
0.2406447698
 40
0.3623436057
 40
0.4992287716
 40
0.6518055609
 40
0.8192635393
 40
1.0
 40
1.0
 40
1.0
 40
1.0
 10
16.9190352759
 20
-51.6076218954
 30
0.0
 10
16.8822826584
 20
-51.6003580965
 30
0.0
 10
16.7309253739
 20
-51.5626089997
 30
0.0
 10
16.4725769889
 20
-51.4366090971
 30
0.0
 10
16.1796322658
 20
-51.1744398388
 30
0.0
 10
15.9271086003
 20
-50.8201765601
 30
0.0
 10
15.7176970783
 20
-50.3818350938
 30
0.0
 10
15.5543886871
 20
-49.868033117
 30
0.0
 10
15.4400023697
 20
-49.2888516964
 30
0.0
 10
15.3992288113
 20
-48.8804564854
 30
0.0
 10
15.3866880303
 20
-48.6681164748
 30
0.0
 11
16.9190352759
 21
-51.6076218954
 31
0.0
 11
16.810076581
 21
-51.5803996187
 31
0.0
 11
16.4907807191
 21
-51.4281537941
 31
0.0
 11
16.2012940274
 21
-51.1759055523
 31
0.0
 11
15.9477509932
 21
-50.8289980206
 31
0.0
 11
15.7355223604
 21
-50.3947847775
 31
0.0
 11
15.5690903456
 21
-49.8824327016
 31
0.0
 11
15.4520007352
 21
-49.3028953437
 31
0.0
 11
15.3866880303
 21
-48.6681164748
 31
0.0
  0
SPLINE
  5
47A
100
AcDbEntity
  8
DRAFT
100
AcDbSpline
 62
7
  6
CONTINUOUS
 70
0
 71
3
 72
10
 73
6
 74
4
 42
0.0000001
 43
0.0000001
 44
0.0000000001
 12
0.7887938457
 22
-0.0609085332
 32
0.0
 13
0.7655289359
 23
0.1995503182
 33
0.0
 40
0.0
 40
0.0
 40
0.0
 40
0.0
 40
0.193672007
 40
0.7662947148
 40
1.0
 40
1.0
 40
1.0
 40
1.0
 10
10.0187196031
 20
10.0186748345
 30
0.0
 10
10.0696420321
 20
10.0147427419
 30
0.0
 10
10.2716049931
 20
10.0051818463
 30
0.0
 10
10.5356637299
 20
10.0249200347
 30
0.0
 10
10.7436259917
 20
10.0700843743
 30
0.0
 10
10.8032620445
 20
10.0856296957
 30
0.0
 11
10.0187196031
 21
10.0186748345
 31
0.0
 11
10.1717540935
 21
10.0114868025
 31
0.0
 11
10.6226585401
 21
10.0463607023
 31
0.0
 11
10.8032620445
 21
10.0856296957
 31
0.0
  0
SPLINE
  5
47B
100
AcDbEntity
  8
DRAFT
100
AcDbSpline
 62
7
  6
CONTINUOUS
 70
0
 71
3
 72
10
 73
6
 74
4
 42
0.0000001
 43
0.0000001
 44
0.0000000001
 12
0.8918878063
 22
-0.0688691708
 32
0.0
 13
0.8541869305
 23
0.2654752432
 33
0.0
 40
0.0
 40
0.0
 40
0.0
 40
0.0
 40
0.1712853187
 40
0.677718151
 40
1.0
 40
1.0
 40
1.0
 40
1.0
 10
-33.2825505862
 20
-32.1742231048
 30
0.0
 10
-33.2316281571
 20
-32.1781551974
 30
0.0
 10
-33.0296651961
 20
-32.187716093
 30
0.0
 10
-32.7310944494
 20
-32.1653981583
 30
0.0
 10
-32.4903569223
 20
-32.1074036632
 30
0.0
 10
-32.3985939412
 20
-32.0788843791
 30
0.0
 11
-33.2825505862
 21
-32.1742231048
 31
0.0
 11
-33.1295160957
 21
-32.1814111368
 31
0.0
 11
-32.6786116491
 21
-32.146537237
 31
0.0
 11
-32.3985939412
 21
-32.0788843791
 31
0.0
  0
SPLINE
  5
47C
100
AcDbEntity
  8
RACCORDO
100
AcDbSpline
 62
253
  6
CONTINUOUS
 70
0
 71
3
 72
14
 73
10
 74
8
 42
0.0000001
 43
0.0000001
 44
0.0000000001
 12
-3.7341781483
 22
-69.3747186415
 32
0.0
 13
3.9932512931
 23
-69.3602884736
 33
0.0
 40
0.0
 40
0.0
 40
0.0
 40
0.0
 40
0.1467173803
 40
0.2923105355
 40
0.4366789925
 40
0.5797258033
 40
0.7213562954
 40
0.8614780857
 40
1.0
 40
1.0
 40
1.0
 40
1.0
 10
-40.7151263241
 20
31.8502563668
 30
0.0
 10
-40.8977492692
 20
28.4574307074
 30
0.0
 10
-41.2112765647
 20
21.6949541374
 30
0.0
 10
-41.5264268178
 20
11.58671202
 30
0.0
 10
-41.6844511721
 20
1.5597738789
 30
0.0
 10
-41.6852040581
 20
-8.3766434357
 30
0.0
 10
-41.52868579
 20
-18.213491994
 30
0.0
 10
-41.215043217
 20
-27.9417255082
 30
0.0
 10
-40.8995103746
 20
-34.387308096
 30
0.0
 10
-40.7151261034
 20
-37.5899480751
 30
0.0
 11
-40.7151263241
 21
31.8502563668
 31
0.0
 11
-41.1866429143
 21
21.6679567266
 31
0.0
 11
-41.5012306255
 21
11.5577444077
 31
0.0
 11
-41.6585963255
 21
1.5289595989
 31
0.0
 11
-41.6585963255
 21
-8.4092382221
 31
0.0
 11
-41.5012306255
 21
-18.2477786598
 31
0.0
 11
-41.1866429143
 21
-27.9776759476
 31
0.0
 11
-40.7151261034
 21
-37.5899480751
 31
0.0
  0
LINE
  5
47D
100
AcDbEntity
  8
ASSI
100
AcDbLine
 62
7
  6
CONTINUOUS
 10
9.7884578669
 20
-43.9776302217
 11
9.7566343476
 21
-43.3561766537
  0
SPLINE
  5
47E
100
AcDbEntity
  8
ASSI
100
AcDbSpline
 62
7
  6
CONTINUOUS
 70
0
 71
3
 72
10
 73
6
 74
4
 42
0.0000001
 43
0.0000001
 44
0.0000000001
 12
-0.0535692854
 22
0.9860891285
 32
0.0
 13
-0.0518227503
 23
0.9861824579
 33
0.0
 40
0.0
 40
0.0
 40
0.0
 40
0.0
 40
0.3331968506
 40
0.6665302644
 40
1.0
 40
1.0
 40
1.0
 40
1.0
 10
9.8725328479
 20
-45.4372823066
 30
0.0
 10
9.8665831422
 20
-45.3277617093
 30
0.0
 10
9.8547460549
 20
-45.1086721028
 30
0.0
 10
9.8371809262
 20
-44.779960014
 30
0.0
 10
9.8255977913
 20
-44.5607668806
 30
0.0
 10
9.8198373517
 20
-44.4511462127
 30
0.0
 11
9.8725328479
 21
-45.4372823066
 31
0.0
 11
9.8547808162
 21
-45.1087152548
 31
0.0
 11
9.8372156446
 21
-44.780003106
 31
0.0
 11
9.8198373517
 21
-44.4511462127
 31
0.0
  0
SPLINE
  5
47F
100
AcDbEntity
  8
RACCORDO
100
AcDbSpline
 62
253
  6
CONTINUOUS
 70
0
 71
3
 72
14
 73
10
 74
8
 42
0.0000001
 43
0.0000001
 44
0.0000000001
 12
-3.7108242842
 22
62.5650399049
 32
0.0
 13
2.826327761
 23
62.6120653509
 33
0.0
 40
0.0
 40
0.0
 40
0.0
 40
0.0
 40
0.1536081389
 40
0.3089682651
 40
0.4659818748
 40
0.6245490759
 40
0.784567392
 40
0.945931781
 40
1.0
 40
1.0
 40
1.0
 40
1.0
 10
15.3866880581
 20
-48.6681164809
 30
0.0
 10
15.1966837874
 20
-45.4646167011
 30
0.0
 10
14.8715211699
 20
-39.0175643086
 30
0.0
 10
14.5482795596
 20
-29.2873516937
 30
0.0
 10
14.3869672255
 20
-19.4494734748
 30
0.0
 10
14.3877353976
 20
-9.5129790176
 30
0.0
 10
14.55058416
 20
0.5130850513
 30
0.0
 10
14.8025316226
 20
8.3531413409
 30
0.0
 10
14.9938475003
 20
12.8498976984
 30
0.0
 10
15.0447856698
 20
13.978338653
 30
0.0
 11
15.3866880581
 21
-48.6681164809
 31
0.0
 11
14.9007611204
 21
-39.052998844
 31
0.0
 11
14.576559244
 21
-29.321203091
 31
0.0
 11
14.4143842656
 21
-19.4817129871
 31
0.0
 11
14.4143842656
 21
-9.5435151661
 31
0.0
 11
14.576559244
 21
0.4843199765
 31
0.0
 11
14.9007611204
 21
10.5926338303
 31
0.0
 11
15.0447856698
 21
13.978338653
 31
0.0
  0
LINE
  5
480
100
AcDbEntity
  8
RACCORDO
100
AcDbLine
 62
253
  6
CONTINUOUS
 10
15.0447856698
 20
13.978338653
 11
15.0483159162
 21
14.0564411422
  0
SPLINE
  5
481
100
AcDbEntity
  8
RACCORDO
100
AcDbSpline
 62
253
  6
CONTINUOUS
 70
0
 71
3
 72
37
 73
33
 74
31
 42
0.0000001
 43
0.0000001
 44
0.0000000001
 12
-10.0604758844
 22
1.9866152428
 32
0.0
 13
10.0604901817
 23
-1.9865428378
 33
0.0
 40
0.0
 40
0.0
 40
0.0
 40
0.0
 40
0.0225227897
 40
0.0466388382
 40
0.0725847961
 40
0.1006076452
 40
0.1306547058
 40
0.1619098989
 40
0.193385191
 40
0.22477956
 40
0.2565127745
 40
0.2901556708
 40
0.3275482598
 40
0.3702421802
 40
0.4183369319
 40
0.4706124251
 40
0.5251755897
 40
0.5784009579
 40
0.6270895152
 40
0.6702249697
 40
0.7074838548
 40
0.739567675
 40
0.768278323
 40
0.7953953259
 40
0.8223998264
 40
0.8496556009
 40
0.8770340402
 40
0.9038997917
 40
0.9297041245
 40
0.9543356981
 40
0.9777821777
 40
1.0
 40
1.0
 40
1.0
 40
1.0
 10
8.4026401107
 20
9.0297423879
 30
0.0
 10
8.3271101166
 20
9.0446570936
 30
0.0
 10
8.1718728265
 20
9.0817756843
 30
0.0
 10
7.9356407277
 20
9.1584601354
 30
0.0
 10
7.6890300003
 20
9.2613680509
 30
0.0
 10
7.4338943252
 20
9.3939640838
 30
0.0
 10
7.1757731049
 20
9.5577959687
 30
0.0
 10
6.9234776317
 20
9.7506073401
 30
0.0
 10
6.6851405162
 20
9.9673033934
 30
0.0
 10
6.4643632235
 20
10.2040701953
 30
0.0
 10
6.2587088177
 20
10.4636020402
 30
0.0
 10
6.0634090475
 20
10.7560814459
 30
0.0
 10
5.8761630323
 20
11.0973820866
 30
0.0
 10
5.7033834044
 20
11.5008849655
 30
0.0
 10
5.561312144
 20
11.9700078958
 30
0.0
 10
5.4716892452
 20
12.4935286472
 30
0.0
 10
5.4542604751
 20
13.0423091109
 30
0.0
 10
5.5163105235
 20
13.5756397081
 30
0.0
 10
5.6471766429
 20
14.0557921118
 30
0.0
 10
5.8246326512
 20
14.4614176707
 30
0.0
 10
6.0261868168
 20
14.790140809
 30
0.0
 10
6.2364005906
 20
15.0522184168
 30
0.0
 10
6.4506605538
 20
15.2638013614
 30
0.0
 10
6.6731664389
 20
15.4397903249
 30
0.0
 10
6.9093228036
 20
15.5878442137
 30
0.0
 10
7.1612726824
 20
15.7091855885
 30
0.0
 10
7.4248059648
 20
15.8013285082
 30
0.0
 10
7.6920431614
 20
15.8625992475
 30
0.0
 10
7.9548589538
 20
15.8941263932
 30
0.0
 10
8.2077409801
 20
15.899271921
 30
0.0
 10
8.4477170107
 20
15.8821444149
 30
0.0
 10
8.6021213031
 20
15.8579512274
 30
0.0
 10
8.6766286976
 20
15.8432390088
 30
0.0
 11
8.4026401107
 21
9.0297423879
 31
0.0
 11
8.1779801101
 21
9.0833422036
 31
0.0
 11
7.942715348
 21
9.1595638299
 31
0.0
 11
7.6971046857
 21
9.2618781765
 31
0.0
 11
7.44203023
 21
9.3942297148
 31
0.0
 11
7.1817726579
 21
9.5591751468
 31
0.0
 11
6.9269917128
 21
9.7536383465
 31
0.0
 11
6.6880621469
 21
9.9706495491
 31
0.0
 11
6.4684100725
 21
10.206019797
 31
0.0
 11
6.2662297806
 21
10.461007518
 31
0.0
 11
6.0745814478
 21
10.7478793913
 31
0.0
 11
5.8901023892
 21
11.0840378824
 31
0.0
 11
5.7177881554
 21
11.4865177564
 31
0.0
 11
5.5750186039
 21
11.9586009742
 31
0.0
 11
5.4850233857
 21
12.4870647358
 31
0.0
 11
5.4680748823
 21
13.0463393795
 31
0.0
 11
5.5321659718
 21
13.5883760572
 31
0.0
 11
5.6643857449
 21
14.0698396856
 31
0.0
 11
5.8423671234
 21
14.474796563
 31
0.0
 11
6.0425057978
 21
14.8002653706
 31
0.0
 11
6.2485992859
 21
15.0567297782
 31
0.0
 11
6.4582211642
 21
15.263471263
 31
0.0
 11
6.6764002154
 21
15.4358814208
 31
0.0
 11
6.9110687069
 21
15.5829112241
 31
0.0
 11
7.1628981117
 21
15.7041662641
 31
0.0
 11
7.4279133523
 21
15.796862029
 31
0.0
 11
7.6964284901
 21
15.858511631
 31
0.0
 11
7.9591484116
 21
15.8901397122
 31
0.0
 11
8.2116841435
 21
15.8954008902
 31
0.0
 11
8.4515200401
 21
15.8784001112
 31
0.0
 11
8.6766286976
 21
15.8432390088
 31
0.0
  0
SPLINE
  5
482
100
AcDbEntity
  8
RACCORDO
100
AcDbSpline
 62
253
  6
CONTINUOUS
 70
0
 71
3
 72
37
 73
33
 74
31
 42
0.0000001
 43
0.0000001
 44
0.0000000001
 12
10.0397085278
 22
-1.9825124165
 32
0.0
 13
-10.0397231384
 23
1.9824384252
 33
0.0
 40
0.0
 40
0.0
 40
0.0
 40
0.0
 40
0.0224292973
 40
0.0464409683
 40
0.0722788743
 40
0.100199155
 40
0.1301586752
 40
0.1613426247
 40
0.1927532472
 40
0.2240842185
 40
0.2557530236
 40
0.2893291502
 40
0.3266634529
 40
0.369324948
 40
0.4174439667
 40
0.4698010393
 40
0.5244985847
 40
0.5778811348
 40
0.6267017655
 40
0.6699184553
 40
0.7072202245
 40
0.7393097086
 40
0.7679992446
 40
0.795073586
 40
0.8220231166
 40
0.8492256375
 40
0.8765689534
 40
0.9034405992
 40
0.9293010182
 40
0.9540340556
 40
0.9776184684
 40
1.0
 40
1.0
 40
1.0
 40
1.0
 10
8.6766286976
 20
15.8432390088
 30
0.0
 10
8.7516899001
 20
15.8284168886
 30
0.0
 10
8.9059474846
 20
15.791518646
 30
0.0
 10
9.1406688179
 20
15.7152156222
 30
0.0
 10
9.3856891758
 20
15.612712218
 30
0.0
 10
9.6392005911
 20
15.4804753833
 30
0.0
 10
9.8956833656
 20
15.31689533
 30
0.0
 10
10.146307443
 20
15.1242260084
 30
0.0
 10
10.3829211276
 20
14.9076317812
 30
0.0
 10
10.6019263509
 20
14.671025958
 30
0.0
 10
10.8057799215
 20
14.411790968
 30
0.0
 10
10.9992988427
 20
14.119780445
 30
0.0
 10
11.1848980901
 20
13.7791181466
 30
0.0
 10
11.3564244299
 20
13.3763312452
 30
0.0
 10
11.4979853503
 20
12.9078809201
 30
0.0
 10
11.5881890948
 20
12.3847853505
 30
0.0
 10
11.6074189405
 20
11.8359759953
 30
0.0
 10
11.5481058888
 20
11.3020351651
 30
0.0
 10
11.4203100857
 20
10.8208300274
 30
0.0
 10
11.2457179955
 20
10.4140062825
 30
0.0
 10
11.0465706021
 20
10.0842195346
 30
0.0
 10
10.8383037933
 20
9.8213415197
 30
0.0
 10
10.6256857858
 20
9.6092522363
 30
0.0
 10
10.4046492803
 20
9.4329899702
 30
0.0
 10
10.1698405325
 20
9.2848230522
 30
0.0
 10
9.9190767897
 20
9.1634572829
 30
0.0
 10
9.6564454925
 20
9.0713120595
 30
0.0
 10
9.3896922252
 20
9.0100292352
 30
0.0
 10
9.1268623072
 20
8.9784946532
 30
0.0
 10
8.8734911302
 20
8.97338699
 30
0.0
 10
8.6326412476
 20
8.9906308097
 30
0.0
 10
8.4775415709
 20
9.0149523851
 30
0.0
 10
8.4026401107
 20
9.0297423879
 30
0.0
 11
8.6766286976
 21
15.8432390088
 31
0.0
 11
8.899888332
 21
15.7899468901
 31
0.0
 11
9.1336179712
 21
15.7141090792
 31
0.0
 11
9.377608294
 21
15.6122091533
 31
0.0
 11
9.6310266869
 21
15.4802336957
 31
0.0
 11
9.8896338382
 21
15.3155471811
 31
0.0
 11
10.1427620344
 21
15.1212128492
 31
0.0
 11
10.3799854247
 21
14.9043011503
 31
0.0
 11
10.5978876533
 21
14.6690972429
 31
0.0
 11
10.7983063894
 21
14.414414062
 31
0.0
 11
10.9881972878
 21
14.128048777
 31
0.0
 11
11.1710461748
 21
13.7925807767
 31
0.0
 11
11.34210343
 21
13.3909077078
 31
0.0
 11
11.4843992013
 21
12.9194854807
 31
0.0
 11
11.575012588
 21
12.3914030908
 31
0.0
 11
11.5937942512
 21
11.8319667202
 31
0.0
 11
11.5324183696
 21
11.2891309941
 31
0.0
 11
11.4031861171
 21
10.8065246616
 31
0.0
 11
11.2280233052
 21
10.4004297524
 31
0.0
 11
11.0302358907
 21
10.0739357392
 31
0.0
 11
10.8260570662
 21
9.8167370997
 31
0.0
 11
10.6180546652
 21
9.6095319981
 31
0.0
 11
10.4013513665
 21
9.4368878436
 31
0.0
 11
10.1680741004
 21
9.2897759879
 31
0.0
 11
9.917492662
 21
9.168516494
 31
0.0
 11
9.6534685352
 21
9.0758317787
 31
0.0
 11
9.385479967
 21
9.0141607851
 31
0.0
 11
9.1227352873
 21
8.9825064779
 31
0.0
 11
8.869682062
 21
8.9772676197
 31
0.0
 11
8.6289362507
 21
8.9943755491
 31
0.0
 11
8.4026401107
 21
9.0297423879
 31
0.0
  0
SPLINE
  5
483
100
AcDbEntity
  8
RACCORDO
100
AcDbSpline
 62
7
  6
CONTINUOUS
 70
0
 71
3
 72
10
 73
6
 74
4
 42
0.0000001
 43
0.0000001
 44
0.0000000001
 12
0.1180474956
 22
0.0699308956
 32
0.0
 13
0.1363817887
 23
-0.0591212644
 33
0.0
 40
0.0
 40
0.0
 40
0.0
 40
0.0
 40
0.5891784074
 40
0.9454483053
 40
1.0
 40
1.0
 40
1.0
 40
1.0
 10
-8.0040353543
 20
-26.7301888891
 30
0.0
 10
-7.9808516758
 20
-26.7164549646
 30
0.0
 10
-7.9424367775
 20
-26.7002127512
 30
0.0
 10
-7.901809006
 20
-26.6706070328
 30
0.0
 10
-7.8815496092
 20
-26.676713672
 30
0.0
 10
-7.8790696567
 20
-26.6777887271
 30
0.0
 11
-8.0040353543
 21
-26.7301888891
 31
0.0
 11
-7.9329747124
 21
-26.6916490674
 31
0.0
 11
-7.8868670478
 21
-26.6754140402
 31
0.0
 11
-7.8790696567
 21
-26.6777887271
 31
0.0
  0
SPLINE
  5
484
100
AcDbEntity
  8
RACCORDO
100
AcDbSpline
 62
7
  6
CONTINUOUS
 70
0
 71
3
 72
9
 73
5
 74
3
 42
0.0000001
 43
0.0000001
 44
0.0000000001
 12
0.1731151601
 22
0.1025527743
 32
0.0
 13
0.1989498176
 23
-0.0383776254
 33
0.0
 40
0.0
 40
0.0
 40
0.0
 40
0.0
 40
0.5916571974
 40
1.0
 40
1.0
 40
1.0
 40
1.0
 10
-24.8049281877
 20
-23.6945012851
 30
0.0
 10
-24.7707865776
 20
-23.6742759228
 30
0.0
 10
-24.7072260186
 20
-23.6475046711
 30
0.0
 10
-24.638218559
 20
-23.6480258511
 30
0.0
 10
-24.6111386503
 20
-23.6532495935
 30
0.0
 11
-24.8049281877
 21
-23.6945012851
 31
0.0
 11
-24.6936677208
 21
-23.6521510559
 31
0.0
 11
-24.6111386503
 21
-23.6532495935
 31
0.0
  0
SPLINE
  5
485
100
AcDbEntity
  8
RACCORDO
100
AcDbSpline
 62
7
  6
CONTINUOUS
 70
0
 71
3
 72
9
 73
5
 74
3
 42
0.0000001
 43
0.0000001
 44
0.0000000001
 12
0.1731151601
 22
0.1025527743
 32
0.0
 13
0.1989498176
 23
-0.0383776254
 33
0.0
 40
0.0
 40
0.0
 40
0.0
 40
0.0
 40
0.5916571974
 40
1.0
 40
1.0
 40
1.0
 40
1.0
 10
-3.1542930931
 20
-27.9697530767
 30
0.0
 10
-3.120151483
 20
-27.9495277143
 30
0.0
 10
-3.056590924
 20
-27.9227564627
 30
0.0
 10
-2.9875834644
 20
-27.9232776427
 30
0.0
 10
-2.9605035557
 20
-27.9285013851
 30
0.0
 11
-3.1542930931
 21
-27.9697530767
 31
0.0
 11
-3.0430326261
 21
-27.9274028475
 31
0.0
 11
-2.9605035557
 21
-27.9285013851
 31
0.0
  0
SPLINE
  5
486
100
AcDbEntity
  8
RACCORDO
100
AcDbSpline
 62
253
  6
CONTINUOUS
 70
0
 71
3
 72
37
 73
33
 74
31
 42
0.0000001
 43
0.0000001
 44
0.0000000001
 12
-9.7878195216
 22
1.9327724589
 32
0.0
 13
9.7878326098
 23
-1.9327061773
 33
0.0
 40
0.0
 40
0.0
 40
0.0
 40
0.0
 40
0.0230759116
 40
0.0479120709
 40
0.0747542929
 40
0.1038531988
 40
0.1351354656
 40
0.1677076314
 40
0.2004793092
 40
0.2330882005
 40
0.265931381
 40
0.3005897441
 40
0.3388947333
 40
0.3823246695
 40
0.4308301057
 40
0.4829911621
 40
0.5367831545
 40
0.5886200986
 40
0.6355311325
 40
0.6767686587
 40
0.7122539229
 40
0.7427933886
 40
0.7701800109
 40
0.796155075
 40
0.8221855746
 40
0.8486783672
 40
0.8755572178
 40
0.9022280527
 40
0.9281321569
 40
0.9531119133
 40
0.9771007027
 40
1.0
 40
1.0
 40
1.0
 40
1.0
 10
-34.6246414916
 20
-33.0281287921
 30
0.0
 10
-34.6999291111
 20
-33.0132619633
 30
0.0
 10
-34.8551539879
 20
-32.9765808548
 30
0.0
 10
-35.0924846771
 20
-32.9018524271
 30
0.0
 10
-35.3422414799
 20
-32.8022344128
 30
0.0
 10
-35.6029496808
 20
-32.6744073806
 30
0.0
 10
-35.8693168236
 20
-32.5169043483
 30
0.0
 10
-36.1324781209
 20
-32.3319206535
 30
0.0
 10
-36.383968294
 20
-32.1243811802
 30
0.0
 10
-36.6198662086
 20
-31.8980002705
 30
0.0
 10
-36.8427390133
 20
-31.6502803236
 30
0.0
 10
-37.0581098511
 20
-31.3715879366
 30
0.0
 10
-37.269627052
 20
-31.0468594323
 30
0.0
 10
-37.4723088033
 20
-30.6632972098
 30
0.0
 10
-37.6507384852
 20
-30.2174339091
 30
0.0
 10
-37.782785335
 20
-29.7195269987
 30
0.0
 10
-37.8464939388
 20
-29.1967503085
 30
0.0
 10
-37.8307470284
 20
-28.6875760925
 30
0.0
 10
-37.7422769597
 20
-28.2284785788
 30
0.0
 10
-37.601032601
 20
-27.8405523461
 30
0.0
 10
-37.429189188
 20
-27.5265182729
 30
0.0
 10
-37.2430940881
 20
-27.2766491179
 30
0.0
 10
-37.0487996669
 20
-27.0754221155
 30
0.0
 10
-36.8434346857
 20
-26.9085142634
 30
0.0
 10
-36.6223253548
 20
-26.7685920803
 30
0.0
 10
-36.383508639
 20
-26.6544822205
 30
0.0
 10
-36.1309540431
 20
-26.5684890626
 30
0.0
 10
-35.8722559133
 20
-26.5121027481
 30
0.0
 10
-35.6154094331
 20
-26.484157938
 30
0.0
 10
-35.3660661552
 20
-26.481419266
 30
0.0
 10
-35.1275087046
 20
-26.4999647648
 30
0.0
 10
-34.9733415747
 20
-26.5244992648
 30
0.0
 10
-34.8986300785
 20
-26.5392518025
 30
0.0
 11
-34.6246414916
 21
-33.0281287921
 31
0.0
 11
-34.8487290114
 21
-32.9753271097
 31
0.0
 11
-35.0851264133
 21
-32.9010696714
 31
0.0
 11
-35.3339380622
 21
-32.802025881
 31
0.0
 11
-35.5946936115
 21
-32.6743969275
 31
0.0
 11
-35.8634427856
 21
-32.5157185094
 31
0.0
 11
-36.1294012879
 21
-32.3289848029
 31
0.0
 11
-36.3816622743
 21
-32.1209813197
 31
0.0
 11
-36.616454475
 21
-31.8957829687
 31
0.0
 11
-36.8356496796
 21
-31.6522228977
 31
0.0
 11
-37.0470939747
 21
-31.3786257644
 31
0.0
 11
-37.2556274159
 21
-31.0583731981
 31
0.0
 11
-37.4578871925
 21
-30.6751843863
 31
0.0
 11
-37.6372518736
 21
-30.225721643
 31
0.0
 11
-37.7698060292
 21
-29.7224848079
 31
0.0
 11
-37.8333949967
 21
-29.1895921171
 31
0.0
 11
-37.8158501454
 21
-28.6727217296
 31
0.0
 11
-37.725947941
 21
-28.2134143707
 31
0.0
 11
-37.5842731019
 21
-27.8271576116
 31
0.0
 11
-37.4138252576
 21
-27.5168594577
 31
0.0
 11
-37.2316036412
 21
-27.2726681862
 31
0.0
 11
-37.0417223381
 21
-27.0761979553
 31
0.0
 11
-36.8405938341
 21
-26.9127802511
 31
0.0
 11
-36.6211641557
 21
-26.7738716546
 31
0.0
 11
-36.3827291354
 21
-26.6598076533
 31
0.0
 11
-36.1289390927
 21
-26.5731855713
 31
0.0
 11
-35.8690037759
 21
-26.5162852938
 31
0.0
 11
-35.6121052448
 21
-26.4880942231
 31
0.0
 11
-35.3629041492
 21
-26.4851373522
 31
0.0
 11
-35.1242777509
 21
-26.503500814
 31
0.0
 11
-34.8986300785
 21
-26.5392518025
 31
0.0
  0
SPLINE
  5
487
100
AcDbEntity
  8
RACCORDO
100
AcDbSpline
 62
253
  6
CONTINUOUS
 70
0
 71
3
 72
37
 73
33
 74
31
 42
0.0000001
 43
0.0000001
 44
0.0000000001
 12
9.7661649266
 22
-1.9284963753
 32
0.0
 13
-9.7661781954
 23
1.9284291789
 33
0.0
 40
0.0
 40
0.0
 40
0.0
 40
0.0
 40
0.0232555222
 40
0.0482590688
 40
0.0752514674
 40
0.1044786229
 40
0.1358649847
 40
0.1685262461
 40
0.2013926364
 40
0.2341151438
 40
0.2670990213
 40
0.3019350869
 40
0.3404561432
 40
0.3841353437
 40
0.4328892161
 40
0.4852652272
 40
0.5391813601
 40
0.5910060307
 40
0.6377797884
 40
0.6787994596
 40
0.714023732
 40
0.7443060836
 40
0.7714543375
 40
0.7972142115
 40
0.8230493596
 40
0.849368629
 40
0.8760984754
 40
0.9026380262
 40
0.9284234774
 40
0.9532959463
 40
0.9771877869
 40
1.0
 40
1.0
 40
1.0
 40
1.0
 10
-34.8986300785
 20
-26.5392518025
 30
0.0
 10
-34.8229243236
 20
-26.5542011993
 30
0.0
 10
-34.6669361501
 20
-26.5911517181
 30
0.0
 10
-34.428675899
 20
-26.6666146039
 30
0.0
 10
-34.1783755448
 20
-26.767279817
 30
0.0
 10
-33.9176122053
 20
-26.896435321
 30
0.0
 10
-33.6517157333
 20
-27.0554957344
 30
0.0
 10
-33.3894736362
 20
-27.2422150679
 30
0.0
 10
-33.139199671
 20
-27.4516440717
 30
0.0
 10
-32.9046793673
 20
-27.6800829725
 30
0.0
 10
-32.6833044012
 20
-27.9300788412
 30
0.0
 10
-32.4696164044
 20
-28.2113178534
 30
0.0
 10
-32.2601052571
 20
-28.5388632965
 30
0.0
 10
-32.0598921992
 20
-28.925306173
 30
0.0
 10
-31.8843607718
 20
-29.3737074228
 30
0.0
 10
-31.755367651
 20
-29.8732281499
 30
0.0
 10
-31.6943393768
 20
-30.3962069004
 30
0.0
 10
-31.7118325316
 20
-30.9040703184
 30
0.0
 10
-31.8008573486
 20
-31.3607308948
 30
0.0
 10
-31.941599659
 20
-31.7456709713
 30
0.0
 10
-32.1122241747
 20
-32.0566744849
 30
0.0
 10
-32.2967135639
 20
-32.3037458199
 30
0.0
 10
-32.4892677383
 20
-32.5025135463
 30
0.0
 10
-32.6928688614
 20
-32.6672497251
 30
0.0
 10
-32.9122358072
 20
-32.805218991
 30
0.0
 10
-33.1493450864
 20
-32.9175559914
 30
0.0
 10
-33.4002198784
 20
-33.0019689994
 30
0.0
 10
-33.6572469506
 20
-33.0570252718
 30
0.0
 10
-33.9124273829
 20
-33.0839627489
 30
0.0
 10
-34.1601457036
 20
-33.0860647722
 30
0.0
 10
-34.3971747588
 20
-33.0672605572
 30
0.0
 10
-34.5503787788
 20
-33.0427927046
 30
0.0
 10
-34.6246414916
 20
-33.0281287921
 30
0.0
 11
-34.8986300785
 21
-26.5392518025
 31
0.0
 11
-34.673327289
 21
-26.5924708325
 31
0.0
 11
-34.4359895405
 21
-26.6674644294
 31
0.0
 11
-34.1866242044
 21
-26.7675545213
 31
0.0
 11
-33.9258130796
 21
-26.8965076781
 31
0.0
 11
-33.6575764914
 21
-27.0567263708
 31
0.0
 11
-33.3926108233
 21
-27.2451561787
 31
0.0
 11
-33.1416025354
 21
-27.4550119915
 31
0.0
 11
-32.9081913837
 21
-27.6822314134
 31
0.0
 11
-32.6904680829
 21
-27.9280115139
 31
0.0
 11
-32.4806495089
 21
-28.2041194043
 31
0.0
 11
-32.2740552617
 21
-28.5271769401
 31
0.0
 11
-32.0741880815
 21
-28.9133345516
 31
0.0
 11
-31.8976873184
 21
-29.3654355256
 31
0.0
 11
-31.7681595225
 21
-29.8704803359
 31
0.0
 11
-31.7072961316
 21
-30.4037399642
 31
0.0
 11
-31.7266564171
 21
-30.9192782807
 31
0.0
 11
-31.8171469268
 21
-31.3760216493
 31
0.0
 11
-31.9583294399
 21
-31.7591790162
 31
0.0
 11
-32.1275158999
 21
-32.0663118476
 31
0.0
 11
-32.3081190344
 21
-32.3076758649
 31
0.0
 11
-32.496256621
 21
-32.5016901356
 31
0.0
 11
-32.6956304754
 21
-32.662960165
 31
0.0
 11
-32.9133081173
 21
-32.7999246524
 31
0.0
 11
-33.1500220563
 21
-32.912225347
 31
0.0
 11
-33.402149017
 21
-32.997286143
 31
0.0
 11
-33.6604297083
 21
-33.0528728971
 31
0.0
 11
-33.9156724175
 21
-33.0800715057
 31
0.0
 11
-34.1632606957
 21
-33.0824018306
 31
0.0
 11
-34.4003682735
 21
-33.0637848057
 31
0.0
 11
-34.6246414916
 21
-33.0281287921
 31
0.0
  0
SPLINE
  5
488
100
AcDbEntity
  8
RACCORDO
100
AcDbSpline
 62
7
  6
CONTINUOUS
 70
0
 71
3
 72
10
 73
6
 74
4
 42
0.0000001
 43
0.0000001
 44
0.0000000001
 12
0.1190677308
 22
0.070535279
 32
0.0
 13
0.0990289248
 23
-0.0869834445
 33
0.0
 40
0.0
 40
0.0
 40
0.0
 40
0.0
 40
0.6731415656
 40
0.9899713288
 40
1.0
 40
1.0
 40
1.0
 40
1.0
 10
-8.0040353543
 20
-25.367634589
 30
0.0
 10
-7.9773188747
 20
-25.3518078463
 30
0.0
 10
-7.9421184724
 20
-25.3380394233
 30
0.0
 10
-7.8896851589
 20
-25.3043033537
 30
0.0
 10
-7.8786816071
 20
-25.3132235765
 30
0.0
 10
-7.8783505642
 20
-25.3135143526
 30
0.0
 11
-8.0040353543
 21
-25.367634589
 31
0.0
 11
-7.9217246389
 21
-25.3240083271
 31
0.0
 11
-7.8793626042
 21
-25.3126949739
 31
0.0
 11
-7.8783505642
 21
-25.3135143526
 31
0.0
  0
SPLINE
  5
489
100
AcDbEntity
  8
RACCORDO
100
AcDbSpline
 62
253
  6
CONTINUOUS
 70
0
 71
3
 72
14
 73
10
 74
8
 42
0.0000001
 43
0.0000001
 44
0.0000000001
 12
2.0732735342
 22
-0.4074307361
 32
0.0
 13
1.6683150296
 23
1.2966063066
 33
0.0
 40
0.0
 40
0.0
 40
0.0
 40
0.0
 40
0.1461569399
 40
0.3013687667
 40
0.4594563164
 40
0.6140144752
 40
0.7589163319
 40
0.8888515873
 40
1.0
 40
1.0
 40
1.0
 40
1.0
 10
15.3866939682
 20
-48.6682162024
 30
0.0
 10
15.48770174
 20
-48.6880658122
 30
0.0
 10
15.6986452849
 20
-48.7159585681
 30
0.0
 10
16.0225573155
 20
-48.7257095573
 30
0.0
 10
16.3518948155
 20
-48.7045938624
 30
0.0
 10
16.6705978674
 20
-48.6536481553
 30
0.0
 10
16.9634040005
 20
-48.5753688728
 30
0.0
 10
17.2162553697
 20
-48.4737227033
 30
0.0
 10
17.3631366514
 20
-48.3860218636
 30
0.0
 10
17.4249468405
 20
-48.337983286
 30
0.0
 11
15.3866939682
 21
-48.6682162024
 31
0.0
 11
15.6926644274
 21
-48.7100643898
 31
0.0
 11
16.0204482268
 21
-48.720546204
 31
0.0
 11
16.3537892711
 21
-48.6991418101
 31
0.0
 11
16.676155859
 21
-48.6469127369
 31
0.0
 11
16.9715605563
 21
-48.5664492307
 31
0.0
 11
17.2253530751
 21
-48.4617417951
 31
0.0
 11
17.4249468405
 21
-48.337983286
 31
0.0
  0
SPLINE
  5
48A
100
AcDbEntity
  8
RACCORDO
100
AcDbSpline
 62
253
  6
CONTINUOUS
 70
0
 71
3
 72
14
 73
10
 74
8
 42
0.0000001
 43
0.0000001
 44
0.0000000001
 12
2.0175793761
 22
-0.4004973299
 32
0.0
 13
1.9201895067
 23
0.7374936668
 33
0.0
 40
0.0
 40
0.0
 40
0.0
 40
0.0
 40
0.1507071143
 40
0.3108573302
 40
0.4730598643
 40
0.6298008398
 40
0.7738965621
 40
0.898966495
 40
1.0
 40
1.0
 40
1.0
 40
1.0
 10
15.3866952066
 20
20.7721991585
 30
0.0
 10
15.4880497285
 20
20.7520798929
 30
0.0
 10
15.6986984532
 20
20.7184002386
 30
0.0
 10
16.0216309491
 20
20.686418174
 30
0.0
 10
16.3500005227
 20
20.6723631482
 30
0.0
 10
16.6676229795
 20
20.6769046256
 30
0.0
 10
16.9590383589
 20
20.6996699338
 30
0.0
 10
17.20995797
 20
20.7393326906
 30
0.0
 10
17.3602790151
 20
20.7799926233
 30
0.0
 10
17.4249468405
 20
20.8048298134
 30
0.0
 11
15.3866952066
 21
20.7721991585
 31
0.0
 11
15.6926653707
 21
20.7223998187
 31
0.0
 11
16.0204488424
 21
20.6896018971
 31
0.0
 11
16.353789572
 21
20.6754319693
 31
0.0
 11
16.6761559035
 21
20.6805927768
 31
0.0
 11
16.9715604441
 21
20.7048283753
 31
0.0
 11
17.2253529402
 21
20.7469368278
 31
0.0
 11
17.4249468405
 21
20.8048298134
 31
0.0
  0
SPLINE
  5
48B
100
AcDbEntity
  8
RACCORDO
100
AcDbSpline
 62
253
  6
CONTINUOUS
 70
0
 71
3
 72
14
 73
10
 74
8
 42
0.0000001
 43
0.0000001
 44
0.0000000001
 12
2.2240666364
 22
-0.4482561896
 32
0.0
 13
0.0107227072
 23
-2.2687642095
 33
0.0
 40
0.0
 40
0.0
 40
0.0
 40
0.0
 40
0.1333148773
 40
0.2728112883
 40
0.4172903915
 40
0.5647268869
 40
0.7126397088
 40
0.8584765973
 40
1.0
 40
1.0
 40
1.0
 40
1.0
 10
17.876981356
 20
26.4291225821
 30
0.0
 10
17.9758150795
 20
26.4092028425
 30
0.0
 10
18.1737044024
 20
26.3439667697
 30
0.0
 10
18.4476161783
 20
26.1831896742
 30
0.0
 10
18.6932064389
 20
25.9654118582
 30
0.0
 10
18.8985583815
 20
25.7014435842
 30
0.0
 10
19.0538787273
 20
25.4040704917
 30
0.0
 10
19.151586429
 20
25.0878658996
 30
0.0
 10
19.1754641603
 20
24.8701597253
 30
0.0
 10
19.1759699983
 20
24.7631319817
 30
0.0
 11
17.876981356
 21
26.4291225821
 31
0.0
 11
18.1647276266
 21
26.3359228388
 31
0.0
 11
18.4383746478
 21
26.176919815
 31
0.0
 11
18.6842019402
 21
25.9600858165
 31
0.0
 11
18.8898838869
 21
25.6962927556
 31
0.0
 11
19.0451077321
 21
25.3987670409
 31
0.0
 11
19.1420906557
 21
25.0824264134
 31
0.0
 11
19.1759699983
 21
24.7631319817
 31
0.0
  0
SPLINE
  5
48C
100
AcDbEntity
  8
RACCORDO
100
AcDbSpline
 62
253
  6
CONTINUOUS
 70
0
 71
3
 72
10
 73
6
 74
4
 42
0.0000001
 43
0.0000001
 44
0.0000000001
 12
-0.7978274582
 22
0.1543187923
 32
0.0
 13
-0.6925533095
 23
-0.4298523916
 33
0.0
 40
0.0
 40
0.0
 40
0.0
 40
0.0
 40
0.3582085626
 40
0.7028371755
 40
1.0
 40
1.0
 40
1.0
 40
1.0
 10
-38.2769794961
 20
37.5175881485
 30
0.0
 10
-38.3722423717
 20
37.5360142527
 30
0.0
 10
-38.5642493133
 20
37.5509578796
 30
0.0
 10
-38.8338827321
 20
37.5026113595
 30
0.0
 10
-38.9933176588
 20
37.4287375287
 30
0.0
 10
-39.0619180247
 20
37.3861588118
 30
0.0
 11
-38.2769794961
 21
37.5175881485
 31
0.0
 11
-38.5673101886
 21
37.5385385697
 31
0.0
 11
-38.8427556906
 21
37.4879622147
 31
0.0
 11
-39.0619180247
 21
37.3861588118
 31
0.0
  0
SPLINE
  5
48D
100
AcDbEntity
  8
RACCORDO
100
AcDbSpline
 62
253
  6
CONTINUOUS
 70
0
 71
3
 72
12
 73
8
 74
6
 42
0.0000001
 43
0.0000001
 44
0.0000000001
 12
-0.8595384019
 22
0.168836617
 32
0.0
 13
0.0089667845
 23
0.8792346999
 33
0.0
 40
0.0
 40
0.0
 40
0.0
 40
0.0
 40
0.3156105548
 40
0.5795775466
 40
0.7827004099
 40
0.9238346484
 40
1.0
 40
1.0
 40
1.0
 40
1.0
 10
-40.7151203439
 20
31.8503670995
 30
0.0
 10
-40.8055468079
 20
31.8681293056
 30
0.0
 10
-40.970406935
 20
31.9063655586
 30
0.0
 10
-41.188666694
 20
31.9777438711
 30
0.0
 10
-41.3468079894
 20
32.0573720875
 30
0.0
 10
-41.4470252899
 20
32.1351706262
 30
0.0
 10
-41.4664551122
 20
32.2016467839
 30
0.0
 10
-41.4662274594
 20
32.2239691906
 30
0.0
 11
-40.7151203439
 21
31.8503670995
 31
0.0
 11
-40.9841354633
 21
31.9141074924
 31
0.0
 11
-41.2028214328
 21
31.9892184536
 31
0.0
 11
-41.36033275
 21
32.0719749335
 31
0.0
 11
-41.4488578056
 21
32.1582727108
 31
0.0
 11
-41.4662274594
 21
32.2239691906
 31
0.0
  0
SPLINE
  5
48E
100
AcDbEntity
  8
RACCORDO
100
AcDbSpline
 62
253
  6
CONTINUOUS
 70
0
 71
3
 72
12
 73
8
 74
6
 42
0.0000001
 43
0.0000001
 44
0.0000000001
 12
-0.9413310424
 22
0.1867742467
 32
0.0
 13
-0.059422827
 23
0.969352249
 33
0.0
 40
0.0
 40
0.0
 40
0.0
 40
0.0
 40
0.29010023
 40
0.5395648537
 40
0.7448490958
 40
0.9116464319
 40
1.0
 40
1.0
 40
1.0
 40
1.0
 10
-40.7151192513
 20
-37.5900469098
 30
0.0
 10
-40.8061460353
 20
-37.5719858259
 30
0.0
 10
-40.9738600317
 20
-37.528837928
 30
0.0
 10
-41.194128599
 20
-37.4347330222
 30
0.0
 10
-41.3580694305
 20
-37.3188601649
 30
0.0
 10
-41.4474419531
 20
-37.1960797259
 30
0.0
 10
-41.4646486663
 20
-37.1141651361
 30
0.0
 10
-41.4663987392
 20
-37.0856165595
 30
0.0
 11
-40.7151192513
 21
-37.5900469098
 31
0.0
 11
-40.9841341789
 21
-37.518355403
 31
0.0
 11
-41.2028200547
 21
-37.4209284518
 31
0.0
 11
-41.3603313985
 21
-37.3025978362
 31
0.0
 11
-41.448856612
 21
-37.1692320303
 31
0.0
 11
-41.4663987392
 21
-37.0856165595
 31
0.0
  0
SPLINE
  5
48F
100
AcDbEntity
  8
RACCORDO
100
AcDbSpline
 62
7
  6
CONTINUOUS
 70
0
 71
3
 72
14
 73
10
 74
8
 42
0.0000001
 43
0.0000001
 44
0.0000000001
 12
-0.3489680261
 22
-0.2511346179
 32
0.0
 13
-0.3198183109
 23
-0.2873386984
 33
0.0
 40
0.0
 40
0.0
 40
0.0
 40
0.0
 40
0.1258931048
 40
0.2735207939
 40
0.4287047922
 40
0.5837331865
 40
0.7334854491
 40
0.8736390341
 40
1.0
 40
1.0
 40
1.0
 40
1.0
 10
-34.8444159398
 20
-25.6022406853
 30
0.0
 10
-34.8590601625
 20
-25.6127793909
 30
0.0
 10
-34.8902435524
 20
-25.6365492105
 30
0.0
 10
-34.9383308409
 20
-25.674789765
 30
0.0
 10
-34.9890843609
 20
-25.7163790697
 30
0.0
 10
-35.0396102919
 20
-25.7587174759
 30
0.0
 10
-35.0880854657
 20
-25.800145012
 30
0.0
 10
-35.1330747324
 20
-25.8393234125
 30
0.0
 10
-35.1616350287
 20
-25.8646853438
 30
0.0
 10
-35.1751058789
 20
-25.8767881423
 30
0.0
 11
-34.8444159398
 21
-25.6022406853
 31
0.0
 11
-34.8876591114
 21
-25.6347935084
 31
0.0
 11
-34.9373886508
 21
-25.6742336203
 31
0.0
 11
-34.989023449
 21
-25.7164870623
 31
0.0
 11
-35.0401190213
 21
-25.759286894
 31
0.0
 11
-35.0890638472
 21
-25.8011168005
 31
0.0
 11
-35.134497919
 21
-25.8406984287
 31
0.0
 11
-35.1751058789
 21
-25.8767881423
 31
0.0
  0
SPLINE
  5
490
100
AcDbEntity
  8
RACCORDO
100
AcDbSpline
 62
253
  6
CONTINUOUS
 70
0
 71
3
 72
17
 73
13
 74
11
 42
0.0000001
 43
0.0000001
 44
0.0000000001
 12
0.2474653583
 22
4.4573227723
 32
0.0
 13
3.8332700792
 23
2.288013527
 33
0.0
 40
0.0
 40
0.0
 40
0.0
 40
0.0
 40
0.111857372
 40
0.2256873117
 40
0.3395709478
 40
0.4516304063
 40
0.5600815615
 40
0.6632684568
 40
0.7597511396
 40
0.8484083567
 40
0.9285322468
 40
1.0
 40
1.0
 40
1.0
 40
1.0
 10
17.4249468405
 20
20.8048298134
 30
0.0
 10
17.4341737821
 20
20.9710246171
 30
0.0
 10
17.4653451437
 20
21.3057578062
 30
0.0
 10
17.5474171427
 20
21.804737784
 30
0.0
 10
17.6637604968
 20
22.2971957049
 30
0.0
 10
17.8119268748
 20
22.7726671336
 30
0.0
 10
17.9887953502
 20
23.2212032574
 30
0.0
 10
18.1906718856
 20
23.6334754222
 30
0.0
 10
18.4133523218
 20
24.0009673977
 30
0.0
 10
18.6523732326
 20
24.3162029063
 30
0.0
 10
18.902844716
 20
24.5727129674
 30
0.0
 10
19.0846515983
 20
24.7086255863
 30
0.0
 10
19.1759699983
 20
24.7631319817
 30
0.0
 11
17.4249468405
 21
20.8048298134
 31
0.0
 11
17.4708149224
 21
21.3020709645
 31
0.0
 11
17.5531353845
 21
21.8035169051
 31
0.0
 11
17.6701639644
 21
22.2982619718
 31
0.0
 11
17.8194089143
 21
22.7757348878
 31
0.0
 11
17.9977174578
 21
23.2258500287
 31
0.0
 11
18.2013106103
 21
23.6390620713
 31
0.0
 11
18.4258696408
 21
24.0066081896
 31
0.0
 11
18.6666511068
 21
24.3207228009
 31
0.0
 11
18.9185083036
 21
24.5747083857
 31
0.0
 11
19.1759699983
 21
24.7631319817
 31
0.0
  0
SPLINE
  5
491
100
AcDbEntity
  8
RACCORDO
100
AcDbSpline
 62
253
  6
CONTINUOUS
 70
0
 71
3
 72
14
 73
10
 74
8
 42
0.0000001
 43
0.0000001
 44
0.0000000001
 12
-4.0962149127
 22
69.0583883882
 32
0.0
 13
3.8330842266
 23
69.0734930975
 33
0.0
 40
0.0
 40
0.0
 40
0.0
 40
0.0
 40
0.1385695847
 40
0.2787186176
 40
0.4203592084
 40
0.5634012498
 40
0.707752303
 40
0.8533176145
 40
1.0
 40
1.0
 40
1.0
 40
1.0
 10
17.4249468405
 20
-48.337983286
 30
0.0
 10
17.2357432408
 20
-45.1481858874
 30
0.0
 10
16.9119507104
 20
-38.7287325932
 30
0.0
 10
16.5900727882
 20
-29.0401855215
 30
0.0
 10
16.4294411103
 20
-19.2444582932
 30
0.0
 10
16.4302060056
 20
-9.3505392958
 30
0.0
 10
16.5923675378
 20
0.6325635541
 30
0.0
 10
16.9157764343
 20
10.695698001
 30
0.0
 10
17.2375315277
 20
17.4275415651
 30
0.0
 10
17.4249468405
 20
20.8048298134
 30
0.0
 11
17.4249468405
 21
-48.337983286
 31
0.0
 11
16.9410666919
 21
-38.7639920066
 31
0.0
 11
16.6182330295
 21
-29.0738909843
 31
0.0
 11
16.4567424497
 21
-19.2765589463
 31
0.0
 11
16.4567424269
 21
-9.3809440311
 31
0.0
 11
16.6182329605
 21
0.603922155
 31
0.0
 11
16.9410665791
 21
10.6689202048
 31
0.0
 11
17.4249468405
 21
20.8048298134
 31
0.0
  0
SPLINE
  5
492
100
AcDbEntity
  8
RACCORDO
100
AcDbSpline
 62
253
  6
CONTINUOUS
 70
0
 71
3
 72
17
 73
13
 74
11
 42
0.0000001
 43
0.0000001
 44
0.0000000001
 12
-2.7647151331
 22
-1.5603619839
 32
0.0
 13
-0.1880656629
 23
3.1690709355
 33
0.0
 40
0.0
 40
0.0
 40
0.0
 40
0.0
 40
0.0882548855
 40
0.1685099858
 40
0.2451296331
 40
0.3234528642
 40
0.4083858711
 40
0.5033384216
 40
0.6100591354
 40
0.7289519876
 40
0.8593959041
 40
1.0
 40
1.0
 40
1.0
 40
1.0
 10
19.1759699983
 20
-50.2628748501
 30
0.0
 10
19.0946367924
 20
-50.3087780395
 30
0.0
 10
18.9300923078
 20
-50.3820121551
 30
0.0
 10
18.6708169477
 20
-50.424587006
 30
0.0
 10
18.42031105
 20
-50.3892690375
 30
0.0
 10
18.1886378149
 20
-50.276645736
 30
0.0
 10
17.9825908604
 20
-50.0929499932
 30
0.0
 10
17.804962698
 20
-49.8447496125
 30
0.0
 10
17.6576692405
 20
-49.537685122
 30
0.0
 10
17.542819203
 20
-49.1778094339
 30
0.0
 10
17.4624174792
 20
-48.7723516115
 30
0.0
 10
17.433761108
 20
-48.4865114039
 30
0.0
 10
17.4249468405
 20
-48.337983286
 30
0.0
 11
19.1759699983
 21
-50.2628748501
 31
0.0
 11
18.9185256832
 21
-50.3734287428
 31
0.0
 11
18.6666687761
 21
-50.4119221345
 31
0.0
 11
18.4258871176
 21
-50.3774253581
 31
0.0
 11
18.2013275376
 21
-50.2706587885
 31
0.0
 11
17.9977332247
 21
-50.0938795182
 31
0.0
 11
17.8194218435
 21
-49.8508330484
 31
0.0
 11
17.6701739509
 21
-49.5466770685
 31
0.0
 11
17.5531424665
 21
-49.1878363437
 31
0.0
 11
17.470819318
 21
-48.781988189
 31
0.0
 11
17.4249468405
 21
-48.337983286
 31
0.0
  0
SPLINE
  5
493
100
AcDbEntity
  8
RACCORDO
100
AcDbSpline
 62
253
  6
CONTINUOUS
 70
0
 71
3
 72
30
 73
26
 74
24
 42
0.0000001
 43
0.0000001
 44
0.0000000001
 12
-7.4691437872
 22
1.4749034813
 32
0.0
 13
6.6677084221
 23
3.6840536155
 33
0.0
 40
0.0
 40
0.0
 40
0.0
 40
0.0
 40
0.028112574
 40
0.0583642363
 40
0.0910641353
 40
0.1265171776
 40
0.1646323494
 40
0.20431736
 40
0.2442410421
 40
0.2839605551
 40
0.3239590736
 40
0.3661608043
 40
0.41279286
 40
0.4656484944
 40
0.5246564901
 40
0.5880778211
 40
0.6534411873
 40
0.7163903446
 40
0.7733323228
 40
0.8233764245
 40
0.8664392665
 40
0.9035046346
 40
0.9367500929
 40
0.9682904966
 40
1.0
 40
1.0
 40
1.0
 40
1.0
 10
-34.5023002384
 20
-32.7002591041
 30
0.0
 10
-34.5722925243
 20
-32.686437993
 30
0.0
 10
-34.7165895151
 20
-32.6523577457
 30
0.0
 10
-34.9372393551
 20
-32.5829827623
 30
0.0
 10
-35.169488266
 20
-32.4905488654
 30
0.0
 10
-35.4120043718
 20
-32.3719741169
 30
0.0
 10
-35.659875067
 20
-32.225901412
 30
0.0
 10
-35.9048577647
 20
-32.0543711789
 30
0.0
 10
-36.1390732453
 20
-31.8619523595
 30
0.0
 10
-36.3588697485
 20
-31.6520861077
 30
0.0
 10
-36.5666421555
 20
-31.422452541
 30
0.0
 10
-36.7675524268
 20
-31.1641163446
 30
0.0
 10
-36.9650364364
 20
-30.8631110151
 30
0.0
 10
-37.1545027277
 20
-30.5075747974
 30
0.0
 10
-37.3216349493
 20
-30.0942967283
 30
0.0
 10
-37.4458361517
 20
-29.6327918692
 30
0.0
 10
-37.5066233071
 20
-29.1482456099
 30
0.0
 10
-37.4935495787
 20
-28.6763058341
 30
0.0
 10
-37.4127545192
 20
-28.2507757983
 30
0.0
 10
-37.2827037613
 20
-27.8912086907
 30
0.0
 10
-37.1239927033
 20
-27.6001351154
 30
0.0
 10
-36.9518442754
 20
-27.3685456623
 30
0.0
 10
-36.7719339742
 20
-27.1820541526
 30
0.0
 10
-36.5814607188
 20
-27.0272387091
 30
0.0
 10
-36.4454654269
 20
-26.9412640335
 30
0.0
 10
-36.3749888527
 20
-26.9023241966
 30
0.0
 11
-34.5023002384
 21
-32.7002591041
 31
0.0
 11
-34.7106328545
 21
-32.6511978173
 31
0.0
 11
-34.9303932165
 21
-32.5822674808
 31
0.0
 11
-35.1617662487
 21
-32.4903660451
 31
0.0
 11
-35.4043320736
 21
-32.3719720616
 31
0.0
 11
-35.6544291547
 21
-32.224802783
 31
0.0
 11
-35.9020225311
 21
-32.0516434343
 31
0.0
 11
-36.1369591252
 21
-31.8587891851
 31
0.0
 11
-36.3557260807
 21
-31.6500154839
 31
0.0
 11
-36.5600711311
 21
-31.424232957
 31
0.0
 11
-36.7573216167
 21
-31.1706105179
 31
0.0
 11
-36.9520261034
 21
-30.8737359629
 31
0.0
 11
-37.1411065158
 21
-30.5185147167
 31
0.0
 11
-37.3091190154
 21
-30.1018646734
 31
0.0
 11
-37.4337973126
 21
-29.6353888555
 31
0.0
 11
-37.4944825825
 21
-29.1414672236
 31
0.0
 11
-37.4797438844
 21
-28.6624384919
 31
0.0
 11
-37.3976166825
 21
-28.2367682369
 31
0.0
 11
-37.2671708945
 21
-27.8787902195
 31
0.0
 11
-37.1097564708
 21
-27.5911991834
 31
0.0
 11
-36.9411985185
 21
-27.3648790353
 31
0.0
 11
-36.765382029
 21
-27.1827986332
 31
0.0
 11
-36.5790229832
 21
-27.0313649013
 31
0.0
 11
-36.3749888527
 21
-26.9023241966
 31
0.0
  0
SPLINE
  5
494
100
AcDbEntity
  8
RACCORDO
100
AcDbSpline
 62
253
  6
CONTINUOUS
 70
0
 71
3
 72
30
 73
26
 74
24
 42
0.0000001
 43
0.0000001
 44
0.0000000001
 12
-7.6927316232
 22
1.5190557948
 32
0.0
 13
6.8658097835
 23
3.7958775786
 33
0.0
 40
0.0
 40
0.0
 40
0.0
 40
0.0
 40
0.0273836871
 40
0.0566886738
 40
0.0882126081
 40
0.1222561952
 40
0.15875575
 40
0.1967194854
 40
0.2349483664
 40
0.2730786631
 40
0.3116227777
 40
0.3524914407
 40
0.3979235408
 40
0.4498091455
 40
0.5082745188
 40
0.5718431519
 40
0.6382180401
 40
0.7029919783
 40
0.76227104
 40
0.814810134
 40
0.8602049269
 40
0.8992999694
 40
0.9342844289
 40
0.9673232447
 40
1.0
 40
1.0
 40
1.0
 40
1.0
 10
8.52517707
 20
9.3214632368
 30
0.0
 10
8.4549586181
 20
9.3353290196
 30
0.0
 10
8.3106801976
 20
9.3698379736
 30
0.0
 10
8.0911693989
 20
9.4411490845
 30
0.0
 10
7.8620951614
 20
9.5368484169
 30
0.0
 10
7.6251640475
 20
9.6601675229
 30
0.0
 10
7.385535872
 20
9.8125478754
 30
0.0
 10
7.151405609
 20
9.9918880038
 30
0.0
 10
6.9303277413
 20
10.1934446461
 30
0.0
 10
6.7256400407
 20
10.4136707172
 30
0.0
 10
6.5350790578
 20
10.6550774463
 30
0.0
 10
6.3542347015
 20
10.9271462586
 30
0.0
 10
6.1810120721
 20
11.2446531883
 30
0.0
 10
6.0214230122
 20
11.6200501593
 30
0.0
 10
5.8906008588
 20
12.0565089215
 30
0.0
 10
5.8087475927
 20
12.5435659526
 30
0.0
 10
5.7941428096
 20
13.0540870872
 30
0.0
 10
5.85341875
 20
13.5501955754
 30
0.0
 10
5.9765267876
 20
13.9968260114
 30
0.0
 10
6.1427353041
 20
14.3741539352
 30
0.0
 10
6.3311299305
 20
14.6799764537
 30
0.0
 10
6.5273872272
 20
14.9238232555
 30
0.0
 10
6.7272584743
 20
15.1207043739
 30
0.0
 10
6.9342370728
 20
15.284121151
 30
0.0
 10
7.0800690097
 20
15.3755180232
 30
0.0
 10
7.1548531385
 20
15.4168636775
 30
0.0
 11
8.52517707
 21
9.3214632368
 31
0.0
 11
8.3163197522
 21
9.3713093919
 31
0.0
 11
8.0977341393
 21
9.4421833274
 31
0.0
 11
7.8695918603
 21
9.5373304971
 31
0.0
 11
7.6327202191
 21
9.660422304
 31
0.0
 11
7.3911096252
 21
9.8138386671
 31
0.0
 11
7.1546767046
 21
9.9947125815
 31
0.0
 11
6.9330541075
 21
10.1965577317
 31
0.0
 11
6.7294147718
 21
10.4154782842
 31
0.0
 11
6.5420775206
 21
10.6526508698
 31
0.0
 11
6.3646192431
 21
10.9194931841
 31
0.0
 11
6.1939612148
 21
11.2322021147
 31
0.0
 11
6.0348048967
 21
11.6066293673
 31
0.0
 11
5.903339891
 21
12.0458186146
 31
0.0
 11
5.8211445802
 21
12.5374543209
 31
0.0
 11
5.8069989554
 21
13.0577260455
 31
0.0
 11
5.8681793773
 21
13.5619383306
 31
0.0
 11
5.9925415551
 21
14.0098167339
 31
0.0
 11
6.1592411986
 21
14.38655741
 31
0.0
 11
6.3463232493
 21
14.6893824432
 31
0.0
 11
6.5387450607
 21
14.9280242006
 31
0.0
 11
6.7342985194
 21
15.1204089588
 31
0.0
 11
6.9377010524
 21
15.280854874
 31
0.0
 11
7.1548531385
 21
15.4168636775
 31
0.0
  0
SPLINE
  5
495
100
AcDbEntity
  8
RACCORDO
100
AcDbSpline
 62
7
  6
CONTINUOUS
 70
0
 71
3
 72
11
 73
7
 74
5
 42
0.0000001
 43
0.0000001
 44
0.0000000001
 12
-0.1939219395
 22
0.0382867994
 32
0.0
 13
-0.1709964469
 23
-0.0984931188
 33
0.0
 40
0.0
 40
0.0
 40
0.0
 40
0.0
 40
0.2299994761
 40
0.4707794657
 40
0.7257277921
 40
1.0
 40
1.0
 40
1.0
 40
1.0
 10
31.3721529327
 20
42.6012349777
 30
0.0
 10
31.3572856179
 20
42.6041702923
 30
0.0
 10
31.3262276477
 20
42.6070088425
 30
0.0
 10
31.2784820999
 20
42.6016825471
 30
0.0
 10
31.2297999228
 20
42.5868444555
 30
0.0
 10
31.1984237983
 20
42.5714254993
 30
0.0
 10
31.1827906073
 20
42.5624208576
 30
0.0
 11
31.3721529327
 21
42.6012349777
 31
0.0
 11
31.3269592468
 21
42.6054416482
 31
0.0
 11
31.2797143622
 21
42.6003912131
 31
0.0
 11
31.231505082
 21
42.5860052181
 31
0.0
 11
31.1827906073
 21
42.5624208576
 31
0.0
  0
SPLINE
  5
496
100
AcDbEntity
  8
RACCORDO
100
AcDbSpline
 62
7
  6
CONTINUOUS
 70
0
 71
3
 72
20
 73
16
 74
14
 42
0.0000001
 43
0.0000001
 44
0.0000000001
 12
0.788179035
 22
-0.1556134015
 32
0.0
 13
-0.0
 23
-0.8020467702
 33
0.0
 40
0.0
 40
0.0
 40
0.0
 40
0.0
 40
0.0008081447
 40
0.0582322163
 40
0.1175516997
 40
0.1803992298
 40
0.2480318908
 40
0.3212996422
 40
0.4006821959
 40
0.4863499984
 40
0.5782242309
 40
0.6760271312
 40
0.7793219594
 40
0.8875445705
 40
1.0
 40
1.0
 40
1.0
 40
1.0
 10
27.0420259138
 20
43.456285336
 30
0.0
 10
27.0422382347
 20
43.4562434166
 30
0.0
 10
27.0575328741
 20
43.4532000884
 30
0.0
 10
27.0877434944
 20
43.4437449749
 30
0.0
 10
27.1299928956
 20
43.4203041172
 30
0.0
 10
27.1692985072
 20
43.3878175794
 30
0.0
 10
27.205344035
 20
43.3467138623
 30
0.0
 10
27.2378693124
 20
43.2974326265
 30
0.0
 10
27.2666321932
 20
43.2404447801
 30
0.0
 10
27.2914025931
 20
43.1762749748
 30
0.0
 10
27.3119695716
 20
43.1055119662
 30
0.0
 10
27.328150108
 20
43.0288095965
 30
0.0
 10
27.3397959363
 20
42.9468810941
 30
0.0
 10
27.346797649
 20
42.8605044998
 30
0.0
 10
27.3483003206
 20
42.801492563
 30
0.0
 10
27.3483003206
 20
42.771427725
 30
0.0
 11
27.0420259138
 21
43.456285336
 31
0.0
 11
27.0426626883
 21
43.4561586302
 31
0.0
 11
27.0866421626
 21
43.4424825983
 31
0.0
 11
27.1283517163
 21
43.4195940844
 31
0.0
 11
27.1673940368
 21
43.3877110413
 31
0.0
 11
27.2033972212
 21
43.3471371246
 31
0.0
 11
27.2360183218
 21
43.2982587993
 31
0.0
 11
27.2649466155
 21
43.2415416558
 31
0.0
 11
27.2899065661
 21
43.1775259715
 31
0.0
 11
27.3106604498
 21
43.1068215596
 31
0.0
 11
27.3270106217
 21
43.0301019549
 31
0.0
 11
27.3388013982
 21
42.948097992
 31
0.0
 11
27.3459205399
 21
42.8615908383
 31
0.0
 11
27.3483003206
 21
42.771427725
 31
0.0
  0
SPLINE
  5
497
100
AcDbEntity
  8
ASSI
100
AcDbSpline
 62
7
  6
CONTINUOUS
 70
0
 71
3
 72
16
 73
12
 74
10
 42
0.0000001
 43
0.0000001
 44
0.0000000001
 12
2.0697672661
 22
-0.4087074663
 32
0.0
 13
1.8157278474
 23
1.0756209892
 33
0.0
 40
0.0
 40
0.0
 40
0.0
 40
0.0
 40
0.1186022994
 40
0.2355214564
 40
0.3508701361
 40
0.4647982583
 40
0.5774908355
 40
0.6891645462
 40
0.8000630259
 40
0.910450955
 40
1.0
 40
1.0
 40
1.0
 40
1.0
 10
-3.8625888119
 20
6.7271601086
 30
0.0
 10
-3.7807624262
 20
6.7110022269
 30
0.0
 10
-3.617011253
 20
6.6849192398
 30
0.0
 10
-3.3708386179
 20
6.6648923373
 30
0.0
 10
-3.1271159611
 20
6.6643504993
 30
0.0
 10
-2.8871063878
 20
6.6833104244
 30
0.0
 10
-2.6520350258
 20
6.7216844188
 30
0.0
 10
-2.4231104942
 20
6.7792852372
 30
0.0
 10
-2.2015109066
 20
6.8558246521
 30
0.0
 10
-2.001630187
 20
6.9450023874
 30
0.0
 10
-1.8780622036
 20
7.012371072
 30
0.0
 10
-1.8238633054
 20
7.0444780161
 30
0.0
 11
-3.8625888119
 21
6.7271601086
 31
0.0
 11
-3.6154626321
 21
6.6879381497
 31
0.0
 11
-3.3695957507
 21
6.6680698897
 31
0.0
 11
-3.126241049
 21
6.6676565727
 31
0.0
 11
-2.8866386067
 21
6.6867003048
 31
0.0
 11
-2.6520093829
 21
6.7251040437
 31
0.0
 11
-2.4235489944
 21
6.7826720925
 31
0.0
 11
-2.2024216229
 21
6.8591110979
 31
0.0
 11
-1.9897540829
 21
6.954031544
 31
0.0
 11
-1.8238633054
 21
7.0444780161
 31
0.0
  0
SPLINE
  5
498
100
AcDbEntity
  8
0
100
AcDbSpline
 62
7
  6
CONTINUOUS
 70
0
 71
3
 72
20
 73
16
 74
14
 42
0.0000001
 43
0.0000001
 44
0.0000000001
 12
1.7038676115
 22
1.0093570545
 32
0.0
 13
-0.1291275877
 23
1.9757930357
 33
0.0
 40
0.0
 40
0.0
 40
0.0
 40
0.0
 40
0.0297281425
 40
0.1062830438
 40
0.1832030218
 40
0.2607362219
 40
0.3391084849
 40
0.4185160303
 40
0.4991198849
 40
0.5810421617
 40
0.6643641126
 40
0.7491257586
 40
0.8353268374
 40
0.9229287946
 40
1.0
 40
1.0
 40
1.0
 40
1.0
 10
-2.7158072804
 20
8.5501132836
 30
0.0
 10
-2.6989230074
 20
8.560115387
 30
0.0
 10
-2.6392648858
 20
8.5970661192
 30
0.0
 10
-2.5410760507
 20
8.6679364
 30
0.0
 10
-2.4269161776
 20
8.7693304704
 30
0.0
 10
-2.3226129207
 20
8.8824666732
 30
0.0
 10
-2.2288798245
 20
9.0065569839
 30
0.0
 10
-2.146353562
 20
9.1407397202
 30
0.0
 10
-2.075590601
 20
9.2840867732
 30
0.0
 10
-2.0170647006
 20
9.4356106948
 30
0.0
 10
-1.9711649644
 20
9.5942716208
 30
0.0
 10
-1.9381942672
 20
9.7589841251
 30
0.0
 10
-1.9183679762
 20
9.9286241279
 30
0.0
 10
-1.9121088104
 20
10.0942095778
 30
0.0
 10
-1.9157232849
 20
10.2028912913
 30
0.0
 10
-1.9190406245
 20
10.2536502083
 30
0.0
 11
-2.7158072804
 21
8.5501132836
 31
0.0
 11
-2.6657602337
 21
8.5811119265
 31
0.0
 11
-2.5428669571
 21
8.669783917
 31
0.0
 11
-2.428988719
 21
8.7708620309
 31
0.0
 11
-2.3249034232
 21
8.883655802
 31
0.0
 11
-2.2313220778
 21
9.0073947347
 31
0.0
 11
-2.1488839382
 21
9.1412335665
 31
0.0
 11
-2.0781521406
 21
9.2842580425
 31
0.0
 11
-2.0196098549
 21
9.4354911605
 31
0.0
 11
-1.9736569842
 21
9.5938998449
 31
0.0
 11
-1.9406074332
 21
9.7584020038
 31
0.0
 11
-1.920686964
 21
9.9278739207
 31
0.0
 11
-1.9140316533
 21
10.1011579305
 31
0.0
 11
-1.9190406245
 21
10.2536502083
 31
0.0
  0
SPLINE
  5
499
100
AcDbEntity
  8
ASSI
100
AcDbSpline
 62
7
  6
CONTINUOUS
 70
0
 71
3
 72
28
 73
24
 74
22
 42
0.0000001
 43
0.0000001
 44
0.0000000001
 12
-0.1581425637
 22
-13.2815848324
 32
0.0
 13
10.4034029468
 23
-8.2576691009
 33
0.0
 40
0.0
 40
0.0
 40
0.0
 40
0.0
 40
0.0113845871
 40
0.0595173372
 40
0.1080984899
 40
0.1570999525
 40
0.2064894818
 40
0.2562310896
 40
0.3062854596
 40
0.3566103731
 40
0.4071611398
 40
0.457891034
 40
0.5087517324
 40
0.559693755
 40
0.6106669065
 40
0.6616207185
 40
0.7125048923
 40
0.7632697411
 40
0.8138666316
 40
0.8642484254
 40
0.9143699172
 40
0.9641882718
 40
1.0
 40
1.0
 40
1.0
 40
1.0
 10
2.6335008646
 20
9.3545674239
 30
0.0
 10
2.6329007354
 20
9.3041656374
 30
0.0
 10
2.6313375312
 20
9.040652106
 30
0.0
 10
2.6433409244
 20
8.5620517928
 30
0.0
 10
2.6910725588
 20
7.918479084
 30
0.0
 10
2.7703611534
 20
7.2724287043
 30
0.0
 10
2.8809716896
 20
6.6257914718
 30
0.0
 10
3.0225779088
 20
5.9804598253
 30
0.0
 10
3.1947632291
 20
5.338322346
 30
0.0
 10
3.3970219256
 20
4.7012582739
 30
0.0
 10
3.6287605755
 20
4.0711320416
 30
0.0
 10
3.8892997618
 20
3.4497878411
 30
0.0
 10
4.1778760352
 20
2.8390442434
 30
0.0
 10
4.4936441262
 20
2.2406888885
 30
0.0
 10
4.8356794026
 20
1.656473264
 30
0.0
 10
5.2029805639
 20
1.0881075883
 30
0.0
 10
5.5944725648
 20
0.5372558168
 30
0.0
 10
6.0090097578
 20
0.0055307853
 30
0.0
 10
6.4453792449
 20
-0.5055104914
 30
0.0
 10
6.9023044272
 20
-0.9943713531
 30
0.0
 10
7.3784487394
 20
-1.4596198441
 30
0.0
 10
7.8272477398
 20
-1.8596315144
 30
0.0
 10
8.1201845891
 20
-2.1003865509
 30
0.0
 10
8.2443725353
 20
-2.1989603513
 30
0.0
 11
2.6335008646
 21
9.3545674239
 31
0.0
 11
2.6326017165
 21
9.2033550543
 31
0.0
 11
2.6484779773
 21
8.5642958806
 31
0.0
 11
2.6960601918
 21
7.9208411525
 31
0.0
 11
2.7752087932
 21
7.2748782335
 31
0.0
 11
2.885691625
 21
6.6283018443
 31
0.0
 11
3.0271846221
 21
5.9830085048
 31
0.0
 11
3.1992727611
 21
5.3408909715
 31
0.0
 11
3.4014512778
 21
4.7038326858
 31
0.0
 11
3.6331271478
 21
4.0737022494
 31
0.0
 11
3.8936208258
 21
3.4523479435
 31
0.0
 11
4.1821682391
 21
2.8415923072
 31
0.0
 11
4.4979230284
 21
2.2432267921
 31
0.0
 11
4.8399590304
 21
1.6590065074
 31
0.0
 11
5.2072729946
 21
1.0906450718
 31
0.0
 11
5.5987875258
 21
0.5398095872
 31
0.0
 11
6.0133542446
 21
0.0081157492
 31
0.0
 11
6.4497571553
 21
-0.5028768926
 31
0.0
 11
6.9067162129
 21
-0.9916695089
 31
0.0
 11
7.3828910778
 21
-1.4568283866
 31
0.0
 11
7.8768850471
 21
-1.8969891346
 31
0.0
 11
8.2443725353
 21
-2.1989603513
 31
0.0
  0
SPLINE
  5
49A
100
AcDbEntity
  8
ASSI
100
AcDbSpline
 62
7
  6
CONTINUOUS
 70
0
 71
3
 72
22
 73
18
 74
16
 42
0.0000001
 43
0.0000001
 44
0.0000000001
 12
2.9264528833
 22
1.7336045982
 32
0.0
 13
-0.1254321478
 23
3.3985959794
 33
0.0
 40
0.0
 40
0.0
 40
0.0
 40
0.0
 40
0.0127857679
 40
0.0811657646
 40
0.1497550463
 40
0.218723852
 40
0.2882319877
 40
0.3584247476
 40
0.4294295147
 40
0.5013531351
 40
0.5742800896
 40
0.6482714332
 40
0.7233644322
 40
0.7995728039
 40
0.8768874585
 40
0.955277641
 40
1.0
 40
1.0
 40
1.0
 40
1.0
 10
-1.8238633054
 20
7.0444780161
 30
0.0
 10
-1.8113909896
 20
7.0518665048
 30
0.0
 10
-1.7326001498
 20
7.0994195803
 30
0.0
 10
-1.5918664561
 20
7.1947031144
 30
0.0
 10
-1.4105293666
 20
7.3421443132
 30
0.0
 10
-1.2417339773
 20
7.5056287597
 30
0.0
 10
-1.086343796
 20
7.6843104881
 30
0.0
 10
-0.9451503061
 20
7.8772661371
 30
0.0
 10
-0.8188693364
 20
8.0835007398
 30
0.0
 10
-0.7081381085
 20
8.3019535955
 30
0.0
 10
-0.6135128229
 20
8.5315041412
 30
0.0
 10
-0.5354666597
 20
8.7709778107
 30
0.0
 10
-0.474388101
 20
9.0191519158
 30
0.0
 10
-0.4305795309
 20
9.2747616016
 30
0.0
 10
-0.404256105
 20
9.536505926
 30
0.0
 10
-0.3968302632
 20
9.7637243587
 30
0.0
 10
-0.3994324637
 20
9.9032878182
 30
0.0
 10
-0.4013023375
 20
9.9539522281
 30
0.0
 11
-1.8238633054
 21
7.0444780161
 31
0.0
 11
-1.7866300794
 21
7.0669497381
 31
0.0
 11
-1.5940846857
 21
7.1972902749
 31
0.0
 11
-1.4130990691
 21
7.3443889689
 31
0.0
 11
-1.2445954907
 21
7.507496239
 31
0.0
 11
-1.0894326062
 21
7.6857809278
 31
0.0
 11
-0.94840109
 21
7.8783345374
 31
0.0
 11
-0.8222196065
 21
8.0841758588
 31
0.0
 11
-0.7115311476
 21
8.3022559718
 31
0.0
 11
-0.6168997562
 21
8.5314635901
 31
0.0
 11
-0.5388076523
 21
8.7706307243
 31
0.0
 11
-0.4776527752
 21
9.0185386334
 31
0.0
 11
-0.4337467563
 21
9.2739240355
 31
0.0
 11
-0.4073133306
 21
9.5354855453
 31
0.0
 11
-0.3984871967
 21
9.8018903051
 31
0.0
 11
-0.4013023375
 21
9.9539522281
 31
0.0
  0
SPLINE
  5
49B
100
AcDbEntity
  8
RACCORDO
100
AcDbSpline
 62
253
  6
CONTINUOUS
 70
0
 71
3
 72
12
 73
8
 74
6
 42
0.0000001
 43
0.0000001
 44
0.0000000001
 12
-0.0001136425
 22
-0.2221976755
 32
0.0
 13
-0.1895520768
 23
-0.1145877479
 33
0.0
 40
0.0
 40
0.0
 40
0.0
 40
0.0
 40
0.1530668539
 40
0.3268825176
 40
0.5223250089
 40
0.7456269641
 40
1.0
 40
1.0
 40
1.0
 40
1.0
 10
43.141974132
 20
38.9854293035
 30
0.0
 10
43.1419683337
 20
38.9740922705
 30
0.0
 10
43.1383600953
 20
38.9498714679
 30
0.0
 10
43.1220720272
 20
38.9144271428
 30
0.0
 10
43.0949285439
 20
38.8797347008
 30
0.0
 10
43.0577227197
 20
38.8464993119
 30
0.0
 10
43.0284027413
 20
38.8267265377
 30
0.0
 10
43.0123304289
 20
38.8170105266
 30
0.0
 11
43.141974132
 21
38.9854293035
 31
0.0
 11
43.1371451931
 21
38.9518559619
 31
0.0
 11
43.1215499826
 21
38.9166566038
 31
0.0
 11
43.0953411511
 21
38.8822023925
 31
0.0
 11
43.0588026694
 21
38.8488666366
 31
0.0
 11
43.0123304289
 21
38.8170105266
 31
0.0
  0
SPLINE
  5
49C
100
AcDbEntity
  8
RACCORDO
100
AcDbSpline
 62
253
  6
CONTINUOUS
 70
0
 71
3
 72
12
 73
8
 74
6
 42
0.0000001
 43
0.0000001
 44
0.0000000001
 12
-0.0001206969
 22
-0.2221940587
 32
0.0
 13
-0.1895489748
 23
-0.1145858724
 33
0.0
 40
0.0
 40
0.0
 40
0.0
 40
0.0
 40
0.1530529762
 40
0.3268714866
 40
0.5223171793
 40
0.7456227939
 40
1.0
 40
1.0
 40
1.0
 40
1.0
 10
43.1419741301
 20
-35.5503034977
 30
0.0
 10
43.1419679724
 20
-35.5616393184
 30
0.0
 10
43.1383595857
 20
-35.5858588051
 30
0.0
 10
43.1220720291
 20
-35.6213020193
 30
0.0
 10
43.0949285457
 20
-35.6559944623
 30
0.0
 10
43.0577227209
 20
-35.6892298521
 30
0.0
 10
43.0284027418
 20
-35.7090026269
 30
0.0
 10
43.0123304289
 20
-35.7187186382
 30
0.0
 11
43.1419741301
 21
-35.5503034977
 31
0.0
 11
43.1371451942
 21
-35.5838731993
 31
0.0
 11
43.1215499844
 21
-35.6190725582
 31
0.0
 11
43.095341153
 21
-35.6535267704
 31
0.0
 11
43.0588026707
 21
-35.6868625272
 31
0.0
 11
43.0123304289
 21
-35.7187186382
 31
0.0
  0
SPLINE
  5
49D
100
AcDbEntity
  8
RACCORDO
100
AcDbSpline
 62
253
  6
CONTINUOUS
 70
0
 71
3
 72
15
 73
11
 74
9
 42
0.0000001
 43
0.0000001
 44
0.0000000001
 12
0.6695285947
 22
0.3779369928
 32
0.0
 13
0.7535340095
 23
-0.1507593342
 33
0.0
 40
0.0
 40
0.0
 40
0.0
 40
0.0
 40
0.002141332
 40
0.14067302
 40
0.2797832078
 40
0.4199824623
 40
0.5617375661
 40
0.7054541076
 40
0.8514612
 40
1.0
 40
1.0
 40
1.0
 40
1.0
 10
-14.7335458155
 20
51.3746474744
 30
0.0
 10
-14.7330679211
 20
51.3749172373
 30
0.0
 10
-14.7016583137
 20
51.3926129727
 30
0.0
 10
-14.6372677845
 20
51.4243925317
 30
0.0
 10
-14.5365880758
 20
51.4613096299
 30
0.0
 10
-14.431778585
 20
51.4875967334
 30
0.0
 10
-14.3236500792
 20
51.5030591511
 30
0.0
 10
-14.2130319607
 20
51.5075870935
 30
0.0
 10
-14.1007855727
 20
51.5011592328
 30
0.0
 10
-14.0260800388
 20
51.489706718
 30
0.0
 10
-13.9887703596
 20
51.4822421811
 30
0.0
 11
-14.7335458155
 21
51.3746474744
 31
0.0
 11
-14.7321114601
 21
51.3754555702
 31
0.0
 11
-14.6366538743
 21
51.4225825838
 31
0.0
 11
-14.5362987555
 21
51.4594174392
 31
0.0
 11
-14.4318100789
 21
51.4856797286
 31
0.0
 11
-14.323982849
 21
51.5011696573
 31
0.0
 11
-14.2136372227
 21
51.5057693458
 31
0.0
 11
-14.1016140076
 21
51.4994437606
 31
0.0
 11
-13.9887703596
 21
51.4822421811
 31
0.0
  0
SPLINE
  5
49E
100
AcDbEntity
  8
RACCORDO
100
AcDbSpline
 62
7
  6
CONTINUOUS
 70
0
 71
3
 72
11
 73
7
 74
5
 42
0.0000001
 43
0.0000001
 44
0.0000000001
 12
0.1709964469
 22
0.0984931188
 32
0.0
 13
0.1939219395
 23
-0.0382867994
 33
0.0
 40
0.0
 40
0.0
 40
0.0
 40
0.0
 40
0.2742722079
 40
0.5292205343
 40
0.7700005239
 40
1.0
 40
1.0
 40
1.0
 40
1.0
 10
26.8526635883
 20
43.4174712159
 30
0.0
 10
26.8682967794
 20
43.4264758577
 30
0.0
 10
26.8996729039
 20
43.4418948139
 30
0.0
 10
26.9483550809
 20
43.4567329054
 30
0.0
 10
26.9961006287
 20
43.4620592008
 30
0.0
 10
27.027158599
 20
43.4592206506
 30
0.0
 10
27.0420259138
 20
43.456285336
 30
0.0
 11
26.8526635883
 21
43.4174712159
 31
0.0
 11
26.901378063
 21
43.4410555764
 31
0.0
 11
26.9495873432
 21
43.4554415714
 31
0.0
 11
26.9968322278
 21
43.4604920065
 31
0.0
 11
27.0420259138
 21
43.456285336
 31
0.0
  0
SPLINE
  5
49F
100
AcDbEntity
  8
RACCORDO
100
AcDbSpline
 62
7
  6
CONTINUOUS
 70
0
 71
3
 72
23
 73
19
 74
17
 42
0.0000001
 43
0.0000001
 44
0.0000000001
 12
-1.4875730608
 22
0.2937442419
 32
0.0
 13
0.0
 23
1.5162978899
 33
0.0
 40
0.0
 40
0.0
 40
0.0
 40
0.0
 40
0.0577153734
 40
0.1166118493
 40
0.1766702327
 40
0.2378290134
 40
0.2999887268
 40
0.3630170261
 40
0.4267542005
 40
0.4910189598
 40
0.55561437
 40
0.6203338659
 40
0.6849673021
 40
0.7493070144
 40
0.8131538738
 40
0.8763233094
 40
0.9386512613
 40
1.0
 40
1.0
 40
1.0
 40
1.0
 10
-8.1927158308
 20
-10.271949328
 30
0.0
 10
-8.2213344423
 20
-10.2662981418
 30
0.0
 10
-8.2786035805
 20
-10.2518752809
 30
0.0
 10
-8.3627557026
 20
-10.221620201
 30
0.0
 10
-8.4452543006
 20
-10.1828187735
 30
0.0
 10
-8.525300193
 20
-10.1358517767
 30
0.0
 10
-8.6021337768
 20
-10.081173259
 30
0.0
 10
-8.6750217261
 20
-10.0193103322
 30
0.0
 10
-8.7432692613
 20
-9.950857425
 30
0.0
 10
-8.8062251431
 20
-9.876471178
 30
0.0
 10
-8.8632882695
 20
-9.796864315
 30
0.0
 10
-8.9139132998
 20
-9.7127989806
 30
0.0
 10
-8.9576158923
 20
-9.6250796345
 30
0.0
 10
-8.9939772921
 20
-9.5345450896
 30
0.0
 10
-9.0226482693
 20
-9.4420617819
 30
0.0
 10
-9.0433523178
 20
-9.3485110017
 30
0.0
 10
-9.0558881974
 20
-9.2547973284
 30
0.0
 10
-9.0587412346
 20
-9.1922542899
 30
0.0
 10
-9.0587412346
 20
-9.1612466355
 30
0.0
 11
-8.1927158308
 21
-10.271949328
 31
0.0
 11
-8.2776011643
 21
-10.250662533
 31
0.0
 11
-8.3616690057
 21
-10.2205309878
 31
0.0
 11
-8.4441097356
 21
-10.1818448758
 31
0.0
 11
-8.5241294048
 21
-10.1349767652
 31
0.0
 11
-8.6009573801
 21
-10.0803780217
 31
0.0
 11
-8.6738537662
 21
-10.0185744609
 31
0.0
 11
-8.7421165309
 21
-9.950161285
 31
0.0
 11
-8.8050882665
 21
-9.8757973503
 31
0.0
 11
-8.8621625208
 21
-9.796198822
 31
0.0
 11
-8.9127896375
 21
-9.7121322775
 31
0.0
 11
-8.9564820498
 21
-9.6244073236
 31
0.0
 11
-8.992818976
 21
-9.5338687996
 31
0.0
 11
-9.0214504714
 21
-9.4413886409
 31
0.0
 11
-9.0421007993
 21
-9.3478574821
 31
0.0
 11
-9.0545710855
 21
-9.2541760792
 31
0.0
 11
-9.0587412346
 21
-9.1612466355
 31
0.0
  0
SPLINE
  5
4A0
100
AcDbEntity
  8
RACCORDO
100
AcDbSpline
 62
7
  6
CONTINUOUS
 70
0
 71
3
 72
12
 73
8
 74
6
 42
0.0000001
 43
0.0000001
 44
0.0000000001
 12
0.1741176629
 22
0.1031466533
 32
0.0
 13
0.1988763729
 23
-0.039294526
 33
0.0
 40
0.0
 40
0.0
 40
0.0
 40
0.0
 40
0.2707504189
 40
0.522097534
 40
0.7590200742
 40
0.9880339951
 40
1.0
 40
1.0
 40
1.0
 40
1.0
 10
26.8483003206
 20
42.5601645764
 30
0.0
 10
26.864014464
 20
42.5694735763
 30
0.0
 10
26.8955538886
 20
42.5854792602
 30
0.0
 10
26.9445502043
 20
42.6011670704
 30
0.0
 10
26.9928598374
 20
42.6072796454
 30
0.0
 10
27.0252359198
 20
42.6047529248
 30
0.0
 10
27.041228409
 20
42.6016851059
 30
0.0
 10
27.0420216608
 20
42.6015283731
 30
0.0
 11
26.8483003206
 21
42.5601645764
 31
0.0
 11
26.8973077277
 21
42.5846717198
 31
0.0
 11
26.9458434597
 21
42.5998935933
 31
0.0
 11
26.9934401238
 21
42.6056834505
 31
0.0
 11
27.0396393544
 21
42.601985352
 31
0.0
 11
27.0420216608
 21
42.6015283731
 31
0.0
  0
SPLINE
  5
4A1
100
AcDbEntity
  8
RACCORDO
100
AcDbSpline
 62
253
  6
CONTINUOUS
 70
0
 71
3
 72
25
 73
21
 74
19
 42
0.0000001
 43
0.0000001
 44
0.0000000001
 12
2.2342204707
 22
-0.4353999308
 32
0.0
 13
-0.0069224813
 23
-2.2762395065
 33
0.0
 40
0.0
 40
0.0
 40
0.0
 40
0.0
 40
0.0513369489
 40
0.1035843595
 40
0.1567335053
 40
0.2107504424
 40
0.2655777137
 40
0.3211361976
 40
0.3773277993
 40
0.4340388998
 40
0.4911434588
 40
0.5485060798
 40
0.6059853807
 40
0.6634373935
 40
0.720718703
 40
0.77768967
 40
0.8342181326
 40
0.8901825286
 40
0.9454742953
 40
1.0
 40
1.0
 40
1.0
 40
1.0
 10
41.7133363406
 20
40.483002188
 30
0.0
 10
41.7515690279
 20
40.4755514867
 30
0.0
 10
41.8280620349
 20
40.4569617823
 30
0.0
 10
41.9408378472
 20
40.4187873503
 30
0.0
 10
42.0518354662
 20
40.3703703819
 30
0.0
 10
42.1602018508
 20
40.3120866681
 30
0.0
 10
42.2651221479
 20
40.2443819561
 30
0.0
 10
42.3658033742
 20
40.1677727821
 30
0.0
 10
42.4614856008
 20
40.0828419169
 30
0.0
 10
42.5514461029
 20
39.9902344209
 30
0.0
 10
42.6350052504
 20
39.8906527483
 30
0.0
 10
42.7115314145
 20
39.7848516668
 30
0.0
 10
42.780445782
 20
39.6736326438
 30
0.0
 10
42.8412267177
 20
39.5578378123
 30
0.0
 10
42.8934136377
 20
39.4383438467
 30
0.0
 10
42.936610539
 20
39.3160549346
 30
0.0
 10
42.9704889587
 20
39.1918971328
 30
0.0
 10
42.994790172
 20
39.0668070488
 30
0.0
 10
43.00932731
 20
38.9417439665
 30
0.0
 10
43.012456225
 20
38.8583747722
 30
0.0
 10
43.0123304073
 20
38.8170035845
 30
0.0
 11
41.7133363406
 21
40.483002188
 31
0.0
 11
41.826908256
 21
40.4554943342
 31
0.0
 11
41.9395868043
 21
40.4174489085
 31
0.0
 11
42.0505107864
 21
40.3691559399
 31
0.0
 11
42.158835047
 21
40.3109833864
 31
0.0
 11
42.2637356063
 21
40.2433737942
 31
0.0
 11
42.3644143535
 21
40.1668415378
 31
0.0
 11
42.460104847
 21
40.0819692286
 31
0.0
 11
42.5500788977
 21
39.989402775
 31
0.0
 11
42.6336519346
 21
39.8898464899
 31
0.0
 11
42.7101879413
 21
39.7840580211
 31
0.0
 11
42.779104458
 21
39.6728424537
 31
0.0
 11
42.8398771142
 21
39.5570459808
 31
0.0
 11
42.8920434044
 21
39.4375497923
 31
0.0
 11
42.9352062069
 21
39.3152635797
 31
0.0
 11
42.9690371359
 21
39.1911177491
 31
0.0
 11
42.9932788148
 21
39.0660566133
 31
0.0
 11
43.0077465322
 21
38.9410330451
 31
0.0
 11
43.0123304073
 21
38.8170035845
 31
0.0
  0
SPLINE
  5
4A2
100
AcDbEntity
  8
RACCORDO
100
AcDbSpline
 62
253
  6
CONTINUOUS
 70
0
 71
3
 72
18
 73
14
 74
12
 42
0.0000001
 43
0.0000001
 44
0.0000000001
 12
0.0035651884
 22
-1.1676796728
 32
0.0
 13
-0.9747130052
 23
-0.6439959136
 33
0.0
 40
0.0
 40
0.0
 40
0.0
 40
0.0
 40
0.1042508188
 40
0.206735542
 40
0.3074108653
 40
0.4062901858
 40
0.5034450873
 40
0.5990045754
 40
0.6931534119
 40
0.7861287752
 40
0.8782132698
 40
0.9697249697
 40
1.0
 40
1.0
 40
1.0
 40
1.0
 10
43.0123304105
 20
-35.7187127602
 30
0.0
 10
43.0124543018
 20
-35.7592899476
 30
0.0
 10
43.0094760799
 20
-35.8398086631
 30
0.0
 10
42.9950816591
 20
-35.958731313
 30
0.0
 10
42.9708990136
 20
-36.0739364031
 30
0.0
 10
42.9371034259
 20
-36.1845360044
 30
0.0
 10
42.8939427663
 20
-36.2896887433
 30
0.0
 10
42.8417363392
 20
-36.3885886013
 30
0.0
 10
42.780873752
 20
-36.4804747226
 30
0.0
 10
42.7118132164
 20
-36.5646366437
 30
0.0
 10
42.6350791287
 20
-36.6404210517
 30
0.0
 10
42.5698617089
 20
-36.6924089318
 30
0.0
 10
42.5307567246
 20
-36.719254554
 30
0.0
 10
42.520920236
 20
-36.7257535526
 30
0.0
 11
43.0123304105
 21
-35.7187127602
 31
0.0
 11
43.0077463612
 21
-35.8403585486
 31
0.0
 11
42.9932784761
 21
-35.9591506437
 31
0.0
 11
42.9690366276
 21
-36.0741810702
 31
0.0
 11
42.9352055329
 21
-36.1845733165
 31
0.0
 11
42.8920425746
 21
-36.2894877071
 31
0.0
 11
42.8398761333
 21
-36.3881260147
 31
0.0
 11
42.7791033301
 21
-36.4797373316
 31
0.0
 11
42.7101866767
 21
-36.5636245173
 31
0.0
 11
42.6336505445
 21
-36.6391493163
 31
0.0
 11
42.550077391
 21
-36.7057369606
 31
0.0
 11
42.520920236
 21
-36.7257535526
 31
0.0
  0
SPLINE
  5
4A3
100
AcDbEntity
  8
DRAFT
100
AcDbSpline
 62
7
  6
CONTINUOUS
 70
0
 71
3
 72
10
 73
6
 74
4
 42
0.0000001
 43
0.0000001
 44
0.0000000001
 12
-14.5964192326
 22
-8.2137509591
 32
0.0
 13
-14.612289826
 23
-8.1854855637
 33
0.0
 40
0.0
 40
0.0
 40
0.0
 40
0.0
 40
0.4190490486
 40
0.8148550927
 40
1.0
 40
1.0
 40
1.0
 40
1.0
 10
-5.2482294579
 20
-16.3919096844
 30
0.0
 10
-7.2871013219
 20
-17.5392311926
 30
0.0
 10
-11.2524048841
 20
-19.7690855824
 30
0.0
 10
-16.120652139
 20
-22.5020678385
 30
0.0
 10
-18.9499310413
 20
-24.0878961607
 30
0.0
 10
-19.8517280563
 20
-24.5930631493
 30
0.0
 11
-5.2482294579
 21
-16.3919096844
 31
0.0
 11
-11.3659380335
 21
-19.8319311777
 31
0.0
 11
-17.1466974685
 21
-23.0769188983
 31
0.0
 11
-19.8517280563
 21
-24.5930631493
 31
0.0
  0
SPLINE
  5
4A4
100
AcDbEntity
  8
RACCORDO
100
AcDbSpline
 62
7
  6
CONTINUOUS
 70
0
 71
3
 72
23
 73
19
 74
17
 42
0.0000001
 43
0.0000001
 44
0.0000000001
 12
0.0
 22
-1.5162978899
 32
0.0
 13
1.4875730608
 23
-0.2937442419
 33
0.0
 40
0.0
 40
0.0
 40
0.0
 40
0.0
 40
0.0613487387
 40
0.1236766906
 40
0.1868461262
 40
0.2506929856
 40
0.3150326979
 40
0.3796661341
 40
0.44438563
 40
0.5089810402
 40
0.5732457995
 40
0.6369829739
 40
0.7000112732
 40
0.7621709866
 40
0.8233297673
 40
0.8833881507
 40
0.9422846266
 40
1.0
 40
1.0
 40
1.0
 40
1.0
 10
-8.9087412346
 20
-9.0723871957
 30
0.0
 10
-8.9087412346
 20
-9.1033948501
 30
0.0
 10
-8.9058881974
 20
-9.1659378886
 30
0.0
 10
-8.8933523178
 20
-9.2596515619
 30
0.0
 10
-8.8726482693
 20
-9.3532023421
 30
0.0
 10
-8.8439772921
 20
-9.4456856498
 30
0.0
 10
-8.8076158923
 20
-9.5362201946
 30
0.0
 10
-8.7639132998
 20
-9.6239395408
 30
0.0
 10
-8.7132882695
 20
-9.7080048752
 30
0.0
 10
-8.6562251431
 20
-9.7876117381
 30
0.0
 10
-8.5932692613
 20
-9.8619979852
 30
0.0
 10
-8.5250217261
 20
-9.9304508924
 30
0.0
 10
-8.4521337768
 20
-9.9923138192
 30
0.0
 10
-8.375300193
 20
-10.0469923369
 30
0.0
 10
-8.2952543006
 20
-10.0939593337
 30
0.0
 10
-8.2127557026
 20
-10.1327607611
 30
0.0
 10
-8.1286035805
 20
-10.1630158411
 30
0.0
 10
-8.0713344423
 20
-10.177438702
 30
0.0
 10
-8.0427158308
 20
-10.1830898882
 30
0.0
 11
-8.9087412346
 21
-9.0723871957
 31
0.0
 11
-8.9045710855
 21
-9.1653166394
 31
0.0
 11
-8.8921007993
 21
-9.2589980423
 31
0.0
 11
-8.8714504714
 21
-9.3525292011
 31
0.0
 11
-8.842818976
 21
-9.4450093598
 31
0.0
 11
-8.8064820498
 21
-9.5355478838
 31
0.0
 11
-8.7627896375
 21
-9.6232728377
 31
0.0
 11
-8.7121625208
 21
-9.7073393822
 31
0.0
 11
-8.6550882665
 21
-9.7869379104
 31
0.0
 11
-8.5921165309
 21
-9.8613018452
 31
0.0
 11
-8.5238537662
 21
-9.9297150211
 31
0.0
 11
-8.4509573801
 21
-9.9915185819
 31
0.0
 11
-8.3741294048
 21
-10.0461173254
 31
0.0
 11
-8.2941097356
 21
-10.0929854359
 31
0.0
 11
-8.2116690057
 21
-10.131671548
 31
0.0
 11
-8.1276011643
 21
-10.1618030932
 31
0.0
 11
-8.0427158308
 21
-10.1830898882
 31
0.0
  0
SPLINE
  5
4A5
100
AcDbEntity
  8
ASSI
100
AcDbSpline
 62
7
  6
CONTINUOUS
 70
0
 71
3
 72
21
 73
17
 74
15
 42
0.0000001
 43
0.0000001
 44
0.0000000001
 12
0.0265161492
 22
-3.2817494714
 32
0.0
 13
-2.8240136847
 23
-1.6729262835
 33
0.0
 40
0.0
 40
0.0
 40
0.0
 40
0.0
 40
0.0517628269
 40
0.1342948418
 40
0.2156392267
 40
0.2957748067
 40
0.3747057921
 40
0.4524628537
 40
0.5291036526
 40
0.6047127001
 40
0.6794004272
 40
0.7533013673
 40
0.8265713939
 40
0.8993840242
 40
0.9719258747
 40
1.0
 40
1.0
 40
1.0
 40
1.0
 10
-0.248620714
 20
9.9237797244
 30
0.0
 10
-0.2481631971
 20
9.8671555144
 30
0.0
 10
-0.2500211611
 20
9.7202239931
 30
0.0
 10
-0.2660046348
 20
9.4847234449
 30
0.0
 10
-0.3027347864
 20
9.2201484785
 30
0.0
 10
-0.3576588699
 20
8.9627591394
 30
0.0
 10
-0.4304934487
 20
8.713928031
 30
0.0
 10
-0.520860165
 20
8.4749844164
 30
0.0
 10
-0.6282871589
 20
8.247207502
 30
0.0
 10
-0.7522107885
 20
8.0318198239
 30
0.0
 10
-0.8919776901
 20
7.829980667
 30
0.0
 10
-1.0468472688
 20
7.6427794631
 30
0.0
 10
-1.215994764
 20
7.4712291584
 30
0.0
 10
-1.3985150601
 20
7.3162596203
 30
0.0
 10
-1.5537045126
 20
7.2067434297
 30
0.0
 10
-1.6474427813
 20
7.1489893965
 30
0.0
 10
-1.6738700193
 20
7.1333340824
 30
0.0
 11
-0.248620714
 21
9.9237797244
 31
0.0
 11
-0.2507982778
 21
9.7539282013
 31
0.0
 11
-0.2692684281
 21
9.4837520498
 31
0.0
 11
-0.3061101825
 21
9.219397058
 31
0.0
 11
-0.3611269743
 21
8.9622736742
 31
0.0
 11
-0.434025265
 21
8.7137537628
 31
0.0
 11
-0.5244161109
 21
8.4751632852
 31
0.0
 11
-0.6318172375
 21
8.2477752247
 31
0.0
 11
-0.7556556135
 21
8.032802795
 31
0.0
 11
-0.8952705074
 21
7.8313929671
 31
0.0
 11
-1.0499170135
 21
7.6446203495
 31
0.0
 11
-1.2187700257
 21
7.4734814549
 31
0.0
 11
-1.4009286401
 21
7.3188893835
 31
0.0
 11
-1.5954209617
 21
7.1816689508
 31
0.0
 11
-1.6738700193
 21
7.1333340824
 31
0.0
  0
SPLINE
  5
4A6
100
AcDbEntity
  8
0
100
AcDbSpline
 62
7
  6
CONTINUOUS
 70
0
 71
3
 72
14
 73
10
 74
8
 42
0.0000001
 43
0.0000001
 44
0.0000000001
 12
0.9924541003
 22
-0.1959753676
 32
0.0
 13
0.9250897371
 23
0.4104957188
 33
0.0
 40
0.0
 40
0.0
 40
0.0
 40
0.0
 40
0.1652122209
 40
0.3276640355
 40
0.487598753
 40
0.6453453476
 40
0.8013107676
 40
0.9559680056
 40
1.0
 40
1.0
 40
1.0
 40
1.0
 10
-3.5625888119
 20
8.5493410746
 30
0.0
 10
-3.5079336299
 20
8.5385485661
 30
0.0
 10
-3.3985264136
 20
8.5218987801
 30
0.0
 10
-3.2341652167
 20
8.5121558496
 30
0.0
 10
-3.0721112067
 20
8.5179351711
 30
0.0
 10
-2.9135552288
 20
8.5392120402
 30
0.0
 10
-2.7596468894
 20
8.575844044
 30
0.0
 10
-2.6465415654
 20
8.6153422412
 30
0.0
 10
-2.5848696506
 20
8.6416198018
 30
0.0
 10
-2.5712918019
 20
8.6476447835
 30
0.0
 11
-3.5625888119
 21
8.5493410746
 31
0.0
 11
-3.3973396206
 21
8.5243268936
 31
0.0
 11
-3.2332810536
 21
8.5147265808
 31
0.0
 11
-3.0715951566
 21
8.5206093066
 31
0.0
 11
-2.91344688
 21
8.541932686
 31
0.0
 11
-2.759975686
 21
8.5785430834
 31
0.0
 11
-2.6122873379
 21
8.6301767201
 31
0.0
 11
-2.5712918019
 21
8.6476447835
 31
0.0
  0
SPLINE
  5
4A7
100
AcDbEntity
  8
SMUSSO
100
AcDbSpline
 62
7
  6
CONTINUOUS
 70
0
 71
3
 72
24
 73
20
 74
18
 42
0.0000001
 43
0.0000001
 44
0.0000000001
 12
1.8873861678
 22
-0.3726935058
 32
0.0
 13
0.1088079167
 23
1.9213469514
 33
0.0
 40
0.0
 40
0.0
 40
0.0
 40
0.0
 40
0.0629745185
 40
0.1248109716
 40
0.1856244678
 40
0.2455716875
 40
0.3048462447
 40
0.3636716222
 40
0.4222918563
 40
0.4809605419
 40
0.5399290117
 40
0.5994347145
 40
0.6596907697
 40
0.7208774602
 40
0.7831360884
 40
0.8465652867
 40
0.911219599
 40
0.9771099915
 40
1.0
 40
1.0
 40
1.0
 40
1.0
 10
-3.5625888119
 20
9.2541105402
 30
0.0
 10
-3.5229697335
 20
9.2462871422
 30
0.0
 10
-3.4436464439
 20
9.2345271213
 30
0.0
 10
-3.3245435187
 20
9.2289291274
 30
0.0
 10
-3.2074178296
 20
9.2355935634
 30
0.0
 10
-3.093290781
 20
9.2544797905
 30
0.0
 10
-2.983145458
 20
9.2854369481
 30
0.0
 10
-2.8779395044
 20
9.3282069648
 30
0.0
 10
-2.7785887978
 20
9.3824241977
 30
0.0
 10
-2.6859582828
 20
9.4476184919
 30
0.0
 10
-2.6008513886
 20
9.523220238
 30
0.0
 10
-2.5240013733
 20
9.6085675462
 30
0.0
 10
-2.4560644606
 20
9.7029146922
 30
0.0
 10
-2.3976149702
 20
9.8054410296
 30
0.0
 10
-2.349142015
 20
9.9152597458
 30
0.0
 10
-2.3110472391
 20
10.0314262086
 30
0.0
 10
-2.2836431427
 20
10.1529459689
 30
0.0
 10
-2.2708403416
 20
10.2506369985
 30
0.0
 10
-2.266773092
 20
10.3074482298
 30
0.0
 10
-2.2659428873
 20
10.3221081125
 30
0.0
 11
-3.5625888119
 21
9.2541105402
 31
0.0
 11
-3.4427297594
 21
9.2364555155
 31
0.0
 11
-3.3238930999
 21
9.2309763407
 31
0.0
 11
-3.2070927108
 21
9.2377200721
 31
0.0
 11
-3.0933250977
 21
9.256629227
 31
0.0
 11
-2.9835609045
 21
9.2875425271
 31
0.0
 11
-2.8787366211
 21
9.3301962743
 31
0.0
 11
-2.7797465979
 21
9.3842265981
 31
0.0
 11
-2.6874354108
 21
9.4491725613
 31
0.0
 11
-2.6025906558
 21
9.5244800911
 31
0.0
 11
-2.5259362283
 21
9.6095067069
 31
0.0
 11
-2.4581261462
 21
9.7035270012
 31
0.0
 11
-2.3997389685
 21
9.8057388292
 31
0.0
 11
-2.3512728591
 21
9.9152701523
 31
0.0
 11
-2.3131413351
 21
10.0311864796
 31
0.0
 11
-2.2856697388
 21
10.15249884
 31
0.0
 11
-2.269092461
 21
10.2781722218
 31
0.0
 11
-2.2659428873
 21
10.3221081125
 31
0.0
  0
SPLINE
  5
4A8
100
AcDbEntity
  8
SMUSSO
100
AcDbSpline
 62
7
  6
CONTINUOUS
 70
0
 71
3
 72
24
 73
20
 74
18
 42
0.0000001
 43
0.0000001
 44
0.0000000001
 12
0.1210913703
 22
-2.1858229171
 32
0.0
 13
2.1470690727
 23
-0.4239719
 33
0.0
 40
0.0
 40
0.0
 40
0.0
 40
0.0
 40
0.0206850909
 40
0.0815732153
 40
0.1432524251
 40
0.2055835525
 40
0.2684098532
 40
0.3315615613
 40
0.3948605016
 40
0.4581247322
 40
0.5211731964
 40
0.5838303737
 40
0.645930912
 40
0.7073242235
 40
0.7678790037
 40
0.8274876213
 40
0.8860702781
 40
0.943578819
 40
1.0
 40
1.0
 40
1.0
 40
1.0
 10
-4.8592343103
 20
10.83418585
 30
0.0
 10
-4.8583993817
 20
10.8191145347
 30
0.0
 10
-4.8542546542
 20
10.7597267374
 30
0.0
 10
-4.8411805833
 20
10.6559279487
 30
0.0
 10
-4.8136393857
 20
10.5237405276
 30
0.0
 10
-4.7754546828
 20
10.3927573483
 30
0.0
 10
-4.7269530154
 20
10.2640886165
 30
0.0
 10
-4.6685475254
 20
10.1388250912
 30
0.0
 10
-4.6007345838
 20
10.0180289211
 30
0.0
 10
-4.5240896707
 20
9.9027246942
 30
0.0
 10
-4.4392625379
 20
9.7938908048
 30
0.0
 10
-4.3469717268
 20
9.6924512389
 30
0.0
 10
-4.247998442
 20
9.5992678534
 30
0.0
 10
-4.1431800882
 20
9.5151332795
 30
0.0
 10
-4.0334027237
 20
9.4407643409
 30
0.0
 10
-3.919595597
 20
9.3767966734
 30
0.0
 10
-3.8027167214
 20
9.3237782585
 30
0.0
 10
-3.6837701907
 20
9.2821702349
 30
0.0
 10
-3.6029688695
 20
9.2620842053
 30
0.0
 10
-3.5625888119
 20
9.2541105402
 30
0.0
 11
-4.8592343103
 21
10.83418585
 31
0.0
 11
-4.8560851639
 21
10.7890138409
 31
0.0
 11
-4.8395078872
 21
10.6567935806
 31
0.0
 11
-4.812036292
 21
10.5246318392
 31
0.0
 11
-4.773904769
 21
10.3936561964
 31
0.0
 11
-4.7254386604
 21
10.2649841111
 31
0.0
 11
-4.6670514834
 21
10.139713385
 31
0.0
 11
-4.5992414018
 21
10.0189127968
 31
0.0
 11
-4.5225869746
 21
9.9036129821
 31
0.0
 11
-4.4377422198
 21
9.7947976405
 31
0.0
 11
-4.3454310327
 21
9.6933951411
 31
0.0
 11
-4.2464410093
 21
9.6002706027
 31
0.0
 11
-4.1416167255
 21
9.5162185117
 31
0.0
 11
-4.0318525317
 21
9.4419559451
 31
0.0
 11
-3.9180849179
 21
9.3781164497
 31
0.0
 11
-3.8012845284
 21
9.3252446415
 31
0.0
 11
-3.6824478665
 21
9.2837915529
 31
0.0
 11
-3.5625888119
 21
9.2541105402
 31
0.0
  0
SPLINE
  5
4A9
100
AcDbEntity
  8
SMUSSO
100
AcDbSpline
 62
7
  6
CONTINUOUS
 70
0
 71
3
 72
25
 73
21
 74
19
 42
0.0000001
 43
0.0000001
 44
0.0000000001
 12
1.6091557577
 22
-0.3177526205
 32
0.0
 13
-0.0440251371
 23
1.6401086073
 33
0.0
 40
0.0
 40
0.0
 40
0.0
 40
0.0
 40
0.057414012
 40
0.1138225659
 40
0.1693192414
 40
0.2240351052
 40
0.2781340564
 40
0.3318059572
 40
0.3852580795
 40
0.4387079239
 40
0.4923729799
 40
0.5464616089
 40
0.6011633425
 40
0.6566426809
 40
0.7130323862
 40
0.7704309923
 40
0.8288997268
 40
0.8884637171
 40
0.9491118169
 40
1.0
 40
1.0
 40
1.0
 40
1.0
 10
-3.7125888119
 20
9.4471588867
 30
0.0
 10
-3.6817927825
 20
9.4410777357
 30
0.0
 10
-3.6201362609
 20
9.4318518483
 30
0.0
 10
-3.5275395773
 20
9.4270971888
 30
0.0
 10
-3.4363911899
 20
9.4315991601
 30
0.0
 10
-3.3474433493
 20
9.445331533
 30
0.0
 10
-3.261418545
 20
9.4681916793
 30
0.0
 10
-3.1790214486
 20
9.5000000594
 30
0.0
 10
-3.1009281109
 20
9.5405009356
 30
0.0
 10
-3.0277798207
 20
9.5893636192
 30
0.0
 10
-2.960175221
 20
9.6461862534
 30
0.0
 10
-2.8986646803
 20
9.7105000117
 30
0.0
 10
-2.8437449973
 20
9.7817749516
 30
0.0
 10
-2.7958559043
 20
9.8594256291
 30
0.0
 10
-2.755377104
 20
9.9428177057
 30
0.0
 10
-2.7226267597
 20
10.0312731678
 30
0.0
 10
-2.697859881
 20
10.1240765192
 30
0.0
 10
-2.6812674731
 20
10.2204795943
 30
0.0
 10
-2.673467806
 20
10.3138161978
 30
0.0
 10
-2.6730567612
 20
10.3748490164
 30
0.0
 10
-2.6738035476
 20
10.4026697321
 30
0.0
 11
-3.7125888119
 21
9.4471588867
 31
0.0
 11
-3.6194414095
 21
9.4333045081
 31
0.0
 11
-3.5270362411
 21
9.4286383086
 31
0.0
 11
-3.4361234303
 21
9.4332007109
 31
0.0
 11
-3.3474370724
 21
9.4469544733
 31
0.0
 11
-3.2616908128
 21
9.4697889639
 31
0.0
 11
-3.1795743114
 21
9.5015205835
 31
0.0
 11
-3.1017495598
 21
9.5418936334
 31
0.0
 11
-3.0288430456
 21
9.590583059
 31
0.0
 11
-2.9614418212
 21
9.6471967838
 31
0.0
 11
-2.9000882383
 21
9.7112792968
 31
0.0
 11
-2.8452766733
 21
9.7823142802
 31
0.0
 11
-2.7974481856
 21
9.8597301327
 31
0.0
 11
-2.7569881174
 21
9.9429031543
 31
0.0
 11
-2.724222011
 21
10.0311641648
 31
0.0
 11
-2.6994139002
 21
10.1238019842
 31
0.0
 11
-2.6827633977
 21
10.2200712232
 31
0.0
 11
-2.6744046574
 21
10.3191961522
 31
0.0
 11
-2.6738035476
 21
10.4026697321
 31
0.0
  0
SPLINE
  5
4AA
100
AcDbEntity
  8
SMUSSO
100
AcDbSpline
 62
7
  6
CONTINUOUS
 70
0
 71
3
 72
25
 73
21
 74
19
 42
0.0000001
 43
0.0000001
 44
0.0000000001
 12
-0.0501855423
 22
-1.8523596121
 32
0.0
 13
1.8174199071
 23
-0.3588775885
 33
0.0
 40
0.0
 40
0.0
 40
0.0
 40
0.0
 40
0.0451635391
 40
0.1006376397
 40
0.1568769138
 40
0.2137705884
 40
0.2711916313
 40
0.3289990574
 40
0.3870430327
 40
0.4451673702
 40
0.5032144959
 40
0.5610280953
 40
0.618458136
 40
0.6753637167
 40
0.731617234
 40
0.7871073584
 40
0.8417441778
 40
0.895461446
 40
0.9482181553
 40
1.0
 40
1.0
 40
1.0
 40
1.0
 10
-4.7513753385
 20
10.8128723296
 30
0.0
 10
-4.7521308574
 20
10.7849859577
 30
0.0
 10
-4.7516544459
 20
10.7227893002
 30
0.0
 10
-4.7437092975
 20
10.6261394083
 30
0.0
 10
-4.7270014581
 20
10.5232662286
 30
0.0
 10
-4.7021466656
 20
10.4208183664
 30
0.0
 10
-4.6693462262
 20
10.3196157708
 30
0.0
 10
-4.6288643338
 20
10.2204680764
 30
0.0
 10
-4.5810261821
 20
10.1241689949
 30
0.0
 10
-4.5262152733
 20
10.0314892597
 30
0.0
 10
-4.4648706249
 20
9.9431712509
 30
0.0
 10
-4.3974830316
 20
9.8599223604
 30
0.0
 10
-4.3245913068
 20
9.7824099265
 30
0.0
 10
-4.2467777763
 20
9.7112555543
 30
0.0
 10
-4.1646641554
 20
9.6470309495
 30
0.0
 10
-4.0789058873
 20
9.5902525784
 30
0.0
 10
-3.9901881304
 20
9.5413787862
 30
0.0
 10
-3.8992167093
 20
9.5008041232
 30
0.0
 10
-3.8067318727
 20
9.4688646454
 30
0.0
 10
-3.743958597
 20
9.4533533345
 30
0.0
 10
-3.7125888119
 20
9.4471588867
 30
0.0
 11
-4.7513753385
 21
10.8128723296
 31
0.0
 11
-4.7507727048
 21
10.7292007808
 31
0.0
 11
-4.7424134605
 21
10.6267747743
 31
0.0
 11
-4.7257624918
 21
10.523929938
 31
0.0
 11
-4.7009539848
 21
10.4214949612
 31
0.0
 11
-4.6681875403
 21
10.3202939905
 31
0.0
 11
-4.6277271941
 21
10.2211424454
 31
0.0
 11
-4.5798984859
 21
10.1248380823
 31
0.0
 11
-4.5250867562
 21
10.0321567588
 31
0.0
 11
-4.4637330629
 21
9.943844273
 31
0.0
 11
-4.3963317745
 21
9.8606121619
 31
0.0
 11
-4.3234252551
 21
9.7831301497
 31
0.0
 11
-4.2456005431
 21
9.7120221299
 31
0.0
 11
-4.1634841114
 21
9.6478605726
 31
0.0
 11
-4.0777379411
 21
9.5911626009
 31
0.0
 11
-3.989051738
 21
9.5423842275
 31
0.0
 11
-3.8981390972
 21
9.5019178402
 31
0.0
 11
-3.8057340731
 21
9.4700907803
 31
0.0
 11
-3.7125888119
 21
9.4471588867
 31
0.0
  0
SPLINE
  5
4AB
100
AcDbEntity
  8
0
100
AcDbSpline
 62
7
  6
CONTINUOUS
 70
0
 71
3
 72
13
 73
9
 74
7
 42
0.0000001
 43
0.0000001
 44
0.0000000001
 12
0.0
 22
-2.2884000873
 32
0.0
 13
0.7407076872
 23
-2.1654965506
 33
0.0
 40
0.0
 40
0.0
 40
0.0
 40
0.0
 40
0.1653319948
 40
0.3324655881
 40
0.501260074
 40
0.671551966
 40
0.8431577668
 40
1.0
 40
1.0
 40
1.0
 40
1.0
 10
8.0495923506
 20
8.1336867138
 30
0.0
 10
8.0495923506
 20
8.0075714633
 30
0.0
 10
8.0571284725
 20
7.7539075115
 30
0.0
 10
8.0905407369
 20
7.372811059
 30
0.0
 10
8.1459841427
 20
6.9904604488
 30
0.0
 10
8.2232283885
 20
6.6084396839
 30
0.0
 10
8.318908522
 20
6.2400364726
 30
0.0
 10
8.3942816911
 20
6.0009941674
 30
0.0
 10
8.4330064404
 20
5.8877803957
 30
0.0
 11
8.0495923506
 21
8.1336867138
 31
0.0
 11
8.0607043383
 21
7.7555041767
 31
0.0
 11
8.0939946398
 21
7.3744872061
 31
0.0
 11
8.1493264582
 21
6.9922014825
 31
0.0
 11
8.2264724231
 21
6.6102178999
 31
0.0
 11
8.3251155251
 21
6.2301061107
 31
0.0
 11
8.4330064404
 21
5.8877803957
 31
0.0
  0
SPLINE
  5
4AC
100
AcDbEntity
  8
RACCORDO
100
AcDbSpline
 62
253
  6
CONTINUOUS
 70
0
 71
3
 72
11
 73
7
 74
5
 42
0.0000001
 43
0.0000001
 44
0.0000000001
 12
-0.1939607323
 22
0.0382354773
 32
0.0
 13
-0.1709626738
 23
-0.0984736655
 33
0.0
 40
0.0
 40
0.0
 40
0.0
 40
0.0
 40
0.1829625779
 40
0.4379638984
 40
0.7081578199
 40
1.0
 40
1.0
 40
1.0
 40
1.0
 10
41.9027024915
 20
40.5218121324
 30
0.0
 10
41.8908733063
 20
40.5241440196
 30
0.0
 10
41.8620961025
 20
40.5274129916
 30
0.0
 10
41.8153198664
 20
40.5237177181
 30
0.0
 10
41.7633768767
 20
40.5088245384
 30
0.0
 10
41.7299731598
 20
40.4925807168
 30
0.0
 10
41.7133417866
 20
40.483001127
 30
0.0
 11
41.9027024915
 21
40.5218121324
 31
0.0
 11
41.8668030444
 21
40.5259059446
 31
0.0
 11
41.8166302717
 21
40.5221861813
 31
0.0
 11
41.7652911005
 21
40.5078327359
 31
0.0
 11
41.7133417866
 21
40.483001127
 31
0.0
  0
SPLINE
  5
4AD
100
AcDbEntity
  8
DRAFT
100
AcDbSpline
 62
7
  6
CONTINUOUS
 70
0
 71
3
 72
37
 73
33
 74
31
 42
0.0000001
 43
0.0000001
 44
0.0000000001
 12
3.8046928504
 22
6.6597445146
 32
0.0
 13
-7.5246341721
 23
1.4858550608
 33
0.0
 40
0.0
 40
0.0
 40
0.0
 40
0.0
 40
0.0300598561
 40
0.0605228976
 40
0.0914147287
 40
0.1227518507
 40
0.1545417128
 40
0.1867829494
 40
0.219465772
 40
0.2525724795
 40
0.2860780619
 40
0.3199508712
 40
0.3541533421
 40
0.3886427471
 40
0.4233719761
 40
0.458290331
 40
0.4933443315
 40
0.5284785261
 40
0.563636308
 40
0.5987607318
 40
0.6337953314
 40
0.6686849367
 40
0.7033764886
 40
0.7378198499
 40
0.771968609
 40
0.8057808729
 40
0.8392200432
 40
0.872255566
 40
0.904863646
 40
0.9370279067
 40
0.9687399111
 40
1.0
 40
1.0
 40
1.0
 40
1.0
 10
-5.2482294579
 20
-16.3919096844
 30
0.0
 10
-5.2101066181
 20
-16.3251793638
 30
0.0
 10
-5.1386054224
 20
-16.1877489477
 30
0.0
 10
-5.0467454656
 20
-15.9726167697
 30
0.0
 10
-4.9700023828
 20
-15.7481803674
 30
0.0
 10
-4.9087461861
 20
-15.5155360165
 30
0.0
 10
-4.8632606958
 20
-15.2757966479
 30
0.0
 10
-4.8337579021
 20
-15.0301134134
 30
0.0
 10
-4.8203729722
 20
-14.7796631826
 30
0.0
 10
-4.8231648793
 20
-14.5256451922
 30
0.0
 10
-4.8421158499
 20
-14.269275017
 30
0.0
 10
-4.8771315245
 20
-14.0117791177
 30
0.0
 10
-4.9280413409
 20
-13.7543891016
 30
0.0
 10
-4.9945992947
 20
-13.4983359707
 30
0.0
 10
-5.0764850465
 20
-13.2448443222
 30
0.0
 10
-5.173305391
 20
-12.9951265561
 30
0.0
 10
-5.2845960816
 20
-12.7503771187
 30
0.0
 10
-5.409824006
 20
-12.5117668186
 30
0.0
 10
-5.5483897027
 20
-12.2804372479
 30
0.0
 10
-5.699630206
 20
-12.0574953416
 30
0.0
 10
-5.8628222044
 20
-11.8440081054
 30
0.0
 10
-6.0371854936
 20
-11.640997542
 30
0.0
 10
-6.2218867049
 20
-11.4494358041
 30
0.0
 10
-6.416043289
 20
-11.2702405989
 30
0.0
 10
-6.6187277123
 20
-11.1042708732
 30
0.0
 10
-6.8289719062
 20
-10.9523227855
 30
0.0
 10
-7.0457716927
 20
-10.8151260319
 30
0.0
 10
-7.2680920501
 20
-10.6933403652
 30
0.0
 10
-7.4948699085
 20
-10.5875529485
 30
0.0
 10
-7.7250262681
 20
-10.498274288
 30
0.0
 10
-7.9574447404
 20
-10.4259408193
 30
0.0
 10
-8.1143089196
 20
-10.3889812544
 30
0.0
 10
-8.1927158308
 20
-10.3734986007
 30
0.0
 11
-5.2482294579
 21
-16.3919096844
 31
0.0
 11
-5.1417171569
 21
-16.1874305679
 31
0.0
 11
-5.0498524823
 21
-15.9725981302
 31
0.0
 11
-4.9730762981
 21
-15.7484437743
 31
0.0
 11
-4.9117570415
 21
-15.5160436307
 31
0.0
 11
-4.8661889567
 21
-15.2765133922
 31
0.0
 11
-4.8365906841
 21
-15.0310029607
 31
0.0
 11
-4.8231042126
 21
-14.7806909281
 31
0.0
 11
-4.8257941992
 21
-14.5267789215
 31
0.0
 11
-4.8446476599
 21
-14.2704858365
 31
0.0
 11
-4.8795740326
 21
-14.0130419892
 31
0.0
 11
-4.9304056125
 21
-13.7556832119
 31
0.0
 11
-4.9968983571
 21
-13.4996449238
 31
0.0
 11
-5.0787330578
 21
-13.2461562032
 31
0.0
 11
-5.1755168712
 21
-12.9964338897
 31
0.0
 11
-5.2867852049
 21
-12.751676746
 31
0.0
 11
-5.4120039461
 21
-12.5130597055
 31
0.0
 11
-5.5505720242
 21
-12.2817282348
 31
0.0
 11
-5.701824295
 21
-12.0587928375
 31
0.0
 11
-5.8650347314
 21
-11.8453237251
 31
0.0
 11
-6.0394199067
 21
-11.6423456817
 31
0.0
 11
-6.2241427534
 21
-11.4508331463
 31
0.0
 11
-6.4183165784
 21
-11.2717055364
 31
0.0
 11
-6.6210093179
 21
-11.1058228357
 31
0.0
 11
-6.831248008
 21
-10.9539814665
 31
0.0
 11
-7.0480234536
 21
-10.8169104669
 31
0.0
 11
-7.2702950696
 21
-10.6952679915
 31
0.0
 11
-7.4969958738
 21
-10.5896381514
 31
0.0
 11
-7.7270376061
 21
-10.5005282101
 31
0.0
 11
-7.9593154374
 21
-10.4283662865
 31
0.0
 11
-8.1927158308
 21
-10.3734986007
 31
0.0
  0
SPLINE
  5
4AE
100
AcDbEntity
  8
DRAFT
100
AcDbSpline
 62
7
  6
CONTINUOUS
 70
0
 71
3
 72
17
 73
13
 74
11
 42
0.0000001
 43
0.0000001
 44
0.0000000001
 12
-2.059420801
 22
0.4066643972
 32
0.0
 13
-1.7870250921
 23
-1.1026097006
 33
0.0
 40
0.0
 40
0.0
 40
0.0
 40
0.0
 40
0.1115729358
 40
0.2216185741
 40
0.3302343618
 40
0.4375473551
 40
0.5437146418
 40
0.6489203093
 40
0.7533718312
 40
0.8572955038
 40
0.9609310576
 40
1.0
 40
1.0
 40
1.0
 40
1.0
 10
-8.1927158308
 20
-10.3734986007
 30
0.0
 10
-8.2693077057
 20
-10.3583743538
 30
0.0
 10
-8.4225748214
 20
-10.3337404482
 30
0.0
 10
-8.6530083884
 20
-10.3139669358
 30
0.0
 10
-8.8813177715
 20
-10.3117223995
 30
0.0
 10
-9.1064097951
 20
-10.3270285186
 30
0.0
 10
-9.3272224141
 20
-10.3598200729
 30
0.0
 10
-9.5427067983
 20
-10.4099492216
 30
0.0
 10
-9.7518386614
 20
-10.477184247
 30
0.0
 10
-9.9536220158
 20
-10.5612103507
 30
0.0
 10
-10.1069735727
 20
-10.6408059565
 30
0.0
 10
-10.1928131572
 20
-10.6919031396
 30
0.0
 10
-10.2160855506
 20
-10.7062624045
 30
0.0
 11
-8.1927158308
 21
-10.3734986007
 31
0.0
 11
-8.4239797425
 21
-10.3364509758
 31
0.0
 11
-8.654150255
 21
-10.3168161333
 31
0.0
 11
-8.8821452543
 21
-10.3146859297
 31
0.0
 11
-9.1068894666
 21
-10.33007018
 31
0.0
 11
-9.3273238259
 21
-10.3628960862
 31
0.0
 11
-9.5424095976
 21
-10.4130086893
 31
0.0
 11
-9.7511332676
 21
-10.4801716017
 31
0.0
 11
-9.952511313
 21
-10.5640681227
 31
0.0
 11
-10.1455948308
 21
-10.6643027314
 31
0.0
 11
-10.2160855506
 21
-10.7062624045
 31
0.0
  0
SPLINE
  5
4AF
100
AcDbEntity
  8
0
100
AcDbSpline
 62
7
  6
CONTINUOUS
 70
0
 71
3
 72
15
 73
11
 74
9
 42
0.0000001
 43
0.0000001
 44
0.0000000001
 12
1.1641292537
 22
-0.2298752741
 32
0.0
 13
1.0213592339
 23
0.605044747
 33
0.0
 40
0.0
 40
0.0
 40
0.0
 40
0.0
 40
0.1371750048
 40
0.2721145143
 40
0.4050072825
 40
0.5361079493
 40
0.6657315088
 40
0.7942446984
 40
0.9220544063
 40
1.0
 40
1.0
 40
1.0
 40
1.0
 10
-3.8625888119
 20
8.371622195
 30
0.0
 10
-3.8093589999
 20
8.3611111477
 30
0.0
 10
-3.702810546
 20
8.3447715091
 30
0.0
 10
-3.542721825
 20
8.3346964187
 30
0.0
 10
-3.3847644558
 20
8.3393343012
 30
0.0
 10
-3.2300383156
 20
8.3586685209
 30
0.0
 10
-3.0796060749
 20
8.3925767318
 30
0.0
 10
-2.934509579
 20
8.4408347937
 30
0.0
 10
-2.8136817043
 20
8.4950692859
 30
0.0
 10
-2.7423440977
 20
8.5343930929
 30
0.0
 10
-2.7158072804
 20
8.5501132836
 30
0.0
 11
-3.8625888119
 21
8.371622195
 31
0.0
 11
-3.7016782371
 21
8.3470693556
 31
0.0
 11
-3.5418668447
 21
8.3371271072
 31
0.0
 11
-3.3842463086
 21
8.3418633655
 31
0.0
 11
-3.2298933368
 21
8.361245777
 31
0.0
 11
-3.0798623166
 21
8.3951419401
 31
0.0
 11
-2.9351781121
 21
8.4433203098
 31
0.0
 11
-2.796829063
 21
8.5054517789
 31
0.0
 11
-2.7158072804
 21
8.5501132836
 31
0.0
  0
SPLINE
  5
4B0
100
AcDbEntity
  8
RACCORDO
100
AcDbSpline
 62
253
  6
CONTINUOUS
 70
0
 71
3
 72
10
 73
6
 74
4
 42
0.0000001
 43
0.0000001
 44
0.0000000001
 12
-0.5761458782
 22
0.2408369928
 32
0.0
 13
-0.6124886046
 23
0.1209453207
 33
0.0
 40
0.0
 40
0.0
 40
0.0
 40
0.0
 40
0.2578863503
 40
0.6318144926
 40
1.0
 40
1.0
 40
1.0
 40
1.0
 10
-28.4493118583
 20
-23.3196793605
 30
0.0
 10
-28.4988385775
 20
-23.2989765028
 30
0.0
 10
-28.6214129523
 20
-23.251211845
 30
0.0
 10
-28.8197701431
 20
-23.1876652455
 30
0.0
 10
-28.9701639676
 20
-23.1517678301
 30
0.0
 10
-29.0453337768
 20
-23.136924392
 30
0.0
 11
-28.4493118583
 21
-23.3196793605
 31
0.0
 11
-28.5993586588
 21
-23.2612531751
 31
0.0
 11
-28.8217191886
 21
-23.1901594065
 31
0.0
 11
-29.0453337768
 21
-23.136924392
 31
0.0
  0
SPLINE
  5
4B1
100
AcDbEntity
  8
RACCORDO
100
AcDbSpline
 62
253
  6
CONTINUOUS
 70
0
 71
3
 72
11
 73
7
 74
5
 42
0.0000001
 43
0.0000001
 44
0.0000000001
 12
-0.193952552
 22
0.0382246296
 32
0.0
 13
-0.1709539016
 23
-0.0984686129
 33
0.0
 40
0.0
 40
0.0
 40
0.0
 40
0.0
 40
0.1829206887
 40
0.4379350841
 40
0.7081428586
 40
1.0
 40
1.0
 40
1.0
 40
1.0
 10
-13.7994259709
 20
51.5210564218
 30
0.0
 10
-13.8112519491
 20
51.5233871137
 30
0.0
 10
-13.840025801
 20
51.5266550518
 30
0.0
 10
-13.8867986486
 20
51.5229600448
 30
0.0
 10
-13.9387416358
 20
51.508066865
 30
0.0
 10
-13.9721453511
 20
51.491823044
 30
0.0
 10
-13.9887767235
 20
51.4822434547
 30
0.0
 11
-13.7994259709
 21
51.5210564218
 31
0.0
 11
-13.8353154728
 21
51.5251482726
 31
0.0
 11
-13.8854882434
 21
51.5214285081
 31
0.0
 11
-13.9368274122
 21
51.5070750627
 31
0.0
 11
-13.9887767235
 21
51.4822434547
 31
0.0
  0
SPLINE
  5
4B2
100
AcDbEntity
  8
0
100
AcDbSpline
 62
7
  6
CONTINUOUS
 70
0
 71
3
 72
27
 73
23
 74
21
 42
0.0000001
 43
0.0000001
 44
0.0000000001
 12
-0.2384077694
 22
-3.5553997735
 32
0.0
 13
3.4950071159
 23
-0.6901430544
 33
0.0
 40
0.0
 40
0.0
 40
0.0
 40
0.0
 40
0.0422510926
 40
0.0916654039
 40
0.141757948
 40
0.192453914
 40
0.2436649402
 40
0.2952914445
 40
0.3472250145
 40
0.3993508341
 40
0.4515501285
 40
0.5037026207
 40
0.5556889899
 40
0.6073933289
 40
0.6587055925
 40
0.7095240291
 40
0.7597575807
 40
0.8093282295
 40
0.8581732573
 40
0.9062473688
 40
0.9535246114
 40
1.0
 40
1.0
 40
1.0
 40
1.0
 10
-5.8061416187
 20
11.0211487112
 30
0.0
 10
-5.8094992816
 20
10.9710755362
 30
0.0
 10
-5.8130717649
 20
10.8621928538
 30
0.0
 10
-5.8066106037
 20
10.6938214762
 30
0.0
 10
-5.7865990421
 20
10.5164225249
 30
0.0
 10
-5.7534705229
 20
10.3388340336
 30
0.0
 10
-5.7074537714
 20
10.1622627482
 30
0.0
 10
-5.648864261
 20
9.9879084767
 30
0.0
 10
-5.5781021946
 20
9.8169560573
 30
0.0
 10
-5.4956498903
 20
9.6505673803
 30
0.0
 10
-5.4020685808
 20
9.4898735378
 30
0.0
 10
-5.2979946496
 20
9.3359671721
 30
0.0
 10
-5.1841353334
 20
9.1898950886
 30
0.0
 10
-5.0612639208
 20
9.052651197
 30
0.0
 10
-4.9302145116
 20
8.9251698419
 30
0.0
 10
-4.7918763174
 20
8.808319564
 30
0.0
 10
-4.6471878061
 20
8.7028973859
 30
0.0
 10
-4.4971298624
 20
8.6096234891
 30
0.0
 10
-4.3427213004
 20
8.5291369338
 30
0.0
 10
-4.1850048805
 20
8.4619901423
 30
0.0
 10
-4.0250673742
 20
8.4086504664
 30
0.0
 10
-3.9167327499
 20
8.3823137506
 30
0.0
 10
-3.8625888119
 20
8.371622195
 30
0.0
 11
-5.8061416187
 21
11.0211487112
 31
0.0
 11
-5.8111459704
 21
10.870703253
 31
0.0
 11
-5.8044906598
 21
10.6947908558
 31
0.0
 11
-5.7845701905
 21
10.5174517311
 31
0.0
 11
-5.7515206395
 21
10.3398972852
 31
0.0
 11
-5.7055677688
 21
10.1633403948
 31
0.0
 11
-5.6470254831
 21
9.9889871225
 31
0.0
 11
-5.5762936855
 21
9.818028478
 31
0.0
 11
-5.493855546
 21
9.6516322822
 31
0.0
 11
-5.4002742005
 21
9.4909351898
 31
0.0
 11
-5.2961889047
 21
9.337034925
 31
0.0
 11
-5.1823106666
 21
9.1909827825
 31
0.0
 11
-5.05941739
 21
9.0537764466
 31
0.0
 11
-4.9283485607
 21
8.9263531757
 31
0.0
 11
-4.7899995116
 21
8.8095833999
 31
0.0
 11
-4.6453153071
 21
8.7042647752
 31
0.0
 11
-4.4952842869
 21
8.6111167347
 31
0.0
 11
-4.3409313151
 21
8.5307755739
 31
0.0
 11
-4.183310779
 21
8.4637901043
 31
0.0
 11
-4.0234993866
 21
8.4106179046
 31
0.0
 11
-3.8625888119
 21
8.371622195
 31
0.0
  0
SPLINE
  5
4B3
100
AcDbEntity
  8
0
100
AcDbSpline
 62
7
  6
CONTINUOUS
 70
0
 71
3
 72
26
 73
22
 74
20
 42
0.0000001
 43
0.0000001
 44
0.0000000001
 12
0.1231177255
 22
-3.3246617469
 32
0.0
 13
3.2630987572
 23
-0.6443491725
 33
0.0
 40
0.0
 40
0.0
 40
0.0
 40
0.0
 40
0.001279058
 40
0.0560372743
 40
0.1115180453
 40
0.1676255433
 40
0.2242493586
 40
0.2812673987
 40
0.3385488425
 40
0.3959571263
 40
0.4533529464
 40
0.5105972675
 40
0.5675543311
 40
0.6240946554
 40
0.6800980177
 40
0.7354564001
 40
0.7900768757
 40
0.8438843916
 40
0.8968243918
 40
0.9488651928
 40
1.0
 40
1.0
 40
1.0
 40
1.0
 10
-5.5095515868
 20
10.9625939335
 30
0.0
 10
-5.5094990952
 20
10.9611764551
 30
0.0
 10
-5.5071430118
 20
10.8990769333
 30
0.0
 10
-5.4975462192
 20
10.7756903935
 30
0.0
 10
-5.4695018861
 20
10.5932361205
 30
0.0
 10
-5.4277488223
 20
10.4113060308
 30
0.0
 10
-5.3725897518
 20
10.2312036453
 30
0.0
 10
-5.3044225709
 20
10.0542194508
 30
0.0
 10
-5.2237376337
 20
9.8816217615
 30
0.0
 10
-5.1311143452
 20
9.714647696
 30
0.0
 10
-5.02721708
 20
9.5544943563
 30
0.0
 10
-4.9127904621
 20
9.4023102931
 30
0.0
 10
-4.7886540416
 20
9.2591873346
 30
0.0
 10
-4.6556964371
 20
9.126152855
 30
0.0
 10
-4.5148689323
 20
9.0041625372
 30
0.0
 10
-4.3671788587
 20
8.8940937368
 30
0.0
 10
-4.2136818734
 20
8.7967393134
 30
0.0
 10
-4.055476763
 20
8.7128026375
 30
0.0
 10
-3.8936899235
 20
8.6428913086
 30
0.0
 10
-3.7294967749
 20
8.5875185948
 30
0.0
 10
-3.6182081205
 20
8.5603239649
 30
0.0
 10
-3.5625888119
 20
8.5493410746
 30
0.0
 11
-5.5095515868
 21
10.9625939335
 31
0.0
 11
-5.5093902545
 21
10.9583416472
 31
0.0
 11
-5.4953635055
 21
10.7767507987
 31
0.0
 11
-5.4674110706
 21
10.5943450526
 31
0.0
 11
-5.4257343476
 21
10.4124386465
 31
0.0
 11
-5.3706336183
 21
10.23234222
 31
0.0
 11
-5.3025058848
 21
10.0553533722
 31
0.0
 11
-5.2218420089
 21
9.8827473118
 31
0.0
 11
-5.1292231757
 21
9.7157676692
 31
0.0
 11
-5.025316706
 21
9.5556175368
 31
0.0
 11
-4.9108712483
 21
9.4034507999
 31
0.0
 11
-4.7867113847
 21
9.2603638233
 31
0.0
 11
-4.65373169
 21
9.1273875519
 31
0.0
 11
-4.5128902858
 21
9.0054800829
 31
0.0
 11
-4.3652019377
 21
8.8955197623
 31
0.0
 11
-4.2117307437
 21
8.7982988567
 31
0.0
 11
-4.0535824672
 21
8.7145178451
 31
0.0
 11
-3.8918965701
 21
8.6447803716
 31
0.0
 11
-3.7278380031
 21
8.5895888961
 31
0.0
 11
-3.5625888119
 21
8.5493410746
 31
0.0
  0
ELLIPSE
  5
4B4
100
AcDbEntity
  8
ASSI
100
AcDbEllipse
 62
7
  6
CONTINUOUS
 10
169.51776219
 20
93.0698499935
 30
0.0
 11
-141.542032919
 21
367.6586348612
 31
0.0
 40
0.5111996685
 41
-4.5306806969
 42
-4.5275739959
  0
ELLIPSE
  5
4B5
100
AcDbEntity
  8
ASSI
100
AcDbEllipse
 62
7
  6
CONTINUOUS
 10
173.2096020808
 20
92.3408392722
 30
0.0
 11
-60.3019606824
 21
361.9774806314
 31
0.0
 40
0.527749182
 41
-4.4174802914
 42
-4.4150552551
  0
ELLIPSE
  5
4B6
100
AcDbEntity
  8
ASSI
100
AcDbEllipse
 62
7
  6
CONTINUOUS
 10
173.2099284517
 20
92.3407748252
 30
0.0
 11
-60.2974770634
 21
361.9770750139
 31
0.0
 40
0.5277491336
 41
-4.4135218686
 42
-4.4119416559
  0
ELLIPSE
  5
4B7
100
AcDbEntity
  8
ASSI
100
AcDbEllipse
 62
7
  6
CONTINUOUS
 10
190.8378062392
 20
88.8598785022
 30
0.0
 11
169.029412296
 21
321.7894776651
 31
0.0
 40
0.3341090437
 41
-4.1249605481
 42
-4.1169276013
  0
ELLIPSE
  5
4B8
100
AcDbEntity
  8
ASSI
100
AcDbEllipse
 62
7
  6
CONTINUOUS
 10
170.9261006486
 20
92.7917518457
 30
0.0
 11
-45.8613210634
 21
360.5955239124
 31
0.0
 40
0.5269680017
 41
-4.3948516721
 42
-4.3895538116
  0
ELLIPSE
  5
4B9
100
AcDbEntity
  8
ASSI
100
AcDbEllipse
 62
7
  6
CONTINUOUS
 10
188.0606465344
 20
89.4082715147
 30
0.0
 11
159.2792401833
 21
323.8976570738
 31
0.0
 40
0.3498729345
 41
2.1528932258
 42
2.1581238555
  0
ELLIPSE
  5
4BA
100
AcDbEntity
  8
ASSI
100
AcDbEllipse
 62
7
  6
CONTINUOUS
 10
185.585540001
 20
89.8970194704
 30
0.0
 11
169.0289423696
 21
321.789578672
 31
0.0
 40
0.3341098107
 41
2.1582245461
 42
2.1637549895
  0
ELLIPSE
  5
4BB
100
AcDbEntity
  8
ASSI
100
AcDbEllipse
 62
7
  6
CONTINUOUS
 10
166.4001704375
 20
93.685466564
 30
0.0
 11
-60.3021815719
 21
361.9775006142
 31
0.0
 40
0.5277491843
 41
-4.4199818006
 42
-4.4119488538
  0
ELLIPSE
  5
4BC
100
AcDbEntity
  8
ASSI
100
AcDbEllipse
 62
7
  6
CONTINUOUS
 10
186.0707435814
 20
89.8012085407
 30
0.0
 11
168.9586353897
 21
321.6512759171
 31
0.0
 40
0.3341063768
 41
-4.1249207583
 42
-4.1168843578
  0
ELLIPSE
  5
4BD
100
AcDbEntity
  8
ASSI
100
AcDbEllipse
 62
7
  6
CONTINUOUS
 10
166.8851836829
 20
93.5896932189
 30
0.0
 11
-60.2761225686
 21
361.8224133862
 31
0.0
 40
0.5277491819
 41
-4.4199424927
 42
-4.4147202555
  0
ELLIPSE
  5
4BE
100
AcDbEntity
  8
ASSI
100
AcDbEllipse
 62
7
  6
CONTINUOUS
 10
188.545538266
 20
89.3125221644
 30
0.0
 11
159.2099715751
 21
323.7591283372
 31
0.0
 40
0.3498745913
 41
-4.1266109345
 42
-4.1222173605
  0
ELLIPSE
  5
4BF
100
AcDbEntity
  8
ASSI
100
AcDbEllipse
 62
7
  6
CONTINUOUS
 10
171.4109677025
 20
92.6960073684
 30
0.0
 11
-45.843649192
 21
360.4412488543
 31
0.0
 40
0.5269681957
 41
-4.3975508637
 42
-4.3926770143
  0
ELLIPSE
  5
4C0
100
AcDbEntity
  8
ASSI
100
AcDbEllipse
 62
7
  6
CONTINUOUS
 10
191.3229171336
 20
88.7640858748
 30
0.0
 11
168.9581366942
 21
321.6513831074
 31
0.0
 40
0.3341071911
 41
-4.1182759137
 42
-4.1168846253
  0
ELLIPSE
  5
4C1
100
AcDbEntity
  8
ASSI
100
AcDbEllipse
 62
7
  6
CONTINUOUS
 10
173.6945162194
 20
92.2450854972
 30
0.0
 11
-60.2774002318
 21
361.8225289694
 31
0.0
 40
0.5277491957
 41
-4.4199444794
 42
-4.4119080588
  0
ELLIPSE
  5
4C2
100
AcDbEntity
  8
ASSI
100
AcDbEllipse
 62
7
  6
CONTINUOUS
 10
191.3223844121
 20
88.7641910688
 30
0.0
 11
168.9528964221
 21
321.6525094634
 31
0.0
 40
0.3341157478
 41
-4.121922057
 42
-4.1199952701
  0
ELLIPSE
  5
4C3
100
AcDbEntity
  8
ASSI
100
AcDbEllipse
 62
7
  6
CONTINUOUS
 10
170.0641337427
 20
92.9619605044
 30
0.0
 11
-141.4800755115
 21
367.5010577417
 31
0.0
 40
0.511200188
 41
-4.5307855953
 42
-4.5275298964
  0
ELLIPSE
  5
4C4
100
AcDbEntity
  8
ASSI
100
AcDbEllipse
 62
7
  6
CONTINUOUS
 10
170.0641337427
 20
92.9619605044
 30
0.0
 11
-141.5407098296
 21
367.658558195
 31
0.0
 40
0.511200188
 41
-4.5308722351
 42
-4.5275723297
  0
ELLIPSE
  5
4C5
100
AcDbEntity
  8
ASSI
100
AcDbEllipse
 62
7
  6
CONTINUOUS
 10
191.3223844121
 20
88.7641910688
 30
0.0
 11
169.0253048063
 21
321.7903605389
 31
0.0
 40
0.3341157478
 41
-4.1224613956
 42
-4.1200363593
  0
ELLIPSE
  5
4C6
100
AcDbEntity
  8
ASSI
100
AcDbEllipse
 62
7
  6
CONTINUOUS
 10
191.3229171336
 20
88.7640858748
 30
0.0
 11
169.0305473242
 21
321.7892337002
 31
0.0
 40
0.3341071911
 41
-4.1185072713
 42
-4.1169270586
  0
ELLIPSE
  5
4C7
100
AcDbEntity
  8
ASSI
100
AcDbEllipse
 62
7
  6
CONTINUOUS
 10
173.6945162194
 20
92.2450854972
 30
0.0
 11
-60.3032334033
 21
361.9775957675
 31
0.0
 40
0.5277491957
 41
-4.4199834389
 42
-4.4119504922
  0
ELLIPSE
  5
4C8
100
AcDbEntity
  8
ASSI
100
AcDbEllipse
 62
7
  6
CONTINUOUS
 10
188.545538266
 20
89.3125221644
 30
0.0
 11
159.2782044201
 21
323.8978822494
 31
0.0
 40
0.3498745913
 41
-4.1275576342
 42
-4.1222597939
  0
ELLIPSE
  5
4C9
100
AcDbEntity
  8
ASSI
100
AcDbEllipse
 62
7
  6
CONTINUOUS
 10
171.4109677025
 20
92.6960073684
 30
0.0
 11
-45.8632964703
 21
360.5957236753
 31
0.0
 40
0.5269681957
 41
-4.3975898233
 42
-4.3923591936
  0
ELLIPSE
  5
4CA
100
AcDbEntity
  8
ASSI
100
AcDbEllipse
 62
7
  6
CONTINUOUS
 10
186.0707435814
 20
89.8012085407
 30
0.0
 11
169.0310462335
 21
321.7891264639
 31
0.0
 40
0.3341063768
 41
-4.1249597179
 42
-4.1169267911
  0
ELLIPSE
  5
4CB
100
AcDbEntity
  8
ASSI
100
AcDbEllipse
 62
7
  6
CONTINUOUS
 10
166.8851836829
 20
93.5896932189
 30
0.0
 11
-60.3019551925
 21
361.9774801348
 31
0.0
 40
0.5277491819
 41
-4.4199814523
 42
-4.4144510089
  0
ELLIPSE
  5
4CC
100
AcDbEntity
  8
RACCORDO
100
AcDbEllipse
 62
7
  6
CONTINUOUS
 10
22.5036954215
 20
-47.3945082314
 30
0.0
 11
-0.7646456168
 21
1.2906012184
 31
0.0
 40
0.813738708
 41
3.1244231138
 42
4.0830604525
  0
ELLIPSE
  5
4CD
100
AcDbEntity
  8
RACCORDO
100
AcDbEllipse
 62
7
  6
CONTINUOUS
 10
-33.7878568939
 20
38.8964292082
 30
0.0
 11
-0.7646456168
 21
1.2906012184
 31
0.0
 40
0.813738708
 41
-0.6292523755
 42
0.0483052571
  0
ELLIPSE
  5
4CE
100
AcDbEntity
  8
RACCORDO
100
AcDbEllipse
 62
7
  6
CONTINUOUS
 10
22.5036954215
 20
27.7807940855
 30
0.0
 11
-0.7644446732
 21
1.2905939075
 31
0.0
 40
0.8138566568
 41
4.0832517753
 42
5.6539719497
  0
ENDSEC
  0
SECTION
  2
OBJECTS
  0
DICTIONARY
  5
C
100
AcDbDictionary
280
0
281
1
  3
ACAD_GROUP
350
D
  3
ACAD_MLINESTYLE
350
17
  3
ACAD_LAYOUT
350
1A
  3
ACAD_PLOTSETTINGS
350
19
  3
ACAD_PLOTSTYLENAME
350
E
  0
DICTIONARY
  5
D
102
{ACAD_REACTORS
330
C
102
}
100
AcDbDictionary
280
0
281
1
  0
ACDBDICTIONARYWDFLT
  5
E
102
{ACAD_REACTORS
330
C
102
}
100
AcDbDictionary
281
1
  3
Normal
350
F
100
AcDbDictionaryWithDefault
340
F
  0
DICTIONARY
  5
17
102
{ACAD_REACTORS
330
C
102
}
100
AcDbDictionary
280
0
281
1
  3
Standard
350
18
  0
DICTIONARY
  5
19
102
{ACAD_REACTORS
330
C
102
}
100
AcDbDictionary
281
1
  0
DICTIONARY
  5
1A
102
{ACAD_REACTORS
330
C
102
}
100
AcDbDictionary
281
1
  3
Model
350
4CF
  3
Layout1
350
4D0
  0
ACDBPLACEHOLDER
  5
F
102
{ACAD_REACTORS
330
E
102
}
  0
MLINESTYLE
  5
18
102
{ACAD_REACTORS
330
17
102
}
100
AcDbMlineStyle
  2
STANDARD
 70
0
  3

 62
256
 51
90.0
 52
90.0
 71
2
 49
0.5
 62
256
  6
BYLAYER
 49
-0.5
 62
256
  6
BYLAYER
  0
LAYOUT
  5
4CF
102
{ACAD_REACTORS
330
1A
102
}
100
AcDbPlotSettings
  1

  2
none_device
  4
ISO_A4_(297.00_x_210.00_MM)
  6

 40
0.0
 41
0.0
 42
0.0
 43
0.0
 44
297.0
 45
210.0
 46
0.0
 47
0.0
 48
0.0
 49
0.0
140
0.0
141
0.0
142
1.0
143
1.0
 70
1024
 72
1
 73
0
 74
0
  7

 75
0
147
1.0
148
0.0
149
0.0
100
AcDbLayout
  1
Model
 70
0
 71
0
 10
0.0
 20
0.0
 11
297.0
 21
210.0
 12
0.0
 22
0.0
 32
0.0
 14
0.0
 24
0.0
 34
0.0
 15
0.0
 25
0.0
 35
0.0
146
0.0
 13
0.0
 23
0.0
 33
0.0
 16
1.0
 26
0.0
 36
0.0
 17
0.0
 27
1.0
 37
0.0
 76
0
330
218
345
0
346
0
  0
LAYOUT
  5
4D0
102
{ACAD_REACTORS
330
1A
102
}
100
AcDbPlotSettings
  1

  2
none_device
  4
ISO_A4_(297.00_x_210.00_MM)
  6

 40
0.0
 41
0.0
 42
0.0
 43
0.0
 44
297.0
 45
210.0
 46
0.0
 47
0.0
 48
0.0
 49
0.0
140
0.0
141
0.0
142
1.0
143
1.0
 70
0
 72
1
 73
0
 74
0
  7

 75
0
147
1.0
148
0.0
149
0.0
100
AcDbLayout
  1
Layout1
 70
0
 71
1
 10
0.0
 20
0.0
 11
297.0
 21
210.0
 12
0.0
 22
0.0
 32
0.0
 14
0.0
 24
0.0
 34
0.0
 15
0.0
 25
0.0
 35
0.0
146
0.0
 13
0.0
 23
0.0
 33
0.0
 16
1.0
 26
0.0
 36
0.0
 17
0.0
 27
1.0
 37
0.0
 76
0
330
219
345
0
346
0
  0
ENDSEC
  0
EOF
