0
SECTION
2
HEADER
9
$ACADVER
1
AC1014
9
$HANDSEED
5
       398
9
$EXTMAX
10
297.0000000000
20
210.0000000000
9
$EXTMIN
10
0.0000000000
20
0.0000000000
9
$LIMMIN
10
0.0000000000
20
0.0000000000
9
$LIMMAX
10
297.0000000000
20
210.0000000000
9
$VIEWCTR
10
148.5000000000
20
105.0000000000
9
$VIEWSIZE
40
210.0000000000
9
$CLAYER
8
0
9
$LTSCALE
40
16.3350000000
9
$CELTYPE
6
BYLAYER
9
$DIMSCALE
40
1
9
$DIMASZ
40
3.0000000000
9
$DIMEXO
40
1.8562500000
9
$DIMDLI
40
11.2860000000
9
$DIMEXE
40
5.3460000000
9
$DIMCEN
40
2.6730000000
9
$DIMLFAC
40
1.0000000000
9
$DIMTXT
40
3.0000000000
9
$DIMTOL
70
1
9
$DIMLIM
70
0
9
$DIMTFAC
40
1.0000000000
9
$DIMTP
40
0.0100000000
9
$DIMTM
40
0.0100000000
9
$MEASUREMENT
70
1
0
ENDSEC
0
SECTION
2
CLASSES
0
ENDSEC
0
SECTION
2
TABLES
0
TABLE
2
VPORT
5
8
100
AcDbSymbolTable
70
2
0
VPORT
5
1F4
100
AcDbSymbolTableRecord
100
AcDbViewportTableRecord
2
*ACTIVE
70
0
10
0.0
20
0.0
11
1.0
21
1.0
12
148.5000000000
22
105.0000000000
13
0.0
23
0.0
14
1.0
24
1.0
15
0.0
25
0.0
16
0.0
26
0.0
36
1.0
17
0.0
27
0.0
37
0.0
40
210.0000000000
41
1.4142857143
42
50.0
43
0.0
44
0.0
50
0.0
51
0.0
71
0
72
100
73
1
74
1
75
0
76
0
77
0
78
0
0
ENDTAB
0
TABLE
2
LTYPE
5
5
100
AcDbSymbolTable
70
6
0
LTYPE
5
14
100
AcDbSymbolTableRecord
100
AcDbLinetypeTableRecord
2
BYBLOCK
70
0
3

72
65
73
0
40
0.0
0
LTYPE
5
15
100
AcDbSymbolTableRecord
100
AcDbLinetypeTableRecord
2
BYLAYER
70
0
3

72
65
73
0
40
0.0
0
LTYPE
5
16
100
AcDbSymbolTableRecord
100
AcDbLinetypeTableRecord
2
CONTINUOUS
70
64
3
Solid line
72
65
73
0
40
0
0
LTYPE
5
1F5
100
AcDbSymbolTableRecord
100
AcDbLinetypeTableRecord
2
CENTER
70
64
3
____ _ ____ _ ____ _ ____ _ ____ _ ____ _ ____
72
65
73
4
40
0.6
49
0.375
74
0
49
-0.075
74
0
49
0.075
74
0
49
-0.075
74
0
0
LTYPE
5
1F6
100
AcDbSymbolTableRecord
100
AcDbLinetypeTableRecord
2
HIDDEN
70
64
3
- - - - - - - - - - - - - - - - - - - -
72
65
73
2
40
0.2
49
0.1
74
0
49
-0.1
74
0
0
LTYPE
5
1F7
100
AcDbSymbolTableRecord
100
AcDbLinetypeTableRecord
2
PHANTOM
70
64
3
_____ _ _ _____ _ _ _____ _ _ _____
72
65
73
6
40
0.8
49
0.45
74
0
49
-0.05
74
0
49
0.1
74
0
49
-0.05
74
0
49
0.1
74
0
49
-0.05
74
0
0
LTYPE
5
1F8
100
AcDbSymbolTableRecord
100
AcDbLinetypeTableRecord
2
DOT
70
64
3
. . . . . . . . . . . . . . . . . . . .
72
65
73
2
40
0.2
49
0.1
74
0
49
-0.1
74
0
0
LTYPE
5
1F9
100
AcDbSymbolTableRecord
100
AcDbLinetypeTableRecord
2
DASHED
70
64
3
- - - - - - - - - - - - - - - - - - - -
72
65
73
2
40
0.2
49
0.1
74
0
49
-0.1
74
0
0
ENDTAB
0
TABLE
2
LAYER
5
2
100
AcDbSymbolTable
70
36
0
LAYER
5
10
100
AcDbSymbolTableRecord
100
AcDbLayerTableRecord
2
0
70
0
62
7
6
CONTINUOUS
0
LAYER
5
1FA
100
AcDbSymbolTableRecord
100
AcDbLayerTableRecord
2
DEFAULT_1
70
0
62
7
6
CENTER
0
LAYER
5
1FB
100
AcDbSymbolTableRecord
100
AcDbLayerTableRecord
2
DEFAULT_2
70
0
62
8
6
HIDDEN
0
LAYER
5
1FC
100
AcDbSymbolTableRecord
100
AcDbLayerTableRecord
2
DEFAULT_3
70
0
62
7
6
PHANTOM
0
LAYER
5
1FD
100
AcDbSymbolTableRecord
100
AcDbLayerTableRecord
2
218140040
70
0
62
7
6
CONTINUOUS
0
LAYER
5
1FE
100
AcDbSymbolTableRecord
100
AcDbLayerTableRecord
2
260140000
70
0
62
7
6
CONTINUOUS
0
LAYER
5
1FF
100
AcDbSymbolTableRecord
100
AcDbLayerTableRecord
2
268140000
70
0
62
7
6
CONTINUOUS
0
LAYER
5
200
100
AcDbSymbolTableRecord
100
AcDbLayerTableRecord
2
284140000
70
0
62
7
6
CONTINUOUS
0
LAYER
5
201
100
AcDbSymbolTableRecord
100
AcDbLayerTableRecord
2
290140210
70
0
62
7
6
CONTINUOUS
0
LAYER
5
202
100
AcDbSymbolTableRecord
100
AcDbLayerTableRecord
2
320140050
70
0
62
7
6
CONTINUOUS
0
LAYER
5
203
100
AcDbSymbolTableRecord
100
AcDbLayerTableRecord
2
340002230
70
0
62
7
6
CONTINUOUS
0
LAYER
5
204
100
AcDbSymbolTableRecord
100
AcDbLayerTableRecord
2
712140000
70
0
62
7
6
CONTINUOUS
0
LAYER
5
205
100
AcDbSymbolTableRecord
100
AcDbLayerTableRecord
2
715140000
70
0
62
7
6
CONTINUOUS
0
LAYER
5
206
100
AcDbSymbolTableRecord
100
AcDbLayerTableRecord
2
715140040
70
0
62
7
6
CONTINUOUS
0
LAYER
5
207
100
AcDbSymbolTableRecord
100
AcDbLayerTableRecord
2
ASSI
70
0
62
7
6
CONTINUOUS
0
LAYER
5
208
100
AcDbSymbolTableRecord
100
AcDbLayerTableRecord
2
COORDINATE
70
0
62
7
6
CONTINUOUS
0
LAYER
5
209
100
AcDbSymbolTableRecord
100
AcDbLayerTableRecord
2
COORD_ORIGINE
70
0
62
7
6
CONTINUOUS
0
LAYER
5
20A
100
AcDbSymbolTableRecord
100
AcDbLayerTableRecord
2
COPY-PUBBLISH
70
0
62
7
6
CONTINUOUS
0
LAYER
5
20B
100
AcDbSymbolTableRecord
100
AcDbLayerTableRecord
2
COSMETICHE
70
0
62
7
6
CONTINUOUS
0
LAYER
5
20C
100
AcDbSymbolTableRecord
100
AcDbLayerTableRecord
2
CURVE
70
0
62
7
6
CONTINUOUS
0
LAYER
5
20D
100
AcDbSymbolTableRecord
100
AcDbLayerTableRecord
2
DRAFT
70
0
62
7
6
CONTINUOUS
0
LAYER
5
20E
100
AcDbSymbolTableRecord
100
AcDbLayerTableRecord
2
IMPORT
70
0
62
7
6
CONTINUOUS
0
LAYER
5
20F
100
AcDbSymbolTableRecord
100
AcDbLayerTableRecord
2
IMPORTED
70
0
62
7
6
CONTINUOUS
0
LAYER
5
210
100
AcDbSymbolTableRecord
100
AcDbLayerTableRecord
2
INCISIONI_LASER
70
0
62
7
6
CONTINUOUS
0
LAYER
5
211
100
AcDbSymbolTableRecord
100
AcDbLayerTableRecord
2
NOTE
70
0
62
7
6
CONTINUOUS
0
LAYER
5
212
100
AcDbSymbolTableRecord
100
AcDbLayerTableRecord
2
PIANI
70
0
62
7
6
CONTINUOUS
0
LAYER
5
213
100
AcDbSymbolTableRecord
100
AcDbLayerTableRecord
2
PIANI_DI_RIFERIMENTO
70
0
62
7
6
CONTINUOUS
0
LAYER
5
214
100
AcDbSymbolTableRecord
100
AcDbLayerTableRecord
2
PIANI_ORIGINE
70
0
62
7
6
CONTINUOUS
0
LAYER
5
215
100
AcDbSymbolTableRecord
100
AcDbLayerTableRecord
2
PIANI_RIFERIMENTO
70
0
62
7
6
CONTINUOUS
0
LAYER
5
216
100
AcDbSymbolTableRecord
100
AcDbLayerTableRecord
2
PIANI_SFORMO
70
0
62
7
6
CONTINUOUS
0
LAYER
5
217
100
AcDbSymbolTableRecord
100
AcDbLayerTableRecord
2
PUNTI
70
0
62
7
6
CONTINUOUS
0
LAYER
5
218
100
AcDbSymbolTableRecord
100
AcDbLayerTableRecord
2
RACCORDO
70
0
62
7
6
CONTINUOUS
0
LAYER
5
219
100
AcDbSymbolTableRecord
100
AcDbLayerTableRecord
2
SMUSSO
70
0
62
7
6
CONTINUOUS
0
LAYER
5
21A
100
AcDbSymbolTableRecord
100
AcDbLayerTableRecord
2
SUPERFICI
70
0
62
7
6
CONTINUOUS
0
LAYER
5
21B
100
AcDbSymbolTableRecord
100
AcDbLayerTableRecord
2
TRASH
70
0
62
7
6
CONTINUOUS
0
LAYER
5
21C
100
AcDbSymbolTableRecord
100
AcDbLayerTableRecord
2
XSEC_DATUMS
70
0
62
7
6
CONTINUOUS
0
ENDTAB
0
TABLE
2
STYLE
5
3
100
AcDbSymbolTable
70
1
0
STYLE
5
11
100
AcDbSymbolTableRecord
100
AcDbTextStyleTableRecord
2
STANDARD
70
0
40
0.0
41
0.8000000000
50
0.0
71
0
42
0.2
3
txt
4

0
ENDTAB
0
TABLE
2
VIEW
5
6
100
AcDbSymbolTable
70
0
0
ENDTAB
0
TABLE
2
UCS
5
7
100
AcDbSymbolTable
70
0
0
ENDTAB
0
TABLE
2
APPID
5
9
100
AcDbSymbolTable
70
1
0
APPID
5
21D
100
AcDbSymbolTableRecord
100
AcDbRegAppTableRecord
2
ACAD
70
0
0
ENDTAB
0
TABLE
2
DIMSTYLE
5
A
100
AcDbSymbolTable
70
1
0
DIMSTYLE
105
21E
100
AcDbSymbolTableRecord
100
AcDbDimStyleTableRecord
2
STANDARD
70
0
3

4

5

6

7

40
1.0
41
3.0000000000
42
0.0625
43
0.38
44
0.18
45
0.0
46
0.0
47
0.0100000000
48
0.0100000000
140
3.0000000000
141
0.09
142
0.0
143
25.4
144
1.0000000000
145
0.0
146
1.0000000000
147
0.09
71
1
72
0
73
0
74
0
75
0
76
0
77
1
78
8
170
0
171
2
172
0
173
0
174
0
175
0
176
0
177
0
178
0
270
2
271
2
272
2
273
2
274
2
340
11
275
0
280
0
281
0
282
0
283
1
284
8
285
0
286
0
287
3
288
0
0
ENDTAB
0
TABLE
2
BLOCK_RECORD
5
1
100
AcDbSymbolTable
70
0
0
BLOCK_RECORD
5
1B
100
AcDbSymbolTableRecord
100
AcDbBlockTableRecord
2
*MODEL_SPACE
0
BLOCK_RECORD
5
1C
100
AcDbSymbolTableRecord
100
AcDbBlockTableRecord
2
*PAPER_SPACE
0
ENDTAB
0
ENDSEC
0
SECTION
2
BLOCKS
0
BLOCK
5
1E
100
AcDbEntity
8
0
100
AcDbBlockBegin
2
*MODEL_SPACE
70
0
10
0.0
20
0.0
30
0.0
3
*MODEL_SPACE
1

0
ENDBLK
5
1F
100
AcDbEntity
8
0
100
AcDbBlockEnd
0
BLOCK
5
20
100
AcDbEntity
8
0
100
AcDbBlockBegin
2
*PAPER_SPACE
70
0
10
0.0
20
0.0
30
0.0
3
*PAPER_SPACE
1

0
ENDBLK
5
21
100
AcDbEntity
8
0
100
AcDbBlockEnd
0
ENDSEC
0
SECTION
2
ENTITIES
0
LINE
5
21F
100
AcDbEntity
8
0
100
AcDbLine
62
7
6
CONTINUOUS
10
-16.9445074493
20
17.2626917923
11
-15.3617508462
21
18.0746758896
0
LINE
5
220
100
AcDbEntity
8
0
100
AcDbLine
62
7
6
CONTINUOUS
10
-15.3617508462
20
18.0746758896
11
-14.8273009675
21
18.3350233562
0
LINE
5
221
100
AcDbEntity
8
0
100
AcDbLine
62
7
6
CONTINUOUS
10
-17.3931072226
20
15.4157111803
11
-16.4162402776
21
15.9145855890
0
LINE
5
222
100
AcDbEntity
8
0
100
AcDbLine
62
9
6
CONTINUOUS
10
-17.2355838163
20
15.4062778508
11
-16.4162402776
21
15.8247069167
0
LINE
5
223
100
AcDbEntity
8
0
100
AcDbLine
62
7
6
CONTINUOUS
10
-13.6646945713
20
15.4074944042
11
-14.7315254835
21
14.8689131547
0
LINE
5
224
100
AcDbEntity
8
0
100
AcDbLine
62
7
6
CONTINUOUS
10
-15.2659753621
20
16.4234257487
11
-13.6646945713
21
17.2261477522
0
LINE
5
225
100
AcDbEntity
8
0
100
AcDbLine
62
7
6
CONTINUOUS
10
-13.6646945713
20
17.2261477522
11
-13.1364273996
21
17.4895865722
0
LINE
5
226
100
AcDbEntity
8
0
100
AcDbLine
62
7
6
CONTINUOUS
10
-20.1467428018
20
13.3721921573
11
-16.4903473231
21
14.7061436656
0
LINE
5
227
100
AcDbEntity
8
0
100
AcDbLine
62
9
6
CONTINUOUS
10
-19.8033835293
20
13.3428570273
11
-16.3115810072
21
14.6167605077
0
LINE
5
228
100
AcDbEntity
8
0
100
AcDbLine
62
7
6
CONTINUOUS
10
-10.1684807181
20
-33.2886875498
11
-24.5847895327
21
-26.0805331425
0
LINE
5
229
100
AcDbEntity
8
0
100
AcDbLine
62
9
6
CONTINUOUS
10
-10.5597582914
20
-32.3808237784
11
-24.9677358262
21
-25.1768350110
0
LINE
5
22A
100
AcDbEntity
8
0
100
AcDbLine
62
7
6
CONTINUOUS
10
-13.0495757363
20
16.7819864452
11
-13.5768204520
21
16.1402787172
0
LINE
5
22B
100
AcDbEntity
8
0
100
AcDbLine
62
7
6
CONTINUOUS
10
-11.4356554790
20
15.0056658839
11
-10.9423334637
21
15.2587494158
0
LINE
5
22C
100
AcDbEntity
8
0
100
AcDbLine
62
7
6
CONTINUOUS
10
-12.2442689338
20
15.3968306775
11
-5.7362323072
21
18.6379722831
0
LINE
5
22D
100
AcDbEntity
8
0
100
AcDbLine
62
9
6
CONTINUOUS
10
-12.1687757933
20
15.3590841072
11
-5.8542354667
21
18.5038604118
0
LINE
5
22E
100
AcDbEntity
8
0
100
AcDbLine
62
7
6
CONTINUOUS
10
-4.8612151455
20
17.6241168810
11
-9.5988305795
21
15.2890663664
0
LINE
5
22F
100
AcDbEntity
8
0
100
AcDbLine
62
7
6
CONTINUOUS
10
-10.9423334637
20
15.2587494158
11
-5.4646934743
21
17.9270813790
0
LINE
5
230
100
AcDbEntity
8
0
100
AcDbLine
62
7
6
CONTINUOUS
10
-0.2125022876
20
-30.7164845044
11
0.3147424281
21
-30.8247767764
0
LINE
5
231
100
AcDbEntity
8
0
100
AcDbLine
62
7
6
CONTINUOUS
10
-25.2021644513
20
-24.8980791303
11
-25.2021754982
21
-24.8982716299
0
LINE
5
232
100
AcDbEntity
8
0
100
AcDbLine
62
7
6
CONTINUOUS
10
-21.1988056005
20
11.9916875775
11
-21.1988165329
21
11.9916179212
0
LINE
5
233
100
AcDbEntity
8
0
100
AcDbLine
62
7
6
CONTINUOUS
10
-3.5341413171
20
16.1542426474
11
-4.9319258237
21
15.4553503942
0
LINE
5
234
100
AcDbEntity
8
0
100
AcDbLine
62
7
6
CONTINUOUS
10
-6.0068311582
20
14.7633106386
11
-5.9452815199
21
14.7940854578
0
LINE
5
235
100
AcDbEntity
8
0
100
AcDbLine
62
9
6
CONTINUOUS
10
-5.9218753173
20
14.7553868421
11
-5.8558388009
21
14.7884051003
0
LINE
5
236
100
AcDbEntity
8
0
100
AcDbLine
62
7
6
CONTINUOUS
10
-5.2854792142
20
16.1846852788
11
-4.8612151455
21
16.3922826996
0
LINE
5
237
100
AcDbEntity
8
0
100
AcDbLine
62
7
6
CONTINUOUS
10
-2.8751455658
20
17.0143154613
11
-4.9319258237
21
16.0079085835
0
LINE
5
238
100
AcDbEntity
8
0
100
AcDbLine
62
7
6
CONTINUOUS
10
-3.6903215886
20
-31.8389358905
11
-2.0130748131
21
-32.6775592783
0
LINE
5
239
100
AcDbEntity
8
0
100
AcDbLine
62
9
6
CONTINUOUS
10
-3.7549150674
20
-31.7039073493
11
-2.0784279271
21
-32.5421509194
0
LINE
5
23A
100
AcDbEntity
8
0
100
AcDbLine
62
9
6
CONTINUOUS
10
-2.0784279271
20
-32.2021769853
11
-3.7549150674
21
-31.3639334151
0
LINE
5
23B
100
AcDbEntity
8
0
100
AcDbLine
62
9
6
CONTINUOUS
10
-1.9895253511
20
-31.9707399256
11
-3.6670409481
21
-31.1319821271
0
LINE
5
23C
100
AcDbEntity
8
0
100
AcDbLine
62
7
6
CONTINUOUS
10
-4.7115798527
20
-29.6158737746
11
-1.9620773427
21
-30.9906250296
0
LINE
5
23D
100
AcDbEntity
8
0
100
AcDbLine
62
7
6
CONTINUOUS
10
-1.3672073190
20
-31.2256805081
11
-1.8085436787
21
-31.0050123283
0
LINE
5
23E
100
AcDbEntity
8
0
100
AcDbLine
62
7
6
CONTINUOUS
10
-6.0185420150
20
14.7555622638
11
-6.9485668338
21
13.9639344936
0
LINE
5
23F
100
AcDbEntity
8
0
100
AcDbLine
62
9
6
CONTINUOUS
10
-5.9218753173
20
14.7553868421
11
-6.8875412593
21
13.9334217063
0
LINE
5
240
100
AcDbEntity
8
0
100
AcDbLine
62
7
6
CONTINUOUS
10
-5.2188895221
20
11.8972829054
11
-4.7197937893
21
12.1474795785
0
LINE
5
241
100
AcDbEntity
8
0
100
AcDbLine
62
7
6
CONTINUOUS
10
-4.7197937893
20
12.1474795785
11
0.6944789059
21
14.8474951889
0
LINE
5
242
100
AcDbEntity
8
0
100
AcDbLine
62
7
6
CONTINUOUS
10
0.0885323228
20
15.1492431469
11
-4.6490831112
21
12.8141926323
0
LINE
5
243
100
AcDbEntity
8
0
100
AcDbLine
62
7
6
CONTINUOUS
10
1.3674951213
20
14.8929951177
11
0.7811163343
21
14.6060730501
0
LINE
5
244
100
AcDbEntity
8
0
100
AcDbLine
62
7
6
CONTINUOUS
10
7.6473253575
20
17.5582497972
11
1.8674259084
21
14.8889006924
0
LINE
5
245
100
AcDbEntity
8
0
100
AcDbLine
62
9
6
CONTINUOUS
10
-0.2125022876
20
-30.7164845044
11
-0.2559246135
21
-30.6947733415
0
LINE
5
246
100
AcDbEntity
8
0
100
AcDbLine
62
9
6
CONTINUOUS
10
-0.3003764069
20
-30.5172173589
11
0.3147424281
21
-30.8247767764
0
LINE
5
247
100
AcDbEntity
8
0
100
AcDbLine
62
7
6
CONTINUOUS
10
-0.3003764069
20
-30.5135972094
11
0.3161904879
21
-30.8218806568
0
LINE
5
248
100
AcDbEntity
8
0
100
AcDbLine
62
7
6
CONTINUOUS
10
-3.5801892849
20
10.5805327101
11
-1.9974326817
21
11.3925168074
0
LINE
5
249
100
AcDbEntity
8
0
100
AcDbLine
62
7
6
CONTINUOUS
10
-5.2188895221
20
10.6830794326
11
-4.7197937893
21
10.9350440132
0
LINE
5
24A
100
AcDbEntity
8
0
100
AcDbLine
62
7
6
CONTINUOUS
10
-4.7197937893
20
10.9350440132
11
0.6944789059
21
13.6156566105
0
LINE
5
24B
100
AcDbEntity
8
0
100
AcDbLine
62
7
6
CONTINUOUS
10
-1.9974326817
20
11.3925168074
11
-1.4629828030
21
11.6528642740
0
LINE
5
24C
100
AcDbEntity
8
0
100
AcDbLine
62
7
6
CONTINUOUS
10
9.1197112844
20
17.0020728400
11
5.5466375859
21
15.2966395232
0
LINE
5
24D
100
AcDbEntity
8
0
100
AcDbLine
62
9
6
CONTINUOUS
10
8.0789447825
20
17.5224560909
11
2.1606257153
21
14.7891802193
0
LINE
5
24E
100
AcDbEntity
8
0
100
AcDbLine
62
7
6
CONTINUOUS
10
-17.1192332318
20
16.6178298065
11
-17.1192332318
21
16.9578037406
0
LINE
5
24F
100
AcDbEntity
8
0
100
AcDbLine
62
9
6
CONTINUOUS
10
0.2679460396
20
10.0428716397
11
5.5366758673
21
12.8854722553
0
LINE
5
250
100
AcDbEntity
8
0
100
AcDbLine
62
7
6
CONTINUOUS
10
5.6282782482
20
12.9690281710
11
6.2605663144
21
13.3024461708
0
LINE
5
251
100
AcDbEntity
8
0
100
AcDbLine
62
9
6
CONTINUOUS
10
6.2604385323
20
13.3023787839
11
6.2605663144
21
13.3024461708
0
LINE
5
252
100
AcDbEntity
8
0
100
AcDbLine
62
9
6
CONTINUOUS
10
-0.2275885659
20
9.4384347283
11
5.4525242997
21
12.3793992574
0
LINE
5
253
100
AcDbEntity
8
0
100
AcDbLine
62
7
6
CONTINUOUS
10
5.9406235197
20
14.2744837052
11
10.1570032974
21
16.4197933219
0
LINE
5
254
100
AcDbEntity
8
0
100
AcDbLine
62
7
6
CONTINUOUS
10
5.9406235197
20
13.8642646622
11
10.1630602843
21
15.9823048547
0
LINE
5
255
100
AcDbEntity
8
0
100
AcDbLine
62
7
6
CONTINUOUS
10
-1.9016571977
20
9.7412666665
11
-0.3003764069
21
10.5439886700
0
LINE
5
256
100
AcDbEntity
8
0
100
AcDbLine
62
7
6
CONTINUOUS
10
6.3888537431
20
13.0793544394
11
6.8838284900
21
13.3268418128
0
LINE
5
257
100
AcDbEntity
8
0
100
AcDbLine
62
7
6
CONTINUOUS
10
-0.3003764069
20
10.5439886700
11
0.2278907649
21
10.8074274900
0
LINE
5
258
100
AcDbEntity
8
0
100
AcDbLine
62
9
6
CONTINUOUS
10
-0.3369518573
20
11.1518261720
11
4.3465850223
21
13.4034501673
0
LINE
5
259
100
AcDbEntity
8
0
100
AcDbLine
62
9
6
CONTINUOUS
10
-0.1093363574
20
11.0380184220
11
4.7884258902
21
13.3926318870
0
LINE
5
25A
100
AcDbEntity
8
0
100
AcDbLine
62
9
6
CONTINUOUS
10
-1.7616713767
20
7.3418056925
11
-5.3784677409
21
6.1303991331
0
LINE
5
25B
100
AcDbEntity
8
0
100
AcDbLine
62
7
6
CONTINUOUS
10
-16.6698983914
20
14.7959191998
11
-16.6698983914
21
14.6406386065
0
LINE
5
25C
100
AcDbEntity
8
0
100
AcDbLine
62
7
6
CONTINUOUS
10
-16.4162402776
20
15.7112705518
11
-16.4162402776
21
16.1636015274
0
LINE
5
25D
100
AcDbEntity
8
0
100
AcDbLine
62
7
6
CONTINUOUS
10
-15.4427460916
20
16.1195601704
11
-15.4427460916
21
15.7795862363
0
LINE
5
25E
100
AcDbEntity
8
0
100
AcDbLine
62
9
6
CONTINUOUS
10
-0.0986741136
20
9.5966595136
11
5.4525242997
21
12.5916584115
0
LINE
5
25F
100
AcDbEntity
8
0
100
AcDbLine
62
7
6
CONTINUOUS
10
-0.1568948902
20
9.3531436557
11
5.5347340121
21
12.3000707873
0
LINE
5
260
100
AcDbEntity
8
0
100
AcDbLine
62
7
6
CONTINUOUS
10
-0.3003764069
20
8.7253353220
11
-1.3672073190
21
8.1867540725
0
LINE
5
261
100
AcDbEntity
8
0
100
AcDbLine
62
7
6
CONTINUOUS
10
9.3520064025
20
13.5073416651
11
8.0405420915
21
12.8516095096
0
LINE
5
262
100
AcDbEntity
8
0
100
AcDbLine
62
7
6
CONTINUOUS
10
10.2005371102
20
13.0830788815
11
9.3787532845
21
12.6721869687
0
LINE
5
263
100
AcDbEntity
8
0
100
AcDbLine
62
7
6
CONTINUOUS
10
0.4526613706
20
9.0483655253
11
6.1185259395
21
11.8005540695
0
LINE
5
264
100
AcDbEntity
8
0
100
AcDbLine
62
7
6
CONTINUOUS
10
14.6054089348
20
14.2592240148
11
6.8712200234
21
10.5023488085
0
LINE
5
265
100
AcDbEntity
8
0
100
AcDbLine
62
7
6
CONTINUOUS
10
13.7801624672
20
14.6718472486
11
10.2167316306
21
12.9615925008
0
LINE
5
266
100
AcDbEntity
8
0
100
AcDbLine
62
9
6
CONTINUOUS
10
-0.7926492176
20
6.4951618459
11
-4.8915846766
21
5.1222680466
0
LINE
5
267
100
AcDbEntity
8
0
100
AcDbLine
62
7
6
CONTINUOUS
10
-14.7315254835
20
14.8689131547
11
-14.7315254835
21
15.5060827135
0
LINE
5
268
100
AcDbEntity
8
0
100
AcDbLine
62
7
6
CONTINUOUS
10
-13.6646945713
20
15.4074944042
11
-13.6646945713
21
17.2261477522
0
LINE
5
269
100
AcDbEntity
8
0
100
AcDbLine
62
7
6
CONTINUOUS
10
-12.9617016170
20
17.3614692500
11
-12.9617016170
21
17.0139377332
0
LINE
5
26A
100
AcDbEntity
8
0
100
AcDbLine
62
9
6
CONTINUOUS
10
14.9483065108
20
13.6678131792
11
0.7602837649
21
6.4496170603
0
LINE
5
26B
100
AcDbEntity
8
0
100
AcDbLine
62
9
6
CONTINUOUS
10
15.3624569865
20
12.2361796045
11
0.7602837649
21
4.8072832768
0
LINE
5
26C
100
AcDbEntity
8
0
100
AcDbLine
62
7
6
CONTINUOUS
10
-11.5222929074
20
14.8991589420
11
-11.5222929074
21
13.6844255558
0
LINE
5
26D
100
AcDbEntity
8
0
100
AcDbLine
62
9
6
CONTINUOUS
10
-11.4344249417
20
14.7926499852
11
-11.4344249417
21
13.5776951191
0
LINE
5
26E
100
AcDbEntity
8
0
100
AcDbLine
62
7
6
CONTINUOUS
10
0.3147424281
20
10.0998273630
11
-0.2125022876
21
9.4581196350
0
LINE
5
26F
100
AcDbEntity
8
0
100
AcDbLine
62
7
6
CONTINUOUS
10
-2.8112440548
20
-12.1052056673
11
-2.6338287848
21
-12.1939133023
0
LINE
5
270
100
AcDbEntity
8
0
100
AcDbLine
62
7
6
CONTINUOUS
10
-3.5874614761
20
-19.2576708566
11
-2.9070421873
21
-25.5997088412
0
LINE
5
271
100
AcDbEntity
8
0
100
AcDbLine
62
9
6
CONTINUOUS
10
-5.6419158737
20
10.6814405850
11
-5.6419158737
21
11.8963954511
0
LINE
5
272
100
AcDbEntity
8
0
100
AcDbLine
62
7
6
CONTINUOUS
10
-5.2854792142
20
14.9353904456
11
-5.2854792142
21
16.1846852788
0
LINE
5
273
100
AcDbEntity
8
0
100
AcDbLine
62
9
6
CONTINUOUS
10
-5.2188895221
20
10.6830794326
11
-5.2188895221
21
11.8972829054
0
LINE
5
274
100
AcDbEntity
8
0
100
AcDbLine
62
7
6
CONTINUOUS
10
-4.9319258237
20
15.4553503942
11
-4.9319258237
21
16.0079085835
0
LINE
5
275
100
AcDbEntity
8
0
100
AcDbLine
62
9
6
CONTINUOUS
10
-4.8612151455
20
17.6241168810
11
-4.8612151455
21
16.3922826996
0
LINE
5
276
100
AcDbEntity
8
0
100
AcDbLine
62
7
6
CONTINUOUS
10
-4.7733471799
20
17.7291140950
11
-4.7733471799
21
16.4967454901
0
LINE
5
277
100
AcDbEntity
8
0
100
AcDbLine
62
7
6
CONTINUOUS
10
-4.7197937893
20
12.1474795785
11
-4.7197937893
21
10.9350440132
0
LINE
5
278
100
AcDbEntity
8
0
100
AcDbLine
62
7
6
CONTINUOUS
10
-3.7549150674
20
-31.7039073493
11
-3.7549150674
21
-31.3639334151
0
LINE
5
279
100
AcDbEntity
8
0
100
AcDbLine
62
7
6
CONTINUOUS
10
-3.7549150674
20
9.9356707243
11
-3.7549150674
21
10.2756446584
0
LINE
5
27A
100
AcDbEntity
8
0
100
AcDbLine
62
7
6
CONTINUOUS
10
15.6431171861
20
6.4038077822
11
16.5582939733
21
6.9957364014
0
LINE
5
27B
100
AcDbEntity
8
0
100
AcDbLine
62
7
6
CONTINUOUS
10
-2.6338287848
20
-12.1939133023
11
-1.0095838450
21
-27.5832223906
0
LINE
5
27C
100
AcDbEntity
8
0
100
AcDbLine
62
7
6
CONTINUOUS
10
-3.0519221131
20
9.0291114696
11
-3.0519221131
21
9.4814424452
0
LINE
5
27D
100
AcDbEntity
8
0
100
AcDbLine
62
7
6
CONTINUOUS
10
-2.1742093770
20
16.4987911275
11
-2.1742093770
21
16.2279908349
0
LINE
5
27E
100
AcDbEntity
8
0
100
AcDbLine
62
7
6
CONTINUOUS
10
-2.0784279271
20
9.4374010882
11
-2.0784279271
21
9.0974271541
0
LINE
5
27F
100
AcDbEntity
8
0
100
AcDbLine
62
7
6
CONTINUOUS
10
-2.0784279271
20
-32.2021769853
11
-2.0784279271
21
-32.5421509194
0
LINE
5
280
100
AcDbEntity
8
0
100
AcDbLine
62
7
6
CONTINUOUS
10
-0.9014171709
20
5.9526592191
11
-2.6338287848
21
-12.1939133023
0
LINE
5
281
100
AcDbEntity
8
0
100
AcDbLine
62
7
6
CONTINUOUS
10
-4.9357444481
20
-31.6814412574
11
-0.7926492176
21
6.4951618459
0
LINE
5
282
100
AcDbEntity
8
0
100
AcDbLine
62
7
6
CONTINUOUS
10
-1.3672073190
20
-31.2256805081
11
-1.3672073190
21
-30.7860809625
0
LINE
5
283
100
AcDbEntity
8
0
100
AcDbLine
62
7
6
CONTINUOUS
10
-1.3672073190
20
8.1867540725
11
-1.3672073190
21
8.8239236312
0
LINE
5
284
100
AcDbEntity
8
0
100
AcDbLine
62
7
6
CONTINUOUS
10
-0.3003764069
20
-30.2640679943
11
-0.3003764069
21
-31.8912561155
0
LINE
5
285
100
AcDbEntity
8
0
100
AcDbLine
62
7
6
CONTINUOUS
10
-0.3003764069
20
8.7253353220
11
-0.3003764069
21
10.5439886700
0
LINE
5
286
100
AcDbEntity
8
0
100
AcDbLine
62
7
6
CONTINUOUS
10
0.4026165474
20
10.6793101677
11
0.4026165474
21
10.3317786510
0
LINE
5
287
100
AcDbEntity
8
0
100
AcDbLine
62
7
6
CONTINUOUS
10
0.4026165474
20
-30.9678254884
11
0.4026165474
21
-31.3153570051
0
LINE
5
288
100
AcDbEntity
8
0
100
AcDbLine
62
9
6
CONTINUOUS
10
0.6944789059
20
14.8474951889
11
0.6944789059
21
13.6156566105
0
LINE
5
289
100
AcDbEntity
8
0
100
AcDbLine
62
7
6
CONTINUOUS
10
0.7602837649
20
4.8072832768
11
0.7602837649
21
-25.8009973317
0
LINE
5
28A
100
AcDbEntity
8
0
100
AcDbLine
62
7
6
CONTINUOUS
10
0.7811163343
20
14.9518825642
11
0.7811163343
21
13.7195140725
0
LINE
5
28B
100
AcDbEntity
8
0
100
AcDbLine
62
7
6
CONTINUOUS
10
5.5366758673
20
12.8854722553
11
5.5367223380
21
12.8793349173
0
LINE
5
28C
100
AcDbEntity
8
0
100
AcDbLine
62
9
6
CONTINUOUS
10
5.4525242997
20
12.5916584115
11
5.4525242997
21
12.3793992574
0
LINE
5
28D
100
AcDbEntity
8
0
100
AcDbLine
62
9
6
CONTINUOUS
10
5.4525242997
20
-24.3625673131
11
5.4525242997
21
-24.5523370172
0
LINE
5
28E
100
AcDbEntity
8
0
100
AcDbLine
62
7
6
CONTINUOUS
10
5.5367223596
20
12.8792792897
11
5.5367223596
21
12.3033161002
0
LINE
5
28F
100
AcDbEntity
8
0
100
AcDbLine
62
7
6
CONTINUOUS
10
5.5367223596
20
-24.3180419921
11
5.5367223596
21
-24.6315603843
0
LINE
5
290
100
AcDbEntity
8
0
100
AcDbLine
62
9
6
CONTINUOUS
10
5.9406235197
20
13.8642646622
11
5.9406235197
21
14.2744837052
0
LINE
5
291
100
AcDbEntity
8
0
100
AcDbLine
62
7
6
CONTINUOUS
10
6.6233337176
20
14.2067227545
11
6.6233337176
21
13.7737100526
0
LINE
5
292
100
AcDbEntity
8
0
100
AcDbLine
62
7
6
CONTINUOUS
10
5.5366758673
20
-24.6324719470
11
5.5367223380
21
-24.6317299922
0
LINE
5
293
100
AcDbEntity
8
0
100
AcDbLine
62
9
6
CONTINUOUS
10
-6.5541028760
20
4.5293384205
11
-20.9620804108
21
11.7333271879
0
LINE
5
294
100
AcDbEntity
8
0
100
AcDbLine
62
9
6
CONTINUOUS
10
-5.3784677409
20
6.1303991331
11
-19.8033835293
21
13.3428570273
0
LINE
5
295
100
AcDbEntity
8
0
100
AcDbLine
62
7
6
CONTINUOUS
10
7.5907974301
20
12.9733573427
11
7.5907974301
21
12.5210327024
0
LINE
5
296
100
AcDbEntity
8
0
100
AcDbLine
62
7
6
CONTINUOUS
10
8.0405420915
20
12.8516095096
11
8.0405420915
21
12.5119849198
0
LINE
5
297
100
AcDbEntity
8
0
100
AcDbLine
62
7
6
CONTINUOUS
10
8.0788389502
20
14.1473001886
11
8.0788389502
21
13.7035468926
0
LINE
5
298
100
AcDbEntity
8
0
100
AcDbLine
62
7
6
CONTINUOUS
10
10.1630602843
20
16.3092709024
11
10.1630602843
21
15.9823048547
0
LINE
5
299
100
AcDbEntity
8
0
100
AcDbLine
62
7
6
CONTINUOUS
10
-3.6670409481
20
-31.1319821271
11
-3.0882506079
21
-30.4275383970
0
LINE
5
29A
100
AcDbEntity
8
0
100
AcDbLine
62
7
6
CONTINUOUS
10
-16.1599321454
20
14.8684520153
11
-17.2355838163
21
15.4062778508
0
LINE
5
29B
100
AcDbEntity
8
0
100
AcDbLine
62
7
6
CONTINUOUS
10
-1.3672073190
20
8.1867540725
11
-3.0519221131
21
9.0291114696
0
LINE
5
29C
100
AcDbEntity
8
0
100
AcDbLine
62
7
6
CONTINUOUS
10
-14.7315254835
20
14.8689131547
11
-16.4162402776
21
15.7112705518
0
LINE
5
29D
100
AcDbEntity
8
0
100
AcDbLine
62
7
6
CONTINUOUS
10
-11.4344249417
20
13.5776951191
11
-5.6419158737
21
10.6814405850
0
LINE
5
29E
100
AcDbEntity
8
0
100
AcDbLine
62
7
6
CONTINUOUS
10
-17.0546384859
20
16.4828006316
11
-15.3773942447
21
15.6441785110
0
LINE
5
29F
100
AcDbEntity
8
0
100
AcDbLine
62
7
6
CONTINUOUS
10
-3.6903203214
20
9.8006415494
11
-2.0130760803
21
8.9620194288
0
LINE
5
2A0
100
AcDbEntity
8
0
100
AcDbLine
62
9
6
CONTINUOUS
10
-17.1192332318
20
16.6178298065
11
-15.4427460916
21
15.7795862363
0
LINE
5
2A1
100
AcDbEntity
8
0
100
AcDbLine
62
9
6
CONTINUOUS
10
-3.7549150674
20
9.9356707243
11
-2.0784279271
21
9.0974271541
0
LINE
5
2A2
100
AcDbEntity
8
0
100
AcDbLine
62
9
6
CONTINUOUS
10
-2.0784279271
20
9.4374010882
11
-3.7549150674
21
10.2756446584
0
LINE
5
2A3
100
AcDbEntity
8
0
100
AcDbLine
62
9
6
CONTINUOUS
10
-15.4427460916
20
16.1195601704
11
-17.1192332318
21
16.9578037406
0
LINE
5
2A4
100
AcDbEntity
8
0
100
AcDbLine
62
7
6
CONTINUOUS
10
-1.9895253511
20
-31.9707399256
11
-1.3672073190
21
-31.2256805081
0
LINE
5
2A5
100
AcDbEntity
8
0
100
AcDbLine
62
9
6
CONTINUOUS
10
-2.9070421873
20
-25.5997088412
11
-4.3479461035
21
-26.2651660197
0
LINE
5
2A6
100
AcDbEntity
8
0
100
AcDbLine
62
7
6
CONTINUOUS
10
-3.1078957732
20
-26.1134778979
11
-4.3960465986
21
-26.7083886369
0
LINE
5
2A7
100
AcDbEntity
8
0
100
AcDbLine
62
7
6
CONTINUOUS
10
-1.3672073190
20
8.8239236312
11
-1.9895253511
21
8.9538642137
0
LINE
5
2A8
100
AcDbEntity
8
0
100
AcDbLine
62
7
6
CONTINUOUS
10
-13.6646945713
20
15.4074944042
11
-11.5222929074
21
14.3362935723
0
LINE
5
2A9
100
AcDbEntity
8
0
100
AcDbLine
62
7
6
CONTINUOUS
10
-4.7197937893
20
10.9350440132
11
-3.7152054290
21
10.4327498331
0
LINE
5
2AA
100
AcDbEntity
8
0
100
AcDbLine
62
9
6
CONTINUOUS
10
-1.9016571977
20
9.7412666665
11
-3.5801892849
21
10.5805327101
0
LINE
5
2AB
100
AcDbEntity
8
0
100
AcDbLine
62
9
6
CONTINUOUS
10
-15.2659753621
20
16.4234257487
11
-16.9445074493
21
17.2626917923
0
LINE
5
2AC
100
AcDbEntity
8
0
100
AcDbLine
62
7
6
CONTINUOUS
10
-11.4344249417
20
14.7926499852
11
-5.6419158737
21
11.8963954511
0
LINE
5
2AD
100
AcDbEntity
8
0
100
AcDbLine
62
7
6
CONTINUOUS
10
-12.1687757933
20
15.3590841072
11
-13.6158984577
21
16.0826454394
0
LINE
5
2AE
100
AcDbEntity
8
0
100
AcDbLine
62
7
6
CONTINUOUS
10
-10.9423334637
20
15.2587494158
11
-4.7197937893
21
12.1474795785
0
LINE
5
2AF
100
AcDbEntity
8
0
100
AcDbLine
62
7
6
CONTINUOUS
10
-15.3617508462
20
18.0746758896
11
-13.6646945713
21
17.2261477522
0
LINE
5
2B0
100
AcDbEntity
8
0
100
AcDbLine
62
7
6
CONTINUOUS
10
-1.9974326817
20
11.3925168074
11
-0.3003764069
21
10.5439886700
0
LINE
5
2B1
100
AcDbEntity
8
0
100
AcDbLine
62
7
6
CONTINUOUS
10
-9.5988305795
20
15.2890663664
11
-4.6490831112
21
12.8141926323
0
LINE
5
2B2
100
AcDbEntity
8
0
100
AcDbLine
62
9
6
CONTINUOUS
10
-14.8273009675
20
18.3350233562
11
-13.1364273996
21
17.4895865722
0
LINE
5
2B3
100
AcDbEntity
8
0
100
AcDbLine
62
9
6
CONTINUOUS
10
-1.4629828030
20
11.6528642740
11
0.2278907649
21
10.8074274900
0
LINE
5
2B4
100
AcDbEntity
8
0
100
AcDbLine
62
7
6
CONTINUOUS
10
-14.7158833521
20
18.3412919194
11
-13.0262950958
21
17.4964977912
0
LINE
5
2B5
100
AcDbEntity
8
0
100
AcDbLine
62
7
6
CONTINUOUS
10
-1.3515651877
20
11.6591328372
11
0.3380230686
21
10.8143387090
0
LINE
5
2B6
100
AcDbEntity
8
0
100
AcDbLine
62
9
6
CONTINUOUS
10
5.9406235197
20
14.2744837052
11
5.5466375859
21
15.2966395232
0
LINE
5
2B7
100
AcDbEntity
8
0
100
AcDbLine
62
7
6
CONTINUOUS
10
7.0853278479
20
12.7311173870
11
6.8838284900
21
13.3268418128
0
LINE
5
2B8
100
AcDbEntity
8
0
100
AcDbLine
62
9
6
CONTINUOUS
10
15.3624569865
20
-18.1089006413
11
15.3624569865
21
6.6563126309
0
LINE
5
2B9
100
AcDbEntity
8
0
100
AcDbLine
62
9
6
CONTINUOUS
10
15.3624569865
20
8.4287811039
11
15.3624569865
21
12.2361796045
0
LINE
5
2BA
100
AcDbEntity
8
0
100
AcDbLine
62
7
6
CONTINUOUS
10
15.6431171861
20
-17.7615714561
11
15.6431168028
21
6.4161162115
0
LINE
5
2BB
100
AcDbEntity
8
0
100
AcDbLine
62
7
6
CONTINUOUS
10
15.6431171861
20
12.5835087898
11
15.6431167888
21
9.3627339511
0
LINE
5
2BC
100
AcDbEntity
8
0
100
AcDbLine
62
7
6
CONTINUOUS
10
6.8712200234
20
-23.4648634982
11
6.1185259395
21
-24.0103746752
0
LINE
5
2BD
100
AcDbEntity
8
0
100
AcDbLine
62
7
6
CONTINUOUS
10
14.6054089348
20
-19.3748969999
11
6.8712200234
21
-23.4648634982
0
LINE
5
2BE
100
AcDbEntity
8
0
100
AcDbLine
62
7
6
CONTINUOUS
10
0.7602837649
20
-26.8439014011
11
6.1185259395
21
-24.0103746752
0
LINE
5
2BF
100
AcDbEntity
8
0
100
AcDbLine
62
9
6
CONTINUOUS
10
0.7602837649
20
-25.8009973317
11
15.3624569865
21
-18.1089006413
0
LINE
5
2C0
100
AcDbEntity
8
0
100
AcDbLine
62
9
6
CONTINUOUS
10
0.7602837649
20
-26.6003152675
11
14.9483065108
21
-19.1263837403
0
LINE
5
2C1
100
AcDbEntity
8
0
100
AcDbLine
62
9
6
CONTINUOUS
10
0.7602837649
20
-27.1175279449
11
4.7884258902
21
-25.0956247613
0
LINE
5
2C2
100
AcDbEntity
8
0
100
AcDbLine
62
7
6
CONTINUOUS
10
0.7602837649
20
-27.1191960256
11
4.7380468359
21
-25.1225803238
0
LINE
5
2C3
100
AcDbEntity
8
0
100
AcDbLine
62
9
6
CONTINUOUS
10
0.7602837649
20
-26.8797229141
11
5.4525242997
21
-24.5523370172
0
LINE
5
2C4
100
AcDbEntity
8
0
100
AcDbLine
62
9
6
CONTINUOUS
10
0.7602837649
20
-27.0015976419
11
5.5366758673
21
-24.6324719470
0
LINE
5
2C5
100
AcDbEntity
8
0
100
AcDbLine
62
7
6
CONTINUOUS
10
-14.7315254835
20
15.5060827135
11
-15.3538435155
21
15.6360232960
0
LINE
5
2C6
100
AcDbEntity
8
0
100
AcDbLine
62
7
6
CONTINUOUS
10
-3.3349211309
20
13.4619097489
11
-5.9218753173
21
14.7553868421
0
LINE
5
2C7
100
AcDbEntity
8
0
100
AcDbLine
62
9
6
CONTINUOUS
10
-2.6939579361
20
13.7778242545
11
-4.7868701670
21
14.8242803700
0
LINE
5
2C8
100
AcDbEntity
8
0
100
AcDbLine
62
7
6
CONTINUOUS
10
-2.6431945115
20
13.8028442593
11
-4.7026212944
21
14.8325576507
0
LINE
5
2C9
100
AcDbEntity
8
0
100
AcDbLine
62
7
6
CONTINUOUS
10
-2.1314073664
20
14.0550911656
11
-4.9319258237
21
15.4553503942
0
LINE
5
2CA
100
AcDbEntity
8
0
100
AcDbLine
62
7
6
CONTINUOUS
10
6.8712200234
20
10.5023488085
11
6.1185259395
21
11.8005540695
0
LINE
5
2CB
100
AcDbEntity
8
0
100
AcDbLine
62
9
6
CONTINUOUS
10
14.6054089348
20
-19.3748969999
11
14.9483065108
21
-19.1263837403
0
LINE
5
2CC
100
AcDbEntity
8
0
100
AcDbLine
62
7
6
CONTINUOUS
10
14.6817582310
20
-19.3272435876
11
15.0228741049
21
-19.0800216075
0
LINE
5
2CD
100
AcDbEntity
8
0
100
AcDbLine
62
7
6
CONTINUOUS
10
-0.0367869844
20
-30.1350691062
11
0.6703197978
21
-29.7739580259
0
LINE
5
2CE
100
AcDbEntity
8
0
100
AcDbLine
62
7
6
CONTINUOUS
10
-0.0367917904
20
-30.1350715611
11
-0.0387993873
21
-30.1360752684
0
LINE
5
2CF
100
AcDbEntity
8
0
100
AcDbLine
62
7
6
CONTINUOUS
10
-1.8065708882
20
-31.0010667473
11
-0.0388039339
21
-30.1360774932
0
LINE
5
2D0
100
AcDbEntity
8
0
100
AcDbLine
62
7
6
CONTINUOUS
10
8.0405420915
20
12.8516095096
11
7.5907974301
21
12.9733573427
0
LINE
5
2D1
100
AcDbEntity
8
0
100
AcDbLine
62
7
6
CONTINUOUS
10
-5.2854792142
20
16.1846852788
11
-4.9319258237
21
16.0079085835
0
LINE
5
2D2
100
AcDbEntity
8
0
100
AcDbLine
62
7
6
CONTINUOUS
10
-0.7235916702
20
14.7489678240
11
-3.5341413171
21
16.1542426474
0
LINE
5
2D3
100
AcDbEntity
8
0
100
AcDbLine
62
7
6
CONTINUOUS
10
5.3307372918
20
12.1944483934
11
6.1185259395
21
11.8005540695
0
LINE
5
2D4
100
AcDbEntity
8
0
100
AcDbLine
62
7
6
CONTINUOUS
10
-2.1742093770
20
16.2279908349
11
0.0355315111
21
15.1231203908
0
LINE
5
2D5
100
AcDbEntity
8
0
100
AcDbLine
62
7
6
CONTINUOUS
10
0.7811163343
20
14.7503279792
11
0.9269297443
21
14.6774212742
0
LINE
5
2D6
100
AcDbEntity
8
0
100
AcDbLine
62
7
6
CONTINUOUS
10
-5.0416671227
20
17.9249633874
11
-4.8612151455
21
17.8347373989
0
LINE
5
2D7
100
AcDbEntity
8
0
100
AcDbLine
62
7
6
CONTINUOUS
10
0.5127963915
20
15.1477316303
11
0.6932483686
21
15.0575056418
0
LINE
5
2D8
100
AcDbEntity
8
0
100
AcDbLine
62
9
6
CONTINUOUS
10
-5.8542354667
20
18.5038604118
11
-2.8751455658
21
17.0143154613
0
LINE
5
2D9
100
AcDbEntity
8
0
100
AcDbLine
62
9
6
CONTINUOUS
10
1.3674951213
20
14.8929951177
11
4.3465850223
21
13.4034501673
0
LINE
5
2DA
100
AcDbEntity
8
0
100
AcDbLine
62
7
6
CONTINUOUS
10
-5.6605924549
20
18.6529098740
11
-2.4341025627
21
17.0396649279
0
LINE
5
2DB
100
AcDbEntity
8
0
100
AcDbLine
62
7
6
CONTINUOUS
10
1.8085381244
20
14.9183445843
11
5.0350280166
21
13.3050996383
0
LINE
5
2DC
100
AcDbEntity
8
0
100
AcDbLine
62
7
6
CONTINUOUS
10
7.0958226833
20
12.7258699693
11
7.2932133504
21
12.5435763784
0
LINE
5
2DD
100
AcDbEntity
8
0
100
AcDbLine
62
7
6
CONTINUOUS
10
-0.3003764069
20
-31.8912561155
11
0.2278907649
21
-31.6202450568
0
LINE
5
2DE
100
AcDbEntity
8
0
100
AcDbLine
62
7
6
CONTINUOUS
10
-1.9016571977
20
-32.6712907151
11
-0.3003764069
21
-31.8912561155
0
LINE
5
2DF
100
AcDbEntity
8
0
100
AcDbLine
62
9
6
CONTINUOUS
10
-9.0149651721
20
-32.8726733828
11
-4.9357444481
21
-31.6814412574
0
LINE
5
2E0
100
AcDbEntity
8
0
100
AcDbLine
62
7
6
CONTINUOUS
10
-5.2635611565
20
-32.1622663478
11
-9.3469804370
21
-33.3547242438
0
LINE
5
2E1
100
AcDbEntity
8
0
100
AcDbLine
62
7
6
CONTINUOUS
10
-3.5341413171
20
16.1542426474
11
-2.1742093770
21
16.2279908349
0
LINE
5
2E2
100
AcDbEntity
8
0
100
AcDbLine
62
7
6
CONTINUOUS
10
7.0958226833
20
12.7258699693
11
6.3888537431
21
13.0793544394
0
LINE
5
2E3
100
AcDbEntity
8
0
100
AcDbLine
62
7
6
CONTINUOUS
10
7.5907974301
20
12.9733573427
11
6.8838284900
21
13.3268418128
0
LINE
5
2E4
100
AcDbEntity
8
0
100
AcDbLine
62
7
6
CONTINUOUS
10
6.1910194669
20
13.9898671780
11
6.6233337176
21
13.7737100526
0
LINE
5
2E5
100
AcDbEntity
8
0
100
AcDbLine
62
7
6
CONTINUOUS
10
10.1827598123
20
13.9049945221
11
10.8142911333
21
13.5892288616
0
LINE
5
2E6
100
AcDbEntity
8
0
100
AcDbLine
62
7
6
CONTINUOUS
10
10.3662976533
20
13.8288854541
11
10.6704170372
21
13.6768257622
0
LINE
5
2E7
100
AcDbEntity
8
0
100
AcDbLine
62
9
6
CONTINUOUS
10
14.9483065108
20
13.6678131792
11
14.6054089348
21
14.2592240148
0
LINE
5
2E8
100
AcDbEntity
8
0
100
AcDbLine
62
7
6
CONTINUOUS
10
10.1630602843
20
15.9823048547
11
13.2718758550
21
14.4278970693
0
LINE
5
2E9
100
AcDbEntity
8
0
100
AcDbLine
62
9
6
CONTINUOUS
10
14.6054089348
20
14.2592240148
11
13.7801624672
21
14.6718472486
0
LINE
5
2EA
100
AcDbEntity
8
0
100
AcDbLine
62
9
6
CONTINUOUS
10
9.1197112844
20
17.0020728400
11
8.0789447825
21
17.5224560909
0
LINE
5
2EB
100
AcDbEntity
8
0
100
AcDbLine
62
7
6
CONTINUOUS
10
14.9742010079
20
14.3146277481
11
14.1266533997
21
14.7384015522
0
LINE
5
2EC
100
AcDbEntity
8
0
100
AcDbLine
62
7
6
CONTINUOUS
10
9.6429661130
20
16.9802451956
11
8.5138176631
21
17.5448194205
0
LINE
5
2ED
100
AcDbEntity
8
0
100
AcDbLine
62
7
6
CONTINUOUS
10
15.3011497596
20
13.8009115366
11
15.0381028233
21
14.2546003910
0
SPLINE
5
2EE
100
AcDbEntity
8
0
100
AcDbSpline
62
7
6
CONTINUOUS
70
0
71
3
72
8
73
4
74
2
42
0.0000001000
43
0.0000001000
44
0.0000000001
12
-0.0720729465
22
0.0219322224
32
0.0000000000
13
-0.0725144399
23
0.0204766492
33
0.0000000000
40
0.0000000000
40
0.0000000000
40
0.0000000000
40
0.0000000000
40
1.0000000000
40
1.0000000000
40
1.0000000000
40
1.0000000000
10
9.4335947568
20
13.5184327962
30
0.0000000000
10
9.4095704413
20
13.5257435370
30
0.0000000000
10
9.3854689552
20
13.5328085771
30
0.0000000000
10
9.3612974752
20
13.5396341268
30
0.0000000000
11
9.4335947568
21
13.5184327962
31
0.0000000000
11
9.3612974752
21
13.5396341268
31
0.0000000000
0
SPLINE
5
2EF
100
AcDbEntity
8
0
100
AcDbSpline
62
7
6
CONTINUOUS
70
0
71
3
72
16
73
12
74
10
42
0.0000001000
43
0.0000001000
44
0.0000000001
12
-3.0560647910
22
0.8629724898
32
0.0000000000
13
-2.8084123906
23
-1.4809313851
33
0.0000000000
40
0.0000000000
40
0.0000000000
40
0.0000000000
40
0.0000000000
40
0.0870603950
40
0.2031007763
40
0.3217482206
40
0.4414001586
40
0.5604207594
40
0.6771933564
40
0.7902275173
40
0.8981781335
40
1.0000000000
40
1.0000000000
40
1.0000000000
40
1.0000000000
10
9.3612974752
20
13.5396341268
30
0.0000000000
10
9.2726100726
20
13.5646777021
30
0.0000000000
10
9.0635154912
20
13.6155798039
30
0.0000000000
10
8.7272044200
20
13.6710660252
30
0.0000000000
10
8.3531863530
20
13.7029913376
30
0.0000000000
10
7.9746956229
20
13.7067100601
30
0.0000000000
10
7.5989583254
20
13.6822016627
30
0.0000000000
10
7.2331427286
20
13.6297643658
30
0.0000000000
10
6.8842394542
20
13.5499692799
30
0.0000000000
10
6.5590624845
20
13.4436361794
30
0.0000000000
10
6.3558855782
20
13.3527099033
30
0.0000000000
10
6.2605663144
20
13.3024461708
30
0.0000000000
11
9.3612974752
21
13.5396341268
31
0.0000000000
11
9.0927629405
21
13.6053993799
31
0.0000000000
11
8.7293400345
21
13.6658912997
31
0.0000000000
11
8.3540272566
21
13.6981932100
31
0.0000000000
11
7.9741564020
21
13.7019563703
31
0.0000000000
11
7.5970859423
21
13.6771579477
31
0.0000000000
11
7.2301538792
21
13.6241039185
31
0.0000000000
11
6.8804715616
21
13.5433824994
31
0.0000000000
11
6.5550432954
21
13.4358371431
31
0.0000000000
11
6.2605663144
21
13.3024461708
31
0.0000000000
0
SPLINE
5
2F0
100
AcDbEntity
8
0
100
AcDbSpline
62
7
6
CONTINUOUS
70
0
71
3
72
8
73
4
74
2
42
0.0000001000
43
0.0000001000
44
0.0000000001
12
-0.0074856961
22
0.0050624254
32
0.0000000000
13
-0.0080013977
23
0.0041120828
33
0.0000000000
40
0.0000000000
40
0.0000000000
40
0.0000000000
40
0.0000000000
40
1.0000000000
40
1.0000000000
40
1.0000000000
40
1.0000000000
10
10.2639807937
20
13.0974453124
30
0.0000000000
10
10.2614855616
20
13.0991327875
30
0.0000000000
10
10.2588967747
20
13.1006718507
30
0.0000000000
10
10.2562296421
20
13.1020425450
30
0.0000000000
11
10.2639807937
21
13.0974453124
31
0.0000000000
11
10.2562296421
21
13.1020425450
31
0.0000000000
0
SPLINE
5
2F1
100
AcDbEntity
8
0
100
AcDbSpline
62
7
6
CONTINUOUS
70
0
71
3
72
10
73
6
74
4
42
0.0000001000
43
0.0000001000
44
0.0000000001
12
-0.8085733905
22
0.4155424942
32
0.0000000000
13
-0.8134730449
23
0.4058670933
33
0.0000000000
40
0.0000000000
40
0.0000000000
40
0.0000000000
40
0.0000000000
40
0.3545041574
40
0.6877149410
40
1.0000000000
40
1.0000000000
40
1.0000000000
40
1.0000000000
10
10.2562296421
20
13.1020425450
30
0.0000000000
10
10.1606820993
20
13.1511463922
30
0.0000000000
10
9.9752140145
20
13.2461869734
30
0.0000000000
10
9.7050810072
20
13.3835118133
30
0.0000000000
10
9.5303240646
20
13.4713902156
30
0.0000000000
10
9.4456455720
20
13.5136389587
30
0.0000000000
11
10.2562296421
21
13.1020425450
31
0.0000000000
11
9.9693900366
21
13.2489701719
31
0.0000000000
11
9.6993250979
21
13.3861817944
31
0.0000000000
11
9.4456455720
21
13.5136389587
31
0.0000000000
0
SPLINE
5
2F2
100
AcDbEntity
8
0
100
AcDbSpline
62
7
6
CONTINUOUS
70
0
71
3
72
8
73
4
74
2
42
0.0000001000
43
0.0000001000
44
0.0000000001
12
-0.0115769671
22
0.0057761102
32
0.0000000000
13
-0.0124572512
23
0.0037795811
33
0.0000000000
40
0.0000000000
40
0.0000000000
40
0.0000000000
40
0.0000000000
40
1.0000000000
40
1.0000000000
40
1.0000000000
40
1.0000000000
10
9.4456455720
20
13.5136389587
30
0.0000000000
10
9.4417865829
20
13.5155643288
30
0.0000000000
10
9.4377445900
20
13.5171549638
30
0.0000000000
10
9.4335921730
20
13.5184148242
30
0.0000000000
11
9.4456455720
21
13.5136389587
31
0.0000000000
11
9.4335921730
21
13.5184148242
31
0.0000000000
0
SPLINE
5
2F3
100
AcDbEntity
8
0
100
AcDbSpline
62
7
6
CONTINUOUS
70
0
71
3
72
8
73
4
74
2
42
0.0000001000
43
0.0000001000
44
0.0000000001
12
0.0924738415
22
-0.0461380859
32
0.0000000000
13
0.0923744470
23
-0.0463369908
33
0.0000000000
40
0.0000000000
40
0.0000000000
40
0.0000000000
40
0.0000000000
40
1.0000000000
40
1.0000000000
40
1.0000000000
40
1.0000000000
10
10.2941737094
20
13.0893748900
30
0.0000000000
10
10.3249983232
20
13.0739955280
30
0.0000000000
10
10.3558053570
20
13.0585809119
30
0.0000000000
10
10.3865968394
20
13.0431352483
30
0.0000000000
11
10.2941737094
21
13.0893748900
31
0.0000000000
11
10.3865968394
21
13.0431352483
31
0.0000000000
0
SPLINE
5
2F4
100
AcDbEntity
8
0
100
AcDbSpline
62
7
6
CONTINUOUS
70
0
71
3
72
10
73
6
74
4
42
0.0000001000
43
0.0000001000
44
0.0000000001
12
0.0867340293
22
0.0433670146
32
0.0000000000
13
0.0867710934
23
-0.0432928069
33
0.0000000000
40
0.0000000000
40
0.0000000000
40
0.0000000000
40
0.0000000000
40
0.3690647074
40
0.7005601128
40
1.0000000000
40
1.0000000000
40
1.0000000000
40
1.0000000000
10
10.2005082143
20
13.0830644336
30
0.0000000000
10
10.2111783707
20
13.0883995118
30
0.0000000000
10
10.2326066086
20
13.0964991382
30
0.0000000000
10
10.2653215236
20
13.0992483933
30
0.0000000000
10
10.2855128006
20
13.0936960877
30
0.0000000000
10
10.2941737094
20
13.0893748900
30
0.0000000000
11
10.2005082143
21
13.0830644336
31
0.0000000000
11
10.2341694218
21
13.0952201227
31
0.0000000000
11
10.2662460733
21
13.0973249822
31
0.0000000000
11
10.2941737094
21
13.0893748900
31
0.0000000000
0
SPLINE
5
2F5
100
AcDbEntity
8
0
100
AcDbSpline
62
9
6
CONTINUOUS
70
0
71
3
72
23
73
19
74
17
42
0.0000001000
43
0.0000001000
44
0.0000000001
12
2.2123948923
22
3.0291572814
32
0.0000000000
13
3.5867267087
23
-1.0639816211
33
0.0000000000
40
0.0000000000
40
0.0000000000
40
0.0000000000
40
0.0000000000
40
0.0128088441
40
0.0754142315
40
0.1453314057
40
0.2228245346
40
0.3078446657
40
0.3982020386
40
0.4887424286
40
0.5745200681
40
0.6529857980
40
0.7231231402
40
0.7849145322
40
0.8391285411
40
0.8867127327
40
0.9286911577
40
0.9661099934
40
1.0000000000
40
1.0000000000
40
1.0000000000
40
1.0000000000
10
5.8354474890
20
12.8801444948
30
0.0000000000
10
5.8448935628
20
12.8930778293
30
0.0000000000
10
5.9024176227
20
12.9678270610
30
0.0000000000
10
6.0322281280
20
13.0958475545
30
0.0000000000
10
6.2477997622
20
13.2463139868
30
0.0000000000
10
6.5064487419
20
13.3787641154
30
0.0000000000
10
6.8021474426
20
13.4899928887
30
0.0000000000
10
7.1228683629
20
13.5761031847
30
0.0000000000
10
7.4505422315
20
13.6349267978
30
0.0000000000
10
7.7668109906
20
13.6679203234
30
0.0000000000
10
8.0590524723
20
13.6794438175
30
0.0000000000
10
8.3215153909
20
13.6747789668
30
0.0000000000
10
8.5531871886
20
13.6587670691
30
0.0000000000
10
8.7559038189
20
13.6352634278
30
0.0000000000
10
8.9330184709
20
13.6070405192
30
0.0000000000
10
9.0883330887
20
13.5759594824
30
0.0000000000
10
9.2257615339
20
13.5430833939
30
0.0000000000
10
9.3114883386
20
13.5193611132
30
0.0000000000
10
9.3520064025
20
13.5073416651
30
0.0000000000
11
5.8354474890
21
12.8801444948
31
0.0000000000
11
5.8647178373
21
12.9182296699
31
0.0000000000
11
6.0296382086
21
13.0845434840
31
0.0000000000
11
6.2428868132
21
13.2360244695
31
0.0000000000
11
6.5001628993
21
13.3696716947
31
0.0000000000
11
6.7974198144
21
13.4828624193
31
0.0000000000
11
7.1236697421
21
13.5713843210
31
0.0000000000
11
7.4569795379
21
13.6317425462
31
0.0000000000
11
7.7761358022
21
13.6652685289
31
0.0000000000
11
8.0694622812
21
13.6768976525
31
0.0000000000
11
8.3318191128
21
13.6722132284
31
0.0000000000
11
8.5624397413
21
13.6562176237
31
0.0000000000
11
8.7639084507
21
13.6327915548
31
0.0000000000
11
8.9397029734
21
13.6047147067
31
0.0000000000
11
9.0936874099
21
13.5738350785
31
0.0000000000
11
9.2298281913
21
13.5412254436
31
0.0000000000
11
9.3520064025
21
13.5073416651
31
0.0000000000
0
SPLINE
5
2F6
100
AcDbEntity
8
0
100
AcDbSpline
62
9
6
CONTINUOUS
70
0
71
3
72
10
73
6
74
4
42
0.0000001000
43
0.0000001000
44
0.0000000001
12
0.4102902577
22
0.4947141415
32
0.0000000000
13
0.5677248785
23
0.2994756486
33
0.0000000000
40
0.0000000000
40
0.0000000000
40
0.0000000000
40
0.0000000000
40
0.3704497270
40
0.8076574566
40
1.0000000000
40
1.0000000000
40
1.0000000000
40
1.0000000000
10
5.7547571688
20
12.9130735554
30
0.0000000000
10
5.8054211401
20
12.9741624616
30
0.0000000000
10
5.9299492349
20
13.0952300159
30
0.0000000000
10
6.1065211134
20
13.2172719313
30
0.0000000000
10
6.2240331256
20
13.2831898843
30
0.0000000000
10
6.2604323414
20
13.3023905203
30
0.0000000000
11
5.7547571688
21
12.9130735554
31
0.0000000000
11
5.9234601826
21
13.0804895763
31
0.0000000000
11
6.1528205560
21
13.2418921632
31
0.0000000000
11
6.2604323414
21
13.3023905203
31
0.0000000000
0
SPLINE
5
2F7
100
AcDbEntity
8
0
100
AcDbSpline
62
9
6
CONTINUOUS
70
0
71
3
72
8
73
4
74
2
42
0.0000001000
43
0.0000001000
44
0.0000000001
12
0.0688320789
22
-0.0563492324
32
0.0000000000
13
0.0653202197
23
-0.0604183720
33
0.0000000000
40
0.0000000000
40
0.0000000000
40
0.0000000000
40
0.0000000000
40
1.0000000000
40
1.0000000000
40
1.0000000000
40
1.0000000000
10
10.2941737094
20
13.0893748900
30
0.0000000000
10
10.3171177357
20
13.0705918125
30
0.0000000000
10
10.3395350247
20
13.0511499752
30
0.0000000000
10
10.3613084313
20
13.0310105179
30
0.0000000000
11
10.2941737094
21
13.0893748900
31
0.0000000000
11
10.3613084313
21
13.0310105179
31
0.0000000000
0
SPLINE
5
2F8
100
AcDbEntity
8
0
100
AcDbSpline
62
7
6
CONTINUOUS
70
0
71
3
72
10
73
6
74
4
42
0.0000001000
43
0.0000001000
44
0.0000000001
12
-0.0809117024
22
0.0245489425
32
0.0000000000
13
-0.0751620072
23
-0.0375810036
33
0.0000000000
40
0.0000000000
40
0.0000000000
40
0.0000000000
40
0.0000000000
40
0.1915809123
40
0.5741137005
40
1.0000000000
40
1.0000000000
40
1.0000000000
40
1.0000000000
10
9.4335921730
20
13.5184148242
30
0.0000000000
10
9.4284251271
20
13.5199825271
30
0.0000000000
10
9.4124285743
20
13.5231456574
30
0.0000000000
10
9.3840784711
20
13.5207632069
30
0.0000000000
10
9.3626502333
20
13.5126635805
30
0.0000000000
10
9.3519800769
20
13.5073285023
30
0.0000000000
11
9.4335921730
21
13.5184148242
31
0.0000000000
11
9.4177179359
21
13.5215890509
31
0.0000000000
11
9.3856412844
21
13.5194841915
31
0.0000000000
11
9.3519800769
21
13.5073285023
31
0.0000000000
0
SPLINE
5
2F9
100
AcDbEntity
8
0
100
AcDbSpline
62
9
6
CONTINUOUS
70
0
71
3
72
9
73
5
74
3
42
0.0000001000
43
0.0000001000
44
0.0000000001
12
0.0958301386
22
-0.0807618550
32
0.0000000000
13
0.0877502344
23
-0.0895214310
33
0.0000000000
40
0.0000000000
40
0.0000000000
40
0.0000000000
40
0.0000000000
40
0.7276524333
40
1.0000000000
40
1.0000000000
40
1.0000000000
40
1.0000000000
10
10.2005371102
20
13.0830788815
30
0.0000000000
10
10.2237807881
20
13.0634900281
30
0.0000000000
10
10.2548653337
20
13.0355278900
30
0.0000000000
10
10.2845361220
20
13.0060985513
30
0.0000000000
10
10.2925023096
20
12.9979715700
30
0.0000000000
11
10.2005371102
21
13.0830788815
31
0.0000000000
11
10.2682697251
21
13.0220197419
31
0.0000000000
11
10.2925023096
21
12.9979715700
31
0.0000000000
0
SPLINE
5
2FA
100
AcDbEntity
8
0
100
AcDbSpline
62
7
6
CONTINUOUS
70
0
71
3
72
12
73
8
74
6
42
0.0000001000
43
0.0000001000
44
0.0000000001
12
-0.0815036391
22
-1.4111647451
32
0.0000000000
13
1.2676056333
23
-0.6319942551
33
0.0000000000
40
0.0000000000
40
0.0000000000
40
0.0000000000
40
0.0000000000
40
0.2076284328
40
0.4447806750
40
0.6687609879
40
0.8844181055
40
1.0000000000
40
1.0000000000
40
1.0000000000
40
1.0000000000
10
-25.2021677184
20
-24.8982720733
30
0.0000000000
10
-25.2078085426
20
-24.9959380481
30
0.0000000000
10
-25.2010162557
20
-25.2067726920
30
0.0000000000
10
-25.1203902355
20
-25.5143738459
30
0.0000000000
10
-24.9584539108
20
-25.7933049402
30
0.0000000000
10
-24.7671333412
20
-25.9760812455
30
0.0000000000
10
-24.6323688157
20
-26.0567503887
30
0.0000000000
10
-24.5835313954
20
-26.0810994198
30
0.0000000000
11
-25.2021677184
21
-24.8982720733
31
0.0000000000
11
-25.1912621504
21
-25.1914148470
31
0.0000000000
11
-25.1043238572
21
-25.5146002973
31
0.0000000000
11
-24.9444449574
21
-25.7872707163
31
0.0000000000
11
-24.7239065833
21
-25.9969986148
31
0.0000000000
11
-24.5835313954
21
-26.0810994198
31
0.0000000000
0
SPLINE
5
2FB
100
AcDbEntity
8
0
100
AcDbSpline
62
7
6
CONTINUOUS
70
0
71
3
72
11
73
7
74
5
42
0.0000001000
43
0.0000001000
44
0.0000000001
12
-5.7689429689
22
-36.6692888947
32
0.0000000000
13
-2.1482200164
23
-37.0581004319
33
0.0000000000
40
0.0000000000
40
0.0000000000
40
0.0000000000
40
0.0000000000
40
0.2533290533
40
0.5057849335
40
0.7553655414
40
1.0000000000
40
1.0000000000
40
1.0000000000
40
1.0000000000
10
-21.1988113280
20
11.9916884773
30
0.0000000000
10
-21.6859582816
20
8.8952230634
30
0.0000000000
10
-22.5867065858
20
2.7013962742
30
0.0000000000
10
-23.7099440362
20
-6.5782250376
30
0.0000000000
10
-24.5944089494
20
-15.7755892709
30
0.0000000000
10
-25.0269882405
20
-21.8761830177
30
0.0000000000
10
-25.2021644541
20
-24.8980791301
30
0.0000000000
11
-21.1988113280
21
11.9916884773
31
0.0000000000
11
-22.5509731592
21
2.6857585399
31
0.0000000000
11
-23.6758211069
21
-6.6177225777
31
0.0000000000
11
-24.5612891317
21
-15.8398145512
31
0.0000000000
11
-25.2021644541
21
-24.8980791301
31
0.0000000000
0
SPLINE
5
2FC
100
AcDbEntity
8
0
100
AcDbSpline
62
7
6
CONTINUOUS
70
0
71
3
72
13
73
9
74
7
42
0.0000001000
43
0.0000001000
44
0.0000000001
12
-1.7045921603
22
-0.6228713024
32
0.0000000000
13
-0.2817163635
23
-1.7913544956
33
0.0000000000
40
0.0000000000
40
0.0000000000
40
0.0000000000
40
0.0000000000
40
0.1218526825
40
0.2975476104
40
0.4810387681
40
0.6696937605
40
0.8585324643
40
1.0000000000
40
1.0000000000
40
1.0000000000
40
1.0000000000
10
-20.1467345939
20
13.3721696960
30
0.0000000000
10
-20.2159709697
20
13.3468701830
30
0.0000000000
10
-20.3799767926
20
13.2701742251
30
0.0000000000
10
-20.6160448129
20
13.0973925429
30
0.0000000000
10
-20.8405179530
20
12.8516225979
30
0.0000000000
10
-21.0212108085
20
12.5629614927
30
0.0000000000
10
-21.1399558215
20
12.2713125239
30
0.0000000000
10
-21.1855403076
20
12.0760920694
30
0.0000000000
10
-21.1988248808
20
11.9916192340
30
0.0000000000
11
-20.1467345939
21
13.3721696960
31
0.0000000000
11
-20.3472830621
21
13.2789913948
31
0.0000000000
11
-20.6052572137
21
13.0925070751
31
0.0000000000
11
-20.8304729229
21
12.8479728797
31
0.0000000000
11
-21.0123564385
21
12.5585847449
31
0.0000000000
11
-21.1409914703
21
12.2415551304
31
0.0000000000
11
-21.1988248808
21
11.9916192340
31
0.0000000000
0
SPLINE
5
2FD
100
AcDbEntity
8
0
100
AcDbSpline
62
7
6
CONTINUOUS
70
0
71
3
72
11
73
7
74
5
42
0.0000001000
43
0.0000001000
44
0.0000000001
12
0.7554576850
22
-0.3784228571
32
0.0000000000
13
0.8104097291
23
0.2361310052
33
0.0000000000
40
0.0000000000
40
0.0000000000
40
0.0000000000
40
0.0000000000
40
0.1373503801
40
0.4461466217
40
0.7649928525
40
1.0000000000
40
1.0000000000
40
1.0000000000
40
1.0000000000
10
-10.1691714213
20
-33.2883044806
30
0.0000000000
10
-10.1345839546
20
-33.3056299884
30
0.0000000000
10
-10.0191476623
20
-33.3558986948
30
0.0000000000
10
-9.8082426627
20
-33.4063239118
30
0.0000000000
10
-9.5637571357
20
-33.4050668440
30
0.0000000000
10
-9.4104684892
20
-33.3732079243
30
0.0000000000
10
-9.3469844630
20
-33.3547104330
30
0.0000000000
11
-10.1691714213
21
-33.2883044806
31
0.0000000000
11
-10.0627907641
21
-33.3346042583
31
0.0000000000
11
-9.8098409970
21
-33.3954257341
31
0.0000000000
11
-9.5412157900
21
-33.3946536095
31
0.0000000000
11
-9.3469844630
21
-33.3547104330
31
0.0000000000
0
SPLINE
5
2FE
100
AcDbEntity
8
0
100
AcDbSpline
62
7
6
CONTINUOUS
70
0
71
3
72
15
73
11
74
9
42
0.0000001000
43
0.0000001000
44
0.0000000001
12
0.9824482125
22
-0.5790274267
32
0.0000000000
13
-0.1228791996
23
-1.1322719302
33
0.0000000000
40
0.0000000000
40
0.0000000000
40
0.0000000000
40
0.0000000000
40
0.0764274439
40
0.1981682665
40
0.3273001679
40
0.4618099848
40
0.5991358783
40
0.7364492729
40
0.8709227495
40
1.0000000000
40
1.0000000000
40
1.0000000000
40
1.0000000000
10
-1.2427391284
20
7.4832618675
30
0.0000000000
10
-1.2177104599
20
7.4685106721
30
0.0000000000
10
-1.1553623972
20
7.4257366173
30
0.0000000000
10
-1.0643878384
20
7.3403125657
30
0.0000000000
10
-0.9744320215
20
7.2242202960
30
0.0000000000
10
-0.8990410130
20
7.0914255766
30
0.0000000000
10
-0.8409599924
20
6.9468754014
30
0.0000000000
10
-0.8023547726
20
6.7959562820
30
0.0000000000
10
-0.7846662698
20
6.6443502908
30
0.0000000000
10
-0.7873622478
20
6.5438786951
30
0.0000000000
10
-0.7926492176
20
6.4951618459
30
0.0000000000
11
-1.2427391284
21
7.4832618675
31
0.0000000000
11
-1.1706997712
21
7.4341865838
31
0.0000000000
11
-1.0690732181
21
7.3398641694
31
0.0000000000
11
-0.9785586331
21
7.2239462445
31
0.0000000000
11
-0.9026366387
21
7.0908866884
31
0.0000000000
11
-0.8442261985
21
6.9457998580
31
0.0000000000
11
-0.8055719588
21
6.7942631795
31
0.0000000000
11
-0.7881576645
21
6.6421018913
31
0.0000000000
11
-0.7926492176
21
6.4951618459
31
0.0000000000
0
SPLINE
5
2FF
100
AcDbEntity
8
0
100
AcDbSpline
62
7
6
CONTINUOUS
70
0
71
3
72
13
73
9
74
7
42
0.0000001000
43
0.0000001000
44
0.0000000001
12
-0.0664294323
22
-0.6121148396
32
0.0000000000
13
-0.5929942458
23
-0.1729541732
33
0.0000000000
40
0.0000000000
40
0.0000000000
40
0.0000000000
40
0.0000000000
40
0.2250710464
40
0.4343234358
40
0.6278245557
40
0.8083547618
40
0.9814783033
40
1.0000000000
40
1.0000000000
40
1.0000000000
40
1.0000000000
10
-4.9357444481
20
-31.6814412574
30
0.0000000000
10
-4.9407282287
20
-31.7273643666
30
0.0000000000
10
-4.9571813270
20
-31.8154733790
30
0.0000000000
10
-5.0034991683
20
-31.9365578041
30
0.0000000000
10
-5.0693544547
20
-32.0377872062
30
0.0000000000
10
-5.1528279586
20
-32.1148772378
30
0.0000000000
10
-5.2221207390
20
-32.1495277196
30
0.0000000000
10
-5.2598264716
20
-32.1611737585
30
0.0000000000
10
-5.2634875582
20
-32.1622415601
30
0.0000000000
11
-4.9357444481
21
-31.6814412574
31
0.0000000000
11
-4.9619669238
21
-31.8175159134
31
0.0000000000
11
-5.0089152742
21
-31.9374960217
31
0.0000000000
11
-5.0747886019
21
-32.0367690310
31
0.0000000000
11
-5.1570565438
21
-32.1115166697
31
0.0000000000
11
-5.2525571853
21
-32.1588647994
31
0.0000000000
11
-5.2634875582
21
-32.1622415601
31
0.0000000000
0
SPLINE
5
300
100
AcDbEntity
8
0
100
AcDbSpline
62
9
6
CONTINUOUS
70
0
71
3
72
10
73
6
74
4
42
0.0000001000
43
0.0000001000
44
0.0000000001
12
-0.0177754027
22
-0.3873925808
32
0.0000000000
13
0.3403955010
23
-0.1707190837
33
0.0000000000
40
0.0000000000
40
0.0000000000
40
0.0000000000
40
0.0000000000
40
0.1830989862
40
0.5386647973
40
1.0000000000
40
1.0000000000
40
1.0000000000
40
1.0000000000
10
-25.2013294762
20
-24.8983104493
30
0.0000000000
10
-25.2024143622
20
-24.9219541789
30
0.0000000000
10
-25.1924179146
20
-24.9926778186
30
0.0000000000
10
-25.1085527275
20
-25.0952025284
30
0.0000000000
10
-25.0200812738
20
-25.1505820917
30
0.0000000000
10
-24.9677357980
20
-25.1768349994
30
0.0000000000
11
-25.2013294762
21
-24.8983104493
31
0.0000000000
11
-25.1915539463
21
-24.9682433458
31
0.0000000000
11
-25.1136412592
21
-25.0789832113
31
0.0000000000
11
-24.9677357980
21
-25.1768349994
31
0.0000000000
0
SPLINE
5
301
100
AcDbEntity
8
0
100
AcDbSpline
62
9
6
CONTINUOUS
70
0
71
3
72
10
73
6
74
4
42
0.0000001000
43
0.0000001000
44
0.0000000001
12
-0.0433309684
22
-0.3674627800
32
0.0000000000
13
0.3282964682
23
-0.1636023241
33
0.0000000000
40
0.0000000000
40
0.0000000000
40
0.0000000000
40
0.0000000000
40
0.1865986510
40
0.5275458098
40
1.0000000000
40
1.0000000000
40
1.0000000000
40
1.0000000000
10
-21.1978758287
20
11.9915069940
30
0.0000000000
10
-21.2005709955
20
11.9686509743
30
0.0000000000
10
-21.1892579864
20
11.8995186822
30
0.0000000000
10
-21.0985485094
20
11.8105867654
30
0.0000000000
10
-21.0137747824
20
11.7590938237
30
0.0000000000
10
-20.9620731017
20
11.7333289559
30
0.0000000000
11
-21.1978758287
21
11.9915069940
31
0.0000000000
11
-21.1879963110
21
11.9225248499
31
0.0000000000
11
-21.1085464426
21
11.8259442365
31
0.0000000000
11
-20.9620731017
21
11.7333289559
31
0.0000000000
0
SPLINE
5
302
100
AcDbEntity
8
0
100
AcDbSpline
62
9
6
CONTINUOUS
70
0
71
3
72
9
73
5
74
3
42
0.0000001000
43
0.0000001000
44
0.0000000001
12
0.3322008814
22
0.1208103287
32
0.0000000000
13
0.3161318243
23
-0.1534925000
33
0.0000000000
40
0.0000000000
40
0.0000000000
40
0.0000000000
40
0.0000000000
40
0.4645073323
40
1.0000000000
40
1.0000000000
40
1.0000000000
40
1.0000000000
10
-20.1465062420
20
13.3722737417
30
0.0000000000
10
-20.0950696603
20
13.3909795028
30
0.0000000000
10
-19.9749072947
20
13.4057230147
30
0.0000000000
10
-19.8598122873
20
13.3702550634
30
0.0000000000
10
-19.8033835293
20
13.3428570273
30
0.0000000000
11
-20.1465062420
21
13.3722737417
31
0.0000000000
11
-19.9845304295
21
13.3938424617
31
0.0000000000
11
-19.8033835293
21
13.3428570273
31
0.0000000000
0
SPLINE
5
303
100
AcDbEntity
8
0
100
AcDbSpline
62
9
6
CONTINUOUS
70
0
71
3
72
14
73
10
74
8
42
0.0000001000
43
0.0000001000
44
0.0000000001
12
-0.9175232111
22
-0.3075008759
32
0.0000000000
13
-0.1523618983
23
-0.9556105292
33
0.0000000000
40
0.0000000000
40
0.0000000000
40
0.0000000000
40
0.0000000000
40
0.1210492999
40
0.2544537633
40
0.3979206413
40
0.5482208807
40
0.7016037588
40
0.8537037904
40
1.0000000000
40
1.0000000000
40
1.0000000000
40
1.0000000000
10
-4.8915846766
20
5.1222680466
30
0.0000000000
10
-4.9286065241
20
5.1098604580
30
0.0000000000
10
-5.0033824487
20
5.0742974057
30
0.0000000000
10
-5.1073400177
20
4.9980346202
30
0.0000000000
10
-5.2044732091
20
4.8995607189
30
0.0000000000
10
-5.2904678020
20
4.7832164529
30
0.0000000000
10
-5.3616207484
20
4.6540706096
30
0.0000000000
10
-5.4147748394
20
4.5179499508
30
0.0000000000
10
-5.4373012846
20
4.4239655473
30
0.0000000000
10
-5.4447312740
20
4.3773648145
30
0.0000000000
11
-4.8915846766
21
5.1222680466
31
0.0000000000
11
-4.9978734135
21
5.0730360103
31
0.0000000000
11
-5.1025344035
21
4.9974644886
31
0.0000000000
11
-5.2004622383
21
4.8990574888
31
0.0000000000
11
-5.2871817140
21
4.7822958196
31
0.0000000000
11
-5.3588593565
21
4.6523247374
31
0.0000000000
11
-5.4121888000
21
4.5151417528
31
0.0000000000
11
-5.4447312740
21
4.3773648145
31
0.0000000000
0
SPLINE
5
304
100
AcDbEntity
8
0
100
AcDbSpline
62
9
6
CONTINUOUS
70
0
71
3
72
14
73
10
74
8
42
0.0000001000
43
0.0000001000
44
0.0000000001
12
-1.9584860590
22
-0.6713582142
32
0.0000000000
13
-0.3247734324
23
-2.0447277845
33
0.0000000000
40
0.0000000000
40
0.0000000000
40
0.0000000000
40
0.0000000000
40
0.1209816879
40
0.2540124405
40
0.3972554881
40
0.5474380070
40
0.7008058998
40
0.8530058805
40
1.0000000000
40
1.0000000000
40
1.0000000000
40
1.0000000000
10
-5.3784677409
20
6.1303991331
30
0.0000000000
10
-5.4574480572
20
6.1033251165
30
0.0000000000
10
-5.6165552355
20
6.0260853243
30
0.0000000000
10
-5.8373282610
20
5.8615043007
30
0.0000000000
10
-6.0433588370
20
5.6497815305
30
0.0000000000
10
-6.2258193443
20
5.4000726738
30
0.0000000000
10
-6.3769105937
20
5.1231865219
30
0.0000000000
10
-6.4900749922
20
4.8311816406
30
0.0000000000
10
-6.5381896144
20
4.6295260739
30
0.0000000000
10
-6.5541028760
20
4.5293384205
30
0.0000000000
11
-5.3784677409
21
6.1303991331
31
0.0000000000
11
-5.6049382010
21
6.0233983601
31
0.0000000000
11
-5.8270008119
21
5.8604713574
31
0.0000000000
11
-6.0347795069
21
5.6488618119
31
0.0000000000
11
-6.2188078695
21
5.3982382450
31
0.0000000000
11
-6.3710265306
21
5.1195759185
31
0.0000000000
11
-6.4844675035
21
4.8255952264
31
0.0000000000
11
-6.5541028760
21
4.5293384205
31
0.0000000000
0
SPLINE
5
305
100
AcDbEntity
8
0
100
AcDbSpline
62
9
6
CONTINUOUS
70
0
71
3
72
12
73
8
74
6
42
0.0000001000
43
0.0000001000
44
0.0000000001
12
0.1114782002
22
1.1707220523
32
0.0000000000
13
-1.0455241024
23
0.5384207130
33
0.0000000000
40
0.0000000000
40
0.0000000000
40
0.0000000000
40
0.0000000000
40
0.2016970527
40
0.4135804418
40
0.6241806096
40
0.8223275618
40
1.0000000000
40
1.0000000000
40
1.0000000000
40
1.0000000000
10
-4.8915846766
20
5.1222680466
30
0.0000000000
10
-4.8840897352
20
5.2009784425
30
0.0000000000
10
-4.8895780567
20
5.3647192628
30
0.0000000000
10
-4.9491821696
20
5.6036303787
30
0.0000000000
10
-5.0550327356
20
5.8247127956
30
0.0000000000
10
-5.1973838867
20
6.0075319575
30
0.0000000000
10
-5.3165474669
20
6.0985116268
30
0.0000000000
10
-5.3784677390
20
6.1303991337
30
0.0000000000
11
-4.8915846766
21
5.1222680466
31
0.0000000000
11
-4.8975305724
21
5.3593928057
31
0.0000000000
11
-4.9572810028
21
5.6013015972
31
0.0000000000
11
-5.0649902054
21
5.8243238293
31
0.0000000000
11
-5.2101193740
21
6.0066363493
31
0.0000000000
11
-5.3784677390
21
6.1303991337
31
0.0000000000
0
SPLINE
5
306
100
AcDbEntity
8
0
100
AcDbSpline
62
9
6
CONTINUOUS
70
0
71
3
72
10
73
6
74
4
42
0.0000001000
43
0.0000001000
44
0.0000000001
12
-3.0974414139
22
-19.4456397109
32
0.0000000000
13
-2.0725756641
23
-19.5818758049
33
0.0000000000
40
0.0000000000
40
0.0000000000
40
0.0000000000
40
0.0000000000
40
0.4780315594
40
0.9510758025
40
1.0000000000
40
1.0000000000
40
1.0000000000
40
1.0000000000
10
-5.4447312740
20
4.3773648145
30
0.0000000000
10
-5.9382895237
20
1.2788216562
30
0.0000000000
10
-6.8454226432
20
-4.8981438452
30
0.0000000000
10
-7.6371159677
20
-11.4144947279
30
0.0000000000
10
-8.0022489677
20
-14.8210551041
30
0.0000000000
10
-8.0360486681
20
-15.1403976241
30
0.0000000000
11
-5.4447312740
21
4.3773648145
31
0.0000000000
11
-6.8112310503
21
-4.9357336714
31
0.0000000000
11
-7.9333783744
21
-14.1825060032
31
0.0000000000
11
-8.0360486681
21
-15.1403976241
31
0.0000000000
0
SPLINE
5
307
100
AcDbEntity
8
0
100
AcDbSpline
62
9
6
CONTINUOUS
70
0
71
3
72
9
73
5
74
3
42
0.0000001000
43
0.0000001000
44
0.0000000001
12
-1.8264163581
22
-17.2561411929
32
0.0000000000
13
-0.9707502875
23
-17.3249408067
33
0.0000000000
40
0.0000000000
40
0.0000000000
40
0.0000000000
40
0.0000000000
40
0.4753420946
40
1.0000000000
40
1.0000000000
40
1.0000000000
40
1.0000000000
10
-8.0360486681
20
-15.1403976241
30
0.0000000000
10
-8.3254395271
20
-17.8745877237
30
0.0000000000
10
-8.8688125832
20
-23.6335734076
30
0.0000000000
10
-9.2699343375
20
-29.4044812333
30
0.0000000000
10
-9.4397049416
20
-32.4343702851
30
0.0000000000
11
-8.0360486681
21
-15.1403976241
31
0.0000000000
11
-8.8098740035
21
-23.3522581680
31
0.0000000000
11
-9.4397049416
21
-32.4343702851
31
0.0000000000
0
SPLINE
5
308
100
AcDbEntity
8
0
100
AcDbSpline
62
9
6
CONTINUOUS
70
0
71
3
72
11
73
7
74
5
42
0.0000001000
43
0.0000001000
44
0.0000000001
12
-5.8424915601
22
-36.6795502958
32
0.0000000000
13
-2.0779663369
23
-37.0837723733
33
0.0000000000
40
0.0000000000
40
0.0000000000
40
0.0000000000
40
0.0000000000
40
0.2541064299
40
0.5055605648
40
0.7542322619
40
1.0000000000
40
1.0000000000
40
1.0000000000
40
1.0000000000
10
-6.5541028760
20
4.5293384205
30
0.0000000000
10
-7.0489744334
20
1.4225018947
30
0.0000000000
10
-7.9585203533
20
-4.7709812412
30
0.0000000000
10
-9.0848395279
20
-14.0416527791
30
0.0000000000
10
-9.9649898582
20
-23.2352424938
30
0.0000000000
10
-10.3895259292
20
-29.3428254924
30
0.0000000000
10
-10.5597582914
20
-32.3808237784
30
0.0000000000
11
-6.5541028760
21
4.5293384205
31
0.0000000000
11
-7.9242414818
21
-4.8086859801
31
0.0000000000
11
-9.0493804563
21
-14.0801607138
31
0.0000000000
11
-9.9282235766
21
-23.2744041917
31
0.0000000000
11
-10.5597582914
21
-32.3808237784
31
0.0000000000
0
SPLINE
5
309
100
AcDbEntity
8
0
100
AcDbSpline
62
9
6
CONTINUOUS
70
0
71
3
72
12
73
8
74
6
42
0.0000001000
43
0.0000001000
44
0.0000000001
12
-1.1077588458
22
-0.2538194119
32
0.0000000000
13
-1.0158088579
23
0.5095942685
33
0.0000000000
40
0.0000000000
40
0.0000000000
40
0.0000000000
40
0.0000000000
40
0.1764046194
40
0.3814553504
40
0.5989346941
40
0.8108542326
40
1.0000000000
40
1.0000000000
40
1.0000000000
40
1.0000000000
10
-5.4447312740
20
4.3773648145
30
0.0000000000
10
-5.5098691998
20
4.3624398423
30
0.0000000000
10
-5.6543402602
20
4.3461676422
30
0.0000000000
10
-5.8815863618
20
4.3515251096
30
0.0000000000
10
-6.1202226029
20
4.3844296903
30
0.0000000000
10
-6.3478264150
20
4.4418452414
30
0.0000000000
10
-6.4900575415
20
4.4972092254
30
0.0000000000
10
-6.5541028569
20
4.5293384251
30
0.0000000000
11
-5.4447312740
21
4.3773648145
31
0.0000000000
11
-5.6435464607
21
4.3515993500
31
0.0000000000
11
-5.8765437398
21
4.3556847086
31
0.0000000000
11
-6.1214145239
21
4.3892297330
31
0.0000000000
11
-6.3547133837
21
4.4490226172
31
0.0000000000
11
-6.5541028569
21
4.5293384251
31
0.0000000000
0
SPLINE
5
30A
100
AcDbEntity
8
0
100
AcDbSpline
62
9
6
CONTINUOUS
70
0
71
3
72
14
73
10
74
8
42
0.0000001000
43
0.0000001000
44
0.0000000001
12
-0.0409685568
22
-0.7328826027
32
0.0000000000
13
0.7046461078
23
0.2055947343
33
0.0000000000
40
0.0000000000
40
0.0000000000
40
0.0000000000
40
0.0000000000
40
0.1721173430
40
0.3291125026
40
0.4708701901
40
0.6012210276
40
0.7275072124
40
0.8582285813
40
1.0000000000
40
1.0000000000
40
1.0000000000
40
1.0000000000
10
-9.4397049416
20
-32.4343702851
30
0.0000000000
10
-9.4420554080
20
-32.4764175539
30
0.0000000000
10
-9.4402311826
20
-32.5574184447
30
0.0000000000
10
-9.4150739949
20
-32.6707427656
30
0.0000000000
10
-9.3679010392
20
-32.7659610754
30
0.0000000000
10
-9.2996580985
20
-32.8379530269
30
0.0000000000
10
-9.2133164834
20
-32.8815549240
30
0.0000000000
10
-9.1148595679
20
-32.8939082423
30
0.0000000000
10
-9.0482647316
20
-32.8823892019
30
0.0000000000
10
-9.0149651721
20
-32.8726733828
30
0.0000000000
11
-9.4397049416
21
-32.4343702851
31
0.0000000000
11
-9.4358371699
21
-32.5606498079
31
0.0000000000
11
-9.4095980306
21
-32.6728614597
31
0.0000000000
11
-9.3621155188
21
-32.7654499777
31
0.0000000000
11
-9.2955452815
21
-32.8341759453
31
0.0000000000
11
-9.2128159567
21
-32.8759931042
31
0.0000000000
11
-9.1177448549
21
-32.8889723706
31
0.0000000000
11
-9.0149651721
21
-32.8726733828
31
0.0000000000
0
SPLINE
5
30B
100
AcDbEntity
8
0
100
AcDbSpline
62
9
6
CONTINUOUS
70
0
71
3
72
12
73
8
74
6
42
0.0000001000
43
0.0000001000
44
0.0000000001
12
-0.0587810433
22
-1.0406923465
32
0.0000000000
13
0.9365595709
23
-0.4698562671
33
0.0000000000
40
0.0000000000
40
0.0000000000
40
0.0000000000
40
0.0000000000
40
0.2603956520
40
0.4964728815
40
0.7090786723
40
0.9039565536
40
1.0000000000
40
1.0000000000
40
1.0000000000
40
1.0000000000
10
-10.5597582914
20
-32.3808237784
30
0.0000000000
10
-10.5648604008
20
-32.4711543658
30
0.0000000000
10
-10.5611288389
20
-32.6446658303
30
0.0000000000
10
-10.5078955301
20
-32.8870994800
30
0.0000000000
10
-10.4081049737
20
-33.0902113839
30
0.0000000000
10
-10.2860094436
20
-33.2198186163
30
0.0000000000
10
-10.1991093066
20
-33.2732141450
30
0.0000000000
10
-10.1691258369
20
-33.2882563501
30
0.0000000000
11
-10.5597582914
21
-32.3808237784
31
0.0000000000
11
-10.5517193410
21
-32.6521283934
31
0.0000000000
11
-10.4961980900
21
-32.8918583892
31
0.0000000000
11
-10.3956587254
21
-33.0893495865
31
0.0000000000
11
-10.2547041592
21
-33.2356167475
31
0.0000000000
11
-10.1691258369
21
-33.2882563501
31
0.0000000000
0
SPLINE
5
30C
100
AcDbEntity
8
0
100
AcDbSpline
62
9
6
CONTINUOUS
70
0
71
3
72
12
73
8
74
6
42
0.0000001000
43
0.0000001000
44
0.0000000001
12
-1.0663493466
22
-0.4226553017
32
0.0000000000
13
-1.0265862753
23
0.5117216553
33
0.0000000000
40
0.0000000000
40
0.0000000000
40
0.0000000000
40
0.0000000000
40
0.1827786053
40
0.3894629518
40
0.6052396835
40
0.8137958535
40
1.0000000000
40
1.0000000000
40
1.0000000000
40
1.0000000000
10
-9.4397049417
20
-32.4343702851
30
0.0000000000
10
-9.5046735571
20
-32.4601210673
30
0.0000000000
10
-9.6499380866
20
-32.4978388511
30
0.0000000000
10
-9.8810677578
20
-32.5190868883
30
0.0000000000
10
-10.1228963436
20
-32.5074525902
30
0.0000000000
10
-10.3529516666
20
-32.4639988660
30
0.0000000000
10
-10.4960285830
20
-32.4125806023
30
0.0000000000
10
-10.5597467900
20
-32.3808190376
30
0.0000000000
11
-9.4397049417
21
-32.4343702851
31
0.0000000000
11
-9.6417845248
21
-32.4902277472
31
0.0000000000
11
-9.8777325484
21
-32.5133534028
31
0.0000000000
11
-10.1249582200
21
-32.5015330912
31
0.0000000000
11
-10.3597909709
21
-32.4558985457
31
0.0000000000
11
-10.5597467900
21
-32.3808190376
31
0.0000000000
0
SPLINE
5
30D
100
AcDbEntity
8
0
100
AcDbSpline
62
9
6
CONTINUOUS
70
0
71
3
72
11
73
7
74
5
42
0.0000001000
43
0.0000001000
44
0.0000000001
12
-0.0744223595
22
-0.6114565035
32
0.0000000000
13
-0.5959627809
23
-0.1720454060
33
0.0000000000
40
0.0000000000
40
0.0000000000
40
0.0000000000
40
0.0000000000
40
0.3539346862
40
0.6667324164
40
0.9474590496
40
1.0000000000
40
1.0000000000
40
1.0000000000
40
1.0000000000
10
-9.0149651721
20
-32.8726733828
30
0.0000000000
10
-9.0237453903
20
-32.9448119380
30
0.0000000000
10
-9.0563691853
20
-33.0797628911
30
0.0000000000
10
-9.1590538956
20
-33.2496118393
30
0.0000000000
10
-9.2708273638
20
-33.3294172847
30
0.0000000000
10
-9.3361177370
20
-33.3515103861
30
0.0000000000
10
-9.3465552206
20
-33.3545235291
30
0.0000000000
11
-9.0149651721
21
-32.8726733828
31
0.0000000000
11
-9.0695515400
21
-33.0837418524
31
0.0000000000
11
-9.1731835504
21
-33.2461720116
31
0.0000000000
11
-9.3157208815
21
-33.3440701796
31
0.0000000000
11
-9.3465552206
21
-33.3545235291
31
0.0000000000
0
SPLINE
5
30E
100
AcDbEntity
8
0
100
AcDbSpline
62
9
6
CONTINUOUS
70
0
71
3
72
14
73
10
74
8
42
0.0000001000
43
0.0000001000
44
0.0000000001
12
0.3220688716
22
2.0395539861
32
0.0000000000
13
1.9447703105
23
0.6938135627
33
0.0000000000
40
0.0000000000
40
0.0000000000
40
0.0000000000
40
0.0000000000
40
0.1474675477
40
0.3001482519
40
0.4538906317
40
0.6042397580
40
0.7473552382
40
0.8798988653
40
1.0000000000
40
1.0000000000
40
1.0000000000
40
1.0000000000
10
-20.9620804108
20
11.7333271879
30
0.0000000000
10
-20.9462488419
20
11.8335831961
30
0.0000000000
10
-20.8985814797
20
12.0354210506
30
0.0000000000
10
-20.7868382770
20
12.3280238791
30
0.0000000000
10
-20.6378574813
20
12.6058594633
30
0.0000000000
10
-20.4581050433
20
12.8568246470
30
0.0000000000
10
-20.2552700827
20
13.0700635624
30
0.0000000000
10
-20.0380402414
20
13.2363669022
30
0.0000000000
10
-19.8812399030
20
13.3150810953
30
0.0000000000
10
-19.8033835293
20
13.3428570273
30
0.0000000000
11
-20.9620804108
21
11.7333271879
31
0.0000000000
11
-20.8930786602
21
12.0299008048
31
0.0000000000
11
-20.7810158473
21
12.3245705768
31
0.0000000000
11
-20.6308600734
21
12.6042643470
31
0.0000000000
11
-20.4494832608
21
12.8562136889
31
0.0000000000
11
-20.2448300492
21
13.0693859760
31
0.0000000000
11
-20.0262219493
21
13.2340402342
31
0.0000000000
11
-19.8033835293
21
13.3428570273
31
0.0000000000
0
SPLINE
5
30F
100
AcDbEntity
8
0
100
AcDbSpline
62
9
6
CONTINUOUS
70
0
71
3
72
11
73
7
74
5
42
0.0000001000
43
0.0000001000
44
0.0000000001
12
2.1493091661
22
37.0785898912
32
0.0000000000
13
5.7722284830
23
36.6895453304
33
0.0000000000
40
0.0000000000
40
0.0000000000
40
0.0000000000
40
0.0000000000
40
0.2456277677
40
0.4942608320
40
0.7457656016
40
1.0000000000
40
1.0000000000
40
1.0000000000
40
1.0000000000
10
-24.9677358262
20
-25.1768350110
30
0.0000000000
10
-24.7917591554
20
-22.1409912567
30
0.0000000000
10
-24.3585804091
20
-16.0364765401
30
0.0000000000
10
-23.4742040222
20
-6.8452347514
30
0.0000000000
10
-22.3521763607
20
2.4273488718
30
0.0000000000
10
-21.4512467560
20
8.6240790264
30
0.0000000000
10
-20.9620804108
20
11.7333271879
30
0.0000000000
11
-24.9677358262
21
-25.1768350110
31
0.0000000000
11
-24.3234410653
21
-16.0767954473
31
0.0000000000
11
-23.4403429634
21
-6.8846794603
31
0.0000000000
11
-22.3194589707
21
2.3889227644
31
0.0000000000
11
-20.9620804108
21
11.7333271879
31
0.0000000000
0
SPLINE
5
310
100
AcDbEntity
8
0
100
AcDbSpline
62
9
6
CONTINUOUS
70
0
71
3
72
8
73
4
74
2
42
0.0000001000
43
0.0000001000
44
0.0000000001
12
-0.0201882879
22
0.0100967765
32
0.0000000000
13
-0.0197674766
23
0.0108963142
33
0.0000000000
40
0.0000000000
40
0.0000000000
40
0.0000000000
40
0.0000000000
40
1.0000000000
40
1.0000000000
40
1.0000000000
40
1.0000000000
10
-24.5847211967
20
-26.0804515849
30
0.0000000000
10
-24.5914506260
20
-26.0770859927
30
0.0000000000
10
-24.5981128529
20
-26.0735856020
30
0.0000000000
10
-24.6047020118
20
-26.0699534972
30
0.0000000000
11
-24.5847211967
21
-26.0804515849
31
0.0000000000
11
-24.6047020118
21
-26.0699534972
31
0.0000000000
0
SPLINE
5
311
100
AcDbEntity
8
0
100
AcDbSpline
62
9
6
CONTINUOUS
70
0
71
3
72
12
73
8
74
6
42
0.0000001000
43
0.0000001000
44
0.0000000001
12
-0.8918936444
22
0.4916334823
32
0.0000000000
13
0.0580405096
23
1.0112737049
33
0.0000000000
40
0.0000000000
40
0.0000000000
40
0.0000000000
40
0.0000000000
40
0.0756750723
40
0.2734554095
40
0.4904081178
40
0.7323735163
40
1.0000000000
40
1.0000000000
40
1.0000000000
40
1.0000000000
10
-24.6047020118
20
-26.0699534972
30
0.0000000000
10
-24.6272000504
20
-26.0575520308
30
0.0000000000
10
-24.7054196084
20
-26.0071900067
30
0.0000000000
10
-24.8202811480
20
-25.8837889862
30
0.0000000000
10
-24.9178306073
20
-25.6817159316
30
0.0000000000
10
-24.9695969960
20
-25.4400948171
30
0.0000000000
10
-24.9729135520
20
-25.2670495529
30
0.0000000000
10
-24.9677358262
20
-25.1768350110
30
0.0000000000
11
-24.6047020118
21
-26.0699534972
31
0.0000000000
11
-24.6694071275
21
-26.0282652634
31
0.0000000000
11
-24.8077103000
21
-25.8833237992
31
0.0000000000
11
-24.9061873882
21
-25.6868637401
31
0.0000000000
11
-24.9603304175
21
-25.4478228551
31
0.0000000000
11
-24.9677358262
21
-25.1768350110
31
0.0000000000
0
SPLINE
5
312
100
AcDbEntity
8
0
100
AcDbSpline
62
7
6
CONTINUOUS
70
0
71
3
72
39
73
35
74
33
42
0.0000001000
43
0.0000001000
44
0.0000000001
12
4.1777928979
22
-3.0650696324
32
0.0000000000
13
-3.2083246367
23
-4.0700463122
33
0.0000000000
40
0.0000000000
40
0.0000000000
40
0.0000000000
40
0.0000000000
40
0.0030360690
40
0.0357690434
40
0.0691419333
40
0.1030683857
40
0.1374854288
40
0.1723671801
40
0.2075969617
40
0.2431716258
40
0.2789653376
40
0.3149430979
40
0.3510157643
40
0.3871105619
40
0.4231603991
40
0.4590888265
40
0.4948145382
40
0.5302989854
40
0.5654096614
40
0.6001583933
40
0.6344116836
40
0.6681650602
40
0.7013335070
40
0.7338573518
40
0.7657395180
40
0.7968242889
40
0.8272180334
40
0.8567061171
40
0.8854200484
40
0.9132451020
40
0.9402061553
40
0.9663947835
40
0.9917002342
40
1.0000000000
40
1.0000000000
40
1.0000000000
40
1.0000000000
10
15.6431783253
20
11.8840631926
30
0.0000000000
10
15.6474063478
20
11.8809612716
30
0.0000000000
10
15.6971244418
20
11.8442887550
30
0.0000000000
10
15.7910934133
20
11.7705267382
30
0.0000000000
10
15.9213537517
20
11.6569448571
30
0.0000000000
10
16.0479598870
20
11.5350787118
30
0.0000000000
10
16.1704709354
20
11.4054926840
30
0.0000000000
10
16.2884460622
20
11.2687815321
30
0.0000000000
10
16.4015445149
20
11.1254577506
30
0.0000000000
10
16.5093416239
20
10.9761610094
30
0.0000000000
10
16.6115203935
20
10.8214161792
30
0.0000000000
10
16.7077013046
20
10.6618700443
30
0.0000000000
10
16.7975717187
20
10.4980934364
30
0.0000000000
10
16.8808084324
20
10.3307090054
30
0.0000000000
10
16.9571134356
20
10.1603257210
30
0.0000000000
10
17.0261963220
20
9.9875740281
30
0.0000000000
10
17.0877988797
20
9.8130496248
30
0.0000000000
10
17.1416412698
20
9.6374519319
30
0.0000000000
10
17.1875087140
20
9.4613452437
30
0.0000000000
10
17.2251544818
20
9.2854704432
30
0.0000000000
10
17.2543941437
20
9.1103770214
30
0.0000000000
10
17.2750273602
20
8.9368057507
30
0.0000000000
10
17.2868896293
20
8.7654039989
30
0.0000000000
10
17.2898415577
20
8.5968437408
30
0.0000000000
10
17.2837712715
20
8.4319605607
30
0.0000000000
10
17.2686115531
20
8.2713508634
30
0.0000000000
10
17.2443828543
20
8.1160308227
30
0.0000000000
10
17.2111270311
20
7.9665735092
30
0.0000000000
10
17.1690589877
20
7.8239620383
30
0.0000000000
10
17.1184002096
20
7.6888124646
30
0.0000000000
10
17.0595213098
20
7.5618178972
30
0.0000000000
10
16.9929132140
20
7.4436616151
30
0.0000000000
10
16.9349005417
20
7.3580900326
30
0.0000000000
10
16.8996194650
20
7.3119798555
30
0.0000000000
10
16.8907433506
20
7.3007197118
30
0.0000000000
11
15.6431783253
21
11.8840631926
31
0.0000000000
11
15.6558385075
21
11.8747250498
31
0.0000000000
11
15.7893016290
21
11.7700970284
31
0.0000000000
11
15.9196815818
21
11.6565366663
31
0.0000000000
11
16.0463747133
21
11.5347019103
31
0.0000000000
11
16.1689247173
21
11.4051784782
31
0.0000000000
11
16.2870379413
21
11.2683994953
31
0.0000000000
11
16.4001432057
21
11.1251466256
31
0.0000000000
11
16.5080670570
21
10.9757408696
31
0.0000000000
11
16.6102739416
21
10.8210055858
31
0.0000000000
11
16.7065237495
21
10.6613816748
31
0.0000000000
11
16.7964380626
21
10.4975440159
31
0.0000000000
11
16.8797032870
21
10.3301010853
31
0.0000000000
11
16.9560321383
21
10.1596397293
31
0.0000000000
11
17.0251295301
21
9.9867983211
31
0.0000000000
11
17.0867086707
21
9.8122511213
31
0.0000000000
11
17.1405640541
21
9.6364752394
31
0.0000000000
11
17.1863636537
21
9.4604306305
31
0.0000000000
11
17.2239856571
21
9.2843761051
31
0.0000000000
11
17.2531454923
21
9.1093255601
31
0.0000000000
11
17.2737055197
21
8.9356657587
31
0.0000000000
11
17.2854755246
21
8.7642271303
31
0.0000000000
11
17.2883200365
21
8.5957485717
31
0.0000000000
11
17.2821255182
21
8.4306866644
31
0.0000000000
11
17.2668652526
21
8.2703644191
31
0.0000000000
11
17.2424598346
21
8.1148004379
31
0.0000000000
11
17.2091385890
21
7.9657038999
31
0.0000000000
11
17.1669081950
21
7.8230600553
31
0.0000000000
11
17.1161740467
21
7.6881239300
31
0.0000000000
11
17.0572929216
21
7.5614583489
31
0.0000000000
11
16.9905489445
21
7.4433294513
31
0.0000000000
11
16.9168835121
21
7.3348772346
31
0.0000000000
11
16.8907433506
21
7.3007197118
31
0.0000000000
0
SPLINE
5
313
100
AcDbEntity
8
0
100
AcDbSpline
62
7
6
CONTINUOUS
70
0
71
3
72
11
73
7
74
5
42
0.0000001000
43
0.0000001000
44
0.0000000001
12
-0.2805570148
22
-0.3559116276
32
0.0000000000
13
-0.3804147990
23
-0.2460490802
33
0.0000000000
40
0.0000000000
40
0.0000000000
40
0.0000000000
40
0.0000000000
40
0.1875686452
40
0.4632150966
40
0.7334848527
40
1.0000000000
40
1.0000000000
40
1.0000000000
40
1.0000000000
10
16.8907433506
20
7.3007197118
30
0.0000000000
10
16.8732021176
20
7.2784670912
30
0.0000000000
10
16.8283159192
20
7.2247478461
30
0.0000000000
10
16.7511759299
20
7.1450483851
30
0.0000000000
10
16.6581552547
20
7.0648019615
30
0.0000000000
10
16.5920894079
20
7.0175950031
30
0.0000000000
10
16.5582939725
20
6.9957364009
30
0.0000000000
11
16.8907433506
21
7.3007197118
31
0.0000000000
11
16.8362228332
21
7.2355176079
31
0.0000000000
11
16.7493122609
21
7.1458400252
31
0.0000000000
11
16.6565577581
21
7.0659047554
31
0.0000000000
11
16.5582939725
21
6.9957364009
31
0.0000000000
0
SPLINE
5
314
100
AcDbEntity
8
0
100
AcDbSpline
62
7
6
CONTINUOUS
70
0
71
3
72
9
73
5
74
3
42
0.0000001000
43
0.0000001000
44
0.0000000001
12
-0.0084076094
22
-0.0113716146
32
0.0000000000
13
0.0025546512
23
0.0090860659
33
0.0000000000
40
0.0000000000
40
0.0000000000
40
0.0000000000
40
0.0000000000
40
0.0445906726
40
1.0000000000
40
1.0000000000
40
1.0000000000
40
1.0000000000
10
15.6434709822
20
6.4152319415
30
0.0000000000
10
15.6433460152
20
6.4150629188
30
0.0000000000
10
15.6407659439
20
6.4117427397
30
0.0000000000
10
15.6428929331
20
6.4183342911
30
0.0000000000
10
15.6437065123
20
6.4212279285
30
0.0000000000
11
15.6434709822
21
6.4152319415
31
0.0000000000
11
15.6431252801
21
6.4147865286
31
0.0000000000
11
15.6437065123
21
6.4212279285
31
0.0000000000
0
SPLINE
5
315
100
AcDbEntity
8
0
100
AcDbSpline
62
7
6
CONTINUOUS
70
0
71
3
72
18
73
14
74
12
42
0.0000001000
43
0.0000001000
44
0.0000000001
12
0.8134822567
22
0.3756930640
32
0.0000000000
13
0.8016850218
23
-0.4008397784
33
0.0000000000
40
0.0000000000
40
0.0000000000
40
0.0000000000
40
0.0000000000
40
0.0893849138
40
0.1790408614
40
0.2685268285
40
0.3627312415
40
0.4548475124
40
0.5475230269
40
0.6418820557
40
0.7327666972
40
0.8282674027
40
0.9200880842
40
1.0000000000
40
1.0000000000
40
1.0000000000
40
1.0000000000
10
7.6473253575
20
17.5582497972
30
0.0000000000
10
7.6715630379
20
17.5694435613
30
0.0000000000
10
7.7210331209
20
17.5899290983
30
0.0000000000
10
7.7974350178
20
17.6146008894
30
0.0000000000
10
7.8769751498
20
17.6333993331
30
0.0000000000
10
7.9585294567
20
17.6457046482
30
0.0000000000
10
8.0417717991
20
17.6512278661
30
0.0000000000
10
8.1252333140
20
17.6498458190
30
0.0000000000
10
8.2079246371
20
17.6415171538
30
0.0000000000
10
8.2904612018
20
17.6262082383
30
0.0000000000
10
8.3707134497
20
17.6042631490
30
0.0000000000
10
8.4457514381
20
17.5767976021
30
0.0000000000
10
8.4924656030
20
17.5554953208
30
0.0000000000
10
8.5138203317
20
17.5448180292
30
0.0000000000
11
7.6473253575
21
17.5582497972
31
0.0000000000
11
7.7213248830
21
17.5888922480
31
0.0000000000
11
7.7977734354
21
17.6135796937
31
0.0000000000
11
7.8758073455
21
17.6320217986
31
0.0000000000
11
7.9592740773
21
17.6446156819
31
0.0000000000
11
8.0416334053
21
17.6500804139
31
0.0000000000
11
8.1246635557
21
17.6487053547
31
0.0000000000
11
8.2087879881
21
17.6402324857
31
0.0000000000
11
8.2888591103
21
17.6253807915
31
0.0000000000
11
8.3714016798
21
17.6028093732
31
0.0000000000
11
8.4486643773
21
17.5745296218
31
0.0000000000
11
8.5138203317
21
17.5448180292
31
0.0000000000
0
SPLINE
5
316
100
AcDbEntity
8
0
100
AcDbSpline
62
7
6
CONTINUOUS
70
0
71
3
72
9
73
5
74
3
42
0.0000001000
43
0.0000001000
44
0.0000000001
12
0.0106959682
22
0.0091088848
32
0.0000000000
13
0.0125651438
23
0.0062858928
33
0.0000000000
40
0.0000000000
40
0.0000000000
40
0.0000000000
40
0.0000000000
40
0.2054428923
40
1.0000000000
40
1.0000000000
40
1.0000000000
40
1.0000000000
10
-6.0185282467
20
14.7555734415
30
0.0000000000
10
-6.0177957764
20
14.7561972267
30
0.0000000000
10
-6.0141560194
20
14.7591459004
30
0.0000000000
10
-6.0101664685
20
14.7616419543
30
0.0000000000
10
-6.0068385604
20
14.7633067879
30
0.0000000000
11
-6.0185282467
21
14.7555734415
31
0.0000000000
11
-6.0162854883
21
14.7573896912
31
0.0000000000
11
-6.0068385604
21
14.7633067879
31
0.0000000000
0
SPLINE
5
317
100
AcDbEntity
8
0
100
AcDbSpline
62
7
6
CONTINUOUS
70
0
71
3
72
40
73
36
74
34
42
0.0000001000
43
0.0000001000
44
0.0000000001
12
-5.2426771194
22
-2.5162024594
32
0.0000000000
13
-3.3584778030
23
4.7497343924
33
0.0000000000
40
0.0000000000
40
0.0000000000
40
0.0000000000
40
0.0000000000
40
0.0279422086
40
0.0568886404
40
0.0867856735
40
0.1175708214
40
0.1491739462
40
0.1815182333
40
0.2145211122
40
0.2480951614
40
0.2821488835
40
0.3165874368
40
0.3513133877
40
0.3862274132
40
0.4212289430
40
0.4562168440
40
0.4910901116
40
0.5257484895
40
0.5600931426
40
0.5940273782
40
0.6274572983
40
0.6602925290
40
0.6924470069
40
0.7238397592
40
0.7543957739
40
0.7840469578
40
0.8127331797
40
0.8404034472
40
0.8670172461
40
0.8925460724
40
0.9169751935
40
0.9403056606
40
0.9625565732
40
0.9837675646
40
1.0000000000
40
1.0000000000
40
1.0000000000
40
1.0000000000
10
10.2167316306
20
12.9615925008
30
0.0000000000
10
10.1679009714
20
12.9381564161
30
0.0000000000
10
10.0672782763
20
12.8929216412
30
0.0000000000
10
9.9108118913
20
12.8309902280
30
0.0000000000
10
9.7466444615
20
12.7739717297
30
0.0000000000
10
9.5754013431
20
12.7220835662
30
0.0000000000
10
9.3977287927
20
12.6755211693
30
0.0000000000
10
9.2142997475
20
12.6344609536
30
0.0000000000
10
9.0258088957
20
12.5990584236
30
0.0000000000
10
8.8329705806
20
12.5694477876
30
0.0000000000
10
8.6365158281
20
12.5457413009
30
0.0000000000
10
8.4371895768
20
12.5280288224
30
0.0000000000
10
8.2357477416
20
12.5163774346
30
0.0000000000
10
8.0329542857
20
12.5108311802
30
0.0000000000
10
7.8295782940
20
12.5114108899
30
0.0000000000
10
7.6263909893
20
12.5181141027
30
0.0000000000
10
7.4241627570
20
12.5309150855
30
0.0000000000
10
7.2236602002
20
12.5497649448
30
0.0000000000
10
7.0256431849
20
12.5745918291
30
0.0000000000
10
6.8308619177
20
12.6053012283
30
0.0000000000
10
6.6400540571
20
12.6417763696
30
0.0000000000
10
6.4539418982
20
12.6838786985
30
0.0000000000
10
6.2732295761
20
12.7314484667
30
0.0000000000
10
6.0986003441
20
12.7843054227
30
0.0000000000
10
5.9307139630
20
12.8422495965
30
0.0000000000
10
5.7702041479
20
12.9050622093
30
0.0000000000
10
5.6176761375
20
12.9725067083
30
0.0000000000
10
5.4737044221
20
13.0443299313
30
0.0000000000
10
5.3388306462
20
13.1202634240
30
0.0000000000
10
5.2135617584
20
13.2000249168
30
0.0000000000
10
5.0983685093
20
13.2833199425
30
0.0000000000
10
4.9936844336
20
13.3698435327
30
0.0000000000
10
4.8999054524
20
13.4592818558
30
0.0000000000
10
4.8225738352
20
13.5455320818
30
0.0000000000
10
4.7784199208
20
13.6032297369
30
0.0000000000
10
4.7602478295
20
13.6289296558
30
0.0000000000
11
10.2167316306
21
12.9615925008
31
0.0000000000
11
10.0685859633
21
12.8948391389
31
0.0000000000
11
9.9121165639
21
12.8327714218
31
0.0000000000
11
9.7479184958
21
12.7756253307
31
0.0000000000
11
9.5766163636
21
12.7236181347
31
0.0000000000
11
9.3988615664
21
12.6769474503
31
0.0000000000
11
9.2153300944
21
12.6357905939
31
0.0000000000
11
9.0267200036
21
12.6003039054
31
0.0000000000
11
8.8337484758
21
12.5706220976
31
0.0000000000
11
8.6371492072
21
12.5468577855
31
0.0000000000
11
8.4376697354
21
12.5291010742
31
0.0000000000
11
8.2360684015
21
12.5174191963
31
0.0000000000
11
8.0331114223
21
12.5118562732
31
0.0000000000
11
7.8295701784
21
12.5124331666
31
0.0000000000
11
7.6262181862
21
12.5191473964
31
0.0000000000
11
7.4238279868
21
12.5319731691
31
0.0000000000
11
7.2231684625
21
12.5508614812
31
0.0000000000
11
7.0250018929
21
12.5757403033
31
0.0000000000
11
6.8300808248
21
12.6065148923
31
0.0000000000
11
6.6391454869
21
12.6430681329
31
0.0000000000
11
6.4529209564
21
12.6852609818
31
0.0000000000
11
6.2721142614
21
12.7329330361
31
0.0000000000
11
6.0974118612
21
12.7859031172
31
0.0000000000
11
5.9294770412
21
12.8439699586
31
0.0000000000
11
5.7689473539
21
12.9069129882
31
0.0000000000
11
5.6164322502
21
12.9744931547
31
0.0000000000
11
5.4725107884
21
13.0464538288
31
0.0000000000
11
5.3377294406
21
13.1225217755
31
0.0000000000
11
5.2126000300
21
13.2024081851
31
0.0000000000
11
5.0975977924
21
13.2858097670
31
0.0000000000
11
4.9931595831
21
13.3724098915
31
0.0000000000
11
4.8996822420
21
13.4618797639
31
0.0000000000
11
4.8175210493
21
13.5538796941
31
0.0000000000
11
4.7602478295
21
13.6289296558
31
0.0000000000
0
SPLINE
5
318
100
AcDbEntity
8
0
100
AcDbSpline
62
7
6
CONTINUOUS
70
0
71
3
72
29
73
25
74
23
42
0.0000001000
43
0.0000001000
44
0.0000000001
12
3.0209087684
22
-2.2163127648
32
0.0000000000
13
0.0301331772
23
-3.7465472420
33
0.0000000000
40
0.0000000000
40
0.0000000000
40
0.0000000000
40
0.0000000000
40
0.0041987589
40
0.0494671197
40
0.0956204573
40
0.1425393491
40
0.1901367079
40
0.2383767389
40
0.2870980816
40
0.3362963827
40
0.3857976177
40
0.4355533843
40
0.4854404020
40
0.5353580265
40
0.5852134724
40
0.6349010136
40
0.6843082072
40
0.7333817420
40
0.7819383666
40
0.8299944373
40
0.8773653324
40
0.9240448676
40
0.9699154689
40
1.0000000000
40
1.0000000000
40
1.0000000000
40
1.0000000000
10
15.6431783253
20
11.8840631926
30
0.0000000000
10
15.6474063478
20
11.8809612716
30
0.0000000000
10
15.6971244418
20
11.8442887550
30
0.0000000000
10
15.7910934133
20
11.7705267382
30
0.0000000000
10
15.9213537517
20
11.6569448571
30
0.0000000000
10
16.0479598870
20
11.5350787118
30
0.0000000000
10
16.1704709354
20
11.4054926840
30
0.0000000000
10
16.2884460622
20
11.2687815321
30
0.0000000000
10
16.4015445149
20
11.1254577506
30
0.0000000000
10
16.5093416239
20
10.9761610094
30
0.0000000000
10
16.6115203935
20
10.8214161792
30
0.0000000000
10
16.7077013046
20
10.6618700443
30
0.0000000000
10
16.7975717187
20
10.4980934364
30
0.0000000000
10
16.8808084324
20
10.3307090054
30
0.0000000000
10
16.9571134356
20
10.1603257210
30
0.0000000000
10
17.0261963220
20
9.9875740281
30
0.0000000000
10
17.0877988797
20
9.8130496248
30
0.0000000000
10
17.1416412698
20
9.6374519319
30
0.0000000000
10
17.1875087140
20
9.4613452437
30
0.0000000000
10
17.2251544818
20
9.2854704432
30
0.0000000000
10
17.2543941437
20
9.1103770214
30
0.0000000000
10
17.2750273602
20
8.9368057507
30
0.0000000000
10
17.2856049291
20
8.7839670467
30
0.0000000000
10
17.2880681613
20
8.6891241584
30
0.0000000000
10
17.2883703421
20
8.6515531195
30
0.0000000000
11
15.6431783253
21
11.8840631926
31
0.0000000000
11
15.6558385075
21
11.8747250498
31
0.0000000000
11
15.7893016290
21
11.7700970284
31
0.0000000000
11
15.9196815818
21
11.6565366663
31
0.0000000000
11
16.0463747133
21
11.5347019103
31
0.0000000000
11
16.1689247173
21
11.4051784782
31
0.0000000000
11
16.2870379413
21
11.2683994953
31
0.0000000000
11
16.4001432057
21
11.1251466256
31
0.0000000000
11
16.5080670570
21
10.9757408696
31
0.0000000000
11
16.6102739416
21
10.8210055858
31
0.0000000000
11
16.7065237495
21
10.6613816748
31
0.0000000000
11
16.7964380626
21
10.4975440159
31
0.0000000000
11
16.8797032870
21
10.3301010853
31
0.0000000000
11
16.9560321383
21
10.1596397293
31
0.0000000000
11
17.0251295301
21
9.9867983211
31
0.0000000000
11
17.0867086707
21
9.8122511213
31
0.0000000000
11
17.1405640541
21
9.6364752394
31
0.0000000000
11
17.1863636537
21
9.4604306305
31
0.0000000000
11
17.2239856571
21
9.2843761051
31
0.0000000000
11
17.2531454923
21
9.1093255601
31
0.0000000000
11
17.2737055197
21
8.9356657587
31
0.0000000000
11
17.2854755246
21
8.7642271303
31
0.0000000000
11
17.2883703421
21
8.6515531195
31
0.0000000000
0
SPLINE
5
319
100
AcDbEntity
8
0
100
AcDbSpline
62
7
6
CONTINUOUS
70
0
71
3
72
18
73
14
74
12
42
0.0000001000
43
0.0000001000
44
0.0000000001
12
0.0115397707
22
-1.4347738965
32
0.0000000000
13
-0.8884260051
23
-1.1270477259
33
0.0000000000
40
0.0000000000
40
0.0000000000
40
0.0000000000
40
0.0000000000
40
0.0388934922
40
0.1540278295
40
0.2662825764
40
0.3760418573
40
0.4825305740
40
0.5862236366
40
0.6867067431
40
0.7840697323
40
0.8786433045
40
0.9700275062
40
1.0000000000
40
1.0000000000
40
1.0000000000
40
1.0000000000
10
17.2883703421
20
8.6515531195
30
0.0000000000
10
17.2885199494
20
8.6329519970
30
0.0000000000
10
17.2884586867
20
8.5592817282
30
0.0000000000
10
17.2837712715
20
8.4319605607
30
0.0000000000
10
17.2686115531
20
8.2713508634
30
0.0000000000
10
17.2443828543
20
8.1160308227
30
0.0000000000
10
17.2111270311
20
7.9665735092
30
0.0000000000
10
17.1690589877
20
7.8239620383
30
0.0000000000
10
17.1184002096
20
7.6888124646
30
0.0000000000
10
17.0595213098
20
7.5618178972
30
0.0000000000
10
16.9929132140
20
7.4436616151
30
0.0000000000
10
16.9349005417
20
7.3580900326
30
0.0000000000
10
16.8996194650
20
7.3119798555
30
0.0000000000
10
16.8907433506
20
7.3007197118
30
0.0000000000
11
17.2883703421
21
8.6515531195
31
0.0000000000
11
17.2883200365
21
8.5957485717
31
0.0000000000
11
17.2821255182
21
8.4306866644
31
0.0000000000
11
17.2668652526
21
8.2703644191
31
0.0000000000
11
17.2424598346
21
8.1148004379
31
0.0000000000
11
17.2091385890
21
7.9657038999
31
0.0000000000
11
17.1669081950
21
7.8230600553
31
0.0000000000
11
17.1161740467
21
7.6881239300
31
0.0000000000
11
17.0572929216
21
7.5614583489
31
0.0000000000
11
16.9905489445
21
7.4433294513
31
0.0000000000
11
16.9168835121
21
7.3348772346
31
0.0000000000
11
16.8907433506
21
7.3007197118
31
0.0000000000
0
SPLINE
5
31A
100
AcDbEntity
8
0
100
AcDbSpline
62
7
6
CONTINUOUS
70
0
71
3
72
8
73
4
74
2
42
0.0000001000
43
0.0000001000
44
0.0000000001
12
0.0004990217
22
0.0017205014
32
0.0000000000
13
0.0003829436
23
0.0013620063
33
0.0000000000
40
0.0000000000
40
0.0000000000
40
0.0000000000
40
0.0000000000
40
1.0000000000
40
1.0000000000
40
1.0000000000
40
1.0000000000
10
15.6432548791
20
6.4196626292
30
0.0000000000
10
15.6434212196
20
6.4202361296
30
0.0000000000
10
15.6435788644
20
6.4207739264
30
0.0000000000
10
15.6437065123
20
6.4212279285
30
0.0000000000
11
15.6432548791
21
6.4196626292
31
0.0000000000
11
15.6437065123
21
6.4212279285
31
0.0000000000
0
SPLINE
5
31B
100
AcDbEntity
8
0
100
AcDbSpline
62
7
6
CONTINUOUS
70
0
71
3
72
9
73
5
74
3
42
0.0000001000
43
0.0000001000
44
0.0000000001
12
0.0001134320
22
0.0005623896
32
0.0000000000
13
-0.0000692680
23
0.0000975166
33
0.0000000000
40
0.0000000000
40
0.0000000000
40
0.0000000000
40
0.0000000000
40
0.3306231694
40
1.0000000000
40
1.0000000000
40
1.0000000000
40
1.0000000000
10
15.6439731057
20
6.4222649354
30
0.0000000000
10
15.6439856068
20
6.4223269151
30
0.0000000000
10
15.6440138290
20
6.4224896824
30
0.0000000000
10
15.6440099899
20
6.4225708459
30
0.0000000000
10
15.6439945344
20
6.4225926043
30
0.0000000000
11
15.6439731057
21
6.4222649354
31
0.0000000000
11
15.6440007639
21
6.4224256241
31
0.0000000000
11
15.6439945344
21
6.4225926043
31
0.0000000000
0
SPLINE
5
31C
100
AcDbEntity
8
0
100
AcDbSpline
62
7
6
CONTINUOUS
70
0
71
3
72
12
73
8
74
6
42
0.0000001000
43
0.0000001000
44
0.0000000001
12
-0.2451298512
22
0.0136271387
32
0.0000000000
13
-0.2413116466
23
0.0452034682
33
0.0000000000
40
0.0000000000
40
0.0000000000
40
0.0000000000
40
0.0000000000
40
0.0506309010
40
0.3063786949
40
0.5553352430
40
0.7950442673
40
1.0000000000
40
1.0000000000
40
1.0000000000
40
1.0000000000
10
1.0247360624
20
14.7252530841
30
0.0000000000
10
1.0205990140
20
14.7254830689
30
0.0000000000
10
0.9955690593
20
14.7269509749
30
0.0000000000
10
0.9502518856
20
14.7304496900
30
0.0000000000
10
0.8896815915
20
14.7370374926
30
0.0000000000
10
0.8334657619
20
14.7449543180
30
0.0000000000
10
0.7975984933
20
14.7511213237
30
0.0000000000
10
0.7811124248
20
14.7542095603
30
0.0000000000
11
1.0247360624
21
14.7252530841
31
0.0000000000
11
1.0123270933
21
14.7259808555
31
0.0000000000
11
0.9497283851
21
14.7308228736
31
0.0000000000
11
0.8889696914
21
14.7374445449
31
0.0000000000
11
0.8306989305
21
14.7456682402
31
0.0000000000
11
0.7811124248
21
14.7542095603
31
0.0000000000
0
SPLINE
5
31D
100
AcDbEntity
8
0
100
AcDbSpline
62
7
6
CONTINUOUS
70
0
71
3
72
8
73
4
74
2
42
0.0000001000
43
0.0000001000
44
0.0000000001
12
-0.0067366515
22
0.0679104449
32
0.0000000000
13
-0.0000038008
23
0.0682445507
33
0.0000000000
40
0.0000000000
40
0.0000000000
40
0.0000000000
40
0.0000000000
40
1.0000000000
40
1.0000000000
40
1.0000000000
40
1.0000000000
10
5.1554405228
20
13.2425999058
30
0.0000000000
10
5.1531949723
20
13.2652367208
30
0.0000000000
10
5.1520640995
20
13.2879852832
30
0.0000000000
10
5.1520628325
20
13.3107334668
30
0.0000000000
11
5.1554405228
21
13.2425999058
31
0.0000000000
11
5.1520628325
21
13.3107334668
31
0.0000000000
0
SPLINE
5
31E
100
AcDbEntity
8
0
100
AcDbSpline
62
7
6
CONTINUOUS
70
0
71
3
72
16
73
12
74
10
42
0.0000001000
43
0.0000001000
44
0.0000000001
12
0.4035298950
22
0.9176758371
32
0.0000000000
13
0.8956189013
23
0.4492564213
33
0.0000000000
40
0.0000000000
40
0.0000000000
40
0.0000000000
40
0.0000000000
40
0.0766285920
40
0.1741530629
40
0.2761448249
40
0.3831248479
40
0.4953806848
40
0.6131606036
40
0.7365284194
40
0.8655088305
40
1.0000000000
40
1.0000000000
40
1.0000000000
40
1.0000000000
10
5.2151394858
20
13.2006877233
30
0.0000000000
10
5.2254467950
20
13.2241277925
30
0.0000000000
10
5.2513671237
20
13.2762999458
30
0.0000000000
10
5.3002890689
20
13.3546745033
30
0.0000000000
10
5.3627770637
20
13.4359431890
30
0.0000000000
10
5.4355395334
20
13.5149603496
30
0.0000000000
10
5.5182821391
20
13.5914356350
30
0.0000000000
10
5.6106568859
20
13.6650666383
30
0.0000000000
10
5.7122994700
20
13.7355751808
30
0.0000000000
10
5.8227903779
20
13.8026788751
30
0.0000000000
10
5.9004725752
20
13.8441243217
30
0.0000000000
10
5.9406235197
20
13.8642646622
30
0.0000000000
11
5.2151394858
21
13.2006877233
31
0.0000000000
11
5.2492120581
21
13.2695086655
31
0.0000000000
11
5.3007713012
21
13.3525169408
31
0.0000000000
11
5.3628868151
21
13.4336663275
31
0.0000000000
11
5.4353364355
21
13.5126672831
31
0.0000000000
11
5.5177952770
21
13.5891648068
31
0.0000000000
11
5.6099572663
21
13.6628755499
31
0.0000000000
11
5.7114222150
21
13.7334788151
31
0.0000000000
11
5.8217982884
21
13.8007024931
31
0.0000000000
11
5.9406235197
21
13.8642646622
31
0.0000000000
0
SPLINE
5
31F
100
AcDbEntity
8
0
100
AcDbSpline
62
7
6
CONTINUOUS
70
0
71
3
72
20
73
16
74
14
42
0.0000001000
43
0.0000001000
44
0.0000000001
12
1.2254722841
22
0.8881652661
32
0.0000000000
13
0.0000030845
23
1.5131989163
33
0.0000000000
40
0.0000000000
40
0.0000000000
40
0.0000000000
40
0.0000000000
40
0.0696976417
40
0.1400368971
40
0.2111944137
40
0.2833241675
40
0.3565733254
40
0.4311130602
40
0.5071651819
40
0.5851305615
40
0.6651433342
40
0.7471576942
40
0.8311627632
40
0.9171385785
40
1.0000000000
40
1.0000000000
40
1.0000000000
40
1.0000000000
10
15.0228761447
20
-19.0800201138
30
0.0000000000
10
15.0513469874
20
-19.0593857723
30
0.0000000000
10
15.1069717007
20
-19.0157454294
30
0.0000000000
10
15.1856241697
20
-18.9437554652
30
0.0000000000
10
15.2594329346
20
-18.8651144053
30
0.0000000000
10
15.3280028331
20
-18.7799721332
30
0.0000000000
10
15.3909301267
20
-18.6884996069
30
0.0000000000
10
15.4478267791
20
-18.5908618226
30
0.0000000000
10
15.4983537023
20
-18.4871277515
30
0.0000000000
10
15.5421253644
20
-18.3773889722
30
0.0000000000
10
15.5786879137
20
-18.2618839136
30
0.0000000000
10
15.6075684174
20
-18.1410898455
30
0.0000000000
10
15.6283640979
20
-18.0155956492
30
0.0000000000
10
15.6405252625
20
-17.8885539484
30
0.0000000000
10
15.6431170936
20
-17.8033678477
30
0.0000000000
10
15.6431171788
20
-17.7615725766
30
0.0000000000
11
15.0228761447
21
-19.0800201138
31
0.0000000000
11
15.1058566443
21
-19.0149312069
31
0.0000000000
11
15.1843783665
21
-18.9430814356
31
0.0000000000
11
15.2580780019
21
-18.8645861670
31
0.0000000000
11
15.3265558496
21
-18.7795985786
31
0.0000000000
11
15.3894007006
21
-18.6883010710
31
0.0000000000
11
15.4462205845
21
-18.5908694891
31
0.0000000000
11
15.4966526069
21
-18.4874311642
31
0.0000000000
11
15.5404078223
21
-18.3778727527
31
0.0000000000
11
15.5770014846
21
-18.2624646756
31
0.0000000000
11
15.6059223298
21
-18.1417822469
31
0.0000000000
11
15.6267722377
21
-18.0163922561
31
0.0000000000
11
15.6392413765
21
-17.8868975444
31
0.0000000000
11
15.6431171788
21
-17.7615725766
31
0.0000000000
0
SPLINE
5
320
100
AcDbEntity
8
0
100
AcDbSpline
62
7
6
CONTINUOUS
70
0
71
3
72
17
73
13
74
11
42
0.0000001000
43
0.0000001000
44
0.0000000001
12
-0.0000003619
22
1.2787589490
32
0.0000000000
13
-0.6413999662
23
1.1062504870
33
0.0000000000
40
0.0000000000
40
0.0000000000
40
0.0000000000
40
0.0000000000
40
0.0931726255
40
0.1936012838
40
0.2946374052
40
0.3960993816
40
0.4977637442
40
0.5994160614
40
0.7010265346
40
0.8026116490
40
0.9041760118
40
1.0000000000
40
1.0000000000
40
1.0000000000
40
1.0000000000
10
15.6431171807
20
12.5835070952
30
0.0000000000
10
15.6431171695
20
12.6232222048
30
0.0000000000
10
15.6407309127
20
12.7057632560
30
0.0000000000
10
15.6298883993
20
12.8309479303
30
0.0000000000
10
15.6113998580
20
12.9588065166
30
0.0000000000
10
15.5857804330
20
13.0859607690
30
0.0000000000
10
15.5533418199
20
13.2118163426
30
0.0000000000
10
15.5143991018
20
13.3358767688
30
0.0000000000
10
15.4692328302
20
13.4577705870
30
0.0000000000
10
15.4180629846
20
13.5772270980
30
0.0000000000
10
15.3621415323
20
13.6917906346
30
0.0000000000
10
15.3216369108
20
13.7655764549
30
0.0000000000
10
15.3011497432
20
13.8009115661
30
0.0000000000
11
15.6431171807
21
12.5835070952
31
0.0000000000
11
15.6397229315
21
12.7026038297
31
0.0000000000
11
15.6286975525
21
12.8305496820
31
0.0000000000
11
15.6102564780
21
12.9584235928
31
0.0000000000
11
15.5846721745
21
13.0856173748
31
0.0000000000
11
15.5522588567
21
13.2115118200
31
0.0000000000
11
15.5133542265
21
13.3355378650
31
0.0000000000
11
15.4682259451
21
13.4573802265
31
0.0000000000
11
15.4170870926
21
13.5767892510
31
0.0000000000
11
15.3601189147
21
13.6935001371
31
0.0000000000
11
15.3011497432
21
13.8009115661
31
0.0000000000
0
SPLINE
5
321
100
AcDbEntity
8
0
100
AcDbSpline
62
7
6
CONTINUOUS
70
0
71
3
72
17
73
13
74
11
42
0.0000001000
43
0.0000001000
44
0.0000000001
12
0.6923672232
22
-0.3460670439
32
0.0000000000
13
0.3403615784
23
-0.6949482992
33
0.0000000000
40
0.0000000000
40
0.0000000000
40
0.0000000000
40
0.0000000000
40
0.0503847250
40
0.1404898098
40
0.2346040286
40
0.3328138003
40
0.4351079600
40
0.5413706983
40
0.6513775624
40
0.7647969877
40
0.8811955450
40
1.0000000000
40
1.0000000000
40
1.0000000000
40
1.0000000000
10
9.6426539485
20
16.9804013237
30
0.0000000000
10
9.6542821925
20
16.9745891594
30
0.0000000000
10
9.6863121128
20
16.9575943811
30
0.0000000000
10
9.7378877899
20
16.9258223097
30
0.0000000000
10
9.7968457399
20
16.8829145621
30
0.0000000000
10
9.8548907401
20
16.8337638314
30
0.0000000000
10
9.9115831666
20
16.7784736571
30
0.0000000000
10
9.9664558634
20
16.7172299912
30
0.0000000000
10
10.0190232455
20
16.6503105646
30
0.0000000000
10
10.0687939407
20
16.5780887704
30
0.0000000000
10
10.1152756947
20
16.5010504195
30
0.0000000000
10
10.1435244735
20
16.4473143065
30
0.0000000000
10
10.1570032974
20
16.4197933219
30
0.0000000000
11
9.6426539485
21
16.9804013237
31
0.0000000000
11
9.6771091690
21
16.9621379784
31
0.0000000000
11
9.7365177329
21
16.9256382709
31
0.0000000000
11
9.7954503071
21
16.8828503423
31
0.0000000000
11
9.8534986194
21
16.8338003011
31
0.0000000000
11
9.9102197624
21
16.7785861444
31
0.0000000000
11
9.9651423715
21
16.7173896663
31
0.0000000000
11
10.0177757905
21
16.6504860259
31
0.0000000000
11
10.0676226676
21
16.5782487731
31
0.0000000000
11
10.1141930487
21
16.5011507568
31
0.0000000000
11
10.1570032974
21
16.4197933219
31
0.0000000000
0
SPLINE
5
322
100
AcDbEntity
8
0
100
AcDbSpline
62
7
6
CONTINUOUS
70
0
71
3
72
12
73
8
74
6
42
0.0000001000
43
0.0000001000
44
0.0000000001
12
0.0794384856
22
-0.0397300228
32
0.0000000000
13
0.0445479325
23
-0.0768293223
33
0.0000000000
40
0.0000000000
40
0.0000000000
40
0.0000000000
40
0.0000000000
40
0.1689358061
40
0.4446982556
40
0.7179283992
40
0.9949015518
40
1.0000000000
40
1.0000000000
40
1.0000000000
40
1.0000000000
10
14.9743199460
20
14.3145675000
30
0.0000000000
10
14.9787932809
20
14.3123302255
30
0.0000000000
10
14.9902998290
20
14.3059047877
30
0.0000000000
10
15.0074387906
20
14.2932079157
30
0.0000000000
10
15.0244652813
20
14.2755347395
30
0.0000000000
10
15.0338249329
20
14.2619552117
30
0.0000000000
10
15.0380235344
20
14.2547371716
30
0.0000000000
10
15.0380992428
20
14.2546066014
30
0.0000000000
11
14.9743199460
21
14.3145675000
31
0.0000000000
11
14.9874072023
21
14.3072406194
31
0.0000000000
11
15.0070478493
21
14.2926490165
31
0.0000000000
11
15.0238780848
21
14.2751999917
31
0.0000000000
11
15.0378715733
21
14.2549979993
31
0.0000000000
11
15.0380992428
21
14.2546066014
31
0.0000000000
0
SPLINE
5
323
100
AcDbEntity
8
0
100
AcDbSpline
62
7
6
CONTINUOUS
70
0
71
3
72
9
73
5
74
3
42
0.0000001000
43
0.0000001000
44
0.0000000001
12
0.0106959682
22
0.0091088848
32
0.0000000000
13
0.0125651438
23
0.0062858928
33
0.0000000000
40
0.0000000000
40
0.0000000000
40
0.0000000000
40
0.0000000000
40
0.2054428923
40
1.0000000000
40
1.0000000000
40
1.0000000000
40
1.0000000000
10
-6.0185282467
20
14.7555734415
30
0.0000000000
10
-6.0177957764
20
14.7561972267
30
0.0000000000
10
-6.0141560194
20
14.7591459004
30
0.0000000000
10
-6.0101664685
20
14.7616419543
30
0.0000000000
10
-6.0068385604
20
14.7633067879
30
0.0000000000
11
-6.0185282467
21
14.7555734415
31
0.0000000000
11
-6.0162854883
21
14.7573896912
31
0.0000000000
11
-6.0068385604
21
14.7633067879
31
0.0000000000
0
SPLINE
5
324
100
AcDbEntity
8
0
100
AcDbSpline
62
7
6
CONTINUOUS
70
0
71
3
72
9
73
5
74
3
42
0.0000001000
43
0.0000001000
44
0.0000000001
12
0.0795291270
22
0.0420563124
32
0.0000000000
13
0.0728605653
23
0.0528100669
33
0.0000000000
40
0.0000000000
40
0.0000000000
40
0.0000000000
40
0.0000000000
40
0.5842363092
40
1.0000000000
40
1.0000000000
40
1.0000000000
40
1.0000000000
10
14.6054089348
20
-19.3748969999
30
0.0000000000
10
14.6208968694
20
-19.3667067250
30
0.0000000000
10
14.6468148992
20
-19.3515390495
30
0.0000000000
10
14.6715923094
20
-19.3346119472
30
0.0000000000
10
14.6816899019
20
-19.3272931111
30
0.0000000000
11
14.6054089348
21
-19.3748969999
31
0.0000000000
11
14.6507920475
21
-19.3483831627
31
0.0000000000
11
14.6816899019
21
-19.3272931111
31
0.0000000000
0
SPLINE
5
325
100
AcDbEntity
8
0
100
AcDbSpline
62
7
6
CONTINUOUS
70
0
71
3
72
24
73
20
74
18
42
0.0000001000
43
0.0000001000
44
0.0000000001
12
-1.1802138618
22
0.4703283964
32
0.0000000000
13
-1.1361660762
23
-0.5680996616
33
0.0000000000
40
0.0000000000
40
0.0000000000
40
0.0000000000
40
0.0000000000
40
0.0282422458
40
0.0868493739
40
0.1464689383
40
0.2070024884
40
0.2683257947
40
0.3302891698
40
0.3927307106
40
0.4554840717
40
0.5183771559
40
0.5812354225
40
0.6438834671
40
0.7061504238
40
0.7678441923
40
0.8287658525
40
0.8887502679
40
0.9476753427
40
1.0000000000
40
1.0000000000
40
1.0000000000
40
1.0000000000
10
-4.7077596878
20
14.8348623035
30
0.0000000000
10
-4.7188703178
20
14.8392900136
30
0.0000000000
10
-4.7532538635
20
14.8523688267
30
0.0000000000
10
-4.8121949459
20
14.8717584327
30
0.0000000000
10
-4.8853407199
20
14.8913549963
30
0.0000000000
10
-4.9605282383
20
14.9073516134
30
0.0000000000
10
-5.0373874851
20
14.9197957071
30
0.0000000000
10
-5.1155459976
20
14.9287159142
30
0.0000000000
10
-5.1946311746
20
14.9341277499
30
0.0000000000
10
-5.2742714372
20
14.9360361690
30
0.0000000000
10
-5.3540949354
20
14.9344367107
30
0.0000000000
10
-5.4337259263
20
14.9293159689
30
0.0000000000
10
-5.5127840761
20
14.9206514084
30
0.0000000000
10
-5.5908710664
20
14.9084121360
30
0.0000000000
10
-5.6675623342
20
14.8925612252
30
0.0000000000
10
-5.7424120801
20
14.8730569513
30
0.0000000000
10
-5.8149729156
20
14.8498448582
30
0.0000000000
10
-5.8826369397
20
14.8236859609
30
0.0000000000
10
-5.9254691016
20
14.8039919845
30
0.0000000000
10
-5.9452856018
20
14.7940834445
30
0.0000000000
11
-4.7077596878
21
14.8348623035
31
0.0000000000
11
-4.7412922821
21
14.8476288659
31
0.0000000000
11
-4.8119842185
21
14.8709632996
31
0.0000000000
11
-4.8851183875
21
14.8906194237
31
0.0000000000
11
-4.9603156539
21
14.9066670546
31
0.0000000000
11
-5.0372022195
21
14.9191524293
31
0.0000000000
11
-5.1153983457
21
14.9281030885
31
0.0000000000
11
-5.1945262740
21
14.9335341976
31
0.0000000000
11
-5.2742134038
21
14.9354508101
31
0.0000000000
11
-5.3540849839
21
14.9338483510
31
0.0000000000
11
-5.4337631096
21
14.9287132506
31
0.0000000000
11
-5.5128635605
21
14.9200228970
31
0.0000000000
11
-5.5909970113
21
14.9077443880
31
0.0000000000
11
-5.6677305187
21
14.8918407066
31
0.0000000000
11
-5.7425992825
21
14.8722734382
31
0.0000000000
11
-5.8151480117
21
14.8489912862
31
0.0000000000
11
-5.8849284702
21
14.8219205274
31
0.0000000000
11
-5.9452856018
21
14.7940834445
31
0.0000000000
0
SPLINE
5
326
100
AcDbEntity
8
0
100
AcDbSpline
62
7
6
CONTINUOUS
70
0
71
3
72
8
73
4
74
2
42
0.0000001000
43
0.0000001000
44
0.0000000001
12
-0.0050308648
22
0.0025152164
32
0.0000000000
13
-0.0052241425
23
0.0020832623
33
0.0000000000
40
0.0000000000
40
0.0000000000
40
0.0000000000
40
0.0000000000
40
1.0000000000
40
1.0000000000
40
1.0000000000
40
1.0000000000
10
-4.7026293408
20
14.8325609718
30
0.0000000000
10
-4.7043062957
20
14.8333993773
30
0.0000000000
10
-4.7060183796
20
14.8341675146
30
0.0000000000
10
-4.7077597604
20
14.8348619354
30
0.0000000000
11
-4.7026293408
21
14.8325609718
31
0.0000000000
11
-4.7077597604
21
14.8348619354
31
0.0000000000
0
SPLINE
5
327
100
AcDbEntity
8
0
100
AcDbSpline
62
7
6
CONTINUOUS
70
0
71
3
72
17
73
13
74
11
42
0.0000001000
43
0.0000001000
44
0.0000000001
12
0.3267954694
22
0.1568442124
32
0.0000000000
13
0.3250319408
23
-0.1623326163
33
0.0000000000
40
0.0000000000
40
0.0000000000
40
0.0000000000
40
0.0000000000
40
0.1444903175
40
0.2800230024
40
0.4064032085
40
0.5234622862
40
0.6310855809
40
0.7292758090
40
0.8182352369
40
0.8985128392
40
0.9712181877
40
1.0000000000
40
1.0000000000
40
1.0000000000
40
1.0000000000
10
13.7801624672
20
14.6718472486
30
0.0000000000
10
13.7959020609
20
14.6794014053
30
0.0000000000
10
13.8266709128
20
14.6934991056
30
0.0000000000
10
13.8721408716
20
14.7120819947
30
0.0000000000
10
13.9153297162
20
14.7273586965
30
0.0000000000
10
13.9560777953
20
14.7392392425
30
0.0000000000
10
13.9942147329
20
14.7476229475
30
0.0000000000
10
14.0295597128
20
14.7523970168
30
0.0000000000
10
14.0619260205
20
14.7534331971
30
0.0000000000
10
14.0911230501
20
14.7505765374
30
0.0000000000
10
14.1124515812
20
14.7448327420
30
0.0000000000
10
14.1237132331
20
14.7398683770
30
0.0000000000
10
14.1268315692
20
14.7383109681
30
0.0000000000
11
13.7801624672
21
14.6718472486
31
0.0000000000
11
13.8278045952
21
14.6936056602
31
0.0000000000
11
13.8733107172
21
14.7121207618
31
0.0000000000
11
13.9165302561
21
14.7273099962
31
0.0000000000
11
13.9572978489
21
14.7390782461
31
0.0000000000
11
13.9954295790
21
14.7473180371
31
0.0000000000
11
14.0307243756
21
14.7519117735
31
0.0000000000
11
14.0629603627
21
14.7527335305
31
0.0000000000
11
14.0918963115
21
14.7496533403
31
0.0000000000
11
14.1172735751
21
14.7425428273
31
0.0000000000
11
14.1268315692
21
14.7383109681
31
0.0000000000
0
SPLINE
5
328
100
AcDbEntity
8
0
100
AcDbSpline
62
7
6
CONTINUOUS
70
0
71
3
72
30
73
26
74
24
42
0.0000001000
43
0.0000001000
44
0.0000000001
12
3.3990611785
22
1.6753110641
32
0.0000000000
13
3.5076353199
23
-1.4341473144
33
0.0000000000
40
0.0000000000
40
0.0000000000
40
0.0000000000
40
0.0000000000
40
0.0373740152
40
0.0761101878
40
0.1161194463
40
0.1573317361
40
0.1996195059
40
0.2429054545
40
0.2870323720
40
0.3319183389
40
0.3773849130
40
0.4233468943
40
0.4696128107
40
0.5160948086
40
0.5625964149
40
0.6090274722
40
0.6551943534
40
0.7010050072
40
0.7462763135
40
0.7909151132
40
0.8347562339
40
0.8777069410
40
0.9196272232
40
0.9604275051
40
1.0000000000
40
1.0000000000
40
1.0000000000
40
1.0000000000
10
6.6233337176
20
13.7737100526
30
0.0000000000
10
6.6656792390
20
13.7945810863
30
0.0000000000
10
6.7530297241
20
13.8348505523
30
0.0000000000
10
6.8890323184
20
13.8899119880
30
0.0000000000
10
7.0319027295
20
13.9405339976
30
0.0000000000
10
7.1810339878
20
13.9865010958
30
0.0000000000
10
7.3358530872
20
14.0276371956
30
0.0000000000
10
7.4956911193
20
14.0637642379
30
0.0000000000
10
7.6599445541
20
14.0947458678
30
0.0000000000
10
7.8278922554
20
14.1204457368
30
0.0000000000
10
7.9989083297
20
14.1407680266
30
0.0000000000
10
8.1722344880
20
14.1556223857
30
0.0000000000
10
8.3472293407
20
14.1649538057
30
0.0000000000
10
8.5231137993
20
14.1687206377
30
0.0000000000
10
8.6992377381
20
14.1669089531
30
0.0000000000
10
8.8748180603
20
14.1595268565
30
0.0000000000
10
9.0492027961
20
14.1466017990
30
0.0000000000
10
9.2216215464
20
14.1281910796
30
0.0000000000
10
9.3914276857
20
14.1043638223
30
0.0000000000
10
9.5578796305
20
14.0752244084
30
0.0000000000
10
9.7203437867
20
14.0408838274
30
0.0000000000
10
9.8781221756
20
14.0014900283
30
0.0000000000
10
10.0306034098
20
13.9571955116
30
0.0000000000
10
10.1771431137
20
13.9081881112
30
0.0000000000
10
10.2720102330
20
13.8719217810
30
0.0000000000
10
10.3182788600
20
13.8530041852
30
0.0000000000
11
6.6233337176
21
13.7737100526
31
0.0000000000
11
6.7518985193
21
13.8331220114
31
0.0000000000
11
6.8879180774
21
13.8883140192
31
0.0000000000
11
7.0307939769
21
13.9390443798
31
0.0000000000
11
7.1800131754
21
13.9851301252
31
0.0000000000
11
7.3348694176
21
14.0263539148
31
0.0000000000
11
7.4948513480
21
14.0625790917
31
0.0000000000
11
7.6591627121
21
14.0936258814
31
0.0000000000
11
7.8272941918
21
14.1193977302
31
0.0000000000
11
7.9983818553
21
14.1397625268
31
0.0000000000
11
8.1719163870
21
14.1546595019
31
0.0000000000
11
8.3469913444
21
14.1640109838
31
0.0000000000
11
8.5230941812
21
14.1677895971
31
0.0000000000
11
8.6993025197
21
14.1659755375
31
0.0000000000
11
8.8750971173
21
14.1585742848
31
0.0000000000
11
9.0495663899
21
14.1456240588
31
0.0000000000
11
9.2221814591
21
14.1271643806
31
0.0000000000
11
9.3920673574
21
14.1032885119
31
0.0000000000
11
9.5586838780
21
14.0740727749
31
0.0000000000
11
9.7212164136
21
14.0396595402
31
0.0000000000
11
9.8791138135
21
14.0001660567
31
0.0000000000
11
10.0316422550
21
13.9557752221
31
0.0000000000
11
10.1782430138
21
13.9066503709
31
0.0000000000
11
10.3182788600
21
13.8530041852
31
0.0000000000
0
SPLINE
5
329
100
AcDbEntity
8
0
100
AcDbSpline
62
7
6
CONTINUOUS
70
0
71
3
72
11
73
7
74
5
42
0.0000001000
43
0.0000001000
44
0.0000000001
12
0.3930951624
22
-0.2404280803
32
0.0000000000
13
0.3161242496
23
-0.3354205767
33
0.0000000000
40
0.0000000000
40
0.0000000000
40
0.0000000000
40
0.0000000000
40
0.2774716433
40
0.5426639157
40
0.7955853492
40
1.0000000000
40
1.0000000000
40
1.0000000000
40
1.0000000000
10
10.7105367944
20
13.6568752180
30
0.0000000000
10
10.7468943813
20
13.6346378931
30
0.0000000000
10
10.8167968394
20
13.5891298928
30
0.0000000000
10
10.9148803310
20
13.5161012225
30
0.0000000000
10
10.9991862904
20
13.4437798457
30
0.0000000000
10
11.0491975201
20
13.3943665417
30
0.0000000000
10
11.0707376628
20
13.3715115817
30
0.0000000000
11
10.7105367944
21
13.6568752180
31
0.0000000000
11
10.8175941825
21
13.5869747865
31
0.0000000000
11
10.9154968940
21
13.5138479026
31
0.0000000000
11
11.0038210850
21
13.4378124210
31
0.0000000000
11
11.0707376628
21
13.3715115817
31
0.0000000000
0
SPLINE
5
32A
100
AcDbEntity
8
0
100
AcDbSpline
62
7
6
CONTINUOUS
70
0
71
3
72
9
73
5
74
3
42
0.0000001000
43
0.0000001000
44
0.0000000001
12
0.0124629561
22
-0.1100286030
32
0.0000000000
13
0.0000000000
23
-0.1107321939
33
0.0000000000
40
0.0000000000
40
0.0000000000
40
0.0000000000
40
0.0000000000
40
0.4925884718
40
1.0000000000
40
1.0000000000
40
1.0000000000
40
1.0000000000
10
10.1570032974
20
16.4197933219
30
0.0000000000
10
10.1590496669
20
16.4017270481
30
0.0000000000
10
10.1620921415
20
16.3649181553
30
0.0000000000
10
10.1630602843
20
16.3279998329
30
0.0000000000
10
10.1630602843
20
16.3092709024
30
0.0000000000
11
10.1570032974
21
16.4197933219
31
0.0000000000
11
10.1615437198
21
16.3654372232
31
0.0000000000
11
10.1630602843
21
16.3092709024
31
0.0000000000
0
SPLINE
5
32B
100
AcDbEntity
8
0
100
AcDbSpline
62
7
6
CONTINUOUS
70
0
71
3
72
20
73
16
74
14
42
0.0000001000
43
0.0000001000
44
0.0000000001
12
-0.0000729198
22
1.3092990519
32
0.0000000000
13
1.1661523550
23
0.5933426289
33
0.0000000000
40
0.0000000000
40
0.0000000000
40
0.0000000000
40
0.0000000000
40
0.0121579206
40
0.0793381828
40
0.1474699993
40
0.2173091616
40
0.2895314228
40
0.3647117810
40
0.4433153555
40
0.5256974749
40
0.6121097639
40
0.7027093542
40
0.7975691664
40
0.8966880268
40
1.0000000000
40
1.0000000000
40
1.0000000000
40
1.0000000000
10
5.1520628325
20
13.3107334668
30
0.0000000000
10
5.1520625370
20
13.3160395848
30
0.0000000000
10
5.1524616694
20
13.3506652528
30
0.0000000000
10
5.1580832373
20
13.4149115152
30
0.0000000000
10
5.1770674545
20
13.5025829427
30
0.0000000000
10
5.2072109078
20
13.5893831132
30
0.0000000000
10
5.2483499183
20
13.6749452807
30
0.0000000000
10
5.3002797811
20
13.7589251714
30
0.0000000000
10
5.3627613726
20
13.8409960831
30
0.0000000000
10
5.4355232288
20
13.9208437409
30
0.0000000000
10
5.5182610947
20
13.9981630272
30
0.0000000000
10
5.6106362052
20
14.0726565767
30
0.0000000000
10
5.7122758113
20
14.1440358885
30
0.0000000000
10
5.8227667187
20
14.2120194660
30
0.0000000000
10
5.9004643528
20
14.2540505726
30
0.0000000000
10
5.9406235197
20
14.2744837052
30
0.0000000000
11
5.1520628325
21
13.3107334668
31
0.0000000000
11
5.1522465132
21
13.3266503359
31
0.0000000000
11
5.1598620036
21
13.4142199177
31
0.0000000000
11
5.1786209700
21
13.5013689616
31
0.0000000000
11
5.2084471814
21
13.5877433204
31
0.0000000000
11
5.2492194332
21
13.6729919945
31
0.0000000000
11
5.3007720393
21
13.7567685590
31
0.0000000000
11
5.3628955053
21
13.8387325713
31
0.0000000000
11
5.4353373802
21
13.9185509543
31
0.0000000000
11
5.5178032821
21
13.9958993501
31
0.0000000000
11
5.6099580943
21
14.0704634380
31
0.0000000000
11
5.7114273275
21
14.1419402122
31
0.0000000000
11
5.8217986412
21
14.2100392125
31
0.0000000000
11
5.9406235197
21
14.2744837052
31
0.0000000000
0
SPLINE
5
32C
100
AcDbEntity
8
0
100
AcDbSpline
62
9
6
CONTINUOUS
70
0
71
3
72
25
73
21
74
19
42
0.0000001000
43
0.0000001000
44
0.0000000001
12
0.9805003859
22
0.4902423243
32
0.0000000000
13
1.0206651721
23
-0.3999514344
33
0.0000000000
40
0.0000000000
40
0.0000000000
40
0.0000000000
40
0.0000000000
40
0.0486159936
40
0.0993722266
40
0.1520748349
40
0.2065079021
40
0.2624326998
40
0.3195922882
40
0.3777135757
40
0.4365142592
40
0.4957056498
40
0.5549977874
40
0.6141011718
40
0.6727315420
40
0.7306113606
40
0.7874746053
40
0.8430698023
40
0.8971631016
40
0.9495383397
40
1.0000000000
40
1.0000000000
40
1.0000000000
40
1.0000000000
10
-5.8558388009
20
14.7884051003
30
0.0000000000
10
-5.8399494674
20
14.7963496395
30
0.0000000000
10
-5.8069352735
20
14.8115333876
30
0.0000000000
10
-5.7551603237
20
14.8317898317
30
0.0000000000
10
-5.7003567723
20
14.8499098965
30
0.0000000000
10
-5.6428992148
20
14.8657725127
30
0.0000000000
10
-5.5831727839
20
14.8792761431
30
0.0000000000
10
-5.5215776131
20
14.8903356157
30
0.0000000000
10
-5.4585243447
20
14.8988832500
30
0.0000000000
10
-5.3944315443
20
14.9048689257
30
0.0000000000
10
-5.3297212675
20
14.9082602963
30
0.0000000000
10
-5.2648164774
20
14.9090425447
30
0.0000000000
10
-5.2001376389
20
14.9072180875
30
0.0000000000
10
-5.1361006259
20
14.9028061464
30
0.0000000000
10
-5.0731135925
20
14.8958422177
30
0.0000000000
10
-5.0115744910
20
14.8863774059
30
0.0000000000
10
-4.9518686396
20
14.8744775808
30
0.0000000000
10
-4.8943668290
20
14.8602224672
30
0.0000000000
10
-4.8394290031
20
14.8437063749
30
0.0000000000
10
-4.8040383201
20
14.8310077745
30
0.0000000000
10
-4.7868701670
20
14.8242803700
30
0.0000000000
11
-5.8558388009
21
14.7884051003
31
0.0000000000
11
-5.8074505864
21
14.8107402811
31
0.0000000000
11
-5.7556576821
21
14.8310714540
31
0.0000000000
11
-5.7008206682
21
14.8492580748
31
0.0000000000
11
-5.6433129251
21
14.8651798218
31
0.0000000000
11
-5.5835235804
21
14.8787337417
31
0.0000000000
11
-5.5218546696
21
14.8898343069
31
0.0000000000
11
-5.4587206189
21
14.8984132293
31
0.0000000000
11
-5.3945421029
21
14.9044202609
31
0.0000000000
11
-5.3297440498
21
14.9078229521
31
0.0000000000
11
-5.2647509987
21
14.9086065564
31
0.0000000000
11
-5.1999860735
21
14.9067735904
31
0.0000000000
11
-5.1358666106
21
14.9023434254
31
0.0000000000
11
-5.0728034442
21
14.8953518322
31
0.0000000000
11
-5.0111966969
21
14.8858502638
31
0.0000000000
11
-4.9514337187
21
14.8739050025
31
0.0000000000
11
-4.8938872872
21
14.8595963038
31
0.0000000000
11
-4.8389173979
21
14.8430184813
31
0.0000000000
11
-4.7868701670
21
14.8242803700
31
0.0000000000
0
SPLINE
5
32D
100
AcDbEntity
8
0
100
AcDbSpline
62
9
6
CONTINUOUS
70
0
71
3
72
26
73
22
74
20
42
0.0000001000
43
0.0000001000
44
0.0000000001
12
-0.0005214195
22
-1.0221635251
32
0.0000000000
13
-1.0139448235
23
-0.1286179433
33
0.0000000000
40
0.0000000000
40
0.0000000000
40
0.0000000000
40
0.0000000000
40
0.0674257495
40
0.1907173538
40
0.2991261505
40
0.3953032211
40
0.4806040448
40
0.5558399368
40
0.6218785916
40
0.6798360493
40
0.7309293285
40
0.7759359066
40
0.8150785403
40
0.8486716191
40
0.8773326122
40
0.9024372078
40
0.9250137747
40
0.9455672582
40
0.9645586701
40
0.9825132573
40
1.0000000000
40
1.0000000000
40
1.0000000000
40
1.0000000000
10
15.6431173922
20
9.3627339508
30
0.0000000000
10
15.6431056732
20
9.3397605702
30
0.0000000000
10
15.6423328102
20
9.2747797974
30
0.0000000000
10
15.6378285414
20
9.1729395761
30
0.0000000000
10
15.6283314505
20
9.0616102600
30
0.0000000000
10
15.6161102010
20
8.9635832868
30
0.0000000000
10
15.6019520089
20
8.8772548937
30
0.0000000000
10
15.5864697900
20
8.8016103992
30
0.0000000000
10
15.5701254909
20
8.7357101839
30
0.0000000000
10
15.5532069532
20
8.6784863138
30
0.0000000000
10
15.5358688201
20
8.6289220273
30
0.0000000000
10
15.5182515686
20
8.5863179060
30
0.0000000000
10
15.5005750395
20
8.5502741862
30
0.0000000000
10
15.4831181611
20
8.5204240396
30
0.0000000000
10
15.4659889424
20
8.4960383856
30
0.0000000000
10
15.4490743444
20
8.4762236433
30
0.0000000000
10
15.4321272804
20
8.4602357215
30
0.0000000000
10
15.4150180877
20
8.4476773826
30
0.0000000000
10
15.3977341572
20
8.4383151053
30
0.0000000000
10
15.3802508508
20
8.4319395802
30
0.0000000000
10
15.3683671839
20
8.4295230229
30
0.0000000000
10
15.3624569865
20
8.4287733200
30
0.0000000000
11
15.6431173922
21
9.3627339508
31
0.0000000000
11
15.6422968524
21
9.2938204450
31
0.0000000000
11
15.6366920411
21
9.1679325270
31
0.0000000000
11
15.6272192602
21
9.0575368423
31
0.0000000000
11
15.6149894145
21
8.9600009110
31
0.0000000000
11
15.6007995462
21
8.8739800288
31
0.0000000000
11
15.5852922088
21
8.7986635727
31
0.0000000000
11
15.5689493362
21
8.7331758943
31
0.0000000000
11
15.5520534428
21
8.6764000218
31
0.0000000000
11
15.5347024225
21
8.6271459432
31
0.0000000000
11
15.5170095326
21
8.5846847943
31
0.0000000000
11
15.4992777290
21
8.5488225091
31
0.0000000000
11
15.4818355186
21
8.5192484458
31
0.0000000000
11
15.4649022549
21
8.4953449773
31
0.0000000000
11
15.4481599696
21
8.4759011568
31
0.0000000000
11
15.4313051396
21
8.4601416404
31
0.0000000000
11
15.4143189047
21
8.4477817918
31
0.0000000000
11
15.3972214118
21
8.4385923886
31
0.0000000000
11
15.3799722021
21
8.4323299491
31
0.0000000000
11
15.3624569865
21
8.4287733200
31
0.0000000000
0
SPLINE
5
32E
100
AcDbEntity
8
0
100
AcDbSpline
62
9
6
CONTINUOUS
70
0
71
3
72
16
73
12
74
10
42
0.0000001000
43
0.0000001000
44
0.0000000001
12
-0.4035520321
22
0.2018036023
32
0.0000000000
13
-0.4066845390
23
-0.1946481669
33
0.0000000000
40
0.0000000000
40
0.0000000000
40
0.0000000000
40
0.0000000000
40
0.0179524839
40
0.1292323758
40
0.2419262945
40
0.3571674186
40
0.4759509126
40
0.5990963966
40
0.7272300812
40
0.8607829722
40
1.0000000000
40
1.0000000000
40
1.0000000000
40
1.0000000000
10
8.5138175387
20
17.5448191718
30
0.0000000000
10
8.5114026183
20
17.5460267971
30
0.0000000000
10
8.4939247271
20
17.5545320442
30
0.0000000000
10
8.4599913876
20
17.5678869639
30
0.0000000000
10
8.4103676652
20
17.5801807910
30
0.0000000000
10
8.3584736839
20
17.5861995593
30
0.0000000000
10
8.3046738052
20
17.5859208451
30
0.0000000000
10
8.2493354175
20
17.5793672741
30
0.0000000000
10
8.1928263132
20
17.5666007756
30
0.0000000000
10
8.1355225297
20
17.5477232079
30
0.0000000000
10
8.0978172535
20
17.5314888707
30
0.0000000000
10
8.0789447825
20
17.5224560909
30
0.0000000000
11
8.5138175387
21
17.5448191718
31
0.0000000000
11
8.5065341728
21
17.5483633690
31
0.0000000000
11
8.4598565108
21
17.5667606090
31
0.0000000000
11
8.4105518669
21
17.5790363790
31
0.0000000000
11
8.3589496033
21
17.5851086751
31
0.0000000000
11
8.3053944302
21
17.5849369334
31
0.0000000000
11
8.2502441038
21
17.5785223012
31
0.0000000000
11
8.1938670360
21
17.5659076291
31
0.0000000000
11
8.1366398337
21
17.5471771850
31
0.0000000000
11
8.0789447825
21
17.5224560909
31
0.0000000000
0
SPLINE
5
32F
100
AcDbEntity
8
0
100
AcDbSpline
62
9
6
CONTINUOUS
70
0
71
3
72
43
73
39
74
37
42
0.0000001000
43
0.0000001000
44
0.0000000001
12
4.2552928214
22
-3.4425808825
32
0.0000000000
13
-4.5974354542
23
-2.9735249299
33
0.0000000000
40
0.0000000000
40
0.0000000000
40
0.0000000000
40
0.0000000000
40
0.0022985806
40
0.0325445077
40
0.0634583180
40
0.0949837642
40
0.1270584270
40
0.1596146311
40
0.1925801677
40
0.2258792338
40
0.2594329872
40
0.2931605269
40
0.3269793263
40
0.3608062542
40
0.3945579387
40
0.4281518169
40
0.4615064879
40
0.4945427719
40
0.5271841134
40
0.5593576343
40
0.5909946470
40
0.6220316964
40
0.6524112384
40
0.6820826797
40
0.7110032666
40
0.7391391426
40
0.7664664673
40
0.7929725007
40
0.8186569128
40
0.8435328373
40
0.8676281991
40
0.8909865085
40
0.9136677882
40
0.9357485884
40
0.9573217923
40
0.9784950964
40
0.9993889399
40
1.0000000000
40
1.0000000000
40
1.0000000000
40
1.0000000000
10
15.6431674190
20
11.7938203655
30
0.0000000000
10
15.6464277969
20
11.7911826823
30
0.0000000000
10
15.6925187847
20
11.7537491590
30
0.0000000000
10
15.7804285964
20
11.6783557934
30
0.0000000000
10
15.9035081272
20
11.5623321559
30
0.0000000000
10
16.0235526365
20
11.4384858027
30
0.0000000000
10
16.1400914556
20
11.3073032885
30
0.0000000000
10
16.2526672833
20
11.1693000858
30
0.0000000000
10
16.3608381849
20
11.0250184566
30
0.0000000000
10
16.4641792258
20
10.8750255464
30
0.0000000000
10
16.5622844158
20
10.7199108672
30
0.0000000000
10
16.6547681054
20
10.5602843287
30
0.0000000000
10
16.7412668095
20
10.3967733971
30
0.0000000000
10
16.8214403870
20
10.2300210844
30
0.0000000000
10
16.8949736772
20
10.0606828660
30
0.0000000000
10
16.9615774846
20
9.8894246250
30
0.0000000000
10
17.0209899664
20
9.7169194267
30
0.0000000000
10
17.0729774362
20
9.5438453991
30
0.0000000000
10
17.1173354525
20
9.3708824742
30
0.0000000000
10
17.1538894375
20
9.1987101805
30
0.0000000000
10
17.1824954325
20
9.0280044646
30
0.0000000000
10
17.2030405088
20
8.8594353840
30
0.0000000000
10
17.2154431685
20
8.6936641184
30
0.0000000000
10
17.2196535066
20
8.5313405823
30
0.0000000000
10
17.2156532523
20
8.3731007353
30
0.0000000000
10
17.2034556325
20
8.2195641888
30
0.0000000000
10
17.1831050798
20
8.0713319375
30
0.0000000000
10
17.1546767823
20
7.9289841158
30
0.0000000000
10
17.1182761642
20
7.7930782975
30
0.0000000000
10
17.0740382434
20
7.6641476257
30
0.0000000000
10
17.0221271893
20
7.5426997962
30
0.0000000000
10
16.9627358906
20
7.4292156778
30
0.0000000000
10
16.8960861678
20
7.3241487594
30
0.0000000000
10
16.8224291378
20
7.2279237825
30
0.0000000000
10
16.7420464474
20
7.1409355699
30
0.0000000000
10
16.6552511958
20
7.0635462863
30
0.0000000000
10
16.5921542306
20
7.0177065710
30
0.0000000000
10
16.5592303993
20
6.9963420845
30
0.0000000000
10
16.5582939629
20
6.9957364170
30
0.0000000000
11
15.6431674190
21
11.7938203655
31
0.0000000000
11
15.6529334812
21
11.7858887650
31
0.0000000000
11
15.7786450160
21
11.6781960802
31
0.0000000000
11
15.9018111700
21
11.5622017145
31
0.0000000000
11
16.0219463356
21
11.4383629959
31
0.0000000000
11
16.1385768178
21
11.3071682262
31
0.0000000000
11
16.2512428734
21
11.1691345558
31
0.0000000000
11
16.3595001679
21
11.0248063676
31
0.0000000000
11
16.4629220456
21
10.8747524744
31
0.0000000000
11
16.5611005592
21
10.7195647664
31
0.0000000000
11
16.6536488327
21
10.5598547635
31
0.0000000000
11
16.7402017642
21
10.3962525221
31
0.0000000000
11
16.8204183218
21
10.2294026592
31
0.0000000000
11
16.8939820314
21
10.0599634389
31
0.0000000000
11
16.9606030497
21
9.8886024572
31
0.0000000000
11
17.0200185411
21
9.7159957726
31
0.0000000000
11
17.0719943984
21
9.5428234872
31
0.0000000000
11
17.1163255784
21
9.3697687565
31
0.0000000000
11
17.1528373915
21
9.1975135187
31
0.0000000000
11
17.1813858176
21
9.0267372214
31
0.0000000000
11
17.2018583434
21
8.8581129314
31
0.0000000000
11
17.2141742288
21
8.6923056540
31
0.0000000000
11
17.2182849270
21
8.5299690022
31
0.0000000000
11
17.2141742274
21
8.3717430490
31
0.0000000000
11
17.2018583406
21
8.2182516581
31
0.0000000000
11
17.1813858133
21
8.0700998948
31
0.0000000000
11
17.1528373857
21
7.9278720249
31
0.0000000000
11
17.1163255713
21
7.7921286014
31
0.0000000000
11
17.0719943899
21
7.6634050519
31
0.0000000000
11
17.0200185314
21
7.5422086256
31
0.0000000000
11
16.9606030384
21
7.4290174335
31
0.0000000000
11
16.8939820192
21
7.3242774723
31
0.0000000000
11
16.8204183079
21
7.2284019627
31
0.0000000000
11
16.7402017498
21
7.1417686598
31
0.0000000000
11
16.6536488165
21
7.0647193512
31
0.0000000000
11
16.5611005427
21
6.9975576244
31
0.0000000000
11
16.5582939629
21
6.9957364170
31
0.0000000000
0
SPLINE
5
330
100
AcDbEntity
8
0
100
AcDbSpline
62
9
6
CONTINUOUS
70
0
71
3
72
26
73
22
74
20
42
0.0000001000
43
0.0000001000
44
0.0000000001
12
0.5615387913
22
0.2085812067
32
0.0000000000
13
-0.4382410796
23
-0.4088759455
33
0.0000000000
40
0.0000000000
40
0.0000000000
40
0.0000000000
40
0.0000000000
40
0.0377554449
40
0.0756939030
40
0.1140673543
40
0.1527683624
40
0.1917135945
40
0.2312791985
40
0.2722664216
40
0.3154855892
40
0.3615219360
40
0.4107622389
40
0.4635550144
40
0.5207079216
40
0.5837054443
40
0.6526181514
40
0.7255928295
40
0.8022201778
40
0.8813833887
40
0.9644480224
40
1.0000000000
40
1.0000000000
40
1.0000000000
40
1.0000000000
10
15.4800112919
20
6.7936798176
30
0.0000000000
10
15.4870783408
20
6.7963048431
30
0.0000000000
10
15.5014724147
20
6.8009876040
30
0.0000000000
10
15.5237354571
20
6.8059724890
30
0.0000000000
10
15.5466131093
20
6.8085115611
30
0.0000000000
10
15.5698422737
20
6.8082069823
30
0.0000000000
10
15.5930663092
20
6.8047603238
30
0.0000000000
10
15.6160247705
20
6.7979746853
30
0.0000000000
10
15.6385681270
20
6.7876436513
30
0.0000000000
10
15.6605033629
20
6.7735104171
30
0.0000000000
10
15.6814632720
20
6.7553283453
30
0.0000000000
10
15.7008894857
20
6.7329065680
30
0.0000000000
10
15.7180776043
20
6.7060321386
30
0.0000000000
10
15.7321076668
20
6.6743207609
30
0.0000000000
10
15.7414603957
20
6.6375412855
30
0.0000000000
10
15.7439481233
20
6.5964331040
30
0.0000000000
10
15.7375973578
20
6.5529427080
30
0.0000000000
10
15.7217307212
20
6.5097762736
30
0.0000000000
10
15.6970039269
20
6.4687072891
30
0.0000000000
10
15.6713723823
20
6.4384789885
30
0.0000000000
10
15.6544473250
20
6.4218820346
30
0.0000000000
10
15.6492538793
20
6.4170365851
30
0.0000000000
11
15.4800112919
21
6.7936798176
31
0.0000000000
11
15.5015320165
21
6.8006342312
31
0.0000000000
11
15.5237210835
21
6.8055456111
31
0.0000000000
11
15.5465728605
21
6.8080324004
31
0.0000000000
11
15.5697532504
21
6.8076910441
31
0.0000000000
11
15.5928272241
21
6.8042496355
31
0.0000000000
11
15.6155575403
21
6.7975368479
31
0.0000000000
11
15.6378879283
21
6.7873302638
31
0.0000000000
11
15.6596714892
21
6.7733396465
31
0.0000000000
11
15.6805303231
21
6.7553008608
31
0.0000000000
11
15.6998715997
21
6.7330311146
31
0.0000000000
11
15.7169261872
21
6.7063996797
31
0.0000000000
11
15.7307728967
21
6.6750887083
31
0.0000000000
11
15.7400447559
21
6.6385083232
31
0.0000000000
11
15.7425196605
21
6.5973020885
31
0.0000000000
11
15.7362691783
21
6.5540375479
31
0.0000000000
11
15.7206189461
21
6.5108861653
31
0.0000000000
11
15.6964005700
21
6.4701160385
31
0.0000000000
11
15.6644534496
21
6.4319686118
31
0.0000000000
11
15.6492538793
21
6.4170365851
31
0.0000000000
0
SPLINE
5
331
100
AcDbEntity
8
0
100
AcDbSpline
62
9
6
CONTINUOUS
70
0
71
3
72
8
73
4
74
2
42
0.0000001000
43
0.0000001000
44
0.0000000001
12
-0.0037673182
22
-0.0035148823
32
0.0000000000
13
-0.0038088387
23
-0.0034699880
33
0.0000000000
40
0.0000000000
40
0.0000000000
40
0.0000000000
40
0.0000000000
40
1.0000000000
40
1.0000000000
40
1.0000000000
40
1.0000000000
10
15.6492538793
20
6.4170365851
30
0.0000000000
10
15.6479981065
20
6.4158649577
30
0.0000000000
10
15.6467352805
20
6.4147008736
30
0.0000000000
10
15.6454656675
20
6.4135442109
30
0.0000000000
11
15.6492538793
21
6.4170365851
31
0.0000000000
11
15.6454656675
21
6.4135442109
31
0.0000000000
0
SPLINE
5
332
100
AcDbEntity
8
0
100
AcDbSpline
62
9
6
CONTINUOUS
70
0
71
3
72
8
73
4
74
2
42
0.0000001000
43
0.0000001000
44
0.0000000001
12
-0.0003101793
22
-0.0002825844
32
0.0000000000
13
-0.0003104489
23
-0.0002822893
33
0.0000000000
40
0.0000000000
40
0.0000000000
40
0.0000000000
40
0.0000000000
40
1.0000000000
40
1.0000000000
40
1.0000000000
40
1.0000000000
10
15.6454656675
20
6.4135442109
30
0.0000000000
10
15.6453622745
20
6.4134500161
30
0.0000000000
10
15.6452588364
20
6.4133558705
30
0.0000000000
10
15.6451553534
20
6.4132617741
30
0.0000000000
11
15.6454656675
21
6.4135442109
31
0.0000000000
11
15.6451553534
21
6.4132617741
31
0.0000000000
0
SPLINE
5
333
100
AcDbEntity
8
0
100
AcDbSpline
62
9
6
CONTINUOUS
70
0
71
3
72
8
73
4
74
2
42
0.0000001000
43
0.0000001000
44
0.0000000001
12
-0.0019838249
22
-0.0018038798
32
0.0000000000
13
-0.0019947047
23
-0.0017918887
33
0.0000000000
40
0.0000000000
40
0.0000000000
40
0.0000000000
40
0.0000000000
40
1.0000000000
40
1.0000000000
40
1.0000000000
40
1.0000000000
10
15.6451553534
20
6.4132617741
30
0.0000000000
10
15.6444940784
20
6.4126604808
30
0.0000000000
10
15.6438309714
20
6.4120611947
30
0.0000000000
10
15.6431660698
20
6.4114638984
30
0.0000000000
11
15.6451553534
21
6.4132617741
31
0.0000000000
11
15.6431660698
21
6.4114638984
31
0.0000000000
0
SPLINE
5
334
100
AcDbEntity
8
0
100
AcDbSpline
62
7
6
CONTINUOUS
70
0
71
3
72
52
73
48
74
46
42
0.0000001000
43
0.0000001000
44
0.0000000001
12
2.8079739238
22
2.2944628981
32
0.0000000000
13
-3.5426822608
23
-0.7737441094
33
0.0000000000
40
0.0000000000
40
0.0000000000
40
0.0000000000
40
0.0000000000
40
0.0616895185
40
0.1178710148
40
0.1690316542
40
0.2155920829
40
0.2579366134
40
0.2964161556
40
0.3313507892
40
0.3630320978
40
0.3917252254
40
0.4176706828
40
0.4410859176
40
0.4621666821
40
0.4810882973
40
0.4980069905
40
0.5130616315
40
0.5263774166
40
0.5380676546
40
0.5482415958
40
0.5570798856
40
0.5648565354
40
0.5718435743
40
0.5782612334
40
0.5842929554
40
0.5901021671
40
0.5958470460
40
0.6016968971
40
0.6078480649
40
0.6145013308
40
0.6218225630
40
0.6299699289
40
0.6391290884
40
0.6495006582
40
0.6612904863
40
0.6747075774
40
0.6899651128
40
0.7072832787
40
0.7268926923
40
0.7490378563
40
0.7739804592
40
0.8020025100
40
0.8334093639
40
0.8685327269
40
0.9077336730
40
0.9514058224
40
1.0000000000
40
1.0000000000
40
1.0000000000
40
1.0000000000
10
15.4800011857
20
6.7936714797
30
0.0000000000
10
15.5377420388
20
6.8408529168
30
0.0000000000
10
15.6476193196
20
6.9315550279
30
0.0000000000
10
15.8036963551
20
7.0634109241
30
0.0000000000
10
15.9443050750
20
7.1852185967
30
0.0000000000
10
16.0707602545
20
7.2977976382
30
0.0000000000
10
16.1842376318
20
7.4018776780
30
0.0000000000
10
16.2858074340
20
7.4981242138
30
0.0000000000
10
16.3764426160
20
7.5871429516
30
0.0000000000
10
16.4570262467
20
7.6694832701
30
0.0000000000
10
16.5283583646
20
7.7456408877
30
0.0000000000
10
16.5911624255
20
7.8160595928
30
0.0000000000
10
16.6460916486
20
7.8811319520
30
0.0000000000
10
16.6937357299
20
7.9411989569
30
0.0000000000
10
16.7346286624
20
7.9965487391
30
0.0000000000
10
16.7692587477
20
8.0474148984
30
0.0000000000
10
16.7980828282
20
8.0939768048
30
0.0000000000
10
16.8215435848
20
8.1363609259
30
0.0000000000
10
16.8400929264
20
8.1746508057
30
0.0000000000
10
16.8542479568
20
8.2089825799
30
0.0000000000
10
16.8646159520
20
8.2396845690
30
0.0000000000
10
16.8718181423
20
8.2673152868
30
0.0000000000
10
16.8763646328
20
8.2925384745
30
0.0000000000
10
16.8785864279
20
8.3159566392
30
0.0000000000
10
16.8786403337
20
8.3380605403
30
0.0000000000
10
16.8765245571
20
8.3592521891
30
0.0000000000
10
16.8720769756
20
8.3798636514
30
0.0000000000
10
16.8649560869
20
8.4001615658
30
0.0000000000
10
16.8546309226
20
8.4202910351
30
0.0000000000
10
16.8404494166
20
8.4401661861
30
0.0000000000
10
16.8217893598
20
8.4594539197
30
0.0000000000
10
16.7981557205
20
8.4777109359
30
0.0000000000
10
16.7691359992
20
8.4945318201
30
0.0000000000
10
16.7343193121
20
8.5095884652
30
0.0000000000
10
16.6932653377
20
8.5226020713
30
0.0000000000
10
16.6454899897
20
8.5333160469
30
0.0000000000
10
16.5904568317
20
8.5414773227
30
0.0000000000
10
16.5275712720
20
8.5468239012
30
0.0000000000
10
16.4561749781
20
8.5490764236
30
0.0000000000
10
16.3755400666
20
8.5479319409
30
0.0000000000
10
16.2848629787
20
8.5430588752
30
0.0000000000
10
16.1832579718
20
8.5340926157
30
0.0000000000
10
16.0697501083
20
8.5206314174
30
0.0000000000
10
15.9432677358
20
8.5022324160
30
0.0000000000
10
15.8026340194
20
8.4784075139
30
0.0000000000
10
15.6465333095
20
8.4486146055
30
0.0000000000
10
15.5373857802
20
8.4256759924
30
0.0000000000
10
15.4800012032
20
8.4131428395
30
0.0000000000
11
15.4800011857
21
6.7936714797
31
0.0000000000
11
15.6524689548
21
6.9361345126
31
0.0000000000
11
15.8080460661
21
7.0676625437
31
0.0000000000
11
15.9482188304
21
7.1891889202
31
0.0000000000
11
16.0742738124
21
7.3015103884
31
0.0000000000
11
16.1873834154
21
7.4053547505
31
0.0000000000
11
16.2886149184
21
7.5013859515
31
0.0000000000
11
16.3789385132
21
7.5902082624
31
0.0000000000
11
16.4592347405
21
7.6723697842
31
0.0000000000
11
16.5303013114
21
7.7483650768
31
0.0000000000
11
16.5928595504
21
7.8186368582
31
0.0000000000
11
16.6475607355
21
7.8835766544
31
0.0000000000
11
16.6949927872
21
7.9435243098
31
0.0000000000
11
16.7356880708
21
7.9987664781
31
0.0000000000
11
16.7701333880
21
8.0495345587
31
0.0000000000
11
16.7987835691
21
8.0960033492
31
0.0000000000
11
16.8220817372
21
8.1382963216
31
0.0000000000
11
16.8404784473
21
8.1764874624
31
0.0000000000
11
16.8544607932
21
8.2106278139
31
0.0000000000
11
16.8646419022
21
8.2410170497
31
0.0000000000
11
16.8716883551
21
8.2683221210
31
0.0000000000
11
16.8761214366
21
8.2932676335
31
0.0000000000
11
16.8782621366
21
8.3164406380
31
0.0000000000
11
16.8782622581
21
8.3383128275
31
0.0000000000
11
16.8761218148
21
8.3592691248
31
0.0000000000
11
16.8716890208
21
8.3796240817
31
0.0000000000
11
16.8646429102
21
8.3996323441
31
0.0000000000
11
16.8544621981
21
8.4194787684
31
0.0000000000
11
16.8404802283
21
8.4391401450
31
0.0000000000
11
16.8220838365
21
8.4582811967
31
0.0000000000
11
16.7987859313
21
8.4764485024
31
0.0000000000
11
16.7701359231
21
8.4932494730
31
0.0000000000
11
16.7356906849
21
8.5083486860
31
0.0000000000
11
16.6949953837
21
8.5214499319
31
0.0000000000
11
16.6475632234
21
8.5322805001
31
0.0000000000
11
16.5928618483
21
8.5405757573
31
0.0000000000
11
16.5303033509
21
8.5460667361
31
0.0000000000
11
16.4592364698
21
8.5484705450
31
0.0000000000
11
16.3789398984
21
8.5474829522
31
0.0000000000
11
16.2886159448
21
8.5427724690
31
0.0000000000
11
16.1873840897
21
8.5339753773
31
0.0000000000
11
16.0742741644
21
8.5206912938
31
0.0000000000
11
15.9482189149
21
8.5024789739
31
0.0000000000
11
15.8080459665
21
8.4788521727
31
0.0000000000
11
15.6524687840
21
8.4492753726
31
0.0000000000
11
15.4800012032
21
8.4131428395
31
0.0000000000
0
SPLINE
5
335
100
AcDbEntity
8
0
100
AcDbSpline
62
9
6
CONTINUOUS
70
0
71
3
72
26
73
22
74
20
42
0.0000001000
43
0.0000001000
44
0.0000000001
12
0.5182266527
22
-1.6358408153
32
0.0000000000
13
-1.2094090282
23
-1.2168669022
33
0.0000000000
40
0.0000000000
40
0.0000000000
40
0.0000000000
40
0.0000000000
40
0.0440734084
40
0.1241445508
40
0.2083551273
40
0.2952771738
40
0.3822849410
40
0.4655367228
40
0.5404970256
40
0.6066964934
40
0.6657921634
40
0.7187710587
40
0.7661151560
40
0.8082608078
40
0.8457712780
40
0.8793250672
40
0.9094940059
40
0.9365058989
40
0.9604062189
40
0.9814093742
40
1.0000000000
40
1.0000000000
40
1.0000000000
40
1.0000000000
10
15.6432121216
20
10.0649371566
30
0.0000000000
10
15.6508254599
20
10.0409047965
30
0.0000000000
10
15.6709436776
20
9.9727902452
30
0.0000000000
10
15.6985938795
20
9.8567983705
30
0.0000000000
10
15.7226422638
20
9.7150623209
30
0.0000000000
10
15.7378997319
20
9.5681261910
30
0.0000000000
10
15.7439464938
20
9.4210811760
30
0.0000000000
10
15.7414288107
20
9.2807900220
30
0.0000000000
10
15.7321405580
20
9.1527318845
30
0.0000000000
10
15.7181866445
20
9.0390192162
30
0.0000000000
10
15.7010760200
20
8.9384780767
30
0.0000000000
10
15.6817396833
20
8.8493523717
30
0.0000000000
10
15.6608923993
20
8.7705605916
30
0.0000000000
10
15.6390985276
20
8.7012507305
30
0.0000000000
10
15.6167297889
20
8.6404671669
30
0.0000000000
10
15.5939755755
20
8.5872034229
30
0.0000000000
10
15.5709589705
20
8.5406652491
30
0.0000000000
10
15.5478839147
20
8.5004093469
30
0.0000000000
10
15.5250636386
20
8.4661527028
30
0.0000000000
10
15.5027626172
20
8.4374563816
30
0.0000000000
10
15.4875059783
20
8.4206857387
30
0.0000000000
10
15.4800114214
20
8.4131449663
30
0.0000000000
11
15.6432121216
21
10.0649371566
31
0.0000000000
11
15.6646508752
21
9.9924155017
31
0.0000000000
11
15.6966015510
21
9.8588091421
31
0.0000000000
11
15.7208649212
21
9.7163857310
31
0.0000000000
11
15.7363484905
21
9.5680644111
31
0.0000000000
11
15.7425328814
21
9.4189181978
31
0.0000000000
11
15.7399802938
21
9.2761105664
31
0.0000000000
11
15.7306517848
21
9.1478441252
31
0.0000000000
11
15.7167718122
21
9.0351207144
31
0.0000000000
11
15.6997001561
21
8.9351811714
31
0.0000000000
11
15.6803557805
21
8.8463705790
31
0.0000000000
11
15.6594986229
21
8.7678684657
31
0.0000000000
11
15.6377237465
21
8.6989181271
31
0.0000000000
11
15.6154097760
21
8.6385558521
31
0.0000000000
11
15.5927041687
21
8.5856564957
31
0.0000000000
11
15.5696659195
21
8.5393072732
31
0.0000000000
11
15.5465293314
21
8.4991531533
31
0.0000000000
11
15.5237129499
21
8.4650829697
31
0.0000000000
11
15.5015353483
21
8.4366822826
31
0.0000000000
11
15.4800114214
21
8.4131449663
31
0.0000000000
0
SPLINE
5
336
100
AcDbEntity
8
0
100
AcDbSpline
62
9
6
CONTINUOUS
70
0
71
3
72
18
73
14
74
12
42
0.0000001000
43
0.0000001000
44
0.0000000001
12
0.3421819379
22
0.1701299167
32
0.0000000000
13
0.1978664154
23
-0.3095906505
33
0.0000000000
40
0.0000000000
40
0.0000000000
40
0.0000000000
40
0.0000000000
40
0.1612065774
40
0.3104715131
40
0.4468244645
40
0.5693897844
40
0.6773973839
40
0.7701972756
40
0.8472833076
40
0.9083419999
40
0.9533820448
40
0.9831967870
40
1.0000000000
40
1.0000000000
40
1.0000000000
40
1.0000000000
10
14.9483065108
20
13.6678131792
30
0.0000000000
10
14.9666938372
20
13.6769551997
30
0.0000000000
10
15.0021970290
20
13.6943808068
30
0.0000000000
10
15.0535945559
20
13.7188349823
30
0.0000000000
10
15.1008639375
20
13.7404973140
30
0.0000000000
10
15.1436887784
20
13.7592300108
30
0.0000000000
10
15.1817841249
20
13.7749047879
30
0.0000000000
10
15.2148934085
20
13.7874567454
30
0.0000000000
10
15.2428094958
20
13.7967388557
30
0.0000000000
10
15.2653394770
20
13.8029586790
30
0.0000000000
10
15.2824788156
20
13.8055902215
30
0.0000000000
10
15.2941992139
20
13.8060641566
30
0.0000000000
10
15.3000229087
20
13.8026337364
30
0.0000000000
10
15.3011311725
20
13.8008996972
30
0.0000000000
11
14.9483065108
21
13.6678131792
31
0.0000000000
11
15.0036191657
21
13.6949340752
31
0.0000000000
11
15.0551403246
21
13.7194122507
31
0.0000000000
11
15.1025258190
21
13.7410841880
31
0.0000000000
11
15.1454591072
21
13.7598051153
31
0.0000000000
11
15.1836533886
21
13.7754499744
31
0.0000000000
11
15.2168535201
21
13.7879142553
31
0.0000000000
11
15.2448377201
21
13.7971146949
31
0.0000000000
11
15.2674190503
21
13.8029898330
31
0.0000000000
11
15.2844466641
21
13.8055004228
31
0.0000000000
11
15.2958068146
21
13.8046296932
31
0.0000000000
11
15.3011311725
21
13.8008996972
31
0.0000000000
0
SPLINE
5
337
100
AcDbEntity
8
0
100
AcDbSpline
62
7
6
CONTINUOUS
70
0
71
3
72
18
73
14
74
12
42
0.0000001000
43
0.0000001000
44
0.0000000001
12
0.3459745596
22
0.1680568266
32
0.0000000000
13
0.3443637069
23
-0.1722285845
33
0.0000000000
40
0.0000000000
40
0.0000000000
40
0.0000000000
40
0.0000000000
40
0.1297946914
40
0.2520704309
40
0.3667499221
40
0.4738432021
40
0.5734632031
40
0.6658448809
40
0.7513682582
40
0.8305847233
40
0.9042435825
40
0.9733112212
40
1.0000000000
40
1.0000000000
40
1.0000000000
40
1.0000000000
10
14.6054089348
20
14.2592240148
30
0.0000000000
10
14.6203774886
20
14.2664949761
30
0.0000000000
10
14.6497524028
20
14.2800015654
30
0.0000000000
10
14.6933882528
20
14.2975723668
30
0.0000000000
10
14.7351536857
20
14.3118378343
30
0.0000000000
10
14.7749073335
20
14.3227877177
30
0.0000000000
10
14.8125211064
20
14.3304244348
30
0.0000000000
10
14.8478792992
20
14.3347611738
30
0.0000000000
10
14.8808789745
20
14.3358203235
30
0.0000000000
10
14.9114285040
20
14.3336311229
30
0.0000000000
10
14.9394439150
20
14.3282277574
30
0.0000000000
10
14.9600928601
20
14.3212542797
30
0.0000000000
10
14.9712563971
20
14.3160996902
30
0.0000000000
10
14.9743199460
20
14.3145675000
30
0.0000000000
11
14.6054089348
21
14.2592240148
31
0.0000000000
11
14.6507920475
21
14.2800252984
31
0.0000000000
11
14.6944443824
21
14.2975295736
31
0.0000000000
11
14.7362108668
21
14.3117139459
31
0.0000000000
11
14.7759463903
21
14.3225686596
31
0.0000000000
11
14.8135165062
21
14.3300972156
31
0.0000000000
11
14.8487980481
21
14.3343163261
31
0.0000000000
11
14.8816796288
21
14.3352557020
31
0.0000000000
11
14.9120620039
21
14.3329576829
31
0.0000000000
11
14.9398583080
21
14.3274767234
31
0.0000000000
11
14.9649940684
21
14.3188787829
31
0.0000000000
11
14.9743199460
21
14.3145675000
31
0.0000000000
0
SPLINE
5
338
100
AcDbEntity
8
0
100
AcDbSpline
62
9
6
CONTINUOUS
70
0
71
3
72
19
73
15
74
13
42
0.0000001000
43
0.0000001000
44
0.0000000001
12
0.0043621578
22
1.5071270313
32
0.0000000000
13
-0.7596320570
23
1.3016950699
33
0.0000000000
40
0.0000000000
40
0.0000000000
40
0.0000000000
40
0.0000000000
40
0.0762817009
40
0.1544246992
40
0.2342915930
40
0.3157231579
40
0.3985441601
40
0.4825648517
40
0.5675828668
40
0.6533860756
40
0.7397553920
40
0.8264664344
40
0.9132904740
40
1.0000000000
40
1.0000000000
40
1.0000000000
40
1.0000000000
10
15.3624569865
20
12.2361796045
30
0.0000000000
10
15.3625679041
20
12.2745016757
30
0.0000000000
10
15.3606768560
20
12.3521006224
30
0.0000000000
10
15.3517907389
20
12.4695138961
30
0.0000000000
10
15.3368584811
20
12.5889205919
30
0.0000000000
10
15.3159444300
20
12.7098081038
30
0.0000000000
10
15.2891382577
20
12.8316626524
30
0.0000000000
10
15.2565545572
20
12.9539647250
30
0.0000000000
10
15.2183325369
20
13.0761928548
30
0.0000000000
10
15.1746354056
20
13.1978256667
30
0.0000000000
10
15.1256497288
20
13.3183442647
30
0.0000000000
10
15.0715842465
20
13.4372349565
30
0.0000000000
10
15.0126709223
20
13.5539882870
30
0.0000000000
10
14.9702622894
20
13.6301900583
30
0.0000000000
10
14.9483065108
20
13.6678131792
30
0.0000000000
11
15.3624569865
21
12.2361796045
31
0.0000000000
11
15.3597319283
21
12.3511139989
31
0.0000000000
11
15.3509118152
21
12.4685551773
31
0.0000000000
11
15.3360342987
21
12.5880022808
31
0.0000000000
11
15.3151632217
21
12.7089428272
31
0.0000000000
11
15.2883878946
21
12.8308595486
31
0.0000000000
11
15.2558228237
21
12.9532309945
31
0.0000000000
11
15.2176074780
21
13.0755329873
31
0.0000000000
11
15.1739055757
21
13.1972416494
31
0.0000000000
11
15.1249040478
21
13.3178364218
31
0.0000000000
11
15.0708124330
21
13.4368015150
31
0.0000000000
11
15.0118628000
21
13.5536265030
31
0.0000000000
11
14.9483065108
21
13.6678131792
31
0.0000000000
0
SPLINE
5
339
100
AcDbEntity
8
0
100
AcDbSpline
62
9
6
CONTINUOUS
70
0
71
3
72
17
73
13
74
11
42
0.0000001000
43
0.0000001000
44
0.0000000001
12
0.4163435503
22
0.2155681837
32
0.0000000000
13
-0.0000278342
23
0.4693695292
33
0.0000000000
40
0.0000000000
40
0.0000000000
40
0.0000000000
40
0.0000000000
40
0.1329189116
40
0.2587863602
40
0.3775375991
40
0.4893034249
40
0.5944452287
40
0.6935904860
40
0.7876608200
40
0.8778788512
40
0.9657362157
40
1.0000000000
40
1.0000000000
40
1.0000000000
40
1.0000000000
10
15.3624569865
20
12.2361796045
30
0.0000000000
10
15.3809036303
20
12.2457306340
30
0.0000000000
10
15.4162303813
20
12.2654993245
30
0.0000000000
10
15.4654996333
20
12.2980653022
30
0.0000000000
10
15.5093238435
20
12.3325539365
30
0.0000000000
10
15.5474098712
20
12.3687499415
30
0.0000000000
10
15.5795002973
20
12.4064336554
30
0.0000000000
10
15.6053654789
20
12.4453779635
30
0.0000000000
10
15.6248014815
20
12.4853435532
30
0.0000000000
10
15.6376315094
20
12.5260681557
30
0.0000000000
10
15.6425045839
20
12.5590398979
30
0.0000000000
10
15.6431159597
20
12.5781463030
30
0.0000000000
10
15.6431156418
20
12.5835070951
30
0.0000000000
11
15.3624569865
21
12.2361796045
31
0.0000000000
11
15.4167828207
21
12.2667117389
31
0.0000000000
11
15.4659404593
21
12.2993601222
31
0.0000000000
11
15.5096015223
21
12.3339066588
31
0.0000000000
11
15.5474743475
21
12.3701205728
31
0.0000000000
11
15.5793059393
21
12.4077599502
31
0.0000000000
11
15.6048836580
21
12.4465733547
31
0.0000000000
11
15.6240366409
21
12.4863015071
31
0.0000000000
11
15.6366369434
21
12.5266790179
31
0.0000000000
11
15.6426003937
21
12.5674361596
31
0.0000000000
11
15.6431156418
21
12.5835070951
31
0.0000000000
0
SPLINE
5
33A
100
AcDbEntity
8
0
100
AcDbSpline
62
9
6
CONTINUOUS
70
0
71
3
72
26
73
22
74
20
42
0.0000001000
43
0.0000001000
44
0.0000000001
12
0.3680106482
22
0.3344051646
32
0.0000000000
13
0.0090292676
23
-0.4974139743
33
0.0000000000
40
0.0000000000
40
0.0000000000
40
0.0000000000
40
0.0000000000
40
0.0464085793
40
0.0898417214
40
0.1306577763
40
0.1690984428
40
0.2053893081
40
0.2400008508
40
0.2741693198
40
0.3094538645
40
0.3467273260
40
0.3869060920
40
0.4309932216
40
0.4803907825
40
0.5366838310
40
0.6011859714
40
0.6748425125
40
0.7583964693
40
0.8529138205
40
0.9606697477
40
1.0000000000
40
1.0000000000
40
1.0000000000
40
1.0000000000
10
15.3624569865
20
6.6563201858
30
0.0000000000
10
15.3681499369
20
6.6614932754
30
0.0000000000
10
15.3794304085
20
6.6712286186
30
0.0000000000
10
15.3966803195
20
6.6843491479
30
0.0000000000
10
15.4137725039
20
6.6954110713
30
0.0000000000
10
15.4307675709
20
6.7043112335
30
0.0000000000
10
15.4476991904
20
6.7108995282
30
0.0000000000
10
15.4646804089
20
6.7150246088
30
0.0000000000
10
15.4819497590
20
6.7164543029
30
0.0000000000
10
15.4996621942
20
6.7147435970
30
0.0000000000
10
15.5176789140
20
6.7093499300
30
0.0000000000
10
15.5356089837
20
6.6999107127
30
0.0000000000
10
15.5531617017
20
6.6862261856
30
0.0000000000
10
15.5701995497
20
6.6680521141
30
0.0000000000
10
15.5865962602
20
6.6450064381
30
0.0000000000
10
15.6020892533
20
6.6166682666
30
0.0000000000
10
15.6162350961
20
6.5826828609
30
0.0000000000
10
15.6284309594
20
6.5427140925
30
0.0000000000
10
15.6378969504
20
6.4962201142
30
0.0000000000
10
15.6420304239
20
6.4563204007
30
0.0000000000
10
15.6429090064
20
6.4319410804
30
0.0000000000
10
15.6430273808
20
6.4254199414
30
0.0000000000
11
15.3624569865
21
6.6563201858
31
0.0000000000
11
15.3799589679
21
6.6713606482
31
0.0000000000
11
15.3971890349
21
6.6843822788
31
0.0000000000
11
15.4142667623
21
6.6953491316
31
0.0000000000
11
15.4312373236
21
6.7041451768
31
0.0000000000
11
15.4480849521
21
6.7106107556
31
0.0000000000
11
15.4648274623
21
6.7145974903
31
0.0000000000
11
15.4817647596
21
6.7159385884
31
0.0000000000
11
15.4992266071
21
6.7142295888
31
0.0000000000
11
15.5169942024
21
6.7089540124
31
0.0000000000
11
15.5347219625
21
6.6997407405
31
0.0000000000
11
15.5520991125
21
6.6863756697
31
0.0000000000
11
15.5690131568
21
6.6685639981
31
0.0000000000
11
15.5853681493
21
6.6458471768
31
0.0000000000
11
15.6008818828
21
6.6177749459
31
0.0000000000
11
15.6150737536
21
6.5840104718
31
0.0000000000
11
15.6272987589
21
6.5443024487
31
0.0000000000
11
15.6367514524
21
6.4982639965
31
0.0000000000
11
15.6423220409
21
6.4449726016
31
0.0000000000
11
15.6430273808
21
6.4254199414
31
0.0000000000
0
SPLINE
5
33B
100
AcDbEntity
8
0
100
AcDbSpline
62
9
6
CONTINUOUS
70
0
71
3
72
8
73
4
74
2
42
0.0000001000
43
0.0000001000
44
0.0000000001
12
0.0001688661
22
-0.0093026770
32
0.0000000000
13
0.0000109162
23
-0.0093043370
33
0.0000000000
40
0.0000000000
40
0.0000000000
40
0.0000000000
40
0.0000000000
40
1.0000000000
40
1.0000000000
40
1.0000000000
40
1.0000000000
10
15.6430273808
20
6.4254199414
30
0.0000000000
10
15.6430836695
20
6.4223190491
30
0.0000000000
10
15.6431136036
20
6.4192176577
30
0.0000000000
10
15.6431172423
20
6.4161162120
30
0.0000000000
11
15.6430273808
21
6.4254199414
31
0.0000000000
11
15.6431172423
21
6.4161162120
31
0.0000000000
0
SPLINE
5
33C
100
AcDbEntity
8
0
100
AcDbSpline
62
9
6
CONTINUOUS
70
0
71
3
72
17
73
13
74
11
42
0.0000001000
43
0.0000001000
44
0.0000000001
12
0.4128699715
22
0.2137696856
32
0.0000000000
13
0.0072514721
23
0.4653911981
33
0.0000000000
40
0.0000000000
40
0.0000000000
40
0.0000000000
40
0.0000000000
40
0.1335941851
40
0.2601262477
40
0.3795306310
40
0.4919360729
40
0.5977003374
40
0.6974454374
40
0.7920856724
40
0.8828349910
40
0.9711763247
40
1.0000000000
40
1.0000000000
40
1.0000000000
40
1.0000000000
10
15.3624569865
20
-18.1089006413
30
0.0000000000
10
15.3808426623
20
-18.0993811790
30
0.0000000000
10
15.4160579184
20
-18.0796797950
30
0.0000000000
10
15.4651860687
20
-18.0472340658
30
0.0000000000
10
15.5089078045
20
-18.0128774489
30
0.0000000000
10
15.5469326703
20
-17.9768231025
30
0.0000000000
10
15.5790055338
20
-17.9392885333
30
0.0000000000
10
15.6048987882
20
-17.9004985822
30
0.0000000000
10
15.6244103271
20
-17.8606899560
30
0.0000000000
10
15.6373647906
20
-17.8201216503
30
0.0000000000
10
15.6422459555
20
-17.7881300818
30
0.0000000000
10
15.6430154801
20
-17.7699621132
30
0.0000000000
10
15.6430851515
20
-17.7654906849
30
0.0000000000
11
15.3624569865
21
-18.1089006413
31
0.0000000000
11
15.4166069004
21
-18.0784758824
31
0.0000000000
11
15.4656248053
21
-18.0459485017
31
0.0000000000
11
15.5091854733
21
-18.0115343143
31
0.0000000000
11
15.5469998848
21
-17.9754616540
31
0.0000000000
11
15.5788171457
21
-17.9379698586
31
0.0000000000
11
15.6044261525
21
-17.8993076815
31
0.0000000000
11
15.6236569926
21
-17.8597316414
31
0.0000000000
11
15.6363820716
21
-17.8195043206
31
0.0000000000
11
15.6425169604
21
-17.7788926224
31
0.0000000000
11
15.6430851515
21
-17.7654906849
31
0.0000000000
0
SPLINE
5
33D
100
AcDbEntity
8
0
100
AcDbSpline
62
9
6
CONTINUOUS
70
0
71
3
72
8
73
4
74
2
42
0.0000001000
43
0.0000001000
44
0.0000000001
12
0.0000610446
22
0.0039177744
32
0.0000000000
13
-0.0000001663
23
0.0039182795
33
0.0000000000
40
0.0000000000
40
0.0000000000
40
0.0000000000
40
0.0000000000
40
1.0000000000
40
1.0000000000
40
1.0000000000
40
1.0000000000
10
15.6430851515
20
-17.7654906849
30
0.0000000000
10
15.6431054997
20
-17.7641847601
30
0.0000000000
10
15.6431156428
20
-17.7628786698
30
0.0000000000
10
15.6431155874
20
-17.7615725767
30
0.0000000000
11
15.6430851515
21
-17.7654906849
31
0.0000000000
11
15.6431155874
21
-17.7615725767
31
0.0000000000
0
SPLINE
5
33E
100
AcDbEntity
8
0
100
AcDbSpline
62
9
6
CONTINUOUS
70
0
71
3
72
9
73
5
74
3
42
0.0000001000
43
0.0000001000
44
0.0000000001
12
0.0776924171
22
0.0410062346
32
0.0000000000
13
0.0711542095
23
0.0515681931
33
0.0000000000
40
0.0000000000
40
0.0000000000
40
0.0000000000
40
0.0000000000
40
0.6190889221
40
1.0000000000
40
1.0000000000
40
1.0000000000
40
1.0000000000
10
14.9483065108
20
-19.1263837403
30
0.0000000000
10
14.9643393491
20
-19.1179215717
30
0.0000000000
10
14.9896562117
20
-19.1031175690
30
0.0000000000
10
15.0138395678
20
-19.0865691546
30
0.0000000000
10
15.0228740434
20
-19.0800215226
30
0.0000000000
11
14.9483065108
21
-19.1263837403
31
0.0000000000
11
14.9952516872
21
-19.0989230010
31
0.0000000000
11
15.0228740434
21
-19.0800215226
31
0.0000000000
0
SPLINE
5
33F
100
AcDbEntity
8
0
100
AcDbSpline
62
9
6
CONTINUOUS
70
0
71
3
72
9
73
5
74
3
42
0.0000001000
43
0.0000001000
44
0.0000000001
12
0.0699950325
22
0.0506595091
32
0.0000000000
13
0.0640798488
23
0.0580279161
33
0.0000000000
40
0.0000000000
40
0.0000000000
40
0.0000000000
40
0.0000000000
40
0.9448939271
40
1.0000000000
40
1.0000000000
40
1.0000000000
40
1.0000000000
10
14.9483065108
20
-19.1263837403
30
0.0000000000
10
14.9703524712
20
-19.1104277861
30
0.0000000000
10
14.9928090620
20
-19.0922962529
30
0.0000000000
10
15.0142264074
20
-19.0730163786
30
0.0000000000
10
15.0154034704
20
-19.0719504818
30
0.0000000000
11
14.9483065108
21
-19.1263837403
31
0.0000000000
11
15.0118628000
21
-19.0751377678
31
0.0000000000
11
15.0154034704
21
-19.0719504818
31
0.0000000000
0
SPLINE
5
340
100
AcDbEntity
8
0
100
AcDbSpline
62
9
6
CONTINUOUS
70
0
71
3
72
18
73
14
74
12
42
0.0000001000
43
0.0000001000
44
0.0000000001
12
0.7812084705
22
0.7074283177
32
0.0000000000
13
-0.0030579805
23
1.0533643708
33
0.0000000000
40
0.0000000000
40
0.0000000000
40
0.0000000000
40
0.0000000000
40
0.0742437328
40
0.1547197810
40
0.2373042128
40
0.3223302176
40
0.4100633502
40
0.5007007547
40
0.5943739111
40
0.6911530636
40
0.7910513794
40
0.8940285524
40
1.0000000000
40
1.0000000000
40
1.0000000000
40
1.0000000000
10
15.0154034704
20
-19.0719504818
30
0.0000000000
10
15.0347367480
20
-19.0544431088
30
0.0000000000
10
15.0732480291
20
-19.0160142105
30
0.0000000000
10
15.1264250981
20
-18.9516974010
30
0.0000000000
10
15.1754686264
20
-18.8795609760
30
0.0000000000
10
15.2191671369
20
-18.8011474575
30
0.0000000000
10
15.2573429093
20
-18.7167993671
30
0.0000000000
10
15.2898426321
20
-18.6268805652
30
0.0000000000
10
15.3165360206
20
-18.5317761350
30
0.0000000000
10
15.3373163016
20
-18.4318915427
30
0.0000000000
10
15.3521003569
20
-18.3276505459
30
0.0000000000
10
15.3608293773
20
-18.2194995922
30
0.0000000000
10
15.3625650060
20
-18.1461094904
30
0.0000000000
10
15.3624569865
20
-18.1089006413
30
0.0000000000
11
15.0154034704
21
-19.0719504818
31
0.0000000000
11
15.0708124330
21
-19.0167551059
31
0.0000000000
11
15.1249040478
21
-18.9514848009
31
0.0000000000
11
15.1739055757
21
-18.8796068851
31
0.0000000000
11
15.2176074780
21
-18.8014288350
31
0.0000000000
11
15.2558228237
21
-18.7172850092
31
0.0000000000
11
15.2883878946
21
-18.6275358128
31
0.0000000000
11
15.3151632217
21
-18.5325657087
31
0.0000000000
11
15.3360342987
21
-18.4327809105
31
0.0000000000
11
15.3509118152
21
-18.3286081501
31
0.0000000000
11
15.3597319283
21
-18.2204943916
31
0.0000000000
11
15.3624569865
21
-18.1089006413
31
0.0000000000
0
SPLINE
5
341
100
AcDbEntity
8
0
100
AcDbSpline
62
9
6
CONTINUOUS
70
0
71
3
72
13
73
9
74
7
42
0.0000001000
43
0.0000001000
44
0.0000000001
12
0.0831894255
22
0.0416210685
32
0.0000000000
13
0.0830442216
23
-0.0415221109
33
0.0000000000
40
0.0000000000
40
0.0000000000
40
0.0000000000
40
0.0000000000
40
0.0398015084
40
0.2136565539
40
0.3933138876
40
0.5826498345
40
0.7843828888
40
1.0000000000
40
1.0000000000
40
1.0000000000
40
1.0000000000
10
-5.9452812097
20
14.7940848377
30
0.0000000000
10
-5.9441775215
20
14.7946370315
30
0.0000000000
10
-5.9381800016
20
14.7974549935
30
0.0000000000
10
-5.9264850418
20
14.8011493314
30
0.0000000000
10
-5.9096574595
20
14.8028230925
30
0.0000000000
10
-5.8919717149
20
14.8012369955
30
0.0000000000
10
-5.8737372465
20
14.7964608560
30
0.0000000000
10
-5.8618073859
20
14.7913893928
30
0.0000000000
10
-5.8558388009
20
14.7884051003
30
0.0000000000
11
-5.9452812097
21
14.7940848377
31
0.0000000000
11
-5.9419306630
21
14.7956587845
31
0.0000000000
11
-5.9265494740
21
14.8005553596
31
0.0000000000
11
-5.9099584063
21
14.8022804536
31
0.0000000000
11
-5.8924413376
21
14.8008045499
31
0.0000000000
11
-5.8742979899
21
14.7961529017
31
0.0000000000
11
-5.8558388009
21
14.7884051003
31
0.0000000000
0
SPLINE
5
342
100
AcDbEntity
8
0
100
AcDbSpline
62
7
6
CONTINUOUS
70
0
71
3
72
14
73
10
74
8
42
0.0000001000
43
0.0000001000
44
0.0000000001
12
0.0791351001
22
0.0395884654
32
0.0000000000
13
0.0790056663
23
-0.0395028331
33
0.0000000000
40
0.0000000000
40
0.0000000000
40
0.0000000000
40
0.0000000000
40
0.0108975268
40
0.1508652764
40
0.2976080641
40
0.4542147772
40
0.6228187521
40
0.8046187890
40
1.0000000000
40
1.0000000000
40
1.0000000000
40
1.0000000000
10
-6.0068385604
20
14.7633067879
30
0.0000000000
10
-6.0065511014
20
14.7634505933
30
0.0000000000
10
-6.0025552034
20
14.7654085440
30
0.0000000000
10
-5.9942422611
20
14.7683647411
30
0.0000000000
10
-5.9812572045
20
14.7702878150
30
0.0000000000
10
-5.9673058010
20
14.7699247810
30
0.0000000000
10
-5.9525607862
20
14.7673015985
30
0.0000000000
10
-5.9371977590
20
14.7624630689
30
0.0000000000
10
-5.9270207249
20
14.7579595459
30
0.0000000000
10
-5.9218753173
20
14.7553868421
30
0.0000000000
11
-6.0068385604
21
14.7633067879
31
0.0000000000
11
-6.0059726878
21
14.7637310557
31
0.0000000000
11
-5.9943387026
21
14.7679151177
31
0.0000000000
11
-5.9815269375
21
14.7698824932
31
0.0000000000
11
-5.9676965541
21
14.7696018376
31
0.0000000000
11
-5.9530203115
21
14.7670703961
31
0.0000000000
11
-5.9376822804
21
14.7623140445
31
0.0000000000
11
-5.9218753173
21
14.7553868421
31
0.0000000000
0
SPLINE
5
343
100
AcDbEntity
8
0
100
AcDbSpline
62
7
6
CONTINUOUS
70
0
71
3
72
9
73
5
74
3
42
0.0000001000
43
0.0000001000
44
0.0000000001
12
-0.0046364675
22
0.0018489117
32
0.0000000000
13
-0.0047614225
23
0.0014980617
33
0.0000000000
40
0.0000000000
40
0.0000000000
40
0.0000000000
40
0.0000000000
40
0.1904103833
40
1.0000000000
40
1.0000000000
40
1.0000000000
40
1.0000000000
10
-4.7077597604
20
14.8348619354
30
0.0000000000
10
-4.7080540376
20
14.8349792861
30
0.0000000000
10
-4.7096039207
20
14.8355845339
30
0.0000000000
10
-4.7111761040
20
14.8361312584
30
0.0000000000
10
-4.7124610368
20
14.8365355301
30
0.0000000000
11
-4.7077597604
21
14.8348619354
31
0.0000000000
11
-4.7086450738
21
14.8352076552
31
0.0000000000
11
-4.7124610368
21
14.8365355301
31
0.0000000000
0
SPLINE
5
344
100
AcDbEntity
8
0
100
AcDbSpline
62
7
6
CONTINUOUS
70
0
71
3
72
13
73
9
74
7
42
0.0000001000
43
0.0000001000
44
0.0000000001
12
-0.0740256564
22
0.0232903092
32
0.0000000000
13
-0.0674954640
23
-0.0380871352
33
0.0000000000
40
0.0000000000
40
0.0000000000
40
0.0000000000
40
0.0000000000
40
0.1049480215
40
0.2661620546
40
0.4344052790
40
0.6118919984
40
0.8001412687
40
1.0000000000
40
1.0000000000
40
1.0000000000
40
1.0000000000
10
-4.7124610368
20
14.8365355301
30
0.0000000000
10
-4.7150506522
20
14.8373502874
30
0.0000000000
10
-4.7217429996
20
14.8390215667
30
0.0000000000
10
-4.7329665520
20
14.8401147050
30
0.0000000000
10
-4.7460864323
20
14.8392375725
30
0.0000000000
10
-4.7596078925
20
14.8362868331
30
0.0000000000
10
-4.7733838660
20
14.8313102236
30
0.0000000000
10
-4.7823735018
20
14.8268176459
30
0.0000000000
10
-4.7868700210
20
14.8242802970
30
0.0000000000
11
-4.7124610368
21
14.8365355301
31
0.0000000000
11
-4.7203569188
21
14.8385125544
31
0.0000000000
11
-4.7327883924
21
14.8397620113
31
0.0000000000
11
-4.7458015011
21
14.8389428017
31
0.0000000000
11
-4.7592522059
21
14.8360644008
31
0.0000000000
11
-4.7729920850
21
14.8311588370
31
0.0000000000
11
-4.7868700210
21
14.8242802970
31
0.0000000000
0
SPLINE
5
345
100
AcDbEntity
8
0
100
AcDbSpline
62
7
6
CONTINUOUS
70
0
71
3
72
13
73
9
74
7
42
0.0000001000
43
0.0000001000
44
0.0000000001
12
0.0955452568
22
0.1544423785
32
0.0000000000
13
0.1406277889
23
0.1149137475
33
0.0000000000
40
0.0000000000
40
0.0000000000
40
0.0000000000
40
0.0000000000
40
0.1641125965
40
0.3293206082
40
0.4955402789
40
0.6629364244
40
0.8313526948
40
1.0000000000
40
1.0000000000
40
1.0000000000
40
1.0000000000
10
15.3624569865
20
6.6563126309
30
0.0000000000
10
15.3676837132
20
6.6647612775
30
0.0000000000
10
15.3785186834
20
6.6815043020
30
0.0000000000
10
15.3959792089
20
6.7059114737
30
0.0000000000
10
15.4147983147
20
6.7295454851
30
0.0000000000
10
15.4350438842
20
6.7522343803
30
0.0000000000
10
15.4567214191
20
6.7737699130
30
0.0000000000
10
15.4720956865
20
6.7872115151
30
0.0000000000
10
15.4800011857
20
6.7936714797
30
0.0000000000
11
15.3624569865
21
6.6563126309
31
0.0000000000
11
15.3786735543
21
6.6813187829
31
0.0000000000
11
15.3961487530
21
6.7057073033
31
0.0000000000
11
15.4149692769
21
6.7293087598
31
0.0000000000
11
15.4352234161
21
6.7519793482
31
0.0000000000
11
15.4569336971
21
6.7735234396
31
0.0000000000
11
15.4800011857
21
6.7936714797
31
0.0000000000
0
SPLINE
5
346
100
AcDbEntity
8
0
100
AcDbSpline
62
7
6
CONTINUOUS
70
0
71
3
72
13
73
9
74
7
42
0.0000001000
43
0.0000001000
44
0.0000000001
12
-0.1186440381
22
-0.0259097720
32
0.0000000000
13
-0.1050085684
23
0.0609993821
33
0.0000000000
40
0.0000000000
40
0.0000000000
40
0.0000000000
40
0.0000000000
40
0.1923879054
40
0.3713766022
40
0.5388111758
40
0.6974861288
40
0.8504116562
40
1.0000000000
40
1.0000000000
40
1.0000000000
40
1.0000000000
10
15.4800012032
20
8.4131428395
30
0.0000000000
10
15.4723926439
20
8.4114812639
30
0.0000000000
10
15.4575250769
20
8.4090192275
30
0.0000000000
10
15.4356840116
20
8.4080092445
30
0.0000000000
10
15.4152466377
20
8.4096767811
30
0.0000000000
10
15.3962427337
20
8.4138143868
30
0.0000000000
10
15.3786345639
20
8.4201674907
30
0.0000000000
10
15.3676930057
20
8.4257395051
30
0.0000000000
10
15.3624569865
20
8.4287811039
30
0.0000000000
11
15.4800012032
21
8.4131428395
31
0.0000000000
11
15.4569386267
21
8.4094043050
31
0.0000000000
11
15.4352224530
21
8.4084662477
31
0.0000000000
11
15.4149602000
21
8.4101644118
31
0.0000000000
11
15.3961351428
21
8.4142792136
31
0.0000000000
11
15.3786626269
21
8.4205724370
31
0.0000000000
11
15.3624569865
21
8.4287811039
31
0.0000000000
0
SPLINE
5
347
100
AcDbEntity
8
0
100
AcDbSpline
62
9
6
CONTINUOUS
70
0
71
3
72
15
73
11
74
9
42
0.0000001000
43
0.0000001000
44
0.0000000001
12
-0.3945151521
22
0.2041142431
32
0.0000000000
13
-0.4056645176
23
-0.1817600012
33
0.0000000000
40
0.0000000000
40
0.0000000000
40
0.0000000000
40
0.0000000000
40
0.1425078965
40
0.2791099952
40
0.4100698687
40
0.5358503481
40
0.6571232361
40
0.7747667924
40
0.8898452490
40
1.0000000000
40
1.0000000000
40
1.0000000000
40
1.0000000000
10
8.0789447825
20
17.5224560909
30
0.0000000000
10
8.0602042744
20
17.5321520547
30
0.0000000000
10
8.0227111378
20
17.5496737842
30
0.0000000000
10
7.9655475126
20
17.5703885510
30
0.0000000000
10
7.9090230193
20
17.5848323275
30
0.0000000000
10
7.8535214498
20
17.5928887608
30
0.0000000000
10
7.7994195245
20
17.5944832944
30
0.0000000000
10
7.7470951054
20
17.5895825438
30
0.0000000000
10
7.6974410988
20
17.5783179356
30
0.0000000000
10
7.6660842815
20
17.5666813982
30
0.0000000000
10
7.6511889902
20
17.5600074889
30
0.0000000000
11
8.0789447825
21
17.5224560909
31
0.0000000000
11
8.0215490005
21
17.5491523348
31
0.0000000000
11
7.9644608709
21
17.5697115153
31
0.0000000000
11
7.9080702125
21
17.5839932466
31
0.0000000000
11
7.8527620815
21
17.5919000079
31
0.0000000000
11
7.7989141418
21
17.5933778090
31
0.0000000000
11
7.7468940872
21
17.5884165588
31
0.0000000000
11
7.6970571295
21
17.5770501346
31
0.0000000000
11
7.6511889902
21
17.5600074889
31
0.0000000000
0
SPLINE
5
348
100
AcDbEntity
8
0
100
AcDbSpline
62
9
6
CONTINUOUS
70
0
71
3
72
9
73
5
74
3
42
0.0000001000
43
0.0000001000
44
0.0000000001
12
-0.0038736307
22
-0.0017355995
32
0.0000000000
13
-0.0038535210
23
-0.0017798133
33
0.0000000000
40
0.0000000000
40
0.0000000000
40
0.0000000000
40
0.0000000000
40
0.3735012990
40
1.0000000000
40
1.0000000000
40
1.0000000000
40
1.0000000000
10
7.6511889902
20
17.5600074889
30
0.0000000000
10
7.6507067215
20
17.5597914061
30
0.0000000000
10
7.6494167473
20
17.5592101144
30
0.0000000000
10
7.6481301160
20
17.5586214449
30
0.0000000000
10
7.6473253741
20
17.5582497613
30
0.0000000000
11
7.6511889902
21
17.5600074889
31
0.0000000000
11
7.6497435738
21
17.5593561505
31
0.0000000000
11
7.6473253741
21
17.5582497613
31
0.0000000000
0
SPLINE
5
349
100
AcDbEntity
8
0
100
AcDbSpline
62
9
6
CONTINUOUS
70
0
71
3
72
8
73
4
74
2
42
0.0000001000
43
0.0000001000
44
0.0000000001
12
-0.0494399858
22
-0.0228330797
32
0.0000000000
13
-0.0502020998
23
-0.0211267031
33
0.0000000000
40
0.0000000000
40
0.0000000000
40
0.0000000000
40
0.0000000000
40
1.0000000000
40
1.0000000000
40
1.0000000000
40
1.0000000000
10
2.1606257153
20
14.7891802193
30
0.0000000000
10
2.1441457200
20
14.7815691927
30
0.0000000000
10
2.1275284333
20
14.7742510350
30
0.0000000000
10
2.1107944001
20
14.7672088006
30
0.0000000000
11
2.1606257153
21
14.7891802193
31
0.0000000000
11
2.1107944001
21
14.7672088006
31
0.0000000000
0
SPLINE
5
34A
100
AcDbEntity
8
0
100
AcDbSpline
62
9
6
CONTINUOUS
70
0
71
3
72
12
73
8
74
6
42
0.0000001000
43
0.0000001000
44
0.0000000001
12
-0.2180363040
22
0.1128076195
32
0.0000000000
13
-0.2450330367
23
0.0171826668
33
0.0000000000
40
0.0000000000
40
0.0000000000
40
0.0000000000
40
0.0000000000
40
0.2578540087
40
0.5050220516
40
0.7419810374
40
0.9695684142
40
1.0000000000
40
1.0000000000
40
1.0000000000
40
1.0000000000
10
2.1606257153
20
14.7891802193
30
0.0000000000
10
2.1418852036
20
14.7988761849
30
0.0000000000
10
2.1043920602
20
14.8163979172
30
0.0000000000
10
2.0472284251
20
14.8371126860
30
0.0000000000
10
1.9907039234
20
14.8515564619
30
0.0000000000
10
1.9505387884
20
14.8573867040
30
0.0000000000
10
1.9294763879
20
14.8590315267
30
0.0000000000
10
1.9269908066
20
14.8592058253
30
0.0000000000
11
2.1606257153
21
14.7891802193
31
0.0000000000
11
2.1032299222
21
14.8158764678
31
0.0000000000
11
2.0461417828
21
14.8364356501
31
0.0000000000
11
1.9897511161
21
14.8507173808
31
0.0000000000
11
1.9344429783
21
14.8586241394
31
0.0000000000
11
1.9269908066
21
14.8592058253
31
0.0000000000
0
SPLINE
5
34B
100
AcDbEntity
8
0
100
AcDbSpline
62
7
6
CONTINUOUS
70
0
71
3
72
17
73
13
74
11
42
0.0000001000
43
0.0000001000
44
0.0000000001
12
0.4893911460
22
0.2335871117
32
0.0000000000
13
0.4851977624
23
-0.2425171928
33
0.0000000000
40
0.0000000000
40
0.0000000000
40
0.0000000000
40
0.0000000000
40
0.0993216075
40
0.1984557574
40
0.2981539046
40
0.3991694404
40
0.5022417824
40
0.6080907580
40
0.7173946993
40
0.8307769499
40
0.9487880003
40
1.0000000000
40
1.0000000000
40
1.0000000000
40
1.0000000000
10
9.1197112844
20
17.0020728400
30
0.0000000000
10
9.1359136561
20
17.0098062558
30
0.0000000000
10
9.1690869695
20
17.0236477773
30
0.0000000000
10
9.2207668842
20
17.0392512378
30
0.0000000000
10
9.2740793522
20
17.0495409804
30
0.0000000000
10
9.3288702639
20
17.0544041836
30
0.0000000000
10
9.3849830642
20
17.0537194224
30
0.0000000000
10
9.4422430926
20
17.0473548873
30
0.0000000000
10
9.5004555684
20
17.0351742692
30
0.0000000000
10
9.5593980005
20
17.0170432255
30
0.0000000000
10
9.6067657714
20
16.9977470162
30
0.0000000000
10
9.6343712992
20
16.9845412539
30
0.0000000000
10
9.6426539485
20
16.9804013237
30
0.0000000000
11
9.1197112844
21
17.0020728400
31
0.0000000000
11
9.1694252887
21
17.0227953135
31
0.0000000000
11
9.2208898336
21
17.0383312035
31
0.0000000000
11
9.2739719878
21
17.0485891303
31
0.0000000000
11
9.3285335821
21
17.0534603795
31
0.0000000000
11
9.3844239014
21
17.0528208760
31
0.0000000000
11
9.4414783432
21
17.0465347897
31
0.0000000000
11
9.4995085375
21
17.0344594431
31
0.0000000000
11
9.5582975041
21
17.0164527440
31
0.0000000000
11
9.6175933354
21
16.9923829472
31
0.0000000000
11
9.6426539485
21
16.9804013237
31
0.0000000000
0
SPLINE
5
34C
100
AcDbEntity
8
0
100
AcDbSpline
62
7
6
CONTINUOUS
70
0
71
3
72
26
73
22
74
20
42
0.0000001000
43
0.0000001000
44
0.0000000001
12
-1.2388761419
22
1.7520832247
32
0.0000000000
13
1.9359127617
23
0.9240140005
33
0.0000000000
40
0.0000000000
40
0.0000000000
40
0.0000000000
40
0.0000000000
40
0.0108472899
40
0.0632889756
40
0.1136327283
40
0.1622650341
40
0.2096414712
40
0.2562741753
40
0.3027114310
40
0.3495113899
40
0.3972141703
40
0.4463170181
40
0.4972560524
40
0.5503960095
40
0.6060271784
40
0.6643674550
40
0.7255674796
40
0.7897173310
40
0.8568534230
40
0.9269649545
40
1.0000000000
40
1.0000000000
40
1.0000000000
40
1.0000000000
10
4.7602478295
20
13.6289296558
30
0.0000000000
10
4.7557683466
20
13.6352647740
30
0.0000000000
10
4.7299763178
20
13.6724708150
30
0.0000000000
10
4.6874070049
20
13.7418337516
30
0.0000000000
10
4.6404813451
20
13.8396364498
30
0.0000000000
10
4.6059032877
20
13.9386517327
30
0.0000000000
10
4.5838498126
20
14.0384905419
30
0.0000000000
10
4.5744446443
20
14.1387391138
30
0.0000000000
10
4.5777453005
20
14.2389649148
30
0.0000000000
10
4.5937350299
20
14.3387305062
30
0.0000000000
10
4.6223245711
20
14.4376099853
30
0.0000000000
10
4.6633626561
20
14.5352005569
30
0.0000000000
10
4.7166491396
20
14.6311255265
30
0.0000000000
10
4.7819449195
20
14.7250306248
30
0.0000000000
10
4.8589766223
20
14.8165780182
30
0.0000000000
10
4.9474371613
20
14.9054413173
30
0.0000000000
10
5.0469845379
20
14.9913029645
30
0.0000000000
10
5.1572399267
20
15.0738534633
30
0.0000000000
10
5.2777883808
20
15.1527928817
30
0.0000000000
10
5.4081721810
20
15.2278292484
30
0.0000000000
10
5.4995077603
20
15.2741443883
30
0.0000000000
10
5.5466375859
20
15.2966395232
30
0.0000000000
11
4.7602478295
21
13.6289296558
31
0.0000000000
11
4.7469883755
21
13.6480603881
31
0.0000000000
11
4.6883525455
21
13.7440641887
31
0.0000000000
11
4.6418367396
21
13.8415265079
31
0.0000000000
11
4.6076181464
21
13.9400772209
31
0.0000000000
11
4.5858273215
21
14.0393419421
31
0.0000000000
11
4.5765476192
21
14.1389435562
31
0.0000000000
11
4.5798148792
21
14.2385036654
31
0.0000000000
11
4.5956172750
21
14.3376439073
31
0.0000000000
11
4.6238953221
21
14.4359874698
31
0.0000000000
11
4.6645421127
21
14.5331605751
31
0.0000000000
11
4.7174036803
21
14.6287938056
31
0.0000000000
11
4.7822795492
21
14.7225235250
31
0.0000000000
11
4.8589235433
21
14.8139933583
31
0.0000000000
11
4.9470446859
21
14.9028554895
31
0.0000000000
11
5.0463082112
21
14.9887719234
31
0.0000000000
11
5.1563369636
21
15.0714159162
31
0.0000000000
11
5.2767128359
21
15.1504731957
31
0.0000000000
11
5.4069781390
21
15.2256430245
31
0.0000000000
11
5.5466375859
21
15.2966395232
31
0.0000000000
0
SPLINE
5
34D
100
AcDbEntity
8
0
100
AcDbSpline
62
7
6
CONTINUOUS
70
0
71
3
72
10
73
6
74
4
42
0.0000001000
43
0.0000001000
44
0.0000000001
12
0.0480137065
22
-0.0241288565
32
0.0000000000
13
0.0480239769
23
-0.0241084088
33
0.0000000000
40
0.0000000000
40
0.0000000000
40
0.0000000000
40
0.0000000000
40
0.3356593340
40
0.6689922796
40
1.0000000000
40
1.0000000000
40
1.0000000000
40
1.0000000000
10
10.3182788600
20
13.8530041852
30
0.0000000000
10
10.3236509429
20
13.8503044932
30
0.0000000000
10
10.3343582496
20
13.8449245639
30
0.0000000000
10
10.3503645112
20
13.8368849809
30
0.0000000000
10
10.3609988843
20
13.8315454773
30
0.0000000000
10
10.3662976533
20
13.8288854541
30
0.0000000000
11
10.3182788600
21
13.8530041852
31
0.0000000000
11
10.3343956748
21
13.8449062356
31
0.0000000000
11
10.3504019214
21
13.8368666693
31
0.0000000000
11
10.3662976533
21
13.8288854541
31
0.0000000000
0
SPLINE
5
34E
100
AcDbEntity
8
0
100
AcDbSpline
62
7
6
CONTINUOUS
70
0
71
3
72
41
73
37
74
35
42
0.0000001000
43
0.0000001000
44
0.0000000001
12
4.5613693448
22
2.2481832864
32
0.0000000000
13
1.7961856444
23
-4.7604419659
33
0.0000000000
40
0.0000000000
40
0.0000000000
40
0.0000000000
40
0.0000000000
40
0.0279385258
40
0.0568964807
40
0.0868121656
40
0.1176243451
40
0.1492481657
40
0.1816120308
40
0.2146126200
40
0.2481720901
40
0.2821727975
40
0.3165339459
40
0.3511274752
40
0.3858723845
40
0.4206340491
40
0.4553336694
40
0.4898339590
40
0.5240605477
40
0.5578775117
40
0.5912171214
40
0.6239490283
40
0.6560145206
40
0.6872933275
40
0.7177385375
40
0.7472449221
40
0.7757808944
40
0.8032619892
40
0.8296766875
40
0.8549682135
40
0.8791516957
40
0.9022067165
40
0.9241840024
40
0.9451100431
40
0.9650820021
40
0.9841838571
40
1.0000000000
40
1.0000000000
40
1.0000000000
40
1.0000000000
10
6.6233337176
20
14.2067227545
30
0.0000000000
10
6.6658130293
20
14.2276597300
30
0.0000000000
10
6.7534448422
20
14.2680502123
30
0.0000000000
10
6.8899024532
20
14.3232615980
30
0.0000000000
10
7.0332619009
20
14.3740029010
30
0.0000000000
10
7.1829231456
20
14.4200613724
30
0.0000000000
10
7.3382903920
20
14.4612540422
30
0.0000000000
10
7.4987091385
20
14.4974071057
30
0.0000000000
10
7.6635460492
20
14.5283777765
30
0.0000000000
10
7.8320987623
20
14.5540337950
30
0.0000000000
10
8.0037083006
20
14.5742747491
30
0.0000000000
10
8.1776359639
20
14.5890132778
30
0.0000000000
10
8.3532080266
20
14.5981922304
30
0.0000000000
10
8.5296621545
20
14.6017716342
30
0.0000000000
10
8.7063205992
20
14.5997377570
30
0.0000000000
10
8.8824107429
20
14.5920995143
30
0.0000000000
10
9.0572613475
20
14.5788861144
30
0.0000000000
10
9.2301032215
20
14.5601558460
30
0.0000000000
10
9.4002818975
20
14.5359797808
30
0.0000000000
10
9.5670454026
20
14.5064650303
30
0.0000000000
10
9.7297659490
20
14.4717228606
30
0.0000000000
10
9.8877223773
20
14.4319075923
30
0.0000000000
10
10.0403230551
20
14.3871684020
30
0.0000000000
10
10.1868907404
20
14.3377040938
30
0.0000000000
10
10.3268788903
20
14.2836987805
30
0.0000000000
10
10.4596664508
20
14.2253918159
30
0.0000000000
10
10.5847601498
20
14.1629984295
30
0.0000000000
10
10.7016060476
20
14.0967932229
30
0.0000000000
10
10.8097710621
20
14.0270176695
30
0.0000000000
10
10.9087769784
20
13.9539748428
30
0.0000000000
10
10.9982553489
20
13.8779266102
30
0.0000000000
10
11.0778081069
20
13.7991969592
30
0.0000000000
10
11.1471312635
20
13.7180631054
30
0.0000000000
10
11.2059049849
20
13.6348654444
30
0.0000000000
10
11.2517402261
20
13.5536963028
30
0.0000000000
10
11.2754656003
20
13.4993557979
30
0.0000000000
10
11.2849351766
20
13.4742585211
30
0.0000000000
11
6.6233337176
21
14.2067227545
31
0.0000000000
11
6.7523092625
21
14.2663125908
31
0.0000000000
11
6.8887757693
21
14.3216523280
31
0.0000000000
11
7.0321545020
21
14.3725077498
31
0.0000000000
11
7.1818867018
21
14.4186802691
31
0.0000000000
11
7.3373135977
21
14.4599671424
31
0.0000000000
11
7.4978530678
21
14.4962134093
31
0.0000000000
11
7.6627755928
21
14.5272547044
31
0.0000000000
11
7.8314861717
21
14.5529787656
31
0.0000000000
11
8.0031961893
21
14.5732656479
31
0.0000000000
11
8.1773073220
21
14.5880444340
31
0.0000000000
11
8.3529855423
21
14.5972445910
31
0.0000000000
11
8.5296378350
21
14.6008348727
31
0.0000000000
11
8.7064000786
21
14.5987979435
31
0.0000000000
11
8.8826923094
21
14.5911403280
31
0.0000000000
11
9.0576368222
21
14.5779003469
31
0.0000000000
11
9.2306736321
21
14.5591202494
31
0.0000000000
11
9.4009286763
21
14.5348950655
31
0.0000000000
11
9.5678681562
21
14.5053006425
31
0.0000000000
11
9.7306390968
21
14.4704883279
31
0.0000000000
11
9.8887394884
21
14.4305654066
31
0.0000000000
11
10.0413546061
21
14.3857377129
31
0.0000000000
11
10.1880193499
21
14.3361418036
31
0.0000000000
11
10.3279736322
21
14.2820347757
31
0.0000000000
11
10.4607940260
21
14.2235802972
31
0.0000000000
11
10.5857902221
21
14.1610821991
31
0.0000000000
11
10.7025849909
21
14.0947290963
31
0.0000000000
11
10.8105712632
21
14.0248658469
31
0.0000000000
11
10.9094223928
21
13.9517038196
31
0.0000000000
11
10.9986259502
21
13.8756221757
31
0.0000000000
11
11.0779101996
21
13.7968527765
31
0.0000000000
11
11.1468663650
21
13.7158015381
31
0.0000000000
11
11.2052819394
21
13.6327184339
31
0.0000000000
11
11.2528581770
21
13.5480279770
31
0.0000000000
11
11.2849351766
21
13.4742585211
31
0.0000000000
0
SPLINE
5
34F
100
AcDbEntity
8
0
100
AcDbSpline
62
7
6
CONTINUOUS
70
0
71
3
72
10
73
6
74
4
42
0.0000001000
43
0.0000001000
44
0.0000000001
12
0.3128288885
22
-0.1337260017
32
0.0000000000
13
0.2936766765
23
-0.1717514678
33
0.0000000000
40
0.0000000000
40
0.0000000000
40
0.0000000000
40
0.0000000000
40
0.3436742093
40
0.6771155842
40
1.0000000000
40
1.0000000000
40
1.0000000000
40
1.0000000000
10
10.3662976533
20
13.8288854541
30
0.0000000000
10
10.4021347269
20
13.8135660615
30
0.0000000000
10
10.4721853531
20
13.7820561779
30
0.0000000000
10
10.5736761745
20
13.7313931037
30
0.0000000000
10
10.6388091632
20
13.6953110529
30
0.0000000000
10
10.6704170372
20
13.6768257622
30
0.0000000000
11
10.3662976533
21
13.8288854541
31
0.0000000000
11
10.4729014604
21
13.7808599917
31
0.0000000000
11
10.5743661124
21
13.7301276657
31
0.0000000000
11
10.6704170372
21
13.6768257622
31
0.0000000000
0
SPLINE
5
350
100
AcDbEntity
8
0
100
AcDbSpline
62
7
6
CONTINUOUS
70
0
71
3
72
10
73
6
74
4
42
0.0000001000
43
0.0000001000
44
0.0000000001
12
-0.0401259497
22
0.0199380878
32
0.0000000000
13
-0.0401137297
23
0.0199626619
33
0.0000000000
40
0.0000000000
40
0.0000000000
40
0.0000000000
40
0.0000000000
40
0.3304773746
40
0.6638133650
40
1.0000000000
40
1.0000000000
40
1.0000000000
40
1.0000000000
10
10.7105367944
20
13.6568752180
30
0.0000000000
10
10.7061165549
20
13.6590715803
30
0.0000000000
10
10.6972383063
20
13.6634842399
30
0.0000000000
10
10.6838650607
20
13.6701344355
30
0.0000000000
10
10.6749122705
20
13.6745887021
30
0.0000000000
10
10.6704170372
20
13.6768257622
30
0.0000000000
11
10.7105367944
21
13.6568752180
31
0.0000000000
11
10.6972767646
21
13.6634656907
31
0.0000000000
11
10.6839034062
21
13.6701159268
31
0.0000000000
11
10.6704170372
21
13.6768257622
31
0.0000000000
0
SPLINE
5
351
100
AcDbEntity
8
0
100
AcDbSpline
62
7
6
CONTINUOUS
70
0
71
3
72
9
73
5
74
3
42
0.0000001000
43
0.0000001000
44
0.0000000001
12
-0.0004065111
22
0.0259308417
32
0.0000000000
13
-0.0020642167
23
0.0258517468
33
0.0000000000
40
0.0000000000
40
0.0000000000
40
0.0000000000
40
0.0000000000
40
0.4989863682
40
1.0000000000
40
1.0000000000
40
1.0000000000
40
1.0000000000
10
5.5366758673
20
12.8854722553
30
0.0000000000
10
5.5366082528
20
12.8897853008
30
0.0000000000
10
5.5363321036
20
12.8984275268
30
0.0000000000
10
5.5357575126
20
12.9070546438
30
0.0000000000
10
5.5354127791
20
12.9113720030
30
0.0000000000
11
5.5366758673
21
12.8854722553
31
0.0000000000
11
5.5362583552
21
12.8984062448
31
0.0000000000
11
5.5354127791
21
12.9113720030
31
0.0000000000
0
SPLINE
5
352
100
AcDbEntity
8
0
100
AcDbSpline
62
7
6
CONTINUOUS
70
0
71
3
72
9
73
5
74
3
42
0.0000001000
43
0.0000001000
44
0.0000000001
12
-0.0005036446
22
-0.0035227343
32
0.0000000000
13
-0.0017167576
23
-0.0031170593
33
0.0000000000
40
0.0000000000
40
0.0000000000
40
0.0000000000
40
0.0000000000
40
0.4474175335
40
1.0000000000
40
1.0000000000
40
1.0000000000
40
1.0000000000
10
5.5366758673
20
-24.6324719470
30
0.0000000000
10
5.5366007542
20
-24.6329973247
30
0.0000000000
10
5.5362612226
20
-24.6341464663
30
0.0000000000
10
5.5357289958
20
-24.6352095518
30
0.0000000000
10
5.5354127791
20
-24.6357836959
30
0.0000000000
11
5.5366758673
21
-24.6324719470
31
0.0000000000
11
5.5362583552
21
-24.6340083900
31
0.0000000000
11
5.5354127791
21
-24.6357836959
31
0.0000000000
0
SPLINE
5
353
100
AcDbEntity
8
0
100
AcDbSpline
62
7
6
CONTINUOUS
70
0
71
3
72
12
73
8
74
6
42
0.0000001000
43
0.0000001000
44
0.0000000001
12
0.1035245975
22
-0.0518042949
32
0.0000000000
13
0.1037892104
23
0.0505590123
33
0.0000000000
40
0.0000000000
40
0.0000000000
40
0.0000000000
40
0.0000000000
40
0.0702682166
40
0.2823115323
40
0.5037058504
40
0.7425202568
40
1.0000000000
40
1.0000000000
40
1.0000000000
40
1.0000000000
10
-2.0130737632
20
-32.6775564549
30
0.0000000000
10
-2.0106489335
20
-32.6787698534
30
0.0000000000
10
-2.0006999690
20
-32.6832291628
30
0.0000000000
10
-1.9817135996
20
-32.6880452259
30
0.0000000000
10
-1.9556264869
20
-32.6882858029
30
0.0000000000
10
-1.9283957855
20
-32.6827501825
30
0.0000000000
10
-1.9105650708
20
-32.6756300223
30
0.0000000000
10
-1.9016571977
20
-32.6712907151
30
0.0000000000
11
-2.0130737632
21
-32.6775564549
31
0.0000000000
11
-2.0056533869
21
-32.6808806850
31
0.0000000000
11
-1.9819506984
21
-32.6870011105
31
0.0000000000
11
-1.9563944330
21
-32.6874199518
31
0.0000000000
11
-1.9293354909
21
-32.6821318495
31
0.0000000000
11
-1.9016571977
21
-32.6712907151
31
0.0000000000
0
SPLINE
5
354
100
AcDbEntity
8
0
100
AcDbSpline
62
7
6
CONTINUOUS
70
0
71
3
72
13
73
9
74
7
42
0.0000001000
43
0.0000001000
44
0.0000000001
12
-0.1410768327
22
0.0705989525
32
0.0000000000
13
-0.0000000000
23
0.1573187955
33
0.0000000000
40
0.0000000000
40
0.0000000000
40
0.0000000000
40
0.0000000000
40
0.1002829637
40
0.2556824971
40
0.4210753023
40
0.5986534561
40
0.7921182670
40
1.0000000000
40
1.0000000000
40
1.0000000000
40
1.0000000000
10
-3.6903168903
20
-31.8389347848
30
0.0000000000
10
-3.6950327580
20
-31.8365748274
30
0.0000000000
10
-3.7065482873
20
-31.8295366709
30
0.0000000000
10
-3.7226781005
20
-31.8141329100
30
0.0000000000
10
-3.7370215684
20
-31.7920417041
30
0.0000000000
10
-3.7474009502
20
-31.7657256614
30
0.0000000000
10
-3.7536310784
20
-31.7358900656
30
0.0000000000
10
-3.7549150674
20
-31.7148085839
30
0.0000000000
10
-3.7549150674
20
-31.7039073493
30
0.0000000000
11
-3.6903168903
21
-31.8389347848
31
0.0000000000
11
-3.7038011321
21
-31.8306977032
31
0.0000000000
11
-3.7215782222
21
-31.8139154522
31
0.0000000000
11
-3.7359185893
21
-31.7922045589
31
0.0000000000
11
-3.7463637553
21
-31.7662943311
31
0.0000000000
11
-3.7527706831
21
-31.7365406737
31
0.0000000000
11
-3.7549150674
21
-31.7039073493
31
0.0000000000
0
SPLINE
5
355
100
AcDbEntity
8
0
100
AcDbSpline
62
7
6
CONTINUOUS
70
0
71
3
72
9
73
5
74
3
42
0.0000001000
43
0.0000001000
44
0.0000000001
12
0.0223544506
22
-0.0111796084
32
0.0000000000
13
0.0243998698
23
-0.0050947154
33
0.0000000000
40
0.0000000000
40
0.0000000000
40
0.0000000000
40
0.0000000000
40
0.0711022819
40
1.0000000000
40
1.0000000000
40
1.0000000000
40
1.0000000000
10
-15.3773890363
20
15.6441760034
30
0.0000000000
10
-15.3768592188
20
15.6439110382
30
0.0000000000
10
-15.3693721089
20
15.6402547619
30
0.0000000000
10
-15.3613985100
20
15.6376007858
30
0.0000000000
10
-15.3538435155
20
15.6360232960
30
0.0000000000
11
-15.3773890363
21
15.6441760034
31
0.0000000000
11
-15.3757920582
21
15.6433961661
31
0.0000000000
11
-15.3538435155
21
15.6360232960
31
0.0000000000
0
SPLINE
5
356
100
AcDbEntity
8
0
100
AcDbSpline
62
7
6
CONTINUOUS
70
0
71
3
72
13
73
9
74
7
42
0.0000001000
43
0.0000001000
44
0.0000000001
12
-0.1411200199
22
0.0705753522
32
0.0000000000
13
0.0000000000
23
0.1573462303
33
0.0000000000
40
0.0000000000
40
0.0000000000
40
0.0000000000
40
0.0000000000
40
0.1341877812
40
0.2839661477
40
0.4437692844
40
0.6151905100
40
0.8009213695
40
1.0000000000
40
1.0000000000
40
1.0000000000
40
1.0000000000
10
-17.0546322562
20
16.4827976068
30
0.0000000000
10
-17.0609444503
20
16.4859543901
30
0.0000000000
10
-17.0735227826
20
16.4941709959
30
0.0000000000
10
-17.0897092482
20
16.5111825249
30
0.0000000000
10
-17.1028467690
20
16.5329208478
30
0.0000000000
10
-17.1123488062
20
16.5584593220
30
0.0000000000
10
-17.1180533242
20
16.5871752566
30
0.0000000000
10
-17.1192332318
20
16.6073883824
30
0.0000000000
10
-17.1192332318
20
16.6178298065
30
0.0000000000
11
-17.0546322562
21
16.4827976068
31
0.0000000000
11
-17.0723363124
21
16.4943158735
31
0.0000000000
11
-17.0886796657
21
16.5112953078
31
0.0000000000
11
-17.1018407988
21
16.5327202112
31
0.0000000000
11
-17.1114172785
21
16.5579354033
31
0.0000000000
11
-17.1172719406
21
16.5865669954
31
0.0000000000
11
-17.1192332318
21
16.6178298065
31
0.0000000000
0
SPLINE
5
357
100
AcDbEntity
8
0
100
AcDbSpline
62
7
6
CONTINUOUS
70
0
71
3
72
9
73
5
74
3
42
0.0000001000
43
0.0000001000
44
0.0000000001
12
0.0223544506
22
-0.0111796084
32
0.0000000000
13
0.0243998698
23
-0.0050947154
33
0.0000000000
40
0.0000000000
40
0.0000000000
40
0.0000000000
40
0.0000000000
40
0.0711022819
40
1.0000000000
40
1.0000000000
40
1.0000000000
40
1.0000000000
10
-2.0130708719
20
8.9620169212
30
0.0000000000
10
-2.0125410544
20
8.9617519559
30
0.0000000000
10
-2.0050539445
20
8.9580956797
30
0.0000000000
10
-1.9970803456
20
8.9554417036
30
0.0000000000
10
-1.9895253511
20
8.9538642137
30
0.0000000000
11
-2.0130708719
21
8.9620169212
31
0.0000000000
11
-2.0114738937
21
8.9612370839
31
0.0000000000
11
-1.9895253511
21
8.9538642137
31
0.0000000000
0
SPLINE
5
358
100
AcDbEntity
8
0
100
AcDbSpline
62
7
6
CONTINUOUS
70
0
71
3
72
13
73
9
74
7
42
0.0000001000
43
0.0000001000
44
0.0000000001
12
-0.1411200199
22
0.0705753522
32
0.0000000000
13
0.0000000000
23
0.1573462303
33
0.0000000000
40
0.0000000000
40
0.0000000000
40
0.0000000000
40
0.0000000000
40
0.1341877812
40
0.2839661477
40
0.4437692844
40
0.6151905100
40
0.8009213695
40
1.0000000000
40
1.0000000000
40
1.0000000000
40
1.0000000000
10
-3.6903140918
20
9.8006385246
30
0.0000000000
10
-3.6966262859
20
9.8037953079
30
0.0000000000
10
-3.7092046182
20
9.8120119136
30
0.0000000000
10
-3.7253910838
20
9.8290234426
30
0.0000000000
10
-3.7385286046
20
9.8507617656
30
0.0000000000
10
-3.7480306417
20
9.8763002398
30
0.0000000000
10
-3.7537351598
20
9.9050161744
30
0.0000000000
10
-3.7549150674
20
9.9252293002
30
0.0000000000
10
-3.7549150674
20
9.9356707243
30
0.0000000000
11
-3.6903140918
21
9.8006385246
31
0.0000000000
11
-3.7080181480
21
9.8121567913
31
0.0000000000
11
-3.7243615012
21
9.8291362255
31
0.0000000000
11
-3.7375226344
21
9.8505611290
31
0.0000000000
11
-3.7470991141
21
9.8757763211
31
0.0000000000
11
-3.7529537762
21
9.9044079132
31
0.0000000000
11
-3.7549150674
21
9.9356707243
31
0.0000000000
0
SPLINE
5
359
100
AcDbEntity
8
0
100
AcDbSpline
62
7
6
CONTINUOUS
70
0
71
3
72
13
73
9
74
7
42
0.0000001000
43
0.0000001000
44
0.0000000001
12
-0.1411184857
22
0.0705745873
32
0.0000000000
13
-0.0000000000
23
0.1573445288
33
0.0000000000
40
0.0000000000
40
0.0000000000
40
0.0000000000
40
0.0000000000
40
0.1341870270
40
0.2839657539
40
0.4437691199
40
0.6151904691
40
0.8009213618
40
1.0000000000
40
1.0000000000
40
1.0000000000
40
1.0000000000
10
-0.2357754309
20
-30.7084679922
30
0.0000000000
10
-0.2420875209
20
-30.7053112608
30
0.0000000000
10
-0.2546657127
20
-30.6970947819
30
0.0000000000
10
-0.2708520715
20
-30.6800835165
30
0.0000000000
10
-0.2839895853
20
-30.6583454689
30
0.0000000000
10
-0.2934916875
20
-30.6328073090
30
0.0000000000
10
-0.2991962880
20
-30.6040917122
30
0.0000000000
10
-0.3003764069
20
-30.5838788103
30
0.0000000000
10
-0.3003764069
20
-30.5734374988
30
0.0000000000
11
-0.2357754309
21
-30.7084679922
31
0.0000000000
11
-0.2534792179
21
-30.6969499470
31
0.0000000000
11
-0.2698225066
21
-30.6799707256
31
0.0000000000
11
-0.2829836303
21
-30.6585460931
31
0.0000000000
11
-0.2925601620
21
-30.6333312120
31
0.0000000000
11
-0.2984149387
21
-30.6046999606
31
0.0000000000
11
-0.3003764069
21
-30.5734374988
31
0.0000000000
0
SPLINE
5
35A
100
AcDbEntity
8
0
100
AcDbSpline
62
7
6
CONTINUOUS
70
0
71
3
72
9
73
5
74
3
42
0.0000001000
43
0.0000001000
44
0.0000000001
12
0.0032858702
22
0.0020479729
32
0.0000000000
13
0.0001131308
23
0.0034647824
33
0.0000000000
40
0.0000000000
40
0.0000000000
40
0.0000000000
40
0.0000000000
40
0.7170165808
40
1.0000000000
40
1.0000000000
40
1.0000000000
40
1.0000000000
10
5.5348719040
20
12.3002823756
30
0.0000000000
10
5.5356572451
20
12.3007718524
30
0.0000000000
10
5.5365817832
20
12.3016795866
30
0.0000000000
10
5.5367818357
20
12.3027959710
30
0.0000000000
10
5.5367925071
20
12.3031227963
30
0.0000000000
11
5.5348719040
21
12.3002823756
31
0.0000000000
11
5.5366105961
21
12.3021808431
31
0.0000000000
11
5.5367925071
21
12.3031227963
31
0.0000000000
0
SPLINE
5
35B
100
AcDbEntity
8
0
100
AcDbSpline
62
7
6
CONTINUOUS
70
0
71
3
72
12
73
8
74
6
42
0.0000001000
43
0.0000001000
44
0.0000000001
12
0.0000024720
22
0.1446720053
32
0.0000000000
13
-0.1289551214
23
0.0644775607
33
0.0000000000
40
0.0000000000
40
0.0000000000
40
0.0000000000
40
0.0000000000
40
0.1637122150
40
0.3390315196
40
0.5344106615
40
0.7543496530
40
1.0000000000
40
1.0000000000
40
1.0000000000
40
1.0000000000
10
-4.7733471799
20
17.7291140976
30
0.0000000000
10
-4.7733470450
20
17.7370089558
30
0.0000000000
10
-4.7760437134
20
17.7533575068
30
0.0000000000
10
-4.7876611992
20
17.7766185222
30
0.0000000000
10
-4.8062399186
20
17.7983672529
30
0.0000000000
10
-4.8311918346
20
17.8182599833
30
0.0000000000
10
-4.8506558554
20
17.8294577538
30
0.0000000000
10
-4.8612151455
20
17.8347373989
30
0.0000000000
11
-4.7733471799
21
17.7291140976
31
0.0000000000
11
-4.7770411325
21
17.7524266523
31
0.0000000000
11
-4.7880307747
21
17.7751895180
31
0.0000000000
11
-4.8060459853
21
17.7968446813
31
0.0000000000
11
-4.8306424750
21
17.8168580490
31
0.0000000000
11
-4.8612151455
21
17.8347373989
31
0.0000000000
0
SPLINE
5
35C
100
AcDbEntity
8
0
100
AcDbSpline
62
7
6
CONTINUOUS
70
0
71
3
72
13
73
9
74
7
42
0.0000001000
43
0.0000001000
44
0.0000000001
12
0.0000258596
22
0.1446711661
32
0.0000000000
13
-0.1289558739
23
0.0644779370
33
0.0000000000
40
0.0000000000
40
0.0000000000
40
0.0000000000
40
0.0000000000
40
0.0029880403
40
0.1661938042
40
0.3410778189
40
0.5359454890
40
0.7552121694
40
1.0000000000
40
1.0000000000
40
1.0000000000
40
1.0000000000
10
0.7811162821
20
14.9518840104
30
0.0000000000
10
0.7811163079
20
14.9520281048
30
0.0000000000
10
0.7810936871
20
14.9600425572
30
0.0000000000
10
0.7782939873
20
14.9764723285
30
0.0000000000
10
0.7666303608
20
14.9996266242
30
0.0000000000
10
0.7480630998
20
15.0212788289
30
0.0000000000
10
0.7231722810
20
15.0410877288
30
0.0000000000
10
0.7037706448
20
15.0522445037
30
0.0000000000
10
0.6932483686
20
15.0575056418
30
0.0000000000
11
0.7811162821
21
14.9518840104
31
0.0000000000
11
0.7811150608
21
14.9523162897
31
0.0000000000
11
0.7773123684
21
14.9755375120
31
0.0000000000
11
0.7662705082
21
14.9982054695
31
0.0000000000
11
0.7482588857
21
15.0197678333
31
0.0000000000
11
0.7237184149
21
15.0396967362
31
0.0000000000
11
0.6932483686
21
15.0575056418
31
0.0000000000
0
SPLINE
5
35D
100
AcDbEntity
8
0
100
AcDbSpline
62
7
6
CONTINUOUS
70
0
71
3
72
12
73
8
74
6
42
0.0000001000
43
0.0000001000
44
0.0000000001
12
0.1442257105
22
-0.0721128553
32
0.0000000000
13
0.1452198943
23
0.0711107357
33
0.0000000000
40
0.0000000000
40
0.0000000000
40
0.0000000000
40
0.0000000000
40
0.2589093298
40
0.4980032510
40
0.7205148469
40
0.9322066891
40
1.0000000000
40
1.0000000000
40
1.0000000000
40
1.0000000000
10
-1.9620773427
20
-30.9906250296
30
0.0000000000
10
-1.9496302153
20
-30.9968485933
30
0.0000000000
10
-1.9247446888
20
-31.0070873888
30
0.0000000000
10
-1.8866434433
20
-31.0152409868
30
0.0000000000
10
-1.8501427256
20
-31.0152449953
30
0.0000000000
10
-1.8236622197
20
-31.0087349755
30
0.0000000000
10
-1.8098596225
20
-31.0026724252
30
0.0000000000
10
-1.8065779767
20
-31.0010654811
30
0.0000000000
11
-1.9620773427
21
-30.9906250296
31
0.0000000000
11
-1.9233628020
21
-31.0062505811
31
0.0000000000
11
-1.8856016902
21
-31.0140279421
31
0.0000000000
11
-1.8497228219
21
-31.0137656353
31
0.0000000000
11
-1.8166110037
21
-31.0054700966
31
0.0000000000
11
-1.8065779767
21
-31.0010654811
31
0.0000000000
0
SPLINE
5
35E
100
AcDbEntity
8
0
100
AcDbSpline
62
7
6
CONTINUOUS
70
0
71
3
72
12
73
8
74
6
42
0.0000001000
43
0.0000001000
44
0.0000000001
12
-0.1280997254
22
-0.0657175839
32
0.0000000000
13
-0.0000198404
23
-0.1444569908
33
0.0000000000
40
0.0000000000
40
0.0000000000
40
0.0000000000
40
0.0000000000
40
0.2451070430
40
0.4650070858
40
0.6609705450
40
0.8375383260
40
1.0000000000
40
1.0000000000
40
1.0000000000
40
1.0000000000
10
-11.4356554790
20
15.0056658839
30
0.0000000000
10
-11.4461215273
20
15.0002966030
30
0.0000000000
10
-11.4654100128
20
14.9889124676
30
0.0000000000
10
-11.4900772947
20
14.9687350775
30
0.0000000000
10
-11.5083923712
20
14.9467022417
30
0.0000000000
10
-11.5197066458
20
14.9233066821
30
0.0000000000
10
-11.5222917966
20
14.9069799268
30
0.0000000000
10
-11.5222928710
20
14.8991570186
30
0.0000000000
11
-11.4356554790
21
15.0056658839
31
0.0000000000
11
-11.4659181149
21
14.9875143284
31
0.0000000000
11
-11.4902258754
21
14.9672295309
31
0.0000000000
11
-11.5079852141
21
14.9453067361
31
0.0000000000
11
-11.5187614036
21
14.9222827434
31
0.0000000000
11
-11.5222928710
21
14.8991570186
31
0.0000000000
0
SPLINE
5
35F
100
AcDbEntity
8
0
100
AcDbSpline
62
7
6
CONTINUOUS
70
0
71
3
72
17
73
13
74
11
42
0.0000001000
43
0.0000001000
44
0.0000000001
12
-0.3892831373
22
0.1946415686
32
0.0000000000
13
-0.3912763246
23
-0.1906030928
33
0.0000000000
40
0.0000000000
40
0.0000000000
40
0.0000000000
40
0.0000000000
40
0.0891031991
40
0.1852014033
40
0.2868711654
40
0.3924014128
40
0.4999155417
40
0.6074372688
40
0.7129896138
40
0.8146951064
40
0.9108405521
40
1.0000000000
40
1.0000000000
40
1.0000000000
40
1.0000000000
10
-5.0416671227
20
17.9249633874
30
0.0000000000
10
-5.0532292470
20
17.9307444496
30
0.0000000000
10
-5.0780462921
20
17.9412214788
30
0.0000000000
10
-5.1179119226
20
17.9533755346
30
0.0000000000
10
-5.1610473058
20
17.9623453024
30
0.0000000000
10
-5.2064137468
20
17.9679109630
30
0.0000000000
10
-5.2529231245
20
17.9699381171
30
0.0000000000
10
-5.2994536672
20
17.9683767648
30
0.0000000000
10
-5.3448830841
20
17.9632656015
30
0.0000000000
10
-5.3881215782
20
17.9547280864
30
0.0000000000
10
-5.4281278224
20
17.9429736015
30
0.0000000000
10
-5.4530648139
20
17.9327460678
30
0.0000000000
10
-5.4646934743
20
17.9270813790
30
0.0000000000
11
-5.0416671227
21
17.9249633874
31
0.0000000000
11
-5.0773218767
21
17.9402168820
31
0.0000000000
11
-5.1172896072
21
17.9525420798
31
0.0000000000
11
-5.1605945589
21
17.9616380030
31
0.0000000000
11
-5.2061765849
21
17.9672819886
31
0.0000000000
11
-5.2529250334
21
17.9693363368
31
0.0000000000
11
-5.2996950255
21
17.9677504251
31
0.0000000000
11
-5.3453409830
21
17.9625633444
31
0.0000000000
11
-5.3887507211
21
17.9539016008
31
0.0000000000
11
-5.4288613124
21
17.9419772224
31
0.0000000000
11
-5.4646934743
21
17.9270813790
31
0.0000000000
0
SPLINE
5
360
100
AcDbEntity
8
0
100
AcDbSpline
62
7
6
CONTINUOUS
70
0
71
3
72
17
73
13
74
11
42
0.0000001000
43
0.0000001000
44
0.0000000001
12
-0.3905141315
22
0.1952570657
32
0.0000000000
13
-0.3916239349
23
-0.1930215070
33
0.0000000000
40
0.0000000000
40
0.0000000000
40
0.0000000000
40
0.0000000000
40
0.0891659336
40
0.1853519118
40
0.2871213145
40
0.3927472656
40
0.5003366228
40
0.6078965497
40
0.7134351177
40
0.8150632032
40
0.9110602977
40
1.0000000000
40
1.0000000000
40
1.0000000000
40
1.0000000000
10
0.5127963915
20
15.1477316303
30
0.0000000000
10
0.5011895391
20
15.1535350565
30
0.0000000000
10
0.4762707912
20
15.1640478904
30
0.0000000000
10
0.4362370753
20
15.1762286692
30
0.0000000000
10
0.3929172454
20
15.1851999153
30
0.0000000000
10
0.3473620841
20
15.1907401257
30
0.0000000000
10
0.3006722827
20
15.1927145227
30
0.0000000000
10
0.2539822421
20
15.1910740270
30
0.0000000000
10
0.2084263392
20
15.1858595804
30
0.0000000000
10
0.1651052481
20
15.1771980387
30
0.0000000000
10
0.1250697381
20
15.1653033483
30
0.0000000000
10
0.1001426282
20
15.1549655720
30
0.0000000000
10
0.0885323228
20
15.1492431469
30
0.0000000000
11
0.5127963915
21
15.1477316303
31
0.0000000000
11
0.4770004743
21
15.1630365744
31
0.0000000000
11
0.4368630038
21
15.1753901867
31
0.0000000000
11
0.3933711471
21
15.1844885572
31
0.0000000000
11
0.3475975677
21
15.1901073022
31
0.0000000000
11
0.3006658250
21
15.1921083209
31
0.0000000000
11
0.2537338675
21
15.1904419224
31
0.0000000000
11
0.2079598197
21
15.1851494815
31
0.0000000000
11
0.1644672255
21
15.1763610286
31
0.0000000000
11
0.1243289848
21
15.1642932982
31
0.0000000000
11
0.0885323228
21
15.1492431469
31
0.0000000000
0
SPLINE
5
361
100
AcDbEntity
8
0
100
AcDbSpline
62
7
6
CONTINUOUS
70
0
71
3
72
13
73
9
74
7
42
0.0000001000
43
0.0000001000
44
0.0000000001
12
-0.4312367598
22
0.4734665699
32
0.0000000000
13
-0.5730157043
23
0.2864360409
33
0.0000000000
40
0.0000000000
40
0.0000000000
40
0.0000000000
40
0.0000000000
40
0.2263325555
40
0.4392651718
40
0.6372076945
40
0.8197560175
40
0.9872792954
40
1.0000000000
40
1.0000000000
40
1.0000000000
40
1.0000000000
10
5.5354127791
20
12.9113720030
30
0.0000000000
10
5.5028784731
20
12.9470923026
30
0.0000000000
10
5.4375245937
20
13.0144509052
30
0.0000000000
10
5.3363337110
20
13.1055090984
30
0.0000000000
10
5.2364030203
20
13.1835418028
30
0.0000000000
10
5.1390923375
20
13.2486728438
30
0.0000000000
10
5.0715369318
20
13.2867083477
30
0.0000000000
10
5.0371662241
20
13.3040308831
30
0.0000000000
10
5.0347365029
20
13.3052454392
30
0.0000000000
11
5.5354127791
21
12.9113720030
31
0.0000000000
11
5.4343620144
21
13.0152879823
31
0.0000000000
11
5.3328946016
21
13.1063925435
31
0.0000000000
11
5.2328661177
21
13.1842637836
31
0.0000000000
11
5.1356018966
21
13.2491250936
31
0.0000000000
11
5.0420136217
21
13.3015779681
31
0.0000000000
11
5.0347365029
21
13.3052454392
31
0.0000000000
0
SPLINE
5
362
100
AcDbEntity
8
0
100
AcDbSpline
62
7
6
CONTINUOUS
70
0
71
3
72
13
73
9
74
7
42
0.0000001000
43
0.0000001000
44
0.0000000001
12
0.4109068760
22
0.2010615886
32
0.0000000000
13
0.4098481622
23
-0.2048837263
33
0.0000000000
40
0.0000000000
40
0.0000000000
40
0.0000000000
40
0.0000000000
40
0.2005143800
40
0.3892497752
40
0.5669911938
40
0.7362259433
40
0.8992258387
40
1.0000000000
40
1.0000000000
40
1.0000000000
40
1.0000000000
10
1.3674951213
20
14.8929951177
30
0.0000000000
10
1.3949593672
20
14.9064336977
30
0.0000000000
10
1.4498491346
20
14.9294950680
30
0.0000000000
10
1.5335814406
20
14.9521378173
30
0.0000000000
10
1.6150985548
20
14.9613869191
30
0.0000000000
10
1.6931498626
20
14.9569677016
30
0.0000000000
10
1.7576408188
20
14.9410217607
30
0.0000000000
10
1.7947829385
20
14.9252160309
30
0.0000000000
10
1.8085503068
20
14.9183337024
30
0.0000000000
11
1.3674951213
21
14.8929951177
31
0.0000000000
11
1.4521984773
21
14.9281982930
31
0.0000000000
11
1.5356412143
21
14.9503733828
31
0.0000000000
11
1.6164733696
21
14.9591728173
31
0.0000000000
11
1.6937496122
21
14.9544860994
31
0.0000000000
11
1.7660899739
21
14.9364039123
31
0.0000000000
11
1.8085503068
21
14.9183337024
31
0.0000000000
0
SPLINE
5
363
100
AcDbEntity
8
0
100
AcDbSpline
62
7
6
CONTINUOUS
70
0
71
3
72
15
73
11
74
9
42
0.0000001000
43
0.0000001000
44
0.0000000001
12
0.0000000000
22
0.6311300022
32
0.0000000000
13
-0.5654420458
23
0.2826653478
33
0.0000000000
40
0.0000000000
40
0.0000000000
40
0.0000000000
40
0.0000000000
40
0.1606293349
40
0.3126800366
40
0.4557227302
40
0.5905083928
40
0.7175351878
40
0.8389320932
40
0.9563750069
40
1.0000000000
40
1.0000000000
40
1.0000000000
40
1.0000000000
10
-2.1742093770
20
16.4987911275
30
0.0000000000
10
-2.1742093770
20
16.5325837916
30
0.0000000000
10
-2.1773444576
20
16.5984251354
30
0.0000000000
10
-2.1922756828
20
16.6933341840
30
0.0000000000
10
-2.2171507123
20
16.7805460294
30
0.0000000000
10
-2.2516679670
20
16.8587437673
30
0.0000000000
10
-2.2954694999
20
16.9268584199
30
0.0000000000
10
-2.3479668801
20
16.9837291662
30
0.0000000000
10
-2.3960663771
20
17.0192562658
30
0.0000000000
10
-2.4258679119
20
17.0355436213
30
0.0000000000
10
-2.4340903803
20
17.0396540459
30
0.0000000000
11
-2.1742093770
21
16.4987911275
31
0.0000000000
11
-2.1793067160
21
16.6000408904
31
0.0000000000
11
-2.1945374120
21
16.6947882865
31
0.0000000000
11
-2.2196459254
21
16.7815049317
31
0.0000000000
11
-2.2543448077
21
16.8591736443
31
0.0000000000
11
-2.2980087131
21
16.9264102403
31
0.0000000000
11
-2.3501877030
21
16.9825132956
31
0.0000000000
11
-2.4098986741
21
17.0264295024
31
0.0000000000
11
-2.4340903803
21
17.0396540459
31
0.0000000000
0
SPLINE
5
364
100
AcDbEntity
8
0
100
AcDbSpline
62
7
6
CONTINUOUS
70
0
71
3
72
10
73
6
74
4
42
0.0000001000
43
0.0000001000
44
0.0000000001
12
0.0556154923
22
0.0171628862
32
0.0000000000
13
0.0478528501
23
-0.0308246041
33
0.0000000000
40
0.0000000000
40
0.0000000000
40
0.0000000000
40
0.0000000000
40
0.4565615055
40
0.7960097470
40
1.0000000000
40
1.0000000000
40
1.0000000000
40
1.0000000000
10
-5.7174762750
20
18.6455829696
30
0.0000000000
10
-5.7090123107
20
18.6481949406
30
0.0000000000
10
-5.6939064606
20
18.6524728691
30
0.0000000000
10
-5.6753220884
20
18.6550894373
30
0.0000000000
10
-5.6636357705
20
18.6550060732
30
0.0000000000
10
-5.6603819321
20
18.6529101003
30
0.0000000000
11
-5.7174762750
21
18.6455829696
31
0.0000000000
11
-5.6917868134
21
18.6523801251
31
0.0000000000
11
-5.6721855544
21
18.6548565565
31
0.0000000000
11
-5.6603819321
21
18.6529101003
31
0.0000000000
0
SPLINE
5
365
100
AcDbEntity
8
0
100
AcDbSpline
62
7
6
CONTINUOUS
70
0
71
3
72
8
73
4
74
2
42
0.0000001000
43
0.0000001000
44
0.0000000001
12
-0.0189936958
22
-0.0058614358
32
0.0000000000
13
-0.0178492873
23
-0.0089568130
33
0.0000000000
40
0.0000000000
40
0.0000000000
40
0.0000000000
40
0.0000000000
40
1.0000000000
40
1.0000000000
40
1.0000000000
40
1.0000000000
10
-5.7174762750
20
18.6455829696
30
0.0000000000
10
-5.7238075069
20
18.6436291576
30
0.0000000000
10
-5.7299659898
20
18.6410947682
30
0.0000000000
10
-5.7359157523
20
18.6381091639
30
0.0000000000
11
-5.7174762750
21
18.6455829696
31
0.0000000000
11
-5.7359157523
21
18.6381091639
31
0.0000000000
0
SPLINE
5
366
100
AcDbEntity
8
0
100
AcDbSpline
62
7
6
CONTINUOUS
70
0
71
3
72
15
73
11
74
9
42
0.0000001000
43
0.0000001000
44
0.0000000001
12
0.7619365976
22
0.4349160100
32
0.0000000000
13
0.7317445571
23
0.4839929935
33
0.0000000000
40
0.0000000000
40
0.0000000000
40
0.0000000000
40
0.0000000000
40
0.1045853351
40
0.2166076899
40
0.3351402480
40
0.4599360516
40
0.5902559263
40
0.7249598041
40
0.8623492495
40
1.0000000000
40
1.0000000000
40
1.0000000000
40
1.0000000000
10
4.7884258902
20
-25.0956247613
30
0.0000000000
10
4.8149883550
20
-25.0804628157
30
0.0000000000
10
4.8698741750
20
-25.0488361345
30
0.0000000000
10
4.9544156312
20
-24.9992510557
30
0.0000000000
10
5.0436528936
20
-24.9459954782
30
0.0000000000
10
5.1370553139
20
-24.8892836966
30
0.0000000000
10
5.2340369238
20
-24.8293610615
30
0.0000000000
10
5.3336484785
20
-24.7666952250
30
0.0000000000
10
5.4345272092
20
-24.7020255609
30
0.0000000000
10
5.5018377166
20
-24.6579910288
30
0.0000000000
10
5.5354127791
20
-24.6357836959
30
0.0000000000
11
4.7884258902
21
-25.0956247613
31
0.0000000000
11
4.8679326002
21
-25.0498238310
31
0.0000000000
11
4.9527117472
21
-25.0001100595
31
0.0000000000
11
5.0420136217
21
-24.9468238003
31
0.0000000000
11
5.1356018966
21
-24.8900036786
31
0.0000000000
11
5.2328661177
21
-24.8299064043
31
0.0000000000
11
5.3328946016
21
-24.7669731052
31
0.0000000000
11
5.4343620144
21
-24.7019108240
31
0.0000000000
11
5.5354127791
21
-24.6357836959
31
0.0000000000
0
SPLINE
5
367
100
AcDbEntity
8
0
100
AcDbSpline
62
7
6
CONTINUOUS
70
0
71
3
72
8
73
4
74
2
42
0.0000001000
43
0.0000001000
44
0.0000000001
12
-0.0496543828
22
-0.0283428911
32
0.0000000000
13
-0.0511446455
23
-0.0256282980
33
0.0000000000
40
0.0000000000
40
0.0000000000
40
0.0000000000
40
0.0000000000
40
1.0000000000
40
1.0000000000
40
1.0000000000
40
1.0000000000
10
4.7884258902
20
-25.0956247613
30
0.0000000000
10
4.7718744293
20
-25.1050723917
30
0.0000000000
10
4.7550531508
20
-25.1140594657
30
0.0000000000
10
4.7380049356
20
-25.1226022317
30
0.0000000000
11
4.7884258902
21
-25.0956247613
31
0.0000000000
11
4.7380049356
21
-25.1226022317
31
0.0000000000
0
SPLINE
5
368
100
AcDbEntity
8
0
100
AcDbSpline
62
7
6
CONTINUOUS
70
0
71
3
72
14
73
10
74
8
42
0.0000001000
43
0.0000001000
44
0.0000000001
12
-0.0000000000
22
0.2525400005
32
0.0000000000
13
0.1603202703
23
0.1951252490
33
0.0000000000
40
0.0000000000
40
0.0000000000
40
0.0000000000
40
0.0000000000
40
0.1318788968
40
0.2706570924
40
0.4139746772
40
0.5610771939
40
0.7087227910
40
0.8559736017
40
1.0000000000
40
1.0000000000
40
1.0000000000
40
1.0000000000
10
-0.3003764069
20
9.2261700533
30
0.0000000000
10
-0.3003764069
20
9.2372716189
30
0.0000000000
10
-0.2989594005
20
9.2600710215
30
0.0000000000
10
-0.2930517635
20
9.2944734292
30
0.0000000000
10
-0.2834291622
20
9.3293570095
30
0.0000000000
10
-0.2703225512
20
9.3638810757
30
0.0000000000
10
-0.2539899215
20
9.3973695420
30
0.0000000000
10
-0.2348251856
20
9.4290164861
30
0.0000000000
10
-0.2201990713
20
9.4487519060
30
0.0000000000
10
-0.2125022876
20
9.4581196350
30
0.0000000000
11
-0.3003764069
21
9.2261700533
31
0.0000000000
11
-0.2984149387
21
9.2594169398
31
0.0000000000
11
-0.2925601620
21
9.2939714908
31
0.0000000000
11
-0.2829836303
21
9.3288749850
31
0.0000000000
11
-0.2698225066
21
9.3636147757
31
0.0000000000
11
-0.2534792179
21
9.3971285634
31
0.0000000000
11
-0.2341967671
21
9.4289254064
31
0.0000000000
11
-0.2125022876
21
9.4581196350
31
0.0000000000
0
SPLINE
5
369
100
AcDbEntity
8
0
100
AcDbSpline
62
7
6
CONTINUOUS
70
0
71
3
72
14
73
10
74
8
42
0.0000001000
43
0.0000001000
44
0.0000000001
12
0.0000000000
22
0.2525400005
32
0.0000000000
13
0.1603202703
23
0.1951252490
33
0.0000000000
40
0.0000000000
40
0.0000000000
40
0.0000000000
40
0.0000000000
40
0.1318788968
40
0.2706570924
40
0.4139746772
40
0.5610771939
40
0.7087227910
40
0.8559736017
40
1.0000000000
40
1.0000000000
40
1.0000000000
40
1.0000000000
10
-13.6646945713
20
15.9083291355
30
0.0000000000
10
-13.6646945713
20
15.9194307011
30
0.0000000000
10
-13.6632775649
20
15.9422301038
30
0.0000000000
10
-13.6573699280
20
15.9766325115
30
0.0000000000
10
-13.6477473267
20
16.0115160917
30
0.0000000000
10
-13.6346407156
20
16.0460401579
30
0.0000000000
10
-13.6183080859
20
16.0795286243
30
0.0000000000
10
-13.5991433500
20
16.1111755683
30
0.0000000000
10
-13.5845172357
20
16.1309109882
30
0.0000000000
10
-13.5768204520
20
16.1402787172
30
0.0000000000
11
-13.6646945713
21
15.9083291355
31
0.0000000000
11
-13.6627331031
21
15.9415760220
31
0.0000000000
11
-13.6568783264
21
15.9761305730
31
0.0000000000
11
-13.6473017947
21
16.0110340672
31
0.0000000000
11
-13.6341406710
21
16.0457738579
31
0.0000000000
11
-13.6177973823
21
16.0792876457
31
0.0000000000
11
-13.5985149315
21
16.1110844886
31
0.0000000000
11
-13.5768204520
21
16.1402787172
31
0.0000000000
0
SPLINE
5
36A
100
AcDbEntity
8
0
100
AcDbSpline
62
7
6
CONTINUOUS
70
0
71
3
72
14
73
10
74
8
42
0.0000001000
43
0.0000001000
44
0.0000000001
12
0.1603213519
22
0.1951265654
32
0.0000000000
13
-0.0000000000
23
0.2525417043
33
0.0000000000
40
0.0000000000
40
0.0000000000
40
0.0000000000
40
0.0000000000
40
0.1440265224
40
0.2912774710
40
0.4389231742
40
0.5860257506
40
0.7293433004
40
0.8681213611
40
1.0000000000
40
1.0000000000
40
1.0000000000
40
1.0000000000
10
0.3147424281
20
10.0998273630
30
0.0000000000
10
0.3224392704
20
10.1091951632
30
0.0000000000
10
0.3370654894
20
10.1289307401
30
0.0000000000
10
0.3562303383
20
10.1605779448
30
0.0000000000
10
0.3725630318
20
10.1940666886
30
0.0000000000
10
0.3856696558
20
10.2285910304
30
0.0000000000
10
0.3952921946
20
10.2634748691
30
0.0000000000
10
0.4011997647
20
10.2978774995
30
0.0000000000
10
0.4026165474
20
10.3206770323
30
0.0000000000
10
0.4026165474
20
10.3317786510
30
0.0000000000
11
0.3147424281
21
10.0998273630
31
0.0000000000
11
0.3364370622
21
10.1290218215
31
0.0000000000
11
0.3557196280
21
10.1608189288
31
0.0000000000
11
0.3720629812
21
10.1943329948
31
0.0000000000
11
0.3852241144
21
10.2290730661
31
0.0000000000
11
0.3948005941
21
10.2639768185
31
0.0000000000
11
0.4006552561
21
10.2985315942
31
0.0000000000
11
0.4026165474
21
10.3317786510
31
0.0000000000
0
SPLINE
5
36B
100
AcDbEntity
8
0
100
AcDbSpline
62
7
6
CONTINUOUS
70
0
71
3
72
13
73
9
74
7
42
0.0000001000
43
0.0000001000
44
0.0000000001
12
-0.0000000000
22
0.1573187955
32
0.0000000000
13
-0.1410768327
23
0.0705989525
33
0.0000000000
40
0.0000000000
40
0.0000000000
40
0.0000000000
40
0.0000000000
40
0.2078817330
40
0.4013465439
40
0.5789246977
40
0.7443175029
40
0.8997170363
40
1.0000000000
40
1.0000000000
40
1.0000000000
40
1.0000000000
10
0.4026165474
20
10.6793101677
30
0.0000000000
10
0.4026165474
20
10.6902114024
30
0.0000000000
10
0.4013325584
20
10.7112928841
30
0.0000000000
10
0.3951024302
20
10.7411284799
30
0.0000000000
10
0.3847230484
20
10.7674445226
30
0.0000000000
10
0.3703795805
20
10.7895357285
30
0.0000000000
10
0.3542497673
20
10.8049394894
30
0.0000000000
10
0.3427342379
20
10.8119776459
30
0.0000000000
10
0.3380183703
20
10.8143376033
30
0.0000000000
11
0.4026165474
21
10.6793101677
31
0.0000000000
11
0.4004721631
21
10.7119434921
31
0.0000000000
11
0.3940652352
21
10.7416971495
31
0.0000000000
11
0.3836200692
21
10.7676073773
31
0.0000000000
11
0.3692797022
21
10.7893182707
31
0.0000000000
11
0.3515026120
21
10.8061005217
31
0.0000000000
11
0.3380183703
21
10.8143376033
31
0.0000000000
0
SPLINE
5
36C
100
AcDbEntity
8
0
100
AcDbSpline
62
7
6
CONTINUOUS
70
0
71
3
72
12
73
8
74
6
42
0.0000001000
43
0.0000001000
44
0.0000000001
12
0.1037892104
22
0.0505590123
32
0.0000000000
13
0.1035245975
23
-0.0518042949
33
0.0000000000
40
0.0000000000
40
0.0000000000
40
0.0000000000
40
0.0000000000
40
0.2574797432
40
0.4962941496
40
0.7176884677
40
0.9297317834
40
1.0000000000
40
1.0000000000
40
1.0000000000
40
1.0000000000
10
-1.4629828030
20
11.6528642740
30
0.0000000000
10
-1.4540749300
20
11.6572035811
30
0.0000000000
10
-1.4362442152
20
11.6643237413
30
0.0000000000
10
-1.4090135138
20
11.6698593617
30
0.0000000000
10
-1.3829264011
20
11.6696187848
30
0.0000000000
10
-1.3639400318
20
11.6648027216
30
0.0000000000
10
-1.3539910672
20
11.6603434122
30
0.0000000000
10
-1.3515662376
20
11.6591300138
30
0.0000000000
11
-1.4629828030
21
11.6528642740
31
0.0000000000
11
-1.4353045099
21
11.6637054083
31
0.0000000000
11
-1.4082455677
21
11.6689935106
31
0.0000000000
11
-1.3826893023
21
11.6685746694
31
0.0000000000
11
-1.3589866139
21
11.6624542439
31
0.0000000000
11
-1.3515662376
21
11.6591300138
31
0.0000000000
0
SPLINE
5
36D
100
AcDbEntity
8
0
100
AcDbSpline
62
7
6
CONTINUOUS
70
0
71
3
72
17
73
13
74
11
42
0.0000001000
43
0.0000001000
44
0.0000000001
12
0.0000000000
22
0.3666502398
32
0.0000000000
13
0.3262254999
23
0.1673598566
33
0.0000000000
40
0.0000000000
40
0.0000000000
40
0.0000000000
40
0.0000000000
40
0.0951010066
40
0.1954626647
40
0.2989499556
40
0.4051948209
40
0.5116959089
40
0.6171488294
40
0.7202917296
40
0.8188238537
40
0.9126130540
40
1.0000000000
40
1.0000000000
40
1.0000000000
40
1.0000000000
10
-3.7549150674
20
10.2756446584
30
0.0000000000
10
-3.7549150674
20
10.2872675940
30
0.0000000000
10
-3.7533604095
20
10.3111737518
30
0.0000000000
10
-3.7469021510
20
10.3472014905
30
0.0000000000
10
-3.7364005499
20
10.3836824949
30
0.0000000000
10
-3.7221279202
20
10.4196632592
30
0.0000000000
10
-3.7044006088
20
10.4543423964
30
0.0000000000
10
-3.6836601500
20
10.4868613257
30
0.0000000000
10
-3.6604156609
20
10.5164164035
30
0.0000000000
10
-3.6351817571
20
10.5423505971
30
0.0000000000
10
-3.6086150786
20
10.5639896402
30
0.0000000000
10
-3.5896919016
20
10.5756576878
30
0.0000000000
10
-3.5801892849
20
10.5805327101
30
0.0000000000
11
-3.7549150674
21
10.2756446584
31
0.0000000000
11
-3.7527706831
21
10.3104474644
31
0.0000000000
11
-3.7463637553
21
10.3466830348
31
0.0000000000
11
-3.7359185893
21
10.3831606762
31
0.0000000000
11
-3.7215782222
21
10.4193797726
31
0.0000000000
11
-3.7038011321
21
10.4541471724
31
0.0000000000
11
-3.6829824090
21
10.4867280233
31
0.0000000000
11
-3.6595539217
21
10.5164140367
31
0.0000000000
11
-3.6342933003
21
10.5422413213
31
0.0000000000
11
-3.6075473857
21
10.5638556474
31
0.0000000000
11
-3.5801892849
21
10.5805327101
31
0.0000000000
0
SPLINE
5
36E
100
AcDbEntity
8
0
100
AcDbSpline
62
7
6
CONTINUOUS
70
0
71
3
72
14
73
10
74
8
42
0.0000001000
43
0.0000001000
44
0.0000000001
12
0.1603213519
22
0.1951265654
32
0.0000000000
13
0.0000000000
23
0.2525417043
33
0.0000000000
40
0.0000000000
40
0.0000000000
40
0.0000000000
40
0.0000000000
40
0.1440265224
40
0.2912774710
40
0.4389231742
40
0.5860257506
40
0.7293433004
40
0.8681213611
40
1.0000000000
40
1.0000000000
40
1.0000000000
40
1.0000000000
10
-13.0495757363
20
16.7819864452
30
0.0000000000
10
-13.0418788941
20
16.7913542454
30
0.0000000000
10
-13.0272526751
20
16.8110898223
30
0.0000000000
10
-13.0080878262
20
16.8427370270
30
0.0000000000
10
-12.9917551327
20
16.8762257708
30
0.0000000000
10
-12.9786485086
20
16.9107501126
30
0.0000000000
10
-12.9690259698
20
16.9456339513
30
0.0000000000
10
-12.9631183997
20
16.9800365817
30
0.0000000000
10
-12.9617016170
20
17.0028361145
30
0.0000000000
10
-12.9617016170
20
17.0139377332
30
0.0000000000
11
-13.0495757363
21
16.7819864452
31
0.0000000000
11
-13.0278811023
21
16.8111809037
31
0.0000000000
11
-13.0085985364
21
16.8429780111
31
0.0000000000
11
-12.9922551832
21
16.8764920770
31
0.0000000000
11
-12.9790940501
21
16.9112321483
31
0.0000000000
11
-12.9695175704
21
16.9461359008
31
0.0000000000
11
-12.9636629083
21
16.9806906764
31
0.0000000000
11
-12.9617016170
21
17.0139377332
31
0.0000000000
0
SPLINE
5
36F
100
AcDbEntity
8
0
100
AcDbSpline
62
7
6
CONTINUOUS
70
0
71
3
72
13
73
9
74
7
42
0.0000001000
43
0.0000001000
44
0.0000000001
12
0.0000000000
22
0.1573187955
32
0.0000000000
13
-0.1410768327
23
0.0705989525
33
0.0000000000
40
0.0000000000
40
0.0000000000
40
0.0000000000
40
0.0000000000
40
0.2078817330
40
0.4013465439
40
0.5789246977
40
0.7443175029
40
0.8997170363
40
1.0000000000
40
1.0000000000
40
1.0000000000
40
1.0000000000
10
-12.9617016170
20
17.3614692500
30
0.0000000000
10
-12.9617016170
20
17.3723704846
30
0.0000000000
10
-12.9629856061
20
17.3934519663
30
0.0000000000
10
-12.9692157342
20
17.4232875621
30
0.0000000000
10
-12.9795951161
20
17.4496036048
30
0.0000000000
10
-12.9939385839
20
17.4716948107
30
0.0000000000
10
-13.0100683971
20
17.4870985716
30
0.0000000000
10
-13.0215839265
20
17.4941367281
30
0.0000000000
10
-13.0262997941
20
17.4964966855
30
0.0000000000
11
-12.9617016170
21
17.3614692500
31
0.0000000000
11
-12.9638460014
21
17.3941025743
31
0.0000000000
11
-12.9702529292
21
17.4238562318
31
0.0000000000
11
-12.9806980952
21
17.4497664596
31
0.0000000000
11
-12.9950384622
21
17.4714773529
31
0.0000000000
11
-13.0128155524
21
17.4882596039
31
0.0000000000
11
-13.0262997941
21
17.4964966855
31
0.0000000000
0
SPLINE
5
370
100
AcDbEntity
8
0
100
AcDbSpline
62
7
6
CONTINUOUS
70
0
71
3
72
12
73
8
74
6
42
0.0000001000
43
0.0000001000
44
0.0000000001
12
0.1037892104
22
0.0505590123
32
0.0000000000
13
0.1035245975
23
-0.0518042949
33
0.0000000000
40
0.0000000000
40
0.0000000000
40
0.0000000000
40
0.0000000000
40
0.2574797432
40
0.4962941496
40
0.7176884677
40
0.9297317834
40
1.0000000000
40
1.0000000000
40
1.0000000000
40
1.0000000000
10
-14.8273009675
20
18.3350233562
30
0.0000000000
10
-14.8183930944
20
18.3393626633
30
0.0000000000
10
-14.8005623797
20
18.3464828235
30
0.0000000000
10
-14.7733316783
20
18.3520184439
30
0.0000000000
10
-14.7472445655
20
18.3517778670
30
0.0000000000
10
-14.7282581962
20
18.3469618039
30
0.0000000000
10
-14.7183092316
20
18.3425024944
30
0.0000000000
10
-14.7158844020
20
18.3412890960
30
0.0000000000
11
-14.8273009675
21
18.3350233562
31
0.0000000000
11
-14.7996226743
21
18.3458644905
31
0.0000000000
11
-14.7725637321
21
18.3511525929
31
0.0000000000
11
-14.7470074668
21
18.3507337516
31
0.0000000000
11
-14.7233047783
21
18.3446133261
31
0.0000000000
11
-14.7158844020
21
18.3412890960
31
0.0000000000
0
SPLINE
5
371
100
AcDbEntity
8
0
100
AcDbSpline
62
7
6
CONTINUOUS
70
0
71
3
72
17
73
13
74
11
42
0.0000001000
43
0.0000001000
44
0.0000000001
12
0.0000000000
22
0.3666502398
32
0.0000000000
13
0.3262254999
23
0.1673598566
33
0.0000000000
40
0.0000000000
40
0.0000000000
40
0.0000000000
40
0.0000000000
40
0.0951010066
40
0.1954626647
40
0.2989499556
40
0.4051948209
40
0.5116959089
40
0.6171488294
40
0.7202917296
40
0.8188238537
40
0.9126130540
40
1.0000000000
40
1.0000000000
40
1.0000000000
40
1.0000000000
10
-17.1192332318
20
16.9578037406
30
0.0000000000
10
-17.1192332318
20
16.9694266762
30
0.0000000000
10
-17.1176785739
20
16.9933328340
30
0.0000000000
10
-17.1112203154
20
17.0293605727
30
0.0000000000
10
-17.1007187144
20
17.0658415771
30
0.0000000000
10
-17.0864460847
20
17.1018223414
30
0.0000000000
10
-17.0687187732
20
17.1365014786
30
0.0000000000
10
-17.0479783145
20
17.1690204079
30
0.0000000000
10
-17.0247338253
20
17.1985754857
30
0.0000000000
10
-16.9994999215
20
17.2245096793
30
0.0000000000
10
-16.9729332431
20
17.2461487224
30
0.0000000000
10
-16.9540100660
20
17.2578167700
30
0.0000000000
10
-16.9445074493
20
17.2626917923
30
0.0000000000
11
-17.1192332318
21
16.9578037406
31
0.0000000000
11
-17.1170888475
21
16.9926065467
31
0.0000000000
11
-17.1106819197
21
17.0288421170
31
0.0000000000
11
-17.1002367537
21
17.0653197584
31
0.0000000000
11
-17.0858963867
21
17.1015388548
31
0.0000000000
11
-17.0681192965
21
17.1363062546
31
0.0000000000
11
-17.0473005734
21
17.1688871055
31
0.0000000000
11
-17.0238720861
21
17.1985731189
31
0.0000000000
11
-16.9986114648
21
17.2244004036
31
0.0000000000
11
-16.9718655501
21
17.2460147296
31
0.0000000000
11
-16.9445074493
21
17.2626917923
31
0.0000000000
0
SPLINE
5
372
100
AcDbEntity
8
0
100
AcDbSpline
62
7
6
CONTINUOUS
70
0
71
3
72
13
73
9
74
7
42
0.0000001000
43
0.0000001000
44
0.0000000001
12
0.0000000000
22
0.1573462303
32
0.0000000000
13
-0.1411200199
23
0.0705753522
33
0.0000000000
40
0.0000000000
40
0.0000000000
40
0.0000000000
40
0.0000000000
40
0.1990786305
40
0.3848094900
40
0.5562307156
40
0.7160338523
40
0.8658122188
40
1.0000000000
40
1.0000000000
40
1.0000000000
40
1.0000000000
10
0.4026165474
20
-30.9678254884
30
0.0000000000
10
0.4026165474
20
-30.9573840644
30
0.0000000000
10
0.4014366398
20
-30.9371709385
30
0.0000000000
10
0.3957321217
20
-30.9084550040
30
0.0000000000
10
0.3862300846
20
-30.8829165297
30
0.0000000000
10
0.3730925637
20
-30.8611782068
30
0.0000000000
10
0.3569060981
20
-30.8441666778
30
0.0000000000
10
0.3443277658
20
-30.8359500720
30
0.0000000000
10
0.3380155717
20
-30.8327932887
30
0.0000000000
11
0.4026165474
21
-30.9678254884
31
0.0000000000
11
0.4006552561
21
-30.9365626773
31
0.0000000000
11
0.3948005941
21
-30.9079310852
31
0.0000000000
11
0.3852241144
21
-30.8827158932
31
0.0000000000
11
0.3720629812
21
-30.8612909897
31
0.0000000000
11
0.3557196280
21
-30.8443115555
31
0.0000000000
11
0.3380155717
21
-30.8327932887
31
0.0000000000
0
SPLINE
5
373
100
AcDbEntity
8
0
100
AcDbSpline
62
7
6
CONTINUOUS
70
0
71
3
72
17
73
13
74
11
42
0.0000001000
43
0.0000001000
44
0.0000000001
12
0.3262254999
22
0.1673598566
32
0.0000000000
13
-0.0000000000
23
0.3666502398
33
0.0000000000
40
0.0000000000
40
0.0000000000
40
0.0000000000
40
0.0000000000
40
0.0873869460
40
0.1811761463
40
0.2797082704
40
0.3828511706
40
0.4883040911
40
0.5948051791
40
0.7010500444
40
0.8045373353
40
0.9048989934
40
1.0000000000
40
1.0000000000
40
1.0000000000
40
1.0000000000
10
0.2278907649
20
-31.6202450568
30
0.0000000000
10
0.2373933816
20
-31.6153700346
30
0.0000000000
10
0.2563165586
20
-31.6037019870
30
0.0000000000
10
0.2828832371
20
-31.5820629439
30
0.0000000000
10
0.3081171409
20
-31.5561287502
30
0.0000000000
10
0.3313616300
20
-31.5265736724
30
0.0000000000
10
0.3521020887
20
-31.4940547432
30
0.0000000000
10
0.3698294002
20
-31.4593756059
30
0.0000000000
10
0.3841020299
20
-31.4233948416
30
0.0000000000
10
0.3946036310
20
-31.3869138372
30
0.0000000000
10
0.4010618894
20
-31.3508860986
30
0.0000000000
10
0.4026165474
20
-31.3269799408
30
0.0000000000
10
0.4026165474
20
-31.3153570051
30
0.0000000000
11
0.2278907649
21
-31.6202450568
31
0.0000000000
11
0.2552488657
21
-31.6035679942
31
0.0000000000
11
0.2819947803
21
-31.5819536681
31
0.0000000000
11
0.3072554017
21
-31.5561263835
31
0.0000000000
11
0.3306838890
21
-31.5264403701
31
0.0000000000
11
0.3515026120
21
-31.4938595191
31
0.0000000000
11
0.3692797022
21
-31.4590921193
31
0.0000000000
11
0.3836200692
21
-31.4228730229
31
0.0000000000
11
0.3940652352
21
-31.3863953815
31
0.0000000000
11
0.4004721631
21
-31.3501598112
31
0.0000000000
11
0.4026165474
21
-31.3153570051
31
0.0000000000
0
SPLINE
5
374
100
AcDbEntity
8
0
100
AcDbSpline
62
7
6
CONTINUOUS
70
0
71
3
72
14
73
10
74
8
42
0.0000001000
43
0.0000001000
44
0.0000000001
12
0.0000000000
22
0.2525417043
32
0.0000000000
13
0.1603213519
23
0.1951265654
33
0.0000000000
40
0.0000000000
40
0.0000000000
40
0.0000000000
40
0.0000000000
40
0.1318786389
40
0.2706566996
40
0.4139742494
40
0.5610768258
40
0.7087225290
40
0.8559734776
40
1.0000000000
40
1.0000000000
40
1.0000000000
40
1.0000000000
10
-3.7549150674
20
-31.3639334151
30
0.0000000000
10
-3.7549150674
20
-31.3528317964
30
0.0000000000
10
-3.7534982847
20
-31.3300322636
30
0.0000000000
10
-3.7475907146
20
-31.2956296332
30
0.0000000000
10
-3.7379681758
20
-31.2607457945
30
0.0000000000
10
-3.7248615518
20
-31.2262214527
30
0.0000000000
10
-3.7085288583
20
-31.1927327089
30
0.0000000000
10
-3.6893640094
20
-31.1610855042
30
0.0000000000
10
-3.6747377904
20
-31.1413499273
30
0.0000000000
10
-3.6670409481
20
-31.1319821271
30
0.0000000000
11
-3.7549150674
21
-31.3639334151
31
0.0000000000
11
-3.7529537762
21
-31.3306863583
31
0.0000000000
11
-3.7470991141
21
-31.2961315827
31
0.0000000000
11
-3.7375226344
21
-31.2612278302
31
0.0000000000
11
-3.7243615012
21
-31.2264877589
31
0.0000000000
11
-3.7080181480
21
-31.1929736930
31
0.0000000000
11
-3.6887355822
21
-31.1611765856
31
0.0000000000
11
-3.6670409481
21
-31.1319821271
31
0.0000000000
0
SPLINE
5
375
100
AcDbEntity
8
0
100
AcDbSpline
62
7
6
CONTINUOUS
70
0
71
3
72
9
73
5
74
3
42
0.0000001000
43
0.0000001000
44
0.0000000001
12
-0.0220849486
22
0.0110448753
32
0.0000000000
13
-0.0241207855
23
0.0049542358
33
0.0000000000
40
0.0000000000
40
0.0000000000
40
0.0000000000
40
0.0000000000
40
0.0711334077
40
1.0000000000
40
1.0000000000
40
1.0000000000
40
1.0000000000
10
0.3380155717
20
-30.8327932887
30
0.0000000000
10
0.3374919125
20
-30.8325314022
30
0.0000000000
10
0.3300946268
20
-30.8289200158
30
0.0000000000
10
0.3222107587
20
-30.8263107178
30
0.0000000000
10
0.3147424281
20
-30.8247767764
30
0.0000000000
11
0.3380155717
21
-30.8327932887
31
0.0000000000
11
0.3364370622
21
-30.8320226923
31
0.0000000000
11
0.3147424281
21
-30.8247767764
31
0.0000000000
0
SPLINE
5
376
100
AcDbEntity
8
0
100
AcDbSpline
62
7
6
CONTINUOUS
70
0
71
3
72
12
73
8
74
6
42
0.0000001000
43
0.0000001000
44
0.0000000001
12
-0.1024460385
22
0.0512669789
32
0.0000000000
13
-0.1022335317
23
-0.0509823104
33
0.0000000000
40
0.0000000000
40
0.0000000000
40
0.0000000000
40
0.0000000000
40
0.0701707674
40
0.2818334567
40
0.5029641069
40
0.7418852029
40
1.0000000000
40
1.0000000000
40
1.0000000000
40
1.0000000000
10
-13.0262997941
20
17.4964966855
30
0.0000000000
10
-13.0286960332
20
17.4976958332
30
0.0000000000
10
-13.0385269284
20
17.5020967432
30
0.0000000000
10
-13.0573051148
20
17.5068060664
30
0.0000000000
10
-13.0831047526
20
17.5068918444
30
0.0000000000
10
-13.1100259802
20
17.5011920327
30
0.0000000000
10
-13.1276314038
20
17.4939730018
30
0.0000000000
10
-13.1364273996
20
17.4895865722
30
0.0000000000
11
-13.0262997941
21
17.4964966855
31
0.0000000000
11
-13.0336342754
21
17.4997780746
31
0.0000000000
11
-13.0570627627
21
17.5057613996
31
0.0000000000
11
-13.0823233841
21
17.5060324188
31
0.0000000000
11
-13.1090692988
21
17.5005878028
31
0.0000000000
11
-13.1364273996
21
17.4895865722
31
0.0000000000
0
SPLINE
5
377
100
AcDbEntity
8
0
100
AcDbSpline
62
7
6
CONTINUOUS
70
0
71
3
72
12
73
8
74
6
42
0.0000001000
43
0.0000001000
44
0.0000000001
12
-0.1024460385
22
0.0512669789
32
0.0000000000
13
-0.1022335317
23
-0.0509823104
33
0.0000000000
40
0.0000000000
40
0.0000000000
40
0.0000000000
40
0.0000000000
40
0.0701707674
40
0.2818334567
40
0.5029641069
40
0.7418852029
40
1.0000000000
40
1.0000000000
40
1.0000000000
40
1.0000000000
10
0.3380183703
20
10.8143376033
30
0.0000000000
10
0.3356221313
20
10.8155367510
30
0.0000000000
10
0.3257912361
20
10.8199376610
30
0.0000000000
10
0.3070130496
20
10.8246469842
30
0.0000000000
10
0.2812134118
20
10.8247327622
30
0.0000000000
10
0.2542921843
20
10.8190329505
30
0.0000000000
10
0.2366867606
20
10.8118139196
30
0.0000000000
10
0.2278907649
20
10.8074274900
30
0.0000000000
11
0.3380183703
21
10.8143376033
31
0.0000000000
11
0.3306838890
21
10.8176189924
31
0.0000000000
11
0.3072554017
21
10.8236023174
31
0.0000000000
11
0.2819947803
21
10.8238733366
31
0.0000000000
11
0.2552488657
21
10.8184287205
31
0.0000000000
11
0.2278907649
21
10.8074274900
31
0.0000000000
0
SPLINE
5
378
100
AcDbEntity
8
0
100
AcDbSpline
62
7
6
CONTINUOUS
70
0
71
3
72
8
73
4
74
2
42
0.0000001000
43
0.0000001000
44
0.0000000001
12
0.0002454748
22
0.0085435457
32
0.0000000000
13
-0.0053364816
23
0.0075239063
33
0.0000000000
40
0.0000000000
40
0.0000000000
40
0.0000000000
40
0.0000000000
40
1.0000000000
40
1.0000000000
40
1.0000000000
40
1.0000000000
10
5.5367390979
20
-24.6317304738
30
0.0000000000
10
5.5368209228
20
-24.6288826252
30
0.0000000000
10
5.5350815519
20
-24.6261581533
30
0.0000000000
10
5.5333027247
20
-24.6236501846
30
0.0000000000
11
5.5367390979
21
-24.6317304738
31
0.0000000000
11
5.5333027247
21
-24.6236501846
31
0.0000000000
0
SPLINE
5
379
100
AcDbEntity
8
0
100
AcDbSpline
62
7
6
CONTINUOUS
70
0
71
3
72
11
73
7
74
5
42
0.0000001000
43
0.0000001000
44
0.0000000001
12
-0.0663186737
22
0.0935027089
32
0.0000000000
13
-0.0863886430
23
0.0648670732
33
0.0000000000
40
0.0000000000
40
0.0000000000
40
0.0000000000
40
0.0000000000
40
0.1581044998
40
0.3820090898
40
0.6646809553
40
1.0000000000
40
1.0000000000
40
1.0000000000
40
1.0000000000
10
5.5333027247
20
-24.6236501846
30
0.0000000000
10
5.5298076311
20
-24.6187224516
30
0.0000000000
10
5.5209948118
20
-24.6088356559
30
0.0000000000
10
5.5031217527
20
-24.5924327315
30
0.0000000000
10
5.4798436885
20
-24.5731840856
30
0.0000000000
10
5.4621802188
20
-24.5595874055
30
0.0000000000
10
5.4525242997
20
-24.5523370172
30
0.0000000000
11
5.5333027247
21
-24.6236501846
31
0.0000000000
11
5.5222628316
21
-24.6106173606
31
0.0000000000
11
5.5046267819
21
-24.5940625486
31
0.0000000000
11
5.4811787936
21
-24.5744992399
31
0.0000000000
11
5.4525242997
21
-24.5523370172
31
0.0000000000
0
SPLINE
5
37A
100
AcDbEntity
8
0
100
AcDbSpline
62
7
6
CONTINUOUS
70
0
71
3
72
11
73
7
74
5
42
0.0000001000
43
0.0000001000
44
0.0000000001
12
-0.1625542203
22
-0.0815700781
32
0.0000000000
13
-0.0905678769
23
-0.1567410448
33
0.0000000000
40
0.0000000000
40
0.0000000000
40
0.0000000000
40
0.0000000000
40
0.1162303016
40
0.3703269026
40
0.6635318032
40
1.0000000000
40
1.0000000000
40
1.0000000000
40
1.0000000000
10
-5.7359157523
20
18.6381091639
30
0.0000000000
10
-5.7422136609
20
18.6349488590
30
0.0000000000
10
-5.7615346109
20
18.6232688562
30
0.0000000000
10
-5.7911231579
20
18.5959362057
30
0.0000000000
10
-5.8240007112
20
18.5537562144
30
0.0000000000
10
-5.8440777300
20
18.5214398707
30
0.0000000000
10
-5.8542354667
20
18.5038604118
30
0.0000000000
11
-5.7359157523
21
18.6381091639
31
0.0000000000
11
-5.7540652314
21
18.6272649801
31
0.0000000000
11
-5.7885073039
21
18.5967762859
31
0.0000000000
11
-5.8216653689
21
18.5553302247
31
0.0000000000
11
-5.8542354667
21
18.5038604118
31
0.0000000000
0
SPLINE
5
37B
100
AcDbEntity
8
0
100
AcDbSpline
62
7
6
CONTINUOUS
70
0
71
3
72
13
73
9
74
7
42
0.0000001000
43
0.0000001000
44
0.0000000001
12
-0.4098481622
22
0.2048837263
32
0.0000000000
13
-0.4109068760
23
-0.2010615886
33
0.0000000000
40
0.0000000000
40
0.0000000000
40
0.0000000000
40
0.0000000000
40
0.1007741613
40
0.2637740567
40
0.4330088062
40
0.6107502248
40
0.7994856200
40
1.0000000000
40
1.0000000000
40
1.0000000000
40
1.0000000000
10
-2.4340903803
20
17.0396540459
30
0.0000000000
10
-2.4478577486
20
17.0465363745
30
0.0000000000
10
-2.4849998683
20
17.0623421043
30
0.0000000000
10
-2.5494908245
20
17.0782880451
30
0.0000000000
10
-2.6275421323
20
17.0827072627
30
0.0000000000
10
-2.7090592465
20
17.0734581609
30
0.0000000000
10
-2.7927915525
20
17.0508154116
30
0.0000000000
10
-2.8476813200
20
17.0277540412
30
0.0000000000
10
-2.8751455658
20
17.0143154613
30
0.0000000000
11
-2.4340903803
21
17.0396540459
31
0.0000000000
11
-2.4765507132
21
17.0577242559
31
0.0000000000
11
-2.5488910749
21
17.0758064429
31
0.0000000000
11
-2.6261673176
21
17.0804931609
31
0.0000000000
11
-2.7069994728
21
17.0716937263
31
0.0000000000
11
-2.7904422098
21
17.0495186365
31
0.0000000000
11
-2.8751455658
21
17.0143154613
31
0.0000000000
0
SPLINE
5
37C
100
AcDbEntity
8
0
100
AcDbSpline
62
7
6
CONTINUOUS
70
0
71
3
72
10
73
6
74
4
42
0.0000001000
43
0.0000001000
44
0.0000000001
12
-0.2344480368
22
0.1171946370
32
0.0000000000
13
-0.2568936911
23
0.0516051973
33
0.0000000000
40
0.0000000000
40
0.0000000000
40
0.0000000000
40
0.0000000000
40
0.3436557906
40
0.6870119842
40
1.0000000000
40
1.0000000000
40
1.0000000000
40
1.0000000000
10
5.0347365029
20
13.3052454392
30
0.0000000000
10
5.0078800278
20
13.3186703110
30
0.0000000000
10
4.9532107675
20
13.3435591646
30
0.0000000000
10
4.8708711228
20
13.3730265617
30
0.0000000000
10
4.8152274391
20
13.3872479509
30
0.0000000000
10
4.7884258902
20
13.3926318870
30
0.0000000000
11
5.0347365029
21
13.3052454392
31
0.0000000000
11
4.9527117472
21
13.3424079058
31
0.0000000000
11
4.8679326002
21
13.3725204183
31
0.0000000000
11
4.7884258902
21
13.3926318870
31
0.0000000000
0
SPLINE
5
37D
100
AcDbEntity
8
0
100
AcDbSpline
62
7
6
CONTINUOUS
70
0
71
3
72
9
73
5
74
3
42
0.0000001000
43
0.0000001000
44
0.0000000001
12
0.0001767801
22
0.0054141286
32
0.0000000000
13
-0.0029429943
23
0.0049589549
33
0.0000000000
40
0.0000000000
40
0.0000000000
40
0.0000000000
40
0.0000000000
40
0.6316411435
40
1.0000000000
40
1.0000000000
40
1.0000000000
40
1.0000000000
10
5.5367925071
20
12.3031227963
30
0.0000000000
10
5.5368297276
20
12.3042627251
30
0.0000000000
10
5.5360038523
20
12.3062775028
30
0.0000000000
10
5.5350615248
20
12.3080078434
30
0.0000000000
10
5.5347001655
20
12.3086167351
30
0.0000000000
11
5.5367925071
21
12.3031227963
31
0.0000000000
11
5.5357399530
21
12.3066944761
31
0.0000000000
11
5.5347001655
21
12.3086167351
31
0.0000000000
0
SPLINE
5
37E
100
AcDbEntity
8
0
100
AcDbSpline
62
7
6
CONTINUOUS
70
0
71
3
72
14
73
10
74
8
42
0.0000001000
43
0.0000001000
44
0.0000000001
12
-0.0566695584
22
0.0954883889
32
0.0000000000
13
-0.0880104637
23
0.0641532364
33
0.0000000000
40
0.0000000000
40
0.0000000000
40
0.0000000000
40
0.0000000000
40
0.0507979489
40
0.1496779943
40
0.2757326834
40
0.4265637239
40
0.5995479182
40
0.7917799682
40
1.0000000000
40
1.0000000000
40
1.0000000000
40
1.0000000000
10
5.5347001655
20
12.3086167351
30
0.0000000000
10
5.5337405997
20
12.3102336065
30
0.0000000000
10
5.5306172433
20
12.3144057436
30
0.0000000000
10
5.5237231408
20
12.3219026984
30
0.0000000000
10
5.5138095088
20
12.3311871184
30
0.0000000000
10
5.5014066339
20
12.3418528692
30
0.0000000000
10
5.4868257348
20
12.3536076716
30
0.0000000000
10
5.4703188792
20
12.3662985367
30
0.0000000000
10
5.4586328136
20
12.3749465944
30
0.0000000000
10
5.4525242997
20
12.3793992574
30
0.0000000000
11
5.5347001655
21
12.3086167351
31
0.0000000000
11
5.5315492820
21
12.3130536921
31
0.0000000000
11
5.5243426158
21
12.3210559899
31
0.0000000000
11
5.5143950263
21
12.3305175869
31
0.0000000000
11
5.5019692652
21
12.3412623136
31
0.0000000000
11
5.4873260844
21
12.3531161994
31
0.0000000000
11
5.4707425348
21
12.3658952856
31
0.0000000000
11
5.4525242997
21
12.3793992574
31
0.0000000000
0
SPLINE
5
37F
100
AcDbEntity
8
0
100
AcDbSpline
62
7
6
CONTINUOUS
70
0
71
3
72
12
73
8
74
6
42
0.0000001000
43
0.0000001000
44
0.0000000001
12
-0.0001112880
22
-0.3027556084
32
0.0000000000
13
-0.1478565247
23
-0.2641316829
33
0.0000000000
40
0.0000000000
40
0.0000000000
40
0.0000000000
40
0.0000000000
40
0.1758487554
40
0.3770020419
40
0.5821736245
40
0.7902417506
40
1.0000000000
40
1.0000000000
40
1.0000000000
40
1.0000000000
10
5.5367226397
20
12.8793349172
30
0.0000000000
10
5.5367161164
20
12.8615885182
30
0.0000000000
10
5.5340875708
20
12.8235099338
30
0.0000000000
10
5.5232056787
20
12.7656734380
30
0.0000000000
10
5.5054410420
20
12.7061741116
30
0.0000000000
10
5.4819355315
20
12.6477900200
30
0.0000000000
10
5.4628623417
20
12.6101263446
30
0.0000000000
10
5.4525242997
20
12.5916584115
30
0.0000000000
11
5.5367226397
21
12.8793349172
31
0.0000000000
11
5.5333027247
21
12.8262017672
31
0.0000000000
11
5.5222628316
21
12.7663219253
31
0.0000000000
11
5.5046267819
21
12.7067732301
31
0.0000000000
11
5.4811787936
21
12.6483186000
31
0.0000000000
11
5.4525242997
21
12.5916584115
31
0.0000000000
0
SPLINE
5
380
100
AcDbEntity
8
0
100
AcDbSpline
62
7
6
CONTINUOUS
70
0
71
3
72
12
73
8
74
6
42
0.0000001000
43
0.0000001000
44
0.0000000001
12
-0.0000037860
22
-0.1438614601
32
0.0000000000
13
-0.1287763930
23
-0.0630118104
33
0.0000000000
40
0.0000000000
40
0.0000000000
40
0.0000000000
40
0.0000000000
40
0.1638187652
40
0.3390033906
40
0.5342164121
40
0.7541293018
40
1.0000000000
40
1.0000000000
40
1.0000000000
40
1.0000000000
10
-4.7733471799
20
16.4967454955
30
0.0000000000
10
-4.7733473867
20
16.4888897600
30
0.0000000000
10
-4.7760360685
20
16.4726318864
30
0.0000000000
10
-4.7876590714
20
16.4495402954
30
0.0000000000
10
-4.8062468494
20
16.4280264241
30
0.0000000000
10
-4.8312052433
20
16.4084249580
30
0.0000000000
10
-4.8506610317
20
16.3974469522
30
0.0000000000
10
-4.8612151455
20
16.3922826996
30
0.0000000000
11
-4.7733471799
21
16.4967454955
31
0.0000000000
11
-4.7770404321
21
16.4735516232
31
0.0000000000
11
-4.7880295853
21
16.4509678024
31
0.0000000000
11
-4.8060447308
21
16.4295499804
31
0.0000000000
11
-4.8306415956
21
16.4098265723
31
0.0000000000
11
-4.8612151455
21
16.3922826996
31
0.0000000000
0
SPLINE
5
381
100
AcDbEntity
8
0
100
AcDbSpline
62
7
6
CONTINUOUS
70
0
71
3
72
12
73
8
74
6
42
0.0000001000
43
0.0000001000
44
0.0000000001
12
-0.0000271067
22
-0.1424881500
32
0.0000000000
13
-0.1272561834
23
-0.0630046818
33
0.0000000000
40
0.0000000000
40
0.0000000000
40
0.0000000000
40
0.0000000000
40
0.1616494759
40
0.3374736946
40
0.5331965554
40
0.7535889118
40
1.0000000000
40
1.0000000000
40
1.0000000000
40
1.0000000000
10
0.7811162777
20
13.7195154029
30
0.0000000000
10
0.7811148171
20
13.7118376913
30
0.0000000000
10
0.7785295022
20
13.6958052102
30
0.0000000000
10
0.7671936490
20
13.6728995200
30
0.0000000000
10
0.7488633353
20
13.6514175350
30
0.0000000000
10
0.7241912031
20
13.6318226543
30
0.0000000000
10
0.7049313507
20
13.6208316279
30
0.0000000000
10
0.6944789059
20
13.6156566105
30
0.0000000000
11
0.7811162777
21
13.7195154029
31
0.0000000000
11
0.7775850927
21
13.6968307786
31
0.0000000000
11
0.7668090910
21
13.6743091809
31
0.0000000000
11
0.7490497792
21
13.6529309785
31
0.0000000000
11
0.7247418772
21
13.6332197038
31
0.0000000000
11
0.6944789059
21
13.6156566105
31
0.0000000000
0
SPLINE
5
382
100
AcDbEntity
8
0
100
AcDbSpline
62
7
6
CONTINUOUS
70
0
71
3
72
13
73
9
74
7
42
0.0000001000
43
0.0000001000
44
0.0000000001
12
-0.0000199727
22
-0.1454202046
32
0.0000000000
13
0.1296323661
23
-0.0648161831
33
0.0000000000
40
0.0000000000
40
0.0000000000
40
0.0000000000
40
0.0000000000
40
0.0030152475
40
0.1674532572
40
0.3429528197
40
0.5377595388
40
0.7563608844
40
1.0000000000
40
1.0000000000
40
1.0000000000
40
1.0000000000
10
-11.5222928710
20
14.8991570186
30
0.0000000000
10
-11.5222928911
20
14.8990108593
30
0.0000000000
10
-11.5222700116
20
14.8908938461
30
0.0000000000
10
-11.5194864252
20
14.8742858125
30
0.0000000000
10
-11.5078368482
20
14.8508762258
30
0.0000000000
10
-11.4892695152
20
14.8290308703
30
0.0000000000
10
-11.4643719219
20
14.8091037449
30
0.0000000000
10
-11.4449527801
20
14.7979139043
30
0.0000000000
10
-11.4344249417
20
14.7926499852
30
0.0000000000
11
-11.5222928710
21
14.8991570186
31
0.0000000000
11
-11.5222916339
21
14.8987185438
31
0.0000000000
11
-11.5184889415
21
14.8751913176
31
0.0000000000
11
-11.5074470813
21
14.8522772491
31
0.0000000000
11
-11.4894354588
21
14.8305346612
31
0.0000000000
11
-11.4648949880
21
14.8104958336
31
0.0000000000
11
-11.4344249417
21
14.7926499852
31
0.0000000000
0
SPLINE
5
383
100
AcDbEntity
8
0
100
AcDbSpline
62
7
6
CONTINUOUS
70
0
71
3
72
12
73
8
74
6
42
0.0000001000
43
0.0000001000
44
0.0000000001
12
-0.1462308253
22
0.0731154127
32
0.0000000000
13
-0.1459964177
23
-0.0745957438
33
0.0000000000
40
0.0000000000
40
0.0000000000
40
0.0000000000
40
0.0000000000
40
0.2553591691
40
0.4911746382
40
0.7106351586
40
0.9194242855
40
1.0000000000
40
1.0000000000
40
1.0000000000
40
1.0000000000
10
-17.2355838163
20
15.4062778508
30
0.0000000000
10
-17.2480309437
20
15.4125014144
30
0.0000000000
10
-17.2729164701
20
15.4227402100
30
0.0000000000
10
-17.3110177156
20
15.4308938080
30
0.0000000000
10
-17.3475184334
20
15.4308978165
30
0.0000000000
10
-17.3747323072
20
15.4242075040
30
0.0000000000
10
-17.3891723933
20
15.4177160664
30
0.0000000000
10
-17.3930936485
20
15.4157125313
30
0.0000000000
11
-17.2355838163
21
15.4062778508
31
0.0000000000
11
-17.2742983569
21
15.4219034023
31
0.0000000000
11
-17.3120594688
21
15.4296807633
31
0.0000000000
11
-17.3479383371
21
15.4294184565
31
0.0000000000
11
-17.3810501553
21
15.4211229178
31
0.0000000000
11
-17.3930936485
21
15.4157125313
31
0.0000000000
0
SPLINE
5
384
100
AcDbEntity
8
0
100
AcDbSpline
62
7
6
CONTINUOUS
70
0
71
3
72
13
73
9
74
7
42
0.0000001000
43
0.0000001000
44
0.0000000001
12
0.0000000000
22
-0.2196500159
32
0.0000000000
13
-0.1961404309
23
-0.1002301717
33
0.0000000000
40
0.0000000000
40
0.0000000000
40
0.0000000000
40
0.0000000000
40
0.2094012719
40
0.4037602127
40
0.5832359259
40
0.7496749212
40
0.9067994324
40
1.0000000000
40
1.0000000000
40
1.0000000000
40
1.0000000000
10
0.0531769837
20
-29.9462590296
30
0.0000000000
10
0.0531769837
20
-29.9615906938
30
0.0000000000
10
0.0513545075
20
-29.9912031212
30
0.0000000000
10
0.0425112072
20
-30.0331550087
30
0.0000000000
10
0.0277913236
20
-30.0701171608
30
0.0000000000
10
0.0074269320
20
-30.1011537230
30
0.0000000000
10
-0.0149809766
20
-30.1223190090
30
0.0000000000
10
-0.0307005855
20
-30.1319532990
30
0.0000000000
10
-0.0367940520
20
-30.1350671353
30
0.0000000000
11
0.0531769837
21
-29.9462590296
31
0.0000000000
11
0.0501301454
21
-29.9921529958
31
0.0000000000
11
0.0410645968
21
-30.0338702891
31
0.0000000000
11
0.0262034633
21
-30.0703836899
31
0.0000000000
11
0.0059125704
21
-30.1007940666
31
0.0000000000
11
-0.0193085506
21
-30.1243525237
31
0.0000000000
11
-0.0367940520
21
-30.1350671353
31
0.0000000000
0
SPLINE
5
385
100
AcDbEntity
8
0
100
AcDbSpline
62
9
6
CONTINUOUS
70
0
71
3
72
12
73
8
74
6
42
0.0000001000
43
0.0000001000
44
0.0000000001
12
-0.0000000001
22
0.0815503702
32
0.0000000000
13
0.0810509233
23
0.0090116985
33
0.0000000000
40
0.0000000000
40
0.0000000000
40
0.0000000000
40
0.0000000000
40
0.0739431379
40
0.2069975407
40
0.4084660694
40
0.6752334178
40
1.0000000000
40
1.0000000000
40
1.0000000000
40
1.0000000000
10
-8.0431956609
20
-10.3401101518
30
0.0000000000
10
-8.0431956609
20
-10.3381001217
30
0.0000000000
10
-8.0387509851
20
-10.3333194919
30
0.0000000000
10
-8.0286556884
20
-10.3293489961
30
0.0000000000
10
-8.0127844833
20
-10.3248157052
30
0.0000000000
10
-7.9916003731
20
-10.3210025736
30
0.0000000000
10
-7.9756397076
20
-10.3189048200
30
0.0000000000
10
-7.9668654972
20
-10.3179292538
30
0.0000000000
11
-8.0431956609
21
-10.3401101518
31
0.0000000000
11
-8.0399345687
21
-10.3350379465
31
0.0000000000
11
-8.0302576394
21
-10.3301294500
31
0.0000000000
11
-8.0144804475
21
-10.3255447331
31
0.0000000000
11
-7.9931175083
21
-10.3214333086
31
0.0000000000
11
-7.9668654972
21
-10.3179292538
31
0.0000000000
0
SPLINE
5
386
100
AcDbEntity
8
0
100
AcDbSpline
62
7
6
CONTINUOUS
70
0
71
3
72
17
73
13
74
11
42
0.0000001000
43
0.0000001000
44
0.0000000001
12
0.3895861697
22
-0.1947930849
32
0.0000000000
13
0.3893834854
23
0.1951979274
33
0.0000000000
40
0.0000000000
40
0.0000000000
40
0.0000000000
40
0.0000000000
40
0.0890005659
40
0.1849499553
40
0.2864563904
40
0.3918366128
40
0.4992385642
40
0.6067076896
40
0.7122861312
40
0.8141130460
40
0.9104892925
40
1.0000000000
40
1.0000000000
40
1.0000000000
40
1.0000000000
10
-5.6419158737
20
11.8963954511
30
0.0000000000
10
-5.6303580772
20
11.8906165529
30
0.0000000000
10
-5.6055439392
20
11.8801674376
30
0.0000000000
10
-5.5656721805
20
11.8681228405
30
0.0000000000
10
-5.5225314890
20
11.8593329625
30
0.0000000000
10
-5.4771604716
20
11.8540130087
30
0.0000000000
10
-5.4306469004
20
11.8522912334
30
0.0000000000
10
-5.3841123360
20
11.8542102593
30
0.0000000000
10
-5.3386788954
20
11.8597228437
30
0.0000000000
10
-5.2954363205
20
11.8686961219
30
0.0000000000
10
-5.2554260554
20
11.8809104625
30
0.0000000000
10
-5.2305075192
20
11.8914588039
30
0.0000000000
10
-5.2188895221
20
11.8972829054
30
0.0000000000
11
-5.6419158737
21
11.8963954511
31
0.0000000000
11
-5.6062611197
21
11.8811788994
31
0.0000000000
11
-5.5662933892
21
11.8689636264
31
0.0000000000
11
-5.5229884375
21
11.8600479272
31
0.0000000000
11
-5.4774064114
21
11.8546500526
31
0.0000000000
11
-5.4306579629
21
11.8529017083
31
0.0000000000
11
-5.3838879708
21
11.8548460270
31
0.0000000000
11
-5.3382420134
21
11.8604351357
31
0.0000000000
11
-5.2948322752
21
11.8695327308
31
0.0000000000
11
-5.2547216839
21
11.8819161129
31
0.0000000000
11
-5.2188895221
21
11.8972829054
31
0.0000000000
0
SPLINE
5
387
100
AcDbEntity
8
0
100
AcDbSpline
62
7
6
CONTINUOUS
70
0
71
3
72
17
73
13
74
11
42
0.0000001000
43
0.0000001000
44
0.0000000001
12
-0.3889091088
22
-0.1963377245
32
0.0000000000
13
-0.3896652892
23
0.1948326446
33
0.0000000000
40
0.0000000000
40
0.0000000000
40
0.0000000000
40
0.0000000000
40
0.0896005383
40
0.1860363505
40
0.2878952112
40
0.3934811365
40
0.5009374680
40
0.6083108940
40
0.7136525634
40
0.8151165594
40
0.9110269511
40
1.0000000000
40
1.0000000000
40
1.0000000000
40
1.0000000000
10
-5.2188895221
20
10.6830794326
30
0.0000000000
10
-5.2305050106
20
10.6772154440
30
0.0000000000
10
-5.2554192243
20
10.6665868609
30
0.0000000000
10
-5.2954309444
20
10.6542574597
30
0.0000000000
10
-5.3386749391
20
10.6451752342
30
0.0000000000
10
-5.3841096752
20
10.6395623599
30
0.0000000000
10
-5.4306453412
20
10.6375540264
30
0.0000000000
10
-5.4771598658
20
10.6391995719
30
0.0000000000
10
-5.5225317382
20
10.6444581766
30
0.0000000000
10
-5.5656733548
20
10.6532030954
30
0.0000000000
10
-5.6055461876
20
10.6652202592
30
0.0000000000
10
-5.6303593041
20
10.6756623002
30
0.0000000000
10
-5.6419158737
20
10.6814405850
30
0.0000000000
11
-5.2188895221
21
10.6830794326
31
0.0000000000
11
-5.2547221507
21
10.6675947259
31
0.0000000000
11
-5.2948332222
21
10.6550965139
31
0.0000000000
11
-5.3382434181
21
10.6458899624
31
0.0000000000
11
-5.3838896649
21
10.6402004358
31
0.0000000000
11
-5.4306597882
21
10.6381666461
31
0.0000000000
11
-5.4774081017
21
10.6398386215
31
0.0000000000
11
-5.5229898358
21
10.6451750610
31
0.0000000000
11
-5.5662943294
21
10.6540457165
31
0.0000000000
11
-5.6062615818
21
10.6662334369
31
0.0000000000
11
-5.6419158737
21
10.6814405850
31
0.0000000000
0
SPLINE
5
388
100
AcDbEntity
8
0
100
AcDbSpline
62
7
6
CONTINUOUS
70
0
71
3
72
13
73
9
74
7
42
0.0000001000
43
0.0000001000
44
0.0000000001
12
-0.1298016753
22
0.0649008377
32
0.0000000000
13
0.0000186465
23
0.1456076944
33
0.0000000000
40
0.0000000000
40
0.0000000000
40
0.0000000000
40
0.0000000000
40
0.2433506852
40
0.4617848989
40
0.6565755890
40
0.8322279170
40
0.9969716939
40
1.0000000000
40
1.0000000000
40
1.0000000000
40
1.0000000000
10
-11.4344249417
20
13.5776951191
30
0.0000000000
10
-11.4449540506
20
13.5829596735
30
0.0000000000
10
-11.4643773865
20
13.5941576751
30
0.0000000000
10
-11.4892764882
20
13.6141141414
30
0.0000000000
10
-11.5078437986
20
13.6360075556
30
0.0000000000
10
-11.5194900258
20
13.6594807168
30
0.0000000000
10
-11.5222699055
20
13.6761335698
30
0.0000000000
10
-11.5222928934
20
13.6842765264
30
0.0000000000
10
-11.5222928746
20
13.6844235080
30
0.0000000000
11
-11.4344249417
21
13.5776951191
31
0.0000000000
11
-11.4648946518
21
13.5955499719
31
0.0000000000
11
-11.4894349784
21
13.6156160410
31
0.0000000000
11
-11.5074466242
21
13.6374034552
31
0.0000000000
11
-11.5184886697
21
13.6603789055
31
0.0000000000
11
-11.5222916286
21
13.6839825662
31
0.0000000000
11
-11.5222928746
21
13.6844235080
31
0.0000000000
0
SPLINE
5
389
100
AcDbEntity
8
0
100
AcDbSpline
62
7
6
CONTINUOUS
70
0
71
3
72
12
73
8
74
6
42
0.0000001000
43
0.0000001000
44
0.0000000001
12
0.1274265362
22
0.0635456794
32
0.0000000000
13
0.0000255395
23
0.1428803290
33
0.0000000000
40
0.0000000000
40
0.0000000000
40
0.0000000000
40
0.0000000000
40
0.2461437340
40
0.4664340245
40
0.6622044411
40
0.8381796843
40
1.0000000000
40
1.0000000000
40
1.0000000000
40
1.0000000000
10
0.6944789059
20
14.8474951889
30
0.0000000000
10
0.7049339870
20
14.8527089792
30
0.0000000000
10
0.7241994809
20
14.8637784696
30
0.0000000000
10
0.7488705563
20
14.8834897081
30
0.0000000000
10
0.7671978285
20
14.9050817702
30
0.0000000000
10
0.7785295162
20
14.9280855414
30
0.0000000000
10
0.7811149045
20
14.9441770304
30
0.0000000000
10
0.7811162821
20
14.9518840104
30
0.0000000000
11
0.6944789059
21
14.8474951889
31
0.0000000000
11
0.7247415418
21
14.8651757953
31
0.0000000000
11
0.7490493023
21
14.8850015891
31
0.0000000000
11
0.7668086410
21
14.9064885324
31
0.0000000000
11
0.7775848305
21
14.9291104971
31
0.0000000000
11
0.7811162821
21
14.9518840104
31
0.0000000000
0
SPLINE
5
38A
100
AcDbEntity
8
0
100
AcDbSpline
62
7
6
CONTINUOUS
70
0
71
3
72
12
73
8
74
6
42
0.0000001000
43
0.0000001000
44
0.0000000001
12
0.1289494975
22
0.0635559375
32
0.0000000000
13
0.0000024649
23
0.1442557351
33
0.0000000000
40
0.0000000000
40
0.0000000000
40
0.0000000000
40
0.0000000000
40
0.2456022684
40
0.4654114574
40
0.6606705777
40
0.8360059861
40
1.0000000000
40
1.0000000000
40
1.0000000000
40
1.0000000000
10
-4.8612151455
20
17.6241168810
30
0.0000000000
10
-4.8506583825
20
17.6293200418
30
0.0000000000
10
-4.8311969003
20
17.6403768073
30
0.0000000000
10
-4.8062395208
20
17.6600952077
30
0.0000000000
10
-4.7876547521
20
17.6817198205
30
0.0000000000
10
-4.7760359928
20
17.7049107644
30
0.0000000000
10
-4.7733473146
20
17.7212284053
30
0.0000000000
10
-4.7733471799
20
17.7291140976
30
0.0000000000
11
-4.8612151455
21
17.6241168810
31
0.0000000000
11
-4.8306419338
21
17.6417787575
31
0.0000000000
11
-4.8060452133
21
17.6616172480
31
0.0000000000
11
-4.7880300427
21
17.6831444127
31
0.0000000000
11
-4.7770407015
21
17.7058292069
31
0.0000000000
11
-4.7733471799
21
17.7291140976
31
0.0000000000
0
SPLINE
5
38B
100
AcDbEntity
8
0
100
AcDbSpline
62
7
6
CONTINUOUS
70
0
71
3
72
11
73
7
74
5
42
0.0000001000
43
0.0000001000
44
0.0000000001
12
-0.4351467956
22
0.0874129533
32
0.0000000000
13
-0.4398144642
23
-0.0596405499
33
0.0000000000
40
0.0000000000
40
0.0000000000
40
0.0000000000
40
0.0000000000
40
0.2406426210
40
0.4887663275
40
0.7423989614
40
1.0000000000
40
1.0000000000
40
1.0000000000
40
1.0000000000
10
4.7884258902
20
13.3926318870
30
0.0000000000
10
4.7535209351
20
13.3996436477
30
0.0000000000
10
4.6819057535
20
13.4104626574
30
0.0000000000
10
4.5721822164
20
13.4175582560
30
0.0000000000
10
4.4597377118
20
13.4157566066
30
0.0000000000
10
4.3843505765
20
13.4085713231
30
0.0000000000
10
4.3465850223
20
13.4034501673
30
0.0000000000
11
4.7884258902
21
13.3926318870
31
0.0000000000
11
4.6828510053
21
13.4088068617
31
0.0000000000
11
4.5729617404
21
13.4160417637
31
0.0000000000
11
4.4604030227
21
13.4142960290
31
0.0000000000
11
4.3465850223
21
13.4034501673
31
0.0000000000
0
SPLINE
5
38C
100
AcDbEntity
8
0
100
AcDbSpline
62
7
6
CONTINUOUS
70
0
71
3
72
9
73
5
74
3
42
0.0000001000
43
0.0000001000
44
0.0000000001
12
-0.0241207860
22
0.0049542359
32
0.0000000000
13
-0.0220849478
23
0.0110448753
33
0.0000000000
40
0.0000000000
40
0.0000000000
40
0.0000000000
40
0.0000000000
40
0.9288596728
40
1.0000000000
40
1.0000000000
40
1.0000000000
40
1.0000000000
10
-0.2125022876
20
-30.7164845044
30
0.0000000000
10
-0.2199705627
20
-30.7149505744
30
0.0000000000
10
-0.2278544319
20
-30.7123412838
30
0.0000000000
10
-0.2352517208
20
-30.7087299042
30
0.0000000000
10
-0.2357754309
20
-30.7084679922
30
0.0000000000
11
-0.2125022876
21
-30.7164845044
31
0.0000000000
11
-0.2341967671
21
-30.7092386621
31
0.0000000000
11
-0.2357754309
21
-30.7084679922
31
0.0000000000
0
SPLINE
5
38D
100
AcDbEntity
8
0
100
AcDbSpline
62
7
6
CONTINUOUS
70
0
71
3
72
17
73
13
74
11
42
0.0000001000
43
0.0000001000
44
0.0000000001
12
-0.3281832376
22
-0.1645182454
32
0.0000000000
13
-0.0000000000
23
-0.3671110057
33
0.0000000000
40
0.0000000000
40
0.0000000000
40
0.0000000000
40
0.0000000000
40
0.0877988990
40
0.1818695997
40
0.2805570128
40
0.3837432653
40
0.4891441471
40
0.5955191608
40
0.7015876633
40
0.8048773159
40
0.9050482431
40
1.0000000000
40
1.0000000000
40
1.0000000000
40
1.0000000000
10
-1.9016571977
20
9.7412666665
30
0.0000000000
10
-1.9112619067
20
9.7364518262
30
0.0000000000
10
-1.9303923527
20
9.7249064515
30
0.0000000000
10
-1.9572747312
20
9.7034232970
30
0.0000000000
10
-1.9828084130
20
9.6776358809
30
0.0000000000
10
-2.0063289360
20
9.6482150194
30
0.0000000000
10
-2.0273155903
20
9.6158148768
30
0.0000000000
10
-2.0452532359
20
9.5812363298
30
0.0000000000
10
-2.0596952222
20
9.5453352154
30
0.0000000000
10
-2.0703213642
20
9.5089109574
30
0.0000000000
10
-2.0768559631
20
9.4729154369
30
0.0000000000
10
-2.0784279271
20
9.4490203666
30
0.0000000000
10
-2.0784279271
20
9.4374010882
30
0.0000000000
11
-1.9016571977
21
9.7412666665
31
0.0000000000
11
-1.9293354909
21
9.7247497000
31
0.0000000000
11
-1.9563944330
21
9.7032918877
31
0.0000000000
11
-1.9819506984
21
9.6776124251
31
0.0000000000
11
-2.0056533869
21
9.6480635123
31
0.0000000000
11
-2.0267157670
21
9.6156044899
31
0.0000000000
11
-2.0447009158
21
9.5809411194
31
0.0000000000
11
-2.0592091189
21
9.5448059410
31
0.0000000000
11
-2.0697765325
21
9.5083894234
31
0.0000000000
11
-2.0762584455
21
9.4721913456
31
0.0000000000
11
-2.0784279271
21
9.4374010882
31
0.0000000000
0
SPLINE
5
38E
100
AcDbEntity
8
0
100
AcDbSpline
62
7
6
CONTINUOUS
70
0
71
3
72
13
73
9
74
7
42
0.0000001000
43
0.0000001000
44
0.0000000001
12
0.0000000000
22
-0.1580771600
32
0.0000000000
13
0.1417682681
23
-0.0708992473
33
0.0000000000
40
0.0000000000
40
0.0000000000
40
0.0000000000
40
0.0000000000
40
0.1982397194
40
0.3834113548
40
0.5546239440
40
0.7146143823
40
0.8649759067
40
1.0000000000
40
1.0000000000
40
1.0000000000
40
1.0000000000
10
-2.0784279271
20
9.0974271541
30
0.0000000000
10
-2.0784279271
20
9.0869814302
30
0.0000000000
10
-2.0772321898
20
9.0667475823
30
0.0000000000
10
-2.0714563587
20
9.0379919589
30
0.0000000000
10
-2.0618362558
20
9.0123937003
30
0.0000000000
10
-2.0485377326
20
8.9905799326
30
0.0000000000
10
-2.0321612540
20
8.9734839295
30
0.0000000000
10
-2.0194515825
20
8.9652079567
30
0.0000000000
10
-2.0130708719
20
8.9620169212
30
0.0000000000
11
-2.0784279271
21
9.0974271541
31
0.0000000000
11
-2.0764436814
21
9.0661528658
31
0.0000000000
11
-2.0705204978
21
9.0374870130
31
0.0000000000
11
-2.0608319374
21
9.0122157805
31
0.0000000000
11
-2.0475167696
21
8.9907138597
31
0.0000000000
11
-2.0309821379
21
8.9736387863
31
0.0000000000
11
-2.0130708719
21
8.9620169212
31
0.0000000000
0
SPLINE
5
38F
100
AcDbEntity
8
0
100
AcDbSpline
62
7
6
CONTINUOUS
70
0
71
3
72
17
73
13
74
11
42
0.0000001000
43
0.0000001000
44
0.0000000001
12
-0.3281832376
22
-0.1645182454
32
0.0000000000
13
0.0000000000
23
-0.3671110057
33
0.0000000000
40
0.0000000000
40
0.0000000000
40
0.0000000000
40
0.0000000000
40
0.0877988990
40
0.1818695997
40
0.2805570128
40
0.3837432653
40
0.4891441471
40
0.5955191608
40
0.7015876633
40
0.8048773159
40
0.9050482431
40
1.0000000000
40
1.0000000000
40
1.0000000000
40
1.0000000000
10
-15.2659753621
20
16.4234257487
30
0.0000000000
10
-15.2755800711
20
16.4186109084
30
0.0000000000
10
-15.2947105171
20
16.4070655337
30
0.0000000000
10
-15.3215928957
20
16.3855823792
30
0.0000000000
10
-15.3471265774
20
16.3597949632
30
0.0000000000
10
-15.3706471004
20
16.3303741016
30
0.0000000000
10
-15.3916337547
20
16.2979739590
30
0.0000000000
10
-15.4095714003
20
16.2633954120
30
0.0000000000
10
-15.4240133866
20
16.2274942976
30
0.0000000000
10
-15.4346395286
20
16.1910700396
30
0.0000000000
10
-15.4411741275
20
16.1550745191
30
0.0000000000
10
-15.4427460916
20
16.1311794488
30
0.0000000000
10
-15.4427460916
20
16.1195601704
30
0.0000000000
11
-15.2659753621
21
16.4234257487
31
0.0000000000
11
-15.2936536553
21
16.4069087822
31
0.0000000000
11
-15.3207125975
21
16.3854509699
31
0.0000000000
11
-15.3462688628
21
16.3597715073
31
0.0000000000
11
-15.3699715513
21
16.3302225945
31
0.0000000000
11
-15.3910339315
21
16.2977635721
31
0.0000000000
11
-15.4090190803
21
16.2631002016
31
0.0000000000
11
-15.4235272834
21
16.2269650232
31
0.0000000000
11
-15.4340946970
21
16.1905485056
31
0.0000000000
11
-15.4405766099
21
16.1543504278
31
0.0000000000
11
-15.4427460916
21
16.1195601704
31
0.0000000000
0
SPLINE
5
390
100
AcDbEntity
8
0
100
AcDbSpline
62
7
6
CONTINUOUS
70
0
71
3
72
13
73
9
74
7
42
0.0000001000
43
0.0000001000
44
0.0000000001
12
0.0000000000
22
-0.1580771600
32
0.0000000000
13
0.1417682681
23
-0.0708992473
33
0.0000000000
40
0.0000000000
40
0.0000000000
40
0.0000000000
40
0.0000000000
40
0.1982397194
40
0.3834113548
40
0.5546239440
40
0.7146143823
40
0.8649759067
40
1.0000000000
40
1.0000000000
40
1.0000000000
40
1.0000000000
10
-15.4427460916
20
15.7795862363
30
0.0000000000
10
-15.4427460916
20
15.7691405124
30
0.0000000000
10
-15.4415503542
20
15.7489066645
30
0.0000000000
10
-15.4357745231
20
15.7201510411
30
0.0000000000
10
-15.4261544202
20
15.6945527825
30
0.0000000000
10
-15.4128558970
20
15.6727390148
30
0.0000000000
10
-15.3964794185
20
15.6556430117
30
0.0000000000
10
-15.3837697469
20
15.6473670389
30
0.0000000000
10
-15.3773890363
20
15.6441760034
30
0.0000000000
11
-15.4427460916
21
15.7795862363
31
0.0000000000
11
-15.4407618458
21
15.7483119480
31
0.0000000000
11
-15.4348386623
21
15.7196460952
31
0.0000000000
11
-15.4251501018
21
15.6943748628
31
0.0000000000
11
-15.4118349341
21
15.6728729420
31
0.0000000000
11
-15.3953003023
21
15.6557978685
31
0.0000000000
11
-15.3773890363
21
15.6441760034
31
0.0000000000
0
SPLINE
5
391
100
AcDbEntity
8
0
100
AcDbSpline
62
7
6
CONTINUOUS
70
0
71
3
72
13
73
9
74
7
42
0.0000001000
43
0.0000001000
44
0.0000000001
12
0.0000000000
22
-0.1580496594
32
0.0000000000
13
0.1417254613
23
-0.0709202235
33
0.0000000000
40
0.0000000000
40
0.0000000000
40
0.0000000000
40
0.0000000000
40
0.2070101272
40
0.3999125266
40
0.5773183208
40
0.7429756756
40
0.8990662596
40
1.0000000000
40
1.0000000000
40
1.0000000000
40
1.0000000000
10
-2.0784279271
20
-32.5421509194
30
0.0000000000
10
-2.0784279271
20
-32.5530568794
30
0.0000000000
10
-2.0771265681
20
-32.5741613242
30
0.0000000000
10
-2.0708181296
20
-32.6040405096
30
0.0000000000
10
-2.0603092061
20
-32.6304215494
30
0.0000000000
10
-2.0457899320
20
-32.6525937567
30
0.0000000000
10
-2.0294772506
20
-32.6680755101
30
0.0000000000
10
-2.0178420568
20
-32.6751703738
30
0.0000000000
10
-2.0130737632
20
-32.6775564549
30
0.0000000000
11
-2.0784279271
21
-32.5421509194
31
0.0000000000
11
-2.0762584455
21
-32.5747967925
31
0.0000000000
11
-2.0697765325
21
-32.6045879424
31
0.0000000000
11
-2.0592091189
21
-32.6305592940
31
0.0000000000
11
-2.0447009158
21
-32.6523541054
31
0.0000000000
11
-2.0267157670
21
-32.6692403857
31
0.0000000000
11
-2.0130737632
21
-32.6775564549
31
0.0000000000
0
SPLINE
5
392
100
AcDbEntity
8
0
100
AcDbSpline
62
7
6
CONTINUOUS
70
0
71
3
72
14
73
10
74
8
42
0.0000001000
43
0.0000001000
44
0.0000000001
12
-0.1618915143
22
-0.1938217939
32
0.0000000000
13
0.0000000000
23
-0.2525386112
33
0.0000000000
40
0.0000000000
40
0.0000000000
40
0.0000000000
40
0.0000000000
40
0.1442287221
40
0.2915661604
40
0.4392076970
40
0.5862445358
40
0.7294680978
40
0.8681597286
40
1.0000000000
40
1.0000000000
40
1.0000000000
40
1.0000000000
10
-1.9895253511
20
-31.9707399256
30
0.0000000000
10
-1.9973084865
20
-31.9800581488
30
0.0000000000
10
-2.0121013195
20
-31.9997002507
30
0.0000000000
10
-2.0314933367
20
-32.0312376507
30
0.0000000000
10
-2.0480195998
20
-32.0646337083
30
0.0000000000
10
-2.0612815516
20
-32.0990848192
30
0.0000000000
10
-2.0710180639
20
-32.1339165545
30
0.0000000000
10
-2.0769953662
20
-32.1682895454
30
0.0000000000
10
-2.0784279271
20
-32.1910787323
30
0.0000000000
10
-2.0784279271
20
-32.2021769853
30
0.0000000000
11
-1.9895253511
21
-31.9707399256
31
0.0000000000
11
-2.0114738937
21
-31.9998074299
31
0.0000000000
11
-2.0309821379
21
-32.0314916980
31
0.0000000000
11
-2.0475167696
21
-32.0649101247
31
0.0000000000
11
-2.0608319374
21
-32.0995731787
31
0.0000000000
11
-2.0705204978
21
-32.1344208908
31
0.0000000000
11
-2.0764436814
21
-32.1689414057
31
0.0000000000
11
-2.0784279271
21
-32.2021769853
31
0.0000000000
0
SPLINE
5
393
100
AcDbEntity
8
0
100
AcDbSpline
62
7
6
CONTINUOUS
70
0
71
3
72
15
73
11
74
9
42
0.0000001000
43
0.0000001000
44
0.0000000001
12
0.0627631636
22
-0.5850015930
32
0.0000000000
13
-0.5352556215
23
-0.2471302028
33
0.0000000000
40
0.0000000000
40
0.0000000000
40
0.0000000000
40
0.0000000000
40
0.1659352099
40
0.3204718358
40
0.4633438016
40
0.5955774700
40
0.7183321631
40
0.8346015069
40
0.9472409223
40
1.0000000000
40
1.0000000000
40
1.0000000000
40
1.0000000000
10
-2.9070421873
20
-25.5997088412
30
0.0000000000
10
-2.9035706477
20
-25.6320662953
30
0.0000000000
10
-2.8997916598
20
-25.6949340188
30
0.0000000000
10
-2.9043983539
20
-25.7858947336
30
0.0000000000
10
-2.9194342583
20
-25.8690777502
30
0.0000000000
10
-2.9447455224
20
-25.9432475278
30
0.0000000000
10
-2.9801113104
20
-26.0073800400
30
0.0000000000
10
-3.0250922948
20
-26.0603353254
30
0.0000000000
10
-3.0695156603
20
-26.0939371023
30
0.0000000000
10
-3.0983331736
20
-26.1090559026
30
0.0000000000
10
-3.1077463712
20
-26.1134020232
30
0.0000000000
11
-2.9070421873
21
-25.5997088412
31
0.0000000000
11
-2.9015246231
21
-25.6971822440
31
0.0000000000
11
-2.9065261390
21
-25.7879675613
31
0.0000000000
11
-2.9219302762
21
-25.8706040698
31
0.0000000000
11
-2.9475183272
21
-25.9440766685
31
0.0000000000
11
-2.9827874302
21
-26.0071033949
31
0.0000000000
11
-3.0273168503
21
-26.0590340964
31
0.0000000000
11
-3.0802266001
21
-26.0989413417
31
0.0000000000
11
-3.1077463712
21
-26.1134020232
31
0.0000000000
0
ENDSEC
0
SECTION
2
OBJECTS
0
DICTIONARY
5
394
100
AcDbDictionary
3
ACAD_GROUP
350
395
3
ACAD_MLINESTYLE
350
396
0
DICTIONARY
5
395
102
{ACAD_REACTORS
330
394
102
}
100
AcDbDictionary
0
DICTIONARY
5
396
102
{ACAD_REACTORS
330
394
102
}
100
AcDbDictionary
3
STANDARD
350
397
0
MLINESTYLE
5
397
102
{ACAD_REACTORS
330
396
102
}
100
AcDbMlineStyle
2
STANDARD
70
0
3

62
256
51
90.0
52
90.0
71
2
49
0.5
62
256
6
BYLAYER
49
-0.5
62
256
6
BYLAYER
0
ENDSEC
0
EOF
