0
SECTION
2
HEADER
9
$ACADVER
1
AC1014
9
$HANDSEED
5
       3AF
9
$EXTMAX
10
297.0000000000
20
210.0000000000
9
$EXTMIN
10
0.0000000000
20
0.0000000000
9
$LIMMIN
10
0.0000000000
20
0.0000000000
9
$LIMMAX
10
297.0000000000
20
210.0000000000
9
$VIEWCTR
10
148.5000000000
20
105.0000000000
9
$VIEWSIZE
40
210.0000000000
9
$CLAYER
8
0
9
$LTSCALE
40
16.3350000000
9
$CELTYPE
6
BYLAYER
9
$DIMSCALE
40
1
9
$DIMASZ
40
3.0000000000
9
$DIMEXO
40
1.8562500000
9
$DIMDLI
40
11.2860000000
9
$DIMEXE
40
5.3460000000
9
$DIMCEN
40
2.6730000000
9
$DIMLFAC
40
1.0000000000
9
$DIMTXT
40
3.0000000000
9
$DIMTOL
70
1
9
$DIMLIM
70
0
9
$DIMTFAC
40
1.0000000000
9
$DIMTP
40
0.0100000000
9
$DIMTM
40
0.0100000000
9
$MEASUREMENT
70
1
0
ENDSEC
0
SECTION
2
CLASSES
0
ENDSEC
0
SECTION
2
TABLES
0
TABLE
2
VPORT
5
8
100
AcDbSymbolTable
70
2
0
VPORT
5
1F4
100
AcDbSymbolTableRecord
100
AcDbViewportTableRecord
2
*ACTIVE
70
0
10
0.0
20
0.0
11
1.0
21
1.0
12
148.5000000000
22
105.0000000000
13
0.0
23
0.0
14
1.0
24
1.0
15
0.0
25
0.0
16
0.0
26
0.0
36
1.0
17
0.0
27
0.0
37
0.0
40
210.0000000000
41
1.4142857143
42
50.0
43
0.0
44
0.0
50
0.0
51
0.0
71
0
72
100
73
1
74
1
75
0
76
0
77
0
78
0
0
ENDTAB
0
TABLE
2
LTYPE
5
5
100
AcDbSymbolTable
70
6
0
LTYPE
5
14
100
AcDbSymbolTableRecord
100
AcDbLinetypeTableRecord
2
BYBLOCK
70
0
3

72
65
73
0
40
0.0
0
LTYPE
5
15
100
AcDbSymbolTableRecord
100
AcDbLinetypeTableRecord
2
BYLAYER
70
0
3

72
65
73
0
40
0.0
0
LTYPE
5
16
100
AcDbSymbolTableRecord
100
AcDbLinetypeTableRecord
2
CONTINUOUS
70
64
3
Solid line
72
65
73
0
40
0
0
LTYPE
5
1F5
100
AcDbSymbolTableRecord
100
AcDbLinetypeTableRecord
2
CENTER
70
64
3
____ _ ____ _ ____ _ ____ _ ____ _ ____ _ ____
72
65
73
4
40
0.6
49
0.375
74
0
49
-0.075
74
0
49
0.075
74
0
49
-0.075
74
0
0
LTYPE
5
1F6
100
AcDbSymbolTableRecord
100
AcDbLinetypeTableRecord
2
HIDDEN
70
64
3
- - - - - - - - - - - - - - - - - - - -
72
65
73
2
40
0.2
49
0.1
74
0
49
-0.1
74
0
0
LTYPE
5
1F7
100
AcDbSymbolTableRecord
100
AcDbLinetypeTableRecord
2
PHANTOM
70
64
3
_____ _ _ _____ _ _ _____ _ _ _____
72
65
73
6
40
0.8
49
0.45
74
0
49
-0.05
74
0
49
0.1
74
0
49
-0.05
74
0
49
0.1
74
0
49
-0.05
74
0
0
LTYPE
5
1F8
100
AcDbSymbolTableRecord
100
AcDbLinetypeTableRecord
2
DOT
70
64
3
. . . . . . . . . . . . . . . . . . . .
72
65
73
2
40
0.2
49
0.1
74
0
49
-0.1
74
0
0
LTYPE
5
1F9
100
AcDbSymbolTableRecord
100
AcDbLinetypeTableRecord
2
DASHED
70
64
3
- - - - - - - - - - - - - - - - - - - -
72
65
73
2
40
0.2
49
0.1
74
0
49
-0.1
74
0
0
ENDTAB
0
TABLE
2
LAYER
5
2
100
AcDbSymbolTable
70
36
0
LAYER
5
10
100
AcDbSymbolTableRecord
100
AcDbLayerTableRecord
2
0
70
0
62
7
6
CONTINUOUS
0
LAYER
5
1FA
100
AcDbSymbolTableRecord
100
AcDbLayerTableRecord
2
DEFAULT_1
70
0
62
7
6
CENTER
0
LAYER
5
1FB
100
AcDbSymbolTableRecord
100
AcDbLayerTableRecord
2
DEFAULT_2
70
0
62
8
6
HIDDEN
0
LAYER
5
1FC
100
AcDbSymbolTableRecord
100
AcDbLayerTableRecord
2
DEFAULT_3
70
0
62
7
6
PHANTOM
0
LAYER
5
1FD
100
AcDbSymbolTableRecord
100
AcDbLayerTableRecord
2
218
70
0
62
7
6
CONTINUOUS
0
LAYER
5
1FE
100
AcDbSymbolTableRecord
100
AcDbLayerTableRecord
2
260
70
0
62
7
6
CONTINUOUS
0
LAYER
5
1FF
100
AcDbSymbolTableRecord
100
AcDbLayerTableRecord
2
268
70
0
62
7
6
CONTINUOUS
0
LAYER
5
200
100
AcDbSymbolTableRecord
100
AcDbLayerTableRecord
2
284
70
0
62
7
6
CONTINUOUS
0
LAYER
5
201
100
AcDbSymbolTableRecord
100
AcDbLayerTableRecord
2
320
70
0
62
7
6
CONTINUOUS
0
LAYER
5
202
100
AcDbSymbolTableRecord
100
AcDbLayerTableRecord
2
340
70
0
62
7
6
CONTINUOUS
0
LAYER
5
203
100
AcDbSymbolTableRecord
100
AcDbLayerTableRecord
2
712
70
0
62
7
6
CONTINUOUS
0
LAYER
5
204
100
AcDbSymbolTableRecord
100
AcDbLayerTableRecord
2
715
70
0
62
7
6
CONTINUOUS
0
LAYER
5
205
100
AcDbSymbolTableRecord
100
AcDbLayerTableRecord
2
ASSI
70
0
62
7
6
CONTINUOUS
0
LAYER
5
206
100
AcDbSymbolTableRecord
100
AcDbLayerTableRecord
2
COORDINATE
70
0
62
7
6
CONTINUOUS
0
LAYER
5
207
100
AcDbSymbolTableRecord
100
AcDbLayerTableRecord
2
COORD_ORIGINE
70
0
62
7
6
CONTINUOUS
0
LAYER
5
208
100
AcDbSymbolTableRecord
100
AcDbLayerTableRecord
2
COPY-PUBBLISH
70
0
62
7
6
CONTINUOUS
0
LAYER
5
209
100
AcDbSymbolTableRecord
100
AcDbLayerTableRecord
2
COSMETICHE
70
0
62
7
6
CONTINUOUS
0
LAYER
5
20A
100
AcDbSymbolTableRecord
100
AcDbLayerTableRecord
2
CURVE
70
0
62
7
6
CONTINUOUS
0
LAYER
5
20B
100
AcDbSymbolTableRecord
100
AcDbLayerTableRecord
2
DRAFT
70
0
62
7
6
CONTINUOUS
0
LAYER
5
20C
100
AcDbSymbolTableRecord
100
AcDbLayerTableRecord
2
IMPORT
70
0
62
7
6
CONTINUOUS
0
LAYER
5
20D
100
AcDbSymbolTableRecord
100
AcDbLayerTableRecord
2
IMPORTED
70
0
62
7
6
CONTINUOUS
0
LAYER
5
20E
100
AcDbSymbolTableRecord
100
AcDbLayerTableRecord
2
INCISIONI_LASER
70
0
62
7
6
CONTINUOUS
0
LAYER
5
20F
100
AcDbSymbolTableRecord
100
AcDbLayerTableRecord
2
NOTE
70
0
62
7
6
CONTINUOUS
0
LAYER
5
210
100
AcDbSymbolTableRecord
100
AcDbLayerTableRecord
2
PIANI
70
0
62
7
6
CONTINUOUS
0
LAYER
5
211
100
AcDbSymbolTableRecord
100
AcDbLayerTableRecord
2
PIANI_DI_RIFERIMENTO
70
0
62
7
6
CONTINUOUS
0
LAYER
5
212
100
AcDbSymbolTableRecord
100
AcDbLayerTableRecord
2
PIANI_ORIGINE
70
0
62
7
6
CONTINUOUS
0
LAYER
5
213
100
AcDbSymbolTableRecord
100
AcDbLayerTableRecord
2
PIANI_RIFERIMENTO
70
0
62
7
6
CONTINUOUS
0
LAYER
5
214
100
AcDbSymbolTableRecord
100
AcDbLayerTableRecord
2
PIANI_SFORMO
70
0
62
7
6
CONTINUOUS
0
LAYER
5
215
100
AcDbSymbolTableRecord
100
AcDbLayerTableRecord
2
PUNTI
70
0
62
7
6
CONTINUOUS
0
LAYER
5
216
100
AcDbSymbolTableRecord
100
AcDbLayerTableRecord
2
RACCORDO
70
0
62
7
6
CONTINUOUS
0
LAYER
5
217
100
AcDbSymbolTableRecord
100
AcDbLayerTableRecord
2
SMUSSO
70
0
62
7
6
CONTINUOUS
0
LAYER
5
218
100
AcDbSymbolTableRecord
100
AcDbLayerTableRecord
2
SUPERFICI
70
0
62
7
6
CONTINUOUS
0
LAYER
5
219
100
AcDbSymbolTableRecord
100
AcDbLayerTableRecord
2
TRASH
70
0
62
7
6
CONTINUOUS
0
LAYER
5
21A
100
AcDbSymbolTableRecord
100
AcDbLayerTableRecord
2
XSEC_DATUMS
70
0
62
7
6
CONTINUOUS
0
ENDTAB
0
TABLE
2
STYLE
5
3
100
AcDbSymbolTable
70
1
0
STYLE
5
11
100
AcDbSymbolTableRecord
100
AcDbTextStyleTableRecord
2
STANDARD
70
0
40
0.0
41
0.8000000000
50
0.0
71
0
42
0.2
3
txt
4

0
ENDTAB
0
TABLE
2
VIEW
5
6
100
AcDbSymbolTable
70
0
0
ENDTAB
0
TABLE
2
UCS
5
7
100
AcDbSymbolTable
70
0
0
ENDTAB
0
TABLE
2
APPID
5
9
100
AcDbSymbolTable
70
1
0
APPID
5
21B
100
AcDbSymbolTableRecord
100
AcDbRegAppTableRecord
2
ACAD
70
0
0
ENDTAB
0
TABLE
2
DIMSTYLE
5
A
100
AcDbSymbolTable
70
1
0
DIMSTYLE
105
21C
100
AcDbSymbolTableRecord
100
AcDbDimStyleTableRecord
2
STANDARD
70
0
3

4

5

6

7

40
1.0
41
3.0000000000
42
0.0625
43
0.38
44
0.18
45
0.0
46
0.0
47
0.0100000000
48
0.0100000000
140
3.0000000000
141
0.09
142
0.0
143
25.4
144
1.0000000000
145
0.0
146
1.0000000000
147
0.09
71
1
72
0
73
0
74
0
75
0
76
0
77
1
78
8
170
0
171
2
172
0
173
0
174
0
175
0
176
0
177
0
178
0
270
2
271
2
272
2
273
2
274
2
340
11
275
0
280
0
281
0
282
0
283
1
284
8
285
0
286
0
287
3
288
0
0
ENDTAB
0
TABLE
2
BLOCK_RECORD
5
1
100
AcDbSymbolTable
70
0
0
BLOCK_RECORD
5
1B
100
AcDbSymbolTableRecord
100
AcDbBlockTableRecord
2
*MODEL_SPACE
0
BLOCK_RECORD
5
1C
100
AcDbSymbolTableRecord
100
AcDbBlockTableRecord
2
*PAPER_SPACE
0
ENDTAB
0
ENDSEC
0
SECTION
2
BLOCKS
0
BLOCK
5
1E
100
AcDbEntity
8
0
100
AcDbBlockBegin
2
*MODEL_SPACE
70
0
10
0.0
20
0.0
30
0.0
3
*MODEL_SPACE
1

0
ENDBLK
5
1F
100
AcDbEntity
8
0
100
AcDbBlockEnd
0
BLOCK
5
20
100
AcDbEntity
8
0
100
AcDbBlockBegin
2
*PAPER_SPACE
70
0
10
0.0
20
0.0
30
0.0
3
*PAPER_SPACE
1

0
ENDBLK
5
21
100
AcDbEntity
8
0
100
AcDbBlockEnd
0
ENDSEC
0
SECTION
2
ENTITIES
0
LINE
5
21D
100
AcDbEntity
8
0
100
AcDbLine
62
7
6
CONTINUOUS
10
-11.0075657098
20
25.6199805505
11
-9.4248091066
21
26.4319646479
0
LINE
5
21E
100
AcDbEntity
8
0
100
AcDbLine
62
7
6
CONTINUOUS
10
-9.4248091066
20
26.4319646479
11
-8.8903592279
21
26.6923121145
0
LINE
5
21F
100
AcDbEntity
8
0
100
AcDbLine
62
7
6
CONTINUOUS
10
-11.4561654831
20
23.7729999386
11
-10.4792985380
21
24.2718743473
0
LINE
5
220
100
AcDbEntity
8
0
100
AcDbLine
62
9
6
CONTINUOUS
10
-11.2986420768
20
23.7635666090
11
-10.4792985380
21
24.1819956750
0
LINE
5
221
100
AcDbEntity
8
0
100
AcDbLine
62
7
6
CONTINUOUS
10
-7.7277528318
20
23.7647831625
11
-8.7945837439
21
23.2262019130
0
LINE
5
222
100
AcDbEntity
8
0
100
AcDbLine
62
7
6
CONTINUOUS
10
-9.3290336226
20
24.7807145070
11
-7.7277528318
21
25.5834365105
0
LINE
5
223
100
AcDbEntity
8
0
100
AcDbLine
62
7
6
CONTINUOUS
10
-7.7277528318
20
25.5834365105
11
-7.1994856600
21
25.8468753305
0
LINE
5
224
100
AcDbEntity
8
0
100
AcDbLine
62
7
6
CONTINUOUS
10
-14.3476956151
20
21.6597975242
11
-10.5790040725
21
23.0762316684
0
LINE
5
225
100
AcDbEntity
8
0
100
AcDbLine
62
9
6
CONTINUOUS
10
-14.0019965394
20
21.6314062363
11
-10.3982412646
21
22.9858502644
0
LINE
5
226
100
AcDbEntity
8
0
100
AcDbLine
62
7
6
CONTINUOUS
10
-4.1103367527
20
-24.9143030055
11
-18.5265170432
21
-17.7062128602
0
LINE
5
227
100
AcDbEntity
8
0
100
AcDbLine
62
9
6
CONTINUOUS
10
-4.5021731811
20
-24.0180934164
11
-18.9101507159
21
-16.8141046490
0
LINE
5
228
100
AcDbEntity
8
0
100
AcDbLine
62
7
6
CONTINUOUS
10
-7.1126339968
20
25.1392752035
11
-7.6398787125
21
24.4975674754
0
LINE
5
229
100
AcDbEntity
8
0
100
AcDbLine
62
7
6
CONTINUOUS
10
-5.4987137395
20
23.3629546421
11
-5.0053917242
21
23.6160381740
0
LINE
5
22A
100
AcDbEntity
8
0
100
AcDbLine
62
7
6
CONTINUOUS
10
-6.3073271943
20
23.7541194358
11
0.2007094324
21
26.9952610413
0
LINE
5
22B
100
AcDbEntity
8
0
100
AcDbLine
62
9
6
CONTINUOUS
10
-6.2318340538
20
23.7163728655
11
0.0827062728
21
26.8611491700
0
LINE
5
22C
100
AcDbEntity
8
0
100
AcDbLine
62
7
6
CONTINUOUS
10
1.0757265940
20
25.9814056393
11
-3.6618888400
21
23.6463551247
0
LINE
5
22D
100
AcDbEntity
8
0
100
AcDbLine
62
7
6
CONTINUOUS
10
-5.0053917242
20
23.6160381740
11
0.4722482653
21
26.2843701372
0
LINE
5
22E
100
AcDbEntity
8
0
100
AcDbLine
62
7
6
CONTINUOUS
10
5.7244394519
20
-22.3591957462
11
6.2516841676
21
-22.4674880181
0
LINE
5
22F
100
AcDbEntity
8
0
100
AcDbLine
62
7
6
CONTINUOUS
10
-19.1445417057
20
-16.5345498042
11
-19.1445520460
21
-16.5347542119
0
LINE
5
230
100
AcDbEntity
8
0
100
AcDbLine
62
7
6
CONTINUOUS
10
-15.3898505674
20
20.2730031646
11
-15.3898617098
21
20.2729291884
0
LINE
5
231
100
AcDbEntity
8
0
100
AcDbLine
62
7
6
CONTINUOUS
10
2.4028004224
20
24.5115314057
11
1.0050159159
21
23.8126391525
0
LINE
5
232
100
AcDbEntity
8
0
100
AcDbLine
62
7
6
CONTINUOUS
10
-0.0698894187
20
23.1205993969
11
-0.0083397804
21
23.1513742160
0
LINE
5
233
100
AcDbEntity
8
0
100
AcDbLine
62
9
6
CONTINUOUS
10
0.0150664222
20
23.1126756004
11
0.0811029386
21
23.1456938586
0
LINE
5
234
100
AcDbEntity
8
0
100
AcDbLine
62
7
6
CONTINUOUS
10
0.6514625253
20
24.5419740371
11
1.0757265940
21
24.7495714579
0
LINE
5
235
100
AcDbEntity
8
0
100
AcDbLine
62
7
6
CONTINUOUS
10
3.0617961737
20
25.3716042196
11
1.0050159159
21
24.3651973418
0
LINE
5
236
100
AcDbEntity
8
0
100
AcDbLine
62
7
6
CONTINUOUS
10
2.2466201509
20
-23.4816471323
11
3.9238669265
21
-24.3202705201
0
LINE
5
237
100
AcDbEntity
8
0
100
AcDbLine
62
9
6
CONTINUOUS
10
2.1820266721
20
-23.3466185910
11
3.8585138124
21
-24.1848621611
0
LINE
5
238
100
AcDbEntity
8
0
100
AcDbLine
62
9
6
CONTINUOUS
10
3.8585138124
20
-23.8448882270
11
2.1820266721
21
-23.0066446569
0
LINE
5
239
100
AcDbEntity
8
0
100
AcDbLine
62
9
6
CONTINUOUS
10
3.9474163884
20
-23.6134511674
11
2.2699007914
21
-22.7746933689
0
LINE
5
23A
100
AcDbEntity
8
0
100
AcDbLine
62
7
6
CONTINUOUS
10
1.3309222927
20
-21.3113652192
11
3.9748643969
21
-22.6333362713
0
LINE
5
23B
100
AcDbEntity
8
0
100
AcDbLine
62
7
6
CONTINUOUS
10
4.5697344205
20
-22.8683917499
11
4.1283980608
21
-22.6477235700
0
LINE
5
23C
100
AcDbEntity
8
0
100
AcDbLine
62
7
6
CONTINUOUS
10
1.3627111271
20
-20.9997436979
11
4.2223517703
21
-22.4295640195
0
LINE
5
23D
100
AcDbEntity
8
0
100
AcDbLine
62
7
6
CONTINUOUS
10
-0.0816002755
20
23.1128510220
11
-1.0116250943
21
22.3212232518
0
LINE
5
23E
100
AcDbEntity
8
0
100
AcDbLine
62
9
6
CONTINUOUS
10
0.0150664222
20
23.1126756004
11
-0.9505995198
21
22.2907104646
0
LINE
5
23F
100
AcDbEntity
8
0
100
AcDbLine
62
7
6
CONTINUOUS
10
0.7180522174
20
20.2545716637
11
1.2171479502
21
20.5047683368
0
LINE
5
240
100
AcDbEntity
8
0
100
AcDbLine
62
7
6
CONTINUOUS
10
1.2171479502
20
20.5047683368
11
6.6314206454
21
23.2047839472
0
LINE
5
241
100
AcDbEntity
8
0
100
AcDbLine
62
7
6
CONTINUOUS
10
6.0254740623
20
23.5065319051
11
1.2878586283
21
21.1714813905
0
LINE
5
242
100
AcDbEntity
8
0
100
AcDbLine
62
7
6
CONTINUOUS
10
7.3044368609
20
23.2502838760
11
6.7180580738
21
22.9633618084
0
LINE
5
243
100
AcDbEntity
8
0
100
AcDbLine
62
7
6
CONTINUOUS
10
13.5842670970
20
25.9155385555
11
7.8043676479
21
23.2461894506
0
LINE
5
244
100
AcDbEntity
8
0
100
AcDbLine
62
9
6
CONTINUOUS
10
5.7244394519
20
-22.3591957462
11
5.6810171260
21
-22.3374845832
0
LINE
5
245
100
AcDbEntity
8
0
100
AcDbLine
62
7
6
CONTINUOUS
10
1.4535070273
20
-20.1096841184
11
5.0355245686
21
-21.9006928891
0
LINE
5
246
100
AcDbEntity
8
0
100
AcDbLine
62
9
6
CONTINUOUS
10
5.6365653326
20
-22.1599286006
11
6.2516841676
21
-22.4674880181
0
LINE
5
247
100
AcDbEntity
8
0
100
AcDbLine
62
7
6
CONTINUOUS
10
5.6365653326
20
-22.1563084511
11
6.2531322275
21
-22.4645918985
0
LINE
5
248
100
AcDbEntity
8
0
100
AcDbLine
62
7
6
CONTINUOUS
10
1.6136477353
20
-18.5398470348
11
5.0355245686
21
-20.2507854515
0
LINE
5
249
100
AcDbEntity
8
0
100
AcDbLine
62
7
6
CONTINUOUS
10
2.3567524546
20
18.9378214683
11
3.9395090578
21
19.7498055657
0
LINE
5
24A
100
AcDbEntity
8
0
100
AcDbLine
62
7
6
CONTINUOUS
10
0.7180522174
20
19.0403681909
11
1.2171479502
21
19.2923327715
0
LINE
5
24B
100
AcDbEntity
8
0
100
AcDbLine
62
7
6
CONTINUOUS
10
1.2171479502
20
19.2923327715
11
6.6314206454
21
21.9729453688
0
LINE
5
24C
100
AcDbEntity
8
0
100
AcDbLine
62
7
6
CONTINUOUS
10
3.9395090578
20
19.7498055657
11
4.4739589365
21
20.0101530322
0
LINE
5
24D
100
AcDbEntity
8
0
100
AcDbLine
62
7
6
CONTINUOUS
10
15.0566530239
20
25.3593615983
11
11.4835793254
21
23.6539282814
0
LINE
5
24E
100
AcDbEntity
8
0
100
AcDbLine
62
9
6
CONTINUOUS
10
14.0158865221
20
25.8797448492
11
8.0975674548
21
23.1464689776
0
LINE
5
24F
100
AcDbEntity
8
0
100
AcDbLine
62
7
6
CONTINUOUS
10
-11.5461294502
20
23.5841898625
11
-11.5461294502
21
23.5597943572
0
LINE
5
250
100
AcDbEntity
8
0
100
AcDbLine
62
7
6
CONTINUOUS
10
-11.1822914923
20
24.9751185647
11
-11.1822914923
21
25.3150924989
0
LINE
5
251
100
AcDbEntity
8
0
100
AcDbLine
62
9
6
CONTINUOUS
10
6.2048877792
20
18.4001603980
11
11.4736176068
21
21.2427610136
0
LINE
5
252
100
AcDbEntity
8
0
100
AcDbLine
62
9
6
CONTINUOUS
10
5.8382676259
20
17.9539482719
11
11.3894660392
21
20.9489471697
0
LINE
5
253
100
AcDbEntity
8
0
100
AcDbLine
62
7
6
CONTINUOUS
10
11.5652199877
20
21.3263169293
11
12.1975080539
21
21.6597349290
0
LINE
5
254
100
AcDbEntity
8
0
100
AcDbLine
62
9
6
CONTINUOUS
10
12.1973802719
20
21.6596675421
11
12.1975080539
21
21.6597349290
0
LINE
5
255
100
AcDbEntity
8
0
100
AcDbLine
62
9
6
CONTINUOUS
10
5.7093531737
20
17.7957234866
11
11.3894660392
21
20.7366880156
0
LINE
5
256
100
AcDbEntity
8
0
100
AcDbLine
62
7
6
CONTINUOUS
10
5.7800468493
20
17.7104324139
11
11.4716757516
21
20.6573595455
0
LINE
5
257
100
AcDbEntity
8
0
100
AcDbLine
62
7
6
CONTINUOUS
10
11.8775652592
20
22.6317724634
11
16.0939450370
21
24.7770820801
0
LINE
5
258
100
AcDbEntity
8
0
100
AcDbLine
62
7
6
CONTINUOUS
10
11.8775652592
20
22.2215534205
11
16.1000020238
21
24.3395936129
0
LINE
5
259
100
AcDbEntity
8
0
100
AcDbLine
62
7
6
CONTINUOUS
10
4.0352845418
20
18.0985554247
11
5.6365653326
21
18.9012774282
0
LINE
5
25A
100
AcDbEntity
8
0
100
AcDbLine
62
7
6
CONTINUOUS
10
12.3257954827
20
21.4366431977
11
12.8207702295
21
21.6841305711
0
LINE
5
25B
100
AcDbEntity
8
0
100
AcDbLine
62
7
6
CONTINUOUS
10
5.6365653326
20
18.9012774282
11
6.1648325044
21
19.1647162483
0
LINE
5
25C
100
AcDbEntity
8
0
100
AcDbLine
62
9
6
CONTINUOUS
10
5.5999898822
20
19.5091149302
11
10.2835267618
21
21.7607389255
0
LINE
5
25D
100
AcDbEntity
8
0
100
AcDbLine
62
9
6
CONTINUOUS
10
5.8276053821
20
19.3953071803
11
10.7253676297
21
21.7499206452
0
LINE
5
25E
100
AcDbEntity
8
0
100
AcDbLine
62
7
6
CONTINUOUS
10
4.2223517703
20
15.6755537470
11
5.0355245686
21
15.9598554149
0
LINE
5
25F
100
AcDbEntity
8
0
100
AcDbLine
62
9
6
CONTINUOUS
10
4.1555403134
20
15.7089594754
11
0.4229192490
21
14.4189483421
0
LINE
5
260
100
AcDbEntity
8
0
100
AcDbLine
62
7
6
CONTINUOUS
10
-10.7329566518
20
23.1532079581
11
-10.7329566518
21
23.0183697617
0
LINE
5
261
100
AcDbEntity
8
0
100
AcDbLine
62
7
6
CONTINUOUS
10
-10.4792985380
20
24.0685593101
11
-10.4792985380
21
24.5208902857
0
LINE
5
262
100
AcDbEntity
8
0
100
AcDbLine
62
7
6
CONTINUOUS
10
-9.5058043520
20
24.4768489287
11
-9.5058043520
21
24.1368749946
0
LINE
5
263
100
AcDbEntity
8
0
100
AcDbLine
62
9
6
CONTINUOUS
10
5.7426313498
20
17.0295910717
11
3.9748643969
21
16.1268133722
0
LINE
5
264
100
AcDbEntity
8
0
100
AcDbLine
62
9
6
CONTINUOUS
10
5.9901187232
20
16.6027269518
11
4.2223517703
21
15.6999492523
0
LINE
5
265
100
AcDbEntity
8
0
100
AcDbLine
62
7
6
CONTINUOUS
10
5.6365653326
20
17.0826240803
11
4.5697344205
21
16.5440428308
0
LINE
5
266
100
AcDbEntity
8
0
100
AcDbLine
62
7
6
CONTINUOUS
10
15.2889481420
20
21.8646304234
11
13.9774838310
21
21.2088982679
0
LINE
5
267
100
AcDbEntity
8
0
100
AcDbLine
62
7
6
CONTINUOUS
10
16.1374788497
20
21.4403676398
11
15.3156950240
21
21.0294757270
0
LINE
5
268
100
AcDbEntity
8
0
100
AcDbLine
62
9
6
CONTINUOUS
10
6.4497381310
20
17.3755867731
11
5.7426313498
21
17.0295910717
0
LINE
5
269
100
AcDbEntity
8
0
100
AcDbLine
62
9
6
CONTINUOUS
10
6.6972255044
20
16.9487226532
11
5.9901187232
21
16.6027269518
0
LINE
5
26A
100
AcDbEntity
8
0
100
AcDbLine
62
7
6
CONTINUOUS
10
6.3896031101
20
17.4056542836
11
12.0554676790
21
20.1578428278
0
LINE
5
26B
100
AcDbEntity
8
0
100
AcDbLine
62
7
6
CONTINUOUS
10
20.5423506744
20
22.6165127730
11
12.8081617629
21
18.8596375668
0
LINE
5
26C
100
AcDbEntity
8
0
100
AcDbLine
62
7
6
CONTINUOUS
10
19.7171042067
20
23.0291360069
11
16.1536733701
21
21.3188812591
0
LINE
5
26D
100
AcDbEntity
8
0
100
AcDbLine
62
9
6
CONTINUOUS
10
5.0177911315
20
14.8304971413
11
0.9146929985
21
13.4124474166
0
LINE
5
26E
100
AcDbEntity
8
0
100
AcDbLine
62
7
6
CONTINUOUS
10
-8.7945837439
20
23.2262019130
11
-8.7945837439
21
23.8633714717
0
LINE
5
26F
100
AcDbEntity
8
0
100
AcDbLine
62
7
6
CONTINUOUS
10
-7.7277528318
20
23.7647831625
11
-7.7277528318
21
25.5834365105
0
LINE
5
270
100
AcDbEntity
8
0
100
AcDbLine
62
7
6
CONTINUOUS
10
-7.0247598775
20
25.7187580082
11
-7.0247598775
21
25.3712264915
0
LINE
5
271
100
AcDbEntity
8
0
100
AcDbLine
62
9
6
CONTINUOUS
10
20.8852482503
20
22.0251019375
11
6.6972255044
21
14.8069058185
0
LINE
5
272
100
AcDbEntity
8
0
100
AcDbLine
62
9
6
CONTINUOUS
10
21.2993987260
20
20.5934683628
11
6.6972255044
21
13.1645720350
0
LINE
5
273
100
AcDbEntity
8
0
100
AcDbLine
62
7
6
CONTINUOUS
10
-5.5853511678
20
23.2564477002
11
-5.5853511678
21
22.0417143140
0
LINE
5
274
100
AcDbEntity
8
0
100
AcDbLine
62
9
6
CONTINUOUS
10
-5.4974832022
20
23.1499387434
11
-5.4974832022
21
21.9349838773
0
LINE
5
275
100
AcDbEntity
8
0
100
AcDbLine
62
7
6
CONTINUOUS
10
6.2516841676
20
18.4571161213
11
5.7244394519
21
17.8154083932
0
LINE
5
276
100
AcDbEntity
8
0
100
AcDbLine
62
7
6
CONTINUOUS
10
3.1227387791
20
-3.7464374562
11
3.3031129547
21
-3.8366245440
0
LINE
5
277
100
AcDbEntity
8
0
100
AcDbLine
62
7
6
CONTINUOUS
10
2.3717668688
20
-11.1081106274
11
3.0298995523
21
-17.2424200829
0
LINE
5
278
100
AcDbEntity
8
0
100
AcDbLine
62
9
6
CONTINUOUS
10
0.2950258658
20
19.0387293433
11
0.2950258658
21
20.2536842094
0
LINE
5
279
100
AcDbEntity
8
0
100
AcDbLine
62
7
6
CONTINUOUS
10
0.6514625253
20
23.2926792039
11
0.6514625253
21
24.5419740371
0
LINE
5
27A
100
AcDbEntity
8
0
100
AcDbLine
62
9
6
CONTINUOUS
10
0.7180522174
20
19.0403681909
11
0.7180522174
21
20.2545716637
0
LINE
5
27B
100
AcDbEntity
8
0
100
AcDbLine
62
7
6
CONTINUOUS
10
1.0050159159
20
23.8126391525
11
1.0050159159
21
24.3651973418
0
LINE
5
27C
100
AcDbEntity
8
0
100
AcDbLine
62
9
6
CONTINUOUS
10
1.0757265940
20
25.9814056393
11
1.0757265940
21
24.7495714579
0
LINE
5
27D
100
AcDbEntity
8
0
100
AcDbLine
62
7
6
CONTINUOUS
10
1.1635945596
20
26.0864028533
11
1.1635945596
21
24.8540342484
0
LINE
5
27E
100
AcDbEntity
8
0
100
AcDbLine
62
7
6
CONTINUOUS
10
1.2171479502
20
20.5047683368
11
1.2171479502
21
19.2923327715
0
LINE
5
27F
100
AcDbEntity
8
0
100
AcDbLine
62
7
6
CONTINUOUS
10
2.1820266721
20
-23.3466185910
11
2.1820266721
21
-23.0066446569
0
LINE
5
280
100
AcDbEntity
8
0
100
AcDbLine
62
7
6
CONTINUOUS
10
2.1820266721
20
18.2929594825
11
2.1820266721
21
18.6329334166
0
LINE
5
281
100
AcDbEntity
8
0
100
AcDbLine
62
7
6
CONTINUOUS
10
21.5800589256
20
14.7610965404
11
22.4952357128
21
15.3530251596
0
LINE
5
282
100
AcDbEntity
8
0
100
AcDbLine
62
7
6
CONTINUOUS
10
3.3031129547
20
-3.8366245440
11
5.0355245686
21
-20.2507854515
0
LINE
5
283
100
AcDbEntity
8
0
100
AcDbLine
62
7
6
CONTINUOUS
10
2.8850196264
20
17.3864002278
11
2.8850196264
21
17.8387312035
0
LINE
5
284
100
AcDbEntity
8
0
100
AcDbLine
62
7
6
CONTINUOUS
10
3.7627323625
20
24.8560798858
11
3.7627323625
21
24.5852795931
0
LINE
5
285
100
AcDbEntity
8
0
100
AcDbLine
62
7
6
CONTINUOUS
10
3.8585138124
20
17.7946898465
11
3.8585138124
21
17.4547159124
0
LINE
5
286
100
AcDbEntity
8
0
100
AcDbLine
62
7
6
CONTINUOUS
10
3.8585138124
20
-23.8448882270
11
3.8585138124
21
-24.1848621611
0
LINE
5
287
100
AcDbEntity
8
0
100
AcDbLine
62
7
6
CONTINUOUS
10
4.2223517703
20
15.6999492523
11
4.2223517703
21
15.6755537470
0
LINE
5
288
100
AcDbEntity
8
0
100
AcDbLine
62
7
6
CONTINUOUS
10
4.2223517703
20
-22.4295640195
11
4.2223517703
21
-22.4539595248
0
LINE
5
289
100
AcDbEntity
8
0
100
AcDbLine
62
7
6
CONTINUOUS
10
4.5697344205
20
-22.8683917499
11
4.5697344205
21
-22.4287922042
0
LINE
5
28A
100
AcDbEntity
8
0
100
AcDbLine
62
7
6
CONTINUOUS
10
4.5697344205
20
16.5440428308
11
4.5697344205
21
17.1812123895
0
LINE
5
28B
100
AcDbEntity
8
0
100
AcDbLine
62
7
6
CONTINUOUS
10
5.0355245686
20
14.3099479774
11
3.3031129547
21
-3.8366245440
0
LINE
5
28C
100
AcDbEntity
8
0
100
AcDbLine
62
7
6
CONTINUOUS
10
1.1321089076
20
-23.2603051775
11
5.0177911315
21
14.8304971413
0
LINE
5
28D
100
AcDbEntity
8
0
100
AcDbLine
62
7
6
CONTINUOUS
10
5.0355245686
20
15.9598554149
11
5.0355245686
21
14.3099479774
0
LINE
5
28E
100
AcDbEntity
8
0
100
AcDbLine
62
7
6
CONTINUOUS
10
5.0355245686
20
-20.2507854515
11
5.0355245686
21
-21.9006928891
0
LINE
5
28F
100
AcDbEntity
8
0
100
AcDbLine
62
7
6
CONTINUOUS
10
5.6365653326
20
-21.9067792360
11
5.6365653326
21
-23.5339673572
0
LINE
5
290
100
AcDbEntity
8
0
100
AcDbLine
62
7
6
CONTINUOUS
10
5.6365653326
20
17.0826240803
11
5.6365653326
21
18.9012774282
0
LINE
5
291
100
AcDbEntity
8
0
100
AcDbLine
62
7
6
CONTINUOUS
10
6.3395582869
20
19.0365989260
11
6.3395582869
21
18.6890674093
0
LINE
5
292
100
AcDbEntity
8
0
100
AcDbLine
62
7
6
CONTINUOUS
10
6.3395582869
20
-22.6105367301
11
6.3395582869
21
-22.9580682469
0
LINE
5
293
100
AcDbEntity
8
0
100
AcDbLine
62
9
6
CONTINUOUS
10
6.6314206454
20
23.2047839472
11
6.6314206454
21
21.9729453688
0
LINE
5
294
100
AcDbEntity
8
0
100
AcDbLine
62
7
6
CONTINUOUS
10
6.6972255044
20
-21.2278591915
11
6.6972255044
21
16.9487226532
0
LINE
5
295
100
AcDbEntity
8
0
100
AcDbLine
62
7
6
CONTINUOUS
10
6.7180580738
20
23.3091713225
11
6.7180580738
21
22.0768028308
0
LINE
5
296
100
AcDbEntity
8
0
100
AcDbLine
62
7
6
CONTINUOUS
10
11.4736176068
20
21.2427610136
11
11.4736640775
21
21.2366236755
0
LINE
5
297
100
AcDbEntity
8
0
100
AcDbLine
62
9
6
CONTINUOUS
10
11.3894660392
20
20.9489471697
11
11.3894660392
21
20.7366880156
0
LINE
5
298
100
AcDbEntity
8
0
100
AcDbLine
62
9
6
CONTINUOUS
10
11.3894660392
20
-16.0052785548
11
11.3894660392
21
-16.1950482589
0
LINE
5
299
100
AcDbEntity
8
0
100
AcDbLine
62
7
6
CONTINUOUS
10
11.4736640991
20
21.2365680480
11
11.4736640991
21
20.6606048585
0
LINE
5
29A
100
AcDbEntity
8
0
100
AcDbLine
62
7
6
CONTINUOUS
10
11.4736640991
20
-15.9607532338
11
11.4736640991
21
-16.2742716260
0
LINE
5
29B
100
AcDbEntity
8
0
100
AcDbLine
62
9
6
CONTINUOUS
10
11.8775652592
20
22.2215534205
11
11.8775652592
21
22.6317724634
0
LINE
5
29C
100
AcDbEntity
8
0
100
AcDbLine
62
7
6
CONTINUOUS
10
12.5602754572
20
22.5640115127
11
12.5602754572
21
22.1309988108
0
LINE
5
29D
100
AcDbEntity
8
0
100
AcDbLine
62
7
6
CONTINUOUS
10
11.4736176068
20
-16.2751831888
11
11.4736640775
21
-16.2744412339
0
LINE
5
29E
100
AcDbEntity
8
0
100
AcDbLine
62
9
6
CONTINUOUS
10
-0.7453915536
20
12.8091142863
11
-15.1533690884
21
20.0131030538
0
LINE
5
29F
100
AcDbEntity
8
0
100
AcDbLine
62
9
6
CONTINUOUS
10
0.4229192490
20
14.4189483421
11
-14.0019965394
21
21.6314062363
0
LINE
5
2A0
100
AcDbEntity
8
0
100
AcDbLine
62
7
6
CONTINUOUS
10
13.5277391696
20
21.3306461010
11
13.5277391696
21
20.8783214606
0
LINE
5
2A1
100
AcDbEntity
8
0
100
AcDbLine
62
7
6
CONTINUOUS
10
13.9774838310
20
21.2088982679
11
13.9774838310
21
20.8692736781
0
LINE
5
2A2
100
AcDbEntity
8
0
100
AcDbLine
62
7
6
CONTINUOUS
10
14.0157806897
20
22.5045889468
11
14.0157806897
21
22.0608356509
0
LINE
5
2A3
100
AcDbEntity
8
0
100
AcDbLine
62
7
6
CONTINUOUS
10
4.9681270187
20
14.3436467523
11
5.0355245686
21
14.3099479774
0
LINE
5
2A4
100
AcDbEntity
8
0
100
AcDbLine
62
7
6
CONTINUOUS
10
16.1000020238
20
24.6665596606
11
16.1000020238
21
24.3395936129
0
LINE
5
2A5
100
AcDbEntity
8
0
100
AcDbLine
62
7
6
CONTINUOUS
10
2.2699007914
20
-22.7746933689
11
2.8486911316
21
-22.0702496387
0
LINE
5
2A6
100
AcDbEntity
8
0
100
AcDbLine
62
7
6
CONTINUOUS
10
-11.5461294502
20
23.5597943572
11
4.2223517703
21
15.6755537470
0
LINE
5
2A7
100
AcDbEntity
8
0
100
AcDbLine
62
7
6
CONTINUOUS
10
3.9748643969
20
16.1268133722
11
-11.2986420768
21
23.7635666090
0
LINE
5
2A8
100
AcDbEntity
8
0
100
AcDbLine
62
7
6
CONTINUOUS
10
4.5697344205
20
16.5440428308
11
2.8850196264
21
17.3864002278
0
LINE
5
2A9
100
AcDbEntity
8
0
100
AcDbLine
62
7
6
CONTINUOUS
10
-8.7945837439
20
23.2262019130
11
-10.4792985380
21
24.0685593101
0
LINE
5
2AA
100
AcDbEntity
8
0
100
AcDbLine
62
7
6
CONTINUOUS
10
-5.4974832022
20
21.9349838773
11
0.2950258658
21
19.0387293433
0
LINE
5
2AB
100
AcDbEntity
8
0
100
AcDbLine
62
7
6
CONTINUOUS
10
-11.1176967463
20
24.8400893899
11
-9.4404525052
21
24.0014672693
0
LINE
5
2AC
100
AcDbEntity
8
0
100
AcDbLine
62
7
6
CONTINUOUS
10
2.2466214181
20
18.1579303076
11
3.9238656593
21
17.3193081871
0
LINE
5
2AD
100
AcDbEntity
8
0
100
AcDbLine
62
9
6
CONTINUOUS
10
-11.1822914923
20
24.9751185647
11
-9.5058043520
21
24.1368749946
0
LINE
5
2AE
100
AcDbEntity
8
0
100
AcDbLine
62
9
6
CONTINUOUS
10
2.1820266721
20
18.2929594825
11
3.8585138124
21
17.4547159124
0
LINE
5
2AF
100
AcDbEntity
8
0
100
AcDbLine
62
9
6
CONTINUOUS
10
3.8585138124
20
17.7946898465
11
2.1820266721
21
18.6329334166
0
LINE
5
2B0
100
AcDbEntity
8
0
100
AcDbLine
62
9
6
CONTINUOUS
10
-9.5058043520
20
24.4768489287
11
-11.1822914923
21
25.3150924989
0
LINE
5
2B1
100
AcDbEntity
8
0
100
AcDbLine
62
7
6
CONTINUOUS
10
3.9474163884
20
-23.6134511674
11
4.5697344205
21
-22.8683917499
0
LINE
5
2B2
100
AcDbEntity
8
0
100
AcDbLine
62
9
6
CONTINUOUS
10
3.0298995523
20
-17.2424200829
11
1.6825218406
21
-17.8646837607
0
LINE
5
2B3
100
AcDbEntity
8
0
100
AcDbLine
62
7
6
CONTINUOUS
10
2.8290459664
20
-17.7561891396
11
1.6374509742
21
-18.3065071951
0
LINE
5
2B4
100
AcDbEntity
8
0
100
AcDbLine
62
7
6
CONTINUOUS
10
4.5697344205
20
17.1812123895
11
3.9474163884
21
17.3111529720
0
LINE
5
2B5
100
AcDbEntity
8
0
100
AcDbLine
62
7
6
CONTINUOUS
10
-7.7277528318
20
23.7647831625
11
-5.5853511678
21
22.6935823305
0
LINE
5
2B6
100
AcDbEntity
8
0
100
AcDbLine
62
7
6
CONTINUOUS
10
1.2171479502
20
19.2923327715
11
2.2217363105
21
18.7900385914
0
LINE
5
2B7
100
AcDbEntity
8
0
100
AcDbLine
62
7
6
CONTINUOUS
10
5.6365653326
20
17.0826240803
11
5.7426313498
21
17.0295910717
0
LINE
5
2B8
100
AcDbEntity
8
0
100
AcDbLine
62
9
6
CONTINUOUS
10
4.0352845418
20
18.0985554247
11
2.3567524546
21
18.9378214683
0
LINE
5
2B9
100
AcDbEntity
8
0
100
AcDbLine
62
9
6
CONTINUOUS
10
-9.3290336226
20
24.7807145070
11
-11.0075657098
21
25.6199805505
0
LINE
5
2BA
100
AcDbEntity
8
0
100
AcDbLine
62
7
6
CONTINUOUS
10
-5.4974832022
20
23.1499387434
11
0.2950258658
21
20.2536842094
0
LINE
5
2BB
100
AcDbEntity
8
0
100
AcDbLine
62
7
6
CONTINUOUS
10
6.4497381310
20
17.3755867731
11
5.6853614462
21
17.7577751155
0
LINE
5
2BC
100
AcDbEntity
8
0
100
AcDbLine
62
7
6
CONTINUOUS
10
-6.2318340538
20
23.7163728655
11
-7.6789567182
21
24.4399341977
0
LINE
5
2BD
100
AcDbEntity
8
0
100
AcDbLine
62
7
6
CONTINUOUS
10
-5.0053917242
20
23.6160381740
11
1.2171479502
21
20.5047683368
0
LINE
5
2BE
100
AcDbEntity
8
0
100
AcDbLine
62
7
6
CONTINUOUS
10
-9.4248091066
20
26.4319646479
11
-7.7277528318
21
25.5834365105
0
LINE
5
2BF
100
AcDbEntity
8
0
100
AcDbLine
62
7
6
CONTINUOUS
10
3.9395090578
20
19.7498055657
11
5.6365653326
21
18.9012774282
0
LINE
5
2C0
100
AcDbEntity
8
0
100
AcDbLine
62
7
6
CONTINUOUS
10
-3.6618888400
20
23.6463551247
11
1.2878586283
21
21.1714813905
0
LINE
5
2C1
100
AcDbEntity
8
0
100
AcDbLine
62
9
6
CONTINUOUS
10
-8.8903592279
20
26.6923121145
11
-7.1994856600
21
25.8468753305
0
LINE
5
2C2
100
AcDbEntity
8
0
100
AcDbLine
62
9
6
CONTINUOUS
10
4.4739589365
20
20.0101530322
11
6.1648325044
21
19.1647162483
0
LINE
5
2C3
100
AcDbEntity
8
0
100
AcDbLine
62
7
6
CONTINUOUS
10
-8.7789416126
20
26.6985806777
11
-7.0893533563
21
25.8537865495
0
LINE
5
2C4
100
AcDbEntity
8
0
100
AcDbLine
62
7
6
CONTINUOUS
10
4.5853765518
20
20.0164215954
11
6.2749648081
21
19.1716274673
0
LINE
5
2C5
100
AcDbEntity
8
0
100
AcDbLine
62
9
6
CONTINUOUS
10
11.8775652592
20
22.6317724634
11
11.4835793254
21
23.6539282814
0
LINE
5
2C6
100
AcDbEntity
8
0
100
AcDbLine
62
7
6
CONTINUOUS
10
13.0222695874
20
21.0884061453
11
12.8207702295
21
21.6841305711
0
LINE
5
2C7
100
AcDbEntity
8
0
100
AcDbLine
62
9
6
CONTINUOUS
10
21.2993987260
20
-9.7516118830
11
21.2993987260
21
15.0136013892
0
LINE
5
2C8
100
AcDbEntity
8
0
100
AcDbLine
62
9
6
CONTINUOUS
10
21.2993987260
20
16.7860698622
11
21.2993987260
21
20.5934683628
0
LINE
5
2C9
100
AcDbEntity
8
0
100
AcDbLine
62
7
6
CONTINUOUS
10
21.5800589256
20
-9.4042826978
11
21.5800585423
21
14.7734049698
0
LINE
5
2CA
100
AcDbEntity
8
0
100
AcDbLine
62
7
6
CONTINUOUS
10
21.5800589256
20
20.9407975481
11
21.5800585283
21
17.7200227094
0
LINE
5
2CB
100
AcDbEntity
8
0
100
AcDbLine
62
7
6
CONTINUOUS
10
12.8081617629
20
-15.1075747399
11
12.0554676790
21
-15.6530859170
0
LINE
5
2CC
100
AcDbEntity
8
0
100
AcDbLine
62
7
6
CONTINUOUS
10
20.5423506744
20
-11.0176082416
11
12.8081617629
21
-15.1075747399
0
LINE
5
2CD
100
AcDbEntity
8
0
100
AcDbLine
62
7
6
CONTINUOUS
10
6.6972255044
20
-18.4866126429
11
12.0554676790
21
-15.6530859170
0
LINE
5
2CE
100
AcDbEntity
8
0
100
AcDbLine
62
9
6
CONTINUOUS
10
6.6972255044
20
-17.4437085734
11
21.2993987260
21
-9.7516118830
0
LINE
5
2CF
100
AcDbEntity
8
0
100
AcDbLine
62
9
6
CONTINUOUS
10
6.6972255044
20
-18.2430265093
11
20.8852482503
21
-10.7690949820
0
LINE
5
2D0
100
AcDbEntity
8
0
100
AcDbLine
62
9
6
CONTINUOUS
10
6.6972255044
20
-18.7602391866
11
10.7253676297
21
-16.7383360030
0
LINE
5
2D1
100
AcDbEntity
8
0
100
AcDbLine
62
7
6
CONTINUOUS
10
6.6972255044
20
-18.7619072674
11
10.6749885755
21
-16.7652915655
0
LINE
5
2D2
100
AcDbEntity
8
0
100
AcDbLine
62
9
6
CONTINUOUS
10
6.6972255044
20
-18.5224341558
11
11.3894660392
21
-16.1950482589
0
LINE
5
2D3
100
AcDbEntity
8
0
100
AcDbLine
62
9
6
CONTINUOUS
10
6.6972255044
20
-18.6443088836
11
11.4736176068
21
-16.2751831888
0
LINE
5
2D4
100
AcDbEntity
8
0
100
AcDbLine
62
7
6
CONTINUOUS
10
-8.7945837439
20
23.8633714717
11
-9.4169017760
21
23.9933120542
0
LINE
5
2D5
100
AcDbEntity
8
0
100
AcDbLine
62
7
6
CONTINUOUS
10
2.6020206087
20
21.8191985071
11
0.0150664222
21
23.1126756004
0
LINE
5
2D6
100
AcDbEntity
8
0
100
AcDbLine
62
9
6
CONTINUOUS
10
3.2429838035
20
22.1351130128
11
1.1500715725
21
23.1815691283
0
LINE
5
2D7
100
AcDbEntity
8
0
100
AcDbLine
62
7
6
CONTINUOUS
10
3.2937472280
20
22.1601330175
11
1.2343204451
21
23.1898464090
0
LINE
5
2D8
100
AcDbEntity
8
0
100
AcDbLine
62
7
6
CONTINUOUS
10
3.8055343731
20
22.4123799238
11
1.0050159159
21
23.8126391525
0
LINE
5
2D9
100
AcDbEntity
8
0
100
AcDbLine
62
7
6
CONTINUOUS
10
12.8081617629
20
18.8596375668
11
12.0554676790
21
20.1578428278
0
LINE
5
2DA
100
AcDbEntity
8
0
100
AcDbLine
62
9
6
CONTINUOUS
10
20.5423506744
20
-11.0176082416
11
20.8852482503
21
-10.7690949820
0
LINE
5
2DB
100
AcDbEntity
8
0
100
AcDbLine
62
7
6
CONTINUOUS
10
20.6186999706
20
-10.9699548293
11
20.9598158444
21
-10.7227328492
0
LINE
5
2DC
100
AcDbEntity
8
0
100
AcDbLine
62
7
6
CONTINUOUS
10
5.0355245686
20
-21.9006928891
11
4.2223517703
21
-22.4295640195
0
LINE
5
2DD
100
AcDbEntity
8
0
100
AcDbLine
62
9
6
CONTINUOUS
10
5.9901187232
20
-21.5889702713
11
6.6972255044
21
-21.2278591915
0
LINE
5
2DE
100
AcDbEntity
8
0
100
AcDbLine
62
7
6
CONTINUOUS
10
5.9001547551
20
-21.7777803479
11
6.6072615373
21
-21.4166692676
0
LINE
5
2DF
100
AcDbEntity
8
0
100
AcDbLine
62
7
6
CONTINUOUS
10
5.9001499492
20
-21.7777828028
11
5.8981423522
21
-21.7787865102
0
LINE
5
2E0
100
AcDbEntity
8
0
100
AcDbLine
62
9
6
CONTINUOUS
10
4.2223517703
20
-22.4539595248
11
5.9901187232
21
-21.5889702713
0
LINE
5
2E1
100
AcDbEntity
8
0
100
AcDbLine
62
7
6
CONTINUOUS
10
4.1303708513
20
-22.6437779890
11
5.8981378056
21
-21.7787887349
0
LINE
5
2E2
100
AcDbEntity
8
0
100
AcDbLine
62
7
6
CONTINUOUS
10
13.9774838310
20
21.2088982679
11
13.5277391696
21
21.3306461010
0
LINE
5
2E3
100
AcDbEntity
8
0
100
AcDbLine
62
7
6
CONTINUOUS
10
0.6514625253
20
24.5419740371
11
1.0050159159
21
24.3651973418
0
LINE
5
2E4
100
AcDbEntity
8
0
100
AcDbLine
62
7
6
CONTINUOUS
10
5.2133500694
20
23.1062565822
11
2.4028004224
21
24.5115314057
0
LINE
5
2E5
100
AcDbEntity
8
0
100
AcDbLine
62
7
6
CONTINUOUS
10
11.2676790313
20
20.5517371516
11
12.0554676790
21
20.1578428278
0
LINE
5
2E6
100
AcDbEntity
8
0
100
AcDbLine
62
7
6
CONTINUOUS
10
3.7627323625
20
24.5852795931
11
5.9724732507
21
23.4804091490
0
LINE
5
2E7
100
AcDbEntity
8
0
100
AcDbLine
62
7
6
CONTINUOUS
10
6.7180580738
20
23.1076167375
11
6.8638714838
21
23.0347100325
0
LINE
5
2E8
100
AcDbEntity
8
0
100
AcDbLine
62
7
6
CONTINUOUS
10
0.8952746169
20
26.2822521457
11
1.0757265940
21
26.1920261571
0
LINE
5
2E9
100
AcDbEntity
8
0
100
AcDbLine
62
7
6
CONTINUOUS
10
6.4497381310
20
23.5050203886
11
6.6301901081
21
23.4147944000
0
LINE
5
2EA
100
AcDbEntity
8
0
100
AcDbLine
62
9
6
CONTINUOUS
10
0.0827062728
20
26.8611491700
11
3.0617961737
21
25.3716042196
0
LINE
5
2EB
100
AcDbEntity
8
0
100
AcDbLine
62
9
6
CONTINUOUS
10
7.3044368609
20
23.2502838760
11
10.2835267618
21
21.7607389255
0
LINE
5
2EC
100
AcDbEntity
8
0
100
AcDbLine
62
7
6
CONTINUOUS
10
0.2763492847
20
27.0101986323
11
3.5028391768
21
25.3969536862
0
LINE
5
2ED
100
AcDbEntity
8
0
100
AcDbLine
62
7
6
CONTINUOUS
10
7.7454798639
20
23.2756333426
11
10.9719697561
21
21.6623883965
0
LINE
5
2EE
100
AcDbEntity
8
0
100
AcDbLine
62
7
6
CONTINUOUS
10
13.0327644228
20
21.0831587276
11
13.2301550900
21
20.9008651367
0
LINE
5
2EF
100
AcDbEntity
8
0
100
AcDbLine
62
7
6
CONTINUOUS
10
5.6365653326
20
-23.5339673572
11
6.1648325044
21
-23.2629562985
0
LINE
5
2F0
100
AcDbEntity
8
0
100
AcDbLine
62
7
6
CONTINUOUS
10
4.0352845418
20
-24.3140019568
11
5.6365653326
21
-23.5339673572
0
LINE
5
2F1
100
AcDbEntity
8
0
100
AcDbLine
62
9
6
CONTINUOUS
10
-2.9524993787
20
-24.4971015076
11
1.1321089076
21
-23.2603051775
0
LINE
5
2F2
100
AcDbEntity
8
0
100
AcDbLine
62
7
6
CONTINUOUS
10
0.8119236686
20
-23.7387131568
11
-3.2769235140
21
-24.9767926732
0
LINE
5
2F3
100
AcDbEntity
8
0
100
AcDbLine
62
7
6
CONTINUOUS
10
2.4028004224
20
24.5115314057
11
3.7627323625
21
24.5852795931
0
LINE
5
2F4
100
AcDbEntity
8
0
100
AcDbLine
62
7
6
CONTINUOUS
10
13.0327644228
20
21.0831587276
11
12.3257954827
21
21.4366431977
0
LINE
5
2F5
100
AcDbEntity
8
0
100
AcDbLine
62
7
6
CONTINUOUS
10
13.5277391696
20
21.3306461010
11
12.8207702295
21
21.6841305711
0
LINE
5
2F6
100
AcDbEntity
8
0
100
AcDbLine
62
7
6
CONTINUOUS
10
12.1279612064
20
22.3471559362
11
12.5602754572
21
22.1309988108
0
LINE
5
2F7
100
AcDbEntity
8
0
100
AcDbLine
62
7
6
CONTINUOUS
10
16.1197015518
20
22.2622832804
11
16.7512328728
21
21.9465176198
0
LINE
5
2F8
100
AcDbEntity
8
0
100
AcDbLine
62
7
6
CONTINUOUS
10
16.3032393928
20
22.1861742124
11
16.6073587768
21
22.0341145204
0
LINE
5
2F9
100
AcDbEntity
8
0
100
AcDbLine
62
9
6
CONTINUOUS
10
20.8852482503
20
22.0251019375
11
20.5423506744
21
22.6165127730
0
LINE
5
2FA
100
AcDbEntity
8
0
100
AcDbLine
62
7
6
CONTINUOUS
10
16.1000020238
20
24.3395936129
11
19.2088175946
21
22.7851858275
0
LINE
5
2FB
100
AcDbEntity
8
0
100
AcDbLine
62
9
6
CONTINUOUS
10
20.5423506744
20
22.6165127730
11
19.7171042067
21
23.0291360069
0
LINE
5
2FC
100
AcDbEntity
8
0
100
AcDbLine
62
9
6
CONTINUOUS
10
15.0566530239
20
25.3593615983
11
14.0158865221
21
25.8797448492
0
LINE
5
2FD
100
AcDbEntity
8
0
100
AcDbLine
62
7
6
CONTINUOUS
10
20.9111427474
20
22.6719165064
11
20.0635951392
21
23.0956903105
0
LINE
5
2FE
100
AcDbEntity
8
0
100
AcDbLine
62
7
6
CONTINUOUS
10
15.5799078525
20
25.3375339539
11
14.4507594026
21
25.9021081788
0
LINE
5
2FF
100
AcDbEntity
8
0
100
AcDbLine
62
7
6
CONTINUOUS
10
21.2380914991
20
22.1582002949
11
20.9750445628
21
22.6118891493
0
SPLINE
5
300
100
AcDbEntity
8
0
100
AcDbSpline
62
7
6
CONTINUOUS
70
0
71
3
72
8
73
4
74
2
42
0.0000001000
43
0.0000001000
44
0.0000000001
12
-0.0720729465
22
0.0219322224
32
0.0000000000
13
-0.0725144399
23
0.0204766492
33
0.0000000000
40
0.0000000000
40
0.0000000000
40
0.0000000000
40
0.0000000000
40
1.0000000000
40
1.0000000000
40
1.0000000000
40
1.0000000000
10
15.3705364963
20
21.8757215545
30
0.0000000000
10
15.3465121808
20
21.8830322953
30
0.0000000000
10
15.3224106947
20
21.8900973354
30
0.0000000000
10
15.2982392147
20
21.8969228851
30
0.0000000000
11
15.3705364963
21
21.8757215545
31
0.0000000000
11
15.2982392147
21
21.8969228851
31
0.0000000000
0
SPLINE
5
301
100
AcDbEntity
8
0
100
AcDbSpline
62
7
6
CONTINUOUS
70
0
71
3
72
16
73
12
74
10
42
0.0000001000
43
0.0000001000
44
0.0000000001
12
-3.0560647910
22
0.8629724898
32
0.0000000000
13
-2.8084123906
23
-1.4809313851
33
0.0000000000
40
0.0000000000
40
0.0000000000
40
0.0000000000
40
0.0000000000
40
0.0870603950
40
0.2031007763
40
0.3217482206
40
0.4414001586
40
0.5604207594
40
0.6771933564
40
0.7902275173
40
0.8981781335
40
1.0000000000
40
1.0000000000
40
1.0000000000
40
1.0000000000
10
15.2982392147
20
21.8969228851
30
0.0000000000
10
15.2095518121
20
21.9219664604
30
0.0000000000
10
15.0004572307
20
21.9728685621
30
0.0000000000
10
14.6641461595
20
22.0283547835
30
0.0000000000
10
14.2901280926
20
22.0602800959
30
0.0000000000
10
13.9116373624
20
22.0639988184
30
0.0000000000
10
13.5359000649
20
22.0394904210
30
0.0000000000
10
13.1700844681
20
21.9870531240
30
0.0000000000
10
12.8211811937
20
21.9072580382
30
0.0000000000
10
12.4960042241
20
21.8009249377
30
0.0000000000
10
12.2928273177
20
21.7099986616
30
0.0000000000
10
12.1975080539
20
21.6597349290
30
0.0000000000
11
15.2982392147
21
21.8969228851
31
0.0000000000
11
15.0297046800
21
21.9626881381
31
0.0000000000
11
14.6662817741
21
22.0231800580
31
0.0000000000
11
14.2909689961
21
22.0554819682
31
0.0000000000
11
13.9110981416
21
22.0592451285
31
0.0000000000
11
13.5340276818
21
22.0344467059
31
0.0000000000
11
13.1670956187
21
21.9813926767
31
0.0000000000
11
12.8174133011
21
21.9006712576
31
0.0000000000
11
12.4919850349
21
21.7931259013
31
0.0000000000
11
12.1975080539
21
21.6597349290
31
0.0000000000
0
SPLINE
5
302
100
AcDbEntity
8
0
100
AcDbSpline
62
7
6
CONTINUOUS
70
0
71
3
72
8
73
4
74
2
42
0.0000001000
43
0.0000001000
44
0.0000000001
12
-0.0074856961
22
0.0050624254
32
0.0000000000
13
-0.0080013977
23
0.0041120828
33
0.0000000000
40
0.0000000000
40
0.0000000000
40
0.0000000000
40
0.0000000000
40
1.0000000000
40
1.0000000000
40
1.0000000000
40
1.0000000000
10
16.2009225332
20
21.4547340707
30
0.0000000000
10
16.1984273012
20
21.4564215458
30
0.0000000000
10
16.1958385142
20
21.4579606090
30
0.0000000000
10
16.1931713816
20
21.4593313032
30
0.0000000000
11
16.2009225332
21
21.4547340707
31
0.0000000000
11
16.1931713816
21
21.4593313032
31
0.0000000000
0
SPLINE
5
303
100
AcDbEntity
8
0
100
AcDbSpline
62
7
6
CONTINUOUS
70
0
71
3
72
10
73
6
74
4
42
0.0000001000
43
0.0000001000
44
0.0000000001
12
-0.8085733905
22
0.4155424942
32
0.0000000000
13
-0.8134730449
23
0.4058670933
33
0.0000000000
40
0.0000000000
40
0.0000000000
40
0.0000000000
40
0.0000000000
40
0.3545041574
40
0.6877149410
40
1.0000000000
40
1.0000000000
40
1.0000000000
40
1.0000000000
10
16.1931713816
20
21.4593313032
30
0.0000000000
10
16.0976238388
20
21.5084351505
30
0.0000000000
10
15.9121557540
20
21.6034757317
30
0.0000000000
10
15.6420227467
20
21.7408005715
30
0.0000000000
10
15.4672658041
20
21.8286789739
30
0.0000000000
10
15.3825873115
20
21.8709277170
30
0.0000000000
11
16.1931713816
21
21.4593313032
31
0.0000000000
11
15.9063317761
21
21.6062589301
31
0.0000000000
11
15.6362668374
21
21.7434705527
31
0.0000000000
11
15.3825873115
21
21.8709277170
31
0.0000000000
0
SPLINE
5
304
100
AcDbEntity
8
0
100
AcDbSpline
62
7
6
CONTINUOUS
70
0
71
3
72
8
73
4
74
2
42
0.0000001000
43
0.0000001000
44
0.0000000001
12
-0.0115769671
22
0.0057761102
32
0.0000000000
13
-0.0124572512
23
0.0037795811
33
0.0000000000
40
0.0000000000
40
0.0000000000
40
0.0000000000
40
0.0000000000
40
1.0000000000
40
1.0000000000
40
1.0000000000
40
1.0000000000
10
15.3825873115
20
21.8709277170
30
0.0000000000
10
15.3787283224
20
21.8728530871
30
0.0000000000
10
15.3746863296
20
21.8744437221
30
0.0000000000
10
15.3705339125
20
21.8757035825
30
0.0000000000
11
15.3825873115
21
21.8709277170
31
0.0000000000
11
15.3705339125
21
21.8757035825
31
0.0000000000
0
SPLINE
5
305
100
AcDbEntity
8
0
100
AcDbSpline
62
7
6
CONTINUOUS
70
0
71
3
72
8
73
4
74
2
42
0.0000001000
43
0.0000001000
44
0.0000000001
12
0.0924738415
22
-0.0461380859
32
0.0000000000
13
0.0923744470
23
-0.0463369908
33
0.0000000000
40
0.0000000000
40
0.0000000000
40
0.0000000000
40
0.0000000000
40
1.0000000000
40
1.0000000000
40
1.0000000000
40
1.0000000000
10
16.2311154489
20
21.4466636483
30
0.0000000000
10
16.2619400627
20
21.4312842863
30
0.0000000000
10
16.2927470965
20
21.4158696701
30
0.0000000000
10
16.3235385789
20
21.4004240065
30
0.0000000000
11
16.2311154489
21
21.4466636483
31
0.0000000000
11
16.3235385789
21
21.4004240065
31
0.0000000000
0
SPLINE
5
306
100
AcDbEntity
8
0
100
AcDbSpline
62
7
6
CONTINUOUS
70
0
71
3
72
10
73
6
74
4
42
0.0000001000
43
0.0000001000
44
0.0000000001
12
0.0867340293
22
0.0433670146
32
0.0000000000
13
0.0867710934
23
-0.0432928069
33
0.0000000000
40
0.0000000000
40
0.0000000000
40
0.0000000000
40
0.0000000000
40
0.3690647074
40
0.7005601128
40
1.0000000000
40
1.0000000000
40
1.0000000000
40
1.0000000000
10
16.1374499538
20
21.4403531919
30
0.0000000000
10
16.1481201102
20
21.4456882701
30
0.0000000000
10
16.1695483481
20
21.4537878964
30
0.0000000000
10
16.2022632631
20
21.4565371516
30
0.0000000000
10
16.2224545401
20
21.4509848460
30
0.0000000000
10
16.2311154489
20
21.4466636483
30
0.0000000000
11
16.1374499538
21
21.4403531919
31
0.0000000000
11
16.1711111613
21
21.4525088810
31
0.0000000000
11
16.2031878128
21
21.4546137405
31
0.0000000000
11
16.2311154489
21
21.4466636483
31
0.0000000000
0
SPLINE
5
307
100
AcDbEntity
8
0
100
AcDbSpline
62
9
6
CONTINUOUS
70
0
71
3
72
23
73
19
74
17
42
0.0000001000
43
0.0000001000
44
0.0000000001
12
2.2123948923
22
3.0291572814
32
0.0000000000
13
3.5867267087
23
-1.0639816211
33
0.0000000000
40
0.0000000000
40
0.0000000000
40
0.0000000000
40
0.0000000000
40
0.0128088441
40
0.0754142315
40
0.1453314057
40
0.2228245346
40
0.3078446657
40
0.3982020386
40
0.4887424286
40
0.5745200681
40
0.6529857980
40
0.7231231402
40
0.7849145322
40
0.8391285411
40
0.8867127327
40
0.9286911577
40
0.9661099934
40
1.0000000000
40
1.0000000000
40
1.0000000000
40
1.0000000000
10
11.7723892286
20
21.2374332531
30
0.0000000000
10
11.7818353023
20
21.2503665875
30
0.0000000000
10
11.8393593622
20
21.3251158193
30
0.0000000000
10
11.9691698675
20
21.4531363128
30
0.0000000000
10
12.1847415018
20
21.6036027451
30
0.0000000000
10
12.4433904814
20
21.7360528737
30
0.0000000000
10
12.7390891821
20
21.8472816470
30
0.0000000000
10
13.0598101024
20
21.9333919429
30
0.0000000000
10
13.3874839710
20
21.9922155561
30
0.0000000000
10
13.7037527301
20
22.0252090817
30
0.0000000000
10
13.9959942119
20
22.0367325758
30
0.0000000000
10
14.2584571305
20
22.0320677251
30
0.0000000000
10
14.4901289282
20
22.0160558273
30
0.0000000000
10
14.6928455584
20
21.9925521861
30
0.0000000000
10
14.8699602104
20
21.9643292775
30
0.0000000000
10
15.0252748282
20
21.9332482406
30
0.0000000000
10
15.1627032735
20
21.9003721521
30
0.0000000000
10
15.2484300781
20
21.8766498714
30
0.0000000000
10
15.2889481420
20
21.8646304234
30
0.0000000000
11
11.7723892286
21
21.2374332531
31
0.0000000000
11
11.8016595768
21
21.2755184282
31
0.0000000000
11
11.9665799481
21
21.4418322423
31
0.0000000000
11
12.1798285527
21
21.5933132277
31
0.0000000000
11
12.4371046388
21
21.7269604530
31
0.0000000000
11
12.7343615539
21
21.8401511776
31
0.0000000000
11
13.0606114816
21
21.9286730793
31
0.0000000000
11
13.3939212774
21
21.9890313045
31
0.0000000000
11
13.7130775417
21
22.0225572872
31
0.0000000000
11
14.0064040207
21
22.0341864107
31
0.0000000000
11
14.2687608524
21
22.0295019867
31
0.0000000000
11
14.4993814808
21
22.0135063820
31
0.0000000000
11
14.7008501902
21
21.9900803131
31
0.0000000000
11
14.8766447129
21
21.9620034650
31
0.0000000000
11
15.0306291494
21
21.9311238368
31
0.0000000000
11
15.1667699308
21
21.8985142018
31
0.0000000000
11
15.2889481420
21
21.8646304234
31
0.0000000000
0
SPLINE
5
308
100
AcDbEntity
8
0
100
AcDbSpline
62
9
6
CONTINUOUS
70
0
71
3
72
10
73
6
74
4
42
0.0000001000
43
0.0000001000
44
0.0000000001
12
0.4102902577
22
0.4947141415
32
0.0000000000
13
0.5677248785
23
0.2994756486
33
0.0000000000
40
0.0000000000
40
0.0000000000
40
0.0000000000
40
0.0000000000
40
0.3704497270
40
0.8076574566
40
1.0000000000
40
1.0000000000
40
1.0000000000
40
1.0000000000
10
11.6916989083
20
21.2703623137
30
0.0000000000
10
11.7423628796
20
21.3314512199
30
0.0000000000
10
11.8668909744
20
21.4525187741
30
0.0000000000
10
12.0434628529
20
21.5745606896
30
0.0000000000
10
12.1609748652
20
21.6404786426
30
0.0000000000
10
12.1973740809
20
21.6596792786
30
0.0000000000
11
11.6916989083
21
21.2703623137
31
0.0000000000
11
11.8604019221
21
21.4377783346
31
0.0000000000
11
12.0897622955
21
21.5991809215
31
0.0000000000
11
12.1973740809
21
21.6596792786
31
0.0000000000
0
SPLINE
5
309
100
AcDbEntity
8
0
100
AcDbSpline
62
9
6
CONTINUOUS
70
0
71
3
72
8
73
4
74
2
42
0.0000001000
43
0.0000001000
44
0.0000000001
12
0.0688320789
22
-0.0563492324
32
0.0000000000
13
0.0653202197
23
-0.0604183720
33
0.0000000000
40
0.0000000000
40
0.0000000000
40
0.0000000000
40
0.0000000000
40
1.0000000000
40
1.0000000000
40
1.0000000000
40
1.0000000000
10
16.2311154489
20
21.4466636483
30
0.0000000000
10
16.2540594752
20
21.4278805708
30
0.0000000000
10
16.2764767643
20
21.4084387335
30
0.0000000000
10
16.2982501708
20
21.3882992761
30
0.0000000000
11
16.2311154489
21
21.4466636483
31
0.0000000000
11
16.2982501708
21
21.3882992761
31
0.0000000000
0
SPLINE
5
30A
100
AcDbEntity
8
0
100
AcDbSpline
62
7
6
CONTINUOUS
70
0
71
3
72
10
73
6
74
4
42
0.0000001000
43
0.0000001000
44
0.0000000001
12
-0.0809117024
22
0.0245489425
32
0.0000000000
13
-0.0751620072
23
-0.0375810036
33
0.0000000000
40
0.0000000000
40
0.0000000000
40
0.0000000000
40
0.0000000000
40
0.1915809123
40
0.5741137005
40
1.0000000000
40
1.0000000000
40
1.0000000000
40
1.0000000000
10
15.3705339125
20
21.8757035825
30
0.0000000000
10
15.3653668666
20
21.8772712854
30
0.0000000000
10
15.3493703139
20
21.8804344157
30
0.0000000000
10
15.3210202107
20
21.8780519652
30
0.0000000000
10
15.2995919728
20
21.8699523388
30
0.0000000000
10
15.2889218164
20
21.8646172606
30
0.0000000000
11
15.3705339125
21
21.8757035825
31
0.0000000000
11
15.3546596754
21
21.8788778092
31
0.0000000000
11
15.3225830239
21
21.8767729497
31
0.0000000000
11
15.2889218164
21
21.8646172606
31
0.0000000000
0
SPLINE
5
30B
100
AcDbEntity
8
0
100
AcDbSpline
62
9
6
CONTINUOUS
70
0
71
3
72
9
73
5
74
3
42
0.0000001000
43
0.0000001000
44
0.0000000001
12
0.0958301386
22
-0.0807618550
32
0.0000000000
13
0.0877502344
23
-0.0895214310
33
0.0000000000
40
0.0000000000
40
0.0000000000
40
0.0000000000
40
0.0000000000
40
0.7276524333
40
1.0000000000
40
1.0000000000
40
1.0000000000
40
1.0000000000
10
16.1374788497
20
21.4403676398
30
0.0000000000
10
16.1607225276
20
21.4207787864
30
0.0000000000
10
16.1918070732
20
21.3928166483
30
0.0000000000
10
16.2214778615
20
21.3633873096
30
0.0000000000
10
16.2294440491
20
21.3552603283
30
0.0000000000
11
16.1374788497
21
21.4403676398
31
0.0000000000
11
16.2052114646
21
21.3793085002
31
0.0000000000
11
16.2294440491
21
21.3552603283
31
0.0000000000
0
SPLINE
5
30C
100
AcDbEntity
8
0
100
AcDbSpline
62
7
6
CONTINUOUS
70
0
71
3
72
12
73
8
74
6
42
0.0000001000
43
0.0000001000
44
0.0000000001
12
-0.0713960513
22
-1.4009071182
32
0.0000000000
13
1.2578779635
23
-0.6271912939
33
0.0000000000
40
0.0000000000
40
0.0000000000
40
0.0000000000
40
0.0000000000
40
0.2072906153
40
0.4443116797
40
0.6684955202
40
0.8847077048
40
1.0000000000
40
1.0000000000
40
1.0000000000
40
1.0000000000
10
-19.1445440167
20
-16.5347546150
30
0.0000000000
10
-19.1494772605
20
-16.6315529145
30
0.0000000000
10
-19.1414084512
20
-16.8404969096
30
0.0000000000
10
-19.0598153832
20
-17.1451606836
30
0.0000000000
10
-18.8979406409
20
-17.4215644245
30
0.0000000000
10
-18.7075341414
20
-17.6026443685
30
0.0000000000
10
-18.5736472250
20
-17.6826524083
30
0.0000000000
10
-18.5253060125
20
-17.7067558496
30
0.0000000000
11
-19.1445440167
21
-16.5347546150
31
0.0000000000
11
-19.1319007200
21
-16.8251115985
31
0.0000000000
11
-19.0440085623
21
-17.1451985185
31
0.0000000000
11
-18.8842024258
21
-17.4154409033
31
0.0000000000
11
-18.6643199471
21
-17.6236123094
31
0.0000000000
11
-18.5253060125
21
-17.7067558496
31
0.0000000000
0
SPLINE
5
30D
100
AcDbEntity
8
0
100
AcDbSpline
62
7
6
CONTINUOUS
70
0
71
3
72
11
73
7
74
5
42
0.0000001000
43
0.0000001000
44
0.0000000001
12
-5.5264351748
22
-36.5977349542
32
0.0000000000
13
-1.8921785589
23
-36.9642470192
33
0.0000000000
40
0.0000000000
40
0.0000000000
40
0.0000000000
40
0.0000000000
40
0.2533936151
40
0.5058700316
40
0.7554282559
40
1.0000000000
40
1.0000000000
40
1.0000000000
40
1.0000000000
10
-15.3898563205
20
20.2730040320
30
0.0000000000
10
-15.8566441163
20
17.1817932440
30
0.0000000000
10
-16.7164182684
20
10.9994069451
30
0.0000000000
10
-17.7775515630
20
1.7389788318
30
0.0000000000
10
-18.5996241207
20
-7.4364760258
30
0.0000000000
10
-18.9902839051
20
-13.5210796828
30
0.0000000000
10
-19.1445417085
20
-16.5345498040
30
0.0000000000
11
-15.3898563205
21
20.2730040320
31
0.0000000000
11
-16.6805443248
21
10.9834733218
31
0.0000000000
11
-17.7431021287
21
1.6992657503
31
0.0000000000
11
-18.5659825499
21
-7.5008107602
31
0.0000000000
11
-19.1445417085
21
-16.5345498040
31
0.0000000000
0
SPLINE
5
30E
100
AcDbEntity
8
0
100
AcDbSpline
62
7
6
CONTINUOUS
70
0
71
3
72
13
73
9
74
7
42
0.0000001000
43
0.0000001000
44
0.0000000001
12
-1.6969813775
22
-0.6387394464
32
0.0000000000
13
-0.2704214934
23
-1.7915150415
33
0.0000000000
40
0.0000000000
40
0.0000000000
40
0.0000000000
40
0.0000000000
40
0.1223879174
40
0.2982524270
40
0.4817495569
40
0.6702448424
40
0.8588229483
40
1.0000000000
40
1.0000000000
40
1.0000000000
40
1.0000000000
10
-14.3476873643
20
21.6597756023
30
0.0000000000
10
-14.4169173699
20
21.6337176054
30
0.0000000000
10
-14.5804224062
20
21.5553478822
30
0.0000000000
10
-14.8151203472
20
21.3804572878
30
0.0000000000
10
-15.0375917713
20
21.1332804522
30
0.0000000000
10
-15.2161362478
20
20.8439422077
30
0.0000000000
10
-15.3328584165
20
20.5522391701
30
0.0000000000
10
-15.3771441964
20
20.3572373719
30
0.0000000000
10
-15.3898699661
20
20.2729304347
30
0.0000000000
11
-14.3476873643
21
21.6597756023
31
0.0000000000
11
-14.5480408516
21
21.5643638506
31
0.0000000000
11
-14.8044218393
21
21.3756425908
31
0.0000000000
11
-15.0276355955
21
21.1296538291
31
0.0000000000
11
-15.2073202430
21
20.8395834684
31
0.0000000000
11
-15.3337286985
21
20.5224862870
31
0.0000000000
11
-15.3898699661
21
20.2729304347
31
0.0000000000
0
SPLINE
5
30F
100
AcDbEntity
8
0
100
AcDbSpline
62
7
6
CONTINUOUS
70
0
71
3
72
11
73
7
74
5
42
0.0000001000
43
0.0000001000
44
0.0000000001
12
0.7666224943
22
-0.3840603727
32
0.0000000000
13
0.8199706397
23
0.2477370637
33
0.0000000000
40
0.0000000000
40
0.0000000000
40
0.0000000000
40
0.0000000000
40
0.1384318307
40
0.4459576002
40
0.7637567867
40
1.0000000000
40
1.0000000000
40
1.0000000000
40
1.0000000000
10
-4.1110957920
20
-24.9138851989
30
0.0000000000
10
-4.0757208069
20
-24.9316072591
30
0.0000000000
10
-3.9585540653
20
-24.9824662598
30
0.0000000000
10
-3.7446568528
20
-25.0327775598
30
0.0000000000
10
-3.4968417152
20
-25.0299837952
30
0.0000000000
10
-3.3414985113
20
-24.9962876297
30
0.0000000000
10
-3.2769276784
20
-24.9767788964
30
0.0000000000
11
-4.1110957920
21
-24.9138851989
31
0.0000000000
11
-4.0022355956
21
-24.9611120596
31
0.0000000000
11
-3.7463886543
21
-25.0216479204
31
0.0000000000
11
-3.4747053776
21
-25.0192237976
31
0.0000000000
11
-3.2769276784
21
-24.9767788964
31
0.0000000000
0
SPLINE
5
310
100
AcDbEntity
8
0
100
AcDbSpline
62
7
6
CONTINUOUS
70
0
71
3
72
15
73
11
74
9
42
0.0000001000
43
0.0000001000
44
0.0000000001
12
0.9359428245
22
-0.6044927492
32
0.0000000000
13
-0.1128467515
23
-1.1062210069
33
0.0000000000
40
0.0000000000
40
0.0000000000
40
0.0000000000
40
0.0000000000
40
0.0541487293
40
0.1789679062
40
0.3113744296
40
0.4492591574
40
0.5899589304
40
0.7305459501
40
0.8681027872
40
1.0000000000
40
1.0000000000
40
1.0000000000
40
1.0000000000
10
4.5857379771
20
15.8028258329
30
0.0000000000
10
4.6026313487
20
15.7919149949
30
0.0000000000
10
4.6568760635
20
15.7533117146
30
0.0000000000
10
4.7415184503
20
15.6741319909
30
0.0000000000
10
4.8319150184
20
15.5582115970
30
0.0000000000
10
4.9079082084
20
15.4256387274
30
0.0000000000
10
4.9667278047
20
15.2813520389
30
0.0000000000
10
5.0061794013
20
15.1307283637
30
0.0000000000
10
5.0247898048
20
14.9794385293
30
0.0000000000
10
5.0227525222
20
14.8791329638
30
0.0000000000
10
5.0177911315
20
14.8304971413
30
0.0000000000
11
4.5857379771
21
15.8028258329
31
0.0000000000
11
4.6349438452
21
15.7679230345
31
0.0000000000
11
4.7368486675
21
15.6736933726
31
0.0000000000
11
4.8278151730
21
15.5579260817
31
0.0000000000
11
4.9043453843
21
15.4250692562
31
0.0000000000
11
4.9634969625
21
15.2802294616
31
0.0000000000
11
5.0029967680
21
15.1289746266
31
0.0000000000
11
5.0213285445
21
14.9771191532
31
0.0000000000
11
5.0177911315
21
14.8304971413
31
0.0000000000
0
SPLINE
5
311
100
AcDbEntity
8
0
100
AcDbSpline
62
7
6
CONTINUOUS
70
0
71
3
72
13
73
9
74
7
42
0.0000001000
43
0.0000001000
44
0.0000000001
12
-0.0617901139
22
-0.6057198912
32
0.0000000000
13
-0.5846635985
23
-0.1768726327
33
0.0000000000
40
0.0000000000
40
0.0000000000
40
0.0000000000
40
0.0000000000
40
0.2267966843
40
0.4373884202
40
0.6319136208
40
0.8133005317
40
0.9873277036
40
1.0000000000
40
1.0000000000
40
1.0000000000
40
1.0000000000
10
1.1321089076
20
-23.2603051775
30
0.0000000000
10
1.1274376433
20
-23.3060969318
30
0.0000000000
10
1.1116200515
20
-23.3939466890
30
0.0000000000
10
1.0662345061
20
-23.5147430584
30
0.0000000000
10
1.0012289053
20
-23.6157245868
30
0.0000000000
10
0.9184734850
20
-23.6926036511
30
0.0000000000
10
0.8507140144
20
-23.7265465536
30
0.0000000000
10
0.8144483649
20
-23.7379477762
30
0.0000000000
10
0.8119786880
20
-23.7386949037
30
0.0000000000
11
1.1321089076
21
-23.2603051775
31
0.0000000000
11
1.1068405724
21
-23.3960617998
31
0.0000000000
11
1.0608097050
21
-23.5157360931
31
0.0000000000
11
0.9957819439
21
-23.6147272585
31
0.0000000000
11
0.9142551400
21
-23.6892278615
31
0.0000000000
11
0.8193627147
21
-23.7363732608
31
0.0000000000
11
0.8119786880
21
-23.7386949037
31
0.0000000000
0
SPLINE
5
312
100
AcDbEntity
8
0
100
AcDbSpline
62
9
6
CONTINUOUS
70
0
71
3
72
10
73
6
74
4
42
0.0000001000
43
0.0000001000
44
0.0000000001
12
-0.0156547479
22
-0.3880112634
32
0.0000000000
13
0.3408440980
23
-0.1709408399
33
0.0000000000
40
0.0000000000
40
0.0000000000
40
0.0000000000
40
0.0000000000
40
0.1819865093
40
0.5388681484
40
1.0000000000
40
1.0000000000
40
1.0000000000
40
1.0000000000
10
-19.1437192026
20
-16.5347878139
30
0.0000000000
10
-19.1446688536
20
-16.5583254190
30
0.0000000000
10
-19.1346327173
20
-16.6290267416
30
0.0000000000
10
-19.0512522898
20
-16.7321787879
30
0.0000000000
10
-18.9625420443
20
-16.7878292151
30
0.0000000000
10
-18.9101506877
20
-16.8141046371
30
0.0000000000
11
-19.1437192026
21
-16.5347878139
31
0.0000000000
11
-19.1339101160
21
-16.6043558612
31
0.0000000000
11
-19.0560420221
21
-16.7159568555
31
0.0000000000
11
-18.9101506877
21
-16.8141046371
31
0.0000000000
0
SPLINE
5
313
100
AcDbEntity
8
0
100
AcDbSpline
62
9
6
CONTINUOUS
70
0
71
3
72
10
73
6
74
4
42
0.0000001000
43
0.0000001000
44
0.0000000001
12
-0.0420376732
22
-0.3691974505
32
0.0000000000
13
0.3292557218
23
-0.1640828399
33
0.0000000000
40
0.0000000000
40
0.0000000000
40
0.0000000000
40
0.0000000000
40
0.1869991100
40
0.5285895115
40
1.0000000000
40
1.0000000000
40
1.0000000000
40
1.0000000000
10
-15.3889192443
20
20.2728218771
30
0.0000000000
10
-15.3915395801
20
20.2498086789
30
0.0000000000
10
-15.3804335651
20
20.1805136213
30
0.0000000000
10
-15.2900983359
20
20.0905629054
30
0.0000000000
10
-15.2050999664
20
20.0388883638
30
0.0000000000
10
-15.1533617662
20
20.0131049065
30
0.0000000000
11
-15.3889192443
21
20.2728218771
31
0.0000000000
11
-15.3790954861
21
20.2035014928
31
0.0000000000
11
-15.2997856766
21
20.1060279432
31
0.0000000000
11
-15.1533617662
21
20.0131049065
31
0.0000000000
0
SPLINE
5
314
100
AcDbEntity
8
0
100
AcDbSpline
62
9
6
CONTINUOUS
70
0
71
3
72
9
73
5
74
3
42
0.0000001000
43
0.0000001000
44
0.0000000001
12
0.3333512909
22
0.1250763466
32
0.0000000000
13
0.3184609304
23
-0.1545598508
33
0.0000000000
40
0.0000000000
40
0.0000000000
40
0.0000000000
40
0.0000000000
40
0.4689864844
40
1.0000000000
40
1.0000000000
40
1.0000000000
40
1.0000000000
10
-14.3474852881
20
21.6598754410
30
0.0000000000
10
-14.2953728714
20
21.6794284797
30
0.0000000000
10
-14.1742332319
20
21.6946059203
30
0.0000000000
10
-14.0583655588
20
21.6587640262
30
0.0000000000
10
-14.0019965394
20
21.6314062363
30
0.0000000000
11
-14.3474852881
21
21.6598754410
31
0.0000000000
11
-14.1829067243
21
21.6824428916
31
0.0000000000
11
-14.0019965394
21
21.6314062363
31
0.0000000000
0
SPLINE
5
315
100
AcDbEntity
8
0
100
AcDbSpline
62
9
6
CONTINUOUS
70
0
71
3
72
14
73
10
74
8
42
0.0000001000
43
0.0000001000
44
0.0000000001
12
-0.9155639179
22
-0.3166088050
32
0.0000000000
13
-0.1466264133
23
-0.9576007091
33
0.0000000000
40
0.0000000000
40
0.0000000000
40
0.0000000000
40
0.0000000000
40
0.1214159450
40
0.2551320635
40
0.3987921548
40
0.5491293177
40
0.7023754668
40
0.8541660211
40
1.0000000000
40
1.0000000000
40
1.0000000000
40
1.0000000000
10
0.9146929985
20
13.4124474166
30
0.0000000000
10
0.8776383124
20
13.3996336308
30
0.0000000000
10
0.8028960076
20
13.3633053698
30
0.0000000000
10
0.6991386300
20
13.2860670206
30
0.0000000000
10
0.6023761656
20
13.1867746660
30
0.0000000000
10
0.5169106819
20
13.0698065060
30
0.0000000000
10
0.4464251243
20
12.9402590691
30
0.0000000000
10
0.3940469605
20
12.8039770253
30
0.0000000000
10
0.3720921274
20
12.7100001982
30
0.0000000000
10
0.3649644230
20
12.6634499577
30
0.0000000000
11
0.9146929985
21
13.4124474166
31
0.0000000000
11
0.8083932611
21
13.3620931553
31
0.0000000000
11
0.7039141112
21
13.2855133971
31
0.0000000000
11
0.6063533841
21
13.1862619831
31
0.0000000000
11
0.5201696230
21
13.0688583691
31
0.0000000000
11
0.4491727361
21
12.9384762471
31
0.0000000000
11
0.3966376717
21
12.8011320804
31
0.0000000000
11
0.3649644230
21
12.6634499577
31
0.0000000000
0
SPLINE
5
316
100
AcDbEntity
8
0
100
AcDbSpline
62
9
6
CONTINUOUS
70
0
71
3
72
14
73
10
74
8
42
0.0000001000
43
0.0000001000
44
0.0000000001
12
-1.9542000329
22
-0.6909090713
32
0.0000000000
13
-0.3125086448
23
-2.0490464758
33
0.0000000000
40
0.0000000000
40
0.0000000000
40
0.0000000000
40
0.0000000000
40
0.1213545073
40
0.2546997470
40
0.3981370295
40
0.5483560599
40
0.7015857330
40
0.8534737219
40
1.0000000000
40
1.0000000000
40
1.0000000000
40
1.0000000000
10
0.4229192490
20
14.4189483421
30
0.0000000000
10
0.3438689216
20
14.3910000321
30
0.0000000000
10
0.1848362762
20
14.3121195466
30
0.0000000000
10
-0.0355077922
20
14.1454489486
30
0.0000000000
10
-0.2407448592
20
13.9319753894
30
0.0000000000
10
-0.4220733506
20
13.6809315850
30
0.0000000000
10
-0.5717368561
20
13.4031855814
30
0.0000000000
10
-0.6832388063
20
13.1108345586
30
0.0000000000
10
-0.7301279774
20
12.9091940042
30
0.0000000000
10
-0.7453915536
20
12.8091142863
30
0.0000000000
11
0.4229192490
21
14.4189483421
31
0.0000000000
11
0.1964258608
21
14.3095348797
31
0.0000000000
11
-0.0252462868
21
14.1444502547
31
0.0000000000
11
-0.2322384685
21
13.9310341364
31
0.0000000000
11
-0.4151203065
21
13.6790372367
31
0.0000000000
11
-0.5658826337
21
13.3994949733
31
0.0000000000
11
-0.6776238804
21
13.1051681373
31
0.0000000000
11
-0.7453915536
21
12.8091142863
31
0.0000000000
0
SPLINE
5
317
100
AcDbEntity
8
0
100
AcDbSpline
62
9
6
CONTINUOUS
70
0
71
3
72
12
73
8
74
6
42
0.0000001000
43
0.0000001000
44
0.0000000001
12
0.1038401362
22
1.1713825978
32
0.0000000000
13
-1.0453991371
23
0.5385727513
33
0.0000000000
40
0.0000000000
40
0.0000000000
40
0.0000000000
40
0.0000000000
40
0.2012880935
40
0.4130732108
40
0.6238069682
40
0.8221848437
40
1.0000000000
40
1.0000000000
40
1.0000000000
40
1.0000000000
10
0.9146929985
20
13.4124474166
30
0.0000000000
10
0.9216602595
20
13.4910425398
30
0.0000000000
10
0.9150935674
20
13.6545322862
30
0.0000000000
10
0.8541246456
20
13.8929197301
30
0.0000000000
10
0.7472104166
20
14.1135705328
30
0.0000000000
10
0.6042084235
20
14.2960835999
30
0.0000000000
10
0.4848818545
20
14.3870262101
30
0.0000000000
10
0.4229192509
20
14.4189483427
30
0.0000000000
11
0.9146929985
21
13.4124474166
31
0.0000000000
11
0.9072330746
21
13.6490398397
31
0.0000000000
11
0.8461178905
21
13.8904791796
31
0.0000000000
11
0.7373267511
21
14.1131407808
31
0.0000000000
11
0.5915043348
21
14.2952367802
31
0.0000000000
11
0.4229192509
21
14.4189483427
31
0.0000000000
0
SPLINE
5
318
100
AcDbEntity
8
0
100
AcDbSpline
62
9
6
CONTINUOUS
70
0
71
3
72
10
73
6
74
4
42
0.0000001000
43
0.0000001000
44
0.0000000001
12
-2.9642022981
22
-19.3781876786
32
0.0000000000
13
-1.9392455125
23
-19.5079061358
33
0.0000000000
40
0.0000000000
40
0.0000000000
40
0.0000000000
40
0.0000000000
40
0.4788740251
40
0.9526723332
40
1.0000000000
40
1.0000000000
40
1.0000000000
40
1.0000000000
10
0.3649644230
20
12.6634499577
30
0.0000000000
10
-0.1081954056
20
9.5702130465
30
0.0000000000
10
-0.9744245362
20
3.4047529122
30
0.0000000000
10
-1.7212905634
20
-3.0876356166
30
0.0000000000
10
-2.0625278459
20
-6.4758921613
30
0.0000000000
10
-2.0931211677
20
-6.7836467220
30
0.0000000000
11
0.3649644230
21
12.6634499577
31
0.0000000000
11
-0.9399488255
21
3.3669369165
31
0.0000000000
11
-2.0001511219
21
-5.8605026206
31
0.0000000000
11
-2.0931211677
21
-6.7836467220
31
0.0000000000
0
SPLINE
5
319
100
AcDbEntity
8
0
100
AcDbSpline
62
9
6
CONTINUOUS
70
0
71
3
72
9
73
5
74
3
42
0.0000001000
43
0.0000001000
44
0.0000000001
12
-1.7144521190
22
-17.2465893545
32
0.0000000000
13
-0.8525824803
23
-17.3101962698
33
0.0000000000
40
0.0000000000
40
0.0000000000
40
0.0000000000
40
0.0000000000
40
0.4763709646
40
1.0000000000
40
1.0000000000
40
1.0000000000
40
1.0000000000
10
-2.0931211677
20
-6.7836467220
30
0.0000000000
10
-2.3653595709
20
-9.5222381909
30
0.0000000000
10
-2.8708189260
20
-15.2776781353
30
0.0000000000
10
-3.2329868062
20
-21.0441780660
30
0.0000000000
10
-3.3817991201
20
-24.0655518578
30
0.0000000000
11
-2.0931211677
21
-6.7836467220
31
0.0000000000
11
-2.8144148585
21
-15.0081969817
31
0.0000000000
11
-3.3817991201
21
-24.0655518578
31
0.0000000000
0
SPLINE
5
31A
100
AcDbEntity
8
0
100
AcDbSpline
62
9
6
CONTINUOUS
70
0
71
3
72
11
73
7
74
5
42
0.0000001000
43
0.0000001000
44
0.0000000001
12
-5.5996439465
22
-36.6077279192
32
0.0000000000
13
-1.8219004809
23
-36.9886798139
33
0.0000000000
40
0.0000000000
40
0.0000000000
40
0.0000000000
40
0.0000000000
40
0.2541689622
40
0.5056427199
40
0.7542929144
40
1.0000000000
40
1.0000000000
40
1.0000000000
40
1.0000000000
10
-0.7453915536
20
12.8091142863
30
0.0000000000
10
-1.2198101171
20
9.7075982152
30
0.0000000000
10
-2.0883427010
20
3.5256512340
30
0.0000000000
10
-3.1525833781
20
-5.7256753382
30
0.0000000000
10
-3.9703664421
20
-14.8971920103
30
0.0000000000
10
-4.3529552286
20
-20.9886331769
30
0.0000000000
10
-4.5021731811
20
-24.0180934164
30
0.0000000000
11
-0.7453915536
21
12.8091142863
31
0.0000000000
11
-2.0537788548
21
3.4877197079
31
0.0000000000
11
-3.1168073365
21
-5.7643705893
31
0.0000000000
11
-3.9332523329
21
-14.9364973491
31
0.0000000000
11
-4.5021731811
21
-24.0180934164
31
0.0000000000
0
SPLINE
5
31B
100
AcDbEntity
8
0
100
AcDbSpline
62
9
6
CONTINUOUS
70
0
71
3
72
12
73
8
74
6
42
0.0000001000
43
0.0000001000
44
0.0000000001
12
-1.1057292474
22
-0.2654842814
32
0.0000000000
13
-1.0164272457
23
0.5098967802
33
0.0000000000
40
0.0000000000
40
0.0000000000
40
0.0000000000
40
0.0000000000
40
0.1767919471
40
0.3819379414
40
0.5993122548
40
0.8110293440
40
1.0000000000
40
1.0000000000
40
1.0000000000
40
1.0000000000
10
0.3649644230
20
12.6634499577
30
0.0000000000
10
0.2998030808
20
12.6478047967
30
0.0000000000
10
0.1552035836
20
12.6301299586
30
0.0000000000
10
-0.0723731618
20
12.6337805750
30
0.0000000000
10
-0.3112759068
20
12.6653290840
30
0.0000000000
10
-0.5390728896
20
12.7218675856
30
0.0000000000
10
-0.6813665600
20
12.7769957815
30
0.0000000000
10
-0.7453915344
20
12.8091142912
30
0.0000000000
11
0.3649644230
21
12.6634499577
31
0.0000000000
11
0.1658453302
21
12.6357275638
31
0.0000000000
11
-0.0674256446
21
12.6380539282
31
0.0000000000
11
-0.3125137090
21
12.6702063104
31
0.0000000000
11
-0.5459526299
21
12.7291062447
31
0.0000000000
11
-0.7453915344
21
12.8091142912
31
0.0000000000
0
SPLINE
5
31C
100
AcDbEntity
8
0
100
AcDbSpline
62
9
6
CONTINUOUS
70
0
71
3
72
14
73
10
74
8
42
0.0000001000
43
0.0000001000
44
0.0000000001
12
-0.0359654160
22
-0.7321790864
32
0.0000000000
13
0.7016533654
23
0.2122787805
33
0.0000000000
40
0.0000000000
40
0.0000000000
40
0.0000000000
40
0.0000000000
40
0.1717069952
40
0.3282324111
40
0.4695901466
40
0.5997650053
40
0.7262202837
40
0.8574633488
40
1.0000000000
40
1.0000000000
40
1.0000000000
40
1.0000000000
10
-3.3817991201
20
-24.0655518578
30
0.0000000000
10
-3.3838576246
20
-24.1074586148
30
0.0000000000
10
-3.3814581344
20
-24.1881286229
30
0.0000000000
10
-3.3554044639
20
-24.3007859281
30
0.0000000000
10
-3.3073551791
20
-24.3951443624
30
0.0000000000
10
-3.2382997215
20
-24.4660633359
30
0.0000000000
10
-3.1513337575
20
-24.5084071908
30
0.0000000000
10
-3.0525114604
20
-24.5194721516
30
0.0000000000
10
-2.9858364857
20
-24.5071873431
30
0.0000000000
10
-2.9524993787
20
-24.4971015076
30
0.0000000000
11
-3.3817991201
21
-24.0655518578
31
0.0000000000
11
-3.3770201843
21
-24.1913329584
31
0.0000000000
11
-3.3498939179
21
-24.3028232250
31
0.0000000000
11
-3.3015916539
21
-24.3945010196
31
0.0000000000
11
-3.2343065111
21
-24.4621684001
31
0.0000000000
11
-3.1509987405
21
-24.5028257602
31
0.0000000000
11
-3.0555123402
21
-24.5145975300
31
0.0000000000
11
-2.9524993787
21
-24.4971015076
31
0.0000000000
0
SPLINE
5
31D
100
AcDbEntity
8
0
100
AcDbSpline
62
9
6
CONTINUOUS
70
0
71
3
72
12
73
8
74
6
42
0.0000001000
43
0.0000001000
44
0.0000000001
12
-0.0511624324
22
-1.0293567798
32
0.0000000000
13
0.9261108612
23
-0.4643909416
33
0.0000000000
40
0.0000000000
40
0.0000000000
40
0.0000000000
40
0.0000000000
40
0.2623808516
40
0.5001077502
40
0.7142311967
40
0.9107901259
40
1.0000000000
40
1.0000000000
40
1.0000000000
40
1.0000000000
10
-4.5021731811
20
-24.0180934164
30
0.0000000000
10
-4.5066478619
20
-24.1081212526
30
0.0000000000
10
-4.5016833618
20
-24.2809212198
30
0.0000000000
10
-4.4465296163
20
-24.5219245170
30
0.0000000000
10
-4.3448646083
20
-24.7231985088
30
0.0000000000
10
-4.2232790368
20
-24.8488192219
30
0.0000000000
10
-4.1385714396
20
-24.9000383396
30
0.0000000000
10
-4.1110320285
20
-24.9138477588
30
0.0000000000
11
-4.5021731811
21
-24.0180934164
31
0.0000000000
11
-4.4921750462
21
-24.2883254348
31
0.0000000000
11
-4.4347548727
21
-24.5265097765
31
0.0000000000
11
-4.3324613016
21
-24.7220509539
31
0.0000000000
11
-4.1899771533
21
-24.8660527988
31
0.0000000000
11
-4.1110320285
21
-24.9138477588
31
0.0000000000
0
SPLINE
5
31E
100
AcDbEntity
8
0
100
AcDbSpline
62
9
6
CONTINUOUS
70
0
71
3
72
12
73
8
74
6
42
0.0000001000
43
0.0000001000
44
0.0000000001
12
-1.0630823641
22
-0.4325880662
32
0.0000000000
13
-1.0271822716
23
0.5120284451
33
0.0000000000
40
0.0000000000
40
0.0000000000
40
0.0000000000
40
0.0000000000
40
0.1832018983
40
0.3899932450
40
0.6056528430
40
0.8139835632
40
1.0000000000
40
1.0000000000
40
1.0000000000
40
1.0000000000
10
-3.3817991202
20
-24.0655518578
30
0.0000000000
10
-3.4467186892
20
-24.0919688428
30
0.0000000000
10
-3.5919477955
20
-24.1310214693
30
0.0000000000
10
-3.8232311623
20
-24.1539432448
30
0.0000000000
10
-4.0651906274
20
-24.1436328340
30
0.0000000000
10
-4.2953579065
20
-24.1010326474
30
0.0000000000
10
-4.4384707442
20
-24.0498371183
30
0.0000000000
10
-4.5021616729
20
-24.0180885493
30
0.0000000000
11
-3.3817991202
21
-24.0655518578
31
0.0000000000
11
-3.5839796928
21
-24.1232985801
31
0.0000000000
11
-3.8200179240
21
-24.1481220359
31
0.0000000000
11
-4.0673143843
21
-24.1376455086
31
0.0000000000
11
-4.3021917274
21
-24.0928720716
31
0.0000000000
11
-4.5021616729
21
-24.0180885493
31
0.0000000000
0
SPLINE
5
31F
100
AcDbEntity
8
0
100
AcDbSpline
62
9
6
CONTINUOUS
70
0
71
3
72
11
73
7
74
5
42
0.0000001000
43
0.0000001000
44
0.0000000001
12
-0.0697474967
22
-0.6051536945
32
0.0000000000
13
-0.5875358177
23
-0.1759583802
33
0.0000000000
40
0.0000000000
40
0.0000000000
40
0.0000000000
40
0.0000000000
40
0.3565230186
40
0.6710105577
40
0.9530763784
40
1.0000000000
40
1.0000000000
40
1.0000000000
40
1.0000000000
10
-2.9524993787
20
-24.4971015076
30
0.0000000000
10
-2.9607882414
20
-24.5690185815
30
0.0000000000
10
-2.9923865936
20
-24.7035463345
30
0.0000000000
10
-3.0936771243
20
-24.8730960344
30
0.0000000000
10
-3.2036923571
20
-24.9519468502
30
0.0000000000
10
-3.2672979620
20
-24.9738445969
30
0.0000000000
10
-3.2764877315
20
-24.9765967984
30
0.0000000000
11
-2.9524993787
21
-24.4971015076
31
0.0000000000
11
-3.0055777450
21
-24.7076950117
31
0.0000000000
11
-3.1078481740
21
-24.8696858817
31
0.0000000000
11
-3.2493035735
21
-24.9672234207
31
0.0000000000
11
-3.2764877315
21
-24.9765967984
31
0.0000000000
0
SPLINE
5
320
100
AcDbEntity
8
0
100
AcDbSpline
62
9
6
CONTINUOUS
70
0
71
3
72
14
73
10
74
8
42
0.0000001000
43
0.0000001000
44
0.0000000001
12
0.3098498972
22
2.0439692442
32
0.0000000000
13
1.9403236555
23
0.7134152662
33
0.0000000000
40
0.0000000000
40
0.0000000000
40
0.0000000000
40
0.0000000000
40
0.1469917495
40
0.2993547041
40
0.4529555645
40
0.6033407101
40
0.7466530979
40
0.8795172018
40
1.0000000000
40
1.0000000000
40
1.0000000000
40
1.0000000000
10
-15.1533690884
20
20.0131030538
30
0.0000000000
10
-15.1381872956
20
20.1132519255
30
0.0000000000
10
-15.0917452294
20
20.3150760588
30
0.0000000000
10
-14.9816642177
20
20.6080249269
30
0.0000000000
10
-14.8341107389
20
20.8867204047
30
0.0000000000
10
-14.6554895295
20
21.1390205239
30
0.0000000000
10
-14.4534469741
20
21.3540096910
30
0.0000000000
10
-14.2366448118
20
21.5224008692
30
0.0000000000
10
-14.0799217472
20
21.6027548138
30
0.0000000000
10
-14.0019965394
20
21.6314062363
30
0.0000000000
11
-15.1533690884
21
20.0131030538
31
0.0000000000
11
-15.0862350370
21
20.3094737157
31
0.0000000000
11
-14.9758719504
21
20.6044896316
31
0.0000000000
11
-14.8271725104
21
20.8850633386
31
0.0000000000
11
-14.6469422224
21
21.1383860134
31
0.0000000000
11
-14.4430755241
21
21.3533648733
31
0.0000000000
11
-14.2248578874
21
21.5201767538
31
0.0000000000
11
-14.0019965394
21
21.6314062363
31
0.0000000000
0
SPLINE
5
321
100
AcDbEntity
8
0
100
AcDbSpline
62
9
6
CONTINUOUS
70
0
71
3
72
11
73
7
74
5
42
0.0000001000
43
0.0000001000
44
0.0000000001
12
1.8930906295
22
36.9839852125
32
0.0000000000
13
5.5294820353
23
36.6172607215
33
0.0000000000
40
0.0000000000
40
0.0000000000
40
0.0000000000
40
0.0000000000
40
0.2455643573
40
0.4941750509
40
0.7457003879
40
1.0000000000
40
1.0000000000
40
1.0000000000
40
1.0000000000
10
-18.9101507159
20
-16.8141046490
30
0.0000000000
10
-18.7551921880
20
-13.7867884631
30
0.0000000000
10
-18.3639664424
20
-7.6983953939
30
0.0000000000
10
-17.5419555392
20
1.4707723536
30
0.0000000000
10
-16.4820048305
20
10.7240100215
30
0.0000000000
10
-15.6220841339
20
16.9091846547
30
0.0000000000
10
-15.1533690884
20
20.0131030538
30
0.0000000000
11
-18.9101507159
21
-16.8141046490
31
0.0000000000
11
-18.3284698216
21
-7.7388886047
31
0.0000000000
11
-17.5077698436
21
1.4311106643
31
0.0000000000
11
-16.4489963438
21
10.6853284524
31
0.0000000000
11
-15.1533690884
21
20.0131030538
31
0.0000000000
0
SPLINE
5
322
100
AcDbEntity
8
0
100
AcDbSpline
62
9
6
CONTINUOUS
70
0
71
3
72
8
73
4
74
2
42
0.0000001000
43
0.0000001000
44
0.0000000001
12
-0.0259748984
22
0.0129806983
32
0.0000000000
13
-0.0252672111
23
0.0143001024
33
0.0000000000
40
0.0000000000
40
0.0000000000
40
0.0000000000
40
0.0000000000
40
1.0000000000
40
1.0000000000
40
1.0000000000
40
1.0000000000
10
-18.5264494028
20
-17.7061315574
30
0.0000000000
10
-18.5351077023
20
-17.7018046580
30
0.0000000000
10
-18.5436544299
20
-17.6972548420
30
0.0000000000
10
-18.5520768336
20
-17.6924881412
30
0.0000000000
11
-18.5264494028
21
-17.7061315574
31
0.0000000000
11
-18.5520768336
21
-17.6924881412
31
0.0000000000
0
SPLINE
5
323
100
AcDbEntity
8
0
100
AcDbSpline
62
9
6
CONTINUOUS
70
0
71
3
72
12
73
8
74
6
42
0.0000001000
43
0.0000001000
44
0.0000000001
12
-0.8704568471
22
0.4926393327
32
0.0000000000
13
0.0502931997
23
0.9936662770
33
0.0000000000
40
0.0000000000
40
0.0000000000
40
0.0000000000
40
0.0000000000
40
0.0625693557
40
0.2633597899
40
0.4832890811
40
0.7285483243
40
1.0000000000
40
1.0000000000
40
1.0000000000
40
1.0000000000
10
-18.5520768336
20
-17.6924881412
30
0.0000000000
10
-18.5702314750
20
-17.6822134327
30
0.0000000000
10
-18.6442145789
20
-17.6347247946
30
0.0000000000
10
-18.7570483605
20
-17.5167811280
30
0.0000000000
10
-18.8564705953
20
-17.3165392351
30
0.0000000000
10
-18.9101542513
20
-17.0763469509
30
0.0000000000
10
-18.9147014403
20
-16.9040154410
30
0.0000000000
10
-18.9101507159
20
-16.8141046490
30
0.0000000000
11
-18.5520768336
21
-17.6924881412
31
0.0000000000
11
-18.6046801216
21
-17.6587013146
31
0.0000000000
11
-18.7445128761
21
-17.5160251666
31
0.0000000000
11
-18.8447441708
21
-17.3215151275
31
0.0000000000
11
-18.9007861227
21
-17.0840198966
31
0.0000000000
11
-18.9101507159
21
-16.8141046490
31
0.0000000000
0
SPLINE
5
324
100
AcDbEntity
8
0
100
AcDbSpline
62
7
6
CONTINUOUS
70
0
71
3
72
39
73
35
74
33
42
0.0000001000
43
0.0000001000
44
0.0000000001
12
4.1777928979
22
-3.0650696324
32
0.0000000000
13
-3.2083246367
23
-4.0700463122
33
0.0000000000
40
0.0000000000
40
0.0000000000
40
0.0000000000
40
0.0000000000
40
0.0030360690
40
0.0357690434
40
0.0691419333
40
0.1030683857
40
0.1374854288
40
0.1723671801
40
0.2075969617
40
0.2431716258
40
0.2789653376
40
0.3149430979
40
0.3510157643
40
0.3871105619
40
0.4231603991
40
0.4590888265
40
0.4948145382
40
0.5302989854
40
0.5654096614
40
0.6001583933
40
0.6344116836
40
0.6681650602
40
0.7013335070
40
0.7338573518
40
0.7657395180
40
0.7968242889
40
0.8272180334
40
0.8567061171
40
0.8854200484
40
0.9132451020
40
0.9402061553
40
0.9663947835
40
0.9917002342
40
1.0000000000
40
1.0000000000
40
1.0000000000
40
1.0000000000
10
21.5801200648
20
20.2413519509
30
0.0000000000
10
21.5843480874
20
20.2382500299
30
0.0000000000
10
21.6340661814
20
20.2015775133
30
0.0000000000
10
21.7280351528
20
20.1278154965
30
0.0000000000
10
21.8582954913
20
20.0142336154
30
0.0000000000
10
21.9849016266
20
19.8923674701
30
0.0000000000
10
22.1074126749
20
19.7627814423
30
0.0000000000
10
22.2253878017
20
19.6260702904
30
0.0000000000
10
22.3384862544
20
19.4827465089
30
0.0000000000
10
22.4462833634
20
19.3334497676
30
0.0000000000
10
22.5484621330
20
19.1787049374
30
0.0000000000
10
22.6446430441
20
19.0191588026
30
0.0000000000
10
22.7345134583
20
18.8553821947
30
0.0000000000
10
22.8177501719
20
18.6879977636
30
0.0000000000
10
22.8940551751
20
18.5176144793
30
0.0000000000
10
22.9631380616
20
18.3448627864
30
0.0000000000
10
23.0247406192
20
18.1703383831
30
0.0000000000
10
23.0785830093
20
17.9947406902
30
0.0000000000
10
23.1244504535
20
17.8186340020
30
0.0000000000
10
23.1620962214
20
17.6427592014
30
0.0000000000
10
23.1913358832
20
17.4676657797
30
0.0000000000
10
23.2119690998
20
17.2940945089
30
0.0000000000
10
23.2238313688
20
17.1226927572
30
0.0000000000
10
23.2267832973
20
16.9541324991
30
0.0000000000
10
23.2207130110
20
16.7892493189
30
0.0000000000
10
23.2055532926
20
16.6286396217
30
0.0000000000
10
23.1813245938
20
16.4733195810
30
0.0000000000
10
23.1480687706
20
16.3238622675
30
0.0000000000
10
23.1060007272
20
16.1812507966
30
0.0000000000
10
23.0553419491
20
16.0461012229
30
0.0000000000
10
22.9964630493
20
15.9191066555
30
0.0000000000
10
22.9298549535
20
15.8009503734
30
0.0000000000
10
22.8718422812
20
15.7153787909
30
0.0000000000
10
22.8365612045
20
15.6692686138
30
0.0000000000
10
22.8276850902
20
15.6580084701
30
0.0000000000
11
21.5801200648
21
20.2413519509
31
0.0000000000
11
21.5927802470
21
20.2320138081
31
0.0000000000
11
21.7262433685
21
20.1273857866
31
0.0000000000
11
21.8566233213
21
20.0138254246
31
0.0000000000
11
21.9833164528
21
19.8919906685
31
0.0000000000
11
22.1058664568
21
19.7624672364
31
0.0000000000
11
22.2239796808
21
19.6256882536
31
0.0000000000
11
22.3370849452
21
19.4824353839
31
0.0000000000
11
22.4450087965
21
19.3330296279
31
0.0000000000
11
22.5472156811
21
19.1782943440
31
0.0000000000
11
22.6434654891
21
19.0186704331
31
0.0000000000
11
22.7333798021
21
18.8548327742
31
0.0000000000
11
22.8166450265
21
18.6873898435
31
0.0000000000
11
22.8929738778
21
18.5169284876
31
0.0000000000
11
22.9620712696
21
18.3440870793
31
0.0000000000
11
23.0236504102
21
18.1695398795
31
0.0000000000
11
23.0775057936
21
17.9937639976
31
0.0000000000
11
23.1233053933
21
17.8177193888
31
0.0000000000
11
23.1609273966
21
17.6416648634
31
0.0000000000
11
23.1900872319
21
17.4666143183
31
0.0000000000
11
23.2106472592
21
17.2929545170
31
0.0000000000
11
23.2224172641
21
17.1215158886
31
0.0000000000
11
23.2252617761
21
16.9530373299
31
0.0000000000
11
23.2190672577
21
16.7879754227
31
0.0000000000
11
23.2038069921
21
16.6276531774
31
0.0000000000
11
23.1794015741
21
16.4720891962
31
0.0000000000
11
23.1460803285
21
16.3229926582
31
0.0000000000
11
23.1038499345
21
16.1803488136
31
0.0000000000
11
23.0531157862
21
16.0454126882
31
0.0000000000
11
22.9942346611
21
15.9187471072
31
0.0000000000
11
22.9274906841
21
15.8006182096
31
0.0000000000
11
22.8538252516
21
15.6921659928
31
0.0000000000
11
22.8276850902
21
15.6580084701
31
0.0000000000
0
SPLINE
5
325
100
AcDbEntity
8
0
100
AcDbSpline
62
7
6
CONTINUOUS
70
0
71
3
72
11
73
7
74
5
42
0.0000001000
43
0.0000001000
44
0.0000000001
12
-0.2805570148
22
-0.3559116276
32
0.0000000000
13
-0.3804147990
23
-0.2460490802
33
0.0000000000
40
0.0000000000
40
0.0000000000
40
0.0000000000
40
0.0000000000
40
0.1875686452
40
0.4632150966
40
0.7334848527
40
1.0000000000
40
1.0000000000
40
1.0000000000
40
1.0000000000
10
22.8276850902
20
15.6580084701
30
0.0000000000
10
22.8101438571
20
15.6357558495
30
0.0000000000
10
22.7652576588
20
15.5820366044
30
0.0000000000
10
22.6881176694
20
15.5023371434
30
0.0000000000
10
22.5950969942
20
15.4220907197
30
0.0000000000
10
22.5290311475
20
15.3748837614
30
0.0000000000
10
22.4952357121
20
15.3530251591
30
0.0000000000
11
22.8276850902
21
15.6580084701
31
0.0000000000
11
22.7731645728
21
15.5928063661
31
0.0000000000
11
22.6862540004
21
15.5031287834
31
0.0000000000
11
22.5934994976
21
15.4231935137
31
0.0000000000
11
22.4952357121
21
15.3530251591
31
0.0000000000
0
SPLINE
5
326
100
AcDbEntity
8
0
100
AcDbSpline
62
7
6
CONTINUOUS
70
0
71
3
72
9
73
5
74
3
42
0.0000001000
43
0.0000001000
44
0.0000000001
12
-0.0084076094
22
-0.0113716146
32
0.0000000000
13
0.0025546512
23
0.0090860659
33
0.0000000000
40
0.0000000000
40
0.0000000000
40
0.0000000000
40
0.0000000000
40
0.0445906726
40
1.0000000000
40
1.0000000000
40
1.0000000000
40
1.0000000000
10
21.5804127217
20
14.7725206997
30
0.0000000000
10
21.5802877547
20
14.7723516771
30
0.0000000000
10
21.5777076835
20
14.7690314980
30
0.0000000000
10
21.5798346726
20
14.7756230494
30
0.0000000000
10
21.5806482518
20
14.7785166867
30
0.0000000000
11
21.5804127217
21
14.7725206997
31
0.0000000000
11
21.5800670197
21
14.7720752868
31
0.0000000000
11
21.5806482518
21
14.7785166867
31
0.0000000000
0
SPLINE
5
327
100
AcDbEntity
8
0
100
AcDbSpline
62
7
6
CONTINUOUS
70
0
71
3
72
18
73
14
74
12
42
0.0000001000
43
0.0000001000
44
0.0000000001
12
0.8134822567
22
0.3756930640
32
0.0000000000
13
0.8016850218
23
-0.4008397784
33
0.0000000000
40
0.0000000000
40
0.0000000000
40
0.0000000000
40
0.0000000000
40
0.0893849138
40
0.1790408614
40
0.2685268285
40
0.3627312415
40
0.4548475124
40
0.5475230269
40
0.6418820557
40
0.7327666972
40
0.8282674027
40
0.9200880842
40
1.0000000000
40
1.0000000000
40
1.0000000000
40
1.0000000000
10
13.5842670970
20
25.9155385555
30
0.0000000000
10
13.6085047774
20
25.9267323195
30
0.0000000000
10
13.6579748604
20
25.9472178566
30
0.0000000000
10
13.7343767573
20
25.9718896477
30
0.0000000000
10
13.8139168893
20
25.9906880914
30
0.0000000000
10
13.8954711962
20
26.0029934065
30
0.0000000000
10
13.9787135386
20
26.0085166244
30
0.0000000000
10
14.0621750535
20
26.0071345773
30
0.0000000000
10
14.1448663766
20
25.9988059121
30
0.0000000000
10
14.2274029413
20
25.9834969966
30
0.0000000000
10
14.3076551892
20
25.9615519072
30
0.0000000000
10
14.3826931776
20
25.9340863603
30
0.0000000000
10
14.4294073425
20
25.9127840790
30
0.0000000000
10
14.4507620712
20
25.9021067875
30
0.0000000000
11
13.5842670970
21
25.9155385555
31
0.0000000000
11
13.6582666225
21
25.9461810063
31
0.0000000000
11
13.7347151749
21
25.9708684520
31
0.0000000000
11
13.8127490850
21
25.9893105568
31
0.0000000000
11
13.8962158168
21
26.0019044401
31
0.0000000000
11
13.9785751448
21
26.0073691722
31
0.0000000000
11
14.0616052953
21
26.0059941129
31
0.0000000000
11
14.1457297277
21
25.9975212440
31
0.0000000000
11
14.2258008499
21
25.9826695498
31
0.0000000000
11
14.3083434193
21
25.9600981315
31
0.0000000000
11
14.3856061168
21
25.9318183801
31
0.0000000000
11
14.4507620712
21
25.9021067875
31
0.0000000000
0
SPLINE
5
328
100
AcDbEntity
8
0
100
AcDbSpline
62
7
6
CONTINUOUS
70
0
71
3
72
9
73
5
74
3
42
0.0000001000
43
0.0000001000
44
0.0000000001
12
0.0106959682
22
0.0091088848
32
0.0000000000
13
0.0125651438
23
0.0062858928
33
0.0000000000
40
0.0000000000
40
0.0000000000
40
0.0000000000
40
0.0000000000
40
0.2054428923
40
1.0000000000
40
1.0000000000
40
1.0000000000
40
1.0000000000
10
-0.0815865071
20
23.1128621998
30
0.0000000000
10
-0.0808540369
20
23.1134859850
30
0.0000000000
10
-0.0772142799
20
23.1164346587
30
0.0000000000
10
-0.0732247290
20
23.1189307125
30
0.0000000000
10
-0.0698968209
20
23.1205955462
30
0.0000000000
11
-0.0815865071
21
23.1128621998
31
0.0000000000
11
-0.0793437488
21
23.1146784495
31
0.0000000000
11
-0.0698968209
21
23.1205955462
31
0.0000000000
0
SPLINE
5
329
100
AcDbEntity
8
0
100
AcDbSpline
62
7
6
CONTINUOUS
70
0
71
3
72
40
73
36
74
34
42
0.0000001000
43
0.0000001000
44
0.0000000001
12
-5.2426771194
22
-2.5162024594
32
0.0000000000
13
-3.3584778030
23
4.7497343924
33
0.0000000000
40
0.0000000000
40
0.0000000000
40
0.0000000000
40
0.0000000000
40
0.0279422086
40
0.0568886404
40
0.0867856735
40
0.1175708214
40
0.1491739462
40
0.1815182333
40
0.2145211122
40
0.2480951614
40
0.2821488835
40
0.3165874368
40
0.3513133877
40
0.3862274132
40
0.4212289430
40
0.4562168440
40
0.4910901116
40
0.5257484895
40
0.5600931426
40
0.5940273782
40
0.6274572983
40
0.6602925290
40
0.6924470069
40
0.7238397592
40
0.7543957739
40
0.7840469578
40
0.8127331797
40
0.8404034472
40
0.8670172461
40
0.8925460724
40
0.9169751935
40
0.9403056606
40
0.9625565732
40
0.9837675646
40
1.0000000000
40
1.0000000000
40
1.0000000000
40
1.0000000000
10
16.1536733701
20
21.3188812591
30
0.0000000000
10
16.1048427109
20
21.2954451744
30
0.0000000000
10
16.0042200159
20
21.2502103994
30
0.0000000000
10
15.8477536308
20
21.1882789863
30
0.0000000000
10
15.6835862011
20
21.1312604880
30
0.0000000000
10
15.5123430826
20
21.0793723244
30
0.0000000000
10
15.3346705322
20
21.0328099275
30
0.0000000000
10
15.1512414871
20
20.9917497118
30
0.0000000000
10
14.9627506352
20
20.9563471819
30
0.0000000000
10
14.7699123201
20
20.9267365458
30
0.0000000000
10
14.5734575677
20
20.9030300592
30
0.0000000000
10
14.3741313163
20
20.8853175806
30
0.0000000000
10
14.1726894811
20
20.8736661929
30
0.0000000000
10
13.9698960252
20
20.8681199384
30
0.0000000000
10
13.7665200336
20
20.8686996482
30
0.0000000000
10
13.5633327288
20
20.8754028610
30
0.0000000000
10
13.3611044965
20
20.8882038437
30
0.0000000000
10
13.1606019397
20
20.9070537031
30
0.0000000000
10
12.9625849245
20
20.9318805873
30
0.0000000000
10
12.7678036572
20
20.9625899866
30
0.0000000000
10
12.5769957966
20
20.9990651279
30
0.0000000000
10
12.3908836377
20
21.0411674568
30
0.0000000000
10
12.2101713156
20
21.0887372250
30
0.0000000000
10
12.0355420836
20
21.1415941810
30
0.0000000000
10
11.8676557025
20
21.1995383548
30
0.0000000000
10
11.7071458875
20
21.2623509676
30
0.0000000000
10
11.5546178770
20
21.3297954666
30
0.0000000000
10
11.4106461616
20
21.4016186896
30
0.0000000000
10
11.2757723858
20
21.4775521822
30
0.0000000000
10
11.1505034979
20
21.5573136750
30
0.0000000000
10
11.0353102488
20
21.6406087008
30
0.0000000000
10
10.9306261732
20
21.7271322910
30
0.0000000000
10
10.8368471919
20
21.8165706141
30
0.0000000000
10
10.7595155747
20
21.9028208401
30
0.0000000000
10
10.7153616603
20
21.9605184952
30
0.0000000000
10
10.6971895690
20
21.9862184140
30
0.0000000000
11
16.1536733701
21
21.3188812591
31
0.0000000000
11
16.0055277028
21
21.2521278972
31
0.0000000000
11
15.8490583034
21
21.1900601801
31
0.0000000000
11
15.6848602353
21
21.1329140890
31
0.0000000000
11
15.5135581031
21
21.0809068930
31
0.0000000000
11
15.3358033060
21
21.0342362086
31
0.0000000000
11
15.1522718340
21
20.9930793521
31
0.0000000000
11
14.9636617431
21
20.9575926637
31
0.0000000000
11
14.7706902153
21
20.9279108559
31
0.0000000000
11
14.5740909467
21
20.9041465438
31
0.0000000000
11
14.3746114749
21
20.8863898325
31
0.0000000000
11
14.1730101411
21
20.8747079546
31
0.0000000000
11
13.9700531618
21
20.8691450314
31
0.0000000000
11
13.7665119179
21
20.8697219249
31
0.0000000000
11
13.5631599258
21
20.8764361547
31
0.0000000000
11
13.3607697263
21
20.8892619273
31
0.0000000000
11
13.1601102020
21
20.9081502395
31
0.0000000000
11
12.9619436324
21
20.9330290615
31
0.0000000000
11
12.7670225643
21
20.9638036506
31
0.0000000000
11
12.5760872264
21
21.0003568911
31
0.0000000000
11
12.3898626959
21
21.0425497401
31
0.0000000000
11
12.2090560009
21
21.0902217944
31
0.0000000000
11
12.0343536007
21
21.1431918755
31
0.0000000000
11
11.8664187808
21
21.2012587169
31
0.0000000000
11
11.7058890934
21
21.2642017464
31
0.0000000000
11
11.5533739897
21
21.3317819129
31
0.0000000000
11
11.4094525280
21
21.4037425871
31
0.0000000000
11
11.2746711801
21
21.4798105338
31
0.0000000000
11
11.1495417696
21
21.5596969434
31
0.0000000000
11
11.0345395320
21
21.6430985252
31
0.0000000000
11
10.9301013226
21
21.7296986497
31
0.0000000000
11
10.8366239815
21
21.8191685222
31
0.0000000000
11
10.7544627888
21
21.9111684524
31
0.0000000000
11
10.6971895690
21
21.9862184140
31
0.0000000000
0
SPLINE
5
32A
100
AcDbEntity
8
0
100
AcDbSpline
62
7
6
CONTINUOUS
70
0
71
3
72
29
73
25
74
23
42
0.0000001000
43
0.0000001000
44
0.0000000001
12
3.0209087684
22
-2.2163127648
32
0.0000000000
13
0.0301331772
23
-3.7465472420
33
0.0000000000
40
0.0000000000
40
0.0000000000
40
0.0000000000
40
0.0000000000
40
0.0041987589
40
0.0494671197
40
0.0956204573
40
0.1425393491
40
0.1901367079
40
0.2383767389
40
0.2870980816
40
0.3362963827
40
0.3857976177
40
0.4355533843
40
0.4854404020
40
0.5353580265
40
0.5852134724
40
0.6349010136
40
0.6843082072
40
0.7333817420
40
0.7819383666
40
0.8299944373
40
0.8773653324
40
0.9240448676
40
0.9699154689
40
1.0000000000
40
1.0000000000
40
1.0000000000
40
1.0000000000
10
21.5801200648
20
20.2413519509
30
0.0000000000
10
21.5843480874
20
20.2382500299
30
0.0000000000
10
21.6340661814
20
20.2015775133
30
0.0000000000
10
21.7280351528
20
20.1278154965
30
0.0000000000
10
21.8582954913
20
20.0142336154
30
0.0000000000
10
21.9849016266
20
19.8923674701
30
0.0000000000
10
22.1074126749
20
19.7627814423
30
0.0000000000
10
22.2253878017
20
19.6260702904
30
0.0000000000
10
22.3384862544
20
19.4827465089
30
0.0000000000
10
22.4462833634
20
19.3334497676
30
0.0000000000
10
22.5484621330
20
19.1787049374
30
0.0000000000
10
22.6446430441
20
19.0191588026
30
0.0000000000
10
22.7345134583
20
18.8553821947
30
0.0000000000
10
22.8177501719
20
18.6879977636
30
0.0000000000
10
22.8940551751
20
18.5176144793
30
0.0000000000
10
22.9631380616
20
18.3448627864
30
0.0000000000
10
23.0247406192
20
18.1703383831
30
0.0000000000
10
23.0785830093
20
17.9947406902
30
0.0000000000
10
23.1244504535
20
17.8186340020
30
0.0000000000
10
23.1620962214
20
17.6427592014
30
0.0000000000
10
23.1913358832
20
17.4676657797
30
0.0000000000
10
23.2119690998
20
17.2940945089
30
0.0000000000
10
23.2225466686
20
17.1412558049
30
0.0000000000
10
23.2250099008
20
17.0464129167
30
0.0000000000
10
23.2253120816
20
17.0088418777
30
0.0000000000
11
21.5801200648
21
20.2413519509
31
0.0000000000
11
21.5927802470
21
20.2320138081
31
0.0000000000
11
21.7262433685
21
20.1273857866
31
0.0000000000
11
21.8566233213
21
20.0138254246
31
0.0000000000
11
21.9833164528
21
19.8919906685
31
0.0000000000
11
22.1058664568
21
19.7624672364
31
0.0000000000
11
22.2239796808
21
19.6256882536
31
0.0000000000
11
22.3370849452
21
19.4824353839
31
0.0000000000
11
22.4450087965
21
19.3330296279
31
0.0000000000
11
22.5472156811
21
19.1782943440
31
0.0000000000
11
22.6434654891
21
19.0186704331
31
0.0000000000
11
22.7333798021
21
18.8548327742
31
0.0000000000
11
22.8166450265
21
18.6873898435
31
0.0000000000
11
22.8929738778
21
18.5169284876
31
0.0000000000
11
22.9620712696
21
18.3440870793
31
0.0000000000
11
23.0236504102
21
18.1695398795
31
0.0000000000
11
23.0775057936
21
17.9937639976
31
0.0000000000
11
23.1233053933
21
17.8177193888
31
0.0000000000
11
23.1609273966
21
17.6416648634
31
0.0000000000
11
23.1900872319
21
17.4666143183
31
0.0000000000
11
23.2106472592
21
17.2929545170
31
0.0000000000
11
23.2224172641
21
17.1215158886
31
0.0000000000
11
23.2253120816
21
17.0088418777
31
0.0000000000
0
SPLINE
5
32B
100
AcDbEntity
8
0
100
AcDbSpline
62
7
6
CONTINUOUS
70
0
71
3
72
18
73
14
74
12
42
0.0000001000
43
0.0000001000
44
0.0000000001
12
0.0115397707
22
-1.4347738965
32
0.0000000000
13
-0.8884260051
23
-1.1270477259
33
0.0000000000
40
0.0000000000
40
0.0000000000
40
0.0000000000
40
0.0000000000
40
0.0388934922
40
0.1540278295
40
0.2662825764
40
0.3760418573
40
0.4825305740
40
0.5862236366
40
0.6867067431
40
0.7840697323
40
0.8786433045
40
0.9700275062
40
1.0000000000
40
1.0000000000
40
1.0000000000
40
1.0000000000
10
23.2253120816
20
17.0088418777
30
0.0000000000
10
23.2254616889
20
16.9902407553
30
0.0000000000
10
23.2254004263
20
16.9165704864
30
0.0000000000
10
23.2207130110
20
16.7892493189
30
0.0000000000
10
23.2055532926
20
16.6286396217
30
0.0000000000
10
23.1813245938
20
16.4733195810
30
0.0000000000
10
23.1480687706
20
16.3238622675
30
0.0000000000
10
23.1060007272
20
16.1812507966
30
0.0000000000
10
23.0553419491
20
16.0461012229
30
0.0000000000
10
22.9964630493
20
15.9191066555
30
0.0000000000
10
22.9298549535
20
15.8009503734
30
0.0000000000
10
22.8718422812
20
15.7153787909
30
0.0000000000
10
22.8365612045
20
15.6692686138
30
0.0000000000
10
22.8276850902
20
15.6580084701
30
0.0000000000
11
23.2253120816
21
17.0088418777
31
0.0000000000
11
23.2252617761
21
16.9530373299
31
0.0000000000
11
23.2190672577
21
16.7879754227
31
0.0000000000
11
23.2038069921
21
16.6276531774
31
0.0000000000
11
23.1794015741
21
16.4720891962
31
0.0000000000
11
23.1460803285
21
16.3229926582
31
0.0000000000
11
23.1038499345
21
16.1803488136
31
0.0000000000
11
23.0531157862
21
16.0454126882
31
0.0000000000
11
22.9942346611
21
15.9187471072
31
0.0000000000
11
22.9274906841
21
15.8006182096
31
0.0000000000
11
22.8538252516
21
15.6921659928
31
0.0000000000
11
22.8276850902
21
15.6580084701
31
0.0000000000
0
SPLINE
5
32C
100
AcDbEntity
8
0
100
AcDbSpline
62
7
6
CONTINUOUS
70
0
71
3
72
8
73
4
74
2
42
0.0000001000
43
0.0000001000
44
0.0000000001
12
0.0004990217
22
0.0017205014
32
0.0000000000
13
0.0003829436
23
0.0013620063
33
0.0000000000
40
0.0000000000
40
0.0000000000
40
0.0000000000
40
0.0000000000
40
1.0000000000
40
1.0000000000
40
1.0000000000
40
1.0000000000
10
21.5801966186
20
14.7769513875
30
0.0000000000
10
21.5803629592
20
14.7775248879
30
0.0000000000
10
21.5805206040
20
14.7780626846
30
0.0000000000
10
21.5806482518
20
14.7785166867
30
0.0000000000
11
21.5801966186
21
14.7769513875
31
0.0000000000
11
21.5806482518
21
14.7785166867
31
0.0000000000
0
SPLINE
5
32D
100
AcDbEntity
8
0
100
AcDbSpline
62
7
6
CONTINUOUS
70
0
71
3
72
9
73
5
74
3
42
0.0000001000
43
0.0000001000
44
0.0000000001
12
0.0001134320
22
0.0005623896
32
0.0000000000
13
-0.0000692680
23
0.0000975166
33
0.0000000000
40
0.0000000000
40
0.0000000000
40
0.0000000000
40
0.0000000000
40
0.3306231694
40
1.0000000000
40
1.0000000000
40
1.0000000000
40
1.0000000000
10
21.5809148452
20
14.7795536937
30
0.0000000000
10
21.5809273463
20
14.7796156734
30
0.0000000000
10
21.5809555685
20
14.7797784407
30
0.0000000000
10
21.5809517294
20
14.7798596041
30
0.0000000000
10
21.5809362740
20
14.7798813626
30
0.0000000000
11
21.5809148452
21
14.7795536937
31
0.0000000000
11
21.5809425035
21
14.7797143824
31
0.0000000000
11
21.5809362740
21
14.7798813626
31
0.0000000000
0
SPLINE
5
32E
100
AcDbEntity
8
0
100
AcDbSpline
62
7
6
CONTINUOUS
70
0
71
3
72
12
73
8
74
6
42
0.0000001000
43
0.0000001000
44
0.0000000001
12
-0.2451298512
22
0.0136271387
32
0.0000000000
13
-0.2413116466
23
0.0452034682
33
0.0000000000
40
0.0000000000
40
0.0000000000
40
0.0000000000
40
0.0000000000
40
0.0506309010
40
0.3063786949
40
0.5553352430
40
0.7950442673
40
1.0000000000
40
1.0000000000
40
1.0000000000
40
1.0000000000
10
6.9616778019
20
23.0825418424
30
0.0000000000
10
6.9575407535
20
23.0827718271
30
0.0000000000
10
6.9325107989
20
23.0842397332
30
0.0000000000
10
6.8871936251
20
23.0877384482
30
0.0000000000
10
6.8266233310
20
23.0943262509
30
0.0000000000
10
6.7704075014
20
23.1022430762
30
0.0000000000
10
6.7345402328
20
23.1084100819
30
0.0000000000
10
6.7180541643
20
23.1114983186
30
0.0000000000
11
6.9616778019
21
23.0825418424
31
0.0000000000
11
6.9492688328
21
23.0832696137
31
0.0000000000
11
6.8866701246
21
23.0881116319
31
0.0000000000
11
6.8259114309
21
23.0947333032
31
0.0000000000
11
6.7676406701
21
23.1029569985
31
0.0000000000
11
6.7180541643
21
23.1114983186
31
0.0000000000
0
SPLINE
5
32F
100
AcDbEntity
8
0
100
AcDbSpline
62
7
6
CONTINUOUS
70
0
71
3
72
8
73
4
74
2
42
0.0000001000
43
0.0000001000
44
0.0000000001
12
-0.0067366515
22
0.0679104449
32
0.0000000000
13
-0.0000038008
23
0.0682445507
33
0.0000000000
40
0.0000000000
40
0.0000000000
40
0.0000000000
40
0.0000000000
40
1.0000000000
40
1.0000000000
40
1.0000000000
40
1.0000000000
10
11.0923822623
20
21.5998886641
30
0.0000000000
10
11.0901367119
20
21.6225254791
30
0.0000000000
10
11.0890058390
20
21.6452740415
30
0.0000000000
10
11.0890045721
20
21.6680222251
30
0.0000000000
11
11.0923822623
21
21.5998886641
31
0.0000000000
11
11.0890045721
21
21.6680222251
31
0.0000000000
0
SPLINE
5
330
100
AcDbEntity
8
0
100
AcDbSpline
62
7
6
CONTINUOUS
70
0
71
3
72
16
73
12
74
10
42
0.0000001000
43
0.0000001000
44
0.0000000001
12
0.4035298950
22
0.9176758371
32
0.0000000000
13
0.8956189013
23
0.4492564213
33
0.0000000000
40
0.0000000000
40
0.0000000000
40
0.0000000000
40
0.0000000000
40
0.0766285920
40
0.1741530629
40
0.2761448249
40
0.3831248479
40
0.4953806848
40
0.6131606036
40
0.7365284194
40
0.8655088305
40
1.0000000000
40
1.0000000000
40
1.0000000000
40
1.0000000000
10
11.1520812253
20
21.5579764816
30
0.0000000000
10
11.1623885346
20
21.5814165507
30
0.0000000000
10
11.1883088633
20
21.6335887041
30
0.0000000000
10
11.2372308085
20
21.7119632616
30
0.0000000000
10
11.2997188032
20
21.7932319472
30
0.0000000000
10
11.3724812730
20
21.8722491079
30
0.0000000000
10
11.4552238786
20
21.9487243933
30
0.0000000000
10
11.5475986254
20
22.0223553965
30
0.0000000000
10
11.6492412095
20
22.0928639391
30
0.0000000000
10
11.7597321175
20
22.1599676334
30
0.0000000000
10
11.8374143147
20
22.2014130800
30
0.0000000000
10
11.8775652592
20
22.2215534205
30
0.0000000000
11
11.1520812253
21
21.5579764816
31
0.0000000000
11
11.1861537976
21
21.6267974238
31
0.0000000000
11
11.2377130407
21
21.7098056991
31
0.0000000000
11
11.2998285546
21
21.7909550858
31
0.0000000000
11
11.3722781750
21
21.8699560414
31
0.0000000000
11
11.4547370165
21
21.9464535651
31
0.0000000000
11
11.5468990058
21
22.0201643082
31
0.0000000000
11
11.6483639546
21
22.0907675734
31
0.0000000000
11
11.7587400279
21
22.1579912514
31
0.0000000000
11
11.8775652592
21
22.2215534205
31
0.0000000000
0
SPLINE
5
331
100
AcDbEntity
8
0
100
AcDbSpline
62
7
6
CONTINUOUS
70
0
71
3
72
20
73
16
74
14
42
0.0000001000
43
0.0000001000
44
0.0000000001
12
1.2254722841
22
0.8881652661
32
0.0000000000
13
0.0000030845
23
1.5131989163
33
0.0000000000
40
0.0000000000
40
0.0000000000
40
0.0000000000
40
0.0000000000
40
0.0696976417
40
0.1400368971
40
0.2111944137
40
0.2833241675
40
0.3565733254
40
0.4311130602
40
0.5071651819
40
0.5851305615
40
0.6651433342
40
0.7471576942
40
0.8311627632
40
0.9171385785
40
1.0000000000
40
1.0000000000
40
1.0000000000
40
1.0000000000
10
20.9598178842
20
-10.7227313555
30
0.0000000000
10
20.9882887269
20
-10.7020970140
30
0.0000000000
10
21.0439134403
20
-10.6584566711
30
0.0000000000
10
21.1225659093
20
-10.5864667069
30
0.0000000000
10
21.1963746741
20
-10.5078256470
30
0.0000000000
10
21.2649445726
20
-10.4226833750
30
0.0000000000
10
21.3278718662
20
-10.3312108487
30
0.0000000000
10
21.3847685187
20
-10.2335730643
30
0.0000000000
10
21.4352954419
20
-10.1298389933
30
0.0000000000
10
21.4790671040
20
-10.0201002139
30
0.0000000000
10
21.5156296532
20
-9.9045951553
30
0.0000000000
10
21.5445101569
20
-9.7838010873
30
0.0000000000
10
21.5653058374
20
-9.6583068910
30
0.0000000000
10
21.5774670020
20
-9.5312651902
30
0.0000000000
10
21.5800588331
20
-9.4460790894
30
0.0000000000
10
21.5800589183
20
-9.4042838183
30
0.0000000000
11
20.9598178842
21
-10.7227313555
31
0.0000000000
11
21.0427983839
21
-10.6576424486
31
0.0000000000
11
21.1213201060
21
-10.5857926773
31
0.0000000000
11
21.1950197415
21
-10.5072974087
31
0.0000000000
11
21.2634975892
21
-10.4223098204
31
0.0000000000
11
21.3263424402
21
-10.3310123127
31
0.0000000000
11
21.3831623240
21
-10.2335807309
31
0.0000000000
11
21.4335943465
21
-10.1301424059
31
0.0000000000
11
21.4773495618
21
-10.0205839945
31
0.0000000000
11
21.5139432241
21
-9.9051759174
31
0.0000000000
11
21.5428640694
21
-9.7844934886
31
0.0000000000
11
21.5637139772
21
-9.6591034978
31
0.0000000000
11
21.5761831160
21
-9.5296087861
31
0.0000000000
11
21.5800589183
21
-9.4042838183
31
0.0000000000
0
SPLINE
5
332
100
AcDbEntity
8
0
100
AcDbSpline
62
7
6
CONTINUOUS
70
0
71
3
72
17
73
13
74
11
42
0.0000001000
43
0.0000001000
44
0.0000000001
12
-0.0000003619
22
1.2787589490
32
0.0000000000
13
-0.6413999662
23
1.1062504870
33
0.0000000000
40
0.0000000000
40
0.0000000000
40
0.0000000000
40
0.0000000000
40
0.0931726255
40
0.1936012838
40
0.2946374052
40
0.3960993816
40
0.4977637442
40
0.5994160614
40
0.7010265346
40
0.8026116490
40
0.9041760118
40
1.0000000000
40
1.0000000000
40
1.0000000000
40
1.0000000000
10
21.5800589203
20
20.9407958535
30
0.0000000000
10
21.5800589090
20
20.9805109631
30
0.0000000000
10
21.5776726522
20
21.0630520142
30
0.0000000000
10
21.5668301388
20
21.1882366885
30
0.0000000000
10
21.5483415975
20
21.3160952748
30
0.0000000000
10
21.5227221726
20
21.4432495273
30
0.0000000000
10
21.4902835595
20
21.5691051008
30
0.0000000000
10
21.4513408413
20
21.6931655271
30
0.0000000000
10
21.4061745697
20
21.8150593453
30
0.0000000000
10
21.3550047241
20
21.9345158563
30
0.0000000000
10
21.2990832719
20
22.0490793929
30
0.0000000000
10
21.2585786504
20
22.1228652132
30
0.0000000000
10
21.2380914828
20
22.1582003244
30
0.0000000000
11
21.5800589203
21
20.9407958535
31
0.0000000000
11
21.5766646710
21
21.0598925880
31
0.0000000000
11
21.5656392920
21
21.1878384403
31
0.0000000000
11
21.5471982175
21
21.3157123511
31
0.0000000000
11
21.5216139140
21
21.4429061330
31
0.0000000000
11
21.4892005962
21
21.5688005783
31
0.0000000000
11
21.4502959660
21
21.6928266233
31
0.0000000000
11
21.4051676847
21
21.8146689848
31
0.0000000000
11
21.3540288321
21
21.9340780092
31
0.0000000000
11
21.2970606542
21
22.0507888953
31
0.0000000000
11
21.2380914828
21
22.1582003244
31
0.0000000000
0
SPLINE
5
333
100
AcDbEntity
8
0
100
AcDbSpline
62
7
6
CONTINUOUS
70
0
71
3
72
9
73
5
74
3
42
0.0000001000
43
0.0000001000
44
0.0000000001
12
0.0795291270
22
0.0420563124
32
0.0000000000
13
0.0728605653
23
0.0528100669
33
0.0000000000
40
0.0000000000
40
0.0000000000
40
0.0000000000
40
0.0000000000
40
0.5842363092
40
1.0000000000
40
1.0000000000
40
1.0000000000
40
1.0000000000
10
20.5423506744
20
-11.0176082416
30
0.0000000000
10
20.5578386089
20
-11.0094179667
30
0.0000000000
10
20.5837566387
20
-10.9942502913
30
0.0000000000
10
20.6085340489
20
-10.9773231889
30
0.0000000000
10
20.6186316414
20
-10.9700043528
30
0.0000000000
11
20.5423506744
21
-11.0176082416
31
0.0000000000
11
20.5877337870
21
-10.9910944045
31
0.0000000000
11
20.6186316414
21
-10.9700043528
31
0.0000000000
0
SPLINE
5
334
100
AcDbEntity
8
0
100
AcDbSpline
62
7
6
CONTINUOUS
70
0
71
3
72
17
73
13
74
11
42
0.0000001000
43
0.0000001000
44
0.0000000001
12
0.6923672232
22
-0.3460670439
32
0.0000000000
13
0.3403615784
23
-0.6949482992
33
0.0000000000
40
0.0000000000
40
0.0000000000
40
0.0000000000
40
0.0000000000
40
0.0503847250
40
0.1404898098
40
0.2346040286
40
0.3328138003
40
0.4351079600
40
0.5413706983
40
0.6513775624
40
0.7647969877
40
0.8811955450
40
1.0000000000
40
1.0000000000
40
1.0000000000
40
1.0000000000
10
15.5795956880
20
25.3376900820
30
0.0000000000
10
15.5912239320
20
25.3318779177
30
0.0000000000
10
15.6232538523
20
25.3148831394
30
0.0000000000
10
15.6748295295
20
25.2831110680
30
0.0000000000
10
15.7337874795
20
25.2402033204
30
0.0000000000
10
15.7918324796
20
25.1910525897
30
0.0000000000
10
15.8485249062
20
25.1357624153
30
0.0000000000
10
15.9033976029
20
25.0745187495
30
0.0000000000
10
15.9559649850
20
25.0075993229
30
0.0000000000
10
16.0057356802
20
24.9353775287
30
0.0000000000
10
16.0522174342
20
24.8583391778
30
0.0000000000
10
16.0804662130
20
24.8046030648
30
0.0000000000
10
16.0939450370
20
24.7770820801
30
0.0000000000
11
15.5795956880
21
25.3376900820
31
0.0000000000
11
15.6140509086
21
25.3194267366
31
0.0000000000
11
15.6734594724
21
25.2829270292
31
0.0000000000
11
15.7323920466
21
25.2401391006
31
0.0000000000
11
15.7904403589
21
25.1910890594
31
0.0000000000
11
15.8471615020
21
25.1358749027
31
0.0000000000
11
15.9020841111
21
25.0746784246
31
0.0000000000
11
15.9547175301
21
25.0077747841
31
0.0000000000
11
16.0045644071
21
24.9355375314
31
0.0000000000
11
16.0511347882
21
24.8584395151
31
0.0000000000
11
16.0939450370
21
24.7770820801
31
0.0000000000
0
SPLINE
5
335
100
AcDbEntity
8
0
100
AcDbSpline
62
7
6
CONTINUOUS
70
0
71
3
72
12
73
8
74
6
42
0.0000001000
43
0.0000001000
44
0.0000000001
12
0.0794384856
22
-0.0397300228
32
0.0000000000
13
0.0445479325
23
-0.0768293223
33
0.0000000000
40
0.0000000000
40
0.0000000000
40
0.0000000000
40
0.0000000000
40
0.1689358061
40
0.4446982556
40
0.7179283992
40
0.9949015518
40
1.0000000000
40
1.0000000000
40
1.0000000000
40
1.0000000000
10
20.9112616856
20
22.6718562582
30
0.0000000000
10
20.9157350204
20
22.6696189837
30
0.0000000000
10
20.9272415686
20
22.6631935460
30
0.0000000000
10
20.9443805301
20
22.6504966739
30
0.0000000000
10
20.9614070208
20
22.6328234978
30
0.0000000000
10
20.9707666724
20
22.6192439700
30
0.0000000000
10
20.9749652739
20
22.6120259298
30
0.0000000000
10
20.9750409824
20
22.6118953597
30
0.0000000000
11
20.9112616856
21
22.6718562582
31
0.0000000000
11
20.9243489418
21
22.6645293777
31
0.0000000000
11
20.9439895889
21
22.6499377748
31
0.0000000000
11
20.9608198244
21
22.6324887499
31
0.0000000000
11
20.9748133128
21
22.6122867576
31
0.0000000000
11
20.9750409824
21
22.6118953597
31
0.0000000000
0
SPLINE
5
336
100
AcDbEntity
8
0
100
AcDbSpline
62
7
6
CONTINUOUS
70
0
71
3
72
9
73
5
74
3
42
0.0000001000
43
0.0000001000
44
0.0000000001
12
0.0106959682
22
0.0091088848
32
0.0000000000
13
0.0125651438
23
0.0062858928
33
0.0000000000
40
0.0000000000
40
0.0000000000
40
0.0000000000
40
0.0000000000
40
0.2054428923
40
1.0000000000
40
1.0000000000
40
1.0000000000
40
1.0000000000
10
-0.0815865071
20
23.1128621998
30
0.0000000000
10
-0.0808540369
20
23.1134859850
30
0.0000000000
10
-0.0772142799
20
23.1164346587
30
0.0000000000
10
-0.0732247290
20
23.1189307125
30
0.0000000000
10
-0.0698968209
20
23.1205955462
30
0.0000000000
11
-0.0815865071
21
23.1128621998
31
0.0000000000
11
-0.0793437488
21
23.1146784495
31
0.0000000000
11
-0.0698968209
21
23.1205955462
31
0.0000000000
0
SPLINE
5
337
100
AcDbEntity
8
0
100
AcDbSpline
62
7
6
CONTINUOUS
70
0
71
3
72
24
73
20
74
18
42
0.0000001000
43
0.0000001000
44
0.0000000001
12
-1.1802138618
22
0.4703283964
32
0.0000000000
13
-1.1361660762
23
-0.5680996616
33
0.0000000000
40
0.0000000000
40
0.0000000000
40
0.0000000000
40
0.0000000000
40
0.0282422458
40
0.0868493739
40
0.1464689383
40
0.2070024884
40
0.2683257947
40
0.3302891698
40
0.3927307106
40
0.4554840717
40
0.5183771559
40
0.5812354225
40
0.6438834671
40
0.7061504238
40
0.7678441923
40
0.8287658525
40
0.8887502679
40
0.9476753427
40
1.0000000000
40
1.0000000000
40
1.0000000000
40
1.0000000000
10
1.2291820517
20
23.1921510618
30
0.0000000000
10
1.2180714217
20
23.1965787719
30
0.0000000000
10
1.1836878760
20
23.2096575849
30
0.0000000000
10
1.1247467936
20
23.2290471910
30
0.0000000000
10
1.0516010196
20
23.2486437546
30
0.0000000000
10
0.9764135012
20
23.2646403717
30
0.0000000000
10
0.8995542545
20
23.2770844654
30
0.0000000000
10
0.8213957420
20
23.2860046725
30
0.0000000000
10
0.7423105649
20
23.2914165082
30
0.0000000000
10
0.6626703023
20
23.2933249273
30
0.0000000000
10
0.5828468041
20
23.2917254689
30
0.0000000000
10
0.5032158132
20
23.2866047272
30
0.0000000000
10
0.4241576634
20
23.2779401667
30
0.0000000000
10
0.3460706732
20
23.2657008943
30
0.0000000000
10
0.2693794053
20
23.2498499835
30
0.0000000000
10
0.1945296594
20
23.2303457096
30
0.0000000000
10
0.1219688239
20
23.2071336165
30
0.0000000000
10
0.0543047998
20
23.1809747192
30
0.0000000000
10
0.0114726380
20
23.1612807428
30
0.0000000000
10
-0.0083438622
20
23.1513722028
30
0.0000000000
11
1.2291820517
21
23.1921510618
31
0.0000000000
11
1.1956494574
21
23.2049176242
31
0.0000000000
11
1.1249575210
21
23.2282520579
31
0.0000000000
11
1.0518233520
21
23.2479081819
31
0.0000000000
11
0.9766260857
21
23.2639558129
31
0.0000000000
11
0.8997395201
21
23.2764411875
31
0.0000000000
11
0.8215433938
21
23.2853918468
31
0.0000000000
11
0.7424154655
21
23.2908229559
31
0.0000000000
11
0.6627283357
21
23.2927395684
31
0.0000000000
11
0.5828567556
21
23.2911371092
31
0.0000000000
11
0.5031786299
21
23.2860020089
31
0.0000000000
11
0.4240781790
21
23.2773116552
31
0.0000000000
11
0.3459447282
21
23.2650331463
31
0.0000000000
11
0.2692112208
21
23.2491294649
31
0.0000000000
11
0.1943424571
21
23.2295621964
31
0.0000000000
11
0.1217937278
21
23.2062800445
31
0.0000000000
11
0.0520132694
21
23.1792092857
31
0.0000000000
11
-0.0083438622
21
23.1513722028
31
0.0000000000
0
SPLINE
5
338
100
AcDbEntity
8
0
100
AcDbSpline
62
7
6
CONTINUOUS
70
0
71
3
72
8
73
4
74
2
42
0.0000001000
43
0.0000001000
44
0.0000000001
12
-0.0050308648
22
0.0025152164
32
0.0000000000
13
-0.0052241425
23
0.0020832623
33
0.0000000000
40
0.0000000000
40
0.0000000000
40
0.0000000000
40
0.0000000000
40
1.0000000000
40
1.0000000000
40
1.0000000000
40
1.0000000000
10
1.2343123987
20
23.1898497301
30
0.0000000000
10
1.2326354438
20
23.1906881356
30
0.0000000000
10
1.2309233600
20
23.1914562729
30
0.0000000000
10
1.2291819791
20
23.1921506937
30
0.0000000000
11
1.2343123987
21
23.1898497301
31
0.0000000000
11
1.2291819791
21
23.1921506937
31
0.0000000000
0
SPLINE
5
339
100
AcDbEntity
8
0
100
AcDbSpline
62
7
6
CONTINUOUS
70
0
71
3
72
17
73
13
74
11
42
0.0000001000
43
0.0000001000
44
0.0000000001
12
0.3267954694
22
0.1568442124
32
0.0000000000
13
0.3250319408
23
-0.1623326163
33
0.0000000000
40
0.0000000000
40
0.0000000000
40
0.0000000000
40
0.0000000000
40
0.1444903175
40
0.2800230024
40
0.4064032085
40
0.5234622862
40
0.6310855809
40
0.7292758090
40
0.8182352369
40
0.8985128392
40
0.9712181877
40
1.0000000000
40
1.0000000000
40
1.0000000000
40
1.0000000000
10
19.7171042067
20
23.0291360069
30
0.0000000000
10
19.7328438004
20
23.0366901636
30
0.0000000000
10
19.7636126523
20
23.0507878638
30
0.0000000000
10
19.8090826111
20
23.0693707529
30
0.0000000000
10
19.8522714557
20
23.0846474548
30
0.0000000000
10
19.8930195349
20
23.0965280008
30
0.0000000000
10
19.9311564724
20
23.1049117058
30
0.0000000000
10
19.9665014523
20
23.1096857750
30
0.0000000000
10
19.9988677600
20
23.1107219554
30
0.0000000000
10
20.0280647896
20
23.1078652957
30
0.0000000000
10
20.0493933207
20
23.1021215002
30
0.0000000000
10
20.0606549727
20
23.0971571353
30
0.0000000000
10
20.0637733088
20
23.0955997263
30
0.0000000000
11
19.7171042067
21
23.0291360069
31
0.0000000000
11
19.7647463347
21
23.0508944185
31
0.0000000000
11
19.8102524567
21
23.0694095200
31
0.0000000000
11
19.8534719956
21
23.0845987545
31
0.0000000000
11
19.8942395884
21
23.0963670044
31
0.0000000000
11
19.9323713185
21
23.1046067954
31
0.0000000000
11
19.9676661151
21
23.1092005318
31
0.0000000000
11
19.9999021023
21
23.1100222888
31
0.0000000000
11
20.0288380510
21
23.1069420986
31
0.0000000000
11
20.0542153146
21
23.0998315856
31
0.0000000000
11
20.0637733088
21
23.0955997263
31
0.0000000000
0
SPLINE
5
33A
100
AcDbEntity
8
0
100
AcDbSpline
62
7
6
CONTINUOUS
70
0
71
3
72
30
73
26
74
24
42
0.0000001000
43
0.0000001000
44
0.0000000001
12
3.3990611785
22
1.6753110641
32
0.0000000000
13
3.5076353199
23
-1.4341473144
33
0.0000000000
40
0.0000000000
40
0.0000000000
40
0.0000000000
40
0.0000000000
40
0.0373740152
40
0.0761101878
40
0.1161194463
40
0.1573317361
40
0.1996195059
40
0.2429054545
40
0.2870323720
40
0.3319183389
40
0.3773849130
40
0.4233468943
40
0.4696128107
40
0.5160948086
40
0.5625964149
40
0.6090274722
40
0.6551943534
40
0.7010050072
40
0.7462763135
40
0.7909151132
40
0.8347562339
40
0.8777069410
40
0.9196272232
40
0.9604275051
40
1.0000000000
40
1.0000000000
40
1.0000000000
40
1.0000000000
10
12.5602754572
20
22.1309988108
30
0.0000000000
10
12.6026209786
20
22.1518698446
30
0.0000000000
10
12.6899714636
20
22.1921393105
30
0.0000000000
10
12.8259740579
20
22.2472007463
30
0.0000000000
10
12.9688444690
20
22.2978227559
30
0.0000000000
10
13.1179757273
20
22.3437898541
30
0.0000000000
10
13.2727948268
20
22.3849259539
30
0.0000000000
10
13.4326328588
20
22.4210529962
30
0.0000000000
10
13.5968862936
20
22.4520346260
30
0.0000000000
10
13.7648339949
20
22.4777344950
30
0.0000000000
10
13.9358500692
20
22.4980567849
30
0.0000000000
10
14.1091762275
20
22.5129111440
30
0.0000000000
10
14.2841710802
20
22.5222425640
30
0.0000000000
10
14.4600555388
20
22.5260093959
30
0.0000000000
10
14.6361794776
20
22.5241977114
30
0.0000000000
10
14.8117597998
20
22.5168156148
30
0.0000000000
10
14.9861445356
20
22.5038905573
30
0.0000000000
10
15.1585632859
20
22.4854798379
30
0.0000000000
10
15.3283694253
20
22.4616525806
30
0.0000000000
10
15.4948213701
20
22.4325131666
30
0.0000000000
10
15.6572855262
20
22.3981725857
30
0.0000000000
10
15.8150639151
20
22.3587787865
30
0.0000000000
10
15.9675451494
20
22.3144842699
30
0.0000000000
10
16.1140848533
20
22.2654768695
30
0.0000000000
10
16.2089519726
20
22.2292105392
30
0.0000000000
10
16.2552205995
20
22.2102929434
30
0.0000000000
11
12.5602754572
21
22.1309988108
31
0.0000000000
11
12.6888402588
21
22.1904107697
31
0.0000000000
11
12.8248598170
21
22.2456027775
31
0.0000000000
11
12.9677357165
21
22.2963331381
31
0.0000000000
11
13.1169549150
21
22.3424188834
31
0.0000000000
11
13.2718111572
21
22.3836426731
31
0.0000000000
11
13.4317930875
21
22.4198678500
31
0.0000000000
11
13.5961044516
21
22.4509146396
31
0.0000000000
11
13.7642359313
21
22.4766864885
31
0.0000000000
11
13.9353235949
21
22.4970512851
31
0.0000000000
11
14.1088581265
21
22.5119482602
31
0.0000000000
11
14.2839330839
21
22.5212997421
31
0.0000000000
11
14.4600359207
21
22.5250783554
31
0.0000000000
11
14.6362442592
21
22.5232642958
31
0.0000000000
11
14.8120388568
21
22.5158630431
31
0.0000000000
11
14.9865081294
21
22.5029128171
31
0.0000000000
11
15.1591231987
21
22.4844531389
31
0.0000000000
11
15.3290090969
21
22.4605772701
31
0.0000000000
11
15.4956256175
21
22.4313615332
31
0.0000000000
11
15.6581581531
21
22.3969482984
31
0.0000000000
11
15.8160555531
21
22.3574548150
31
0.0000000000
11
15.9685839946
21
22.3130639804
31
0.0000000000
11
16.1151847533
21
22.2639391292
31
0.0000000000
11
16.2552205995
21
22.2102929434
31
0.0000000000
0
SPLINE
5
33B
100
AcDbEntity
8
0
100
AcDbSpline
62
7
6
CONTINUOUS
70
0
71
3
72
11
73
7
74
5
42
0.0000001000
43
0.0000001000
44
0.0000000001
12
0.3930951624
22
-0.2404280803
32
0.0000000000
13
0.3161242496
23
-0.3354205767
33
0.0000000000
40
0.0000000000
40
0.0000000000
40
0.0000000000
40
0.0000000000
40
0.2774716433
40
0.5426639157
40
0.7955853492
40
1.0000000000
40
1.0000000000
40
1.0000000000
40
1.0000000000
10
16.6474785339
20
22.0141639763
30
0.0000000000
10
16.6838361208
20
21.9919266514
30
0.0000000000
10
16.7537385790
20
21.9464186511
30
0.0000000000
10
16.8518220705
20
21.8733899807
30
0.0000000000
10
16.9361280299
20
21.8010686040
30
0.0000000000
10
16.9861392596
20
21.7516553000
30
0.0000000000
10
17.0076794023
20
21.7288003400
30
0.0000000000
11
16.6474785339
21
22.0141639763
31
0.0000000000
11
16.7545359221
21
21.9442635448
31
0.0000000000
11
16.8524386336
21
21.8711366609
31
0.0000000000
11
16.9407628245
21
21.7951011793
31
0.0000000000
11
17.0076794023
21
21.7288003400
31
0.0000000000
0
SPLINE
5
33C
100
AcDbEntity
8
0
100
AcDbSpline
62
7
6
CONTINUOUS
70
0
71
3
72
9
73
5
74
3
42
0.0000001000
43
0.0000001000
44
0.0000000001
12
0.0124629561
22
-0.1100286030
32
0.0000000000
13
0.0000000000
23
-0.1107321939
33
0.0000000000
40
0.0000000000
40
0.0000000000
40
0.0000000000
40
0.0000000000
40
0.4925884718
40
1.0000000000
40
1.0000000000
40
1.0000000000
40
1.0000000000
10
16.0939450370
20
24.7770820801
30
0.0000000000
10
16.0959914065
20
24.7590158063
30
0.0000000000
10
16.0990338810
20
24.7222069135
30
0.0000000000
10
16.1000020238
20
24.6852885912
30
0.0000000000
10
16.1000020238
20
24.6665596606
30
0.0000000000
11
16.0939450370
21
24.7770820801
31
0.0000000000
11
16.0984854593
21
24.7227259815
31
0.0000000000
11
16.1000020238
21
24.6665596606
31
0.0000000000
0
SPLINE
5
33D
100
AcDbEntity
8
0
100
AcDbSpline
62
7
6
CONTINUOUS
70
0
71
3
72
26
73
22
74
20
42
0.0000001000
43
0.0000001000
44
0.0000000001
12
-1.2388761419
22
1.7520832247
32
0.0000000000
13
1.9359127617
23
0.9240140005
33
0.0000000000
40
0.0000000000
40
0.0000000000
40
0.0000000000
40
0.0000000000
40
0.0108472899
40
0.0632889756
40
0.1136327283
40
0.1622650341
40
0.2096414712
40
0.2562741753
40
0.3027114310
40
0.3495113899
40
0.3972141703
40
0.4463170181
40
0.4972560524
40
0.5503960095
40
0.6060271784
40
0.6643674550
40
0.7255674796
40
0.7897173310
40
0.8568534230
40
0.9269649545
40
1.0000000000
40
1.0000000000
40
1.0000000000
40
1.0000000000
10
10.6971895690
20
21.9862184140
30
0.0000000000
10
10.6927100861
20
21.9925535323
30
0.0000000000
10
10.6669180574
20
22.0297595732
30
0.0000000000
10
10.6243487444
20
22.0991225099
30
0.0000000000
10
10.5774230846
20
22.1969252081
30
0.0000000000
10
10.5428450272
20
22.2959404909
30
0.0000000000
10
10.5207915521
20
22.3957793002
30
0.0000000000
10
10.5113863839
20
22.4960278721
30
0.0000000000
10
10.5146870400
20
22.5962536730
30
0.0000000000
10
10.5306767694
20
22.6960192644
30
0.0000000000
10
10.5592663106
20
22.7948987436
30
0.0000000000
10
10.6003043956
20
22.8924893152
30
0.0000000000
10
10.6535908791
20
22.9884142848
30
0.0000000000
10
10.7188866591
20
23.0823193831
30
0.0000000000
10
10.7959183618
20
23.1738667765
30
0.0000000000
10
10.8843789008
20
23.2627300756
30
0.0000000000
10
10.9839262774
20
23.3485917228
30
0.0000000000
10
11.0941816662
20
23.4311422216
30
0.0000000000
10
11.2147301203
20
23.5100816400
30
0.0000000000
10
11.3451139205
20
23.5851180067
30
0.0000000000
10
11.4364494998
20
23.6314331466
30
0.0000000000
10
11.4835793254
20
23.6539282814
30
0.0000000000
11
10.6971895690
21
21.9862184140
31
0.0000000000
11
10.6839301150
21
22.0053491464
31
0.0000000000
11
10.6252942851
21
22.1013529470
31
0.0000000000
11
10.5787784791
21
22.1988152662
31
0.0000000000
11
10.5445598859
21
22.2973659792
31
0.0000000000
11
10.5227690610
21
22.3966307004
31
0.0000000000
11
10.5134893587
21
22.4962323145
31
0.0000000000
11
10.5167566187
21
22.5957924237
31
0.0000000000
11
10.5325590145
21
22.6949326655
31
0.0000000000
11
10.5608370616
21
22.7932762281
31
0.0000000000
11
10.6014838522
21
22.8904493334
31
0.0000000000
11
10.6543454198
21
22.9860825639
31
0.0000000000
11
10.7192212887
21
23.0798122833
31
0.0000000000
11
10.7958652828
21
23.1712821166
31
0.0000000000
11
10.8839864254
21
23.2601442478
31
0.0000000000
11
10.9832499508
21
23.3460606817
31
0.0000000000
11
11.0932787031
21
23.4287046744
31
0.0000000000
11
11.2136545754
21
23.5077619540
31
0.0000000000
11
11.3439198785
21
23.5829317828
31
0.0000000000
11
11.4835793254
21
23.6539282814
31
0.0000000000
0
SPLINE
5
33E
100
AcDbEntity
8
0
100
AcDbSpline
62
9
6
CONTINUOUS
70
0
71
3
72
25
73
21
74
19
42
0.0000001000
43
0.0000001000
44
0.0000000001
12
0.9805003859
22
0.4902423243
32
0.0000000000
13
1.0206651721
23
-0.3999514344
33
0.0000000000
40
0.0000000000
40
0.0000000000
40
0.0000000000
40
0.0000000000
40
0.0486159936
40
0.0993722266
40
0.1520748349
40
0.2065079021
40
0.2624326998
40
0.3195922882
40
0.3777135757
40
0.4365142592
40
0.4957056498
40
0.5549977874
40
0.6141011718
40
0.6727315420
40
0.7306113606
40
0.7874746053
40
0.8430698023
40
0.8971631016
40
0.9495383397
40
1.0000000000
40
1.0000000000
40
1.0000000000
40
1.0000000000
10
0.0811029386
20
23.1456938586
30
0.0000000000
10
0.0969922721
20
23.1536383978
30
0.0000000000
10
0.1300064660
20
23.1688221459
30
0.0000000000
10
0.1817814159
20
23.1890785899
30
0.0000000000
10
0.2365849672
20
23.2071986548
30
0.0000000000
10
0.2940425247
20
23.2230612710
30
0.0000000000
10
0.3537689556
20
23.2365649014
30
0.0000000000
10
0.4153641264
20
23.2476243740
30
0.0000000000
10
0.4784173948
20
23.2561720083
30
0.0000000000
10
0.5425101952
20
23.2621576840
30
0.0000000000
10
0.6072204720
20
23.2655490546
30
0.0000000000
10
0.6721252621
20
23.2663313030
30
0.0000000000
10
0.7368041006
20
23.2645068457
30
0.0000000000
10
0.8008411137
20
23.2600949047
30
0.0000000000
10
0.8638281470
20
23.2531309759
30
0.0000000000
10
0.9253672485
20
23.2436661642
30
0.0000000000
10
0.9850731000
20
23.2317663391
30
0.0000000000
10
1.0425749106
20
23.2175112254
30
0.0000000000
10
1.0975127364
20
23.2009951331
30
0.0000000000
10
1.1329034194
20
23.1882965328
30
0.0000000000
10
1.1500715725
20
23.1815691283
30
0.0000000000
11
0.0811029386
21
23.1456938586
31
0.0000000000
11
0.1294911531
21
23.1680290394
31
0.0000000000
11
0.1812840574
21
23.1883602122
31
0.0000000000
11
0.2361210714
21
23.2065468331
31
0.0000000000
11
0.2936288144
21
23.2224685801
31
0.0000000000
11
0.3534181591
21
23.2360224999
31
0.0000000000
11
0.4150870700
21
23.2471230651
31
0.0000000000
11
0.4782211206
21
23.2557019876
31
0.0000000000
11
0.5423996367
21
23.2617090192
31
0.0000000000
11
0.6071976897
21
23.2651117104
31
0.0000000000
11
0.6721907408
21
23.2658953147
31
0.0000000000
11
0.7369556660
21
23.2640623487
31
0.0000000000
11
0.8010751290
21
23.2596321837
31
0.0000000000
11
0.8641382953
21
23.2526405905
31
0.0000000000
11
0.9257450426
21
23.2431390221
31
0.0000000000
11
0.9855080208
21
23.2311937608
31
0.0000000000
11
1.0430544524
21
23.2168850621
31
0.0000000000
11
1.0980243416
21
23.2003072395
31
0.0000000000
11
1.1500715725
21
23.1815691283
31
0.0000000000
0
SPLINE
5
33F
100
AcDbEntity
8
0
100
AcDbSpline
62
7
6
CONTINUOUS
70
0
71
3
72
20
73
16
74
14
42
0.0000001000
43
0.0000001000
44
0.0000000001
12
-0.0000729198
22
1.3092990519
32
0.0000000000
13
1.1661523550
23
0.5933426289
33
0.0000000000
40
0.0000000000
40
0.0000000000
40
0.0000000000
40
0.0000000000
40
0.0121579206
40
0.0793381828
40
0.1474699993
40
0.2173091616
40
0.2895314228
40
0.3647117810
40
0.4433153555
40
0.5256974749
40
0.6121097639
40
0.7027093542
40
0.7975691664
40
0.8966880268
40
1.0000000000
40
1.0000000000
40
1.0000000000
40
1.0000000000
10
11.0890045721
20
21.6680222251
30
0.0000000000
10
11.0890042766
20
21.6733283430
30
0.0000000000
10
11.0894034090
20
21.7079540111
30
0.0000000000
10
11.0950249768
20
21.7722002735
30
0.0000000000
10
11.1140091940
20
21.8598717010
30
0.0000000000
10
11.1441526473
20
21.9466718714
30
0.0000000000
10
11.1852916578
20
22.0322340390
30
0.0000000000
10
11.2372215206
20
22.1162139297
30
0.0000000000
10
11.2997031122
20
22.1982848414
30
0.0000000000
10
11.3724649683
20
22.2781324992
30
0.0000000000
10
11.4552028342
20
22.3554517855
30
0.0000000000
10
11.5475779447
20
22.4299453350
30
0.0000000000
10
11.6492175508
20
22.5013246468
30
0.0000000000
10
11.7597084582
20
22.5693082242
30
0.0000000000
10
11.8374060923
20
22.6113393308
30
0.0000000000
10
11.8775652592
20
22.6317724634
30
0.0000000000
11
11.0890045721
21
21.6680222251
31
0.0000000000
11
11.0891882527
21
21.6839390942
31
0.0000000000
11
11.0968037432
21
21.7715086759
31
0.0000000000
11
11.1155627095
21
21.8586577199
31
0.0000000000
11
11.1453889209
21
21.9450320786
31
0.0000000000
11
11.1861611728
21
22.0302807527
31
0.0000000000
11
11.2377137788
21
22.1140573173
31
0.0000000000
11
11.2998372448
21
22.1960213296
31
0.0000000000
11
11.3722791197
21
22.2758397126
31
0.0000000000
11
11.4547450216
21
22.3531881083
31
0.0000000000
11
11.5468998338
21
22.4277521963
31
0.0000000000
11
11.6483690670
21
22.4992289705
31
0.0000000000
11
11.7587403807
21
22.5673279708
31
0.0000000000
11
11.8775652592
21
22.6317724634
31
0.0000000000
0
SPLINE
5
340
100
AcDbEntity
8
0
100
AcDbSpline
62
9
6
CONTINUOUS
70
0
71
3
72
26
73
22
74
20
42
0.0000001000
43
0.0000001000
44
0.0000000001
12
0.5615387913
22
0.2085812067
32
0.0000000000
13
-0.4382410796
23
-0.4088759455
33
0.0000000000
40
0.0000000000
40
0.0000000000
40
0.0000000000
40
0.0000000000
40
0.0377554449
40
0.0756939030
40
0.1140673543
40
0.1527683624
40
0.1917135945
40
0.2312791985
40
0.2722664216
40
0.3154855892
40
0.3615219360
40
0.4107622389
40
0.4635550144
40
0.5207079216
40
0.5837054443
40
0.6526181514
40
0.7255928295
40
0.8022201778
40
0.8813833887
40
0.9644480224
40
1.0000000000
40
1.0000000000
40
1.0000000000
40
1.0000000000
10
21.4169530314
20
15.1509685759
30
0.0000000000
10
21.4240200804
20
15.1535936013
30
0.0000000000
10
21.4384141542
20
15.1582763623
30
0.0000000000
10
21.4606771966
20
15.1632612473
30
0.0000000000
10
21.4835548488
20
15.1658003194
30
0.0000000000
10
21.5067840132
20
15.1654957406
30
0.0000000000
10
21.5300080487
20
15.1620490820
30
0.0000000000
10
21.5529665101
20
15.1552634436
30
0.0000000000
10
21.5755098665
20
15.1449324096
30
0.0000000000
10
21.5974451025
20
15.1307991754
30
0.0000000000
10
21.6184050115
20
15.1126171036
30
0.0000000000
10
21.6378312252
20
15.0901953263
30
0.0000000000
10
21.6550193438
20
15.0633208968
30
0.0000000000
10
21.6690494063
20
15.0316095191
30
0.0000000000
10
21.6784021352
20
14.9948300438
30
0.0000000000
10
21.6808898628
20
14.9537218623
30
0.0000000000
10
21.6745390973
20
14.9102314663
30
0.0000000000
10
21.6586724607
20
14.8670650319
30
0.0000000000
10
21.6339456665
20
14.8259960474
30
0.0000000000
10
21.6083141219
20
14.7957677468
30
0.0000000000
10
21.5913890645
20
14.7791707929
30
0.0000000000
10
21.5861956188
20
14.7743253434
30
0.0000000000
11
21.4169530314
21
15.1509685759
31
0.0000000000
11
21.4384737560
21
15.1579229895
31
0.0000000000
11
21.4606628231
21
15.1628343694
31
0.0000000000
11
21.4835146001
21
15.1653211587
31
0.0000000000
11
21.5066949899
21
15.1649798024
31
0.0000000000
11
21.5297689636
21
15.1615383938
31
0.0000000000
11
21.5524992798
21
15.1548256062
31
0.0000000000
11
21.5748296679
21
15.1446190221
31
0.0000000000
11
21.5966132287
21
15.1306284048
31
0.0000000000
11
21.6174720627
21
15.1125896190
31
0.0000000000
11
21.6368133392
21
15.0903198729
31
0.0000000000
11
21.6538679267
21
15.0636884379
31
0.0000000000
11
21.6677146363
21
15.0323774666
31
0.0000000000
11
21.6769864954
21
14.9957970815
31
0.0000000000
11
21.6794614000
21
14.9545908468
31
0.0000000000
11
21.6732109179
21
14.9113263062
31
0.0000000000
11
21.6575606856
21
14.8681749235
31
0.0000000000
11
21.6333423096
21
14.8274047968
31
0.0000000000
11
21.6013951892
21
14.7892573701
31
0.0000000000
11
21.5861956188
21
14.7743253434
31
0.0000000000
0
SPLINE
5
341
100
AcDbEntity
8
0
100
AcDbSpline
62
9
6
CONTINUOUS
70
0
71
3
72
8
73
4
74
2
42
0.0000001000
43
0.0000001000
44
0.0000000001
12
-0.0037673182
22
-0.0035148823
32
0.0000000000
13
-0.0038088387
23
-0.0034699880
33
0.0000000000
40
0.0000000000
40
0.0000000000
40
0.0000000000
40
0.0000000000
40
1.0000000000
40
1.0000000000
40
1.0000000000
40
1.0000000000
10
21.5861956188
20
14.7743253434
30
0.0000000000
10
21.5849398461
20
14.7731537159
30
0.0000000000
10
21.5836770200
20
14.7719896318
30
0.0000000000
10
21.5824074071
20
14.7708329691
30
0.0000000000
11
21.5861956188
21
14.7743253434
31
0.0000000000
11
21.5824074071
21
14.7708329691
31
0.0000000000
0
SPLINE
5
342
100
AcDbEntity
8
0
100
AcDbSpline
62
9
6
CONTINUOUS
70
0
71
3
72
8
73
4
74
2
42
0.0000001000
43
0.0000001000
44
0.0000000001
12
-0.0003101793
22
-0.0002825844
32
0.0000000000
13
-0.0003104489
23
-0.0002822893
33
0.0000000000
40
0.0000000000
40
0.0000000000
40
0.0000000000
40
0.0000000000
40
1.0000000000
40
1.0000000000
40
1.0000000000
40
1.0000000000
10
21.5824074071
20
14.7708329691
30
0.0000000000
10
21.5823040140
20
14.7707387744
30
0.0000000000
10
21.5822005759
20
14.7706446288
30
0.0000000000
10
21.5820970929
20
14.7705505324
30
0.0000000000
11
21.5824074071
21
14.7708329691
31
0.0000000000
11
21.5820970929
21
14.7705505324
31
0.0000000000
0
SPLINE
5
343
100
AcDbEntity
8
0
100
AcDbSpline
62
9
6
CONTINUOUS
70
0
71
3
72
8
73
4
74
2
42
0.0000001000
43
0.0000001000
44
0.0000000001
12
-0.0019838249
22
-0.0018038798
32
0.0000000000
13
-0.0019947047
23
-0.0017918887
33
0.0000000000
40
0.0000000000
40
0.0000000000
40
0.0000000000
40
0.0000000000
40
1.0000000000
40
1.0000000000
40
1.0000000000
40
1.0000000000
10
21.5820970929
20
14.7705505324
30
0.0000000000
10
21.5814358179
20
14.7699492391
30
0.0000000000
10
21.5807727109
20
14.7693499529
30
0.0000000000
10
21.5801078093
20
14.7687526567
30
0.0000000000
11
21.5820970929
21
14.7705505324
31
0.0000000000
11
21.5801078093
21
14.7687526567
31
0.0000000000
0
SPLINE
5
344
100
AcDbEntity
8
0
100
AcDbSpline
62
7
6
CONTINUOUS
70
0
71
3
72
52
73
48
74
46
42
0.0000001000
43
0.0000001000
44
0.0000000001
12
2.8079739238
22
2.2944628981
32
0.0000000000
13
-3.5426822608
23
-0.7737441094
33
0.0000000000
40
0.0000000000
40
0.0000000000
40
0.0000000000
40
0.0000000000
40
0.0616895185
40
0.1178710148
40
0.1690316542
40
0.2155920829
40
0.2579366134
40
0.2964161556
40
0.3313507892
40
0.3630320978
40
0.3917252254
40
0.4176706828
40
0.4410859176
40
0.4621666821
40
0.4810882973
40
0.4980069905
40
0.5130616315
40
0.5263774166
40
0.5380676546
40
0.5482415958
40
0.5570798856
40
0.5648565354
40
0.5718435743
40
0.5782612334
40
0.5842929554
40
0.5901021671
40
0.5958470460
40
0.6016968971
40
0.6078480649
40
0.6145013308
40
0.6218225630
40
0.6299699289
40
0.6391290884
40
0.6495006582
40
0.6612904863
40
0.6747075774
40
0.6899651128
40
0.7072832787
40
0.7268926923
40
0.7490378563
40
0.7739804592
40
0.8020025100
40
0.8334093639
40
0.8685327269
40
0.9077336730
40
0.9514058224
40
1.0000000000
40
1.0000000000
40
1.0000000000
40
1.0000000000
10
21.4169429252
20
15.1509602379
30
0.0000000000
10
21.4746837783
20
15.1981416751
30
0.0000000000
10
21.5845610591
20
15.2888437862
30
0.0000000000
10
21.7406380946
20
15.4206996823
30
0.0000000000
10
21.8812468145
20
15.5425073550
30
0.0000000000
10
22.0077019940
20
15.6550863965
30
0.0000000000
10
22.1211793713
20
15.7591664363
30
0.0000000000
10
22.2227491735
20
15.8554129720
30
0.0000000000
10
22.3133843555
20
15.9444317099
30
0.0000000000
10
22.3939679863
20
16.0267720283
30
0.0000000000
10
22.4653001042
20
16.1029296460
30
0.0000000000
10
22.5281041650
20
16.1733483511
30
0.0000000000
10
22.5830333881
20
16.2384207103
30
0.0000000000
10
22.6306774695
20
16.2984877152
30
0.0000000000
10
22.6715704019
20
16.3538374974
30
0.0000000000
10
22.7062004872
20
16.4047036566
30
0.0000000000
10
22.7350245678
20
16.4512655630
30
0.0000000000
10
22.7584853244
20
16.4936496842
30
0.0000000000
10
22.7770346659
20
16.5319395639
30
0.0000000000
10
22.7911896963
20
16.5662713381
30
0.0000000000
10
22.8015576916
20
16.5969733272
30
0.0000000000
10
22.8087598818
20
16.6246040451
30
0.0000000000
10
22.8133063723
20
16.6498272328
30
0.0000000000
10
22.8155281674
20
16.6732453975
30
0.0000000000
10
22.8155820732
20
16.6953492986
30
0.0000000000
10
22.8134662966
20
16.7165409474
30
0.0000000000
10
22.8090187151
20
16.7371524096
30
0.0000000000
10
22.8018978264
20
16.7574503240
30
0.0000000000
10
22.7915726621
20
16.7775797934
30
0.0000000000
10
22.7773911561
20
16.7974549444
30
0.0000000000
10
22.7587310994
20
16.8167426780
30
0.0000000000
10
22.7350974600
20
16.8349996941
30
0.0000000000
10
22.7060777387
20
16.8518205784
30
0.0000000000
10
22.6712610516
20
16.8668772234
30
0.0000000000
10
22.6302070772
20
16.8798908296
30
0.0000000000
10
22.5824317292
20
16.8906048052
30
0.0000000000
10
22.5273985712
20
16.8987660809
30
0.0000000000
10
22.4645130115
20
16.9041126595
30
0.0000000000
10
22.3931167176
20
16.9063651819
30
0.0000000000
10
22.3124818061
20
16.9052206992
30
0.0000000000
10
22.2218047183
20
16.9003476334
30
0.0000000000
10
22.1201997113
20
16.8913813739
30
0.0000000000
10
22.0066918478
20
16.8779201757
30
0.0000000000
10
21.8802094753
20
16.8595211743
30
0.0000000000
10
21.7395757589
20
16.8356962722
30
0.0000000000
10
21.5834750491
20
16.8059033638
30
0.0000000000
10
21.4743275197
20
16.7829647507
30
0.0000000000
10
21.4169429427
20
16.7704315978
30
0.0000000000
11
21.4169429252
21
15.1509602379
31
0.0000000000
11
21.5894106943
21
15.2934232709
31
0.0000000000
11
21.7449878056
21
15.4249513020
31
0.0000000000
11
21.8851605699
21
15.5464776785
31
0.0000000000
11
22.0112155519
21
15.6587991467
31
0.0000000000
11
22.1243251549
21
15.7626435087
31
0.0000000000
11
22.2255566579
21
15.8586747098
31
0.0000000000
11
22.3158802528
21
15.9474970207
31
0.0000000000
11
22.3961764800
21
16.0296585425
31
0.0000000000
11
22.4672430509
21
16.1056538351
31
0.0000000000
11
22.5298012899
21
16.1759256165
31
0.0000000000
11
22.5845024751
21
16.2408654126
31
0.0000000000
11
22.6319345268
21
16.3008130681
31
0.0000000000
11
22.6726298103
21
16.3560552364
31
0.0000000000
11
22.7070751275
21
16.4068233170
31
0.0000000000
11
22.7357253086
21
16.4532921075
31
0.0000000000
11
22.7590234767
21
16.4955850799
31
0.0000000000
11
22.7774201868
21
16.5337762206
31
0.0000000000
11
22.7914025327
21
16.5679165722
31
0.0000000000
11
22.8015836417
21
16.5983058080
31
0.0000000000
11
22.8086300946
21
16.6256108793
31
0.0000000000
11
22.8130631761
21
16.6505563918
31
0.0000000000
11
22.8152038761
21
16.6737293963
31
0.0000000000
11
22.8152039976
21
16.6956015858
31
0.0000000000
11
22.8130635544
21
16.7165578831
31
0.0000000000
11
22.8086307603
21
16.7369128400
31
0.0000000000
11
22.8015846497
21
16.7569211024
31
0.0000000000
11
22.7914039377
21
16.7767675266
31
0.0000000000
11
22.7774219678
21
16.7964289033
31
0.0000000000
11
22.7590255760
21
16.8155699550
31
0.0000000000
11
22.7357276708
21
16.8337372607
31
0.0000000000
11
22.7070776626
21
16.8505382313
31
0.0000000000
11
22.6726324244
21
16.8656374443
31
0.0000000000
11
22.6319371232
21
16.8787386902
31
0.0000000000
11
22.5845049629
21
16.8895692584
31
0.0000000000
11
22.5298035878
21
16.8978645156
31
0.0000000000
11
22.4672450904
21
16.9033554944
31
0.0000000000
11
22.3961782093
21
16.9057593033
31
0.0000000000
11
22.3158816379
21
16.9047717105
31
0.0000000000
11
22.2255576843
21
16.9000612272
31
0.0000000000
11
22.1243258292
21
16.8912641356
31
0.0000000000
11
22.0112159040
21
16.8779800520
31
0.0000000000
11
21.8851606544
21
16.8597677322
31
0.0000000000
11
21.7449877060
21
16.8361409310
31
0.0000000000
11
21.5894105235
21
16.8065641309
31
0.0000000000
11
21.4169429427
21
16.7704315978
31
0.0000000000
0
SPLINE
5
345
100
AcDbEntity
8
0
100
AcDbSpline
62
9
6
CONTINUOUS
70
0
71
3
72
26
73
22
74
20
42
0.0000001000
43
0.0000001000
44
0.0000000001
12
0.5182266527
22
-1.6358408153
32
0.0000000000
13
-1.2094090282
23
-1.2168669022
33
0.0000000000
40
0.0000000000
40
0.0000000000
40
0.0000000000
40
0.0000000000
40
0.0440734084
40
0.1241445508
40
0.2083551273
40
0.2952771738
40
0.3822849410
40
0.4655367228
40
0.5404970256
40
0.6066964934
40
0.6657921634
40
0.7187710587
40
0.7661151560
40
0.8082608078
40
0.8457712780
40
0.8793250672
40
0.9094940059
40
0.9365058989
40
0.9604062189
40
0.9814093742
40
1.0000000000
40
1.0000000000
40
1.0000000000
40
1.0000000000
10
21.5801538611
20
18.4222259149
30
0.0000000000
10
21.5877671994
20
18.3981935548
30
0.0000000000
10
21.6078854172
20
18.3300790034
30
0.0000000000
10
21.6355356190
20
18.2140871288
30
0.0000000000
10
21.6595840033
20
18.0723510791
30
0.0000000000
10
21.6748414714
20
17.9254149493
30
0.0000000000
10
21.6808882334
20
17.7783699343
30
0.0000000000
10
21.6783705503
20
17.6380787803
30
0.0000000000
10
21.6690822975
20
17.5100206428
30
0.0000000000
10
21.6551283840
20
17.3963079745
30
0.0000000000
10
21.6380177595
20
17.2957668350
30
0.0000000000
10
21.6186814228
20
17.2066411300
30
0.0000000000
10
21.5978341388
20
17.1278493498
30
0.0000000000
10
21.5760402671
20
17.0585394888
30
0.0000000000
10
21.5536715284
20
16.9977559251
30
0.0000000000
10
21.5309173150
20
16.9444921812
30
0.0000000000
10
21.5079007100
20
16.8979540074
30
0.0000000000
10
21.4848256542
20
16.8576981051
30
0.0000000000
10
21.4620053782
20
16.8234414611
30
0.0000000000
10
21.4397043567
20
16.7947451398
30
0.0000000000
10
21.4244477178
20
16.7779744970
30
0.0000000000
10
21.4169531609
20
16.7704337246
30
0.0000000000
11
21.5801538611
21
18.4222259149
31
0.0000000000
11
21.6015926148
21
18.3497042600
31
0.0000000000
11
21.6335432905
21
18.2160979003
31
0.0000000000
11
21.6578066607
21
18.0736744893
31
0.0000000000
11
21.6732902300
21
17.9253531693
31
0.0000000000
11
21.6794746209
21
17.7762069560
31
0.0000000000
11
21.6769220333
21
17.6333993247
31
0.0000000000
11
21.6675935243
21
17.5051328835
31
0.0000000000
11
21.6537135517
21
17.3924094726
31
0.0000000000
11
21.6366418957
21
17.2924699297
31
0.0000000000
11
21.6172975200
21
17.2036593373
31
0.0000000000
11
21.5964403624
21
17.1251572239
31
0.0000000000
11
21.5746654861
21
17.0562068853
31
0.0000000000
11
21.5523515155
21
16.9958446104
31
0.0000000000
11
21.5296459082
21
16.9429452540
31
0.0000000000
11
21.5066076590
21
16.8965960315
31
0.0000000000
11
21.4834710710
21
16.8564419115
31
0.0000000000
11
21.4606546894
21
16.8223717280
31
0.0000000000
11
21.4384770878
21
16.7939710408
31
0.0000000000
11
21.4169531609
21
16.7704337246
31
0.0000000000
0
SPLINE
5
346
100
AcDbEntity
8
0
100
AcDbSpline
62
9
6
CONTINUOUS
70
0
71
3
72
18
73
14
74
12
42
0.0000001000
43
0.0000001000
44
0.0000000001
12
0.3421819379
22
0.1701299167
32
0.0000000000
13
0.1978664154
23
-0.3095906505
33
0.0000000000
40
0.0000000000
40
0.0000000000
40
0.0000000000
40
0.0000000000
40
0.1612065774
40
0.3104715131
40
0.4468244645
40
0.5693897844
40
0.6773973839
40
0.7701972756
40
0.8472833076
40
0.9083419999
40
0.9533820448
40
0.9831967870
40
1.0000000000
40
1.0000000000
40
1.0000000000
40
1.0000000000
10
20.8852482503
20
22.0251019375
30
0.0000000000
10
20.9036355767
20
22.0342439580
30
0.0000000000
10
20.9391387685
20
22.0516695650
30
0.0000000000
10
20.9905362954
20
22.0761237405
30
0.0000000000
10
21.0378056771
20
22.0977860722
30
0.0000000000
10
21.0806305179
20
22.1165187691
30
0.0000000000
10
21.1187258644
20
22.1321935462
30
0.0000000000
10
21.1518351480
20
22.1447455036
30
0.0000000000
10
21.1797512353
20
22.1540276139
30
0.0000000000
10
21.2022812165
20
22.1602474373
30
0.0000000000
10
21.2194205551
20
22.1628789798
30
0.0000000000
10
21.2311409534
20
22.1633529148
30
0.0000000000
10
21.2369646482
20
22.1599224947
30
0.0000000000
10
21.2380729120
20
22.1581884555
30
0.0000000000
11
20.8852482503
21
22.0251019375
31
0.0000000000
11
20.9405609052
21
22.0522228335
31
0.0000000000
11
20.9920820641
21
22.0767010090
31
0.0000000000
11
21.0394675586
21
22.0983729462
31
0.0000000000
11
21.0824008467
21
22.1170938736
31
0.0000000000
11
21.1205951281
21
22.1327387327
31
0.0000000000
11
21.1537952596
21
22.1452030136
31
0.0000000000
11
21.1817794596
21
22.1544034532
31
0.0000000000
11
21.2043607898
21
22.1602785913
31
0.0000000000
11
21.2213884036
21
22.1627891811
31
0.0000000000
11
21.2327485542
21
22.1619184514
31
0.0000000000
11
21.2380729120
21
22.1581884555
31
0.0000000000
0
SPLINE
5
347
100
AcDbEntity
8
0
100
AcDbSpline
62
7
6
CONTINUOUS
70
0
71
3
72
18
73
14
74
12
42
0.0000001000
43
0.0000001000
44
0.0000000001
12
0.3459745596
22
0.1680568266
32
0.0000000000
13
0.3443637069
23
-0.1722285845
33
0.0000000000
40
0.0000000000
40
0.0000000000
40
0.0000000000
40
0.0000000000
40
0.1297946914
40
0.2520704309
40
0.3667499221
40
0.4738432021
40
0.5734632031
40
0.6658448809
40
0.7513682582
40
0.8305847233
40
0.9042435825
40
0.9733112212
40
1.0000000000
40
1.0000000000
40
1.0000000000
40
1.0000000000
10
20.5423506744
20
22.6165127730
30
0.0000000000
10
20.5573192281
20
22.6237837344
30
0.0000000000
10
20.5866941424
20
22.6372903236
30
0.0000000000
10
20.6303299923
20
22.6548611251
30
0.0000000000
10
20.6720954253
20
22.6691265925
30
0.0000000000
10
20.7118490730
20
22.6800764759
30
0.0000000000
10
20.7494628460
20
22.6877131931
30
0.0000000000
10
20.7848210387
20
22.6920499320
30
0.0000000000
10
20.8178207140
20
22.6931090818
30
0.0000000000
10
20.8483702436
20
22.6909198811
30
0.0000000000
10
20.8763856546
20
22.6855165157
30
0.0000000000
10
20.8970345996
20
22.6785430380
30
0.0000000000
10
20.9081981366
20
22.6733884484
30
0.0000000000
10
20.9112616856
20
22.6718562582
30
0.0000000000
11
20.5423506744
21
22.6165127730
31
0.0000000000
11
20.5877337870
21
22.6373140567
31
0.0000000000
11
20.6313861220
21
22.6548183319
31
0.0000000000
11
20.6731526063
21
22.6690027042
31
0.0000000000
11
20.7128881298
21
22.6798574179
31
0.0000000000
11
20.7504582458
21
22.6873859739
31
0.0000000000
11
20.7857397876
21
22.6916050844
31
0.0000000000
11
20.8186213683
21
22.6925444603
31
0.0000000000
11
20.8490037434
21
22.6902464412
31
0.0000000000
11
20.8768000475
21
22.6847654817
31
0.0000000000
11
20.9019358079
21
22.6761675412
31
0.0000000000
11
20.9112616856
21
22.6718562582
31
0.0000000000
0
SPLINE
5
348
100
AcDbEntity
8
0
100
AcDbSpline
62
9
6
CONTINUOUS
70
0
71
3
72
19
73
15
74
13
42
0.0000001000
43
0.0000001000
44
0.0000000001
12
0.0043621578
22
1.5071270313
32
0.0000000000
13
-0.7596320570
23
1.3016950699
33
0.0000000000
40
0.0000000000
40
0.0000000000
40
0.0000000000
40
0.0000000000
40
0.0762817009
40
0.1544246992
40
0.2342915930
40
0.3157231579
40
0.3985441601
40
0.4825648517
40
0.5675828668
40
0.6533860756
40
0.7397553920
40
0.8264664344
40
0.9132904740
40
1.0000000000
40
1.0000000000
40
1.0000000000
40
1.0000000000
10
21.2993987260
20
20.5934683628
30
0.0000000000
10
21.2995096436
20
20.6317904340
30
0.0000000000
10
21.2976185956
20
20.7093893807
30
0.0000000000
10
21.2887324785
20
20.8268026544
30
0.0000000000
10
21.2738002206
20
20.9462093502
30
0.0000000000
10
21.2528861696
20
21.0670968621
30
0.0000000000
10
21.2260799972
20
21.1889514107
30
0.0000000000
10
21.1934962967
20
21.3112534833
30
0.0000000000
10
21.1552742764
20
21.4334816131
30
0.0000000000
10
21.1115771451
20
21.5551144250
30
0.0000000000
10
21.0625914683
20
21.6756330229
30
0.0000000000
10
21.0085259860
20
21.7945237148
30
0.0000000000
10
20.9496126618
20
21.9112770453
30
0.0000000000
10
20.9072040289
20
21.9874788166
30
0.0000000000
10
20.8852482503
20
22.0251019375
30
0.0000000000
11
21.2993987260
21
20.5934683628
31
0.0000000000
11
21.2966736679
21
20.7084027572
31
0.0000000000
11
21.2878535548
21
20.8258439355
31
0.0000000000
11
21.2729760382
21
20.9452910390
31
0.0000000000
11
21.2521049613
21
21.0662315854
31
0.0000000000
11
21.2253296341
21
21.1881483069
31
0.0000000000
11
21.1927645632
21
21.3105197528
31
0.0000000000
11
21.1545492176
21
21.4328217455
31
0.0000000000
11
21.1108473152
21
21.5545304077
31
0.0000000000
11
21.0618457873
21
21.6751251800
31
0.0000000000
11
21.0077541725
21
21.7940902732
31
0.0000000000
11
20.9488045395
21
21.9109152613
31
0.0000000000
11
20.8852482503
21
22.0251019375
31
0.0000000000
0
SPLINE
5
349
100
AcDbEntity
8
0
100
AcDbSpline
62
9
6
CONTINUOUS
70
0
71
3
72
17
73
13
74
11
42
0.0000001000
43
0.0000001000
44
0.0000000001
12
0.4163435503
22
0.2155681837
32
0.0000000000
13
-0.0000278342
23
0.4693695292
33
0.0000000000
40
0.0000000000
40
0.0000000000
40
0.0000000000
40
0.0000000000
40
0.1329189116
40
0.2587863602
40
0.3775375991
40
0.4893034249
40
0.5944452287
40
0.6935904860
40
0.7876608200
40
0.8778788512
40
0.9657362157
40
1.0000000000
40
1.0000000000
40
1.0000000000
40
1.0000000000
10
21.2993987260
20
20.5934683628
30
0.0000000000
10
21.3178453698
20
20.6030193923
30
0.0000000000
10
21.3531721208
20
20.6227880827
30
0.0000000000
10
21.4024413728
20
20.6553540604
30
0.0000000000
10
21.4462655830
20
20.6898426948
30
0.0000000000
10
21.4843516108
20
20.7260386998
30
0.0000000000
10
21.5164420369
20
20.7637224137
30
0.0000000000
10
21.5423072184
20
20.8026667218
30
0.0000000000
10
21.5617432210
20
20.8426323115
30
0.0000000000
10
21.5745732489
20
20.8833569140
30
0.0000000000
10
21.5794463234
20
20.9163286561
30
0.0000000000
10
21.5800576992
20
20.9354350613
30
0.0000000000
10
21.5800573813
20
20.9407958534
30
0.0000000000
11
21.2993987260
21
20.5934683628
31
0.0000000000
11
21.3537245603
21
20.6240004972
31
0.0000000000
11
21.4028821988
21
20.6566488805
31
0.0000000000
11
21.4465432618
21
20.6911954171
31
0.0000000000
11
21.4844160871
21
20.7274093311
31
0.0000000000
11
21.5162476788
21
20.7650487085
31
0.0000000000
11
21.5418253975
21
20.8038621129
31
0.0000000000
11
21.5609783804
21
20.8435902654
31
0.0000000000
11
21.5735786829
21
20.8839677762
31
0.0000000000
11
21.5795421332
21
20.9247249178
31
0.0000000000
11
21.5800573813
21
20.9407958534
31
0.0000000000
0
SPLINE
5
34A
100
AcDbEntity
8
0
100
AcDbSpline
62
9
6
CONTINUOUS
70
0
71
3
72
26
73
22
74
20
42
0.0000001000
43
0.0000001000
44
0.0000000001
12
-0.0005214195
22
-1.0221635251
32
0.0000000000
13
-1.0139448235
23
-0.1286179433
33
0.0000000000
40
0.0000000000
40
0.0000000000
40
0.0000000000
40
0.0000000000
40
0.0674257495
40
0.1907173538
40
0.2991261505
40
0.3953032211
40
0.4806040448
40
0.5558399368
40
0.6218785916
40
0.6798360493
40
0.7309293285
40
0.7759359066
40
0.8150785403
40
0.8486716191
40
0.8773326122
40
0.9024372078
40
0.9250137747
40
0.9455672582
40
0.9645586701
40
0.9825132573
40
1.0000000000
40
1.0000000000
40
1.0000000000
40
1.0000000000
10
21.5800591318
20
17.7200227091
30
0.0000000000
10
21.5800474127
20
17.6970493285
30
0.0000000000
10
21.5792745497
20
17.6320685557
30
0.0000000000
10
21.5747702810
20
17.5302283344
30
0.0000000000
10
21.5652731900
20
17.4188990183
30
0.0000000000
10
21.5530519405
20
17.3208720451
30
0.0000000000
10
21.5388937485
20
17.2345436520
30
0.0000000000
10
21.5234115295
20
17.1588991574
30
0.0000000000
10
21.5070672304
20
17.0929989422
30
0.0000000000
10
21.4901486927
20
17.0357750721
30
0.0000000000
10
21.4728105596
20
16.9862107856
30
0.0000000000
10
21.4551933081
20
16.9436066642
30
0.0000000000
10
21.4375167790
20
16.9075629444
30
0.0000000000
10
21.4200599006
20
16.8777127979
30
0.0000000000
10
21.4029306819
20
16.8533271438
30
0.0000000000
10
21.3860160839
20
16.8335124016
30
0.0000000000
10
21.3690690199
20
16.8175244797
30
0.0000000000
10
21.3519598272
20
16.8049661409
30
0.0000000000
10
21.3346758967
20
16.7956038636
30
0.0000000000
10
21.3171925903
20
16.7892283385
30
0.0000000000
10
21.3053089234
20
16.7868117812
30
0.0000000000
10
21.2993987260
20
16.7860620782
30
0.0000000000
11
21.5800591318
21
17.7200227091
31
0.0000000000
11
21.5792385920
21
17.6511092033
31
0.0000000000
11
21.5736337806
21
17.5252212853
31
0.0000000000
11
21.5641609998
21
17.4148256005
31
0.0000000000
11
21.5519311540
21
17.3172896693
31
0.0000000000
11
21.5377412857
21
17.2312687871
31
0.0000000000
11
21.5222339483
21
17.1559523310
31
0.0000000000
11
21.5058910757
21
17.0904646525
31
0.0000000000
11
21.4889951823
21
17.0336887801
31
0.0000000000
11
21.4716441620
21
16.9844347015
31
0.0000000000
11
21.4539512721
21
16.9419735525
31
0.0000000000
11
21.4362194685
21
16.9061112674
31
0.0000000000
11
21.4187772581
21
16.8765372041
31
0.0000000000
11
21.4018439944
21
16.8526337356
31
0.0000000000
11
21.3851017091
21
16.8331899151
31
0.0000000000
11
21.3682468791
21
16.8174303987
31
0.0000000000
11
21.3512606442
21
16.8050705500
31
0.0000000000
11
21.3341631513
21
16.7958811468
31
0.0000000000
11
21.3169139416
21
16.7896187074
31
0.0000000000
11
21.2993987260
21
16.7860620782
31
0.0000000000
0
SPLINE
5
34B
100
AcDbEntity
8
0
100
AcDbSpline
62
9
6
CONTINUOUS
70
0
71
3
72
26
73
22
74
20
42
0.0000001000
43
0.0000001000
44
0.0000000001
12
0.3680106482
22
0.3344051646
32
0.0000000000
13
0.0090292676
23
-0.4974139743
33
0.0000000000
40
0.0000000000
40
0.0000000000
40
0.0000000000
40
0.0000000000
40
0.0464085793
40
0.0898417214
40
0.1306577763
40
0.1690984428
40
0.2053893081
40
0.2400008508
40
0.2741693198
40
0.3094538645
40
0.3467273260
40
0.3869060920
40
0.4309932216
40
0.4803907825
40
0.5366838310
40
0.6011859714
40
0.6748425125
40
0.7583964693
40
0.8529138205
40
0.9606697477
40
1.0000000000
40
1.0000000000
40
1.0000000000
40
1.0000000000
10
21.2993987260
20
15.0136089441
30
0.0000000000
10
21.3050916764
20
15.0187820336
30
0.0000000000
10
21.3163721480
20
15.0285173769
30
0.0000000000
10
21.3336220590
20
15.0416379062
30
0.0000000000
10
21.3507142434
20
15.0526998296
30
0.0000000000
10
21.3677093104
20
15.0615999918
30
0.0000000000
10
21.3846409299
20
15.0681882865
30
0.0000000000
10
21.4016221484
20
15.0723133671
30
0.0000000000
10
21.4188914985
20
15.0737430612
30
0.0000000000
10
21.4366039337
20
15.0720323553
30
0.0000000000
10
21.4546206535
20
15.0666386882
30
0.0000000000
10
21.4725507232
20
15.0571994710
30
0.0000000000
10
21.4901034412
20
15.0435149439
30
0.0000000000
10
21.5071412892
20
15.0253408723
30
0.0000000000
10
21.5235379997
20
15.0022951964
30
0.0000000000
10
21.5390309928
20
14.9739570249
30
0.0000000000
10
21.5531768356
20
14.9399716191
30
0.0000000000
10
21.5653726990
20
14.9000028507
30
0.0000000000
10
21.5748386899
20
14.8535088725
30
0.0000000000
10
21.5789721634
20
14.8136091589
30
0.0000000000
10
21.5798507459
20
14.7892298387
30
0.0000000000
10
21.5799691203
20
14.7827086997
30
0.0000000000
11
21.2993987260
21
15.0136089441
31
0.0000000000
11
21.3169007074
21
15.0286494065
31
0.0000000000
11
21.3341307745
21
15.0416710370
31
0.0000000000
11
21.3512085018
21
15.0526378899
31
0.0000000000
11
21.3681790631
21
15.0614339351
31
0.0000000000
11
21.3850266917
21
15.0678995138
31
0.0000000000
11
21.4017692018
21
15.0718862486
31
0.0000000000
11
21.4187064992
21
15.0732273467
31
0.0000000000
11
21.4361683466
21
15.0715183471
31
0.0000000000
11
21.4539359419
21
15.0662427706
31
0.0000000000
11
21.4716637020
21
15.0570294987
31
0.0000000000
11
21.4890408520
21
15.0436644279
31
0.0000000000
11
21.5059548964
21
15.0258527564
31
0.0000000000
11
21.5223098888
21
15.0031359351
31
0.0000000000
11
21.5378236223
21
14.9750637042
31
0.0000000000
11
21.5520154931
21
14.9412992300
31
0.0000000000
11
21.5642404984
21
14.9015912070
31
0.0000000000
11
21.5736931919
21
14.8555527548
31
0.0000000000
11
21.5792637804
21
14.8022613599
31
0.0000000000
11
21.5799691203
21
14.7827086997
31
0.0000000000
0
SPLINE
5
34C
100
AcDbEntity
8
0
100
AcDbSpline
62
9
6
CONTINUOUS
70
0
71
3
72
8
73
4
74
2
42
0.0000001000
43
0.0000001000
44
0.0000000001
12
0.0001688661
22
-0.0093026770
32
0.0000000000
13
0.0000109162
23
-0.0093043370
33
0.0000000000
40
0.0000000000
40
0.0000000000
40
0.0000000000
40
0.0000000000
40
1.0000000000
40
1.0000000000
40
1.0000000000
40
1.0000000000
10
21.5799691203
20
14.7827086997
30
0.0000000000
10
21.5800254090
20
14.7796078073
30
0.0000000000
10
21.5800553431
20
14.7765064160
30
0.0000000000
10
21.5800589818
20
14.7734049703
30
0.0000000000
11
21.5799691203
21
14.7827086997
31
0.0000000000
11
21.5800589818
21
14.7734049703
31
0.0000000000
0
SPLINE
5
34D
100
AcDbEntity
8
0
100
AcDbSpline
62
9
6
CONTINUOUS
70
0
71
3
72
17
73
13
74
11
42
0.0000001000
43
0.0000001000
44
0.0000000001
12
0.4128699715
22
0.2137696856
32
0.0000000000
13
0.0072514721
23
0.4653911981
33
0.0000000000
40
0.0000000000
40
0.0000000000
40
0.0000000000
40
0.0000000000
40
0.1335941851
40
0.2601262477
40
0.3795306310
40
0.4919360729
40
0.5977003374
40
0.6974454374
40
0.7920856724
40
0.8828349910
40
0.9711763247
40
1.0000000000
40
1.0000000000
40
1.0000000000
40
1.0000000000
10
21.2993987260
20
-9.7516118830
30
0.0000000000
10
21.3177844018
20
-9.7420924207
30
0.0000000000
10
21.3529996579
20
-9.7223910368
30
0.0000000000
10
21.4021278082
20
-9.6899453075
30
0.0000000000
10
21.4458495440
20
-9.6555886907
30
0.0000000000
10
21.4838744098
20
-9.6195343442
30
0.0000000000
10
21.5159472733
20
-9.5819997750
30
0.0000000000
10
21.5418405277
20
-9.5432098239
30
0.0000000000
10
21.5613520666
20
-9.5034011977
30
0.0000000000
10
21.5743065302
20
-9.4628328920
30
0.0000000000
10
21.5791876951
20
-9.4308413235
30
0.0000000000
10
21.5799572197
20
-9.4126733549
30
0.0000000000
10
21.5800268910
20
-9.4082019267
30
0.0000000000
11
21.2993987260
21
-9.7516118830
31
0.0000000000
11
21.3535486400
21
-9.7211871242
31
0.0000000000
11
21.4025665448
21
-9.6886597434
31
0.0000000000
11
21.4461272128
21
-9.6542455560
31
0.0000000000
11
21.4839416243
21
-9.6181728957
31
0.0000000000
11
21.5157588852
21
-9.5806811003
31
0.0000000000
11
21.5413678920
21
-9.5420189232
31
0.0000000000
11
21.5605987321
21
-9.5024428832
31
0.0000000000
11
21.5733238112
21
-9.4622155624
31
0.0000000000
11
21.5794586999
21
-9.4216038642
31
0.0000000000
11
21.5800268910
21
-9.4082019267
31
0.0000000000
0
SPLINE
5
34E
100
AcDbEntity
8
0
100
AcDbSpline
62
9
6
CONTINUOUS
70
0
71
3
72
8
73
4
74
2
42
0.0000001000
43
0.0000001000
44
0.0000000001
12
0.0000610446
22
0.0039177744
32
0.0000000000
13
-0.0000001663
23
0.0039182795
33
0.0000000000
40
0.0000000000
40
0.0000000000
40
0.0000000000
40
0.0000000000
40
1.0000000000
40
1.0000000000
40
1.0000000000
40
1.0000000000
10
21.5800268910
20
-9.4082019267
30
0.0000000000
10
21.5800472392
20
-9.4068960019
30
0.0000000000
10
21.5800573824
20
-9.4055899116
30
0.0000000000
10
21.5800573269
20
-9.4042838184
30
0.0000000000
11
21.5800268910
21
-9.4082019267
31
0.0000000000
11
21.5800573269
21
-9.4042838184
31
0.0000000000
0
SPLINE
5
34F
100
AcDbEntity
8
0
100
AcDbSpline
62
9
6
CONTINUOUS
70
0
71
3
72
9
73
5
74
3
42
0.0000001000
43
0.0000001000
44
0.0000000001
12
0.0776924171
22
0.0410062346
32
0.0000000000
13
0.0711542095
23
0.0515681931
33
0.0000000000
40
0.0000000000
40
0.0000000000
40
0.0000000000
40
0.0000000000
40
0.6190889221
40
1.0000000000
40
1.0000000000
40
1.0000000000
40
1.0000000000
10
20.8852482503
20
-10.7690949820
30
0.0000000000
10
20.9012810886
20
-10.7606328135
30
0.0000000000
10
20.9265979513
20
-10.7458288108
30
0.0000000000
10
20.9507813074
20
-10.7292803964
30
0.0000000000
10
20.9598157829
20
-10.7227327643
30
0.0000000000
11
20.8852482503
21
-10.7690949820
31
0.0000000000
11
20.9321934267
21
-10.7416342427
31
0.0000000000
11
20.9598157829
21
-10.7227327643
31
0.0000000000
0
SPLINE
5
350
100
AcDbEntity
8
0
100
AcDbSpline
62
9
6
CONTINUOUS
70
0
71
3
72
9
73
5
74
3
42
0.0000001000
43
0.0000001000
44
0.0000000001
12
0.0699950325
22
0.0506595091
32
0.0000000000
13
0.0640798488
23
0.0580279161
33
0.0000000000
40
0.0000000000
40
0.0000000000
40
0.0000000000
40
0.0000000000
40
0.9448939271
40
1.0000000000
40
1.0000000000
40
1.0000000000
40
1.0000000000
10
20.8852482503
20
-10.7690949820
30
0.0000000000
10
20.9072942107
20
-10.7531390278
30
0.0000000000
10
20.9297508015
20
-10.7350074946
30
0.0000000000
10
20.9511681469
20
-10.7157276204
30
0.0000000000
10
20.9523452099
20
-10.7146617235
30
0.0000000000
11
20.8852482503
21
-10.7690949820
31
0.0000000000
11
20.9488045395
21
-10.7178490095
31
0.0000000000
11
20.9523452099
21
-10.7146617235
31
0.0000000000
0
SPLINE
5
351
100
AcDbEntity
8
0
100
AcDbSpline
62
9
6
CONTINUOUS
70
0
71
3
72
18
73
14
74
12
42
0.0000001000
43
0.0000001000
44
0.0000000001
12
0.7812084705
22
0.7074283177
32
0.0000000000
13
-0.0030579805
23
1.0533643708
33
0.0000000000
40
0.0000000000
40
0.0000000000
40
0.0000000000
40
0.0000000000
40
0.0742437328
40
0.1547197810
40
0.2373042128
40
0.3223302176
40
0.4100633502
40
0.5007007547
40
0.5943739111
40
0.6911530636
40
0.7910513794
40
0.8940285524
40
1.0000000000
40
1.0000000000
40
1.0000000000
40
1.0000000000
10
20.9523452099
20
-10.7146617235
30
0.0000000000
10
20.9716784875
20
-10.6971543505
30
0.0000000000
10
21.0101897687
20
-10.6587254522
30
0.0000000000
10
21.0633668376
20
-10.5944086428
30
0.0000000000
10
21.1124103659
20
-10.5222722177
30
0.0000000000
10
21.1561088764
20
-10.4438586992
30
0.0000000000
10
21.1942846488
20
-10.3595106088
30
0.0000000000
10
21.2267843716
20
-10.2695918070
30
0.0000000000
10
21.2534777602
20
-10.1744873767
30
0.0000000000
10
21.2742580412
20
-10.0746027844
30
0.0000000000
10
21.2890420965
20
-9.9703617876
30
0.0000000000
10
21.2977711168
20
-9.8622108340
30
0.0000000000
10
21.2995067455
20
-9.7888207321
30
0.0000000000
10
21.2993987260
20
-9.7516118830
30
0.0000000000
11
20.9523452099
21
-10.7146617235
31
0.0000000000
11
21.0077541725
21
-10.6594663476
31
0.0000000000
11
21.0618457873
21
-10.5941960427
31
0.0000000000
11
21.1108473152
21
-10.5223181269
31
0.0000000000
11
21.1545492176
21
-10.4441400768
31
0.0000000000
11
21.1927645632
21
-10.3599962509
31
0.0000000000
11
21.2253296341
21
-10.2702470545
31
0.0000000000
11
21.2521049613
21
-10.1752769505
31
0.0000000000
11
21.2729760382
21
-10.0754921522
31
0.0000000000
11
21.2878535548
21
-9.9713193919
31
0.0000000000
11
21.2966736679
21
-9.8632056334
31
0.0000000000
11
21.2993987260
21
-9.7516118830
31
0.0000000000
0
SPLINE
5
352
100
AcDbEntity
8
0
100
AcDbSpline
62
9
6
CONTINUOUS
70
0
71
3
72
16
73
12
74
10
42
0.0000001000
43
0.0000001000
44
0.0000000001
12
-0.4035520321
22
0.2018036023
32
0.0000000000
13
-0.4066845390
23
-0.1946481669
33
0.0000000000
40
0.0000000000
40
0.0000000000
40
0.0000000000
40
0.0000000000
40
0.0179524839
40
0.1292323758
40
0.2419262945
40
0.3571674186
40
0.4759509126
40
0.5990963966
40
0.7272300812
40
0.8607829722
40
1.0000000000
40
1.0000000000
40
1.0000000000
40
1.0000000000
10
14.4507592782
20
25.9021079301
30
0.0000000000
10
14.4483443578
20
25.9033155554
30
0.0000000000
10
14.4308664666
20
25.9118208025
30
0.0000000000
10
14.3969331271
20
25.9251757222
30
0.0000000000
10
14.3473094047
20
25.9374695493
30
0.0000000000
10
14.2954154234
20
25.9434883175
30
0.0000000000
10
14.2416155448
20
25.9432096034
30
0.0000000000
10
14.1862771570
20
25.9366560324
30
0.0000000000
10
14.1297680528
20
25.9238895339
30
0.0000000000
10
14.0724642692
20
25.9050119662
30
0.0000000000
10
14.0347589930
20
25.8887776289
30
0.0000000000
10
14.0158865221
20
25.8797448492
30
0.0000000000
11
14.4507592782
21
25.9021079301
31
0.0000000000
11
14.4434759123
21
25.9056521273
31
0.0000000000
11
14.3967982503
21
25.9240493673
31
0.0000000000
11
14.3474936065
21
25.9363251373
31
0.0000000000
11
14.2958913428
21
25.9423974333
31
0.0000000000
11
14.2423361697
21
25.9422256916
31
0.0000000000
11
14.1871858433
21
25.9358110594
31
0.0000000000
11
14.1308087756
21
25.9231963874
31
0.0000000000
11
14.0735815732
21
25.9044659433
31
0.0000000000
11
14.0158865221
21
25.8797448492
31
0.0000000000
0
SPLINE
5
353
100
AcDbEntity
8
0
100
AcDbSpline
62
9
6
CONTINUOUS
70
0
71
3
72
43
73
39
74
37
42
0.0000001000
43
0.0000001000
44
0.0000000001
12
4.2552928214
22
-3.4425808825
32
0.0000000000
13
-4.5974354542
23
-2.9735249299
33
0.0000000000
40
0.0000000000
40
0.0000000000
40
0.0000000000
40
0.0000000000
40
0.0022985806
40
0.0325445077
40
0.0634583180
40
0.0949837642
40
0.1270584270
40
0.1596146311
40
0.1925801677
40
0.2258792338
40
0.2594329872
40
0.2931605269
40
0.3269793263
40
0.3608062542
40
0.3945579387
40
0.4281518169
40
0.4615064879
40
0.4945427719
40
0.5271841134
40
0.5593576343
40
0.5909946470
40
0.6220316964
40
0.6524112384
40
0.6820826797
40
0.7110032666
40
0.7391391426
40
0.7664664673
40
0.7929725007
40
0.8186569128
40
0.8435328373
40
0.8676281991
40
0.8909865085
40
0.9136677882
40
0.9357485884
40
0.9573217923
40
0.9784950964
40
0.9993889399
40
1.0000000000
40
1.0000000000
40
1.0000000000
40
1.0000000000
10
21.5801091586
20
20.1511091238
30
0.0000000000
10
21.5833695365
20
20.1484714406
30
0.0000000000
10
21.6294605242
20
20.1110379172
30
0.0000000000
10
21.7173703359
20
20.0356445517
30
0.0000000000
10
21.8404498668
20
19.9196209141
30
0.0000000000
10
21.9604943761
20
19.7957745610
30
0.0000000000
10
22.0770331951
20
19.6645920468
30
0.0000000000
10
22.1896090228
20
19.5265888441
30
0.0000000000
10
22.2977799244
20
19.3823072149
30
0.0000000000
10
22.4011209654
20
19.2323143047
30
0.0000000000
10
22.4992261553
20
19.0771996254
30
0.0000000000
10
22.5917098449
20
18.9175730870
30
0.0000000000
10
22.6782085490
20
18.7540621553
30
0.0000000000
10
22.7583821265
20
18.5873098427
30
0.0000000000
10
22.8319154167
20
18.4179716243
30
0.0000000000
10
22.8985192241
20
18.2467133832
30
0.0000000000
10
22.9579317060
20
18.0742081850
30
0.0000000000
10
23.0099191758
20
17.9011341574
30
0.0000000000
10
23.0542771920
20
17.7281712325
30
0.0000000000
10
23.0908311770
20
17.5559989388
30
0.0000000000
10
23.1194371720
20
17.3852932229
30
0.0000000000
10
23.1399822483
20
17.2167241423
30
0.0000000000
10
23.1523849081
20
17.0509528767
30
0.0000000000
10
23.1565952462
20
16.8886293406
30
0.0000000000
10
23.1525949918
20
16.7303894935
30
0.0000000000
10
23.1403973720
20
16.5768529471
30
0.0000000000
10
23.1200468193
20
16.4286206958
30
0.0000000000
10
23.0916185218
20
16.2862728741
30
0.0000000000
10
23.0552179037
20
16.1503670558
30
0.0000000000
10
23.0109799829
20
16.0214363839
30
0.0000000000
10
22.9590689288
20
15.8999885545
30
0.0000000000
10
22.8996776301
20
15.7865044361
30
0.0000000000
10
22.8330279073
20
15.6814375176
30
0.0000000000
10
22.7593708774
20
15.5852125408
30
0.0000000000
10
22.6789881869
20
15.4982243282
30
0.0000000000
10
22.5921929353
20
15.4208350446
30
0.0000000000
10
22.5290959701
20
15.3749953293
30
0.0000000000
10
22.4961721388
20
15.3536308428
30
0.0000000000
10
22.4952357024
20
15.3530251753
30
0.0000000000
11
21.5801091586
21
20.1511091238
31
0.0000000000
11
21.5898752207
21
20.1431775233
31
0.0000000000
11
21.7155867555
21
20.0354848385
31
0.0000000000
11
21.8387529095
21
19.9194904728
31
0.0000000000
11
21.9588880751
21
19.7956517542
31
0.0000000000
11
22.0755185573
21
19.6644569845
31
0.0000000000
11
22.1881846129
21
19.5264233140
31
0.0000000000
11
22.2964419074
21
19.3820951258
31
0.0000000000
11
22.3998637852
21
19.2320412327
31
0.0000000000
11
22.4980422987
21
19.0768535246
31
0.0000000000
11
22.5905905722
21
18.9171435218
31
0.0000000000
11
22.6771435038
21
18.7535412804
31
0.0000000000
11
22.7573600613
21
18.5866914175
31
0.0000000000
11
22.8309237709
21
18.4172521972
31
0.0000000000
11
22.8975447892
21
18.2458912155
31
0.0000000000
11
22.9569602807
21
18.0732845309
31
0.0000000000
11
23.0089361380
21
17.9001122454
31
0.0000000000
11
23.0532673179
21
17.7270575148
31
0.0000000000
11
23.0897791310
21
17.5548022769
31
0.0000000000
11
23.1183275572
21
17.3840259796
31
0.0000000000
11
23.1388000830
21
17.2154016897
31
0.0000000000
11
23.1511159684
21
17.0495944123
31
0.0000000000
11
23.1552266665
21
16.8872577604
31
0.0000000000
11
23.1511159669
21
16.7290318073
31
0.0000000000
11
23.1388000801
21
16.5755404164
31
0.0000000000
11
23.1183275528
21
16.4273886531
31
0.0000000000
11
23.0897791252
21
16.2851607832
31
0.0000000000
11
23.0532673108
21
16.1494173597
31
0.0000000000
11
23.0089361294
21
16.0206938102
31
0.0000000000
11
22.9569602709
21
15.8994973838
31
0.0000000000
11
22.8975447780
21
15.7863061917
31
0.0000000000
11
22.8309237587
21
15.6815662306
31
0.0000000000
11
22.7573600474
21
15.5856907210
31
0.0000000000
11
22.6771434893
21
15.4990574181
31
0.0000000000
11
22.5905905560
21
15.4220081095
31
0.0000000000
11
22.4980422822
21
15.3548463826
31
0.0000000000
11
22.4952357024
21
15.3530251753
31
0.0000000000
0
SPLINE
5
354
100
AcDbEntity
8
0
100
AcDbSpline
62
9
6
CONTINUOUS
70
0
71
3
72
13
73
9
74
7
42
0.0000001000
43
0.0000001000
44
0.0000000001
12
0.0831894255
22
0.0416210685
32
0.0000000000
13
0.0830442216
23
-0.0415221109
33
0.0000000000
40
0.0000000000
40
0.0000000000
40
0.0000000000
40
0.0000000000
40
0.0398015084
40
0.2136565539
40
0.3933138876
40
0.5826498345
40
0.7843828888
40
1.0000000000
40
1.0000000000
40
1.0000000000
40
1.0000000000
10
-0.0083394702
20
23.1513735960
30
0.0000000000
10
-0.0072357820
20
23.1519257898
30
0.0000000000
10
-0.0012382621
20
23.1547437517
30
0.0000000000
10
0.0104566978
20
23.1584380896
30
0.0000000000
10
0.0272842800
20
23.1601118508
30
0.0000000000
10
0.0449700246
20
23.1585257538
30
0.0000000000
10
0.0632044930
20
23.1537496143
30
0.0000000000
10
0.0751343536
20
23.1486781511
30
0.0000000000
10
0.0811029386
20
23.1456938586
30
0.0000000000
11
-0.0083394702
21
23.1513735960
31
0.0000000000
11
-0.0049889235
21
23.1529475428
31
0.0000000000
11
0.0103922655
21
23.1578441179
31
0.0000000000
11
0.0269833332
21
23.1595692119
31
0.0000000000
11
0.0445004019
21
23.1580933081
31
0.0000000000
11
0.0626437496
21
23.1534416599
31
0.0000000000
11
0.0811029386
21
23.1456938586
31
0.0000000000
0
SPLINE
5
355
100
AcDbEntity
8
0
100
AcDbSpline
62
7
6
CONTINUOUS
70
0
71
3
72
14
73
10
74
8
42
0.0000001000
43
0.0000001000
44
0.0000000001
12
0.0791351001
22
0.0395884654
32
0.0000000000
13
0.0790056663
23
-0.0395028331
33
0.0000000000
40
0.0000000000
40
0.0000000000
40
0.0000000000
40
0.0000000000
40
0.0108975268
40
0.1508652764
40
0.2976080641
40
0.4542147772
40
0.6228187521
40
0.8046187890
40
1.0000000000
40
1.0000000000
40
1.0000000000
40
1.0000000000
10
-0.0698968209
20
23.1205955462
30
0.0000000000
10
-0.0696093619
20
23.1207393516
30
0.0000000000
10
-0.0656134639
20
23.1226973023
30
0.0000000000
10
-0.0573005216
20
23.1256534994
30
0.0000000000
10
-0.0443154650
20
23.1275765733
30
0.0000000000
10
-0.0303640614
20
23.1272135393
30
0.0000000000
10
-0.0156190467
20
23.1245903567
30
0.0000000000
10
-0.0002560195
20
23.1197518271
30
0.0000000000
10
0.0099210146
20
23.1152483041
30
0.0000000000
10
0.0150664222
20
23.1126756004
30
0.0000000000
11
-0.0698968209
21
23.1205955462
31
0.0000000000
11
-0.0690309483
21
23.1210198140
31
0.0000000000
11
-0.0573969631
21
23.1252038760
31
0.0000000000
11
-0.0445851979
21
23.1271712514
31
0.0000000000
11
-0.0307548145
21
23.1268905959
31
0.0000000000
11
-0.0160785720
21
23.1243591544
31
0.0000000000
11
-0.0007405409
21
23.1196028028
31
0.0000000000
11
0.0150664222
21
23.1126756004
31
0.0000000000
0
SPLINE
5
356
100
AcDbEntity
8
0
100
AcDbSpline
62
7
6
CONTINUOUS
70
0
71
3
72
9
73
5
74
3
42
0.0000001000
43
0.0000001000
44
0.0000000001
12
-0.0046364675
22
0.0018489117
32
0.0000000000
13
-0.0047614225
23
0.0014980617
33
0.0000000000
40
0.0000000000
40
0.0000000000
40
0.0000000000
40
0.0000000000
40
0.1904103833
40
1.0000000000
40
1.0000000000
40
1.0000000000
40
1.0000000000
10
1.2291819791
20
23.1921506937
30
0.0000000000
10
1.2288877019
20
23.1922680443
30
0.0000000000
10
1.2273378188
20
23.1928732922
30
0.0000000000
10
1.2257656355
20
23.1934200167
30
0.0000000000
10
1.2244807028
20
23.1938242884
30
0.0000000000
11
1.2291819791
21
23.1921506937
31
0.0000000000
11
1.2282966657
21
23.1924964135
31
0.0000000000
11
1.2244807028
21
23.1938242884
31
0.0000000000
0
SPLINE
5
357
100
AcDbEntity
8
0
100
AcDbSpline
62
7
6
CONTINUOUS
70
0
71
3
72
13
73
9
74
7
42
0.0000001000
43
0.0000001000
44
0.0000000001
12
-0.0740256564
22
0.0232903092
32
0.0000000000
13
-0.0674954640
23
-0.0380871352
33
0.0000000000
40
0.0000000000
40
0.0000000000
40
0.0000000000
40
0.0000000000
40
0.1049480215
40
0.2661620546
40
0.4344052790
40
0.6118919984
40
0.8001412687
40
1.0000000000
40
1.0000000000
40
1.0000000000
40
1.0000000000
10
1.2244807028
20
23.1938242884
30
0.0000000000
10
1.2218910874
20
23.1946390457
30
0.0000000000
10
1.2151987399
20
23.1963103250
30
0.0000000000
10
1.2039751875
20
23.1974034633
30
0.0000000000
10
1.1908553072
20
23.1965263307
30
0.0000000000
10
1.1773338470
20
23.1935755914
30
0.0000000000
10
1.1635578735
20
23.1885989819
30
0.0000000000
10
1.1545682377
20
23.1841064041
30
0.0000000000
10
1.1500717185
20
23.1815690553
30
0.0000000000
11
1.2244807028
21
23.1938242884
31
0.0000000000
11
1.2165848207
21
23.1958013126
31
0.0000000000
11
1.2041533471
21
23.1970507696
31
0.0000000000
11
1.1911402384
21
23.1962315599
31
0.0000000000
11
1.1776895337
21
23.1933531590
31
0.0000000000
11
1.1639496545
21
23.1884475953
31
0.0000000000
11
1.1500717185
21
23.1815690553
31
0.0000000000
0
SPLINE
5
358
100
AcDbEntity
8
0
100
AcDbSpline
62
7
6
CONTINUOUS
70
0
71
3
72
13
73
9
74
7
42
0.0000001000
43
0.0000001000
44
0.0000000001
12
0.0955452568
22
0.1544423785
32
0.0000000000
13
0.1406277889
23
0.1149137475
33
0.0000000000
40
0.0000000000
40
0.0000000000
40
0.0000000000
40
0.0000000000
40
0.1641125965
40
0.3293206082
40
0.4955402789
40
0.6629364244
40
0.8313526948
40
1.0000000000
40
1.0000000000
40
1.0000000000
40
1.0000000000
10
21.2993987260
20
15.0136013892
30
0.0000000000
10
21.3046254527
20
15.0220500358
30
0.0000000000
10
21.3154604229
20
15.0387930602
30
0.0000000000
10
21.3329209485
20
15.0632002319
30
0.0000000000
10
21.3517400542
20
15.0868342434
30
0.0000000000
10
21.3719856237
20
15.1095231386
30
0.0000000000
10
21.3936631586
20
15.1310586712
30
0.0000000000
10
21.4090374260
20
15.1445002733
30
0.0000000000
10
21.4169429252
20
15.1509602379
30
0.0000000000
11
21.2993987260
21
15.0136013892
31
0.0000000000
11
21.3156152938
21
15.0386075412
31
0.0000000000
11
21.3330904925
21
15.0629960616
31
0.0000000000
11
21.3519110165
21
15.0865975180
31
0.0000000000
11
21.3721651557
21
15.1092681065
31
0.0000000000
11
21.3938754366
21
15.1308121979
31
0.0000000000
11
21.4169429252
21
15.1509602379
31
0.0000000000
0
SPLINE
5
359
100
AcDbEntity
8
0
100
AcDbSpline
62
7
6
CONTINUOUS
70
0
71
3
72
13
73
9
74
7
42
0.0000001000
43
0.0000001000
44
0.0000000001
12
-0.1186440381
22
-0.0259097720
32
0.0000000000
13
-0.1050085684
23
0.0609993821
33
0.0000000000
40
0.0000000000
40
0.0000000000
40
0.0000000000
40
0.0000000000
40
0.1923879054
40
0.3713766022
40
0.5388111758
40
0.6974861288
40
0.8504116562
40
1.0000000000
40
1.0000000000
40
1.0000000000
40
1.0000000000
10
21.4169429427
20
16.7704315978
30
0.0000000000
10
21.4093343834
20
16.7687700222
30
0.0000000000
10
21.3944668164
20
16.7663079858
30
0.0000000000
10
21.3726257511
20
16.7652980028
30
0.0000000000
10
21.3521883772
20
16.7669655394
30
0.0000000000
10
21.3331844732
20
16.7711031450
30
0.0000000000
10
21.3155763034
20
16.7774562490
30
0.0000000000
10
21.3046347453
20
16.7830282633
30
0.0000000000
10
21.2993987260
20
16.7860698622
30
0.0000000000
11
21.4169429427
21
16.7704315978
31
0.0000000000
11
21.3938803662
21
16.7666930633
31
0.0000000000
11
21.3721641925
21
16.7657550060
31
0.0000000000
11
21.3519019395
21
16.7674531701
31
0.0000000000
11
21.3330768823
21
16.7715679719
31
0.0000000000
11
21.3156043664
21
16.7778611953
31
0.0000000000
11
21.2993987260
21
16.7860698622
31
0.0000000000
0
SPLINE
5
35A
100
AcDbEntity
8
0
100
AcDbSpline
62
9
6
CONTINUOUS
70
0
71
3
72
15
73
11
74
9
42
0.0000001000
43
0.0000001000
44
0.0000000001
12
-0.3945151521
22
0.2041142431
32
0.0000000000
13
-0.4056645176
23
-0.1817600012
33
0.0000000000
40
0.0000000000
40
0.0000000000
40
0.0000000000
40
0.0000000000
40
0.1425078965
40
0.2791099952
40
0.4100698687
40
0.5358503481
40
0.6571232361
40
0.7747667924
40
0.8898452490
40
1.0000000000
40
1.0000000000
40
1.0000000000
40
1.0000000000
10
14.0158865221
20
25.8797448492
30
0.0000000000
10
13.9971460139
20
25.8894408130
30
0.0000000000
10
13.9596528773
20
25.9069625424
30
0.0000000000
10
13.9024892521
20
25.9276773093
30
0.0000000000
10
13.8459647588
20
25.9421210857
30
0.0000000000
10
13.7904631894
20
25.9501775191
30
0.0000000000
10
13.7363612640
20
25.9517720527
30
0.0000000000
10
13.6840368449
20
25.9468713020
30
0.0000000000
10
13.6343828383
20
25.9356066939
30
0.0000000000
10
13.6030260210
20
25.9239701564
30
0.0000000000
10
13.5881307297
20
25.9172962472
30
0.0000000000
11
14.0158865221
21
25.8797448492
31
0.0000000000
11
13.9584907400
21
25.9064410931
31
0.0000000000
11
13.9014026104
21
25.9270002735
31
0.0000000000
11
13.8450119521
21
25.9412820049
31
0.0000000000
11
13.7897038210
21
25.9491887662
31
0.0000000000
11
13.7358558814
21
25.9506665672
31
0.0000000000
11
13.6838358267
21
25.9457053170
31
0.0000000000
11
13.6339988690
21
25.9343388928
31
0.0000000000
11
13.5881307297
21
25.9172962472
31
0.0000000000
0
SPLINE
5
35B
100
AcDbEntity
8
0
100
AcDbSpline
62
9
6
CONTINUOUS
70
0
71
3
72
9
73
5
74
3
42
0.0000001000
43
0.0000001000
44
0.0000000001
12
-0.0038736307
22
-0.0017355995
32
0.0000000000
13
-0.0038535210
23
-0.0017798133
33
0.0000000000
40
0.0000000000
40
0.0000000000
40
0.0000000000
40
0.0000000000
40
0.3735012990
40
1.0000000000
40
1.0000000000
40
1.0000000000
40
1.0000000000
10
13.5881307297
20
25.9172962472
30
0.0000000000
10
13.5876484610
20
25.9170801643
30
0.0000000000
10
13.5863584868
20
25.9164988727
30
0.0000000000
10
13.5850718556
20
25.9159102031
30
0.0000000000
10
13.5842671136
20
25.9155385196
30
0.0000000000
11
13.5881307297
21
25.9172962472
31
0.0000000000
11
13.5866853133
21
25.9166449087
31
0.0000000000
11
13.5842671136
21
25.9155385196
31
0.0000000000
0
SPLINE
5
35C
100
AcDbEntity
8
0
100
AcDbSpline
62
9
6
CONTINUOUS
70
0
71
3
72
8
73
4
74
2
42
0.0000001000
43
0.0000001000
44
0.0000000001
12
-0.0494399858
22
-0.0228330797
32
0.0000000000
13
-0.0502020998
23
-0.0211267031
33
0.0000000000
40
0.0000000000
40
0.0000000000
40
0.0000000000
40
0.0000000000
40
1.0000000000
40
1.0000000000
40
1.0000000000
40
1.0000000000
10
8.0975674548
20
23.1464689776
30
0.0000000000
10
8.0810874595
20
23.1388579510
30
0.0000000000
10
8.0644701729
20
23.1315397933
30
0.0000000000
10
8.0477361396
20
23.1244975589
30
0.0000000000
11
8.0975674548
21
23.1464689776
31
0.0000000000
11
8.0477361396
21
23.1244975589
31
0.0000000000
0
SPLINE
5
35D
100
AcDbEntity
8
0
100
AcDbSpline
62
9
6
CONTINUOUS
70
0
71
3
72
12
73
8
74
6
42
0.0000001000
43
0.0000001000
44
0.0000000001
12
-0.2180363040
22
0.1128076195
32
0.0000000000
13
-0.2450330367
23
0.0171826668
33
0.0000000000
40
0.0000000000
40
0.0000000000
40
0.0000000000
40
0.0000000000
40
0.2578540087
40
0.5050220516
40
0.7419810374
40
0.9695684142
40
1.0000000000
40
1.0000000000
40
1.0000000000
40
1.0000000000
10
8.0975674548
20
23.1464689776
30
0.0000000000
10
8.0788269431
20
23.1561649432
30
0.0000000000
10
8.0413337997
20
23.1736866754
30
0.0000000000
10
7.9841701647
20
23.1944014443
30
0.0000000000
10
7.9276456629
20
23.2088452202
30
0.0000000000
10
7.8874805279
20
23.2146754623
30
0.0000000000
10
7.8664181274
20
23.2163202850
30
0.0000000000
10
7.8639325462
20
23.2164945836
30
0.0000000000
11
8.0975674548
21
23.1464689776
31
0.0000000000
11
8.0401716617
21
23.1731652260
31
0.0000000000
11
7.9830835223
21
23.1937244083
31
0.0000000000
11
7.9266928556
21
23.2080061391
31
0.0000000000
11
7.8713847178
21
23.2159128977
31
0.0000000000
11
7.8639325462
21
23.2164945836
31
0.0000000000
0
SPLINE
5
35E
100
AcDbEntity
8
0
100
AcDbSpline
62
7
6
CONTINUOUS
70
0
71
3
72
17
73
13
74
11
42
0.0000001000
43
0.0000001000
44
0.0000000001
12
0.4893911460
22
0.2335871117
32
0.0000000000
13
0.4851977624
23
-0.2425171928
33
0.0000000000
40
0.0000000000
40
0.0000000000
40
0.0000000000
40
0.0000000000
40
0.0993216075
40
0.1984557574
40
0.2981539046
40
0.3991694404
40
0.5022417824
40
0.6080907580
40
0.7173946993
40
0.8307769499
40
0.9487880003
40
1.0000000000
40
1.0000000000
40
1.0000000000
40
1.0000000000
10
15.0566530239
20
25.3593615983
30
0.0000000000
10
15.0728553956
20
25.3670950141
30
0.0000000000
10
15.1060287090
20
25.3809365356
30
0.0000000000
10
15.1577086237
20
25.3965399961
30
0.0000000000
10
15.2110210917
20
25.4068297387
30
0.0000000000
10
15.2658120035
20
25.4116929419
30
0.0000000000
10
15.3219248037
20
25.4110081806
30
0.0000000000
10
15.3791848321
20
25.4046436456
30
0.0000000000
10
15.4373973079
20
25.3924630275
30
0.0000000000
10
15.4963397400
20
25.3743319838
30
0.0000000000
10
15.5437075109
20
25.3550357744
30
0.0000000000
10
15.5713130388
20
25.3418300121
30
0.0000000000
10
15.5795956880
20
25.3376900820
30
0.0000000000
11
15.0566530239
21
25.3593615983
31
0.0000000000
11
15.1063670283
21
25.3800840717
31
0.0000000000
11
15.1578315732
21
25.3956199618
31
0.0000000000
11
15.2109137274
21
25.4058778886
31
0.0000000000
11
15.2654753216
21
25.4107491378
31
0.0000000000
11
15.3213656409
21
25.4101096342
31
0.0000000000
11
15.3784200827
21
25.4038235480
31
0.0000000000
11
15.4364502770
21
25.3917482014
31
0.0000000000
11
15.4952392437
21
25.3737415023
31
0.0000000000
11
15.5545350749
21
25.3496717055
31
0.0000000000
11
15.5795956880
21
25.3376900820
31
0.0000000000
0
SPLINE
5
35F
100
AcDbEntity
8
0
100
AcDbSpline
62
7
6
CONTINUOUS
70
0
71
3
72
10
73
6
74
4
42
0.0000001000
43
0.0000001000
44
0.0000000001
12
0.0480137065
22
-0.0241288565
32
0.0000000000
13
0.0480239769
23
-0.0241084088
33
0.0000000000
40
0.0000000000
40
0.0000000000
40
0.0000000000
40
0.0000000000
40
0.3356593340
40
0.6689922796
40
1.0000000000
40
1.0000000000
40
1.0000000000
40
1.0000000000
10
16.2552205995
20
22.2102929434
30
0.0000000000
10
16.2605926825
20
22.2075932515
30
0.0000000000
10
16.2712999892
20
22.2022133221
30
0.0000000000
10
16.2873062508
20
22.1941737391
30
0.0000000000
10
16.2979406238
20
22.1888342356
30
0.0000000000
10
16.3032393928
20
22.1861742124
30
0.0000000000
11
16.2552205995
21
22.2102929434
31
0.0000000000
11
16.2713374143
21
22.2021949939
31
0.0000000000
11
16.2873436609
21
22.1941554275
31
0.0000000000
11
16.3032393928
21
22.1861742124
31
0.0000000000
0
SPLINE
5
360
100
AcDbEntity
8
0
100
AcDbSpline
62
7
6
CONTINUOUS
70
0
71
3
72
41
73
37
74
35
42
0.0000001000
43
0.0000001000
44
0.0000000001
12
4.5613693448
22
2.2481832864
32
0.0000000000
13
1.7961856444
23
-4.7604419659
33
0.0000000000
40
0.0000000000
40
0.0000000000
40
0.0000000000
40
0.0000000000
40
0.0279385258
40
0.0568964807
40
0.0868121656
40
0.1176243451
40
0.1492481657
40
0.1816120308
40
0.2146126200
40
0.2481720901
40
0.2821727975
40
0.3165339459
40
0.3511274752
40
0.3858723845
40
0.4206340491
40
0.4553336694
40
0.4898339590
40
0.5240605477
40
0.5578775117
40
0.5912171214
40
0.6239490283
40
0.6560145206
40
0.6872933275
40
0.7177385375
40
0.7472449221
40
0.7757808944
40
0.8032619892
40
0.8296766875
40
0.8549682135
40
0.8791516957
40
0.9022067165
40
0.9241840024
40
0.9451100431
40
0.9650820021
40
0.9841838571
40
1.0000000000
40
1.0000000000
40
1.0000000000
40
1.0000000000
10
12.5602754572
20
22.5640115127
30
0.0000000000
10
12.6027547688
20
22.5849484883
30
0.0000000000
10
12.6903865818
20
22.6253389706
30
0.0000000000
10
12.8268441927
20
22.6805503563
30
0.0000000000
10
12.9702036405
20
22.7312916593
30
0.0000000000
10
13.1198648851
20
22.7773501307
30
0.0000000000
10
13.2752321316
20
22.8185428004
30
0.0000000000
10
13.4356508781
20
22.8546958640
30
0.0000000000
10
13.6004877888
20
22.8856665347
30
0.0000000000
10
13.7690405018
20
22.9113225533
30
0.0000000000
10
13.9406500402
20
22.9315635074
30
0.0000000000
10
14.1145777034
20
22.9463020360
30
0.0000000000
10
14.2901497662
20
22.9554809886
30
0.0000000000
10
14.4666038941
20
22.9590603925
30
0.0000000000
10
14.6432623387
20
22.9570265153
30
0.0000000000
10
14.8193524824
20
22.9493882726
30
0.0000000000
10
14.9942030870
20
22.9361748726
30
0.0000000000
10
15.1670449610
20
22.9174446043
30
0.0000000000
10
15.3372236370
20
22.8932685390
30
0.0000000000
10
15.5039871421
20
22.8637537886
30
0.0000000000
10
15.6667076885
20
22.8290116188
30
0.0000000000
10
15.8246641168
20
22.7891963505
30
0.0000000000
10
15.9772647946
20
22.7444571603
30
0.0000000000
10
16.1238324799
20
22.6949928520
30
0.0000000000
10
16.2638206298
20
22.6409875388
30
0.0000000000
10
16.3966081903
20
22.5826805742
30
0.0000000000
10
16.5217018894
20
22.5202871878
30
0.0000000000
10
16.6385477871
20
22.4540819811
30
0.0000000000
10
16.7467128016
20
22.3843064278
30
0.0000000000
10
16.8457187179
20
22.3112636011
30
0.0000000000
10
16.9351970885
20
22.2352153685
30
0.0000000000
10
17.0147498464
20
22.1564857174
30
0.0000000000
10
17.0840730031
20
22.0753518637
30
0.0000000000
10
17.1428467244
20
21.9921542027
30
0.0000000000
10
17.1886819657
20
21.9109850611
30
0.0000000000
10
17.2124073398
20
21.8566445562
30
0.0000000000
10
17.2218769161
20
21.8315472794
30
0.0000000000
11
12.5602754572
21
22.5640115127
31
0.0000000000
11
12.6892510020
21
22.6236013491
31
0.0000000000
11
12.8257175089
21
22.6789410863
31
0.0000000000
11
12.9690962415
21
22.7297965081
31
0.0000000000
11
13.1188284413
21
22.7759690274
31
0.0000000000
11
13.2742553373
21
22.8172559007
31
0.0000000000
11
13.4347948073
21
22.8535021676
31
0.0000000000
11
13.5997173323
21
22.8845434627
31
0.0000000000
11
13.7684279113
21
22.9102675239
31
0.0000000000
11
13.9401379288
21
22.9305544062
31
0.0000000000
11
14.1142490615
21
22.9453331923
31
0.0000000000
11
14.2899272818
21
22.9545333492
31
0.0000000000
11
14.4665795745
21
22.9581236309
31
0.0000000000
11
14.6433418182
21
22.9560867017
31
0.0000000000
11
14.8196340489
21
22.9484290863
31
0.0000000000
11
14.9945785618
21
22.9351891051
31
0.0000000000
11
15.1676153716
21
22.9164090077
31
0.0000000000
11
15.3378704158
21
22.8921838238
31
0.0000000000
11
15.5048098957
21
22.8625894008
31
0.0000000000
11
15.6675808363
21
22.8277770862
31
0.0000000000
11
15.8256812279
21
22.7878541649
31
0.0000000000
11
15.9782963456
21
22.7430264712
31
0.0000000000
11
16.1249610894
21
22.6934305619
31
0.0000000000
11
16.2649153717
21
22.6393235340
31
0.0000000000
11
16.3977357656
21
22.5808690554
31
0.0000000000
11
16.5227319617
21
22.5183709574
31
0.0000000000
11
16.6395267304
21
22.4520178546
31
0.0000000000
11
16.7475130027
21
22.3821546052
31
0.0000000000
11
16.8463641324
21
22.3089925778
31
0.0000000000
11
16.9355676897
21
22.2329109340
31
0.0000000000
11
17.0148519391
21
22.1541415348
31
0.0000000000
11
17.0838081045
21
22.0730902964
31
0.0000000000
11
17.1422236790
21
21.9900071922
31
0.0000000000
11
17.1897999165
21
21.9053167353
31
0.0000000000
11
17.2218769161
21
21.8315472794
31
0.0000000000
0
SPLINE
5
361
100
AcDbEntity
8
0
100
AcDbSpline
62
7
6
CONTINUOUS
70
0
71
3
72
10
73
6
74
4
42
0.0000001000
43
0.0000001000
44
0.0000000001
12
0.3128288885
22
-0.1337260017
32
0.0000000000
13
0.2936766765
23
-0.1717514678
33
0.0000000000
40
0.0000000000
40
0.0000000000
40
0.0000000000
40
0.0000000000
40
0.3436742093
40
0.6771155842
40
1.0000000000
40
1.0000000000
40
1.0000000000
40
1.0000000000
10
16.3032393928
20
22.1861742124
30
0.0000000000
10
16.3390764665
20
22.1708548198
30
0.0000000000
10
16.4091270927
20
22.1393449362
30
0.0000000000
10
16.5106179140
20
22.0886818620
30
0.0000000000
10
16.5757509027
20
22.0525998112
30
0.0000000000
10
16.6073587768
20
22.0341145204
30
0.0000000000
11
16.3032393928
21
22.1861742124
31
0.0000000000
11
16.4098431999
21
22.1381487500
31
0.0000000000
11
16.5113078519
21
22.0874164240
31
0.0000000000
11
16.6073587768
21
22.0341145204
31
0.0000000000
0
SPLINE
5
362
100
AcDbEntity
8
0
100
AcDbSpline
62
7
6
CONTINUOUS
70
0
71
3
72
10
73
6
74
4
42
0.0000001000
43
0.0000001000
44
0.0000000001
12
-0.0401259497
22
0.0199380878
32
0.0000000000
13
-0.0401137297
23
0.0199626619
33
0.0000000000
40
0.0000000000
40
0.0000000000
40
0.0000000000
40
0.0000000000
40
0.3304773746
40
0.6638133650
40
1.0000000000
40
1.0000000000
40
1.0000000000
40
1.0000000000
10
16.6474785339
20
22.0141639763
30
0.0000000000
10
16.6430582944
20
22.0163603386
30
0.0000000000
10
16.6341800458
20
22.0207729981
30
0.0000000000
10
16.6208068002
20
22.0274231938
30
0.0000000000
10
16.6118540100
20
22.0318774604
30
0.0000000000
10
16.6073587768
20
22.0341145204
30
0.0000000000
11
16.6474785339
21
22.0141639763
31
0.0000000000
11
16.6342185041
21
22.0207544490
31
0.0000000000
11
16.6208451457
21
22.0274046851
31
0.0000000000
11
16.6073587768
21
22.0341145204
31
0.0000000000
0
SPLINE
5
363
100
AcDbEntity
8
0
100
AcDbSpline
62
7
6
CONTINUOUS
70
0
71
3
72
13
73
9
74
7
42
0.0000001000
43
0.0000001000
44
0.0000000001
12
-0.1961525084
22
-0.1002226116
32
0.0000000000
13
0.0000000000
23
-0.2196572814
33
0.0000000000
40
0.0000000000
40
0.0000000000
40
0.0000000000
40
0.0000000000
40
0.0932095149
40
0.2503342003
40
0.4167661673
40
0.5962409861
40
0.7905974107
40
1.0000000000
40
1.0000000000
40
1.0000000000
40
1.0000000000
10
-11.4561519090
20
23.7730012896
30
0.0000000000
10
-11.4622463357
20
23.7698873892
30
0.0000000000
10
-11.4779674917
20
23.7602531346
30
0.0000000000
10
-11.5003768822
20
23.7390876583
30
0.0000000000
10
-11.5207423029
20
23.7080509833
30
0.0000000000
10
-11.5354629473
20
23.6710885173
30
0.0000000000
10
-11.5443068479
20
23.6291354552
30
0.0000000000
10
-11.5461294502
20
23.5995221303
30
0.0000000000
10
-11.5461294502
20
23.5841898625
30
0.0000000000
11
-11.4561519090
21
23.7730012896
31
0.0000000000
11
-11.4736401501
21
23.7622860861
31
0.0000000000
11
-11.4988628065
21
23.7387275443
31
0.0000000000
11
-11.5191541658
21
23.7083178810
31
0.0000000000
11
-11.5340162798
21
23.6718036835
31
0.0000000000
11
-11.5430823632
21
23.6300856269
31
0.0000000000
11
-11.5461294502
21
23.5841898625
31
0.0000000000
0
SPLINE
5
364
100
AcDbEntity
8
0
100
AcDbSpline
62
7
6
CONTINUOUS
70
0
71
3
72
9
73
5
74
3
42
0.0000001000
43
0.0000001000
44
0.0000000001
12
-0.0004065111
22
0.0259308417
32
0.0000000000
13
-0.0020642167
23
0.0258517468
33
0.0000000000
40
0.0000000000
40
0.0000000000
40
0.0000000000
40
0.0000000000
40
0.4989863682
40
1.0000000000
40
1.0000000000
40
1.0000000000
40
1.0000000000
10
11.4736176068
20
21.2427610136
30
0.0000000000
10
11.4735499924
20
21.2470740591
30
0.0000000000
10
11.4732738431
20
21.2557162851
30
0.0000000000
10
11.4726992522
20
21.2643434021
30
0.0000000000
10
11.4723545186
20
21.2686607613
30
0.0000000000
11
11.4736176068
21
21.2427610136
31
0.0000000000
11
11.4732000947
21
21.2556950031
31
0.0000000000
11
11.4723545186
21
21.2686607613
31
0.0000000000
0
SPLINE
5
365
100
AcDbEntity
8
0
100
AcDbSpline
62
7
6
CONTINUOUS
70
0
71
3
72
9
73
5
74
3
42
0.0000001000
43
0.0000001000
44
0.0000000001
12
-0.0005036446
22
-0.0035227343
32
0.0000000000
13
-0.0017167576
23
-0.0031170593
33
0.0000000000
40
0.0000000000
40
0.0000000000
40
0.0000000000
40
0.0000000000
40
0.4474175335
40
1.0000000000
40
1.0000000000
40
1.0000000000
40
1.0000000000
10
11.4736176068
20
-16.2751831888
30
0.0000000000
10
11.4735424937
20
-16.2757085665
30
0.0000000000
10
11.4732029621
20
-16.2768577081
30
0.0000000000
10
11.4726707353
20
-16.2779207935
30
0.0000000000
10
11.4723545186
20
-16.2784949376
30
0.0000000000
11
11.4736176068
21
-16.2751831888
31
0.0000000000
11
11.4732000947
21
-16.2767196317
31
0.0000000000
11
11.4723545186
21
-16.2784949376
31
0.0000000000
0
SPLINE
5
366
100
AcDbEntity
8
0
100
AcDbSpline
62
7
6
CONTINUOUS
70
0
71
3
72
12
73
8
74
6
42
0.0000001000
43
0.0000001000
44
0.0000000001
12
0.1035245975
22
-0.0518042949
32
0.0000000000
13
0.1037892104
23
0.0505590123
33
0.0000000000
40
0.0000000000
40
0.0000000000
40
0.0000000000
40
0.0000000000
40
0.0702682166
40
0.2823115323
40
0.5037058504
40
0.7425202568
40
1.0000000000
40
1.0000000000
40
1.0000000000
40
1.0000000000
10
3.9238679764
20
-24.3202676966
30
0.0000000000
10
3.9262928060
20
-24.3214810951
30
0.0000000000
10
3.9362417705
20
-24.3259404045
30
0.0000000000
10
3.9552281399
20
-24.3307564676
30
0.0000000000
10
3.9813152526
20
-24.3309970446
30
0.0000000000
10
4.0085459540
20
-24.3254614242
30
0.0000000000
10
4.0263766687
20
-24.3183412640
30
0.0000000000
10
4.0352845418
20
-24.3140019568
30
0.0000000000
11
3.9238679764
21
-24.3202676966
31
0.0000000000
11
3.9312883527
21
-24.3235919267
31
0.0000000000
11
3.9549910411
21
-24.3297123523
31
0.0000000000
11
3.9805473065
21
-24.3301311935
31
0.0000000000
11
4.0076062486
21
-24.3248430912
31
0.0000000000
11
4.0352845418
21
-24.3140019568
31
0.0000000000
0
SPLINE
5
367
100
AcDbEntity
8
0
100
AcDbSpline
62
7
6
CONTINUOUS
70
0
71
3
72
13
73
9
74
7
42
0.0000001000
43
0.0000001000
44
0.0000000001
12
-0.1410768327
22
0.0705989525
32
0.0000000000
13
0.0000000000
23
0.1573187955
33
0.0000000000
40
0.0000000000
40
0.0000000000
40
0.0000000000
40
0.0000000000
40
0.1002829637
40
0.2556824971
40
0.4210753023
40
0.5986534561
40
0.7921182670
40
1.0000000000
40
1.0000000000
40
1.0000000000
40
1.0000000000
10
2.2466248492
20
-23.4816460265
30
0.0000000000
10
2.2419089816
20
-23.4792860691
30
0.0000000000
10
2.2303934522
20
-23.4722479126
30
0.0000000000
10
2.2142636390
20
-23.4568441518
30
0.0000000000
10
2.1999201711
20
-23.4347529458
30
0.0000000000
10
2.1895407893
20
-23.4084369032
30
0.0000000000
10
2.1833106611
20
-23.3786013074
30
0.0000000000
10
2.1820266721
20
-23.3575198256
30
0.0000000000
10
2.1820266721
20
-23.3466185910
30
0.0000000000
11
2.2466248492
21
-23.4816460265
31
0.0000000000
11
2.2331406075
21
-23.4734089449
31
0.0000000000
11
2.2153635173
21
-23.4566266939
31
0.0000000000
11
2.2010231503
21
-23.4349158006
31
0.0000000000
11
2.1905779843
21
-23.4090055728
31
0.0000000000
11
2.1841710564
21
-23.3792519154
31
0.0000000000
11
2.1820266721
21
-23.3466185910
31
0.0000000000
0
SPLINE
5
368
100
AcDbEntity
8
0
100
AcDbSpline
62
7
6
CONTINUOUS
70
0
71
3
72
9
73
5
74
3
42
0.0000001000
43
0.0000001000
44
0.0000000001
12
0.0223544506
22
-0.0111796084
32
0.0000000000
13
0.0243998698
23
-0.0050947154
33
0.0000000000
40
0.0000000000
40
0.0000000000
40
0.0000000000
40
0.0000000000
40
0.0711022819
40
1.0000000000
40
1.0000000000
40
1.0000000000
40
1.0000000000
10
-9.4404472968
20
24.0014647616
30
0.0000000000
10
-9.4399174793
20
24.0011997964
30
0.0000000000
10
-9.4324303694
20
23.9975435202
30
0.0000000000
10
-9.4244567705
20
23.9948895441
30
0.0000000000
10
-9.4169017760
20
23.9933120542
30
0.0000000000
11
-9.4404472968
21
24.0014647616
31
0.0000000000
11
-9.4388503186
21
24.0006849244
31
0.0000000000
11
-9.4169017760
21
23.9933120542
31
0.0000000000
0
SPLINE
5
369
100
AcDbEntity
8
0
100
AcDbSpline
62
7
6
CONTINUOUS
70
0
71
3
72
13
73
9
74
7
42
0.0000001000
43
0.0000001000
44
0.0000000001
12
-0.1411200199
22
0.0705753522
32
0.0000000000
13
0.0000000000
23
0.1573462303
33
0.0000000000
40
0.0000000000
40
0.0000000000
40
0.0000000000
40
0.0000000000
40
0.1341877812
40
0.2839661477
40
0.4437692844
40
0.6151905100
40
0.8009213695
40
1.0000000000
40
1.0000000000
40
1.0000000000
40
1.0000000000
10
-11.1176905167
20
24.8400863651
30
0.0000000000
10
-11.1240027108
20
24.8432431484
30
0.0000000000
10
-11.1365810431
20
24.8514597541
30
0.0000000000
10
-11.1527675087
20
24.8684712831
30
0.0000000000
10
-11.1659050295
20
24.8902096061
30
0.0000000000
10
-11.1754070666
20
24.9157480803
30
0.0000000000
10
-11.1811115847
20
24.9444640148
30
0.0000000000
10
-11.1822914923
20
24.9646771407
30
0.0000000000
10
-11.1822914923
20
24.9751185647
30
0.0000000000
11
-11.1176905167
21
24.8400863651
31
0.0000000000
11
-11.1353945729
21
24.8516046318
31
0.0000000000
11
-11.1517379261
21
24.8685840660
31
0.0000000000
11
-11.1648990593
21
24.8900089695
31
0.0000000000
11
-11.1744755390
21
24.9152241616
31
0.0000000000
11
-11.1803302011
21
24.9438557537
31
0.0000000000
11
-11.1822914923
21
24.9751185647
31
0.0000000000
0
SPLINE
5
36A
100
AcDbEntity
8
0
100
AcDbSpline
62
7
6
CONTINUOUS
70
0
71
3
72
9
73
5
74
3
42
0.0000001000
43
0.0000001000
44
0.0000000001
12
0.0223544506
22
-0.0111796084
32
0.0000000000
13
0.0243998698
23
-0.0050947154
33
0.0000000000
40
0.0000000000
40
0.0000000000
40
0.0000000000
40
0.0000000000
40
0.0711022819
40
1.0000000000
40
1.0000000000
40
1.0000000000
40
1.0000000000
10
3.9238708676
20
17.3193056794
30
0.0000000000
10
3.9244006851
20
17.3190407142
30
0.0000000000
10
3.9318877951
20
17.3153844380
30
0.0000000000
10
3.9398613940
20
17.3127304619
30
0.0000000000
10
3.9474163884
20
17.3111529720
30
0.0000000000
11
3.9238708676
21
17.3193056794
31
0.0000000000
11
3.9254678458
21
17.3185258422
31
0.0000000000
11
3.9474163884
21
17.3111529720
31
0.0000000000
0
SPLINE
5
36B
100
AcDbEntity
8
0
100
AcDbSpline
62
7
6
CONTINUOUS
70
0
71
3
72
13
73
9
74
7
42
0.0000001000
43
0.0000001000
44
0.0000000001
12
-0.1411200199
22
0.0705753522
32
0.0000000000
13
-0.0000000000
23
0.1573462303
33
0.0000000000
40
0.0000000000
40
0.0000000000
40
0.0000000000
40
0.0000000000
40
0.1341877812
40
0.2839661477
40
0.4437692844
40
0.6151905100
40
0.8009213695
40
1.0000000000
40
1.0000000000
40
1.0000000000
40
1.0000000000
10
2.2466276478
20
18.1579272829
30
0.0000000000
10
2.2403154537
20
18.1610840662
30
0.0000000000
10
2.2277371214
20
18.1693006719
30
0.0000000000
10
2.2115506558
20
18.1863122009
30
0.0000000000
10
2.1984131349
20
18.2080505239
30
0.0000000000
10
2.1889110978
20
18.2335889981
30
0.0000000000
10
2.1832065797
20
18.2623049326
30
0.0000000000
10
2.1820266721
20
18.2825180585
30
0.0000000000
10
2.1820266721
20
18.2929594825
30
0.0000000000
11
2.2466276478
21
18.1579272829
31
0.0000000000
11
2.2289235915
21
18.1694455496
31
0.0000000000
11
2.2125802383
21
18.1864249838
31
0.0000000000
11
2.1994191051
21
18.2078498873
31
0.0000000000
11
2.1898426254
21
18.2330650794
31
0.0000000000
11
2.1839879634
21
18.2616966715
31
0.0000000000
11
2.1820266721
21
18.2929594825
31
0.0000000000
0
SPLINE
5
36C
100
AcDbEntity
8
0
100
AcDbSpline
62
7
6
CONTINUOUS
70
0
71
3
72
13
73
9
74
7
42
0.0000001000
43
0.0000001000
44
0.0000000001
12
-0.1411184857
22
0.0705745873
32
0.0000000000
13
-0.0000000000
23
0.1573445288
33
0.0000000000
40
0.0000000000
40
0.0000000000
40
0.0000000000
40
0.0000000000
40
0.1341870270
40
0.2839657539
40
0.4437691199
40
0.6151904691
40
0.8009213618
40
1.0000000000
40
1.0000000000
40
1.0000000000
40
1.0000000000
10
5.7011663086
20
-22.3511792339
30
0.0000000000
10
5.6948542186
20
-22.3480225026
30
0.0000000000
10
5.6822760268
20
-22.3398060236
30
0.0000000000
10
5.6660896680
20
-22.3227947582
30
0.0000000000
10
5.6529521542
20
-22.3010567107
30
0.0000000000
10
5.6434500520
20
-22.2755185507
30
0.0000000000
10
5.6377454515
20
-22.2468029539
30
0.0000000000
10
5.6365653326
20
-22.2265900520
30
0.0000000000
10
5.6365653326
20
-22.2161487405
30
0.0000000000
11
5.7011663086
21
-22.3511792339
31
0.0000000000
11
5.6834625216
21
-22.3396611887
31
0.0000000000
11
5.6671192330
21
-22.3226819674
31
0.0000000000
11
5.6539581093
21
-22.3012573348
31
0.0000000000
11
5.6443815776
21
-22.2760424537
31
0.0000000000
11
5.6385268008
21
-22.2474112023
31
0.0000000000
11
5.6365653326
21
-22.2161487405
31
0.0000000000
0
SPLINE
5
36D
100
AcDbEntity
8
0
100
AcDbSpline
62
7
6
CONTINUOUS
70
0
71
3
72
9
73
5
74
3
42
0.0000001000
43
0.0000001000
44
0.0000000001
12
0.0032858702
22
0.0020479729
32
0.0000000000
13
0.0001131308
23
0.0034647824
33
0.0000000000
40
0.0000000000
40
0.0000000000
40
0.0000000000
40
0.0000000000
40
0.7170165808
40
1.0000000000
40
1.0000000000
40
1.0000000000
40
1.0000000000
10
11.4718136435
20
20.6575711339
30
0.0000000000
10
11.4725989846
20
20.6580606107
30
0.0000000000
10
11.4735235228
20
20.6589683448
30
0.0000000000
10
11.4737235752
20
20.6600847293
30
0.0000000000
10
11.4737342466
20
20.6604115546
30
0.0000000000
11
11.4718136435
21
20.6575711339
31
0.0000000000
11
11.4735523356
21
20.6594696013
31
0.0000000000
11
11.4737342466
21
20.6604115546
31
0.0000000000
0
SPLINE
5
36E
100
AcDbEntity
8
0
100
AcDbSpline
62
7
6
CONTINUOUS
70
0
71
3
72
12
73
8
74
6
42
0.0000001000
43
0.0000001000
44
0.0000000001
12
0.0000024720
22
0.1446720053
32
0.0000000000
13
-0.1289551214
23
0.0644775607
33
0.0000000000
40
0.0000000000
40
0.0000000000
40
0.0000000000
40
0.0000000000
40
0.1637122150
40
0.3390315196
40
0.5344106615
40
0.7543496530
40
1.0000000000
40
1.0000000000
40
1.0000000000
40
1.0000000000
10
1.1635945596
20
26.0864028559
30
0.0000000000
10
1.1635946945
20
26.0942977140
30
0.0000000000
10
1.1608980261
20
26.1106462651
30
0.0000000000
10
1.1492805403
20
26.1339072805
30
0.0000000000
10
1.1307018209
20
26.1556560111
30
0.0000000000
10
1.1057499050
20
26.1755487415
30
0.0000000000
10
1.0862858841
20
26.1867465121
30
0.0000000000
10
1.0757265940
20
26.1920261571
30
0.0000000000
11
1.1635945596
21
26.0864028559
31
0.0000000000
11
1.1599006071
21
26.1097154106
31
0.0000000000
11
1.1489109649
21
26.1324782763
31
0.0000000000
11
1.1308957542
21
26.1541334396
31
0.0000000000
11
1.1062992645
21
26.1741468073
31
0.0000000000
11
1.0757265940
21
26.1920261571
31
0.0000000000
0
SPLINE
5
36F
100
AcDbEntity
8
0
100
AcDbSpline
62
7
6
CONTINUOUS
70
0
71
3
72
13
73
9
74
7
42
0.0000001000
43
0.0000001000
44
0.0000000001
12
0.0000258596
22
0.1446711661
32
0.0000000000
13
-0.1289558739
23
0.0644779370
33
0.0000000000
40
0.0000000000
40
0.0000000000
40
0.0000000000
40
0.0000000000
40
0.0029880403
40
0.1661938042
40
0.3410778189
40
0.5359454890
40
0.7552121694
40
1.0000000000
40
1.0000000000
40
1.0000000000
40
1.0000000000
10
6.7180580216
20
23.3091727687
30
0.0000000000
10
6.7180580474
20
23.3093168631
30
0.0000000000
10
6.7180354266
20
23.3173313155
30
0.0000000000
10
6.7152357268
20
23.3337610868
30
0.0000000000
10
6.7035721003
20
23.3569153825
30
0.0000000000
10
6.6850048393
20
23.3785675871
30
0.0000000000
10
6.6601140205
20
23.3983764870
30
0.0000000000
10
6.6407123844
20
23.4095332619
30
0.0000000000
10
6.6301901081
20
23.4147944000
30
0.0000000000
11
6.7180580216
21
23.3091727687
31
0.0000000000
11
6.7180568003
21
23.3096050479
31
0.0000000000
11
6.7142541079
21
23.3328262702
31
0.0000000000
11
6.7032122477
21
23.3554942278
31
0.0000000000
11
6.6852006253
21
23.3770565916
31
0.0000000000
11
6.6606601544
21
23.3969854945
31
0.0000000000
11
6.6301901081
21
23.4147944000
31
0.0000000000
0
SPLINE
5
370
100
AcDbEntity
8
0
100
AcDbSpline
62
7
6
CONTINUOUS
70
0
71
3
72
17
73
13
74
11
42
0.0000001000
43
0.0000001000
44
0.0000000001
12
0.4608527432
22
-0.2304263716
32
0.0000000000
13
0.0000000000
23
-0.5152490307
33
0.0000000000
40
0.0000000000
40
0.0000000000
40
0.0000000000
40
0.0000000000
40
0.0874854453
40
0.1810663987
40
0.2799044282
40
0.3828032215
40
0.4883360357
40
0.5949178722
40
0.7009068930
40
0.8047067593
40
0.9048273562
40
1.0000000000
40
1.0000000000
40
1.0000000000
40
1.0000000000
10
6.4497381310
20
17.3755867731
30
0.0000000000
10
6.4631774335
20
17.3688671219
30
0.0000000000
10
6.4899127610
20
17.3527359603
30
0.0000000000
10
6.5275334077
20
17.3226262362
30
0.0000000000
10
6.5632477794
20
17.2864609420
30
0.0000000000
10
6.5961939929
20
17.2451175808
30
0.0000000000
10
6.6255857059
20
17.1995914703
30
0.0000000000
10
6.6507120376
20
17.1509839232
30
0.0000000000
10
6.6709653455
20
17.1004722672
30
0.0000000000
10
6.6858550930
20
17.0492745123
30
0.0000000000
10
6.6950199306
20
16.9986350166
30
0.0000000000
10
6.6972255044
20
16.9650685240
30
0.0000000000
10
6.6972255044
20
16.9487226532
30
0.0000000000
11
6.4497381310
21
17.3755867731
31
0.0000000000
11
6.4884526716
21
17.3524977840
31
0.0000000000
11
6.5262137835
21
17.3225140332
31
0.0000000000
11
6.5620926518
21
17.2863728581
31
0.0000000000
11
6.5952044700
21
17.2449655011
31
0.0000000000
11
6.6247362044
21
17.1993081768
31
0.0000000000
11
6.6499588608
21
17.1505269785
31
0.0000000000
11
6.6702502201
21
17.0998259560
31
0.0000000000
11
6.6851123340
21
17.0484496446
31
0.0000000000
11
6.6941784175
21
16.9976655045
31
0.0000000000
11
6.6972255044
21
16.9487226532
31
0.0000000000
0
SPLINE
5
371
100
AcDbEntity
8
0
100
AcDbSpline
62
7
6
CONTINUOUS
70
0
71
3
72
13
73
9
74
7
42
0.0000001000
43
0.0000001000
44
0.0000000001
12
0.0000000000
22
-0.2196572814
32
0.0000000000
13
-0.1961525084
23
-0.1002226116
33
0.0000000000
40
0.0000000000
40
0.0000000000
40
0.0000000000
40
0.0000000000
40
0.2094025893
40
0.4037590139
40
0.5832338327
40
0.7496657997
40
0.9067904851
40
1.0000000000
40
1.0000000000
40
1.0000000000
40
1.0000000000
10
6.6972255044
20
-21.2278591915
30
0.0000000000
10
6.6972255044
20
-21.2431914593
30
0.0000000000
10
6.6954029021
20
-21.2728047842
30
0.0000000000
10
6.6865590015
20
-21.3147578463
30
0.0000000000
10
6.6718383571
20
-21.3517203123
30
0.0000000000
10
6.6514729364
20
-21.3827569873
30
0.0000000000
10
6.6290635460
20
-21.4039224636
30
0.0000000000
10
6.6133423900
20
-21.4135567182
30
0.0000000000
10
6.6072479632
20
-21.4166706186
30
0.0000000000
11
6.6972255044
21
-21.2278591915
31
0.0000000000
11
6.6941784175
21
-21.2737549559
31
0.0000000000
11
6.6851123340
21
-21.3154730125
31
0.0000000000
11
6.6702502201
21
-21.3519872100
31
0.0000000000
11
6.6499588608
21
-21.3823968733
31
0.0000000000
11
6.6247362044
21
-21.4059554151
31
0.0000000000
11
6.6072479632
21
-21.4166706186
31
0.0000000000
0
SPLINE
5
372
100
AcDbEntity
8
0
100
AcDbSpline
62
7
6
CONTINUOUS
70
0
71
3
72
12
73
8
74
6
42
0.0000001000
43
0.0000001000
44
0.0000000001
12
0.1442257105
22
-0.0721128553
32
0.0000000000
13
0.1452198943
23
0.0711107357
33
0.0000000000
40
0.0000000000
40
0.0000000000
40
0.0000000000
40
0.0000000000
40
0.2589093298
40
0.4980032510
40
0.7205148469
40
0.9322066891
40
1.0000000000
40
1.0000000000
40
1.0000000000
40
1.0000000000
10
3.9748643969
20
-22.6333362713
30
0.0000000000
10
3.9873115242
20
-22.6395598350
30
0.0000000000
10
4.0121970507
20
-22.6497986305
30
0.0000000000
10
4.0502982962
20
-22.6579522285
30
0.0000000000
10
4.0867990140
20
-22.6579562371
30
0.0000000000
10
4.1132795198
20
-22.6514462172
30
0.0000000000
10
4.1270821170
20
-22.6453836669
30
0.0000000000
10
4.1303637628
20
-22.6437767228
30
0.0000000000
11
3.9748643969
21
-22.6333362713
31
0.0000000000
11
4.0135789375
21
-22.6489618228
31
0.0000000000
11
4.0513400493
21
-22.6567391839
31
0.0000000000
11
4.0872189176
21
-22.6564768770
31
0.0000000000
11
4.1203307359
21
-22.6481813383
31
0.0000000000
11
4.1303637628
21
-22.6437767228
31
0.0000000000
0
SPLINE
5
373
100
AcDbEntity
8
0
100
AcDbSpline
62
7
6
CONTINUOUS
70
0
71
3
72
12
73
8
74
6
42
0.0000001000
43
0.0000001000
44
0.0000000001
12
-0.1280997254
22
-0.0657175839
32
0.0000000000
13
-0.0000198404
23
-0.1444569908
33
0.0000000000
40
0.0000000000
40
0.0000000000
40
0.0000000000
40
0.0000000000
40
0.2451070430
40
0.4650070858
40
0.6609705450
40
0.8375383260
40
1.0000000000
40
1.0000000000
40
1.0000000000
40
1.0000000000
10
-5.4987137395
20
23.3629546421
30
0.0000000000
10
-5.5091797878
20
23.3575853613
30
0.0000000000
10
-5.5284682733
20
23.3462012259
30
0.0000000000
10
-5.5531355552
20
23.3260238358
30
0.0000000000
10
-5.5714506317
20
23.3039910000
30
0.0000000000
10
-5.5827649063
20
23.2805954404
30
0.0000000000
10
-5.5853500571
20
23.2642686850
30
0.0000000000
10
-5.5853511315
20
23.2564457769
30
0.0000000000
11
-5.4987137395
21
23.3629546421
31
0.0000000000
11
-5.5289763754
21
23.3448030867
31
0.0000000000
11
-5.5532841359
21
23.3245182892
31
0.0000000000
11
-5.5710434745
21
23.3025954943
31
0.0000000000
11
-5.5818196641
21
23.2795715016
31
0.0000000000
11
-5.5853511315
21
23.2564457769
31
0.0000000000
0
SPLINE
5
374
100
AcDbEntity
8
0
100
AcDbSpline
62
7
6
CONTINUOUS
70
0
71
3
72
17
73
13
74
11
42
0.0000001000
43
0.0000001000
44
0.0000000001
12
-0.3892831373
22
0.1946415686
32
0.0000000000
13
-0.3912763246
23
-0.1906030928
33
0.0000000000
40
0.0000000000
40
0.0000000000
40
0.0000000000
40
0.0000000000
40
0.0891031991
40
0.1852014033
40
0.2868711654
40
0.3924014128
40
0.4999155417
40
0.6074372688
40
0.7129896138
40
0.8146951064
40
0.9108405521
40
1.0000000000
40
1.0000000000
40
1.0000000000
40
1.0000000000
10
0.8952746169
20
26.2822521457
30
0.0000000000
10
0.8837124926
20
26.2880332078
30
0.0000000000
10
0.8588954474
20
26.2985102370
30
0.0000000000
10
0.8190298169
20
26.3106642929
30
0.0000000000
10
0.7758944337
20
26.3196340606
30
0.0000000000
10
0.7305279927
20
26.3251997213
30
0.0000000000
10
0.6840186150
20
26.3272268753
30
0.0000000000
10
0.6374880724
20
26.3256655230
30
0.0000000000
10
0.5920586554
20
26.3205543597
30
0.0000000000
10
0.5488201613
20
26.3120168447
30
0.0000000000
10
0.5088139171
20
26.3002623598
30
0.0000000000
10
0.4838769256
20
26.2900348261
30
0.0000000000
10
0.4722482653
20
26.2843701372
30
0.0000000000
11
0.8952746169
21
26.2822521457
31
0.0000000000
11
0.8596198628
21
26.2975056403
31
0.0000000000
11
0.8196521323
21
26.3098308381
31
0.0000000000
11
0.7763471806
21
26.3189267613
31
0.0000000000
11
0.7307651546
21
26.3245707469
31
0.0000000000
11
0.6840167061
21
26.3266250950
31
0.0000000000
11
0.6372467140
21
26.3250391834
31
0.0000000000
11
0.5916007565
21
26.3198521026
31
0.0000000000
11
0.5481910184
21
26.3111903590
31
0.0000000000
11
0.5080804271
21
26.2992659807
31
0.0000000000
11
0.4722482653
21
26.2843701372
31
0.0000000000
0
SPLINE
5
375
100
AcDbEntity
8
0
100
AcDbSpline
62
7
6
CONTINUOUS
70
0
71
3
72
17
73
13
74
11
42
0.0000001000
43
0.0000001000
44
0.0000000001
12
-0.3905141315
22
0.1952570657
32
0.0000000000
13
-0.3916239349
23
-0.1930215070
33
0.0000000000
40
0.0000000000
40
0.0000000000
40
0.0000000000
40
0.0000000000
40
0.0891659336
40
0.1853519118
40
0.2871213145
40
0.3927472656
40
0.5003366228
40
0.6078965497
40
0.7134351177
40
0.8150632032
40
0.9110602977
40
1.0000000000
40
1.0000000000
40
1.0000000000
40
1.0000000000
10
6.4497381310
20
23.5050203886
30
0.0000000000
10
6.4381312786
20
23.5108238148
30
0.0000000000
10
6.4132125307
20
23.5213366487
30
0.0000000000
10
6.3731788148
20
23.5335174275
30
0.0000000000
10
6.3298589849
20
23.5424886736
30
0.0000000000
10
6.2843038236
20
23.5480288840
30
0.0000000000
10
6.2376140222
20
23.5500032810
30
0.0000000000
10
6.1909239816
20
23.5483627852
30
0.0000000000
10
6.1453680788
20
23.5431483387
30
0.0000000000
10
6.1020469876
20
23.5344867970
30
0.0000000000
10
6.0620114776
20
23.5225921066
30
0.0000000000
10
6.0370843677
20
23.5122543303
30
0.0000000000
10
6.0254740623
20
23.5065319051
30
0.0000000000
11
6.4497381310
21
23.5050203886
31
0.0000000000
11
6.4139422138
21
23.5203253326
31
0.0000000000
11
6.3738047433
21
23.5326789450
31
0.0000000000
11
6.3303128866
21
23.5417773154
31
0.0000000000
11
6.2845393072
21
23.5473960605
31
0.0000000000
11
6.2376075646
21
23.5493970791
31
0.0000000000
11
6.1906756070
21
23.5477306807
31
0.0000000000
11
6.1449015593
21
23.5424382397
31
0.0000000000
11
6.1014089650
21
23.5336497869
31
0.0000000000
11
6.0612707243
21
23.5215820565
31
0.0000000000
11
6.0254740623
21
23.5065319051
31
0.0000000000
0
SPLINE
5
376
100
AcDbEntity
8
0
100
AcDbSpline
62
7
6
CONTINUOUS
70
0
71
3
72
13
73
9
74
7
42
0.0000001000
43
0.0000001000
44
0.0000000001
12
-0.4312367598
22
0.4734665699
32
0.0000000000
13
-0.5730157043
23
0.2864360409
33
0.0000000000
40
0.0000000000
40
0.0000000000
40
0.0000000000
40
0.0000000000
40
0.2263325555
40
0.4392651718
40
0.6372076945
40
0.8197560175
40
0.9872792954
40
1.0000000000
40
1.0000000000
40
1.0000000000
40
1.0000000000
10
11.4723545186
20
21.2686607613
30
0.0000000000
10
11.4398202126
20
21.3043810608
30
0.0000000000
10
11.3744663332
20
21.3717396635
30
0.0000000000
10
11.2732754505
20
21.4627978566
30
0.0000000000
10
11.1733447599
20
21.5408305611
30
0.0000000000
10
11.0760340770
20
21.6059616020
30
0.0000000000
10
11.0084786713
20
21.6439971060
30
0.0000000000
10
10.9741079636
20
21.6613196413
30
0.0000000000
10
10.9716782425
20
21.6625341974
30
0.0000000000
11
11.4723545186
21
21.2686607613
31
0.0000000000
11
11.3713037539
21
21.3725767406
31
0.0000000000
11
11.2698363412
21
21.4636813018
31
0.0000000000
11
11.1698078573
21
21.5415525419
31
0.0000000000
11
11.0725436361
21
21.6064138519
31
0.0000000000
11
10.9789553612
21
21.6588667264
31
0.0000000000
11
10.9716782425
21
21.6625341974
31
0.0000000000
0
SPLINE
5
377
100
AcDbEntity
8
0
100
AcDbSpline
62
7
6
CONTINUOUS
70
0
71
3
72
13
73
9
74
7
42
0.0000001000
43
0.0000001000
44
0.0000000001
12
0.4109068760
22
0.2010615886
32
0.0000000000
13
0.4098481622
23
-0.2048837263
33
0.0000000000
40
0.0000000000
40
0.0000000000
40
0.0000000000
40
0.0000000000
40
0.2005143800
40
0.3892497752
40
0.5669911938
40
0.7362259433
40
0.8992258387
40
1.0000000000
40
1.0000000000
40
1.0000000000
40
1.0000000000
10
7.3044368609
20
23.2502838760
30
0.0000000000
10
7.3319011067
20
23.2637224559
30
0.0000000000
10
7.3867908741
20
23.2867838263
30
0.0000000000
10
7.4705231801
20
23.3094265756
30
0.0000000000
10
7.5520402943
20
23.3186756774
30
0.0000000000
10
7.6300916021
20
23.3142564598
30
0.0000000000
10
7.6945825584
20
23.2983105190
30
0.0000000000
10
7.7317246780
20
23.2825047892
30
0.0000000000
10
7.7454920463
20
23.2756224606
30
0.0000000000
11
7.3044368609
21
23.2502838760
31
0.0000000000
11
7.3891402168
21
23.2854870513
31
0.0000000000
11
7.4725829538
21
23.3076621410
31
0.0000000000
11
7.5534151091
21
23.3164615756
31
0.0000000000
11
7.6306913517
21
23.3117748576
31
0.0000000000
11
7.7030317134
21
23.2936926706
31
0.0000000000
11
7.7454920463
21
23.2756224606
31
0.0000000000
0
SPLINE
5
378
100
AcDbEntity
8
0
100
AcDbSpline
62
7
6
CONTINUOUS
70
0
71
3
72
15
73
11
74
9
42
0.0000001000
43
0.0000001000
44
0.0000000001
12
0.0000000000
22
0.6311300022
32
0.0000000000
13
-0.5654420458
23
0.2826653478
33
0.0000000000
40
0.0000000000
40
0.0000000000
40
0.0000000000
40
0.0000000000
40
0.1606293349
40
0.3126800366
40
0.4557227302
40
0.5905083928
40
0.7175351878
40
0.8389320932
40
0.9563750069
40
1.0000000000
40
1.0000000000
40
1.0000000000
40
1.0000000000
10
3.7627323625
20
24.8560798858
30
0.0000000000
10
3.7627323625
20
24.8898725499
30
0.0000000000
10
3.7595972819
20
24.9557138936
30
0.0000000000
10
3.7446660568
20
25.0506229422
30
0.0000000000
10
3.7197910272
20
25.1378347877
30
0.0000000000
10
3.6852737725
20
25.2160325255
30
0.0000000000
10
3.6414722396
20
25.2841471781
30
0.0000000000
10
3.5889748595
20
25.3410179245
30
0.0000000000
10
3.5408753624
20
25.3765450241
30
0.0000000000
10
3.5110738276
20
25.3928323796
30
0.0000000000
10
3.5028513592
20
25.3969428042
30
0.0000000000
11
3.7627323625
21
24.8560798858
31
0.0000000000
11
3.7576350235
21
24.9573296487
31
0.0000000000
11
3.7424043275
21
25.0520770448
31
0.0000000000
11
3.7172958141
21
25.1387936899
31
0.0000000000
11
3.6825969318
21
25.2164624026
31
0.0000000000
11
3.6389330264
21
25.2836989985
31
0.0000000000
11
3.5867540365
21
25.3398020539
31
0.0000000000
11
3.5270430654
21
25.3837182606
31
0.0000000000
11
3.5028513592
21
25.3969428042
31
0.0000000000
0
SPLINE
5
379
100
AcDbEntity
8
0
100
AcDbSpline
62
7
6
CONTINUOUS
70
0
71
3
72
10
73
6
74
4
42
0.0000001000
43
0.0000001000
44
0.0000000001
12
0.0556154923
22
0.0171628862
32
0.0000000000
13
0.0478528501
23
-0.0308246041
33
0.0000000000
40
0.0000000000
40
0.0000000000
40
0.0000000000
40
0.0000000000
40
0.4565615055
40
0.7960097470
40
1.0000000000
40
1.0000000000
40
1.0000000000
40
1.0000000000
10
0.2194654645
20
27.0028717278
30
0.0000000000
10
0.2279294288
20
27.0054836989
30
0.0000000000
10
0.2430352790
20
27.0097616274
30
0.0000000000
10
0.2616196511
20
27.0123781956
30
0.0000000000
10
0.2733059690
20
27.0122948315
30
0.0000000000
10
0.2765598074
20
27.0101988585
30
0.0000000000
11
0.2194654645
21
27.0028717278
31
0.0000000000
11
0.2451549261
21
27.0096688833
31
0.0000000000
11
0.2647561851
21
27.0121453148
31
0.0000000000
11
0.2765598074
21
27.0101988585
31
0.0000000000
0
SPLINE
5
37A
100
AcDbEntity
8
0
100
AcDbSpline
62
7
6
CONTINUOUS
70
0
71
3
72
8
73
4
74
2
42
0.0000001000
43
0.0000001000
44
0.0000000001
12
-0.0189936958
22
-0.0058614358
32
0.0000000000
13
-0.0178492873
23
-0.0089568130
33
0.0000000000
40
0.0000000000
40
0.0000000000
40
0.0000000000
40
0.0000000000
40
1.0000000000
40
1.0000000000
40
1.0000000000
40
1.0000000000
10
0.2194654645
20
27.0028717278
30
0.0000000000
10
0.2131342326
20
27.0009179159
30
0.0000000000
10
0.2069757497
20
26.9983835265
30
0.0000000000
10
0.2010259873
20
26.9953979222
30
0.0000000000
11
0.2194654645
21
27.0028717278
31
0.0000000000
11
0.2010259873
21
26.9953979222
31
0.0000000000
0
SPLINE
5
37B
100
AcDbEntity
8
0
100
AcDbSpline
62
7
6
CONTINUOUS
70
0
71
3
72
15
73
11
74
9
42
0.0000001000
43
0.0000001000
44
0.0000000001
12
0.7619365976
22
0.4349160100
32
0.0000000000
13
0.7317445571
23
0.4839929935
33
0.0000000000
40
0.0000000000
40
0.0000000000
40
0.0000000000
40
0.0000000000
40
0.1045853351
40
0.2166076899
40
0.3351402480
40
0.4599360516
40
0.5902559263
40
0.7249598041
40
0.8623492495
40
1.0000000000
40
1.0000000000
40
1.0000000000
40
1.0000000000
10
10.7253676297
20
-16.7383360030
30
0.0000000000
10
10.7519300945
20
-16.7231740575
30
0.0000000000
10
10.8068159145
20
-16.6915473763
30
0.0000000000
10
10.8913573707
20
-16.6419622974
30
0.0000000000
10
10.9805946331
20
-16.5887067199
30
0.0000000000
10
11.0739970534
20
-16.5319949383
30
0.0000000000
10
11.1709786634
20
-16.4720723032
30
0.0000000000
10
11.2705902180
20
-16.4094064667
30
0.0000000000
10
11.3714689487
20
-16.3447368026
30
0.0000000000
10
11.4387794561
20
-16.3007022706
30
0.0000000000
10
11.4723545186
20
-16.2784949376
30
0.0000000000
11
10.7253676297
21
-16.7383360030
31
0.0000000000
11
10.8048743397
21
-16.6925350727
31
0.0000000000
11
10.8896534867
21
-16.6428213012
31
0.0000000000
11
10.9789553612
21
-16.5895350420
31
0.0000000000
11
11.0725436361
21
-16.5327149203
31
0.0000000000
11
11.1698078573
21
-16.4726176461
31
0.0000000000
11
11.2698363412
21
-16.4096843469
31
0.0000000000
11
11.3713037539
21
-16.3446220658
31
0.0000000000
11
11.4723545186
21
-16.2784949376
31
0.0000000000
0
SPLINE
5
37C
100
AcDbEntity
8
0
100
AcDbSpline
62
7
6
CONTINUOUS
70
0
71
3
72
8
73
4
74
2
42
0.0000001000
43
0.0000001000
44
0.0000000001
12
-0.0496543828
22
-0.0283428911
32
0.0000000000
13
-0.0511446455
23
-0.0256282980
33
0.0000000000
40
0.0000000000
40
0.0000000000
40
0.0000000000
40
0.0000000000
40
1.0000000000
40
1.0000000000
40
1.0000000000
40
1.0000000000
10
10.7253676297
20
-16.7383360030
30
0.0000000000
10
10.7088161688
20
-16.7477836334
30
0.0000000000
10
10.6919948903
20
-16.7567707075
30
0.0000000000
10
10.6749466751
20
-16.7653134735
30
0.0000000000
11
10.7253676297
21
-16.7383360030
31
0.0000000000
11
10.6749466751
21
-16.7653134735
31
0.0000000000
0
SPLINE
5
37D
100
AcDbEntity
8
0
100
AcDbSpline
62
7
6
CONTINUOUS
70
0
71
3
72
14
73
10
74
8
42
0.0000001000
43
0.0000001000
44
0.0000000001
12
0.0000000000
22
0.2525400005
32
0.0000000000
13
0.1603202703
23
0.1951252490
33
0.0000000000
40
0.0000000000
40
0.0000000000
40
0.0000000000
40
0.0000000000
40
0.1318788968
40
0.2706570924
40
0.4139746772
40
0.5610771939
40
0.7087227910
40
0.8559736017
40
1.0000000000
40
1.0000000000
40
1.0000000000
40
1.0000000000
10
5.6365653326
20
17.5834588116
30
0.0000000000
10
5.6365653326
20
17.5945603771
30
0.0000000000
10
5.6379823390
20
17.6173597798
30
0.0000000000
10
5.6438899760
20
17.6517621875
30
0.0000000000
10
5.6535125773
20
17.6866457678
30
0.0000000000
10
5.6666191884
20
17.7211698339
30
0.0000000000
10
5.6829518180
20
17.7546583003
30
0.0000000000
10
5.7021165540
20
17.7863052443
30
0.0000000000
10
5.7167426682
20
17.8060406643
30
0.0000000000
10
5.7244394519
20
17.8154083932
30
0.0000000000
11
5.6365653326
21
17.5834588116
31
0.0000000000
11
5.6385268008
21
17.6167056981
31
0.0000000000
11
5.6443815776
21
17.6512602491
31
0.0000000000
11
5.6539581093
21
17.6861637432
31
0.0000000000
11
5.6671192330
21
17.7209035340
31
0.0000000000
11
5.6834625216
21
17.7544173217
31
0.0000000000
11
5.7027449724
21
17.7862141647
31
0.0000000000
11
5.7244394519
21
17.8154083932
31
0.0000000000
0
SPLINE
5
37E
100
AcDbEntity
8
0
100
AcDbSpline
62
7
6
CONTINUOUS
70
0
71
3
72
14
73
10
74
8
42
0.0000001000
43
0.0000001000
44
0.0000000001
12
0.0000000000
22
0.2525400005
32
0.0000000000
13
0.1603202703
23
0.1951252490
33
0.0000000000
40
0.0000000000
40
0.0000000000
40
0.0000000000
40
0.0000000000
40
0.1318788968
40
0.2706570924
40
0.4139746772
40
0.5610771939
40
0.7087227910
40
0.8559736017
40
1.0000000000
40
1.0000000000
40
1.0000000000
40
1.0000000000
10
-7.7277528318
20
24.2656178938
30
0.0000000000
10
-7.7277528318
20
24.2767194593
30
0.0000000000
10
-7.7263358254
20
24.2995188620
30
0.0000000000
10
-7.7204281885
20
24.3339212697
30
0.0000000000
10
-7.7108055871
20
24.3688048500
30
0.0000000000
10
-7.6976989761
20
24.4033289162
30
0.0000000000
10
-7.6813663464
20
24.4368173825
30
0.0000000000
10
-7.6622016105
20
24.4684643265
30
0.0000000000
10
-7.6475754962
20
24.4881997465
30
0.0000000000
10
-7.6398787125
20
24.4975674754
30
0.0000000000
11
-7.7277528318
21
24.2656178938
31
0.0000000000
11
-7.7257913636
21
24.2988647803
31
0.0000000000
11
-7.7199365869
21
24.3334193313
31
0.0000000000
11
-7.7103600552
21
24.3683228254
31
0.0000000000
11
-7.6971989315
21
24.4030626162
31
0.0000000000
11
-7.6808556428
21
24.4365764039
31
0.0000000000
11
-7.6615731920
21
24.4683732469
31
0.0000000000
11
-7.6398787125
21
24.4975674754
31
0.0000000000
0
SPLINE
5
37F
100
AcDbEntity
8
0
100
AcDbSpline
62
7
6
CONTINUOUS
70
0
71
3
72
14
73
10
74
8
42
0.0000001000
43
0.0000001000
44
0.0000000001
12
0.1603213519
22
0.1951265654
32
0.0000000000
13
0.0000000000
23
0.2525417043
33
0.0000000000
40
0.0000000000
40
0.0000000000
40
0.0000000000
40
0.0000000000
40
0.1440265224
40
0.2912774710
40
0.4389231742
40
0.5860257506
40
0.7293433004
40
0.8681213611
40
1.0000000000
40
1.0000000000
40
1.0000000000
40
1.0000000000
10
6.2516841676
20
18.4571161213
30
0.0000000000
10
6.2593810099
20
18.4664839215
30
0.0000000000
10
6.2740072289
20
18.4862194984
30
0.0000000000
10
6.2931720778
20
18.5178667030
30
0.0000000000
10
6.3095047713
20
18.5513554468
30
0.0000000000
10
6.3226113953
20
18.5858797886
30
0.0000000000
10
6.3322339341
20
18.6207636273
30
0.0000000000
10
6.3381415042
20
18.6551662578
30
0.0000000000
10
6.3395582869
20
18.6779657905
30
0.0000000000
10
6.3395582869
20
18.6890674093
30
0.0000000000
11
6.2516841676
21
18.4571161213
31
0.0000000000
11
6.2733788017
21
18.4863105798
31
0.0000000000
11
6.2926613675
21
18.5181076871
31
0.0000000000
11
6.3090047207
21
18.5516217531
31
0.0000000000
11
6.3221658539
21
18.5863618243
31
0.0000000000
11
6.3317423336
21
18.6212655768
31
0.0000000000
11
6.3375969957
21
18.6558203525
31
0.0000000000
11
6.3395582869
21
18.6890674093
31
0.0000000000
0
SPLINE
5
380
100
AcDbEntity
8
0
100
AcDbSpline
62
7
6
CONTINUOUS
70
0
71
3
72
13
73
9
74
7
42
0.0000001000
43
0.0000001000
44
0.0000000001
12
0.0000000000
22
0.1573187955
32
0.0000000000
13
-0.1410768327
23
0.0705989525
33
0.0000000000
40
0.0000000000
40
0.0000000000
40
0.0000000000
40
0.0000000000
40
0.2078817330
40
0.4013465439
40
0.5789246977
40
0.7443175029
40
0.8997170363
40
1.0000000000
40
1.0000000000
40
1.0000000000
40
1.0000000000
10
6.3395582869
20
19.0365989260
30
0.0000000000
10
6.3395582869
20
19.0475001606
30
0.0000000000
10
6.3382742979
20
19.0685816424
30
0.0000000000
10
6.3320441697
20
19.0984172382
30
0.0000000000
10
6.3216647879
20
19.1247332808
30
0.0000000000
10
6.3073213200
20
19.1468244868
30
0.0000000000
10
6.2911915068
20
19.1622282476
30
0.0000000000
10
6.2796759775
20
19.1692664041
30
0.0000000000
10
6.2749601098
20
19.1716263615
30
0.0000000000
11
6.3395582869
21
19.0365989260
31
0.0000000000
11
6.3374139026
21
19.0692322504
31
0.0000000000
11
6.3310069748
21
19.0989859078
31
0.0000000000
11
6.3205618088
21
19.1248961356
31
0.0000000000
11
6.3062214417
21
19.1466070289
31
0.0000000000
11
6.2884443516
21
19.1633892799
31
0.0000000000
11
6.2749601098
21
19.1716263615
31
0.0000000000
0
SPLINE
5
381
100
AcDbEntity
8
0
100
AcDbSpline
62
7
6
CONTINUOUS
70
0
71
3
72
12
73
8
74
6
42
0.0000001000
43
0.0000001000
44
0.0000000001
12
0.1037892104
22
0.0505590123
32
0.0000000000
13
0.1035245975
23
-0.0518042949
33
0.0000000000
40
0.0000000000
40
0.0000000000
40
0.0000000000
40
0.0000000000
40
0.2574797432
40
0.4962941496
40
0.7176884677
40
0.9297317834
40
1.0000000000
40
1.0000000000
40
1.0000000000
40
1.0000000000
10
4.4739589365
20
20.0101530322
30
0.0000000000
10
4.4828668096
20
20.0144923394
30
0.0000000000
10
4.5006975243
20
20.0216124996
30
0.0000000000
10
4.5279282257
20
20.0271481200
30
0.0000000000
10
4.5540153384
20
20.0269075430
30
0.0000000000
10
4.5730017078
20
20.0220914799
30
0.0000000000
10
4.5829506723
20
20.0176321705
30
0.0000000000
10
4.5853755019
20
20.0164187720
30
0.0000000000
11
4.4739589365
21
20.0101530322
31
0.0000000000
11
4.5016372296
21
20.0209941666
31
0.0000000000
11
4.5286961718
21
20.0262822689
31
0.0000000000
11
4.5542524372
21
20.0258634277
31
0.0000000000
11
4.5779551256
21
20.0197430021
31
0.0000000000
11
4.5853755019
21
20.0164187720
31
0.0000000000
0
SPLINE
5
382
100
AcDbEntity
8
0
100
AcDbSpline
62
7
6
CONTINUOUS
70
0
71
3
72
17
73
13
74
11
42
0.0000001000
43
0.0000001000
44
0.0000000001
12
0.0000000000
22
0.3666502398
32
0.0000000000
13
0.3262254999
23
0.1673598566
33
0.0000000000
40
0.0000000000
40
0.0000000000
40
0.0000000000
40
0.0000000000
40
0.0951010066
40
0.1954626647
40
0.2989499556
40
0.4051948209
40
0.5116959089
40
0.6171488294
40
0.7202917296
40
0.8188238537
40
0.9126130540
40
1.0000000000
40
1.0000000000
40
1.0000000000
40
1.0000000000
10
2.1820266721
20
18.6329334166
30
0.0000000000
10
2.1820266721
20
18.6445563523
30
0.0000000000
10
2.1835813301
20
18.6684625101
30
0.0000000000
10
2.1900395885
20
18.7044902488
30
0.0000000000
10
2.2005411896
20
18.7409712531
30
0.0000000000
10
2.2148138193
20
18.7769520175
30
0.0000000000
10
2.2325411308
20
18.8116311547
30
0.0000000000
10
2.2532815895
20
18.8441500840
30
0.0000000000
10
2.2765260787
20
18.8737051617
30
0.0000000000
10
2.3017599824
20
18.8996393554
30
0.0000000000
10
2.3283266609
20
18.9212783985
30
0.0000000000
10
2.3472498379
20
18.9329464461
30
0.0000000000
10
2.3567524546
20
18.9378214683
30
0.0000000000
11
2.1820266721
21
18.6329334166
31
0.0000000000
11
2.1841710564
21
18.6677362227
31
0.0000000000
11
2.1905779843
21
18.7039717930
31
0.0000000000
11
2.2010231503
21
18.7404494344
31
0.0000000000
11
2.2153635173
21
18.7766685309
31
0.0000000000
11
2.2331406075
21
18.8114359307
31
0.0000000000
11
2.2539593305
21
18.8440167816
31
0.0000000000
11
2.2773878178
21
18.8737027950
31
0.0000000000
11
2.3026484392
21
18.8995300796
31
0.0000000000
11
2.3293943538
21
18.9211444057
31
0.0000000000
11
2.3567524546
21
18.9378214683
31
0.0000000000
0
SPLINE
5
383
100
AcDbEntity
8
0
100
AcDbSpline
62
7
6
CONTINUOUS
70
0
71
3
72
14
73
10
74
8
42
0.0000001000
43
0.0000001000
44
0.0000000001
12
0.1603213519
22
0.1951265654
32
0.0000000000
13
-0.0000000000
23
0.2525417043
33
0.0000000000
40
0.0000000000
40
0.0000000000
40
0.0000000000
40
0.0000000000
40
0.1440265224
40
0.2912774710
40
0.4389231742
40
0.5860257506
40
0.7293433004
40
0.8681213611
40
1.0000000000
40
1.0000000000
40
1.0000000000
40
1.0000000000
10
-7.1126339968
20
25.1392752035
30
0.0000000000
10
-7.1049371545
20
25.1486430037
30
0.0000000000
10
-7.0903109355
20
25.1683785806
30
0.0000000000
10
-7.0711460866
20
25.2000257853
30
0.0000000000
10
-7.0548133931
20
25.2335145290
30
0.0000000000
10
-7.0417067691
20
25.2680388708
30
0.0000000000
10
-7.0320842303
20
25.3029227096
30
0.0000000000
10
-7.0261766602
20
25.3373253400
30
0.0000000000
10
-7.0247598775
20
25.3601248727
30
0.0000000000
10
-7.0247598775
20
25.3712264915
30
0.0000000000
11
-7.1126339968
21
25.1392752035
31
0.0000000000
11
-7.0909393628
21
25.1684696620
31
0.0000000000
11
-7.0716567969
21
25.2002667693
31
0.0000000000
11
-7.0553134437
21
25.2337808353
31
0.0000000000
11
-7.0421523105
21
25.2685209065
31
0.0000000000
11
-7.0325758308
21
25.3034246590
31
0.0000000000
11
-7.0267211688
21
25.3379794347
31
0.0000000000
11
-7.0247598775
21
25.3712264915
31
0.0000000000
0
SPLINE
5
384
100
AcDbEntity
8
0
100
AcDbSpline
62
7
6
CONTINUOUS
70
0
71
3
72
13
73
9
74
7
42
0.0000001000
43
0.0000001000
44
0.0000000001
12
0.0000000000
22
0.1573187955
32
0.0000000000
13
-0.1410768327
23
0.0705989525
33
0.0000000000
40
0.0000000000
40
0.0000000000
40
0.0000000000
40
0.0000000000
40
0.2078817330
40
0.4013465439
40
0.5789246977
40
0.7443175029
40
0.8997170363
40
1.0000000000
40
1.0000000000
40
1.0000000000
40
1.0000000000
10
-7.0247598775
20
25.7187580082
30
0.0000000000
10
-7.0247598775
20
25.7296592428
30
0.0000000000
10
-7.0260438665
20
25.7507407246
30
0.0000000000
10
-7.0322739947
20
25.7805763204
30
0.0000000000
10
-7.0426533765
20
25.8068923630
30
0.0000000000
10
-7.0569968444
20
25.8289835690
30
0.0000000000
10
-7.0731266576
20
25.8443873299
30
0.0000000000
10
-7.0846421870
20
25.8514254864
30
0.0000000000
10
-7.0893580546
20
25.8537854438
30
0.0000000000
11
-7.0247598775
21
25.7187580082
31
0.0000000000
11
-7.0269042618
21
25.7513913326
31
0.0000000000
11
-7.0333111897
21
25.7811449900
31
0.0000000000
11
-7.0437563557
21
25.8070552178
31
0.0000000000
11
-7.0580967227
21
25.8287661112
31
0.0000000000
11
-7.0758738129
21
25.8455483621
31
0.0000000000
11
-7.0893580546
21
25.8537854438
31
0.0000000000
0
SPLINE
5
385
100
AcDbEntity
8
0
100
AcDbSpline
62
7
6
CONTINUOUS
70
0
71
3
72
12
73
8
74
6
42
0.0000001000
43
0.0000001000
44
0.0000000001
12
0.1037892104
22
0.0505590123
32
0.0000000000
13
0.1035245975
23
-0.0518042949
33
0.0000000000
40
0.0000000000
40
0.0000000000
40
0.0000000000
40
0.0000000000
40
0.2574797432
40
0.4962941496
40
0.7176884677
40
0.9297317834
40
1.0000000000
40
1.0000000000
40
1.0000000000
40
1.0000000000
10
-8.8903592279
20
26.6923121145
30
0.0000000000
10
-8.8814513549
20
26.6966514216
30
0.0000000000
10
-8.8636206401
20
26.7037715818
30
0.0000000000
10
-8.8363899387
20
26.7093072022
30
0.0000000000
10
-8.8103028260
20
26.7090666252
30
0.0000000000
10
-8.7913164567
20
26.7042505621
30
0.0000000000
10
-8.7813674921
20
26.6997912527
30
0.0000000000
10
-8.7789426625
20
26.6985778542
30
0.0000000000
11
-8.8903592279
21
26.6923121145
31
0.0000000000
11
-8.8626809348
21
26.7031532488
31
0.0000000000
11
-8.8356219926
21
26.7084413511
31
0.0000000000
11
-8.8100657272
21
26.7080225099
31
0.0000000000
11
-8.7863630388
21
26.7019020844
31
0.0000000000
11
-8.7789426625
21
26.6985778542
31
0.0000000000
0
SPLINE
5
386
100
AcDbEntity
8
0
100
AcDbSpline
62
7
6
CONTINUOUS
70
0
71
3
72
17
73
13
74
11
42
0.0000001000
43
0.0000001000
44
0.0000000001
12
0.0000000000
22
0.3666502398
32
0.0000000000
13
0.3262254999
23
0.1673598566
33
0.0000000000
40
0.0000000000
40
0.0000000000
40
0.0000000000
40
0.0000000000
40
0.0951010066
40
0.1954626647
40
0.2989499556
40
0.4051948209
40
0.5116959089
40
0.6171488294
40
0.7202917296
40
0.8188238537
40
0.9126130540
40
1.0000000000
40
1.0000000000
40
1.0000000000
40
1.0000000000
10
-11.1822914923
20
25.3150924989
30
0.0000000000
10
-11.1822914923
20
25.3267154345
30
0.0000000000
10
-11.1807368344
20
25.3506215923
30
0.0000000000
10
-11.1742785759
20
25.3866493310
30
0.0000000000
10
-11.1637769748
20
25.4231303353
30
0.0000000000
10
-11.1495043451
20
25.4591110997
30
0.0000000000
10
-11.1317770337
20
25.4937902369
30
0.0000000000
10
-11.1110365749
20
25.5263091662
30
0.0000000000
10
-11.0877920858
20
25.5558642440
30
0.0000000000
10
-11.0625581820
20
25.5817984376
30
0.0000000000
10
-11.0359915035
20
25.6034374807
30
0.0000000000
10
-11.0170683265
20
25.6151055283
30
0.0000000000
10
-11.0075657098
20
25.6199805505
30
0.0000000000
11
-11.1822914923
21
25.3150924989
31
0.0000000000
11
-11.1801471080
21
25.3498953049
31
0.0000000000
11
-11.1737401802
21
25.3861308752
31
0.0000000000
11
-11.1632950142
21
25.4226085167
31
0.0000000000
11
-11.1489546471
21
25.4588276131
31
0.0000000000
11
-11.1311775570
21
25.4935950129
31
0.0000000000
11
-11.1103588339
21
25.5261758638
31
0.0000000000
11
-11.0869303466
21
25.5558618772
31
0.0000000000
11
-11.0616697252
21
25.5816891618
31
0.0000000000
11
-11.0349238106
21
25.6033034879
31
0.0000000000
11
-11.0075657098
21
25.6199805505
31
0.0000000000
0
SPLINE
5
387
100
AcDbEntity
8
0
100
AcDbSpline
62
7
6
CONTINUOUS
70
0
71
3
72
13
73
9
74
7
42
0.0000001000
43
0.0000001000
44
0.0000000001
12
0.0000000000
22
0.1573462303
32
0.0000000000
13
-0.1411200199
23
0.0705753522
33
0.0000000000
40
0.0000000000
40
0.0000000000
40
0.0000000000
40
0.0000000000
40
0.1990786305
40
0.3848094900
40
0.5562307156
40
0.7160338523
40
0.8658122188
40
1.0000000000
40
1.0000000000
40
1.0000000000
40
1.0000000000
10
6.3395582869
20
-22.6105367301
30
0.0000000000
10
6.3395582869
20
-22.6000953061
30
0.0000000000
10
6.3383783793
20
-22.5798821802
30
0.0000000000
10
6.3326738612
20
-22.5511662457
30
0.0000000000
10
6.3231718241
20
-22.5256277714
30
0.0000000000
10
6.3100343033
20
-22.5038894485
30
0.0000000000
10
6.2938478377
20
-22.4868779195
30
0.0000000000
10
6.2812695054
20
-22.4786613138
30
0.0000000000
10
6.2749573113
20
-22.4755045305
30
0.0000000000
11
6.3395582869
21
-22.6105367301
31
0.0000000000
11
6.3375969957
21
-22.5792739190
31
0.0000000000
11
6.3317423336
21
-22.5506423270
31
0.0000000000
11
6.3221658539
21
-22.5254271349
31
0.0000000000
11
6.3090047207
21
-22.5040022314
31
0.0000000000
11
6.2926613675
21
-22.4870227972
31
0.0000000000
11
6.2749573113
21
-22.4755045305
31
0.0000000000
0
SPLINE
5
388
100
AcDbEntity
8
0
100
AcDbSpline
62
7
6
CONTINUOUS
70
0
71
3
72
17
73
13
74
11
42
0.0000001000
43
0.0000001000
44
0.0000000001
12
0.3262254999
22
0.1673598566
32
0.0000000000
13
-0.0000000000
23
0.3666502398
33
0.0000000000
40
0.0000000000
40
0.0000000000
40
0.0000000000
40
0.0000000000
40
0.0873869460
40
0.1811761463
40
0.2797082704
40
0.3828511706
40
0.4883040911
40
0.5948051791
40
0.7010500444
40
0.8045373353
40
0.9048989934
40
1.0000000000
40
1.0000000000
40
1.0000000000
40
1.0000000000
10
6.1648325044
20
-23.2629562985
30
0.0000000000
10
6.1743351211
20
-23.2580812763
30
0.0000000000
10
6.1932582981
20
-23.2464132287
30
0.0000000000
10
6.2198249766
20
-23.2247741856
30
0.0000000000
10
6.2450588804
20
-23.1988399920
30
0.0000000000
10
6.2683033695
20
-23.1692849142
30
0.0000000000
10
6.2890438283
20
-23.1367659849
30
0.0000000000
10
6.3067711397
20
-23.1020868477
30
0.0000000000
10
6.3210437694
20
-23.0661060833
30
0.0000000000
10
6.3315453705
20
-23.0296250790
30
0.0000000000
10
6.3380036290
20
-22.9935973403
30
0.0000000000
10
6.3395582869
20
-22.9696911825
30
0.0000000000
10
6.3395582869
20
-22.9580682469
30
0.0000000000
11
6.1648325044
21
-23.2629562985
31
0.0000000000
11
6.1921906052
21
-23.2462792359
31
0.0000000000
11
6.2189365199
21
-23.2246649098
31
0.0000000000
11
6.2441971412
21
-23.1988376252
31
0.0000000000
11
6.2676256285
21
-23.1691516118
31
0.0000000000
11
6.2884443516
21
-23.1365707609
31
0.0000000000
11
6.3062214417
21
-23.1018033611
31
0.0000000000
11
6.3205618088
21
-23.0655842647
31
0.0000000000
11
6.3310069748
21
-23.0291066232
31
0.0000000000
11
6.3374139026
21
-22.9928710529
31
0.0000000000
11
6.3395582869
21
-22.9580682469
31
0.0000000000
0
SPLINE
5
389
100
AcDbEntity
8
0
100
AcDbSpline
62
7
6
CONTINUOUS
70
0
71
3
72
14
73
10
74
8
42
0.0000001000
43
0.0000001000
44
0.0000000001
12
0.0000000000
22
0.2525417043
32
0.0000000000
13
0.1603213519
23
0.1951265654
33
0.0000000000
40
0.0000000000
40
0.0000000000
40
0.0000000000
40
0.0000000000
40
0.1318786389
40
0.2706566996
40
0.4139742494
40
0.5610768258
40
0.7087225290
40
0.8559734776
40
1.0000000000
40
1.0000000000
40
1.0000000000
40
1.0000000000
10
2.1820266721
20
-23.0066446569
30
0.0000000000
10
2.1820266721
20
-22.9955430381
30
0.0000000000
10
2.1834434548
20
-22.9727435054
30
0.0000000000
10
2.1893510249
20
-22.9383408749
30
0.0000000000
10
2.1989735637
20
-22.9034570362
30
0.0000000000
10
2.2120801878
20
-22.8689326944
30
0.0000000000
10
2.2284128812
20
-22.8354439506
30
0.0000000000
10
2.2475777301
20
-22.8037967460
30
0.0000000000
10
2.2622039491
20
-22.7840611691
30
0.0000000000
10
2.2699007914
20
-22.7746933689
30
0.0000000000
11
2.1820266721
21
-23.0066446569
31
0.0000000000
11
2.1839879634
21
-22.9733976001
31
0.0000000000
11
2.1898426254
21
-22.9388428244
31
0.0000000000
11
2.1994191051
21
-22.9039390719
31
0.0000000000
11
2.2125802383
21
-22.8691990007
31
0.0000000000
11
2.2289235915
21
-22.8356849347
31
0.0000000000
11
2.2482061574
21
-22.8038878274
31
0.0000000000
11
2.2699007914
21
-22.7746933689
31
0.0000000000
0
SPLINE
5
38A
100
AcDbEntity
8
0
100
AcDbSpline
62
7
6
CONTINUOUS
70
0
71
3
72
9
73
5
74
3
42
0.0000001000
43
0.0000001000
44
0.0000000001
12
-0.0220849486
22
0.0110448753
32
0.0000000000
13
-0.0241207855
23
0.0049542358
33
0.0000000000
40
0.0000000000
40
0.0000000000
40
0.0000000000
40
0.0000000000
40
0.0711334077
40
1.0000000000
40
1.0000000000
40
1.0000000000
40
1.0000000000
10
6.2749573113
20
-22.4755045305
30
0.0000000000
10
6.2744336520
20
-22.4752426439
30
0.0000000000
10
6.2670363664
20
-22.4716312576
30
0.0000000000
10
6.2591524982
20
-22.4690219595
30
0.0000000000
10
6.2516841676
20
-22.4674880181
30
0.0000000000
11
6.2749573113
21
-22.4755045305
31
0.0000000000
11
6.2733788017
21
-22.4747339340
31
0.0000000000
11
6.2516841676
21
-22.4674880181
31
0.0000000000
0
SPLINE
5
38B
100
AcDbEntity
8
0
100
AcDbSpline
62
7
6
CONTINUOUS
70
0
71
3
72
12
73
8
74
6
42
0.0000001000
43
0.0000001000
44
0.0000000001
12
-0.1024460385
22
0.0512669789
32
0.0000000000
13
-0.1022335317
23
-0.0509823104
33
0.0000000000
40
0.0000000000
40
0.0000000000
40
0.0000000000
40
0.0000000000
40
0.0701707674
40
0.2818334567
40
0.5029641069
40
0.7418852029
40
1.0000000000
40
1.0000000000
40
1.0000000000
40
1.0000000000
10
-7.0893580546
20
25.8537854438
30
0.0000000000
10
-7.0917542936
20
25.8549845915
30
0.0000000000
10
-7.1015851888
20
25.8593855015
30
0.0000000000
10
-7.1203633753
20
25.8640948247
30
0.0000000000
10
-7.1461630131
20
25.8641806027
30
0.0000000000
10
-7.1730842406
20
25.8584807910
30
0.0000000000
10
-7.1906896643
20
25.8512617601
30
0.0000000000
10
-7.1994856600
20
25.8468753305
30
0.0000000000
11
-7.0893580546
21
25.8537854438
31
0.0000000000
11
-7.0966925359
21
25.8570668329
31
0.0000000000
11
-7.1201210232
21
25.8630501578
31
0.0000000000
11
-7.1453816446
21
25.8633211771
31
0.0000000000
11
-7.1721275592
21
25.8578765610
31
0.0000000000
11
-7.1994856600
21
25.8468753305
31
0.0000000000
0
SPLINE
5
38C
100
AcDbEntity
8
0
100
AcDbSpline
62
7
6
CONTINUOUS
70
0
71
3
72
12
73
8
74
6
42
0.0000001000
43
0.0000001000
44
0.0000000001
12
-0.1024460385
22
0.0512669789
32
0.0000000000
13
-0.1022335317
23
-0.0509823104
33
0.0000000000
40
0.0000000000
40
0.0000000000
40
0.0000000000
40
0.0000000000
40
0.0701707674
40
0.2818334567
40
0.5029641069
40
0.7418852029
40
1.0000000000
40
1.0000000000
40
1.0000000000
40
1.0000000000
10
6.2749601098
20
19.1716263615
30
0.0000000000
10
6.2725638708
20
19.1728255093
30
0.0000000000
10
6.2627329756
20
19.1772264193
30
0.0000000000
10
6.2439547891
20
19.1819357425
30
0.0000000000
10
6.2181551513
20
19.1820215205
30
0.0000000000
10
6.1912339238
20
19.1763217088
30
0.0000000000
10
6.1736285001
20
19.1691026779
30
0.0000000000
10
6.1648325044
20
19.1647162483
30
0.0000000000
11
6.2749601098
21
19.1716263615
31
0.0000000000
11
6.2676256285
21
19.1749077507
31
0.0000000000
11
6.2441971412
21
19.1808910756
31
0.0000000000
11
6.2189365199
21
19.1811620949
31
0.0000000000
11
6.1921906052
21
19.1757174788
31
0.0000000000
11
6.1648325044
21
19.1647162483
31
0.0000000000
0
SPLINE
5
38D
100
AcDbEntity
8
0
100
AcDbSpline
62
7
6
CONTINUOUS
70
0
71
3
72
8
73
4
74
2
42
0.0000001000
43
0.0000001000
44
0.0000000001
12
0.0002454748
22
0.0085435457
32
0.0000000000
13
-0.0053364816
23
0.0075239063
33
0.0000000000
40
0.0000000000
40
0.0000000000
40
0.0000000000
40
0.0000000000
40
1.0000000000
40
1.0000000000
40
1.0000000000
40
1.0000000000
10
11.4736808374
20
-16.2744417155
30
0.0000000000
10
11.4737626623
20
-16.2715938669
30
0.0000000000
10
11.4720232914
20
-16.2688693951
30
0.0000000000
10
11.4702444642
20
-16.2663614263
30
0.0000000000
11
11.4736808374
21
-16.2744417155
31
0.0000000000
11
11.4702444642
21
-16.2663614263
31
0.0000000000
0
SPLINE
5
38E
100
AcDbEntity
8
0
100
AcDbSpline
62
7
6
CONTINUOUS
70
0
71
3
72
11
73
7
74
5
42
0.0000001000
43
0.0000001000
44
0.0000000001
12
-0.0663186737
22
0.0935027089
32
0.0000000000
13
-0.0863886430
23
0.0648670732
33
0.0000000000
40
0.0000000000
40
0.0000000000
40
0.0000000000
40
0.0000000000
40
0.1581044998
40
0.3820090898
40
0.6646809553
40
1.0000000000
40
1.0000000000
40
1.0000000000
40
1.0000000000
10
11.4702444642
20
-16.2663614263
30
0.0000000000
10
11.4667493706
20
-16.2614336933
30
0.0000000000
10
11.4579365513
20
-16.2515468976
30
0.0000000000
10
11.4400634922
20
-16.2351439732
30
0.0000000000
10
11.4167854280
20
-16.2158953273
30
0.0000000000
10
11.3991219583
20
-16.2022986473
30
0.0000000000
10
11.3894660392
20
-16.1950482589
30
0.0000000000
11
11.4702444642
21
-16.2663614263
31
0.0000000000
11
11.4592045711
21
-16.2533286023
31
0.0000000000
11
11.4415685214
21
-16.2367737904
31
0.0000000000
11
11.4181205332
21
-16.2172104817
31
0.0000000000
11
11.3894660392
21
-16.1950482589
31
0.0000000000
0
SPLINE
5
38F
100
AcDbEntity
8
0
100
AcDbSpline
62
7
6
CONTINUOUS
70
0
71
3
72
11
73
7
74
5
42
0.0000001000
43
0.0000001000
44
0.0000000001
12
-0.1625542203
22
-0.0815700781
32
0.0000000000
13
-0.0905678769
23
-0.1567410448
33
0.0000000000
40
0.0000000000
40
0.0000000000
40
0.0000000000
40
0.0000000000
40
0.1162303016
40
0.3703269026
40
0.6635318032
40
1.0000000000
40
1.0000000000
40
1.0000000000
40
1.0000000000
10
0.2010259873
20
26.9953979222
30
0.0000000000
10
0.1947280786
20
26.9922376173
30
0.0000000000
10
0.1754071286
20
26.9805576145
30
0.0000000000
10
0.1458185816
20
26.9532249640
30
0.0000000000
10
0.1129410283
20
26.9110449727
30
0.0000000000
10
0.0928640095
20
26.8787286290
30
0.0000000000
10
0.0827062728
20
26.8611491700
30
0.0000000000
11
0.2010259873
21
26.9953979222
31
0.0000000000
11
0.1828765081
21
26.9845537383
31
0.0000000000
11
0.1484344356
21
26.9540650442
31
0.0000000000
11
0.1152763706
21
26.9126189830
31
0.0000000000
11
0.0827062728
21
26.8611491700
31
0.0000000000
0
SPLINE
5
390
100
AcDbEntity
8
0
100
AcDbSpline
62
7
6
CONTINUOUS
70
0
71
3
72
13
73
9
74
7
42
0.0000001000
43
0.0000001000
44
0.0000000001
12
-0.4098481622
22
0.2048837263
32
0.0000000000
13
-0.4109068760
23
-0.2010615886
33
0.0000000000
40
0.0000000000
40
0.0000000000
40
0.0000000000
40
0.0000000000
40
0.1007741613
40
0.2637740567
40
0.4330088062
40
0.6107502248
40
0.7994856200
40
1.0000000000
40
1.0000000000
40
1.0000000000
40
1.0000000000
10
3.5028513592
20
25.3969428042
30
0.0000000000
10
3.4890839909
20
25.4038251328
30
0.0000000000
10
3.4519418712
20
25.4196308626
30
0.0000000000
10
3.3874509150
20
25.4355768034
30
0.0000000000
10
3.3093996072
20
25.4399960210
30
0.0000000000
10
3.2278824930
20
25.4307469191
30
0.0000000000
10
3.1441501870
20
25.4081041699
30
0.0000000000
10
3.0892604196
20
25.3850427995
30
0.0000000000
10
3.0617961737
20
25.3716042196
30
0.0000000000
11
3.5028513592
21
25.3969428042
31
0.0000000000
11
3.4603910263
21
25.4150130142
31
0.0000000000
11
3.3880506646
21
25.4330952012
31
0.0000000000
11
3.3107744220
21
25.4377819192
31
0.0000000000
11
3.2299422667
21
25.4289824846
31
0.0000000000
11
3.1464995297
21
25.4068073948
31
0.0000000000
11
3.0617961737
21
25.3716042196
31
0.0000000000
0
SPLINE
5
391
100
AcDbEntity
8
0
100
AcDbSpline
62
7
6
CONTINUOUS
70
0
71
3
72
10
73
6
74
4
42
0.0000001000
43
0.0000001000
44
0.0000000001
12
-0.2344480368
22
0.1171946370
32
0.0000000000
13
-0.2568936911
23
0.0516051973
33
0.0000000000
40
0.0000000000
40
0.0000000000
40
0.0000000000
40
0.0000000000
40
0.3436557906
40
0.6870119842
40
1.0000000000
40
1.0000000000
40
1.0000000000
40
1.0000000000
10
10.9716782425
20
21.6625341974
30
0.0000000000
10
10.9448217673
20
21.6759590693
30
0.0000000000
10
10.8901525070
20
21.7008479229
30
0.0000000000
10
10.8078128623
20
21.7303153200
30
0.0000000000
10
10.7521691786
20
21.7445367091
30
0.0000000000
10
10.7253676297
20
21.7499206452
30
0.0000000000
11
10.9716782425
21
21.6625341974
31
0.0000000000
11
10.8896534867
21
21.6996966640
31
0.0000000000
11
10.8048743397
21
21.7298091765
31
0.0000000000
11
10.7253676297
21
21.7499206452
31
0.0000000000
0
SPLINE
5
392
100
AcDbEntity
8
0
100
AcDbSpline
62
7
6
CONTINUOUS
70
0
71
3
72
9
73
5
74
3
42
0.0000001000
43
0.0000001000
44
0.0000000001
12
0.0001767801
22
0.0054141286
32
0.0000000000
13
-0.0029429943
23
0.0049589549
33
0.0000000000
40
0.0000000000
40
0.0000000000
40
0.0000000000
40
0.0000000000
40
0.6316411435
40
1.0000000000
40
1.0000000000
40
1.0000000000
40
1.0000000000
10
11.4737342466
20
20.6604115546
30
0.0000000000
10
11.4737714671
20
20.6615514834
30
0.0000000000
10
11.4729455918
20
20.6635662611
30
0.0000000000
10
11.4720032643
20
20.6652966017
30
0.0000000000
10
11.4716419050
20
20.6659054933
30
0.0000000000
11
11.4737342466
21
20.6604115546
31
0.0000000000
11
11.4726816925
21
20.6639832343
31
0.0000000000
11
11.4716419050
21
20.6659054933
31
0.0000000000
0
SPLINE
5
393
100
AcDbEntity
8
0
100
AcDbSpline
62
7
6
CONTINUOUS
70
0
71
3
72
14
73
10
74
8
42
0.0000001000
43
0.0000001000
44
0.0000000001
12
-0.0566695584
22
0.0954883889
32
0.0000000000
13
-0.0880104637
23
0.0641532364
33
0.0000000000
40
0.0000000000
40
0.0000000000
40
0.0000000000
40
0.0000000000
40
0.0507979489
40
0.1496779943
40
0.2757326834
40
0.4265637239
40
0.5995479182
40
0.7917799682
40
1.0000000000
40
1.0000000000
40
1.0000000000
40
1.0000000000
10
11.4716419050
20
20.6659054933
30
0.0000000000
10
11.4706823392
20
20.6675223648
30
0.0000000000
10
11.4675589828
20
20.6716945019
30
0.0000000000
10
11.4606648804
20
20.6791914567
30
0.0000000000
10
11.4507512483
20
20.6884758767
30
0.0000000000
10
11.4383483734
20
20.6991416275
30
0.0000000000
10
11.4237674743
20
20.7108964299
30
0.0000000000
10
11.4072606187
20
20.7235872950
30
0.0000000000
10
11.3955745531
20
20.7322353527
30
0.0000000000
10
11.3894660392
20
20.7366880156
30
0.0000000000
11
11.4716419050
21
20.6659054933
31
0.0000000000
11
11.4684910216
21
20.6703424503
31
0.0000000000
11
11.4612843554
21
20.6783447482
31
0.0000000000
11
11.4513367658
21
20.6878063452
31
0.0000000000
11
11.4389110047
21
20.6985510719
31
0.0000000000
11
11.4242678239
21
20.7104049577
31
0.0000000000
11
11.4076842743
21
20.7231840439
31
0.0000000000
11
11.3894660392
21
20.7366880156
31
0.0000000000
0
SPLINE
5
394
100
AcDbEntity
8
0
100
AcDbSpline
62
7
6
CONTINUOUS
70
0
71
3
72
12
73
8
74
6
42
0.0000001000
43
0.0000001000
44
0.0000000001
12
-0.0001112880
22
-0.3027556084
32
0.0000000000
13
-0.1478565247
23
-0.2641316829
33
0.0000000000
40
0.0000000000
40
0.0000000000
40
0.0000000000
40
0.0000000000
40
0.1758487554
40
0.3770020419
40
0.5821736245
40
0.7902417506
40
1.0000000000
40
1.0000000000
40
1.0000000000
40
1.0000000000
10
11.4736643792
20
21.2366236754
30
0.0000000000
10
11.4736578559
20
21.2188772765
30
0.0000000000
10
11.4710293104
20
21.1807986920
30
0.0000000000
10
11.4601474182
20
21.1229621963
30
0.0000000000
10
11.4423827815
20
21.0634628698
30
0.0000000000
10
11.4188772710
20
21.0050787783
30
0.0000000000
10
11.3998040812
20
20.9674151029
30
0.0000000000
10
11.3894660392
20
20.9489471697
30
0.0000000000
11
11.4736643792
21
21.2366236754
31
0.0000000000
11
11.4702444642
21
21.1834905255
31
0.0000000000
11
11.4592045711
21
21.1236106836
31
0.0000000000
11
11.4415685214
21
21.0640619884
31
0.0000000000
11
11.4181205332
21
21.0056073583
31
0.0000000000
11
11.3894660392
21
20.9489471697
31
0.0000000000
0
SPLINE
5
395
100
AcDbEntity
8
0
100
AcDbSpline
62
7
6
CONTINUOUS
70
0
71
3
72
12
73
8
74
6
42
0.0000001000
43
0.0000001000
44
0.0000000001
12
-0.0000037860
22
-0.1438614601
32
0.0000000000
13
-0.1287763930
23
-0.0630118104
33
0.0000000000
40
0.0000000000
40
0.0000000000
40
0.0000000000
40
0.0000000000
40
0.1638187652
40
0.3390033906
40
0.5342164121
40
0.7541293018
40
1.0000000000
40
1.0000000000
40
1.0000000000
40
1.0000000000
10
1.1635945596
20
24.8540342538
30
0.0000000000
10
1.1635943529
20
24.8461785182
30
0.0000000000
10
1.1609056710
20
24.8299206447
30
0.0000000000
10
1.1492826681
20
24.8068290537
30
0.0000000000
10
1.1306948901
20
24.7853151823
30
0.0000000000
10
1.1057364962
20
24.7657137163
30
0.0000000000
10
1.0862807079
20
24.7547357105
30
0.0000000000
10
1.0757265940
20
24.7495714579
30
0.0000000000
11
1.1635945596
21
24.8540342538
31
0.0000000000
11
1.1599013074
21
24.8308403815
31
0.0000000000
11
1.1489121542
21
24.8082565607
31
0.0000000000
11
1.1308970087
21
24.7868387386
31
0.0000000000
11
1.1063001439
21
24.7671153306
31
0.0000000000
11
1.0757265940
21
24.7495714579
31
0.0000000000
0
SPLINE
5
396
100
AcDbEntity
8
0
100
AcDbSpline
62
7
6
CONTINUOUS
70
0
71
3
72
12
73
8
74
6
42
0.0000001000
43
0.0000001000
44
0.0000000001
12
-0.0000271067
22
-0.1424881500
32
0.0000000000
13
-0.1272561834
23
-0.0630046818
33
0.0000000000
40
0.0000000000
40
0.0000000000
40
0.0000000000
40
0.0000000000
40
0.1616494759
40
0.3374736946
40
0.5331965554
40
0.7535889118
40
1.0000000000
40
1.0000000000
40
1.0000000000
40
1.0000000000
10
6.7180580172
20
22.0768041612
30
0.0000000000
10
6.7180565566
20
22.0691264496
30
0.0000000000
10
6.7154712417
20
22.0530939685
30
0.0000000000
10
6.7041353886
20
22.0301882783
30
0.0000000000
10
6.6858050748
20
22.0087062932
30
0.0000000000
10
6.6611329427
20
21.9891114126
30
0.0000000000
10
6.6418730903
20
21.9781203862
30
0.0000000000
10
6.6314206454
20
21.9729453688
30
0.0000000000
11
6.7180580172
21
22.0768041612
31
0.0000000000
11
6.7145268323
21
22.0541195368
31
0.0000000000
11
6.7037508306
21
22.0315979392
31
0.0000000000
11
6.6859915188
21
22.0102197368
31
0.0000000000
11
6.6616836168
21
21.9905084621
31
0.0000000000
11
6.6314206454
21
21.9729453688
31
0.0000000000
0
SPLINE
5
397
100
AcDbEntity
8
0
100
AcDbSpline
62
7
6
CONTINUOUS
70
0
71
3
72
13
73
9
74
7
42
0.0000001000
43
0.0000001000
44
0.0000000001
12
-0.0000199727
22
-0.1454202046
32
0.0000000000
13
0.1296323661
23
-0.0648161831
33
0.0000000000
40
0.0000000000
40
0.0000000000
40
0.0000000000
40
0.0000000000
40
0.0030152475
40
0.1674532572
40
0.3429528197
40
0.5377595388
40
0.7563608844
40
1.0000000000
40
1.0000000000
40
1.0000000000
40
1.0000000000
10
-5.5853511315
20
23.2564457769
30
0.0000000000
10
-5.5853511516
20
23.2562996176
30
0.0000000000
10
-5.5853282720
20
23.2481826043
30
0.0000000000
10
-5.5825446857
20
23.2315745708
30
0.0000000000
10
-5.5708951087
20
23.2081649840
30
0.0000000000
10
-5.5523277757
20
23.1863196286
30
0.0000000000
10
-5.5274301824
20
23.1663925032
30
0.0000000000
10
-5.5080110405
20
23.1552026626
30
0.0000000000
10
-5.4974832022
20
23.1499387434
30
0.0000000000
11
-5.5853511315
21
23.2564457769
31
0.0000000000
11
-5.5853498944
21
23.2560073020
31
0.0000000000
11
-5.5815472020
21
23.2324800759
31
0.0000000000
11
-5.5705053417
21
23.2095660074
31
0.0000000000
11
-5.5524937193
21
23.1878234195
31
0.0000000000
11
-5.5279532485
21
23.1677845919
31
0.0000000000
11
-5.4974832022
21
23.1499387434
31
0.0000000000
0
SPLINE
5
398
100
AcDbEntity
8
0
100
AcDbSpline
62
7
6
CONTINUOUS
70
0
71
3
72
12
73
8
74
6
42
0.0000001000
43
0.0000001000
44
0.0000000001
12
-0.1462308253
22
0.0731154127
32
0.0000000000
13
-0.1459964177
23
-0.0745957438
33
0.0000000000
40
0.0000000000
40
0.0000000000
40
0.0000000000
40
0.0000000000
40
0.2553591691
40
0.4911746382
40
0.7106351586
40
0.9194242855
40
1.0000000000
40
1.0000000000
40
1.0000000000
40
1.0000000000
10
-11.2986420768
20
23.7635666090
30
0.0000000000
10
-11.3110892041
20
23.7697901727
30
0.0000000000
10
-11.3359747306
20
23.7800289683
30
0.0000000000
10
-11.3740759761
20
23.7881825662
30
0.0000000000
10
-11.4105766939
20
23.7881865748
30
0.0000000000
10
-11.4377905677
20
23.7814962623
30
0.0000000000
10
-11.4522306538
20
23.7750048247
30
0.0000000000
10
-11.4561519090
20
23.7730012896
30
0.0000000000
11
-11.2986420768
21
23.7635666090
31
0.0000000000
11
-11.3373566174
21
23.7791921606
31
0.0000000000
11
-11.3751177292
21
23.7869695216
31
0.0000000000
11
-11.4109965976
21
23.7867072148
31
0.0000000000
11
-11.4441084158
21
23.7784116761
31
0.0000000000
11
-11.4561519090
21
23.7730012896
31
0.0000000000
0
SPLINE
5
399
100
AcDbEntity
8
0
100
AcDbSpline
62
7
6
CONTINUOUS
70
0
71
3
72
17
73
13
74
11
42
0.0000001000
43
0.0000001000
44
0.0000000001
12
0.0000000000
22
0.5152490307
32
0.0000000000
13
-0.4608527432
23
0.2304263716
33
0.0000000000
40
0.0000000000
40
0.0000000000
40
0.0000000000
40
0.0000000000
40
0.0951726438
40
0.1952932407
40
0.2990931070
40
0.4050821278
40
0.5116639643
40
0.6171967785
40
0.7200955718
40
0.8189336013
40
0.9125145547
40
1.0000000000
40
1.0000000000
40
1.0000000000
40
1.0000000000
10
4.2223517703
20
15.6999492523
30
0.0000000000
10
4.2223517703
20
15.7162951231
30
0.0000000000
10
4.2201461964
20
15.7498616158
30
0.0000000000
10
4.2109813588
20
15.8005011114
30
0.0000000000
10
4.1960916114
20
15.8516988663
30
0.0000000000
10
4.1758383034
20
15.9022105223
30
0.0000000000
10
4.1507119717
20
15.9508180694
30
0.0000000000
10
4.1213202587
20
15.9963441799
30
0.0000000000
10
4.0883740453
20
16.0376875411
30
0.0000000000
10
4.0526596736
20
16.0738528353
30
0.0000000000
10
4.0150390269
20
16.1039625595
30
0.0000000000
10
3.9883036993
20
16.1200937210
30
0.0000000000
10
3.9748643969
20
16.1268133722
30
0.0000000000
11
4.2223517703
21
15.6999492523
31
0.0000000000
11
4.2193046833
21
15.7488921037
31
0.0000000000
11
4.2102385999
21
15.7996762437
31
0.0000000000
11
4.1953764859
21
15.8510525551
31
0.0000000000
11
4.1750851266
21
15.9017535777
31
0.0000000000
11
4.1498624702
21
15.9505347759
31
0.0000000000
11
4.1203307359
21
15.9961921003
31
0.0000000000
11
4.0872189176
21
16.0375994572
31
0.0000000000
11
4.0513400493
21
16.0737406323
31
0.0000000000
11
4.0135789375
21
16.1037243831
31
0.0000000000
11
3.9748643969
21
16.1268133722
31
0.0000000000
0
SPLINE
5
39A
100
AcDbEntity
8
0
100
AcDbSpline
62
7
6
CONTINUOUS
70
0
71
3
72
17
73
13
74
11
42
0.0000001000
43
0.0000001000
44
0.0000000001
12
0.0000000000
22
0.5152490286
32
0.0000000000
13
-0.4608527413
23
0.2304263707
33
0.0000000000
40
0.0000000000
40
0.0000000000
40
0.0000000000
40
0.0000000000
40
0.0951686493
40
0.1952865842
40
0.2990826087
40
0.4050717387
40
0.5116494140
40
0.6171798582
40
0.7200829815
40
0.8189239543
40
0.9125100339
40
1.0000000000
40
1.0000000000
40
1.0000000000
40
1.0000000000
10
5.9901187232
20
16.6027269518
30
0.0000000000
10
5.9901187232
20
16.6190721365
30
0.0000000000
10
5.9879133164
20
16.6526374830
30
0.0000000000
10
5.9787490970
20
16.7032752521
30
0.0000000000
10
5.9638600890
20
16.7544720692
30
0.0000000000
10
5.9436077670
20
16.8049826599
30
0.0000000000
10
5.9184824902
20
16.8535895001
30
0.0000000000
10
5.8890916468
20
16.8991157138
30
0.0000000000
10
5.8561455157
20
16.9404602272
30
0.0000000000
10
5.8204300985
20
16.9766274907
30
0.0000000000
10
5.7828080434
20
17.0067389383
30
0.0000000000
10
5.7560713467
20
17.0228710733
30
0.0000000000
10
5.7426313498
20
17.0295910717
30
0.0000000000
11
5.9901187232
21
16.6027269518
31
0.0000000000
11
5.9870718849
21
16.6516677563
31
0.0000000000
11
5.9780063363
21
16.7024505983
31
0.0000000000
11
5.9631452028
21
16.7538251325
31
0.0000000000
11
5.9428543099
21
16.8045264021
31
0.0000000000
11
5.9176331889
21
16.8533059802
31
0.0000000000
11
5.8881027881
21
16.8989627125
31
0.0000000000
11
5.8549901896
21
16.9403723019
31
0.0000000000
11
5.8191107077
21
16.9765150045
31
0.0000000000
11
5.7813478085
21
17.0065007515
31
0.0000000000
11
5.7426313498
21
17.0295910717
31
0.0000000000
0
SPLINE
5
39B
100
AcDbEntity
8
0
100
AcDbSpline
62
7
6
CONTINUOUS
70
0
71
3
72
13
73
9
74
7
42
0.0000001000
43
0.0000001000
44
0.0000000001
12
0.0000000000
22
-0.2196500159
32
0.0000000000
13
-0.1961404309
23
-0.1002301717
33
0.0000000000
40
0.0000000000
40
0.0000000000
40
0.0000000000
40
0.0000000000
40
0.2094012719
40
0.4037602127
40
0.5832359259
40
0.7496749212
40
0.9067994324
40
1.0000000000
40
1.0000000000
40
1.0000000000
40
1.0000000000
10
5.9901187232
20
-21.5889702713
30
0.0000000000
10
5.9901187232
20
-21.6043019356
30
0.0000000000
10
5.9882962471
20
-21.6339143630
30
0.0000000000
10
5.9794529467
20
-21.6758662504
30
0.0000000000
10
5.9647330631
20
-21.7128284025
30
0.0000000000
10
5.9443686715
20
-21.7438649647
30
0.0000000000
10
5.9219607629
20
-21.7650302507
30
0.0000000000
10
5.9062411540
20
-21.7746645407
30
0.0000000000
10
5.9001476875
20
-21.7777783770
30
0.0000000000
11
5.9901187232
21
-21.5889702713
31
0.0000000000
11
5.9870718849
21
-21.6348642375
31
0.0000000000
11
5.9780063363
21
-21.6765815308
31
0.0000000000
11
5.9631452028
21
-21.7130949316
31
0.0000000000
11
5.9428543099
21
-21.7435053083
31
0.0000000000
11
5.9176331889
21
-21.7670637655
31
0.0000000000
11
5.9001476875
21
-21.7777783770
31
0.0000000000
0
SPLINE
5
39C
100
AcDbEntity
8
0
100
AcDbSpline
62
7
6
CONTINUOUS
70
0
71
3
72
17
73
13
74
11
42
0.0000001000
43
0.0000001000
44
0.0000000001
12
0.3895861697
22
-0.1947930849
32
0.0000000000
13
0.3893834854
23
0.1951979274
33
0.0000000000
40
0.0000000000
40
0.0000000000
40
0.0000000000
40
0.0000000000
40
0.0890005659
40
0.1849499553
40
0.2864563904
40
0.3918366128
40
0.4992385642
40
0.6067076896
40
0.7122861312
40
0.8141130460
40
0.9104892925
40
1.0000000000
40
1.0000000000
40
1.0000000000
40
1.0000000000
10
0.2950258658
20
20.2536842094
30
0.0000000000
10
0.3065836624
20
20.2479053111
30
0.0000000000
10
0.3313978003
20
20.2374561959
30
0.0000000000
10
0.3712695590
20
20.2254115987
30
0.0000000000
10
0.4144102505
20
20.2166217208
30
0.0000000000
10
0.4597812679
20
20.2113017670
30
0.0000000000
10
0.5062948391
20
20.2095799916
30
0.0000000000
10
0.5528294036
20
20.2114990176
30
0.0000000000
10
0.5982628441
20
20.2170116020
30
0.0000000000
10
0.6415054190
20
20.2259848801
30
0.0000000000
10
0.6815156841
20
20.2381992207
30
0.0000000000
10
0.7064342203
20
20.2487475622
30
0.0000000000
10
0.7180522174
20
20.2545716637
30
0.0000000000
11
0.2950258658
21
20.2536842094
31
0.0000000000
11
0.3306806199
21
20.2384676577
31
0.0000000000
11
0.3706483504
21
20.2262523847
31
0.0000000000
11
0.4139533021
21
20.2173366855
31
0.0000000000
11
0.4595353281
21
20.2119388108
31
0.0000000000
11
0.5062837766
21
20.2101904666
31
0.0000000000
11
0.5530537687
21
20.2121347852
31
0.0000000000
11
0.5986997262
21
20.2177238940
31
0.0000000000
11
0.6421094643
21
20.2268214891
31
0.0000000000
11
0.6822200556
21
20.2392048712
31
0.0000000000
11
0.7180522174
21
20.2545716637
31
0.0000000000
0
SPLINE
5
39D
100
AcDbEntity
8
0
100
AcDbSpline
62
7
6
CONTINUOUS
70
0
71
3
72
17
73
13
74
11
42
0.0000001000
43
0.0000001000
44
0.0000000001
12
-0.3889091088
22
-0.1963377245
32
0.0000000000
13
-0.3896652892
23
0.1948326446
33
0.0000000000
40
0.0000000000
40
0.0000000000
40
0.0000000000
40
0.0000000000
40
0.0896005383
40
0.1860363505
40
0.2878952112
40
0.3934811365
40
0.5009374680
40
0.6083108940
40
0.7136525634
40
0.8151165594
40
0.9110269511
40
1.0000000000
40
1.0000000000
40
1.0000000000
40
1.0000000000
10
0.7180522174
20
19.0403681909
30
0.0000000000
10
0.7064367289
20
19.0345042023
30
0.0000000000
10
0.6815225153
20
19.0238756192
30
0.0000000000
10
0.6415107951
20
19.0115462180
30
0.0000000000
10
0.5982668004
20
19.0024639925
30
0.0000000000
10
0.5528320643
20
18.9968511182
30
0.0000000000
10
0.5062963983
20
18.9948427847
30
0.0000000000
10
0.4597818737
20
18.9964883302
30
0.0000000000
10
0.4144100013
20
19.0017469348
30
0.0000000000
10
0.3712683847
20
19.0104918537
30
0.0000000000
10
0.3313955520
20
19.0225090174
30
0.0000000000
10
0.3065824355
20
19.0329510585
30
0.0000000000
10
0.2950258658
20
19.0387293433
30
0.0000000000
11
0.7180522174
21
19.0403681909
31
0.0000000000
11
0.6822195888
21
19.0248834841
31
0.0000000000
11
0.6421085173
21
19.0123852721
31
0.0000000000
11
0.5986983214
21
19.0031787207
31
0.0000000000
11
0.5530520746
21
18.9974891941
31
0.0000000000
11
0.5062819513
21
18.9954554044
31
0.0000000000
11
0.4595336378
21
18.9971273798
31
0.0000000000
11
0.4139519038
21
19.0024638192
31
0.0000000000
11
0.3706474101
21
19.0113344748
31
0.0000000000
11
0.3306801578
21
19.0235221951
31
0.0000000000
11
0.2950258658
21
19.0387293433
31
0.0000000000
0
SPLINE
5
39E
100
AcDbEntity
8
0
100
AcDbSpline
62
7
6
CONTINUOUS
70
0
71
3
72
13
73
9
74
7
42
0.0000001000
43
0.0000001000
44
0.0000000001
12
-0.1298016753
22
0.0649008377
32
0.0000000000
13
0.0000186465
23
0.1456076944
33
0.0000000000
40
0.0000000000
40
0.0000000000
40
0.0000000000
40
0.0000000000
40
0.2433506852
40
0.4617848989
40
0.6565755890
40
0.8322279170
40
0.9969716939
40
1.0000000000
40
1.0000000000
40
1.0000000000
40
1.0000000000
10
-5.4974832022
20
21.9349838773
30
0.0000000000
10
-5.5080123111
20
21.9402484318
30
0.0000000000
10
-5.5274356470
20
21.9514464334
30
0.0000000000
10
-5.5523347487
20
21.9714028996
30
0.0000000000
10
-5.5709020591
20
21.9932963139
30
0.0000000000
10
-5.5825482862
20
22.0167694750
30
0.0000000000
10
-5.5853281660
20
22.0334223280
30
0.0000000000
10
-5.5853511539
20
22.0415652847
30
0.0000000000
10
-5.5853511351
20
22.0417122663
30
0.0000000000
11
-5.4974832022
21
21.9349838773
31
0.0000000000
11
-5.5279529123
21
21.9528387302
31
0.0000000000
11
-5.5524932388
21
21.9729047993
31
0.0000000000
11
-5.5705048847
21
21.9946922134
31
0.0000000000
11
-5.5815469302
21
22.0176676638
31
0.0000000000
11
-5.5853498890
21
22.0412713245
31
0.0000000000
11
-5.5853511351
21
22.0417122663
31
0.0000000000
0
SPLINE
5
39F
100
AcDbEntity
8
0
100
AcDbSpline
62
7
6
CONTINUOUS
70
0
71
3
72
12
73
8
74
6
42
0.0000001000
43
0.0000001000
44
0.0000000001
12
0.1274265362
22
0.0635456794
32
0.0000000000
13
0.0000255395
23
0.1428803290
33
0.0000000000
40
0.0000000000
40
0.0000000000
40
0.0000000000
40
0.0000000000
40
0.2461437340
40
0.4664340245
40
0.6622044411
40
0.8381796843
40
1.0000000000
40
1.0000000000
40
1.0000000000
40
1.0000000000
10
6.6314206454
20
23.2047839472
30
0.0000000000
10
6.6418757265
20
23.2099977375
30
0.0000000000
10
6.6611412205
20
23.2210672278
30
0.0000000000
10
6.6858122959
20
23.2407784664
30
0.0000000000
10
6.7041395680
20
23.2623705284
30
0.0000000000
10
6.7154712557
20
23.2853742996
30
0.0000000000
10
6.7180566440
20
23.3014657887
30
0.0000000000
10
6.7180580216
20
23.3091727687
30
0.0000000000
11
6.6314206454
21
23.2047839472
31
0.0000000000
11
6.6616832813
21
23.2224645536
31
0.0000000000
11
6.6859910418
21
23.2422903473
31
0.0000000000
11
6.7037503805
21
23.2637772907
31
0.0000000000
11
6.7145265700
21
23.2863992554
31
0.0000000000
11
6.7180580216
21
23.3091727687
31
0.0000000000
0
SPLINE
5
3A0
100
AcDbEntity
8
0
100
AcDbSpline
62
7
6
CONTINUOUS
70
0
71
3
72
12
73
8
74
6
42
0.0000001000
43
0.0000001000
44
0.0000000001
12
0.1289494975
22
0.0635559375
32
0.0000000000
13
0.0000024649
23
0.1442557351
33
0.0000000000
40
0.0000000000
40
0.0000000000
40
0.0000000000
40
0.0000000000
40
0.2456022684
40
0.4654114574
40
0.6606705777
40
0.8360059861
40
1.0000000000
40
1.0000000000
40
1.0000000000
40
1.0000000000
10
1.0757265940
20
25.9814056393
30
0.0000000000
10
1.0862833570
20
25.9866088001
30
0.0000000000
10
1.1057448392
20
25.9976655656
30
0.0000000000
10
1.1307022187
20
26.0173839659
30
0.0000000000
10
1.1492869874
20
26.0390085787
30
0.0000000000
10
1.1609057467
20
26.0621995227
30
0.0000000000
10
1.1635944249
20
26.0785171635
30
0.0000000000
10
1.1635945596
20
26.0864028559
30
0.0000000000
11
1.0757265940
21
25.9814056393
31
0.0000000000
11
1.1062998057
21
25.9990675158
31
0.0000000000
11
1.1308965262
21
26.0189060063
31
0.0000000000
11
1.1489116968
21
26.0404331710
31
0.0000000000
11
1.1599010380
21
26.0631179652
31
0.0000000000
11
1.1635945596
21
26.0864028559
31
0.0000000000
0
SPLINE
5
3A1
100
AcDbEntity
8
0
100
AcDbSpline
62
7
6
CONTINUOUS
70
0
71
3
72
13
73
9
74
7
42
0.0000001000
43
0.0000001000
44
0.0000000001
12
0.1998406808
22
0.0978572385
32
0.0000000000
13
0.0000000000
23
0.2218990679
33
0.0000000000
40
0.0000000000
40
0.0000000000
40
0.0000000000
40
0.0000000000
40
0.1023705749
40
0.2579078719
40
0.4226584216
40
0.6003200547
40
0.7927129486
40
1.0000000000
40
1.0000000000
40
1.0000000000
40
1.0000000000
10
4.1303637628
20
-22.6437767228
30
0.0000000000
10
4.1371830313
20
-22.6404374889
30
0.0000000000
10
4.1536410470
20
-22.6305411004
30
0.0000000000
10
4.1765992022
20
-22.6088573206
30
0.0000000000
10
4.1969646230
20
-22.5778206456
30
0.0000000000
10
4.2116852674
20
-22.5408581795
30
0.0000000000
10
4.2205291680
20
-22.4989051175
30
0.0000000000
10
4.2223517703
20
-22.4692917926
30
0.0000000000
10
4.2223517703
20
-22.4539595248
30
0.0000000000
11
4.1303637628
21
-22.6437767228
31
0.0000000000
11
4.1498624702
21
-22.6320557483
31
0.0000000000
11
4.1750851266
21
-22.6084972065
31
0.0000000000
11
4.1953764859
21
-22.5780875433
31
0.0000000000
11
4.2102385999
21
-22.5415733458
31
0.0000000000
11
4.2193046833
21
-22.4998552892
31
0.0000000000
11
4.2223517703
21
-22.4539595248
31
0.0000000000
0
SPLINE
5
3A2
100
AcDbEntity
8
0
100
AcDbSpline
62
7
6
CONTINUOUS
70
0
71
3
72
11
73
7
74
5
42
0.0000001000
43
0.0000001000
44
0.0000000001
12
-0.4351467956
22
0.0874129533
32
0.0000000000
13
-0.4398144642
23
-0.0596405499
33
0.0000000000
40
0.0000000000
40
0.0000000000
40
0.0000000000
40
0.0000000000
40
0.2406426210
40
0.4887663275
40
0.7423989614
40
1.0000000000
40
1.0000000000
40
1.0000000000
40
1.0000000000
10
10.7253676297
20
21.7499206452
30
0.0000000000
10
10.6904626746
20
21.7569324060
30
0.0000000000
10
10.6188474931
20
21.7677514156
30
0.0000000000
10
10.5091239560
20
21.7748470143
30
0.0000000000
10
10.3966794513
20
21.7730453648
30
0.0000000000
10
10.3212923161
20
21.7658600814
30
0.0000000000
10
10.2835267618
20
21.7607389255
30
0.0000000000
11
10.7253676297
21
21.7499206452
31
0.0000000000
11
10.6197927448
21
21.7660956200
31
0.0000000000
11
10.5099034799
21
21.7733305220
31
0.0000000000
11
10.3973447622
21
21.7715847872
31
0.0000000000
11
10.2835267618
21
21.7607389255
31
0.0000000000
0
SPLINE
5
3A3
100
AcDbEntity
8
0
100
AcDbSpline
62
7
6
CONTINUOUS
70
0
71
3
72
9
73
5
74
3
42
0.0000001000
43
0.0000001000
44
0.0000000001
12
-0.0241207860
22
0.0049542359
32
0.0000000000
13
-0.0220849478
23
0.0110448753
33
0.0000000000
40
0.0000000000
40
0.0000000000
40
0.0000000000
40
0.0000000000
40
0.9288596728
40
1.0000000000
40
1.0000000000
40
1.0000000000
40
1.0000000000
10
5.7244394519
20
-22.3591957462
30
0.0000000000
10
5.7169711768
20
-22.3576618162
30
0.0000000000
10
5.7090873076
20
-22.3550525255
30
0.0000000000
10
5.7016900188
20
-22.3514411459
30
0.0000000000
10
5.7011663086
20
-22.3511792339
30
0.0000000000
11
5.7244394519
21
-22.3591957462
31
0.0000000000
11
5.7027449724
21
-22.3519499039
31
0.0000000000
11
5.7011663086
21
-22.3511792339
31
0.0000000000
0
SPLINE
5
3A4
100
AcDbEntity
8
0
100
AcDbSpline
62
7
6
CONTINUOUS
70
0
71
3
72
17
73
13
74
11
42
0.0000001000
43
0.0000001000
44
0.0000000001
12
-0.3281832376
22
-0.1645182454
32
0.0000000000
13
0.0000000000
23
-0.3671110057
33
0.0000000000
40
0.0000000000
40
0.0000000000
40
0.0000000000
40
0.0000000000
40
0.0877988990
40
0.1818695997
40
0.2805570128
40
0.3837432653
40
0.4891441471
40
0.5955191608
40
0.7015876633
40
0.8048773159
40
0.9050482431
40
1.0000000000
40
1.0000000000
40
1.0000000000
40
1.0000000000
10
4.0352845418
20
18.0985554247
30
0.0000000000
10
4.0256798328
20
18.0937405845
30
0.0000000000
10
4.0065493869
20
18.0821952098
30
0.0000000000
10
3.9796670083
20
18.0607120552
30
0.0000000000
10
3.9541333265
20
18.0349246392
30
0.0000000000
10
3.9306128036
20
18.0055037777
30
0.0000000000
10
3.9096261493
20
17.9731036351
30
0.0000000000
10
3.8916885036
20
17.9385250881
30
0.0000000000
10
3.8772465173
20
17.9026239736
30
0.0000000000
10
3.8666203753
20
17.8661997156
30
0.0000000000
10
3.8600857765
20
17.8302041952
30
0.0000000000
10
3.8585138124
20
17.8063091248
30
0.0000000000
10
3.8585138124
20
17.7946898465
30
0.0000000000
11
4.0352845418
21
18.0985554247
31
0.0000000000
11
4.0076062486
21
18.0820384583
31
0.0000000000
11
3.9805473065
21
18.0605806460
31
0.0000000000
11
3.9549910411
21
18.0349011833
31
0.0000000000
11
3.9312883527
21
18.0053522705
31
0.0000000000
11
3.9102259725
21
17.9728932482
31
0.0000000000
11
3.8922408237
21
17.9382298777
31
0.0000000000
11
3.8777326206
21
17.9020946993
31
0.0000000000
11
3.8671652070
21
17.8656781817
31
0.0000000000
11
3.8606832941
21
17.8294801039
31
0.0000000000
11
3.8585138124
21
17.7946898465
31
0.0000000000
0
SPLINE
5
3A5
100
AcDbEntity
8
0
100
AcDbSpline
62
7
6
CONTINUOUS
70
0
71
3
72
13
73
9
74
7
42
0.0000001000
43
0.0000001000
44
0.0000000001
12
0.0000000000
22
-0.1580771600
32
0.0000000000
13
0.1417682681
23
-0.0708992473
33
0.0000000000
40
0.0000000000
40
0.0000000000
40
0.0000000000
40
0.0000000000
40
0.1982397194
40
0.3834113548
40
0.5546239440
40
0.7146143823
40
0.8649759067
40
1.0000000000
40
1.0000000000
40
1.0000000000
40
1.0000000000
10
3.8585138124
20
17.4547159124
30
0.0000000000
10
3.8585138124
20
17.4442701884
30
0.0000000000
10
3.8597095497
20
17.4240363406
30
0.0000000000
10
3.8654853808
20
17.3952807171
30
0.0000000000
10
3.8751054837
20
17.3696824586
30
0.0000000000
10
3.8884040070
20
17.3478686909
30
0.0000000000
10
3.9047804855
20
17.3307726878
30
0.0000000000
10
3.9174901570
20
17.3224967150
30
0.0000000000
10
3.9238708676
20
17.3193056794
30
0.0000000000
11
3.8585138124
21
17.4547159124
31
0.0000000000
11
3.8604980581
21
17.4234416241
31
0.0000000000
11
3.8664212417
21
17.3947757712
31
0.0000000000
11
3.8761098021
21
17.3695045388
31
0.0000000000
11
3.8894249699
21
17.3480026180
31
0.0000000000
11
3.9059596016
21
17.3309275445
31
0.0000000000
11
3.9238708676
21
17.3193056794
31
0.0000000000
0
SPLINE
5
3A6
100
AcDbEntity
8
0
100
AcDbSpline
62
7
6
CONTINUOUS
70
0
71
3
72
17
73
13
74
11
42
0.0000001000
43
0.0000001000
44
0.0000000001
12
-0.3281832376
22
-0.1645182454
32
0.0000000000
13
0.0000000000
23
-0.3671110057
33
0.0000000000
40
0.0000000000
40
0.0000000000
40
0.0000000000
40
0.0000000000
40
0.0877988990
40
0.1818695997
40
0.2805570128
40
0.3837432653
40
0.4891441471
40
0.5955191608
40
0.7015876633
40
0.8048773159
40
0.9050482431
40
1.0000000000
40
1.0000000000
40
1.0000000000
40
1.0000000000
10
-9.3290336226
20
24.7807145070
30
0.0000000000
10
-9.3386383316
20
24.7758996667
30
0.0000000000
10
-9.3577687776
20
24.7643542920
30
0.0000000000
10
-9.3846511561
20
24.7428711374
30
0.0000000000
10
-9.4101848379
20
24.7170837214
30
0.0000000000
10
-9.4337053609
20
24.6876628599
30
0.0000000000
10
-9.4546920152
20
24.6552627173
30
0.0000000000
10
-9.4726296608
20
24.6206841703
30
0.0000000000
10
-9.4870716471
20
24.5847830558
30
0.0000000000
10
-9.4976977891
20
24.5483587978
30
0.0000000000
10
-9.5042323880
20
24.5123632774
30
0.0000000000
10
-9.5058043520
20
24.4884682070
30
0.0000000000
10
-9.5058043520
20
24.4768489287
30
0.0000000000
11
-9.3290336226
21
24.7807145070
31
0.0000000000
11
-9.3567119158
21
24.7641975405
31
0.0000000000
11
-9.3837708579
21
24.7427397282
31
0.0000000000
11
-9.4093271233
21
24.7170602655
31
0.0000000000
11
-9.4330298118
21
24.6875113527
31
0.0000000000
11
-9.4540921919
21
24.6550523304
31
0.0000000000
11
-9.4720773407
21
24.6203889599
31
0.0000000000
11
-9.4865855438
21
24.5842537815
31
0.0000000000
11
-9.4971529574
21
24.5478372639
31
0.0000000000
11
-9.5036348704
21
24.5116391861
31
0.0000000000
11
-9.5058043520
21
24.4768489287
31
0.0000000000
0
SPLINE
5
3A7
100
AcDbEntity
8
0
100
AcDbSpline
62
7
6
CONTINUOUS
70
0
71
3
72
13
73
9
74
7
42
0.0000001000
43
0.0000001000
44
0.0000000001
12
0.0000000000
22
-0.1580771600
32
0.0000000000
13
0.1417682681
23
-0.0708992473
33
0.0000000000
40
0.0000000000
40
0.0000000000
40
0.0000000000
40
0.0000000000
40
0.1982397194
40
0.3834113548
40
0.5546239440
40
0.7146143823
40
0.8649759067
40
1.0000000000
40
1.0000000000
40
1.0000000000
40
1.0000000000
10
-9.5058043520
20
24.1368749946
30
0.0000000000
10
-9.5058043520
20
24.1264292706
30
0.0000000000
10
-9.5046086147
20
24.1061954228
30
0.0000000000
10
-9.4988327836
20
24.0774397993
30
0.0000000000
10
-9.4892126807
20
24.0518415408
30
0.0000000000
10
-9.4759141575
20
24.0300277731
30
0.0000000000
10
-9.4595376789
20
24.0129317700
30
0.0000000000
10
-9.4468280074
20
24.0046557972
30
0.0000000000
10
-9.4404472968
20
24.0014647616
30
0.0000000000
11
-9.5058043520
21
24.1368749946
31
0.0000000000
11
-9.5038201063
21
24.1056007063
31
0.0000000000
11
-9.4978969227
21
24.0769348535
31
0.0000000000
11
-9.4882083623
21
24.0516636210
31
0.0000000000
11
-9.4748931945
21
24.0301617002
31
0.0000000000
11
-9.4583585628
21
24.0130866268
31
0.0000000000
11
-9.4404472968
21
24.0014647616
31
0.0000000000
0
SPLINE
5
3A8
100
AcDbEntity
8
0
100
AcDbSpline
62
7
6
CONTINUOUS
70
0
71
3
72
13
73
9
74
7
42
0.0000001000
43
0.0000001000
44
0.0000000001
12
0.0000000000
22
-0.1580496594
32
0.0000000000
13
0.1417254613
23
-0.0709202235
33
0.0000000000
40
0.0000000000
40
0.0000000000
40
0.0000000000
40
0.0000000000
40
0.2070101272
40
0.3999125266
40
0.5773183208
40
0.7429756756
40
0.8990662596
40
1.0000000000
40
1.0000000000
40
1.0000000000
40
1.0000000000
10
3.8585138124
20
-24.1848621611
30
0.0000000000
10
3.8585138124
20
-24.1957681212
30
0.0000000000
10
3.8598151714
20
-24.2168725659
30
0.0000000000
10
3.8661236099
20
-24.2467517514
30
0.0000000000
10
3.8766325334
20
-24.2731327911
30
0.0000000000
10
3.8911518076
20
-24.2953049985
30
0.0000000000
10
3.9074644889
20
-24.3107867519
30
0.0000000000
10
3.9190996827
20
-24.3178816155
30
0.0000000000
10
3.9238679764
20
-24.3202676966
30
0.0000000000
11
3.8585138124
21
-24.1848621611
31
0.0000000000
11
3.8606832941
21
-24.2175080342
31
0.0000000000
11
3.8671652070
21
-24.2472991841
31
0.0000000000
11
3.8777326206
21
-24.2732705358
31
0.0000000000
11
3.8922408237
21
-24.2950653471
31
0.0000000000
11
3.9102259725
21
-24.3119516274
31
0.0000000000
11
3.9238679764
21
-24.3202676966
31
0.0000000000
0
SPLINE
5
3A9
100
AcDbEntity
8
0
100
AcDbSpline
62
7
6
CONTINUOUS
70
0
71
3
72
14
73
10
74
8
42
0.0000001000
43
0.0000001000
44
0.0000000001
12
-0.1618915143
22
-0.1938217939
32
0.0000000000
13
-0.0000000000
23
-0.2525386112
33
0.0000000000
40
0.0000000000
40
0.0000000000
40
0.0000000000
40
0.0000000000
40
0.1442287221
40
0.2915661604
40
0.4392076970
40
0.5862445358
40
0.7294680978
40
0.8681597286
40
1.0000000000
40
1.0000000000
40
1.0000000000
40
1.0000000000
10
3.9474163884
20
-23.6134511674
30
0.0000000000
10
3.9396332530
20
-23.6227693906
30
0.0000000000
10
3.9248404200
20
-23.6424114924
30
0.0000000000
10
3.9054484028
20
-23.6739488925
30
0.0000000000
10
3.8889221397
20
-23.7073449501
30
0.0000000000
10
3.8756601880
20
-23.7417960609
30
0.0000000000
10
3.8659236756
20
-23.7766277963
30
0.0000000000
10
3.8599463734
20
-23.8110007871
30
0.0000000000
10
3.8585138124
20
-23.8337899740
30
0.0000000000
10
3.8585138124
20
-23.8448882270
30
0.0000000000
11
3.9474163884
21
-23.6134511674
31
0.0000000000
11
3.9254678458
21
-23.6425186716
31
0.0000000000
11
3.9059596016
21
-23.6742029398
31
0.0000000000
11
3.8894249699
21
-23.7076213665
31
0.0000000000
11
3.8761098021
21
-23.7422844204
31
0.0000000000
11
3.8664212417
21
-23.7771321325
31
0.0000000000
11
3.8604980581
21
-23.8116526474
31
0.0000000000
11
3.8585138124
21
-23.8448882270
31
0.0000000000
0
SPLINE
5
3AA
100
AcDbEntity
8
0
100
AcDbSpline
62
7
6
CONTINUOUS
70
0
71
3
72
15
73
11
74
9
42
0.0000001000
43
0.0000001000
44
0.0000000001
12
0.0627631636
22
-0.5850015930
32
0.0000000000
13
-0.5352556215
23
-0.2471302028
33
0.0000000000
40
0.0000000000
40
0.0000000000
40
0.0000000000
40
0.0000000000
40
0.1659352099
40
0.3204718358
40
0.4633438016
40
0.5955774700
40
0.7183321631
40
0.8346015069
40
0.9472409223
40
1.0000000000
40
1.0000000000
40
1.0000000000
40
1.0000000000
10
3.0298995523
20
-17.2424200829
30
0.0000000000
10
3.0333710919
20
-17.2747775370
30
0.0000000000
10
3.0371500798
20
-17.3376452605
30
0.0000000000
10
3.0325433856
20
-17.4286059753
30
0.0000000000
10
3.0175074812
20
-17.5117889919
30
0.0000000000
10
2.9921962171
20
-17.5859587695
30
0.0000000000
10
2.9568304291
20
-17.6500912818
30
0.0000000000
10
2.9118494447
20
-17.7030465671
30
0.0000000000
10
2.8674260792
20
-17.7366483440
30
0.0000000000
10
2.8386085659
20
-17.7517671444
30
0.0000000000
10
2.8291953683
20
-17.7561132649
30
0.0000000000
11
3.0298995523
21
-17.2424200829
31
0.0000000000
11
3.0354171164
21
-17.3398934858
31
0.0000000000
11
3.0304156005
21
-17.4306788031
31
0.0000000000
11
3.0150114633
21
-17.5133153116
31
0.0000000000
11
2.9894234123
21
-17.5867879102
31
0.0000000000
11
2.9541543093
21
-17.6498146366
31
0.0000000000
11
2.9096248892
21
-17.7017453381
31
0.0000000000
11
2.8567151394
21
-17.7416525835
31
0.0000000000
11
2.8291953683
21
-17.7561132649
31
0.0000000000
0
ENDSEC
0
SECTION
2
OBJECTS
0
DICTIONARY
5
3AB
100
AcDbDictionary
3
ACAD_GROUP
350
3AC
3
ACAD_MLINESTYLE
350
3AD
0
DICTIONARY
5
3AC
102
{ACAD_REACTORS
330
3AB
102
}
100
AcDbDictionary
0
DICTIONARY
5
3AD
102
{ACAD_REACTORS
330
3AB
102
}
100
AcDbDictionary
3
STANDARD
350
3AE
0
MLINESTYLE
5
3AE
102
{ACAD_REACTORS
330
3AD
102
}
100
AcDbMlineStyle
2
STANDARD
70
0
3

62
256
51
90.0
52
90.0
71
2
49
0.5
62
256
6
BYLAYER
49
-0.5
62
256
6
BYLAYER
0
ENDSEC
0
EOF
