0
SECTION
2
HEADER
9
$ACADVER
1
AC1014
9
$HANDSEED
5
       3AA
9
$EXTMAX
10
297.0000000000
20
210.0000000000
9
$EXTMIN
10
0.0000000000
20
0.0000000000
9
$LIMMIN
10
0.0000000000
20
0.0000000000
9
$LIMMAX
10
297.0000000000
20
210.0000000000
9
$VIEWCTR
10
148.5000000000
20
105.0000000000
9
$VIEWSIZE
40
210.0000000000
9
$CLAYER
8
0
9
$LTSCALE
40
16.3350000000
9
$CELTYPE
6
BYLAYER
9
$DIMSCALE
40
1
9
$DIMASZ
40
3.0000000000
9
$DIMEXO
40
1.8562500000
9
$DIMDLI
40
11.2860000000
9
$DIMEXE
40
5.3460000000
9
$DIMCEN
40
2.6730000000
9
$DIMLFAC
40
1.0000000000
9
$DIMTXT
40
3.0000000000
9
$DIMTOL
70
1
9
$DIMLIM
70
0
9
$DIMTFAC
40
1.0000000000
9
$DIMTP
40
0.0100000000
9
$DIMTM
40
0.0100000000
9
$MEASUREMENT
70
1
0
ENDSEC
0
SECTION
2
CLASSES
0
ENDSEC
0
SECTION
2
TABLES
0
TABLE
2
VPORT
5
8
100
AcDbSymbolTable
70
2
0
VPORT
5
1F4
100
AcDbSymbolTableRecord
100
AcDbViewportTableRecord
2
*ACTIVE
70
0
10
0.0
20
0.0
11
1.0
21
1.0
12
148.5000000000
22
105.0000000000
13
0.0
23
0.0
14
1.0
24
1.0
15
0.0
25
0.0
16
0.0
26
0.0
36
1.0
17
0.0
27
0.0
37
0.0
40
210.0000000000
41
1.4142857143
42
50.0
43
0.0
44
0.0
50
0.0
51
0.0
71
0
72
100
73
1
74
1
75
0
76
0
77
0
78
0
0
ENDTAB
0
TABLE
2
LTYPE
5
5
100
AcDbSymbolTable
70
6
0
LTYPE
5
14
100
AcDbSymbolTableRecord
100
AcDbLinetypeTableRecord
2
BYBLOCK
70
0
3

72
65
73
0
40
0.0
0
LTYPE
5
15
100
AcDbSymbolTableRecord
100
AcDbLinetypeTableRecord
2
BYLAYER
70
0
3

72
65
73
0
40
0.0
0
LTYPE
5
16
100
AcDbSymbolTableRecord
100
AcDbLinetypeTableRecord
2
CONTINUOUS
70
64
3
Solid line
72
65
73
0
40
0
0
LTYPE
5
1F5
100
AcDbSymbolTableRecord
100
AcDbLinetypeTableRecord
2
CENTER
70
64
3
____ _ ____ _ ____ _ ____ _ ____ _ ____ _ ____
72
65
73
4
40
0.6
49
0.375
74
0
49
-0.075
74
0
49
0.075
74
0
49
-0.075
74
0
0
LTYPE
5
1F6
100
AcDbSymbolTableRecord
100
AcDbLinetypeTableRecord
2
HIDDEN
70
64
3
- - - - - - - - - - - - - - - - - - - -
72
65
73
2
40
0.2
49
0.1
74
0
49
-0.1
74
0
0
LTYPE
5
1F7
100
AcDbSymbolTableRecord
100
AcDbLinetypeTableRecord
2
PHANTOM
70
64
3
_____ _ _ _____ _ _ _____ _ _ _____
72
65
73
6
40
0.8
49
0.45
74
0
49
-0.05
74
0
49
0.1
74
0
49
-0.05
74
0
49
0.1
74
0
49
-0.05
74
0
0
LTYPE
5
1F8
100
AcDbSymbolTableRecord
100
AcDbLinetypeTableRecord
2
DOT
70
64
3
. . . . . . . . . . . . . . . . . . . .
72
65
73
2
40
0.2
49
0.1
74
0
49
-0.1
74
0
0
LTYPE
5
1F9
100
AcDbSymbolTableRecord
100
AcDbLinetypeTableRecord
2
DASHED
70
64
3
- - - - - - - - - - - - - - - - - - - -
72
65
73
2
40
0.2
49
0.1
74
0
49
-0.1
74
0
0
ENDTAB
0
TABLE
2
LAYER
5
2
100
AcDbSymbolTable
70
36
0
LAYER
5
10
100
AcDbSymbolTableRecord
100
AcDbLayerTableRecord
2
0
70
0
62
7
6
CONTINUOUS
0
LAYER
5
1FA
100
AcDbSymbolTableRecord
100
AcDbLayerTableRecord
2
DEFAULT_1
70
0
62
7
6
CENTER
0
LAYER
5
1FB
100
AcDbSymbolTableRecord
100
AcDbLayerTableRecord
2
DEFAULT_2
70
0
62
8
6
HIDDEN
0
LAYER
5
1FC
100
AcDbSymbolTableRecord
100
AcDbLayerTableRecord
2
DEFAULT_3
70
0
62
7
6
PHANTOM
0
LAYER
5
1FD
100
AcDbSymbolTableRecord
100
AcDbLayerTableRecord
2
218140000
70
0
62
7
6
CONTINUOUS
0
LAYER
5
1FE
100
AcDbSymbolTableRecord
100
AcDbLayerTableRecord
2
218140080
70
0
62
7
6
CONTINUOUS
0
LAYER
5
1FF
100
AcDbSymbolTableRecord
100
AcDbLayerTableRecord
2
260
70
0
62
7
6
CONTINUOUS
0
LAYER
5
200
100
AcDbSymbolTableRecord
100
AcDbLayerTableRecord
2
268
70
0
62
7
6
CONTINUOUS
0
LAYER
5
201
100
AcDbSymbolTableRecord
100
AcDbLayerTableRecord
2
284
70
0
62
7
6
CONTINUOUS
0
LAYER
5
202
100
AcDbSymbolTableRecord
100
AcDbLayerTableRecord
2
290
70
0
62
7
6
CONTINUOUS
0
LAYER
5
203
100
AcDbSymbolTableRecord
100
AcDbLayerTableRecord
2
320
70
0
62
7
6
CONTINUOUS
0
LAYER
5
204
100
AcDbSymbolTableRecord
100
AcDbLayerTableRecord
2
340
70
0
62
7
6
CONTINUOUS
0
LAYER
5
205
100
AcDbSymbolTableRecord
100
AcDbLayerTableRecord
2
712
70
0
62
7
6
CONTINUOUS
0
LAYER
5
206
100
AcDbSymbolTableRecord
100
AcDbLayerTableRecord
2
715
70
0
62
7
6
CONTINUOUS
0
LAYER
5
207
100
AcDbSymbolTableRecord
100
AcDbLayerTableRecord
2
ASSI
70
0
62
7
6
CONTINUOUS
0
LAYER
5
208
100
AcDbSymbolTableRecord
100
AcDbLayerTableRecord
2
COORDINATE
70
0
62
7
6
CONTINUOUS
0
LAYER
5
209
100
AcDbSymbolTableRecord
100
AcDbLayerTableRecord
2
COORD_ORIGINE
70
0
62
7
6
CONTINUOUS
0
LAYER
5
20A
100
AcDbSymbolTableRecord
100
AcDbLayerTableRecord
2
COSMETICHE
70
0
62
7
6
CONTINUOUS
0
LAYER
5
20B
100
AcDbSymbolTableRecord
100
AcDbLayerTableRecord
2
CURVE
70
0
62
7
6
CONTINUOUS
0
LAYER
5
20C
100
AcDbSymbolTableRecord
100
AcDbLayerTableRecord
2
DRAFT
70
0
62
7
6
CONTINUOUS
0
LAYER
5
20D
100
AcDbSymbolTableRecord
100
AcDbLayerTableRecord
2
IMPORT
70
0
62
7
6
CONTINUOUS
0
LAYER
5
20E
100
AcDbSymbolTableRecord
100
AcDbLayerTableRecord
2
IMPORTED
70
0
62
7
6
CONTINUOUS
0
LAYER
5
20F
100
AcDbSymbolTableRecord
100
AcDbLayerTableRecord
2
INCISIONI_LASER
70
0
62
7
6
CONTINUOUS
0
LAYER
5
210
100
AcDbSymbolTableRecord
100
AcDbLayerTableRecord
2
NOTE
70
0
62
7
6
CONTINUOUS
0
LAYER
5
211
100
AcDbSymbolTableRecord
100
AcDbLayerTableRecord
2
PIANI
70
0
62
7
6
CONTINUOUS
0
LAYER
5
212
100
AcDbSymbolTableRecord
100
AcDbLayerTableRecord
2
PIANI_DI_RIFERIMENTO
70
0
62
7
6
CONTINUOUS
0
LAYER
5
213
100
AcDbSymbolTableRecord
100
AcDbLayerTableRecord
2
PIANI_ORIGINE
70
0
62
7
6
CONTINUOUS
0
LAYER
5
214
100
AcDbSymbolTableRecord
100
AcDbLayerTableRecord
2
PIANI_RIFERIMENTO
70
0
62
7
6
CONTINUOUS
0
LAYER
5
215
100
AcDbSymbolTableRecord
100
AcDbLayerTableRecord
2
PIANI_SFORMO
70
0
62
7
6
CONTINUOUS
0
LAYER
5
216
100
AcDbSymbolTableRecord
100
AcDbLayerTableRecord
2
PUNTI
70
0
62
7
6
CONTINUOUS
0
LAYER
5
217
100
AcDbSymbolTableRecord
100
AcDbLayerTableRecord
2
RACCORDO
70
0
62
7
6
CONTINUOUS
0
LAYER
5
218
100
AcDbSymbolTableRecord
100
AcDbLayerTableRecord
2
SMUSSO
70
0
62
7
6
CONTINUOUS
0
LAYER
5
219
100
AcDbSymbolTableRecord
100
AcDbLayerTableRecord
2
SUPERFICI
70
0
62
7
6
CONTINUOUS
0
LAYER
5
21A
100
AcDbSymbolTableRecord
100
AcDbLayerTableRecord
2
TRASH
70
0
62
7
6
CONTINUOUS
0
LAYER
5
21B
100
AcDbSymbolTableRecord
100
AcDbLayerTableRecord
2
XSEC_DATUMS
70
0
62
7
6
CONTINUOUS
0
ENDTAB
0
TABLE
2
STYLE
5
3
100
AcDbSymbolTable
70
1
0
STYLE
5
11
100
AcDbSymbolTableRecord
100
AcDbTextStyleTableRecord
2
STANDARD
70
0
40
0.0
41
0.8000000000
50
0.0
71
0
42
0.2
3
txt
4

0
ENDTAB
0
TABLE
2
VIEW
5
6
100
AcDbSymbolTable
70
0
0
ENDTAB
0
TABLE
2
UCS
5
7
100
AcDbSymbolTable
70
0
0
ENDTAB
0
TABLE
2
APPID
5
9
100
AcDbSymbolTable
70
1
0
APPID
5
21C
100
AcDbSymbolTableRecord
100
AcDbRegAppTableRecord
2
ACAD
70
0
0
ENDTAB
0
TABLE
2
DIMSTYLE
5
A
100
AcDbSymbolTable
70
1
0
DIMSTYLE
105
21D
100
AcDbSymbolTableRecord
100
AcDbDimStyleTableRecord
2
STANDARD
70
0
3

4

5

6

7

40
1.0
41
3.0000000000
42
0.0625
43
0.38
44
0.18
45
0.0
46
0.0
47
0.0100000000
48
0.0100000000
140
3.0000000000
141
0.09
142
0.0
143
25.4
144
1.0000000000
145
0.0
146
1.0000000000
147
0.09
71
1
72
0
73
0
74
0
75
0
76
0
77
1
78
8
170
0
171
2
172
0
173
0
174
0
175
0
176
0
177
0
178
0
270
2
271
2
272
2
273
2
274
2
340
11
275
0
280
0
281
0
282
0
283
1
284
8
285
0
286
0
287
3
288
0
0
ENDTAB
0
TABLE
2
BLOCK_RECORD
5
1
100
AcDbSymbolTable
70
0
0
BLOCK_RECORD
5
1B
100
AcDbSymbolTableRecord
100
AcDbBlockTableRecord
2
*MODEL_SPACE
0
BLOCK_RECORD
5
1C
100
AcDbSymbolTableRecord
100
AcDbBlockTableRecord
2
*PAPER_SPACE
0
ENDTAB
0
ENDSEC
0
SECTION
2
BLOCKS
0
BLOCK
5
1E
100
AcDbEntity
8
0
100
AcDbBlockBegin
2
*MODEL_SPACE
70
0
10
0.0
20
0.0
30
0.0
3
*MODEL_SPACE
1

0
ENDBLK
5
1F
100
AcDbEntity
8
0
100
AcDbBlockEnd
0
BLOCK
5
20
100
AcDbEntity
8
0
100
AcDbBlockBegin
2
*PAPER_SPACE
70
0
10
0.0
20
0.0
30
0.0
3
*PAPER_SPACE
1

0
ENDBLK
5
21
100
AcDbEntity
8
0
100
AcDbBlockEnd
0
ENDSEC
0
SECTION
2
ENTITIES
0
LINE
5
21E
100
AcDbEntity
8
0
100
AcDbLine
62
7
6
CONTINUOUS
10
-2.7608625463
20
21.9264409868
11
-1.1781059431
21
22.7384250841
0
LINE
5
21F
100
AcDbEntity
8
0
100
AcDbLine
62
7
6
CONTINUOUS
10
-3.2094623196
20
20.0794603749
11
-2.2325953745
21
20.5783347835
0
LINE
5
220
100
AcDbEntity
8
0
100
AcDbLine
62
7
6
CONTINUOUS
10
-1.1781059431
20
22.7384250841
11
-0.6436560644
21
22.9987725507
0
LINE
5
221
100
AcDbEntity
8
0
100
AcDbLine
62
9
6
CONTINUOUS
10
-3.0519389133
20
20.0700270453
11
-2.2325953745
21
20.4884561113
0
LINE
5
222
100
AcDbEntity
8
0
100
AcDbLine
62
7
6
CONTINUOUS
10
0.5189503317
20
20.0712435988
11
-0.5478805804
21
19.5326623493
0
LINE
5
223
100
AcDbEntity
8
0
100
AcDbLine
62
7
6
CONTINUOUS
10
-1.0823304591
20
21.0871749432
11
0.5189503317
21
21.8898969467
0
LINE
5
224
100
AcDbEntity
8
0
100
AcDbLine
62
7
6
CONTINUOUS
10
0.5189503317
20
21.8898969467
11
1.0472175035
21
22.1533357667
0
LINE
5
225
100
AcDbEntity
8
0
100
AcDbLine
62
7
6
CONTINUOUS
10
-6.5139903342
20
17.7486410875
11
-2.5379600578
21
19.3739210560
0
LINE
5
226
100
AcDbEntity
8
0
100
AcDbLine
62
9
6
CONTINUOUS
10
-6.1618442350
20
17.7230131085
11
-2.2285579237
21
19.3308206120
0
LINE
5
227
100
AcDbEntity
8
0
100
AcDbLine
62
7
6
CONTINUOUS
10
4.5017709770
20
-28.5478571183
11
-9.9140237411
21
-21.3399597593
0
LINE
5
228
100
AcDbEntity
8
0
100
AcDbLine
62
9
6
CONTINUOUS
10
4.1087418212
20
-27.6864020841
11
-10.2992357137
21
-20.4824133167
0
LINE
5
229
100
AcDbEntity
8
0
100
AcDbLine
62
7
6
CONTINUOUS
10
1.1340691667
20
21.4457356397
11
0.6068244510
21
20.8040279117
0
LINE
5
22A
100
AcDbEntity
8
0
100
AcDbLine
62
7
6
CONTINUOUS
10
2.7479894241
20
19.6694150784
11
3.2413114393
21
19.9224986103
0
LINE
5
22B
100
AcDbEntity
8
0
100
AcDbLine
62
7
6
CONTINUOUS
10
1.9393759692
20
20.0605798720
11
8.4474125959
21
23.3017214776
0
LINE
5
22C
100
AcDbEntity
8
0
100
AcDbLine
62
9
6
CONTINUOUS
10
2.0148691097
20
20.0228333018
11
8.3294094363
21
23.1676096063
0
LINE
5
22D
100
AcDbEntity
8
0
100
AcDbLine
62
7
6
CONTINUOUS
10
9.3224297575
20
22.2878660755
11
4.5848143235
21
19.9528155609
0
LINE
5
22E
100
AcDbEntity
8
0
100
AcDbLine
62
7
6
CONTINUOUS
10
3.2413114393
20
19.9224986103
11
8.7189514288
21
22.5908305735
0
LINE
5
22F
100
AcDbEntity
8
0
100
AcDbLine
62
7
6
CONTINUOUS
10
13.9711426154
20
-26.0527353099
11
14.4983873311
21
-26.1610275819
0
LINE
5
230
100
AcDbEntity
8
0
100
AcDbLine
62
7
6
CONTINUOUS
10
-10.5335594223
20
-20.2007988726
11
-10.5335659736
21
-20.2010171982
0
LINE
5
231
100
AcDbEntity
8
0
100
AcDbLine
62
7
6
CONTINUOUS
10
-7.5265597753
20
16.3434007759
11
-7.5265712448
21
16.3433135648
0
LINE
5
232
100
AcDbEntity
8
0
100
AcDbLine
62
7
6
CONTINUOUS
10
10.6495035859
20
20.8179918420
11
9.2517190794
21
20.1190995887
0
LINE
5
233
100
AcDbEntity
8
0
100
AcDbLine
62
7
6
CONTINUOUS
10
8.1768137448
20
19.4270598332
11
8.2383633831
21
19.4578346523
0
LINE
5
234
100
AcDbEntity
8
0
100
AcDbLine
62
9
6
CONTINUOUS
10
8.2617695857
20
19.4191360366
11
8.3278061022
21
19.4521542948
0
LINE
5
235
100
AcDbEntity
8
0
100
AcDbLine
62
7
6
CONTINUOUS
10
8.8981656888
20
20.8484344733
11
9.3224297575
21
21.0560318942
0
LINE
5
236
100
AcDbEntity
8
0
100
AcDbLine
62
7
6
CONTINUOUS
10
11.3084993372
20
21.6780646558
11
9.2517190794
21
20.6716577780
0
LINE
5
237
100
AcDbEntity
8
0
100
AcDbLine
62
7
6
CONTINUOUS
10
10.4933233144
20
-27.1751866960
11
12.1705700900
21
-28.0138100838
0
LINE
5
238
100
AcDbEntity
8
0
100
AcDbLine
62
9
6
CONTINUOUS
10
10.4287298356
20
-27.0401581547
11
12.1052169759
21
-27.8784017249
0
LINE
5
239
100
AcDbEntity
8
0
100
AcDbLine
62
9
6
CONTINUOUS
10
12.1052169759
20
-27.5384277908
11
10.4287298356
21
-26.7001842206
0
LINE
5
23A
100
AcDbEntity
8
0
100
AcDbLine
62
9
6
CONTINUOUS
10
12.1941195519
20
-27.3069907311
11
10.5166039549
21
-26.4682329326
0
LINE
5
23B
100
AcDbEntity
8
0
100
AcDbLine
62
7
6
CONTINUOUS
10
9.9021146345
20
-25.1671493721
11
12.2215675604
21
-26.3268758351
0
LINE
5
23C
100
AcDbEntity
8
0
100
AcDbLine
62
7
6
CONTINUOUS
10
12.8164375840
20
-26.5619313136
11
12.3751012243
21
-26.3412631338
0
LINE
5
23D
100
AcDbEntity
8
0
100
AcDbLine
62
7
6
CONTINUOUS
10
9.9279997609
20
-24.8525759968
11
12.4690549338
21
-26.1231035833
0
LINE
5
23E
100
AcDbEntity
8
0
100
AcDbLine
62
7
6
CONTINUOUS
10
8.1651028880
20
19.4193114583
11
7.2350780692
21
18.6276836881
0
LINE
5
23F
100
AcDbEntity
8
0
100
AcDbLine
62
9
6
CONTINUOUS
10
8.2617695857
20
19.4191360366
11
7.2961036438
21
18.5971709008
0
LINE
5
240
100
AcDbEntity
8
0
100
AcDbLine
62
7
6
CONTINUOUS
10
8.9647553809
20
16.5610321000
11
9.4638511137
21
16.8112287731
0
LINE
5
241
100
AcDbEntity
8
0
100
AcDbLine
62
7
6
CONTINUOUS
10
9.4638511137
20
16.8112287731
11
14.8781238089
21
19.5112443834
0
LINE
5
242
100
AcDbEntity
8
0
100
AcDbLine
62
7
6
CONTINUOUS
10
14.2721772258
20
19.8129923414
11
9.5345617919
21
17.4779418268
0
LINE
5
243
100
AcDbEntity
8
0
100
AcDbLine
62
7
6
CONTINUOUS
10
15.5511400244
20
19.5567443123
11
14.9647612373
21
19.2698222446
0
LINE
5
244
100
AcDbEntity
8
0
100
AcDbLine
62
7
6
CONTINUOUS
10
21.8309702605
20
22.2219989918
11
16.0510708114
21
19.5526498869
0
LINE
5
245
100
AcDbEntity
8
0
100
AcDbLine
62
9
6
CONTINUOUS
10
22.2625896856
20
22.1862052854
11
16.3442706183
21
19.4529294138
0
LINE
5
246
100
AcDbEntity
8
0
100
AcDbLine
62
9
6
CONTINUOUS
10
13.9711426154
20
-26.0527353099
11
13.9277202895
21
-26.0310241469
0
LINE
5
247
100
AcDbEntity
8
0
100
AcDbLine
62
7
6
CONTINUOUS
10
10.0019333732
20
-23.9540852733
11
13.2822277321
21
-25.5942324528
0
LINE
5
248
100
AcDbEntity
8
0
100
AcDbLine
62
9
6
CONTINUOUS
10
13.8832684962
20
-25.8534681644
11
14.4983873311
21
-26.1610275819
0
LINE
5
249
100
AcDbEntity
8
0
100
AcDbLine
62
7
6
CONTINUOUS
10
13.8832684962
20
-25.8498480148
11
14.4998353910
21
-26.1581314622
0
LINE
5
24A
100
AcDbEntity
8
0
100
AcDbLine
62
7
6
CONTINUOUS
10
10.1323333251
20
-22.3693778117
11
13.2822277321
21
-23.9443250152
0
LINE
5
24B
100
AcDbEntity
8
0
100
AcDbLine
62
7
6
CONTINUOUS
10
10.6034556181
20
15.2442819046
11
12.1862122213
21
16.0562660019
0
LINE
5
24C
100
AcDbEntity
8
0
100
AcDbLine
62
7
6
CONTINUOUS
10
8.9647553809
20
15.3468286271
11
9.4638511137
21
15.5987932078
0
LINE
5
24D
100
AcDbEntity
8
0
100
AcDbLine
62
7
6
CONTINUOUS
10
9.4638511137
20
15.5987932078
11
14.8781238089
21
18.2794058051
0
LINE
5
24E
100
AcDbEntity
8
0
100
AcDbLine
62
7
6
CONTINUOUS
10
12.1862122213
20
16.0562660019
11
12.7206621000
21
16.3166134685
0
LINE
5
24F
100
AcDbEntity
8
0
100
AcDbLine
62
7
6
CONTINUOUS
10
23.3021879543
20
21.6664061511
11
19.7470682232
21
19.9578476363
0
LINE
5
250
100
AcDbEntity
8
0
100
AcDbLine
62
7
6
CONTINUOUS
10
-3.2994262867
20
19.8906502988
11
-3.2994262867
21
19.8662547935
0
LINE
5
251
100
AcDbEntity
8
0
100
AcDbLine
62
7
6
CONTINUOUS
10
-2.9355883288
20
21.2815790010
11
-2.9355883288
21
21.6215529351
0
LINE
5
252
100
AcDbEntity
8
0
100
AcDbLine
62
9
6
CONTINUOUS
10
14.4515909427
20
14.7066208342
11
19.7203207704
21
17.5492214499
0
LINE
5
253
100
AcDbEntity
8
0
100
AcDbLine
62
9
6
CONTINUOUS
10
14.0849707894
20
14.2604087081
11
19.6361692028
21
17.2554076060
0
LINE
5
254
100
AcDbEntity
8
0
100
AcDbLine
62
7
6
CONTINUOUS
10
19.8355446018
20
17.6452334236
11
20.4442112174
21
17.9661953653
0
LINE
5
255
100
AcDbEntity
8
0
100
AcDbLine
62
9
6
CONTINUOUS
10
20.4440834354
20
17.9661279784
11
20.4442112174
21
17.9661953653
0
LINE
5
256
100
AcDbEntity
8
0
100
AcDbLine
62
9
6
CONTINUOUS
10
13.9560563372
20
14.1021839229
11
19.6361692028
21
17.0431484519
0
LINE
5
257
100
AcDbEntity
8
0
100
AcDbLine
62
7
6
CONTINUOUS
10
14.0267500128
20
14.0168928502
11
19.7183789151
21
16.9638199818
0
LINE
5
258
100
AcDbEntity
8
0
100
AcDbLine
62
7
6
CONTINUOUS
10
24.3414213751
20
21.0764670463
11
20.1263073753
21
18.9620947376
0
LINE
5
259
100
AcDbEntity
8
0
100
AcDbLine
62
7
6
CONTINUOUS
10
20.1242684227
20
18.5280138568
11
24.3467051873
21
20.6460540492
0
LINE
5
25A
100
AcDbEntity
8
0
100
AcDbLine
62
7
6
CONTINUOUS
10
12.2819877053
20
14.4050158610
11
13.8832684962
21
15.2077378645
0
LINE
5
25B
100
AcDbEntity
8
0
100
AcDbLine
62
7
6
CONTINUOUS
10
20.5724986462
20
17.7431036339
11
21.0674733930
21
17.9905910073
0
LINE
5
25C
100
AcDbEntity
8
0
100
AcDbLine
62
7
6
CONTINUOUS
10
13.8832684962
20
15.2077378645
11
14.4115356679
21
15.4711766845
0
LINE
5
25D
100
AcDbEntity
8
0
100
AcDbLine
62
9
6
CONTINUOUS
10
13.8466930458
20
15.8155753665
11
18.5302299253
21
18.0671993618
0
LINE
5
25E
100
AcDbEntity
8
0
100
AcDbLine
62
9
6
CONTINUOUS
10
14.0743085456
20
15.7017676166
11
18.9720707932
21
18.0563810815
0
LINE
5
25F
100
AcDbEntity
8
0
100
AcDbLine
62
9
6
CONTINUOUS
10
12.3366303592
20
12.0482264705
11
8.2630715534
21
10.5105552143
0
LINE
5
260
100
AcDbEntity
8
0
100
AcDbLine
62
7
6
CONTINUOUS
10
12.4690549338
20
11.9820141833
11
13.2822277321
21
12.2663158512
0
LINE
5
261
100
AcDbEntity
8
0
100
AcDbLine
62
7
6
CONTINUOUS
10
-2.4862534883
20
19.4596683943
11
-2.4862534883
21
19.3902509150
0
LINE
5
262
100
AcDbEntity
8
0
100
AcDbLine
62
7
6
CONTINUOUS
10
-2.2325953745
20
20.3750197463
11
-2.2325953745
21
20.8273507220
0
LINE
5
263
100
AcDbEntity
8
0
100
AcDbLine
62
7
6
CONTINUOUS
10
-1.2591011885
20
20.7833093650
11
-1.2591011885
21
20.4433354308
0
LINE
5
264
100
AcDbEntity
8
0
100
AcDbLine
62
7
6
CONTINUOUS
10
-0.5478805804
20
19.5326623493
11
-0.5478805804
21
20.1698319080
0
LINE
5
265
100
AcDbEntity
8
0
100
AcDbLine
62
9
6
CONTINUOUS
10
13.9893345133
20
13.3360515080
11
12.2215675604
21
12.4332738085
0
LINE
5
266
100
AcDbEntity
8
0
100
AcDbLine
62
9
6
CONTINUOUS
10
14.2368218867
20
12.9091873880
11
12.4690549338
21
12.0064096885
0
LINE
5
267
100
AcDbEntity
8
0
100
AcDbLine
62
7
6
CONTINUOUS
10
13.8832684962
20
13.3890845166
11
12.8164375840
21
12.8505032670
0
LINE
5
268
100
AcDbEntity
8
0
100
AcDbLine
62
7
6
CONTINUOUS
10
23.5356513055
20
18.1710908596
11
22.2241869945
21
17.5153587041
0
LINE
5
269
100
AcDbEntity
8
0
100
AcDbLine
62
7
6
CONTINUOUS
10
24.3841820133
20
17.7468280761
11
23.6079082468
21
17.3586911929
0
LINE
5
26A
100
AcDbEntity
8
0
100
AcDbLine
62
9
6
CONTINUOUS
10
14.6964412945
20
13.6820472094
11
13.9893345133
21
13.3360515080
0
LINE
5
26B
100
AcDbEntity
8
0
100
AcDbLine
62
9
6
CONTINUOUS
10
14.9439286679
20
13.2551830894
11
14.2368218867
21
12.9091873880
0
LINE
5
26C
100
AcDbEntity
8
0
100
AcDbLine
62
7
6
CONTINUOUS
10
14.6363062736
20
13.7121147198
11
20.3021708425
21
16.4643032640
0
LINE
5
26D
100
AcDbEntity
8
0
100
AcDbLine
62
7
6
CONTINUOUS
10
28.7890538379
20
18.9229732093
11
21.0548649265
21
15.1660980030
0
LINE
5
26E
100
AcDbEntity
8
0
100
AcDbLine
62
7
6
CONTINUOUS
10
27.9649756032
20
19.3350123266
11
24.3955500354
21
17.6336067302
0
LINE
5
26F
100
AcDbEntity
8
0
100
AcDbLine
62
9
6
CONTINUOUS
10
12.8832921652
20
11.0621145969
11
8.7695495994
21
9.5092749300
0
LINE
5
270
100
AcDbEntity
8
0
100
AcDbLine
62
7
6
CONTINUOUS
10
0.5189503317
20
20.0712435988
11
0.5189503317
21
21.8898969467
0
LINE
5
271
100
AcDbEntity
8
0
100
AcDbLine
62
7
6
CONTINUOUS
10
1.2219432860
20
22.0252184445
11
1.2219432860
21
21.6776869277
0
LINE
5
272
100
AcDbEntity
8
0
100
AcDbLine
62
9
6
CONTINUOUS
10
29.1319514139
20
18.3315623737
11
14.9439286679
21
11.1133662548
0
LINE
5
273
100
AcDbEntity
8
0
100
AcDbLine
62
9
6
CONTINUOUS
10
29.5461018895
20
16.8999287991
11
14.9439286679
21
9.4710324713
0
LINE
5
274
100
AcDbEntity
8
0
100
AcDbLine
62
7
6
CONTINUOUS
10
2.6613519957
20
19.5629081365
11
2.6613519957
21
18.3481747503
0
LINE
5
275
100
AcDbEntity
8
0
100
AcDbLine
62
9
6
CONTINUOUS
10
2.7492199613
20
19.4563991797
11
2.7492199613
21
18.2414443136
0
LINE
5
276
100
AcDbEntity
8
0
100
AcDbLine
62
7
6
CONTINUOUS
10
14.4983873311
20
14.7635765575
11
13.9711426154
21
14.1218688295
0
LINE
5
277
100
AcDbEntity
8
0
100
AcDbLine
62
7
6
CONTINUOUS
10
11.3611614098
20
-7.4358367536
11
11.5498161182
21
-7.5301641078
0
LINE
5
278
100
AcDbEntity
8
0
100
AcDbLine
62
7
6
CONTINUOUS
10
10.6957687070
20
-15.5221340731
11
11.2766027158
21
-20.9359596467
0
LINE
5
279
100
AcDbEntity
8
0
100
AcDbLine
62
9
6
CONTINUOUS
10
8.5417290294
20
15.3451897796
11
8.5417290294
21
16.5601446457
0
LINE
5
27A
100
AcDbEntity
8
0
100
AcDbLine
62
7
6
CONTINUOUS
10
8.8981656888
20
19.5991396401
11
8.8981656888
21
20.8484344733
0
LINE
5
27B
100
AcDbEntity
8
0
100
AcDbLine
62
9
6
CONTINUOUS
10
8.9647553809
20
15.3468286271
11
8.9647553809
21
16.5610321000
0
LINE
5
27C
100
AcDbEntity
8
0
100
AcDbLine
62
7
6
CONTINUOUS
10
9.2517190794
20
20.1190995887
11
9.2517190794
21
20.6716577780
0
LINE
5
27D
100
AcDbEntity
8
0
100
AcDbLine
62
9
6
CONTINUOUS
10
9.3224297575
20
22.2878660755
11
9.3224297575
21
21.0560318942
0
LINE
5
27E
100
AcDbEntity
8
0
100
AcDbLine
62
7
6
CONTINUOUS
10
9.4102977231
20
22.3928632895
11
9.4102977231
21
21.1604946847
0
LINE
5
27F
100
AcDbEntity
8
0
100
AcDbLine
62
7
6
CONTINUOUS
10
9.4638511137
20
16.8112287731
11
9.4638511137
21
15.5987932078
0
LINE
5
280
100
AcDbEntity
8
0
100
AcDbLine
62
7
6
CONTINUOUS
10
10.4287298356
20
-27.0401581547
11
10.4287298356
21
-26.7001842206
0
LINE
5
281
100
AcDbEntity
8
0
100
AcDbLine
62
7
6
CONTINUOUS
10
10.4287298356
20
14.5994199188
11
10.4287298356
21
14.9393938529
0
LINE
5
282
100
AcDbEntity
8
0
100
AcDbLine
62
7
6
CONTINUOUS
10
29.8267620892
20
11.0675569767
11
30.7419388763
21
11.6594855959
0
LINE
5
283
100
AcDbEntity
8
0
100
AcDbLine
62
7
6
CONTINUOUS
10
11.5498161182
20
-7.5301641078
11
13.2822277321
21
-23.9443250152
0
LINE
5
284
100
AcDbEntity
8
0
100
AcDbLine
62
7
6
CONTINUOUS
10
11.1317227899
20
13.6928606641
11
11.1317227899
21
14.1451916397
0
LINE
5
285
100
AcDbEntity
8
0
100
AcDbLine
62
7
6
CONTINUOUS
10
12.0094355260
20
21.1625403220
11
12.0094355260
21
20.8917400294
0
LINE
5
286
100
AcDbEntity
8
0
100
AcDbLine
62
7
6
CONTINUOUS
10
12.1052169759
20
14.1011502828
11
12.1052169759
21
13.7611763486
0
LINE
5
287
100
AcDbEntity
8
0
100
AcDbLine
62
7
6
CONTINUOUS
10
12.1052169759
20
-27.5384277908
11
12.1052169759
21
-27.8784017249
0
LINE
5
288
100
AcDbEntity
8
0
100
AcDbLine
62
7
6
CONTINUOUS
10
12.4690549338
20
12.0064096885
11
12.4690549338
21
11.9820141833
0
LINE
5
289
100
AcDbEntity
8
0
100
AcDbLine
62
7
6
CONTINUOUS
10
12.4690549338
20
-26.1231035833
11
12.4690549338
21
-26.1474990885
0
LINE
5
28A
100
AcDbEntity
8
0
100
AcDbLine
62
7
6
CONTINUOUS
10
12.8164375840
20
-26.5619313136
11
12.8164375840
21
-26.1223317680
0
LINE
5
28B
100
AcDbEntity
8
0
100
AcDbLine
62
7
6
CONTINUOUS
10
12.8164375840
20
12.8505032670
11
12.8164375840
21
13.4876728258
0
LINE
5
28C
100
AcDbEntity
8
0
100
AcDbLine
62
7
6
CONTINUOUS
10
9.7715458965
20
-26.7539080361
11
12.8832921652
21
11.0621145969
0
LINE
5
28D
100
AcDbEntity
8
0
100
AcDbLine
62
7
6
CONTINUOUS
10
13.2822277321
20
10.6164084136
11
11.5498161182
21
-7.5301641078
0
LINE
5
28E
100
AcDbEntity
8
0
100
AcDbLine
62
7
6
CONTINUOUS
10
13.2822277321
20
12.2663158512
11
13.2822277321
21
10.6164084136
0
LINE
5
28F
100
AcDbEntity
8
0
100
AcDbLine
62
7
6
CONTINUOUS
10
13.2822277321
20
-23.9443250152
11
13.2822277321
21
-25.5942324528
0
LINE
5
290
100
AcDbEntity
8
0
100
AcDbLine
62
7
6
CONTINUOUS
10
13.8832684962
20
-25.6003187997
11
13.8832684962
21
-27.2275069209
0
LINE
5
291
100
AcDbEntity
8
0
100
AcDbLine
62
7
6
CONTINUOUS
10
13.8832684962
20
13.3890845166
11
13.8832684962
21
15.2077378645
0
LINE
5
292
100
AcDbEntity
8
0
100
AcDbLine
62
7
6
CONTINUOUS
10
14.5862614504
20
15.3430593623
11
14.5862614504
21
14.9955278455
0
LINE
5
293
100
AcDbEntity
8
0
100
AcDbLine
62
7
6
CONTINUOUS
10
14.5862614504
20
-26.3040762939
11
14.5862614504
21
-26.6516078106
0
LINE
5
294
100
AcDbEntity
8
0
100
AcDbLine
62
9
6
CONTINUOUS
10
14.8781238089
20
19.5112443834
11
14.8781238089
21
18.2794058051
0
LINE
5
295
100
AcDbEntity
8
0
100
AcDbLine
62
7
6
CONTINUOUS
10
14.9439286679
20
-24.9213987553
11
14.9439286679
21
13.2551830894
0
LINE
5
296
100
AcDbEntity
8
0
100
AcDbLine
62
7
6
CONTINUOUS
10
14.9647612373
20
19.6156317588
11
14.9647612373
21
18.3832632670
0
LINE
5
297
100
AcDbEntity
8
0
100
AcDbLine
62
9
6
CONTINUOUS
10
19.6361692028
20
17.2554076060
11
19.6361692028
21
17.0431484519
0
LINE
5
298
100
AcDbEntity
8
0
100
AcDbLine
62
9
6
CONTINUOUS
10
19.6361692028
20
-19.6988181186
11
19.6361692028
21
-19.8885878227
0
LINE
5
299
100
AcDbEntity
8
0
100
AcDbLine
62
9
6
CONTINUOUS
10
7.1172614422
20
8.8751412602
11
-7.2907160926
21
16.0791300276
0
LINE
5
29A
100
AcDbEntity
8
0
100
AcDbLine
62
7
6
CONTINUOUS
10
19.7203207704
20
17.5492214499
11
19.7203672410
21
17.5430841118
0
LINE
5
29B
100
AcDbEntity
8
0
100
AcDbLine
62
7
6
CONTINUOUS
10
19.7203672627
20
17.5430284842
11
19.7203672627
21
16.9670652947
0
LINE
5
29C
100
AcDbEntity
8
0
100
AcDbLine
62
7
6
CONTINUOUS
10
19.7203672627
20
-19.6542927975
11
19.7203672627
21
-19.9678111898
0
LINE
5
29D
100
AcDbEntity
8
0
100
AcDbLine
62
9
6
CONTINUOUS
10
20.1242684227
20
18.5280138568
11
20.1242684227
21
18.9610742761
0
LINE
5
29E
100
AcDbEntity
8
0
100
AcDbLine
62
7
6
CONTINUOUS
10
20.8069786207
20
18.8704719490
11
20.8069786207
21
18.4374592471
0
LINE
5
29F
100
AcDbEntity
8
0
100
AcDbLine
62
7
6
CONTINUOUS
10
21.7744423331
20
17.6371065373
11
21.7744423331
21
17.1997298652
0
LINE
5
2A0
100
AcDbEntity
8
0
100
AcDbLine
62
7
6
CONTINUOUS
10
19.7203207704
20
-19.9687227525
11
19.7203672410
21
-19.9679807977
0
LINE
5
2A1
100
AcDbEntity
8
0
100
AcDbLine
62
9
6
CONTINUOUS
10
8.2630715534
20
10.5105552143
11
-6.1618442350
21
17.7230131085
0
LINE
5
2A2
100
AcDbEntity
8
0
100
AcDbLine
62
7
6
CONTINUOUS
10
22.2241869945
20
17.5153587041
11
22.2241869945
21
17.1896945805
0
LINE
5
2A3
100
AcDbEntity
8
0
100
AcDbLine
62
7
6
CONTINUOUS
10
22.2624838532
20
18.8110493831
11
22.2624838532
21
18.3672960872
0
LINE
5
2A4
100
AcDbEntity
8
0
100
AcDbLine
62
7
6
CONTINUOUS
10
12.8638307852
20
10.8256068871
11
13.2822277321
21
10.6164084136
0
LINE
5
2A5
100
AcDbEntity
8
0
100
AcDbLine
62
7
6
CONTINUOUS
10
24.3467051873
20
20.9730200969
11
24.3467051873
21
20.6460540492
0
LINE
5
2A6
100
AcDbEntity
8
0
100
AcDbLine
62
7
6
CONTINUOUS
10
10.5166039549
20
-26.4682329326
11
11.0953942951
21
-25.7637892024
0
LINE
5
2A7
100
AcDbEntity
8
0
100
AcDbLine
62
7
6
CONTINUOUS
10
-3.2994262867
20
19.8662547935
11
12.4690549338
21
11.9820141833
0
LINE
5
2A8
100
AcDbEntity
8
0
100
AcDbLine
62
7
6
CONTINUOUS
10
12.2215675604
20
12.4332738085
11
-3.0519389133
21
20.0700270453
0
LINE
5
2A9
100
AcDbEntity
8
0
100
AcDbLine
62
7
6
CONTINUOUS
10
12.8164375840
20
12.8505032670
11
11.1317227899
21
13.6928606641
0
LINE
5
2AA
100
AcDbEntity
8
0
100
AcDbLine
62
7
6
CONTINUOUS
10
-0.5478805804
20
19.5326623493
11
-2.2325953745
21
20.3750197463
0
LINE
5
2AB
100
AcDbEntity
8
0
100
AcDbLine
62
7
6
CONTINUOUS
10
2.7492199613
20
18.2414443136
11
8.5417290294
21
15.3451897796
0
LINE
5
2AC
100
AcDbEntity
8
0
100
AcDbLine
62
7
6
CONTINUOUS
10
-2.8709935828
20
21.1465498261
11
-1.1937493417
21
20.3079277055
0
LINE
5
2AD
100
AcDbEntity
8
0
100
AcDbLine
62
7
6
CONTINUOUS
10
10.4933245816
20
14.4643907439
11
12.1705688228
21
13.6257686233
0
LINE
5
2AE
100
AcDbEntity
8
0
100
AcDbLine
62
9
6
CONTINUOUS
10
-2.9355883288
20
21.2815790010
11
-1.2591011885
21
20.4433354308
0
LINE
5
2AF
100
AcDbEntity
8
0
100
AcDbLine
62
9
6
CONTINUOUS
10
10.4287298356
20
14.5994199188
11
12.1052169759
21
13.7611763486
0
LINE
5
2B0
100
AcDbEntity
8
0
100
AcDbLine
62
9
6
CONTINUOUS
10
12.1052169759
20
14.1011502828
11
10.4287298356
21
14.9393938529
0
LINE
5
2B1
100
AcDbEntity
8
0
100
AcDbLine
62
9
6
CONTINUOUS
10
-1.2591011885
20
20.7833093650
11
-2.9355883288
21
21.6215529351
0
LINE
5
2B2
100
AcDbEntity
8
0
100
AcDbLine
62
7
6
CONTINUOUS
10
0.5189503317
20
20.0712435988
11
2.6613519957
21
19.0000427668
0
LINE
5
2B3
100
AcDbEntity
8
0
100
AcDbLine
62
7
6
CONTINUOUS
10
9.4638511137
20
15.5987932078
11
10.4684394740
21
15.0964990276
0
LINE
5
2B4
100
AcDbEntity
8
0
100
AcDbLine
62
7
6
CONTINUOUS
10
13.8832684962
20
13.3890845166
11
13.9893345133
21
13.3360515080
0
LINE
5
2B5
100
AcDbEntity
8
0
100
AcDbLine
62
7
6
CONTINUOUS
10
12.1941195519
20
-27.3069907311
11
12.8164375840
21
-26.5619313136
0
LINE
5
2B6
100
AcDbEntity
8
0
100
AcDbLine
62
9
6
CONTINUOUS
10
11.2766027158
20
-20.9359596467
11
10.2097406761
21
-21.4286718912
0
LINE
5
2B7
100
AcDbEntity
8
0
100
AcDbLine
62
7
6
CONTINUOUS
10
11.0757491299
20
-21.4497287033
11
10.1737288616
21
-21.8663115552
0
LINE
5
2B8
100
AcDbEntity
8
0
100
AcDbLine
62
7
6
CONTINUOUS
10
12.8164375840
20
13.4876728258
11
12.1941195519
21
13.6176134083
0
LINE
5
2B9
100
AcDbEntity
8
0
100
AcDbLine
62
9
6
CONTINUOUS
10
12.2819877053
20
14.4050158610
11
10.6034556181
21
15.2442819046
0
LINE
5
2BA
100
AcDbEntity
8
0
100
AcDbLine
62
9
6
CONTINUOUS
10
-1.0823304591
20
21.0871749432
11
-2.7608625463
21
21.9264409868
0
LINE
5
2BB
100
AcDbEntity
8
0
100
AcDbLine
62
7
6
CONTINUOUS
10
2.7492199613
20
19.4563991797
11
8.5417290294
21
16.5601446457
0
LINE
5
2BC
100
AcDbEntity
8
0
100
AcDbLine
62
7
6
CONTINUOUS
10
14.6964412945
20
13.6820472094
11
13.9320646097
21
14.0642355517
0
LINE
5
2BD
100
AcDbEntity
8
0
100
AcDbLine
62
7
6
CONTINUOUS
10
2.0148691097
20
20.0228333018
11
0.5677464453
21
20.7463946340
0
LINE
5
2BE
100
AcDbEntity
8
0
100
AcDbLine
62
7
6
CONTINUOUS
10
3.2413114393
20
19.9224986103
11
9.4638511137
21
16.8112287731
0
LINE
5
2BF
100
AcDbEntity
8
0
100
AcDbLine
62
7
6
CONTINUOUS
10
-1.1781059431
20
22.7384250841
11
0.5189503317
21
21.8898969467
0
LINE
5
2C0
100
AcDbEntity
8
0
100
AcDbLine
62
7
6
CONTINUOUS
10
12.1862122213
20
16.0562660019
11
13.8832684962
21
15.2077378645
0
LINE
5
2C1
100
AcDbEntity
8
0
100
AcDbLine
62
7
6
CONTINUOUS
10
4.5848143235
20
19.9528155609
11
9.5345617919
21
17.4779418268
0
LINE
5
2C2
100
AcDbEntity
8
0
100
AcDbLine
62
9
6
CONTINUOUS
10
-0.6436560644
20
22.9987725507
11
1.0472175035
21
22.1533357667
0
LINE
5
2C3
100
AcDbEntity
8
0
100
AcDbLine
62
9
6
CONTINUOUS
10
12.7206621000
20
16.3166134685
11
14.4115356679
21
15.4711766845
0
LINE
5
2C4
100
AcDbEntity
8
0
100
AcDbLine
62
7
6
CONTINUOUS
10
-0.5322384491
20
23.0050411139
11
1.1573498072
21
22.1602469858
0
LINE
5
2C5
100
AcDbEntity
8
0
100
AcDbLine
62
7
6
CONTINUOUS
10
12.8320797153
20
16.3228820317
11
14.5216679716
21
15.4780879035
0
LINE
5
2C6
100
AcDbEntity
8
0
100
AcDbLine
62
7
6
CONTINUOUS
10
21.0548649265
20
15.1660980030
11
20.3021708425
21
16.4643032640
0
LINE
5
2C7
100
AcDbEntity
8
0
100
AcDbLine
62
9
6
CONTINUOUS
10
20.1263073754
20
18.9620947376
11
19.7470682232
21
19.9578476363
0
LINE
5
2C8
100
AcDbEntity
8
0
100
AcDbLine
62
7
6
CONTINUOUS
10
21.2689727509
20
17.3948665815
11
21.0674733930
21
17.9905910073
0
LINE
5
2C9
100
AcDbEntity
8
0
100
AcDbLine
62
9
6
CONTINUOUS
10
29.5461018895
20
-13.4451514468
11
29.5461018895
21
11.3200616035
0
LINE
5
2CA
100
AcDbEntity
8
0
100
AcDbLine
62
9
6
CONTINUOUS
10
29.5461018895
20
13.0925305205
11
29.5461018895
21
16.8999287991
0
LINE
5
2CB
100
AcDbEntity
8
0
100
AcDbLine
62
7
6
CONTINUOUS
10
29.8267620892
20
-13.0978222615
11
29.8267617038
21
11.0798668493
0
LINE
5
2CC
100
AcDbEntity
8
0
100
AcDbLine
62
7
6
CONTINUOUS
10
29.8267620892
20
17.2472579843
11
29.8267616879
21
14.0264757359
0
LINE
5
2CD
100
AcDbEntity
8
0
100
AcDbLine
62
7
6
CONTINUOUS
10
21.0548649265
20
-18.8011143036
11
20.3021708425
21
-19.3466254807
0
LINE
5
2CE
100
AcDbEntity
8
0
100
AcDbLine
62
7
6
CONTINUOUS
10
28.7890538379
20
-14.7111478054
11
21.0548649265
21
-18.8011143036
0
LINE
5
2CF
100
AcDbEntity
8
0
100
AcDbLine
62
7
6
CONTINUOUS
10
14.9439286679
20
-22.1801522066
11
20.3021708425
21
-19.3466254807
0
LINE
5
2D0
100
AcDbEntity
8
0
100
AcDbLine
62
9
6
CONTINUOUS
10
14.9439286679
20
-21.1372481371
11
29.5461018895
21
-13.4451514468
0
LINE
5
2D1
100
AcDbEntity
8
0
100
AcDbLine
62
9
6
CONTINUOUS
10
14.9439286679
20
-21.9365660730
11
29.1319514139
21
-14.4626345458
0
LINE
5
2D2
100
AcDbEntity
8
0
100
AcDbLine
62
9
6
CONTINUOUS
10
14.9439286679
20
-22.4537787503
11
18.9720707932
21
-20.4318755668
0
LINE
5
2D3
100
AcDbEntity
8
0
100
AcDbLine
62
7
6
CONTINUOUS
10
14.9439286679
20
-22.4554468311
11
18.9216917390
21
-20.4588311292
0
LINE
5
2D4
100
AcDbEntity
8
0
100
AcDbLine
62
9
6
CONTINUOUS
10
14.9439286679
20
-22.2159737196
11
19.6361692028
21
-19.8885878227
0
LINE
5
2D5
100
AcDbEntity
8
0
100
AcDbLine
62
9
6
CONTINUOUS
10
14.9439286679
20
-22.3378484473
11
19.7203207704
21
-19.9687227525
0
LINE
5
2D6
100
AcDbEntity
8
0
100
AcDbLine
62
7
6
CONTINUOUS
10
-0.5478805804
20
20.1698319080
11
-1.1701986125
21
20.2997724905
0
LINE
5
2D7
100
AcDbEntity
8
0
100
AcDbLine
62
7
6
CONTINUOUS
10
10.8487237722
20
18.1256589434
11
8.2617695857
21
19.4191360366
0
LINE
5
2D8
100
AcDbEntity
8
0
100
AcDbLine
62
9
6
CONTINUOUS
10
11.4896869670
20
18.4415734490
11
9.3967747360
21
19.4880295645
0
LINE
5
2D9
100
AcDbEntity
8
0
100
AcDbLine
62
7
6
CONTINUOUS
10
11.5404503915
20
18.4665934538
11
9.4810236086
21
19.4963068452
0
LINE
5
2DA
100
AcDbEntity
8
0
100
AcDbLine
62
7
6
CONTINUOUS
10
12.0522375366
20
18.7188403601
11
9.2517190794
21
20.1190995887
0
LINE
5
2DB
100
AcDbEntity
8
0
100
AcDbLine
62
7
6
CONTINUOUS
10
8.8981656888
20
20.8484344733
11
9.2517190794
21
20.6716577780
0
LINE
5
2DC
100
AcDbEntity
8
0
100
AcDbLine
62
9
6
CONTINUOUS
10
28.7890538379
20
-14.7111478054
11
29.1319514139
21
-14.4626345458
0
LINE
5
2DD
100
AcDbEntity
8
0
100
AcDbLine
62
7
6
CONTINUOUS
10
28.8654031341
20
-14.6634943931
11
29.2065190079
21
-14.4162724129
0
LINE
5
2DE
100
AcDbEntity
8
0
100
AcDbLine
62
7
6
CONTINUOUS
10
13.2822277321
20
-25.5942324528
11
12.4690549338
21
-26.1231035833
0
LINE
5
2DF
100
AcDbEntity
8
0
100
AcDbLine
62
9
6
CONTINUOUS
10
14.2368218867
20
-25.2825098351
11
14.9439286679
21
-24.9213987553
0
LINE
5
2E0
100
AcDbEntity
8
0
100
AcDbLine
62
7
6
CONTINUOUS
10
14.1468579187
20
-25.4713199117
11
14.8539647008
21
-25.1102088314
0
LINE
5
2E1
100
AcDbEntity
8
0
100
AcDbLine
62
7
6
CONTINUOUS
10
14.1468531127
20
-25.4713223665
11
14.1448455158
21
-25.4723260739
0
LINE
5
2E2
100
AcDbEntity
8
0
100
AcDbLine
62
9
6
CONTINUOUS
10
12.4690549338
20
-26.1474990885
11
14.2368218867
21
-25.2825098351
0
LINE
5
2E3
100
AcDbEntity
8
0
100
AcDbLine
62
7
6
CONTINUOUS
10
12.3770740148
20
-26.3373175528
11
14.1448409691
21
-25.4723282986
0
LINE
5
2E4
100
AcDbEntity
8
0
100
AcDbLine
62
7
6
CONTINUOUS
10
22.2241869945
20
17.5153587041
11
21.7744423331
21
17.6371065373
0
LINE
5
2E5
100
AcDbEntity
8
0
100
AcDbLine
62
7
6
CONTINUOUS
10
13.4600532329
20
19.4127170185
11
10.6495035859
21
20.8179918420
0
LINE
5
2E6
100
AcDbEntity
8
0
100
AcDbLine
62
7
6
CONTINUOUS
10
19.5143821948
20
16.8581975879
11
20.3021708425
21
16.4643032640
0
LINE
5
2E7
100
AcDbEntity
8
0
100
AcDbLine
62
7
6
CONTINUOUS
10
12.0094355260
20
20.8917400294
11
14.2191764142
21
19.7868695853
0
LINE
5
2E8
100
AcDbEntity
8
0
100
AcDbLine
62
7
6
CONTINUOUS
10
14.9647612373
20
19.4140771737
11
15.1105746473
21
19.3411704687
0
LINE
5
2E9
100
AcDbEntity
8
0
100
AcDbLine
62
7
6
CONTINUOUS
10
9.1419777804
20
22.5887125820
11
9.3224297575
21
22.4984865934
0
LINE
5
2EA
100
AcDbEntity
8
0
100
AcDbLine
62
7
6
CONTINUOUS
10
14.6964412945
20
19.8114808249
11
14.8768932717
21
19.7212548363
0
LINE
5
2EB
100
AcDbEntity
8
0
100
AcDbLine
62
9
6
CONTINUOUS
10
8.3294094363
20
23.1676096063
11
11.3084993372
21
21.6780646558
0
LINE
5
2EC
100
AcDbEntity
8
0
100
AcDbLine
62
9
6
CONTINUOUS
10
15.5511400244
20
19.5567443123
11
18.5302299253
21
18.0671993618
0
LINE
5
2ED
100
AcDbEntity
8
0
100
AcDbLine
62
7
6
CONTINUOUS
10
8.5230524482
20
23.3166590685
11
11.7495423403
21
21.7034141224
0
LINE
5
2EE
100
AcDbEntity
8
0
100
AcDbLine
62
7
6
CONTINUOUS
10
15.9921830274
20
19.5820937789
11
19.2186729196
21
17.9688488328
0
LINE
5
2EF
100
AcDbEntity
8
0
100
AcDbLine
62
7
6
CONTINUOUS
10
21.2794675863
20
17.3896191639
11
21.4576470158
21
17.2250674731
0
LINE
5
2F0
100
AcDbEntity
8
0
100
AcDbLine
62
7
6
CONTINUOUS
10
13.8832684962
20
-27.2275069209
11
14.4115356679
21
-26.9564958623
0
LINE
5
2F1
100
AcDbEntity
8
0
100
AcDbLine
62
7
6
CONTINUOUS
10
12.2819877053
20
-28.0075415206
11
13.8832684962
21
-27.2275069209
0
LINE
5
2F2
100
AcDbEntity
8
0
100
AcDbLine
62
9
6
CONTINUOUS
10
5.6726104374
20
-28.1268018354
11
9.7715458965
21
-26.7539080361
0
LINE
5
2F3
100
AcDbEntity
8
0
100
AcDbLine
62
7
6
CONTINUOUS
10
9.4737085928
20
-27.2247488487
11
5.3704342191
21
-28.5990955404
0
LINE
5
2F4
100
AcDbEntity
8
0
100
AcDbLine
62
7
6
CONTINUOUS
10
10.6495035859
20
20.8179918420
11
12.0094355260
21
20.8917400294
0
LINE
5
2F5
100
AcDbEntity
8
0
100
AcDbLine
62
7
6
CONTINUOUS
10
21.2794675863
20
17.3896191639
11
20.5724986462
21
17.7431036339
0
LINE
5
2F6
100
AcDbEntity
8
0
100
AcDbLine
62
7
6
CONTINUOUS
10
21.7744423331
20
17.6371065373
11
21.0674733930
21
17.9905910073
0
LINE
5
2F7
100
AcDbEntity
8
0
100
AcDbLine
62
7
6
CONTINUOUS
10
20.3746643699
20
18.6536163725
11
20.8069786207
21
18.4374592471
0
LINE
5
2F8
100
AcDbEntity
8
0
100
AcDbLine
62
7
6
CONTINUOUS
10
24.3664047153
20
18.5687437166
11
24.9979360363
21
18.2529780561
0
LINE
5
2F9
100
AcDbEntity
8
0
100
AcDbLine
62
7
6
CONTINUOUS
10
24.5499425563
20
18.4926346487
11
24.8540619403
21
18.3405749567
0
LINE
5
2FA
100
AcDbEntity
8
0
100
AcDbLine
62
9
6
CONTINUOUS
10
29.1319514139
20
18.3315623737
11
28.7890538379
21
18.9229732093
0
LINE
5
2FB
100
AcDbEntity
8
0
100
AcDbLine
62
7
6
CONTINUOUS
10
24.3467051873
20
20.6460540492
11
27.4549792612
21
19.0919170122
0
LINE
5
2FC
100
AcDbEntity
8
0
100
AcDbLine
62
9
6
CONTINUOUS
10
28.7890538379
20
18.9229732093
11
27.9649756032
21
19.3350123266
0
LINE
5
2FD
100
AcDbEntity
8
0
100
AcDbLine
62
9
6
CONTINUOUS
10
23.3021879543
20
21.6664061511
11
22.2625896856
21
22.1862052854
0
LINE
5
2FE
100
AcDbEntity
8
0
100
AcDbLine
62
7
6
CONTINUOUS
10
29.1578459109
20
18.9783769427
11
28.3129433843
21
19.4008282060
0
LINE
5
2FF
100
AcDbEntity
8
0
100
AcDbLine
62
7
6
CONTINUOUS
10
23.8239659344
20
21.6453169309
11
22.6974625661
21
22.2085686151
0
LINE
5
300
100
AcDbEntity
8
0
100
AcDbLine
62
7
6
CONTINUOUS
10
29.4847946626
20
18.4646607312
11
29.2217477263
21
18.9183495855
0
SPLINE
5
301
100
AcDbEntity
8
0
100
AcDbSpline
62
7
6
CONTINUOUS
70
0
71
3
72
8
73
4
74
2
42
0.0000001000
43
0.0000001000
44
0.0000000001
12
-0.0720729465
22
0.0219322224
32
0.0000000000
13
-0.0725144399
23
0.0204766492
33
0.0000000000
40
0.0000000000
40
0.0000000000
40
0.0000000000
40
0.0000000000
40
1.0000000000
40
1.0000000000
40
1.0000000000
40
1.0000000000
10
23.6172396598
20
18.1821819907
30
0.0000000000
10
23.5932153443
20
18.1894927315
30
0.0000000000
10
23.5691138582
20
18.1965577716
30
0.0000000000
10
23.5449423782
20
18.2033833214
30
0.0000000000
11
23.6172396598
21
18.1821819907
31
0.0000000000
11
23.5449423782
21
18.2033833214
31
0.0000000000
0
SPLINE
5
302
100
AcDbEntity
8
0
100
AcDbSpline
62
7
6
CONTINUOUS
70
0
71
3
72
16
73
12
74
10
42
0.0000001000
43
0.0000001000
44
0.0000000001
12
-3.0560647910
22
0.8629724898
32
0.0000000000
13
-2.8084123906
23
-1.4809313851
33
0.0000000000
40
0.0000000000
40
0.0000000000
40
0.0000000000
40
0.0000000000
40
0.0870603950
40
0.2031007763
40
0.3217482206
40
0.4414001586
40
0.5604207594
40
0.6771933564
40
0.7902275173
40
0.8981781335
40
1.0000000000
40
1.0000000000
40
1.0000000000
40
1.0000000000
10
23.5449423782
20
18.2033833214
30
0.0000000000
10
23.4562549756
20
18.2284268966
30
0.0000000000
10
23.2471603942
20
18.2793289984
30
0.0000000000
10
22.9108493230
20
18.3348152198
30
0.0000000000
10
22.5368312561
20
18.3667405322
30
0.0000000000
10
22.1583405259
20
18.3704592546
30
0.0000000000
10
21.7826032284
20
18.3459508572
30
0.0000000000
10
21.4167876316
20
18.2935135603
30
0.0000000000
10
21.0678843572
20
18.2137184744
30
0.0000000000
10
20.7427073876
20
18.1073853740
30
0.0000000000
10
20.5395304812
20
18.0164590979
30
0.0000000000
10
20.4442112174
20
17.9661953653
30
0.0000000000
11
23.5449423782
21
18.2033833214
31
0.0000000000
11
23.2764078435
21
18.2691485744
31
0.0000000000
11
22.9129849376
21
18.3296404942
31
0.0000000000
11
22.5376721596
21
18.3619424045
31
0.0000000000
11
22.1578013051
21
18.3657055648
31
0.0000000000
11
21.7807308453
21
18.3409071422
31
0.0000000000
11
21.4137987822
21
18.2878531130
31
0.0000000000
11
21.0641164646
21
18.2071316939
31
0.0000000000
11
20.7386881984
21
18.0995863376
31
0.0000000000
11
20.4442112174
21
17.9661953653
31
0.0000000000
0
SPLINE
5
303
100
AcDbEntity
8
0
100
AcDbSpline
62
7
6
CONTINUOUS
70
0
71
3
72
8
73
4
74
2
42
0.0000001000
43
0.0000001000
44
0.0000000001
12
-0.0074856961
22
0.0050624254
32
0.0000000000
13
-0.0080013977
23
0.0041120828
33
0.0000000000
40
0.0000000000
40
0.0000000000
40
0.0000000000
40
0.0000000000
40
1.0000000000
40
1.0000000000
40
1.0000000000
40
1.0000000000
10
24.4476256967
20
17.7611945069
30
0.0000000000
10
24.4451304647
20
17.7628819820
30
0.0000000000
10
24.4425416777
20
17.7644210452
30
0.0000000000
10
24.4398745451
20
17.7657917395
30
0.0000000000
11
24.4476256967
21
17.7611945069
31
0.0000000000
11
24.4398745451
21
17.7657917395
31
0.0000000000
0
SPLINE
5
304
100
AcDbEntity
8
0
100
AcDbSpline
62
7
6
CONTINUOUS
70
0
71
3
72
10
73
6
74
4
42
0.0000001000
43
0.0000001000
44
0.0000000001
12
-0.8085733905
22
0.4155424942
32
0.0000000000
13
-0.8134730449
23
0.4058670933
33
0.0000000000
40
0.0000000000
40
0.0000000000
40
0.0000000000
40
0.0000000000
40
0.3545041574
40
0.6877149410
40
1.0000000000
40
1.0000000000
40
1.0000000000
40
1.0000000000
10
24.4398745451
20
17.7657917395
30
0.0000000000
10
24.3443270023
20
17.8148955868
30
0.0000000000
10
24.1588589175
20
17.9099361680
30
0.0000000000
10
23.8887259102
20
18.0472610078
30
0.0000000000
10
23.7139689676
20
18.1351394102
30
0.0000000000
10
23.6292904750
20
18.1773881532
30
0.0000000000
11
24.4398745451
21
17.7657917395
31
0.0000000000
11
24.1530349397
21
17.9127193664
31
0.0000000000
11
23.8829700009
21
18.0499309890
31
0.0000000000
11
23.6292904750
21
18.1773881532
31
0.0000000000
0
SPLINE
5
305
100
AcDbEntity
8
0
100
AcDbSpline
62
7
6
CONTINUOUS
70
0
71
3
72
8
73
4
74
2
42
0.0000001000
43
0.0000001000
44
0.0000000001
12
-0.0115769671
22
0.0057761102
32
0.0000000000
13
-0.0124572512
23
0.0037795811
33
0.0000000000
40
0.0000000000
40
0.0000000000
40
0.0000000000
40
0.0000000000
40
1.0000000000
40
1.0000000000
40
1.0000000000
40
1.0000000000
10
23.6292904750
20
18.1773881532
30
0.0000000000
10
23.6254314859
20
18.1793135233
30
0.0000000000
10
23.6213894931
20
18.1809041583
30
0.0000000000
10
23.6172370760
20
18.1821640187
30
0.0000000000
11
23.6292904750
21
18.1773881532
31
0.0000000000
11
23.6172370760
21
18.1821640187
31
0.0000000000
0
SPLINE
5
306
100
AcDbEntity
8
0
100
AcDbSpline
62
7
6
CONTINUOUS
70
0
71
3
72
8
73
4
74
2
42
0.0000001000
43
0.0000001000
44
0.0000000001
12
0.0822376987
22
-0.0410309548
32
0.0000000000
13
0.0821585581
23
-0.0411893672
33
0.0000000000
40
0.0000000000
40
0.0000000000
40
0.0000000000
40
0.0000000000
40
1.0000000000
40
1.0000000000
40
1.0000000000
40
1.0000000000
10
24.4778186124
20
17.7531240845
30
0.0000000000
10
24.5052311787
20
17.7394470996
30
0.0000000000
10
24.5326298414
20
17.7257422332
30
0.0000000000
10
24.5600160275
20
17.7120124442
30
0.0000000000
11
24.4778186124
21
17.7531240845
31
0.0000000000
11
24.5600160275
21
17.7120124442
31
0.0000000000
0
SPLINE
5
307
100
AcDbEntity
8
0
100
AcDbSpline
62
7
6
CONTINUOUS
70
0
71
3
72
10
73
6
74
4
42
0.0000001000
43
0.0000001000
44
0.0000000001
12
0.0867340293
22
0.0433670146
32
0.0000000000
13
0.0867710934
23
-0.0432928069
33
0.0000000000
40
0.0000000000
40
0.0000000000
40
0.0000000000
40
0.0000000000
40
0.3690647074
40
0.7005601128
40
1.0000000000
40
1.0000000000
40
1.0000000000
40
1.0000000000
10
24.3841531174
20
17.7468136281
30
0.0000000000
10
24.3948232737
20
17.7521487063
30
0.0000000000
10
24.4162515116
20
17.7602483327
30
0.0000000000
10
24.4489664266
20
17.7629975878
30
0.0000000000
10
24.4691577036
20
17.7574452823
30
0.0000000000
10
24.4778186124
20
17.7531240845
30
0.0000000000
11
24.3841531174
21
17.7468136281
31
0.0000000000
11
24.4178143248
21
17.7589693173
31
0.0000000000
11
24.4498909763
21
17.7610741767
31
0.0000000000
11
24.4778186124
21
17.7531240845
31
0.0000000000
0
SPLINE
5
308
100
AcDbEntity
8
0
100
AcDbSpline
62
9
6
CONTINUOUS
70
0
71
3
72
23
73
19
74
17
42
0.0000001000
43
0.0000001000
44
0.0000000001
12
2.2641331530
22
2.9638496663
32
0.0000000000
13
3.5666784067
23
-1.0580344089
33
0.0000000000
40
0.0000000000
40
0.0000000000
40
0.0000000000
40
0.0000000000
40
0.0072598419
40
0.0702171342
40
0.1405273129
40
0.2184560307
40
0.3039540600
40
0.3948193318
40
0.4858686495
40
0.5721284451
40
0.6510352309
40
0.7215668152
40
0.7837055367
40
0.8382242825
40
0.8860759449
40
0.9282903307
40
0.9659194976
40
1.0000000000
40
1.0000000000
40
1.0000000000
40
1.0000000000
10
20.0316406002
20
17.5606895554
30
0.0000000000
10
20.0371196831
20
17.5678619154
30
0.0000000000
10
20.0910551591
20
17.6365000434
30
0.0000000000
10
20.2158730310
20
17.7595967491
30
0.0000000000
10
20.4314446653
20
17.9100631814
30
0.0000000000
10
20.6900936449
20
18.0425133099
30
0.0000000000
10
20.9857923457
20
18.1537420833
30
0.0000000000
10
21.3065132660
20
18.2398523792
30
0.0000000000
10
21.6341871345
20
18.2986759923
30
0.0000000000
10
21.9504558936
20
18.3316695180
30
0.0000000000
10
22.2426973754
20
18.3431930120
30
0.0000000000
10
22.5051602940
20
18.3385281613
30
0.0000000000
10
22.7368320917
20
18.3225162636
30
0.0000000000
10
22.9395487219
20
18.2990126224
30
0.0000000000
10
23.1166633739
20
18.2707897138
30
0.0000000000
10
23.2719779917
20
18.2397086769
30
0.0000000000
10
23.4094064370
20
18.2068325884
30
0.0000000000
10
23.4951332416
20
18.1831103077
30
0.0000000000
10
23.5356513055
20
18.1710908596
30
0.0000000000
11
20.0316406002
21
17.5606895554
31
0.0000000000
11
20.0483627403
21
17.5819788645
31
0.0000000000
11
20.2132831116
21
17.7482926785
31
0.0000000000
11
20.4265317162
21
17.8997736640
31
0.0000000000
11
20.6838078023
21
18.0334208892
31
0.0000000000
11
20.9810647174
21
18.1466116139
31
0.0000000000
11
21.3073146451
21
18.2351335155
31
0.0000000000
11
21.6406244409
21
18.2954917408
31
0.0000000000
11
21.9597807052
21
18.3290177234
31
0.0000000000
11
22.2531071842
21
18.3406468470
31
0.0000000000
11
22.5154640159
21
18.3359624230
31
0.0000000000
11
22.7460846443
21
18.3199668182
31
0.0000000000
11
22.9475533537
21
18.2965407494
31
0.0000000000
11
23.1233478764
21
18.2684639012
31
0.0000000000
11
23.2773323130
21
18.2375842730
31
0.0000000000
11
23.4134730943
21
18.2049746381
31
0.0000000000
11
23.5356513055
21
18.1710908596
31
0.0000000000
0
SPLINE
5
309
100
AcDbEntity
8
0
100
AcDbSpline
62
9
6
CONTINUOUS
70
0
71
3
72
10
73
6
74
4
42
0.0000001000
43
0.0000001000
44
0.0000000001
12
0.4054538405
22
0.4700613677
32
0.0000000000
13
0.5484975081
23
0.2893331844
33
0.0000000000
40
0.0000000000
40
0.0000000000
40
0.0000000000
40
0.0000000000
40
0.3483810829
40
0.8009149622
40
1.0000000000
40
1.0000000000
40
1.0000000000
40
1.0000000000
10
19.9524573327
20
17.5934386885
30
0.0000000000
10
19.9995414820
20
17.6480255179
30
0.0000000000
10
20.1195741699
20
17.7631124538
30
0.0000000000
10
20.2901660164
20
17.8810211258
30
0.0000000000
10
20.4076780287
20
17.9469390788
30
0.0000000000
10
20.4440772444
20
17.9661397148
30
0.0000000000
11
19.9524573327
21
17.5934386885
31
0.0000000000
11
20.1071050856
21
17.7442387709
31
0.0000000000
11
20.3364654590
21
17.9056413577
31
0.0000000000
11
20.4440772444
21
17.9661397148
31
0.0000000000
0
SPLINE
5
30A
100
AcDbEntity
8
0
100
AcDbSpline
62
9
6
CONTINUOUS
70
0
71
3
72
8
73
4
74
2
42
0.0000001000
43
0.0000001000
44
0.0000000001
12
0.0612270666
22
-0.0501234055
32
0.0000000000
13
0.0584790858
23
-0.0533328571
33
0.0000000000
40
0.0000000000
40
0.0000000000
40
0.0000000000
40
0.0000000000
40
1.0000000000
40
1.0000000000
40
1.0000000000
40
1.0000000000
10
24.4778186124
20
17.7531240845
30
0.0000000000
10
24.4982276346
20
17.7364162827
30
0.0000000000
10
24.5182198842
20
17.7191872474
30
0.0000000000
10
24.5377129128
20
17.7014096284
30
0.0000000000
11
24.4778186124
21
17.7531240845
31
0.0000000000
11
24.5377129128
21
17.7014096284
31
0.0000000000
0
SPLINE
5
30B
100
AcDbEntity
8
0
100
AcDbSpline
62
7
6
CONTINUOUS
70
0
71
3
72
10
73
6
74
4
42
0.0000001000
43
0.0000001000
44
0.0000000001
12
-0.0809117024
22
0.0245489425
32
0.0000000000
13
-0.0751620072
23
-0.0375810036
33
0.0000000000
40
0.0000000000
40
0.0000000000
40
0.0000000000
40
0.0000000000
40
0.1915809123
40
0.5741137005
40
1.0000000000
40
1.0000000000
40
1.0000000000
40
1.0000000000
10
23.6172370760
20
18.1821640187
30
0.0000000000
10
23.6120700301
20
18.1837317216
30
0.0000000000
10
23.5960734774
20
18.1868948519
30
0.0000000000
10
23.5677233742
20
18.1845124014
30
0.0000000000
10
23.5462951363
20
18.1764127750
30
0.0000000000
10
23.5356249799
20
18.1710776968
30
0.0000000000
11
23.6172370760
21
18.1821640187
31
0.0000000000
11
23.6013628389
21
18.1853382454
31
0.0000000000
11
23.5692861874
21
18.1832333860
31
0.0000000000
11
23.5356249799
21
18.1710776968
31
0.0000000000
0
SPLINE
5
30C
100
AcDbEntity
8
0
100
AcDbSpline
62
9
6
CONTINUOUS
70
0
71
3
72
9
73
5
74
3
42
0.0000001000
43
0.0000001000
44
0.0000000001
12
0.0882835829
22
-0.0744019160
32
0.0000000000
13
0.0815041333
23
-0.0818172372
33
0.0000000000
40
0.0000000000
40
0.0000000000
40
0.0000000000
40
0.0000000000
40
0.7898527816
40
1.0000000000
40
1.0000000000
40
1.0000000000
40
1.0000000000
10
24.3841820133
20
17.7468280761
30
0.0000000000
10
24.4074256911
20
17.7272392226
30
0.0000000000
10
24.4360623507
20
17.7014790832
30
0.0000000000
10
24.4634991505
20
17.6744737263
30
0.0000000000
10
24.4692084395
20
17.6687425047
30
0.0000000000
11
24.3841820133
21
17.7468280761
31
0.0000000000
11
24.4519146282
21
17.6857689365
31
0.0000000000
11
24.4692084395
21
17.6687425047
31
0.0000000000
0
SPLINE
5
30D
100
AcDbEntity
8
0
100
AcDbSpline
62
7
6
CONTINUOUS
70
0
71
3
72
12
73
8
74
6
42
0.0000001000
43
0.0000001000
44
0.0000000001
12
-0.0415833587
22
-1.3696275630
32
0.0000000000
13
1.2286822693
23
-0.6128006556
33
0.0000000000
40
0.0000000000
40
0.0000000000
40
0.0000000000
40
0.0000000000
40
0.2056149888
40
0.4432371254
40
0.6673793158
40
0.8839915353
40
1.0000000000
40
1.0000000000
40
1.0000000000
40
1.0000000000
10
-10.5335573784
20
-20.2010174525
30
0.0000000000
10
-10.5364074324
20
-20.2948894379
30
0.0000000000
10
-10.5246528073
20
-20.4982669286
30
0.0000000000
10
-10.4403759621
20
-20.7940030153
30
0.0000000000
10
-10.2789982423
20
-21.0624111537
30
0.0000000000
10
-10.0917541855
20
-21.2384907534
30
0.0000000000
10
-9.9604550953
20
-21.3167405541
30
0.0000000000
10
-9.9129425808
20
-21.3404372419
30
0.0000000000
11
-10.5335573784
21
-20.2010174525
31
0.0000000000
11
-10.5159861422
21
-20.4820815970
31
0.0000000000
11
-10.4250263674
21
-20.7941720336
31
0.0000000000
11
-10.2659884369
21
-21.0563392749
31
0.0000000000
11
-10.0496775254
21
-21.2588805849
31
0.0000000000
11
-9.9129425808
21
-21.3404372419
31
0.0000000000
0
SPLINE
5
30E
100
AcDbEntity
8
0
100
AcDbSpline
62
7
6
CONTINUOUS
70
0
71
3
72
11
73
7
74
5
42
0.0000001000
43
0.0000001000
44
0.0000000001
12
-4.7974525651
22
-36.3671128925
32
0.0000000000
13
-1.1221648316
23
-36.6650161808
33
0.0000000000
40
0.0000000000
40
0.0000000000
40
0.0000000000
40
0.0000000000
40
0.2535853727
40
0.5061225525
40
0.7556141734
40
1.0000000000
40
1.0000000000
40
1.0000000000
40
1.0000000000
10
-7.5265656071
20
16.3434015437
30
0.0000000000
10
-7.9320868726
20
13.2693455851
30
0.0000000000
10
-8.6685945724
20
7.1240577336
30
0.0000000000
10
-9.5429367081
20
-2.0745933999
30
0.0000000000
10
-10.1774615934
20
-11.1801598697
30
0.0000000000
10
-10.4421456985
20
-17.2139954442
30
0.0000000000
10
-10.5335594251
20
-20.2007988725
30
0.0000000000
11
-7.5265656071
21
16.3434015437
31
0.0000000000
11
-8.6322487092
21
7.1072847422
31
0.0000000000
11
-9.5074572881
21
-2.1148872943
31
0.0000000000
11
-10.1422059180
21
-11.2447396749
31
0.0000000000
11
-10.5335594251
21
-20.2007988725
31
0.0000000000
0
SPLINE
5
30F
100
AcDbEntity
8
0
100
AcDbSpline
62
7
6
CONTINUOUS
70
0
71
3
72
13
73
9
74
7
42
0.0000001000
43
0.0000001000
44
0.0000000001
12
-1.6739597533
22
-0.6850692531
32
0.0000000000
13
-0.2362863265
23
-1.7919720048
33
0.0000000000
40
0.0000000000
40
0.0000000000
40
0.0000000000
40
0.0000000000
40
0.1239727300
40
0.3003550462
40
0.4838730509
40
0.6718874797
40
0.8596869718
40
1.0000000000
40
1.0000000000
40
1.0000000000
40
1.0000000000
10
-6.5139820210
20
17.7486207645
30
0.0000000000
10
-6.5831571412
20
17.7203107960
30
0.0000000000
10
-6.7451244182
20
17.6370137641
30
0.0000000000
10
-6.9757301363
20
17.4559440583
30
0.0000000000
10
-7.1922734915
20
17.2046527390
30
0.0000000000
10
-7.3644400083
20
16.9133328272
30
0.0000000000
10
-7.4751317515
20
16.6214769677
30
0.0000000000
10
-7.5155278492
20
16.4271269531
30
0.0000000000
10
-7.5265791991
20
16.3433146137
30
0.0000000000
11
-6.5139820210
21
17.7486207645
31
0.0000000000
11
-6.7136555867
21
17.6465910384
31
0.0000000000
11
-6.9652955953
21
17.4513165509
31
0.0000000000
11
-7.1825732053
21
17.2010763050
31
0.0000000000
11
-7.3557263932
21
16.9090222307
31
0.0000000000
11
-7.4754968754
21
16.5917380962
31
0.0000000000
11
-7.5265791991
21
16.3433146137
31
0.0000000000
0
SPLINE
5
310
100
AcDbEntity
8
0
100
AcDbSpline
62
7
6
CONTINUOUS
70
0
71
3
72
10
73
6
74
4
42
0.0000001000
43
0.0000001000
44
0.0000000001
12
0.1648701004
22
0.0674888172
32
0.0000000000
13
0.1772040396
23
-0.0168325426
33
0.0000000000
40
0.0000000000
40
0.0000000000
40
0.0000000000
40
0.0000000000
40
0.1429104949
40
0.7328294594
40
1.0000000000
40
1.0000000000
40
1.0000000000
40
1.0000000000
10
-2.5378485356
20
19.3739528572
30
0.0000000000
10
-2.5299946463
20
19.3771678106
30
0.0000000000
10
-2.4891281641
20
19.3921895450
30
0.0000000000
10
-2.4298780789
20
19.4019378629
30
0.0000000000
10
-2.3789944490
20
19.4000328718
30
0.0000000000
10
-2.3632132160
20
19.3985338187
30
0.0000000000
11
-2.5378485356
21
19.3739528572
31
0.0000000000
11
-2.5139586250
21
19.3827270527
31
0.0000000000
11
-2.4107073586
21
19.4002235493
31
0.0000000000
11
-2.3632132160
21
19.3985338187
31
0.0000000000
0
SPLINE
5
311
100
AcDbEntity
8
0
100
AcDbSpline
62
7
6
CONTINUOUS
70
0
71
3
72
11
73
7
74
5
42
0.0000001000
43
0.0000001000
44
0.0000000001
12
0.7998423507
22
-0.4008258145
32
0.0000000000
13
0.8475704816
23
0.2832888744
33
0.0000000000
40
0.0000000000
40
0.0000000000
40
0.0000000000
40
0.0000000000
40
0.1416224029
40
0.4455404827
40
0.7603309015
40
1.0000000000
40
1.0000000000
40
1.0000000000
40
1.0000000000
10
4.5008307056
20
-28.5473480188
30
0.0000000000
10
4.5385892374
20
-28.5662699905
30
0.0000000000
10
4.6609538439
20
-28.6188661888
30
0.0000000000
10
4.8837897642
20
-28.6686872814
30
0.0000000000
10
5.1414103622
20
-28.6610710368
30
0.0000000000
10
5.3027175074
20
-28.6217137640
30
0.0000000000
10
5.3704296585
20
-28.5990819010
30
0.0000000000
11
4.5008307056
21
-28.5473480188
31
0.0000000000
11
4.6172103263
21
-28.5973426223
31
0.0000000000
11
4.8816554338
21
-28.6568680272
31
0.0000000000
11
5.1623122474
21
-28.6493041455
31
0.0000000000
11
5.3704296585
21
-28.5990819010
31
0.0000000000
0
SPLINE
5
312
100
AcDbEntity
8
0
100
AcDbSpline
62
7
6
CONTINUOUS
70
0
71
3
72
14
73
10
74
8
42
0.0000001000
43
0.0000001000
44
0.0000000001
12
0.8233270899
22
-0.6449508420
32
0.0000000000
13
-0.0856248164
23
-1.0405700575
33
0.0000000000
40
0.0000000000
40
0.0000000000
40
0.0000000000
40
0.0000000000
40
0.1264804361
40
0.2679413604
40
0.4151365638
40
0.5651055461
40
0.7146329249
40
0.8605431962
40
1.0000000000
40
1.0000000000
40
1.0000000000
40
1.0000000000
10
12.4916842023
20
11.9900278904
30
0.0000000000
10
12.5263957921
20
11.9628366691
30
0.0000000000
10
12.5948750146
20
11.8990244924
30
0.0000000000
10
12.6851076026
20
11.7855224525
30
0.0000000000
10
12.7629104713
20
11.6536553974
30
0.0000000000
10
12.8239493731
20
11.5102087523
30
0.0000000000
10
12.8659442571
20
11.3605286163
30
0.0000000000
10
12.8873252313
20
11.2102499884
30
0.0000000000
10
12.8872724862
20
11.1104861217
30
0.0000000000
10
12.8832921652
20
11.0621145969
30
0.0000000000
11
12.4916842023
21
11.9900278904
31
0.0000000000
11
12.5887645239
21
11.9004875212
31
0.0000000000
11
12.6810897702
21
11.7852026402
31
0.0000000000
11
12.7594486417
21
11.6529950656
31
0.0000000000
11
12.8208285197
21
11.5089464108
31
0.0000000000
11
12.8628705968
21
11.3585941888
31
0.0000000000
11
12.8839608682
21
11.2077180966
31
0.0000000000
11
12.8832921652
21
11.0621145969
31
0.0000000000
0
SPLINE
5
313
100
AcDbEntity
8
0
100
AcDbSpline
62
7
6
CONTINUOUS
70
0
71
3
72
12
73
8
74
6
42
0.0000001000
43
0.0000001000
44
0.0000000001
12
-0.0482801368
22
-0.5867325250
32
0.0000000000
13
-0.5600545235
23
-0.1876818309
33
0.0000000000
40
0.0000000000
40
0.0000000000
40
0.0000000000
40
0.0000000000
40
0.2320090473
40
0.4466063457
40
0.6441558558
40
0.8280564212
40
1.0000000000
40
1.0000000000
40
1.0000000000
40
1.0000000000
10
9.7715458965
20
-26.7539080361
30
0.0000000000
10
9.7678120869
20
-26.7992837875
30
0.0000000000
10
9.7539016266
20
-26.8863107615
30
0.0000000000
10
9.7113216042
20
-27.0061808983
30
0.0000000000
10
9.6488728072
20
-27.1063645166
30
0.0000000000
10
9.5689626635
20
-27.1819129986
30
0.0000000000
10
9.5057989983
20
-27.2139945416
30
0.0000000000
10
9.4736997386
20
-27.2247514368
30
0.0000000000
11
9.7715458965
21
-26.7539080361
31
0.0000000000
11
9.7491462726
21
-26.8886461457
31
0.0000000000
11
9.7058739029
21
-27.0073410568
31
0.0000000000
11
9.6433884155
21
-27.1054296085
31
0.0000000000
11
9.5640899114
21
-27.1791390717
31
0.0000000000
11
9.4736997386
21
-27.2247514368
31
0.0000000000
0
SPLINE
5
314
100
AcDbEntity
8
0
100
AcDbSpline
62
9
6
CONTINUOUS
70
0
71
3
72
12
73
8
74
6
42
0.0000001000
43
0.0000001000
44
0.0000000001
12
-0.8899882726
22
0.4438464130
32
0.0000000000
13
0.0296959953
23
0.9888933726
33
0.0000000000
40
0.0000000000
40
0.0000000000
40
0.0000000000
40
0.0000000000
40
0.0680071200
40
0.2683464222
40
0.4867261311
40
0.7301132744
40
1.0000000000
40
1.0000000000
40
1.0000000000
40
1.0000000000
10
-9.9139672020
20
-21.3398931755
30
0.0000000000
10
-9.9341423818
20
-21.3298316034
30
0.0000000000
10
-10.0113298438
20
-21.2853436794
30
0.0000000000
10
-10.1292212525
20
-21.1719553075
30
0.0000000000
10
-10.2342468547
20
-20.9773099947
30
0.0000000000
10
-10.2936735126
20
-20.7415052507
30
0.0000000000
10
-10.3019072320
20
-20.5713763815
30
0.0000000000
10
-10.2992357137
20
-20.4824133167
30
0.0000000000
11
-9.9139672020
21
-21.3398931755
31
0.0000000000
11
-9.9724827124
21
-21.3061246442
31
0.0000000000
11
-10.1168392528
21
-21.1703092452
31
0.0000000000
11
-10.2222863662
21
-20.9817377779
31
0.0000000000
11
-10.2839985875
21
-20.7489877062
31
0.0000000000
11
-10.2992357137
21
-20.4824133167
31
0.0000000000
0
SPLINE
5
315
100
AcDbEntity
8
0
100
AcDbSpline
62
9
6
CONTINUOUS
70
0
71
3
72
10
73
6
74
4
42
0.0000001000
43
0.0000001000
44
0.0000000001
12
-0.0090685899
22
-0.3894263515
32
0.0000000000
13
0.3419560869
23
-0.1714885706
33
0.0000000000
40
0.0000000000
40
0.0000000000
40
0.0000000000
40
0.0000000000
40
0.1780289934
40
0.5391355074
40
1.0000000000
40
1.0000000000
40
1.0000000000
40
1.0000000000
10
-10.5327790086
20
-20.2010355243
30
0.0000000000
10
-10.5333171660
20
-20.2241452514
30
0.0000000000
10
-10.5230975573
20
-20.2947007377
30
0.0000000000
10
-10.4411913960
20
-20.3995822487
30
0.0000000000
10
-10.3517674916
20
-20.4560689729
30
0.0000000000
10
-10.2992356854
20
-20.4824133039
30
0.0000000000
11
-10.5327790086
21
-20.2010355243
31
0.0000000000
11
-10.5228671951
21
-20.2692141177
31
0.0000000000
11
-10.4450969987
21
-20.3833829692
31
0.0000000000
11
-10.2992356854
21
-20.4824133039
31
0.0000000000
0
SPLINE
5
316
100
AcDbEntity
8
0
100
AcDbSpline
62
9
6
CONTINUOUS
70
0
71
3
72
10
73
6
74
4
42
0.0000001000
43
0.0000001000
44
0.0000000001
12
-0.0378159873
22
-0.3739720183
32
0.0000000000
13
0.3319761415
23
-0.1654463110
33
0.0000000000
40
0.0000000000
40
0.0000000000
40
0.0000000000
40
0.0000000000
40
0.1876742451
40
0.5314319164
40
1.0000000000
40
1.0000000000
40
1.0000000000
40
1.0000000000
10
-7.5256287943
20
16.3432182644
30
0.0000000000
10
-7.5279944899
20
16.3198232923
30
0.0000000000
10
-7.5173947800
20
16.2501001432
30
0.0000000000
10
-7.4282457285
20
16.1572345175
30
0.0000000000
10
-7.3425598757
20
16.1049730874
30
0.0000000000
10
-7.2907087343
20
16.0791321338
30
0.0000000000
11
-7.5256287943
21
16.3432182644
31
0.0000000000
11
-7.5159213645
21
16.2731186690
31
0.0000000000
11
-7.4369964789
21
16.1729753945
31
0.0000000000
11
-7.2907087343
21
16.0791321338
31
0.0000000000
0
SPLINE
5
317
100
AcDbEntity
8
0
100
AcDbSpline
62
9
6
CONTINUOUS
70
0
71
3
72
14
73
10
74
8
42
0.0000001000
43
0.0000001000
44
0.0000000001
12
-0.9091137485
22
-0.3433521051
32
0.0000000000
13
-0.1290907236
23
-0.9631791427
33
0.0000000000
40
0.0000000000
40
0.0000000000
40
0.0000000000
40
0.0000000000
40
0.1225358986
40
0.2571916990
40
0.4014272161
40
0.5518669271
40
0.7046945153
40
0.8555514565
40
1.0000000000
40
1.0000000000
40
1.0000000000
40
1.0000000000
10
8.7695495994
20
9.5092749300
30
0.0000000000
10
8.7324165760
20
9.4952506104
30
0.0000000000
10
8.6578099333
20
9.4566503148
30
0.0000000000
10
8.5546951516
20
9.3765201939
30
0.0000000000
10
8.4590855681
20
9.2748167361
30
0.0000000000
10
8.3752441114
20
9.1560289685
30
0.0000000000
10
8.3067912025
20
9.0253343944
30
0.0000000000
10
8.2567634726
20
8.8886285396
30
0.0000000000
10
8.2365370022
20
8.7947167933
30
0.0000000000
10
8.2303213465
20
8.7483401852
30
0.0000000000
11
8.7695495994
21
9.5092749300
31
0.0000000000
11
8.6632646044
21
9.4555777559
31
0.0000000000
11
8.5593778651
21
9.3760089791
31
0.0000000000
11
8.4629622092
21
9.2742702846
31
0.0000000000
11
8.3784241990
21
9.1549949762
31
0.0000000000
11
8.3095013379
21
9.0234396666
31
0.0000000000
11
8.2593728569
21
8.8856749118
31
0.0000000000
11
8.2303213465
21
8.7483401852
31
0.0000000000
0
SPLINE
5
318
100
AcDbEntity
8
0
100
AcDbSpline
62
9
6
CONTINUOUS
70
0
71
3
72
14
73
10
74
8
42
0.0000001000
43
0.0000001000
44
0.0000000001
12
-1.9401208932
22
-0.7482975731
32
0.0000000000
13
-0.2750050183
23
-2.0611624337
33
0.0000000000
40
0.0000000000
40
0.0000000000
40
0.0000000000
40
0.0000000000
40
0.1224926948
40
0.2567857674
40
0.4008013660
40
0.5511217200
40
0.7039285276
40
0.8548756369
40
1.0000000000
40
1.0000000000
40
1.0000000000
40
1.0000000000
10
8.2630715534
20
10.5105552143
30
0.0000000000
10
8.1838546746
20
10.4800015522
30
0.0000000000
10
8.0251199741
20
10.3962498176
30
0.0000000000
10
7.8061528087
20
10.2233850816
30
0.0000000000
10
7.6033834196
20
10.0047538072
30
0.0000000000
10
7.4255295751
20
9.7498165762
30
0.0000000000
10
7.2802145836
20
9.4696143747
30
0.0000000000
10
7.1737485241
20
9.1763542648
30
0.0000000000
10
7.1305647515
20
8.9748495554
30
0.0000000000
10
7.1172614422
20
8.8751412602
30
0.0000000000
11
8.2630715534
21
10.5105552143
31
0.0000000000
11
8.0366120419
21
10.3939548239
31
0.0000000000
11
7.8162116566
21
10.2224738100
31
0.0000000000
11
7.6116726350
21
10.0037363892
31
0.0000000000
11
7.4323129734
21
9.7477353480
31
0.0000000000
11
7.2859876152
21
9.4656814989
31
0.0000000000
11
7.1793957687
21
9.1704509704
31
0.0000000000
11
7.1172614422
21
8.8751412602
31
0.0000000000
0
SPLINE
5
319
100
AcDbEntity
8
0
100
AcDbSpline
62
9
6
CONTINUOUS
70
0
71
3
72
12
73
8
74
6
42
0.0000001000
43
0.0000001000
44
0.0000000001
12
0.0806114601
22
1.1729478398
32
0.0000000000
13
-1.0449053324
23
0.5389598210
33
0.0000000000
40
0.0000000000
40
0.0000000000
40
0.0000000000
40
0.0000000000
40
0.2000491317
40
0.4115329946
40
0.6226657881
40
0.8217414676
40
1.0000000000
40
1.0000000000
40
1.0000000000
40
1.0000000000
10
8.7695495994
20
9.5092749300
30
0.0000000000
10
8.7749250169
20
9.5874906622
30
0.0000000000
10
8.7651078720
20
9.7501556717
30
0.0000000000
10
8.7000424192
20
9.9868799650
30
0.0000000000
10
8.5899348975
20
10.2061658327
30
0.0000000000
10
8.4449755441
20
10.3877172105
30
0.0000000000
10
8.3251593189
20
10.4785304861
30
0.0000000000
10
8.2630715553
20
10.5105552150
30
0.0000000000
11
8.7695495994
21
9.5092749300
31
0.0000000000
11
8.7575387935
21
9.7441687433
31
0.0000000000
11
8.6923209733
21
9.9841079157
31
0.0000000000
11
8.5802768913
21
10.2056145855
31
0.0000000000
11
8.4323695401
21
10.3870139049
31
0.0000000000
11
8.2630715553
21
10.5105552150
31
0.0000000000
0
SPLINE
5
31A
100
AcDbEntity
8
0
100
AcDbSpline
62
9
6
CONTINUOUS
70
0
71
3
72
10
73
6
74
4
42
0.0000001000
43
0.0000001000
44
0.0000000001
12
-2.5659659345
22
-19.1673864558
32
0.0000000000
13
-1.5407986035
23
-19.2773797476
33
0.0000000000
40
0.0000000000
40
0.0000000000
40
0.0000000000
40
0.0000000000
40
0.4814299793
40
0.9575195083
40
1.0000000000
40
1.0000000000
40
1.0000000000
40
1.0000000000
10
8.2303213465
20
8.7483401852
30
0.0000000000
10
7.8185437043
20
5.6724220306
30
0.0000000000
10
7.0753647960
20
-0.4557372750
30
0.0000000000
10
6.4624915603
20
-6.8733568612
30
0.0000000000
10
6.1922437276
20
-10.2052672133
30
0.0000000000
10
6.1704257668
20
-10.4782380699
30
0.0000000000
11
8.2303213465
21
8.7483401852
31
0.0000000000
11
7.1107422140
21
-0.4941725929
31
0.0000000000
11
6.2368395601
21
-9.6594031852
31
0.0000000000
11
6.1704257668
21
-10.4782380699
31
0.0000000000
0
SPLINE
5
31B
100
AcDbEntity
8
0
100
AcDbSpline
62
9
6
CONTINUOUS
70
0
71
3
72
8
73
4
74
2
42
0.0000001000
43
0.0000001000
44
0.0000000001
12
-0.0757180019
22
-0.9473299575
32
0.0000000000
13
-0.0731406664
23
-0.9475329819
33
0.0000000000
40
0.0000000000
40
0.0000000000
40
0.0000000000
40
0.0000000000
40
1.0000000000
40
1.0000000000
40
1.0000000000
40
1.0000000000
10
6.1704257668
20
-10.4782380699
30
0.0000000000
10
6.1451864329
20
-10.7940147225
30
0.0000000000
10
6.1203757887
20
-11.1098257299
30
0.0000000000
10
6.0959955666
20
-11.4256700572
30
0.0000000000
11
6.1704257668
21
-10.4782380699
31
0.0000000000
11
6.0959955666
21
-11.4256700572
31
0.0000000000
0
SPLINE
5
31C
100
AcDbEntity
8
0
100
AcDbSpline
62
9
6
CONTINUOUS
70
0
71
3
72
9
73
5
74
3
42
0.0000001000
43
0.0000001000
44
0.0000000001
12
-1.2555958332
22
-16.2661693321
32
0.0000000000
13
-0.4675568977
23
-16.3074421576
33
0.0000000000
40
0.0000000000
40
0.0000000000
40
0.0000000000
40
0.0000000000
40
0.4491293458
40
1.0000000000
40
1.0000000000
40
1.0000000000
40
1.0000000000
10
6.0959955666
20
-11.4256700572
30
0.0000000000
10
5.9080205882
20
-13.8608747210
30
0.0000000000
10
5.5464588539
20
-19.2873413411
30
0.0000000000
10
5.3156789025
20
-24.7212752671
30
0.0000000000
10
5.2298244445
20
-27.7157057102
30
0.0000000000
11
6.0959955666
21
-11.4256700572
31
0.0000000000
11
5.6096255488
21
-18.7367518113
31
0.0000000000
11
5.2298244445
21
-27.7157057102
31
0.0000000000
0
SPLINE
5
31D
100
AcDbEntity
8
0
100
AcDbSpline
62
9
6
CONTINUOUS
70
0
71
3
72
11
73
7
74
5
42
0.0000001000
43
0.0000001000
44
0.0000000001
12
-4.8696472421
22
-36.3762166907
32
0.0000000000
13
-1.0519168233
23
-36.6856385523
33
0.0000000000
40
0.0000000000
40
0.0000000000
40
0.0000000000
40
0.0000000000
40
0.2543544569
40
0.5058861824
40
0.7544724660
40
1.0000000000
40
1.0000000000
40
1.0000000000
40
1.0000000000
10
7.1172614422
20
8.8751412602
30
0.0000000000
10
6.7043892824
20
5.7909903138
30
0.0000000000
10
5.9592358646
20
-0.3535560303
30
0.0000000000
10
5.0816982819
20
-9.5426326686
30
0.0000000000
10
4.4513743540
20
-18.6437537381
30
0.0000000000
10
4.1948333357
20
-24.6839572949
30
0.0000000000
10
4.1087418212
20
-27.6864020841
30
0.0000000000
11
7.1172614422
21
8.8751412602
31
0.0000000000
11
5.9947041242
21
-0.3921085687
31
0.0000000000
11
5.1184729210
21
-9.5818237480
31
0.0000000000
11
4.4895772904
21
-18.6834168849
31
0.0000000000
11
4.1087418212
21
-27.6864020841
31
0.0000000000
0
SPLINE
5
31E
100
AcDbEntity
8
0
100
AcDbSpline
62
9
6
CONTINUOUS
70
0
71
3
72
12
73
8
74
6
42
0.0000001000
43
0.0000001000
44
0.0000000001
12
-1.0990739366
22
-0.2998090052
32
0.0000000000
13
-1.0182940549
23
0.5108093339
33
0.0000000000
40
0.0000000000
40
0.0000000000
40
0.0000000000
40
0.0000000000
40
0.1779729453
40
0.3834104672
40
0.6004637722
40
0.8115621468
40
1.0000000000
40
1.0000000000
40
1.0000000000
40
1.0000000000
10
8.2303213465
20
8.7483401852
30
0.0000000000
10
8.1651195380
20
8.7305542213
30
0.0000000000
10
8.0201990191
20
8.7086916538
30
0.0000000000
10
7.7916952163
20
8.7072289843
30
0.0000000000
10
7.5520427898
20
8.7347174946
30
0.0000000000
10
7.3236956047
20
8.7886311936
30
0.0000000000
10
7.1812231766
20
8.8430559943
30
0.0000000000
10
7.1172614614
20
8.8751412657
30
0.0000000000
11
8.2303213465
21
8.7483401852
31
0.0000000000
11
8.0303678576
21
8.7147671390
31
0.0000000000
11
7.7963452855
21
8.7118345805
31
0.0000000000
11
7.5506603851
21
8.7398232906
31
0.0000000000
11
7.3168365343
21
8.7960534590
31
0.0000000000
11
7.1172614614
21
8.8751412657
31
0.0000000000
0
SPLINE
5
31F
100
AcDbEntity
8
0
100
AcDbSpline
62
9
6
CONTINUOUS
70
0
71
3
72
14
73
10
74
8
42
0.0000001000
43
0.0000001000
44
0.0000000001
12
-0.0208345431
22
-0.7300928320
32
0.0000000000
13
0.6926269620
23
0.2318135307
33
0.0000000000
40
0.0000000000
40
0.0000000000
40
0.0000000000
40
0.0000000000
40
0.1703957910
40
0.3254629346
40
0.4656133219
40
0.5952951119
40
0.7223134916
40
0.8551627289
40
1.0000000000
40
1.0000000000
40
1.0000000000
40
1.0000000000
10
5.2298244445
20
-27.7157057102
30
0.0000000000
10
5.2286410717
20
-27.7571739587
30
0.0000000000
10
5.2327641513
20
-27.8368225985
30
0.0000000000
10
5.2615033257
20
-27.9474312362
30
0.0000000000
10
5.3121735935
20
-28.0391610940
30
0.0000000000
10
5.3836365440
20
-28.1068067245
30
0.0000000000
10
5.4724130611
20
-28.1453487063
30
0.0000000000
10
5.5722727457
20
-28.1525604573
30
0.0000000000
10
5.6391710377
20
-28.1379935818
30
0.0000000000
10
5.6726104374
20
-28.1268018354
30
0.0000000000
11
5.2298244445
21
-27.7157057102
31
0.0000000000
11
5.2373345554
21
-27.8399342992
31
0.0000000000
11
5.2671098539
21
-27.9492098480
31
0.0000000000
11
5.3178495271
21
-28.0381140985
31
0.0000000000
11
5.3872490330
21
-28.1025754266
31
0.0000000000
11
5.4722546169
21
-28.1397355248
31
0.0000000000
11
5.5689439494
21
-28.1478801897
31
0.0000000000
11
5.6726104374
21
-28.1268018354
31
0.0000000000
0
SPLINE
5
320
100
AcDbEntity
8
0
100
AcDbSpline
62
9
6
CONTINUOUS
70
0
71
3
72
12
73
8
74
6
42
0.0000001000
43
0.0000001000
44
0.0000000001
12
-0.0289823089
22
-0.9952761399
32
0.0000000000
13
0.8947565630
23
-0.4481282193
33
0.0000000000
40
0.0000000000
40
0.0000000000
40
0.0000000000
40
0.0000000000
40
0.2685177732
40
0.5113770536
40
0.7302807325
40
0.9321941610
40
1.0000000000
40
1.0000000000
40
1.0000000000
40
1.0000000000
10
4.1087418212
20
-27.6864020841
30
0.0000000000
10
4.1061477328
20
-27.7754851951
30
0.0000000000
10
4.1148060952
20
-27.9460891573
30
0.0000000000
10
4.1757125566
20
-28.1826996171
30
0.0000000000
10
4.2829844885
20
-28.3783556663
30
0.0000000000
10
4.4026480315
20
-28.4922412094
30
0.0000000000
10
4.4807100228
20
-28.5372223306
30
0.0000000000
10
4.5009332626
20
-28.5473509006
30
0.0000000000
11
4.1087418212
21
-27.6864020841
31
0.0000000000
11
4.1246124889
21
-27.9532932444
31
0.0000000000
11
4.1877029320
21
-28.1867324270
31
0.0000000000
11
4.2952123217
21
-28.3763350325
31
0.0000000000
11
4.4422202559
21
-28.5134761283
31
0.0000000000
11
4.5009332626
21
-28.5473509006
31
0.0000000000
0
SPLINE
5
321
100
AcDbEntity
8
0
100
AcDbSpline
62
9
6
CONTINUOUS
70
0
71
3
72
12
73
8
74
6
42
0.0000001000
43
0.0000001000
44
0.0000000001
12
-1.0529125290
22
-0.4617375457
32
0.0000000000
13
-1.0289427320
23
0.5129358723
33
0.0000000000
40
0.0000000000
40
0.0000000000
40
0.0000000000
40
0.0000000000
40
0.1844785665
40
0.3915931586
40
0.6068979212
40
0.8145469726
40
1.0000000000
40
1.0000000000
40
1.0000000000
40
1.0000000000
10
5.2298244444
20
-27.7157057102
30
0.0000000000
10
5.1650778464
20
-27.7440992704
30
0.0000000000
10
5.0200157626
20
-27.7871232556
30
0.0000000000
10
4.7883418689
20
-27.8150462874
30
0.0000000000
10
4.5460427048
20
-27.8086901055
30
0.0000000000
10
4.3155704947
20
-27.7686384955
30
0.0000000000
10
4.1723601925
20
-27.7181053438
30
0.0000000000
10
4.1087533443
20
-27.6863968403
30
0.0000000000
11
5.2298244444
21
-27.7157057102
31
0.0000000000
11
5.0274195615
21
-27.7790863796
31
0.0000000000
11
4.7911814057
21
-27.8089727899
31
0.0000000000
11
4.5437285485
21
-27.8025034730
31
0.0000000000
11
4.3087533102
21
-27.7602978326
31
0.0000000000
11
4.1087533443
21
-27.6863968403
31
0.0000000000
0
SPLINE
5
322
100
AcDbEntity
8
0
100
AcDbSpline
62
9
6
CONTINUOUS
70
0
71
3
72
11
73
7
74
5
42
0.0000001000
43
0.0000001000
44
0.0000000001
12
-0.0561271610
22
-0.5864068137
32
0.0000000000
13
-0.5625415476
23
-0.1868652725
33
0.0000000000
40
0.0000000000
40
0.0000000000
40
0.0000000000
40
0.0000000000
40
0.3643399972
40
0.6838422992
40
0.9698645717
40
1.0000000000
40
1.0000000000
40
1.0000000000
40
1.0000000000
10
5.6726104374
20
-28.1268018354
30
0.0000000000
10
5.6657939808
20
-28.1980189877
30
0.0000000000
10
5.6372730260
20
-28.3312014773
30
0.0000000000
10
5.5401853560
20
-28.4997740850
30
0.0000000000
10
5.4352924742
20
-28.5757784725
30
0.0000000000
10
5.3765499444
20
-28.5970337631
30
0.0000000000
10
5.3708991343
20
-28.5989108514
30
0.0000000000
11
5.6726104374
21
-28.1268018354
31
0.0000000000
11
5.6240672003
21
-28.3358680351
31
0.0000000000
11
5.5258911138
21
-28.4964488014
31
0.0000000000
11
5.3876886413
21
-28.5928314150
31
0.0000000000
11
5.3708991343
21
-28.5989108514
31
0.0000000000
0
SPLINE
5
323
100
AcDbEntity
8
0
100
AcDbSpline
62
9
6
CONTINUOUS
70
0
71
3
72
10
73
6
74
4
42
0.0000001000
43
0.0000001000
44
0.0000000001
12
0.3360814380
22
0.1378432927
32
0.0000000000
13
0.3249637726
23
-0.1575236591
33
0.0000000000
40
0.0000000000
40
0.0000000000
40
0.0000000000
40
0.0000000000
40
0.0131053854
40
0.4812626401
40
1.0000000000
40
1.0000000000
40
1.0000000000
40
1.0000000000
10
-6.5138478252
20
17.7486950393
30
0.0000000000
10
-6.5123796662
20
17.7492972025
30
0.0000000000
10
-6.4583115233
20
17.7710282916
30
0.0000000000
10
-6.3344824389
20
17.7866905569
30
0.0000000000
10
-6.2180345182
20
17.7502509108
30
0.0000000000
10
-6.1618442350
20
17.7230131085
30
0.0000000000
11
-6.5138478252
21
17.7486950393
31
0.0000000000
11
-6.5094308817
21
17.7504702071
31
0.0000000000
11
-6.3420415299
21
17.7742200131
31
0.0000000000
11
-6.1618442350
21
17.7230131085
31
0.0000000000
0
SPLINE
5
324
100
AcDbEntity
8
0
100
AcDbSpline
62
9
6
CONTINUOUS
70
0
71
3
72
14
73
10
74
8
42
0.0000001000
43
0.0000001000
44
0.0000000001
12
0.2724771793
22
2.0563751561
32
0.0000000000
13
1.9257737318
23
0.7709203134
33
0.0000000000
40
0.0000000000
40
0.0000000000
40
0.0000000000
40
0.0000000000
40
0.1455666138
40
0.2969719209
40
0.4501403020
40
0.6006253030
40
0.7445237309
40
0.8783530846
40
1.0000000000
40
1.0000000000
40
1.0000000000
40
1.0000000000
10
-7.2907160926
20
16.0791300276
30
0.0000000000
10
-7.2774948992
20
16.1789098837
30
0.0000000000
10
-7.2347578279
20
16.3806020291
30
0.0000000000
10
-7.1297119566
20
16.6744596423
30
0.0000000000
10
-6.9865057718
20
16.9556114409
30
0.0000000000
10
-6.8113569496
20
17.2118050147
30
0.0000000000
10
-6.6117788453
20
17.4319504673
30
0.0000000000
10
-6.3963497157
20
17.6065310030
30
0.0000000000
10
-6.2399323798
20
17.6917530824
30
0.0000000000
10
-6.1618442350
20
17.7230131085
30
0.0000000000
11
-7.2907160926
21
16.0791300276
31
0.0000000000
11
-7.2292153880
21
16.3747565488
31
0.0000000000
11
-7.1240017015
21
16.6706761572
31
0.0000000000
11
-6.9797392305
21
16.9537614499
31
0.0000000000
11
-6.8030311189
21
17.2110882661
31
0.0000000000
11
-6.6016175807
21
17.4313884286
31
0.0000000000
11
-6.3846717063
21
17.6045966980
31
0.0000000000
11
-6.1618442350
21
17.7230131085
31
0.0000000000
0
SPLINE
5
325
100
AcDbEntity
8
0
100
AcDbSpline
62
9
6
CONTINUOUS
70
0
71
3
72
11
73
7
74
5
42
0.0000001000
43
0.0000001000
44
0.0000000001
12
1.1225998452
22
36.6824134559
32
0.0000000000
13
4.7998246457
23
36.3843561264
33
0.0000000000
40
0.0000000000
40
0.0000000000
40
0.0000000000
40
0.0000000000
40
0.2453763533
40
0.4939204771
40
0.7455066780
40
1.0000000000
40
1.0000000000
40
1.0000000000
40
1.0000000000
10
-10.2992357137
20
-20.4824133167
30
0.0000000000
10
-10.2074158949
20
-17.4820810349
30
0.0000000000
10
-9.9422568956
20
-11.4448647320
30
0.0000000000
10
-9.3076994828
20
-2.3460955574
30
0.0000000000
10
-8.4344469751
20
6.8448892017
30
0.0000000000
10
-7.6978905323
20
12.9926048077
30
0.0000000000
10
-7.2907160926
20
16.0791300276
30
0.0000000000
11
-10.2992357137
21
-20.4824133167
31
0.0000000000
11
-9.9056401983
21
-11.4858081405
31
0.0000000000
11
-9.2724895861
21
-2.3863424944
31
0.0000000000
11
-8.4005133648
21
6.8055001757
31
0.0000000000
11
-7.2907160926
21
16.0791300276
31
0.0000000000
0
SPLINE
5
326
100
AcDbEntity
8
0
100
AcDbSpline
62
7
6
CONTINUOUS
70
0
71
3
72
40
73
36
74
34
42
0.0000001000
43
0.0000001000
44
0.0000000001
12
-5.2243025041
22
-2.4902207229
32
0.0000000000
13
-3.3121175300
23
4.7483933968
33
0.0000000000
40
0.0000000000
40
0.0000000000
40
0.0000000000
40
0.0000000000
40
0.0279204866
40
0.0568474894
40
0.0867156089
40
0.1174777987
40
0.1490418359
40
0.1813558040
40
0.2143042128
40
0.2478334414
40
0.2818164837
40
0.3161985060
40
0.3508464057
40
0.3857004909
40
0.4206257438
40
0.4555534354
40
0.4903540860
40
0.5249482766
40
0.5592219786
40
0.5930851857
40
0.6264466540
40
0.6592073031
40
0.6912996442
40
0.7226212164
40
0.7531246451
40
0.7827123738
40
0.8113555079
40
0.8389707853
40
0.8655486715
40
0.8910302433
40
0.9154280866
40
0.9387189954
40
0.9609423074
40
0.9821222099
40
1.0000000000
40
1.0000000000
40
1.0000000000
40
1.0000000000
10
24.3955500354
20
17.6336067302
30
0.0000000000
10
24.3469283461
20
17.6104306721
30
0.0000000000
10
24.2467469586
20
17.5656960192
30
0.0000000000
10
24.0910182568
20
17.5044557848
30
0.0000000000
10
23.9276535659
20
17.4480790236
30
0.0000000000
10
23.7573047622
20
17.3967954028
30
0.0000000000
10
23.5805795186
20
17.3507857567
30
0.0000000000
10
23.3982003679
20
17.3102433460
30
0.0000000000
10
23.2108090815
20
17.2753083791
30
0.0000000000
10
23.0191806626
20
17.2461237551
30
0.0000000000
10
22.8239679575
20
17.2227904973
30
0.0000000000
10
22.6259708550
20
17.2054009484
30
0.0000000000
10
22.4258556401
20
17.1940152114
30
0.0000000000
10
22.2244398717
20
17.1886817974
30
0.0000000000
10
22.0224153405
20
17.1894181494
30
0.0000000000
10
21.8206072075
20
17.1962248833
30
0.0000000000
10
21.6197335393
20
17.2090782941
30
0.0000000000
10
21.4205999983
20
17.2279253347
30
0.0000000000
10
21.2239384070
20
17.2526990095
30
0.0000000000
10
21.0305052465
20
17.2833009487
30
0.0000000000
10
20.8410321397
20
17.3196143119
30
0.0000000000
10
20.6562135168
20
17.3615074941
30
0.0000000000
10
20.4767699628
20
17.4088131620
30
0.0000000000
10
20.3033347390
20
17.4613667691
30
0.0000000000
10
20.1366065192
20
17.5189576241
30
0.0000000000
10
19.9771602466
20
17.5813847457
30
0.0000000000
10
19.8256531883
20
17.6483964939
30
0.0000000000
10
19.6826019959
20
17.7197627408
30
0.0000000000
10
19.5485979264
20
17.7951895492
30
0.0000000000
10
19.4240987415
20
17.8744266026
30
0.0000000000
10
19.3096113232
20
17.9571487640
30
0.0000000000
10
19.2055296091
20
18.0430832621
30
0.0000000000
10
19.1122722904
20
18.1318953947
30
0.0000000000
10
19.0331780362
20
18.2199361924
30
0.0000000000
10
18.9874673767
20
18.2799426716
30
0.0000000000
10
18.9677295960
20
18.3082395984
30
0.0000000000
11
24.3955500354
21
17.6336067302
31
0.0000000000
11
24.2480603492
21
17.5675947802
31
0.0000000000
11
24.0923058828
21
17.5062122186
31
0.0000000000
11
23.9289375411
21
17.4497196227
31
0.0000000000
11
23.7584883929
21
17.3983058123
31
0.0000000000
11
23.5817267577
21
17.3522021981
31
0.0000000000
11
23.3991831261
21
17.3115504202
31
0.0000000000
11
23.2117366765
21
17.2765444534
31
0.0000000000
11
23.0199074542
21
17.2472799044
31
0.0000000000
11
22.8246271905
21
17.2238985353
31
0.0000000000
11
22.6264087098
21
17.2064597705
31
0.0000000000
11
22.4262107915
21
17.1950487284
31
0.0000000000
11
22.2245656471
21
17.1896970067
31
0.0000000000
11
22.0224389503
21
17.1904310709
31
0.0000000000
11
21.8204118808
21
17.1972508299
31
0.0000000000
11
21.6194169509
21
17.2101262948
31
0.0000000000
11
21.4200979274
21
17.2290149550
31
0.0000000000
11
21.2233001175
21
17.2538384588
31
0.0000000000
11
21.0297327034
21
17.2845044479
31
0.0000000000
11
20.8401161530
21
17.3208990346
31
0.0000000000
11
20.6552202817
21
17.3628736303
31
0.0000000000
11
20.4756425729
21
17.4102918121
31
0.0000000000
11
20.3021852607
21
17.4629422630
31
0.0000000000
11
20.1353545974
21
17.5206729099
31
0.0000000000
11
19.9759444173
21
17.5832080169
31
0.0000000000
11
19.8243926359
21
17.6503790710
31
0.0000000000
11
19.6814441036
21
17.7218547234
31
0.0000000000
11
19.5474805191
21
17.7974441641
31
0.0000000000
11
19.4231630021
21
17.8767758029
31
0.0000000000
11
19.3088269538
21
17.9596313990
31
0.0000000000
11
19.2050184748
21
18.0456166372
31
0.0000000000
11
19.1120376926
21
18.1344800605
31
0.0000000000
11
19.0302982505
21
18.2258251182
31
0.0000000000
11
18.9677295960
21
18.3082395984
31
0.0000000000
0
SPLINE
5
327
100
AcDbEntity
8
0
100
AcDbSpline
62
7
6
CONTINUOUS
70
0
71
3
72
42
73
38
74
36
42
0.0000001000
43
0.0000001000
44
0.0000000001
12
4.5431265958
22
-3.3330994871
32
0.0000000000
13
-4.7306684278
23
-3.0597563982
33
0.0000000000
40
0.0000000000
40
0.0000000000
40
0.0000000000
40
0.0000000000
40
0.0027919265
40
0.0328926918
40
0.0635819140
40
0.0947801842
40
0.1264295945
40
0.1585063436
40
0.1909031363
40
0.2236170779
40
0.2565324526
40
0.2896170756
40
0.3227889728
40
0.3559812217
40
0.3891321255
40
0.4221713827
40
0.4550242255
40
0.4876552050
40
0.5199424699
40
0.5518968964
40
0.5833957218
40
0.6144348341
40
0.6449360535
40
0.6748445062
40
0.7041628808
40
0.7327479822
40
0.7606976259
40
0.7878144371
40
0.8142193491
40
0.8398068621
40
0.8645998531
40
0.8886825332
40
0.9119530563
40
0.9346686568
40
0.9568346552
40
0.9785682889
40
1.0000000000
40
1.0000000000
40
1.0000000000
40
1.0000000000
10
29.8268232284
20
16.5478123871
30
0.0000000000
10
29.8310512535
20
16.5447104642
30
0.0000000000
10
29.8807693499
20
16.5080379458
30
0.0000000000
10
29.9747383233
20
16.4342759269
30
0.0000000000
10
30.1049986608
20
16.3206940460
30
0.0000000000
10
30.2316047952
20
16.1988279011
30
0.0000000000
10
30.3541158428
20
16.0692418737
30
0.0000000000
10
30.4720909687
20
15.9325307224
30
0.0000000000
10
30.5851894207
20
15.7892069415
30
0.0000000000
10
30.6929865289
20
15.6399102010
30
0.0000000000
10
30.7951652978
20
15.4851653716
30
0.0000000000
10
30.8913462083
20
15.3256192376
30
0.0000000000
10
30.9812166220
20
15.1618426305
30
0.0000000000
10
31.0644533351
20
14.9944582004
30
0.0000000000
10
31.1407583379
20
14.8240749171
30
0.0000000000
10
31.2098412241
20
14.6513232252
30
0.0000000000
10
31.2714437815
20
14.4767988229
30
0.0000000000
10
31.3252861715
20
14.3012011310
30
0.0000000000
10
31.3711536157
20
14.1250944438
30
0.0000000000
10
31.4087993836
20
13.9492196442
30
0.0000000000
10
31.4380390457
20
13.7741262233
30
0.0000000000
10
31.4586722625
20
13.6005549535
30
0.0000000000
10
31.4705345319
20
13.4291532026
30
0.0000000000
10
31.4734864608
20
13.2605929453
30
0.0000000000
10
31.4674161752
20
13.0957097658
30
0.0000000000
10
31.4522564575
20
12.9351000691
30
0.0000000000
10
31.4280277595
20
12.7797800289
30
0.0000000000
10
31.3947719372
20
12.6303227157
30
0.0000000000
10
31.3527038948
20
12.4877112450
30
0.0000000000
10
31.3020451177
20
12.3525616714
30
0.0000000000
10
31.2431662190
20
12.2255671038
30
0.0000000000
10
31.1765581243
20
12.1074108215
30
0.0000000000
10
31.1026318158
20
11.9983658304
30
0.0000000000
10
31.0219426910
20
11.8988101045
30
0.0000000000
10
30.9348208438
20
11.8087975900
30
0.0000000000
10
30.8418001658
20
11.7285511621
30
0.0000000000
10
30.7757343153
20
11.6813442005
30
0.0000000000
10
30.7419388756
20
11.6594855954
30
0.0000000000
11
29.8268232284
21
16.5478123871
31
0.0000000000
11
29.8394834185
21
16.5384742385
31
0.0000000000
11
29.9729465390
21
16.4338462171
31
0.0000000000
11
30.1033264909
21
16.3202858553
31
0.0000000000
11
30.2300196215
21
16.1984510996
31
0.0000000000
11
30.3525696247
21
16.0689276679
31
0.0000000000
11
30.4706828478
21
15.9321486856
31
0.0000000000
11
30.5837881114
21
15.7888958165
31
0.0000000000
11
30.6917119621
21
15.6394900612
31
0.0000000000
11
30.7939188459
21
15.4847547782
31
0.0000000000
11
30.8901686533
21
15.3251308681
31
0.0000000000
11
30.9800829658
21
15.1612932101
31
0.0000000000
11
31.0633481898
21
14.9938502804
31
0.0000000000
11
31.1396770406
21
14.8233889254
31
0.0000000000
11
31.2087744322
21
14.6505475181
31
0.0000000000
11
31.2703535726
21
14.4760003193
31
0.0000000000
11
31.3242089559
21
14.3002244384
31
0.0000000000
11
31.3700085555
21
14.1241798306
31
0.0000000000
11
31.4076305589
21
13.9481253062
31
0.0000000000
11
31.4367903943
21
13.7730747620
31
0.0000000000
11
31.4573504220
21
13.5994149616
31
0.0000000000
11
31.4691204272
21
13.4279763340
31
0.0000000000
11
31.4719649397
21
13.2594977761
31
0.0000000000
11
31.4657704219
21
13.0944358696
31
0.0000000000
11
31.4505101570
21
12.9341136248
31
0.0000000000
11
31.4261047398
21
12.7785496441
31
0.0000000000
11
31.3927834951
21
12.6294531064
31
0.0000000000
11
31.3505531021
21
12.4868092620
31
0.0000000000
11
31.2998189548
21
12.3518731367
31
0.0000000000
11
31.2409378308
21
12.2252075555
31
0.0000000000
11
31.1741938549
21
12.1070786576
31
0.0000000000
11
31.1005284236
21
11.9986264405
31
0.0000000000
11
31.0198677459
21
11.8992668133
31
0.0000000000
11
30.9329571748
21
11.8095892300
31
0.0000000000
11
30.8402026732
21
11.7296539594
31
0.0000000000
11
30.7419388756
21
11.6594855954
31
0.0000000000
0
SPLINE
5
328
100
AcDbEntity
8
0
100
AcDbSpline
62
7
6
CONTINUOUS
70
0
71
3
72
11
73
7
74
5
42
0.0000001000
43
0.0000001000
44
0.0000000001
12
-0.0105774456
22
-0.0143074241
32
0.0000000000
13
-0.0007676554
23
0.0010816188
33
0.0000000000
40
0.0000000000
40
0.0000000000
40
0.0000000000
40
0.0000000000
40
0.0354434801
40
0.7948420858
40
0.9395495083
40
1.0000000000
40
1.0000000000
40
1.0000000000
40
1.0000000000
10
29.8271158831
20
11.0789811173
30
0.0000000000
10
29.8269909160
20
11.0788120823
30
0.0000000000
10
29.8244109296
20
11.0754917870
30
0.0000000000
10
29.8269254418
20
11.0832843635
30
0.0000000000
10
29.8276634683
20
11.0861352388
30
0.0000000000
10
29.8276547598
20
11.0863198911
30
0.0000000000
10
29.8276392914
20
11.0863416859
30
0.0000000000
11
29.8271158831
21
11.0789811173
31
0.0000000000
11
29.8267701832
21
11.0785356768
31
0.0000000000
11
29.8273515056
21
11.0849775230
31
0.0000000000
11
29.8276455070
21
11.0861744603
31
0.0000000000
11
29.8276392914
21
11.0863416859
31
0.0000000000
0
SPLINE
5
329
100
AcDbEntity
8
0
100
AcDbSpline
62
7
6
CONTINUOUS
70
0
71
3
72
18
73
14
74
12
42
0.0000001000
43
0.0000001000
44
0.0000000001
12
0.8134822567
22
0.3756930640
32
0.0000000000
13
0.8016850218
23
-0.4008397784
33
0.0000000000
40
0.0000000000
40
0.0000000000
40
0.0000000000
40
0.0000000000
40
0.0893849138
40
0.1790408614
40
0.2685268285
40
0.3627312415
40
0.4548475124
40
0.5475230269
40
0.6418820557
40
0.7327666972
40
0.8282674027
40
0.9200880842
40
1.0000000000
40
1.0000000000
40
1.0000000000
40
1.0000000000
10
21.8309702605
20
22.2219989918
30
0.0000000000
10
21.8552079409
20
22.2331927558
30
0.0000000000
10
21.9046780239
20
22.2536782929
30
0.0000000000
10
21.9810799208
20
22.2783500839
30
0.0000000000
10
22.0606200528
20
22.2971485276
30
0.0000000000
10
22.1421743597
20
22.3094538428
30
0.0000000000
10
22.2254167021
20
22.3149770606
30
0.0000000000
10
22.3088782170
20
22.3135950135
30
0.0000000000
10
22.3915695401
20
22.3052663483
30
0.0000000000
10
22.4741061048
20
22.2899574329
30
0.0000000000
10
22.5543583527
20
22.2680123435
30
0.0000000000
10
22.6293963411
20
22.2405467966
30
0.0000000000
10
22.6761105060
20
22.2192445153
30
0.0000000000
10
22.6974652347
20
22.2085672237
30
0.0000000000
11
21.8309702605
21
22.2219989918
31
0.0000000000
11
21.9049697860
21
22.2526414425
31
0.0000000000
11
21.9814183384
21
22.2773288883
31
0.0000000000
11
22.0594522485
21
22.2957709931
31
0.0000000000
11
22.1429189804
21
22.3083648764
31
0.0000000000
11
22.2252783084
21
22.3138296085
31
0.0000000000
11
22.3083084588
21
22.3124545492
31
0.0000000000
11
22.3924328912
21
22.3039816802
31
0.0000000000
11
22.4725040134
21
22.2891299860
31
0.0000000000
11
22.5550465829
21
22.2665585677
31
0.0000000000
11
22.6323092803
21
22.2382788163
31
0.0000000000
11
22.6974652347
21
22.2085672237
31
0.0000000000
0
SPLINE
5
32A
100
AcDbEntity
8
0
100
AcDbSpline
62
7
6
CONTINUOUS
70
0
71
3
72
12
73
8
74
6
42
0.0000001000
43
0.0000001000
44
0.0000000001
12
-0.2451298512
22
0.0136271387
32
0.0000000000
13
-0.2413116466
23
0.0452034682
33
0.0000000000
40
0.0000000000
40
0.0000000000
40
0.0000000000
40
0.0000000000
40
0.0506309010
40
0.3063786949
40
0.5553352430
40
0.7950442673
40
1.0000000000
40
1.0000000000
40
1.0000000000
40
1.0000000000
10
15.2083809654
20
19.3890022786
30
0.0000000000
10
15.2042439170
20
19.3892322634
30
0.0000000000
10
15.1792139624
20
19.3907001695
30
0.0000000000
10
15.1338967886
20
19.3941988845
30
0.0000000000
10
15.0733264945
20
19.4007866871
30
0.0000000000
10
15.0171106649
20
19.4087035125
30
0.0000000000
10
14.9812433963
20
19.4148705182
30
0.0000000000
10
14.9647573278
20
19.4179587548
30
0.0000000000
11
15.2083809654
21
19.3890022786
31
0.0000000000
11
15.1959719963
21
19.3897300500
31
0.0000000000
11
15.1333732881
21
19.3945720682
31
0.0000000000
11
15.0726145944
21
19.4011937395
31
0.0000000000
11
15.0143438336
21
19.4094174347
31
0.0000000000
11
14.9647573278
21
19.4179587548
31
0.0000000000
0
SPLINE
5
32B
100
AcDbEntity
8
0
100
AcDbSpline
62
7
6
CONTINUOUS
70
0
71
3
72
16
73
12
74
10
42
0.0000001000
43
0.0000001000
44
0.0000000001
12
0.4197982688
22
0.8834101061
32
0.0000000000
13
0.8738172931
23
0.4383203943
33
0.0000000000
40
0.0000000000
40
0.0000000000
40
0.0000000000
40
0.0000000000
40
0.0535906162
40
0.1535483077
40
0.2580847487
40
0.3677339069
40
0.4827905099
40
0.6035090196
40
0.7299548436
40
0.8621532963
40
1.0000000000
40
1.0000000000
40
1.0000000000
40
1.0000000000
10
19.4089350938
20
17.8866274163
30
0.0000000000
10
19.4164341764
20
17.9024082469
30
0.0000000000
10
19.4393245564
20
17.9469579539
30
0.0000000000
10
19.4839339720
20
18.0184236979
30
0.0000000000
10
19.5464219667
20
18.0996923835
30
0.0000000000
10
19.6191844365
20
18.1787095442
30
0.0000000000
10
19.7019270421
20
18.2551848296
30
0.0000000000
10
19.7943017889
20
18.3288158328
30
0.0000000000
10
19.8959443730
20
18.3993243753
30
0.0000000000
10
20.0064352810
20
18.4664280696
30
0.0000000000
10
20.0841174782
20
18.5078735162
30
0.0000000000
10
20.1242684227
20
18.5280138568
30
0.0000000000
11
19.4089350938
21
17.8866274163
31
0.0000000000
11
19.4328569612
21
17.9332578600
31
0.0000000000
11
19.4844162042
21
18.0162661353
31
0.0000000000
11
19.5465317181
21
18.0974155221
31
0.0000000000
11
19.6189813385
21
18.1764164777
31
0.0000000000
11
19.7014401800
21
18.2529140013
31
0.0000000000
11
19.7936021693
21
18.3266247444
31
0.0000000000
11
19.8950671181
21
18.3972280097
31
0.0000000000
11
20.0054431914
21
18.4644516877
31
0.0000000000
11
20.1242684227
21
18.5280138568
31
0.0000000000
0
SPLINE
5
32C
100
AcDbEntity
8
0
100
AcDbSpline
62
7
6
CONTINUOUS
70
0
71
3
72
9
73
5
74
3
42
0.0000001000
43
0.0000001000
44
0.0000000001
12
0.0000050574
22
-0.0740330313
32
0.0000000000
13
0.0080667113
23
-0.0735905075
33
0.0000000000
40
0.0000000000
40
0.0000000000
40
0.0000000000
40
0.0000000000
40
0.9645806996
40
1.0000000000
40
1.0000000000
40
1.0000000000
40
1.0000000000
10
19.3357077228
20
18.0100610850
30
0.0000000000
10
19.3357093489
20
17.9862574740
30
0.0000000000
10
19.3370178704
20
17.9615794106
30
0.0000000000
10
19.3396596496
20
17.9370440269
30
0.0000000000
10
19.3397548887
20
17.9361751855
30
0.0000000000
11
19.3357077228
21
18.0100610850
31
0.0000000000
11
19.3394741823
21
17.9387822581
31
0.0000000000
11
19.3397548887
21
17.9361751855
31
0.0000000000
0
SPLINE
5
32D
100
AcDbEntity
8
0
100
AcDbSpline
62
7
6
CONTINUOUS
70
0
71
3
72
20
73
16
74
14
42
0.0000001000
43
0.0000001000
44
0.0000000001
12
1.2254722841
22
0.8881652661
32
0.0000000000
13
0.0000030845
23
1.5131989163
33
0.0000000000
40
0.0000000000
40
0.0000000000
40
0.0000000000
40
0.0000000000
40
0.0696976417
40
0.1400368971
40
0.2111944137
40
0.2833241675
40
0.3565733254
40
0.4311130602
40
0.5071651819
40
0.5851305615
40
0.6651433342
40
0.7471576942
40
0.8311627632
40
0.9171385785
40
1.0000000000
40
1.0000000000
40
1.0000000000
40
1.0000000000
10
29.2065210477
20
-14.4162709193
30
0.0000000000
10
29.2349918904
20
-14.3956365778
30
0.0000000000
10
29.2906166038
20
-14.3519962349
30
0.0000000000
10
29.3692690728
20
-14.2800062707
30
0.0000000000
10
29.4430778376
20
-14.2013652108
30
0.0000000000
10
29.5116477361
20
-14.1162229387
30
0.0000000000
10
29.5745750297
20
-14.0247504124
30
0.0000000000
10
29.6314716822
20
-13.9271126281
30
0.0000000000
10
29.6819986054
20
-13.8233785570
30
0.0000000000
10
29.7257702675
20
-13.7136397776
30
0.0000000000
10
29.7623328167
20
-13.5981347191
30
0.0000000000
10
29.7912133204
20
-13.4773406510
30
0.0000000000
10
29.8120090009
20
-13.3518464547
30
0.0000000000
10
29.8241701655
20
-13.2248047539
30
0.0000000000
10
29.8267619966
20
-13.1396186532
30
0.0000000000
10
29.8267620818
20
-13.0978233821
30
0.0000000000
11
29.2065210477
21
-14.4162709193
31
0.0000000000
11
29.2895015474
21
-14.3511820123
31
0.0000000000
11
29.3680232695
21
-14.2793322410
31
0.0000000000
11
29.4417229050
21
-14.2008369725
31
0.0000000000
11
29.5102007527
21
-14.1158493841
31
0.0000000000
11
29.5730456037
21
-14.0245518765
31
0.0000000000
11
29.6298654876
21
-13.9271202946
31
0.0000000000
11
29.6802975100
21
-13.8236819696
31
0.0000000000
11
29.7240527253
21
-13.7141235582
31
0.0000000000
11
29.7606463877
21
-13.5987154811
31
0.0000000000
11
29.7895672329
21
-13.4780330523
31
0.0000000000
11
29.8104171408
21
-13.3526430616
31
0.0000000000
11
29.8228862795
21
-13.2231483499
31
0.0000000000
11
29.8267620818
21
-13.0978233821
31
0.0000000000
0
SPLINE
5
32E
100
AcDbEntity
8
0
100
AcDbSpline
62
7
6
CONTINUOUS
70
0
71
3
72
17
73
13
74
11
42
0.0000001000
43
0.0000001000
44
0.0000000001
12
-0.0000003619
22
1.2787589490
32
0.0000000000
13
-0.6413999662
23
1.1062504870
33
0.0000000000
40
0.0000000000
40
0.0000000000
40
0.0000000000
40
0.0000000000
40
0.0931726255
40
0.1936012838
40
0.2946374052
40
0.3960993816
40
0.4977637442
40
0.5994160614
40
0.7010265346
40
0.8026116490
40
0.9041760118
40
1.0000000000
40
1.0000000000
40
1.0000000000
40
1.0000000000
10
29.8267620838
20
17.2472562898
30
0.0000000000
10
29.8267620725
20
17.2869713993
30
0.0000000000
10
29.8243758157
20
17.3695124505
30
0.0000000000
10
29.8135333023
20
17.4946971248
30
0.0000000000
10
29.7950447611
20
17.6225557111
30
0.0000000000
10
29.7694253361
20
17.7497099635
30
0.0000000000
10
29.7369867230
20
17.8755655371
30
0.0000000000
10
29.6980440048
20
17.9996259633
30
0.0000000000
10
29.6528777332
20
18.1215197816
30
0.0000000000
10
29.6017078876
20
18.2409762925
30
0.0000000000
10
29.5457864354
20
18.3555398291
30
0.0000000000
10
29.5052818139
20
18.4293256495
30
0.0000000000
10
29.4847946463
20
18.4646607607
30
0.0000000000
11
29.8267620838
21
17.2472562898
31
0.0000000000
11
29.8233678345
21
17.3663530242
31
0.0000000000
11
29.8123424555
21
17.4942988766
31
0.0000000000
11
29.7939013810
21
17.6221727873
31
0.0000000000
11
29.7683170775
21
17.7493665693
31
0.0000000000
11
29.7359037597
21
17.8752610146
31
0.0000000000
11
29.6969991295
21
17.9992870596
31
0.0000000000
11
29.6518708482
21
18.1211294210
31
0.0000000000
11
29.6007319956
21
18.2405384455
31
0.0000000000
11
29.5437638177
21
18.3572493316
31
0.0000000000
11
29.4847946463
21
18.4646607607
31
0.0000000000
0
SPLINE
5
32F
100
AcDbEntity
8
0
100
AcDbSpline
62
7
6
CONTINUOUS
70
0
71
3
72
17
73
13
74
11
42
0.0000001000
43
0.0000001000
44
0.0000000001
12
0.7003168147
22
-0.3500425636
32
0.0000000000
13
0.3398333150
23
-0.7050833423
33
0.0000000000
40
0.0000000000
40
0.0000000000
40
0.0000000000
40
0.0000000000
40
0.0545997533
40
0.1441935784
40
0.2378162820
40
0.3355532605
40
0.4373907563
40
0.5432086946
40
0.6527766974
40
0.7657557470
40
0.8817036838
40
1.0000000000
40
1.0000000000
40
1.0000000000
40
1.0000000000
10
23.8236633080
20
21.6454682962
30
0.0000000000
10
23.8364090164
20
21.6390975504
30
0.0000000000
10
23.8696193163
20
21.6213715468
30
0.0000000000
10
23.9223430806
20
21.5885378284
30
0.0000000000
10
23.9814431558
20
21.5450581603
30
0.0000000000
10
24.0396033411
20
21.4952673064
30
0.0000000000
10
24.0963770128
20
21.4392733772
30
0.0000000000
10
24.1512895866
20
21.3772690638
30
0.0000000000
10
24.2038480731
20
21.3095412888
30
0.0000000000
10
24.2535535714
20
21.2364748373
30
0.0000000000
10
24.2999036952
20
21.1585787417
30
0.0000000000
10
24.3280195506
20
21.1042692239
30
0.0000000000
10
24.3414198937
20
21.0764663032
30
0.0000000000
11
23.8236633080
21
21.6454682962
31
0.0000000000
11
23.8613813991
21
21.6253606036
31
0.0000000000
11
23.9209528697
21
21.5883626677
31
0.0000000000
11
23.9800284988
21
21.5450049228
31
0.0000000000
11
24.0381934810
21
21.4953160338
31
0.0000000000
11
24.0949977544
21
21.4393984540
31
0.0000000000
11
24.1499623806
21
21.3774406767
31
0.0000000000
11
24.2025890323
21
21.3097270199
31
0.0000000000
11
24.2523729951
21
21.2366426925
31
0.0000000000
11
24.2988177083
21
21.1586745640
31
0.0000000000
11
24.3414198937
21
21.0764663032
31
0.0000000000
0
SPLINE
5
330
100
AcDbEntity
8
0
100
AcDbSpline
62
7
6
CONTINUOUS
70
0
71
3
72
12
73
8
74
6
42
0.0000001000
43
0.0000001000
44
0.0000000001
12
0.0794384856
22
-0.0397300228
32
0.0000000000
13
0.0445479325
23
-0.0768293223
33
0.0000000000
40
0.0000000000
40
0.0000000000
40
0.0000000000
40
0.0000000000
40
0.1689358061
40
0.4446982556
40
0.7179283992
40
0.9949015518
40
1.0000000000
40
1.0000000000
40
1.0000000000
40
1.0000000000
10
29.1579648491
20
18.9783166945
30
0.0000000000
10
29.1624381839
20
18.9760794200
30
0.0000000000
10
29.1739447321
20
18.9696539823
30
0.0000000000
10
29.1910836936
20
18.9569571102
30
0.0000000000
10
29.2081101844
20
18.9392839341
30
0.0000000000
10
29.2174698359
20
18.9257044063
30
0.0000000000
10
29.2216684374
20
18.9184863661
30
0.0000000000
10
29.2217441459
20
18.9183557960
30
0.0000000000
11
29.1579648491
21
18.9783166945
31
0.0000000000
11
29.1710521053
21
18.9709898140
31
0.0000000000
11
29.1906927524
21
18.9563982110
31
0.0000000000
11
29.2075229879
21
18.9389491862
31
0.0000000000
11
29.2215164763
21
18.9187471938
31
0.0000000000
11
29.2217441459
21
18.9183557960
31
0.0000000000
0
SPLINE
5
331
100
AcDbEntity
8
0
100
AcDbSpline
62
7
6
CONTINUOUS
70
0
71
3
72
9
73
5
74
3
42
0.0000001000
43
0.0000001000
44
0.0000000001
12
0.0106959682
22
0.0091088848
32
0.0000000000
13
0.0125651438
23
0.0062858928
33
0.0000000000
40
0.0000000000
40
0.0000000000
40
0.0000000000
40
0.0000000000
40
0.2054428923
40
1.0000000000
40
1.0000000000
40
1.0000000000
40
1.0000000000
10
8.1651166564
20
19.4193226360
30
0.0000000000
10
8.1658491266
20
19.4199464212
30
0.0000000000
10
8.1694888836
20
19.4228950950
30
0.0000000000
10
8.1734784345
20
19.4253911488
30
0.0000000000
10
8.1768063426
20
19.4270559824
30
0.0000000000
11
8.1651166564
21
19.4193226360
31
0.0000000000
11
8.1673594147
21
19.4211388857
31
0.0000000000
11
8.1768063426
21
19.4270559824
31
0.0000000000
0
SPLINE
5
332
100
AcDbEntity
8
0
100
AcDbSpline
62
7
6
CONTINUOUS
70
0
71
3
72
24
73
20
74
18
42
0.0000001000
43
0.0000001000
44
0.0000000001
12
-1.1802138618
22
0.4703283964
32
0.0000000000
13
-1.1361660762
23
-0.5680996616
33
0.0000000000
40
0.0000000000
40
0.0000000000
40
0.0000000000
40
0.0000000000
40
0.0282422458
40
0.0868493739
40
0.1464689383
40
0.2070024884
40
0.2683257947
40
0.3302891698
40
0.3927307106
40
0.4554840717
40
0.5183771559
40
0.5812354225
40
0.6438834671
40
0.7061504238
40
0.7678441923
40
0.8287658525
40
0.8887502679
40
0.9476753427
40
1.0000000000
40
1.0000000000
40
1.0000000000
40
1.0000000000
10
9.4758852152
20
19.4986114981
30
0.0000000000
10
9.4647745852
20
19.5030392081
30
0.0000000000
10
9.4303910395
20
19.5161180212
30
0.0000000000
10
9.3714499571
20
19.5355076273
30
0.0000000000
10
9.2983041831
20
19.5551041908
30
0.0000000000
10
9.2231166647
20
19.5711008079
30
0.0000000000
10
9.1462574180
20
19.5835449016
30
0.0000000000
10
9.0680989055
20
19.5924651088
30
0.0000000000
10
8.9890137284
20
19.5978769445
30
0.0000000000
10
8.9093734658
20
19.5997853635
30
0.0000000000
10
8.8295499676
20
19.5981859052
30
0.0000000000
10
8.7499189767
20
19.5930651635
30
0.0000000000
10
8.6708608269
20
19.5844006030
30
0.0000000000
10
8.5927738367
20
19.5721613305
30
0.0000000000
10
8.5160825688
20
19.5563104198
30
0.0000000000
10
8.4412328229
20
19.5368061459
30
0.0000000000
10
8.3686719874
20
19.5135940527
30
0.0000000000
10
8.3010079633
20
19.4874351554
30
0.0000000000
10
8.2581758015
20
19.4677411791
30
0.0000000000
10
8.2383593013
20
19.4578326390
30
0.0000000000
11
9.4758852152
21
19.4986114981
31
0.0000000000
11
9.4423526209
21
19.5113780605
31
0.0000000000
11
9.3716606845
21
19.5347124941
31
0.0000000000
11
9.2985265155
21
19.5543686182
31
0.0000000000
11
9.2233292492
21
19.5704162492
31
0.0000000000
11
9.1464426836
21
19.5829016238
31
0.0000000000
11
9.0682465573
21
19.5918522831
31
0.0000000000
11
8.9891186290
21
19.5972833921
31
0.0000000000
11
8.9094314992
21
19.5992000046
31
0.0000000000
11
8.8295599191
21
19.5975975455
31
0.0000000000
11
8.7498817934
21
19.5924624451
31
0.0000000000
11
8.6707813426
21
19.5837720915
31
0.0000000000
11
8.5926478917
21
19.5714935825
31
0.0000000000
11
8.5159143843
21
19.5555899011
31
0.0000000000
11
8.4410456206
21
19.5360226327
31
0.0000000000
11
8.3684968913
21
19.5127404807
31
0.0000000000
11
8.2987164329
21
19.4856697219
31
0.0000000000
11
8.2383593013
21
19.4578326390
31
0.0000000000
0
SPLINE
5
333
100
AcDbEntity
8
0
100
AcDbSpline
62
7
6
CONTINUOUS
70
0
71
3
72
8
73
4
74
2
42
0.0000001000
43
0.0000001000
44
0.0000000001
12
-0.0050308648
22
0.0025152164
32
0.0000000000
13
-0.0052241425
23
0.0020832623
33
0.0000000000
40
0.0000000000
40
0.0000000000
40
0.0000000000
40
0.0000000000
40
1.0000000000
40
1.0000000000
40
1.0000000000
40
1.0000000000
10
9.4810155623
20
19.4963101664
30
0.0000000000
10
9.4793386073
20
19.4971485718
30
0.0000000000
10
9.4776265235
20
19.4979167092
30
0.0000000000
10
9.4758851426
20
19.4986111299
30
0.0000000000
11
9.4810155623
21
19.4963101664
31
0.0000000000
11
9.4758851426
21
19.4986111299
31
0.0000000000
0
SPLINE
5
334
100
AcDbEntity
8
0
100
AcDbSpline
62
7
6
CONTINUOUS
70
0
71
3
72
9
73
5
74
3
42
0.0000001000
43
0.0000001000
44
0.0000000001
12
0.0795225061
22
0.0420674689
32
0.0000000000
13
0.0728595284
23
0.0528107048
33
0.0000000000
40
0.0000000000
40
0.0000000000
40
0.0000000000
40
0.0000000000
40
0.5842404426
40
1.0000000000
40
1.0000000000
40
1.0000000000
40
1.0000000000
10
28.7890538379
20
-14.7111478054
30
0.0000000000
10
28.8045405926
20
-14.7029552998
30
0.0000000000
10
28.8304599135
20
-14.6877905195
30
0.0000000000
10
28.8552370398
20
-14.6708633287
30
0.0000000000
10
28.8653343882
20
-14.6635444770
30
0.0000000000
11
28.7890538379
21
-14.7111478054
31
0.0000000000
11
28.8344369505
21
-14.6846339682
31
0.0000000000
11
28.8653343882
21
-14.6635444770
31
0.0000000000
0
SPLINE
5
335
100
AcDbEntity
8
0
100
AcDbSpline
62
7
6
CONTINUOUS
70
0
71
3
72
30
73
26
74
24
42
0.0000001000
43
0.0000001000
44
0.0000000001
12
3.3990611785
22
1.6753110641
32
0.0000000000
13
3.5076353199
23
-1.4341473144
33
0.0000000000
40
0.0000000000
40
0.0000000000
40
0.0000000000
40
0.0000000000
40
0.0373740152
40
0.0761101878
40
0.1161194463
40
0.1573317361
40
0.1996195059
40
0.2429054545
40
0.2870323720
40
0.3319183389
40
0.3773849130
40
0.4233468943
40
0.4696128107
40
0.5160948086
40
0.5625964149
40
0.6090274722
40
0.6551943534
40
0.7010050072
40
0.7462763135
40
0.7909151132
40
0.8347562339
40
0.8777069410
40
0.9196272232
40
0.9604275051
40
1.0000000000
40
1.0000000000
40
1.0000000000
40
1.0000000000
10
20.8069786207
20
18.4374592471
30
0.0000000000
10
20.8493241421
20
18.4583302808
30
0.0000000000
10
20.9366746271
20
18.4985997468
30
0.0000000000
10
21.0726772214
20
18.5536611825
30
0.0000000000
10
21.2155476325
20
18.6042831921
30
0.0000000000
10
21.3646788908
20
18.6502502904
30
0.0000000000
10
21.5194979903
20
18.6913863901
30
0.0000000000
10
21.6793360223
20
18.7275134324
30
0.0000000000
10
21.8435894571
20
18.7584950623
30
0.0000000000
10
22.0115371584
20
18.7841949313
30
0.0000000000
10
22.1825532327
20
18.8045172211
30
0.0000000000
10
22.3558793910
20
18.8193715802
30
0.0000000000
10
22.5308742437
20
18.8287030002
30
0.0000000000
10
22.7067587023
20
18.8324698322
30
0.0000000000
10
22.8828826412
20
18.8306581476
30
0.0000000000
10
23.0584629633
20
18.8232760510
30
0.0000000000
10
23.2328476991
20
18.8103509935
30
0.0000000000
10
23.4052664494
20
18.7919402742
30
0.0000000000
10
23.5750725888
20
18.7681130168
30
0.0000000000
10
23.7415245336
20
18.7389736029
30
0.0000000000
10
23.9039886898
20
18.7046330220
30
0.0000000000
10
24.0617670786
20
18.6652392228
30
0.0000000000
10
24.2142483129
20
18.6209447061
30
0.0000000000
10
24.3607880168
20
18.5719373057
30
0.0000000000
10
24.4556551361
20
18.5356709755
30
0.0000000000
10
24.5019237631
20
18.5167533797
30
0.0000000000
11
20.8069786207
21
18.4374592471
31
0.0000000000
11
20.9355434223
21
18.4968712059
31
0.0000000000
11
21.0715629805
21
18.5520632138
31
0.0000000000
11
21.2144388800
21
18.6027935743
31
0.0000000000
11
21.3636580785
21
18.6488793197
31
0.0000000000
11
21.5185143207
21
18.6901031093
31
0.0000000000
11
21.6784962510
21
18.7263282863
31
0.0000000000
11
21.8428076151
21
18.7573750759
31
0.0000000000
11
22.0109390948
21
18.7831469247
31
0.0000000000
11
22.1820267584
21
18.8035117214
31
0.0000000000
11
22.3555612900
21
18.8184086964
31
0.0000000000
11
22.5306362474
21
18.8277601784
31
0.0000000000
11
22.7067390842
21
18.8315387916
31
0.0000000000
11
22.8829474227
21
18.8297247321
31
0.0000000000
11
23.0587420203
21
18.8223234794
31
0.0000000000
11
23.2332112929
21
18.8093732533
31
0.0000000000
11
23.4058263622
21
18.7909135752
31
0.0000000000
11
23.5757122604
21
18.7670377064
31
0.0000000000
11
23.7423287810
21
18.7378219695
31
0.0000000000
11
23.9048613167
21
18.7034087347
31
0.0000000000
11
24.0627587166
21
18.6639152513
31
0.0000000000
11
24.2152871581
21
18.6195244167
31
0.0000000000
11
24.3618879169
21
18.5703995654
31
0.0000000000
11
24.5019237631
21
18.5167533797
31
0.0000000000
0
SPLINE
5
336
100
AcDbEntity
8
0
100
AcDbSpline
62
7
6
CONTINUOUS
70
0
71
3
72
11
73
7
74
5
42
0.0000001000
43
0.0000001000
44
0.0000000001
12
0.3868170606
22
-0.2365882163
32
0.0000000000
13
0.3128980793
23
-0.3283324313
33
0.0000000000
40
0.0000000000
40
0.0000000000
40
0.0000000000
40
0.0000000000
40
0.2819750518
40
0.5514714364
40
0.8084978246
40
1.0000000000
40
1.0000000000
40
1.0000000000
40
1.0000000000
10
24.8941816974
20
18.3206244125
30
0.0000000000
10
24.9305392843
20
18.2983870877
30
0.0000000000
10
25.0004417425
20
18.2528790873
30
0.0000000000
10
25.0985252340
20
18.1798504170
30
0.0000000000
10
25.1809676736
20
18.1091276499
30
0.0000000000
10
25.2293453830
20
18.0615624933
30
0.0000000000
10
25.2493189373
20
18.0406037017
30
0.0000000000
11
24.8941816974
21
18.3206244125
31
0.0000000000
11
25.0012390856
21
18.2507239811
31
0.0000000000
11
25.0991417971
21
18.1775970972
31
0.0000000000
11
25.1874659880
21
18.1015616155
31
0.0000000000
11
25.2493189373
21
18.0406037017
31
0.0000000000
0
SPLINE
5
337
100
AcDbEntity
8
0
100
AcDbSpline
62
7
6
CONTINUOUS
70
0
71
3
72
9
73
5
74
3
42
0.0000001000
43
0.0000001000
44
0.0000000001
12
0.0108509531
22
-0.1030476488
32
0.0000000000
13
0.0000000000
23
-0.1036173784
33
0.0000000000
40
0.0000000000
40
0.0000000000
40
0.0000000000
40
0.0000000000
40
0.4930413809
40
1.0000000000
40
1.0000000000
40
1.0000000000
40
1.0000000000
10
24.3414213751
20
21.0764670463
30
0.0000000000
10
24.3432046981
20
21.0595314613
30
0.0000000000
10
24.3458581032
20
21.0250752743
30
0.0000000000
10
24.3467051873
20
20.9905300046
30
0.0000000000
10
24.3467051873
20
20.9730200969
30
0.0000000000
11
24.3414213751
21
21.0764670463
31
0.0000000000
11
24.3453820769
21
21.0255331542
31
0.0000000000
11
24.3467051873
21
20.9730200969
31
0.0000000000
0
SPLINE
5
338
100
AcDbEntity
8
0
100
AcDbSpline
62
7
6
CONTINUOUS
70
0
71
3
72
17
73
13
74
11
42
0.0000001000
43
0.0000001000
44
0.0000000001
12
0.3283947062
22
0.1565329155
32
0.0000000000
13
0.3262199160
23
-0.1629571567
33
0.0000000000
40
0.0000000000
40
0.0000000000
40
0.0000000000
40
0.0000000000
40
0.1451572016
40
0.2812700165
40
0.4081468558
40
0.5256236273
40
0.6335921479
40
0.7320650244
40
0.8212601377
40
0.9017516855
40
0.9746889252
40
1.0000000000
40
1.0000000000
40
1.0000000000
40
1.0000000000
10
27.9649756032
20
19.3350123266
30
0.0000000000
10
27.9808652221
20
19.3425862866
30
0.0000000000
10
28.0119227822
20
19.3567103796
30
0.0000000000
10
28.0578122718
20
19.3752945558
30
0.0000000000
10
28.1013835842
20
19.3905297610
30
0.0000000000
10
28.1424751194
20
19.4023261956
30
0.0000000000
10
28.1809144675
20
19.4105830409
30
0.0000000000
10
28.2165186517
20
19.4151869189
30
0.0000000000
10
28.2490986772
20
19.4160082405
30
0.0000000000
10
28.2784611827
20
19.4128893372
30
0.0000000000
10
28.2994543204
20
19.4070058901
30
0.0000000000
10
28.3103625790
20
19.4021155645
30
0.0000000000
10
28.3131149046
20
19.4007406909
30
0.0000000000
11
27.9649756032
21
19.3350123266
31
0.0000000000
11
28.0130723841
21
19.3568137804
31
0.0000000000
11
28.0589977300
21
19.3753283773
31
0.0000000000
11
28.1025990785
21
19.3904739061
31
0.0000000000
11
28.1437089127
21
19.4021553495
31
0.0000000000
11
28.1821408310
21
19.4102650599
31
0.0000000000
11
28.2176909011
21
19.4146850031
31
0.0000000000
11
28.2501338801
21
19.4152885957
31
0.0000000000
11
28.2792246637
21
19.4119450893
31
0.0000000000
11
28.3047002465
21
19.4045253578
31
0.0000000000
11
28.3131149046
21
19.4007406909
31
0.0000000000
0
SPLINE
5
339
100
AcDbEntity
8
0
100
AcDbSpline
62
9
6
CONTINUOUS
70
0
71
3
72
25
73
21
74
19
42
0.0000001000
43
0.0000001000
44
0.0000000001
12
0.9805003859
22
0.4902423243
32
0.0000000000
13
1.0206651721
23
-0.3999514344
33
0.0000000000
40
0.0000000000
40
0.0000000000
40
0.0000000000
40
0.0000000000
40
0.0486159936
40
0.0993722266
40
0.1520748349
40
0.2065079021
40
0.2624326998
40
0.3195922882
40
0.3777135757
40
0.4365142592
40
0.4957056498
40
0.5549977874
40
0.6141011718
40
0.6727315420
40
0.7306113606
40
0.7874746053
40
0.8430698023
40
0.8971631016
40
0.9495383397
40
1.0000000000
40
1.0000000000
40
1.0000000000
40
1.0000000000
10
8.3278061022
20
19.4521542948
30
0.0000000000
10
8.3436954356
20
19.4600988341
30
0.0000000000
10
8.3767096295
20
19.4752825821
30
0.0000000000
10
8.4284845794
20
19.4955390262
30
0.0000000000
10
8.4832881307
20
19.5136590910
30
0.0000000000
10
8.5407456882
20
19.5295217072
30
0.0000000000
10
8.6004721192
20
19.5430253376
30
0.0000000000
10
8.6620672899
20
19.5540848102
30
0.0000000000
10
8.7251205583
20
19.5626324445
30
0.0000000000
10
8.7892133587
20
19.5686181202
30
0.0000000000
10
8.8539236355
20
19.5720094908
30
0.0000000000
10
8.9188284257
20
19.5727917392
30
0.0000000000
10
8.9835072641
20
19.5709672820
30
0.0000000000
10
9.0475442772
20
19.5665553410
30
0.0000000000
10
9.1105313106
20
19.5595914122
30
0.0000000000
10
9.1720704120
20
19.5501266004
30
0.0000000000
10
9.2317762635
20
19.5382267753
30
0.0000000000
10
9.2892780741
20
19.5239716617
30
0.0000000000
10
9.3442159000
20
19.5074555694
30
0.0000000000
10
9.3796065829
20
19.4947569690
30
0.0000000000
10
9.3967747360
20
19.4880295645
30
0.0000000000
11
8.3278061022
21
19.4521542948
31
0.0000000000
11
8.3761943166
21
19.4744894756
31
0.0000000000
11
8.4279872209
21
19.4948206485
31
0.0000000000
11
8.4828242349
21
19.5130072694
31
0.0000000000
11
8.5403319779
21
19.5289290163
31
0.0000000000
11
8.6001213226
21
19.5424829362
31
0.0000000000
11
8.6617902335
21
19.5535835014
31
0.0000000000
11
8.7249242841
21
19.5621624239
31
0.0000000000
11
8.7891028002
21
19.5681694555
31
0.0000000000
11
8.8539008532
21
19.5715721466
31
0.0000000000
11
8.9188939044
21
19.5723557510
31
0.0000000000
11
8.9836588295
21
19.5705227849
31
0.0000000000
11
9.0477782925
21
19.5660926199
31
0.0000000000
11
9.1108414588
21
19.5591010267
31
0.0000000000
11
9.1724482061
21
19.5495994583
31
0.0000000000
11
9.2322111843
21
19.5376541971
31
0.0000000000
11
9.2897576159
21
19.5233454983
31
0.0000000000
11
9.3447275051
21
19.5067676758
31
0.0000000000
11
9.3967747360
21
19.4880295645
31
0.0000000000
0
SPLINE
5
33A
100
AcDbEntity
8
0
100
AcDbSpline
62
9
6
CONTINUOUS
70
0
71
3
72
26
73
22
74
20
42
0.0000001000
43
0.0000001000
44
0.0000000001
12
-0.0005238686
22
-1.0221547008
32
0.0000000000
13
-1.0139353568
23
-0.1286215119
33
0.0000000000
40
0.0000000000
40
0.0000000000
40
0.0000000000
40
0.0000000000
40
0.0675329963
40
0.1907281174
40
0.2991222268
40
0.3953084331
40
0.4806118158
40
0.5558414508
40
0.6218731432
40
0.6798294449
40
0.7309295685
40
0.7759424580
40
0.8150829132
40
0.8486735460
40
0.8773273805
40
0.9024393536
40
0.9250195877
40
0.9455724218
40
0.9645630073
40
0.9825169068
40
1.0000000000
40
1.0000000000
40
1.0000000000
40
1.0000000000
10
29.8267622942
20
14.0264757356
30
0.0000000000
10
29.8267505014
20
14.0034660123
30
0.0000000000
10
29.8259762723
20
13.9384821386
30
0.0000000000
10
29.8214697926
20
13.8366443045
30
0.0000000000
10
29.8119753802
20
13.7253506425
30
0.0000000000
10
29.7997541826
20
13.6273255571
30
0.0000000000
10
29.7855954310
20
13.5409961515
30
0.0000000000
10
29.7701137704
20
13.4653559435
30
0.0000000000
10
29.7537707728
20
13.3994610699
30
0.0000000000
10
29.7368527048
20
13.3422380609
30
0.0000000000
10
29.7195134960
20
13.2926702995
30
0.0000000000
10
29.7018947626
20
13.2500631661
30
0.0000000000
10
29.6842177684
20
13.2140194300
30
0.0000000000
10
29.6667628471
20
13.1841731394
30
0.0000000000
10
29.6496343372
20
13.1597882810
30
0.0000000000
10
29.6327192181
20
13.1399724740
30
0.0000000000
10
29.6157694356
20
13.1239826245
30
0.0000000000
10
29.5986595070
20
13.1114240458
30
0.0000000000
10
29.5813758524
20
13.1020640192
30
0.0000000000
10
29.5638951532
20
13.0956849336
30
0.0000000000
10
29.5520107983
20
13.0932798657
30
0.0000000000
10
29.5461018895
20
13.0925302984
30
0.0000000000
11
29.8267622942
21
14.0264757356
31
0.0000000000
11
29.8259390388
21
13.9574532388
31
0.0000000000
11
29.8203358437
21
13.8316650619
31
0.0000000000
11
29.8108640883
21
13.7212853286
31
0.0000000000
11
29.7986329945
21
13.6237410103
31
0.0000000000
11
29.7844424340
21
13.5377183645
31
0.0000000000
11
29.7689362286
21
13.4624088915
31
0.0000000000
11
29.7525952220
21
13.3969286903
31
0.0000000000
11
29.7357000201
21
13.3401543855
31
0.0000000000
11
29.7183469273
21
13.2908941046
31
0.0000000000
11
29.7006514737
21
13.2484274716
31
0.0000000000
11
29.6829204530
21
13.2125676738
31
0.0000000000
11
29.6654794553
21
13.1829961463
31
0.0000000000
11
29.6485507275
21
13.1590987451
31
0.0000000000
11
29.6318038210
21
13.1396492496
31
0.0000000000
11
29.6149461357
21
13.1238875947
31
0.0000000000
11
29.5979602320
21
13.1115287312
31
0.0000000000
11
29.5808633849
21
13.1023402694
31
0.0000000000
11
29.5636148471
21
13.0960785094
31
0.0000000000
11
29.5461018895
21
13.0925302984
31
0.0000000000
0
SPLINE
5
33B
100
AcDbEntity
8
0
100
AcDbSpline
62
9
6
CONTINUOUS
70
0
71
3
72
16
73
12
74
10
42
0.0000001000
43
0.0000001000
44
0.0000000001
12
-0.4035520321
22
0.2018036023
32
0.0000000000
13
-0.4066845390
23
-0.1946481669
33
0.0000000000
40
0.0000000000
40
0.0000000000
40
0.0000000000
40
0.0000000000
40
0.0179524839
40
0.1292323758
40
0.2419262945
40
0.3571674186
40
0.4759509126
40
0.5990963966
40
0.7272300812
40
0.8607829722
40
1.0000000000
40
1.0000000000
40
1.0000000000
40
1.0000000000
10
22.6974624417
20
22.2085683663
30
0.0000000000
10
22.6950475213
20
22.2097759916
30
0.0000000000
10
22.6775696301
20
22.2182812388
30
0.0000000000
10
22.6436362906
20
22.2316361584
30
0.0000000000
10
22.5940125682
20
22.2439299855
30
0.0000000000
10
22.5421185869
20
22.2499487538
30
0.0000000000
10
22.4883187083
20
22.2496700396
30
0.0000000000
10
22.4329803205
20
22.2431164687
30
0.0000000000
10
22.3764712163
20
22.2303499701
30
0.0000000000
10
22.3191674327
20
22.2114724025
30
0.0000000000
10
22.2814621565
20
22.1952380652
30
0.0000000000
10
22.2625896856
20
22.1862052854
30
0.0000000000
11
22.6974624417
21
22.2085683663
31
0.0000000000
11
22.6901790758
21
22.2121125635
31
0.0000000000
11
22.6435014138
21
22.2305098036
31
0.0000000000
11
22.5941967700
21
22.2427855736
31
0.0000000000
11
22.5425945063
21
22.2488578696
31
0.0000000000
11
22.4890393332
21
22.2486861279
31
0.0000000000
11
22.4338890068
21
22.2422714957
31
0.0000000000
11
22.3775119391
21
22.2296568237
31
0.0000000000
11
22.3202847367
21
22.2109263796
31
0.0000000000
11
22.2625896856
21
22.1862052854
31
0.0000000000
0
SPLINE
5
33C
100
AcDbEntity
8
0
100
AcDbSpline
62
9
6
CONTINUOUS
70
0
71
3
72
43
73
39
74
37
42
0.0000001000
43
0.0000001000
44
0.0000000001
12
4.2552928216
22
-3.4425808825
32
0.0000000000
13
-4.5974354537
23
-2.9735249305
33
0.0000000000
40
0.0000000000
40
0.0000000000
40
0.0000000000
40
0.0000000000
40
0.0022985752
40
0.0325445019
40
0.0634583124
40
0.0949837594
40
0.1270584213
40
0.1596146275
40
0.1925801621
40
0.2258792312
40
0.2594329817
40
0.2931605253
40
0.3269793212
40
0.3608062533
40
0.3945579341
40
0.4281518166
40
0.4615064842
40
0.4945427721
40
0.5271841108
40
0.5593576347
40
0.5909946456
40
0.6220316968
40
0.6524112382
40
0.6820826801
40
0.7110032677
40
0.7391391431
40
0.7664664694
40
0.7929725012
40
0.8186569156
40
0.8435328380
40
0.8676282025
40
0.8909865094
40
0.9136677919
40
0.9357485896
40
0.9573217962
40
0.9784950980
40
0.9993889440
40
1.0000000000
40
1.0000000000
40
1.0000000000
40
1.0000000000
10
29.8268123220
20
16.4575695601
30
0.0000000000
10
29.8300726922
20
16.4549318831
30
0.0000000000
10
29.8761636719
20
16.4174983666
30
0.0000000000
10
29.9640734767
20
16.3421050085
30
0.0000000000
10
30.0871530093
20
16.2260813712
30
0.0000000000
10
30.2071975197
20
16.1022350187
30
0.0000000000
10
30.3237363419
20
15.9710525027
30
0.0000000000
10
30.4363121694
20
15.8330493020
30
0.0000000000
10
30.5444830753
20
15.6887676689
30
0.0000000000
10
30.6478241150
20
15.5387747619
30
0.0000000000
10
30.7459293097
20
15.3836600769
30
0.0000000000
10
30.8384129976
20
15.2240335429
30
0.0000000000
10
30.9249117063
20
15.0605226040
30
0.0000000000
10
31.0050852821
20
14.8937702964
30
0.0000000000
10
31.0786185764
20
14.7244320700
30
0.0000000000
10
31.1452223823
20
14.5531738340
30
0.0000000000
10
31.2046348674
20
14.3806686279
30
0.0000000000
10
31.2566223363
20
14.2075946044
30
0.0000000000
10
31.3009803546
20
14.0346316726
30
0.0000000000
10
31.3375343394
20
13.8624593816
30
0.0000000000
10
31.3661403353
20
13.6917536603
30
0.0000000000
10
31.3866854117
20
13.5231845806
30
0.0000000000
10
31.3990880716
20
13.3574133116
30
0.0000000000
10
31.4032984097
20
13.1950897744
30
0.0000000000
10
31.3992981551
20
13.0368499262
30
0.0000000000
10
31.3871005349
20
12.8833133769
30
0.0000000000
10
31.3667499819
20
12.7350811265
30
0.0000000000
10
31.3383216831
20
12.5927333007
30
0.0000000000
10
31.3019210651
20
12.4568274849
30
0.0000000000
10
31.2576831420
20
12.3278968085
30
0.0000000000
10
31.2057720885
20
12.2064489825
30
0.0000000000
10
31.1463807864
20
12.0929648597
30
0.0000000000
10
31.0797310648
20
11.9878979451
30
0.0000000000
10
31.0060740305
20
11.8916729647
30
0.0000000000
10
30.9256913415
20
11.8046847556
30
0.0000000000
10
30.8388960851
20
11.7272954698
30
0.0000000000
10
30.7757991251
20
11.6814557595
30
0.0000000000
10
30.7428752962
20
11.6600912750
30
0.0000000000
10
30.7419388660
20
11.6594856116
30
0.0000000000
11
29.8268123220
21
16.4575695601
31
0.0000000000
11
29.8365783613
21
16.4496379783
31
0.0000000000
11
29.9622898953
21
16.3419452961
31
0.0000000000
11
30.0854560513
21
16.2259509304
31
0.0000000000
11
30.2055912208
21
16.1021122096
31
0.0000000000
11
30.3222217006
21
15.9709174444
31
0.0000000000
11
30.4348877640
21
15.8328837661
31
0.0000000000
11
30.5431450528
21
15.6885555874
31
0.0000000000
11
30.6465669409
21
15.5385016807
31
0.0000000000
11
30.7447454465
21
15.3833139868
31
0.0000000000
11
30.8372937314
21
15.2236039657
31
0.0000000000
11
30.9238466546
21
15.0600017418
31
0.0000000000
11
31.0040632229
21
14.8931518579
31
0.0000000000
11
31.0776269250
21
14.7237126564
31
0.0000000000
11
31.1442479523
21
14.5523516530
31
0.0000000000
11
31.2036634380
21
14.3797449863
31
0.0000000000
11
31.2556393017
21
14.2065726810
31
0.0000000000
11
31.2999704782
21
14.0335179649
31
0.0000000000
11
31.3364822948
21
13.8612627114
31
0.0000000000
11
31.3650307196
21
13.6904864234
31
0.0000000000
11
31.3855032467
21
13.5218621236
31
0.0000000000
11
31.3978191318
21
13.3560548493
31
0.0000000000
11
31.4019298300
21
13.1937181942
31
0.0000000000
11
31.3978191301
21
13.0354922379
31
0.0000000000
11
31.3855032433
21
12.8820008500
31
0.0000000000
11
31.3650307145
21
12.7338490783
31
0.0000000000
11
31.3364822881
21
12.5916212166
31
0.0000000000
11
31.2999704698
21
12.4558777812
31
0.0000000000
11
31.2556392916
21
12.3271542430
31
0.0000000000
11
31.2036634265
21
12.2059578035
31
0.0000000000
11
31.1442479390
21
12.0927666237
31
0.0000000000
11
31.0776269106
21
11.9880266502
31
0.0000000000
11
31.0040632066
21
11.8921511521
31
0.0000000000
11
30.9238466376
21
11.8055178393
31
0.0000000000
11
30.8372937123
21
11.7284685400
31
0.0000000000
11
30.7447454271
21
11.6613068068
31
0.0000000000
11
30.7419388660
21
11.6594856116
31
0.0000000000
0
SPLINE
5
33D
100
AcDbEntity
8
0
100
AcDbSpline
62
7
6
CONTINUOUS
70
0
71
3
72
52
73
48
74
46
42
0.0000001000
43
0.0000001000
44
0.0000000001
12
2.8079647602
22
2.2944541183
32
0.0000000000
13
-3.5426695453
23
-0.7737430376
33
0.0000000000
40
0.0000000000
40
0.0000000000
40
0.0000000000
40
0.0000000000
40
0.0616877447
40
0.1178694397
40
0.1690302600
40
0.2155908534
40
0.2579355335
40
0.2964152117
40
0.3313499686
40
0.3630313891
40
0.3917246180
40
0.4176701669
40
0.4410854844
40
0.4621663231
40
0.4810880051
40
0.4980067579
40
0.5130614519
40
0.5263772839
40
0.5380675631
40
0.5482415401
40
0.5570798610
40
0.5648565381
40
0.5718436015
40
0.5782612832
40
0.5842930263
40
0.5901022584
40
0.5958471574
40
0.6016970290
40
0.6078482184
40
0.6145015076
40
0.6218227656
40
0.6299701600
40
0.6391293518
40
0.6495009580
40
0.6612908276
40
0.6747079660
40
0.6899655552
40
0.7072837821
40
0.7268932649
40
0.7490385071
40
0.7739811980
40
0.8020033478
40
0.8334103126
40
0.8685337997
40
0.9077348844
40
0.9514071882
40
1.0000000000
40
1.0000000000
40
1.0000000000
40
1.0000000000
10
29.6636515889
20
11.4574252181
30
0.0000000000
10
29.7213905933
20
11.5046051181
30
0.0000000000
10
29.8312660002
20
11.5953057280
30
0.0000000000
10
29.9873412063
20
11.7271600735
30
0.0000000000
10
30.1279499330
20
11.8489677519
30
0.0000000000
10
30.2544051191
20
11.9615467980
30
0.0000000000
10
30.3678825020
20
12.0656268419
30
0.0000000000
10
30.4694523092
20
12.1618733814
30
0.0000000000
10
30.5600874956
20
12.2508921226
30
0.0000000000
10
30.6406711301
20
12.3332324441
30
0.0000000000
10
30.7120032514
20
12.4093900644
30
0.0000000000
10
30.7748073152
20
12.4798087719
30
0.0000000000
10
30.8297365408
20
12.5448811333
30
0.0000000000
10
30.8773806243
20
12.6049481401
30
0.0000000000
10
30.9182735586
20
12.6602979240
30
0.0000000000
10
30.9529036455
20
12.7111640848
30
0.0000000000
10
30.9817277274
20
12.7577259926
30
0.0000000000
10
31.0051884851
20
12.8001101151
30
0.0000000000
10
31.0237378275
20
12.8383999959
30
0.0000000000
10
31.0378928586
20
12.8727317711
30
0.0000000000
10
31.0482608543
20
12.9034337610
30
0.0000000000
10
31.0554630449
20
12.9310644795
30
0.0000000000
10
31.0600095356
20
12.9562876677
30
0.0000000000
10
31.0622313309
20
12.9797058328
30
0.0000000000
10
31.0622852368
20
13.0018097343
30
0.0000000000
10
31.0601694601
20
13.0230013835
30
0.0000000000
10
31.0557218786
20
13.0436128461
30
0.0000000000
10
31.0486009897
20
13.0639107608
30
0.0000000000
10
31.0382758251
20
13.0840402304
30
0.0000000000
10
31.0240943188
20
13.1039153817
30
0.0000000000
10
31.0054342614
20
13.1232031156
30
0.0000000000
10
30.9818006212
20
13.1414601319
30
0.0000000000
10
30.9527808990
20
13.1582810163
30
0.0000000000
10
30.9179642106
20
13.1733376614
30
0.0000000000
10
30.8769102348
20
13.1863512675
30
0.0000000000
10
30.8291348851
20
13.1970652429
30
0.0000000000
10
30.7741017251
20
13.2052265183
30
0.0000000000
10
30.7112161630
20
13.2105730964
30
0.0000000000
10
30.6398198663
20
13.2128256183
30
0.0000000000
10
30.5591849516
20
13.2116811348
30
0.0000000000
10
30.4685078601
20
13.2068080681
30
0.0000000000
10
30.3669028489
20
13.1978418075
30
0.0000000000
10
30.2533949805
20
13.1843806079
30
0.0000000000
10
30.1269126025
20
13.1659816047
30
0.0000000000
10
29.9862788796
20
13.1421567016
30
0.0000000000
10
29.8301799894
20
13.1123641350
30
0.0000000000
10
29.7210342642
20
13.0894259480
30
0.0000000000
10
29.6636515060
20
13.0768931648
30
0.0000000000
11
29.6636515889
21
11.4574252181
31
0.0000000000
11
29.8361137978
21
11.5998836570
31
0.0000000000
11
29.9916909173
21
11.7314116939
31
0.0000000000
11
30.1318636888
21
11.8529380755
31
0.0000000000
11
30.2579186772
21
11.9652595484
31
0.0000000000
11
30.3710282858
21
12.0691039146
31
0.0000000000
11
30.4722597937
21
12.1651351193
31
0.0000000000
11
30.5625833930
21
12.2539574336
31
0.0000000000
11
30.6428796240
21
12.3361189583
31
0.0000000000
11
30.7139461982
21
12.4121142536
31
0.0000000000
11
30.7765044401
21
12.4823860374
31
0.0000000000
11
30.8312056278
21
12.5473258357
31
0.0000000000
11
30.8786376817
21
12.6072734931
31
0.0000000000
11
30.9193329671
21
12.6625156631
31
0.0000000000
11
30.9537782859
21
12.7132837452
31
0.0000000000
11
30.9824284683
21
12.7597525371
31
0.0000000000
11
31.0057266374
21
12.8020455108
31
0.0000000000
11
31.0241233484
21
12.8402366527
31
0.0000000000
11
31.0381056950
21
12.8743770052
31
0.0000000000
11
31.0482868045
21
12.9047662418
31
0.0000000000
11
31.0553332577
21
12.9320713138
31
0.0000000000
11
31.0597663395
21
12.9570168267
31
0.0000000000
11
31.0619070396
21
12.9801898317
31
0.0000000000
11
31.0619071611
21
13.0020620216
31
0.0000000000
11
31.0597667179
21
13.0230183192
31
0.0000000000
11
31.0553339238
21
13.0433732764
31
0.0000000000
11
31.0482878131
21
13.0633815391
31
0.0000000000
11
31.0381071007
21
13.0832279636
31
0.0000000000
11
31.0241251305
21
13.1028893406
31
0.0000000000
11
31.0057287381
21
13.1220303926
31
0.0000000000
11
30.9824308321
21
13.1401976984
31
0.0000000000
11
30.9537808230
21
13.1569986691
31
0.0000000000
11
30.9193355835
21
13.1720978822
31
0.0000000000
11
30.8786402809
21
13.1851991280
31
0.0000000000
11
30.8312081189
21
13.1960296961
31
0.0000000000
11
30.7765067418
21
13.2043249530
31
0.0000000000
11
30.7139482421
21
13.2098159313
31
0.0000000000
11
30.6428813581
21
13.2122197397
31
0.0000000000
11
30.5625847836
21
13.2112321462
31
0.0000000000
11
30.4722608263
21
13.2065216620
31
0.0000000000
11
30.3710289670
21
13.1977245692
31
0.0000000000
11
30.2579190369
21
13.1844404843
31
0.0000000000
11
30.1318637819
21
13.1662281628
31
0.0000000000
11
29.9916908272
21
13.1426013596
31
0.0000000000
11
29.8361136375
21
13.1130245572
31
0.0000000000
11
29.6636515060
21
13.0768931648
31
0.0000000000
0
SPLINE
5
33E
100
AcDbEntity
8
0
100
AcDbSpline
62
9
6
CONTINUOUS
70
0
71
3
72
18
73
14
74
12
42
0.0000001000
43
0.0000001000
44
0.0000000001
12
0.3421819379
22
0.1701299167
32
0.0000000000
13
0.1978664154
23
-0.3095906505
33
0.0000000000
40
0.0000000000
40
0.0000000000
40
0.0000000000
40
0.0000000000
40
0.1612065774
40
0.3104715131
40
0.4468244645
40
0.5693897844
40
0.6773973839
40
0.7701972756
40
0.8472833076
40
0.9083419999
40
0.9533820448
40
0.9831967870
40
1.0000000000
40
1.0000000000
40
1.0000000000
40
1.0000000000
10
29.1319514139
20
18.3315623737
30
0.0000000000
10
29.1503387402
20
18.3407043942
30
0.0000000000
10
29.1858419320
20
18.3581300013
30
0.0000000000
10
29.2372394589
20
18.3825841768
30
0.0000000000
10
29.2845088406
20
18.4042465085
30
0.0000000000
10
29.3273336814
20
18.4229792053
30
0.0000000000
10
29.3654290279
20
18.4386539824
30
0.0000000000
10
29.3985383115
20
18.4512059399
30
0.0000000000
10
29.4264543988
20
18.4604880502
30
0.0000000000
10
29.4489843800
20
18.4667078736
30
0.0000000000
10
29.4661237186
20
18.4693394160
30
0.0000000000
10
29.4778441169
20
18.4698133511
30
0.0000000000
10
29.4836678117
20
18.4663829309
30
0.0000000000
10
29.4847760755
20
18.4646488917
30
0.0000000000
11
29.1319514139
21
18.3315623737
31
0.0000000000
11
29.1872640687
21
18.3586832698
31
0.0000000000
11
29.2387852276
21
18.3831614453
31
0.0000000000
11
29.2861707221
21
18.4048333825
31
0.0000000000
11
29.3291040102
21
18.4235543099
31
0.0000000000
11
29.3672982916
21
18.4391991689
31
0.0000000000
11
29.4004984231
21
18.4516634499
31
0.0000000000
11
29.4284826231
21
18.4608638895
31
0.0000000000
11
29.4510639533
21
18.4667390275
31
0.0000000000
11
29.4680915671
21
18.4692496173
31
0.0000000000
11
29.4794517177
21
18.4683788877
31
0.0000000000
11
29.4847760755
21
18.4646488917
31
0.0000000000
0
SPLINE
5
33F
100
AcDbEntity
8
0
100
AcDbSpline
62
7
6
CONTINUOUS
70
0
71
3
72
18
73
14
74
12
42
0.0000001000
43
0.0000001000
44
0.0000000001
12
0.3459745596
22
0.1680568266
32
0.0000000000
13
0.3443637069
23
-0.1722285845
33
0.0000000000
40
0.0000000000
40
0.0000000000
40
0.0000000000
40
0.0000000000
40
0.1297946914
40
0.2520704309
40
0.3667499221
40
0.4738432021
40
0.5734632031
40
0.6658448809
40
0.7513682582
40
0.8305847233
40
0.9042435825
40
0.9733112212
40
1.0000000000
40
1.0000000000
40
1.0000000000
40
1.0000000000
10
28.7890538379
20
18.9229732093
30
0.0000000000
10
28.8040223916
20
18.9302441706
30
0.0000000000
10
28.8333973059
20
18.9437507599
30
0.0000000000
10
28.8770331558
20
18.9613215614
30
0.0000000000
10
28.9187985888
20
18.9755870288
30
0.0000000000
10
28.9585522365
20
18.9865369122
30
0.0000000000
10
28.9961660095
20
18.9941736293
30
0.0000000000
10
29.0315242022
20
18.9985103683
30
0.0000000000
10
29.0645238775
20
18.9995695181
30
0.0000000000
10
29.0950734071
20
18.9973803174
30
0.0000000000
10
29.1230888181
20
18.9919769519
30
0.0000000000
10
29.1437377631
20
18.9850034743
30
0.0000000000
10
29.1549013001
20
18.9798488847
30
0.0000000000
10
29.1579648491
20
18.9783166945
30
0.0000000000
11
28.7890538379
21
18.9229732093
31
0.0000000000
11
28.8344369505
21
18.9437744930
31
0.0000000000
11
28.8780892855
21
18.9612787681
31
0.0000000000
11
28.9198557698
21
18.9754631405
31
0.0000000000
11
28.9595912933
21
18.9863178541
31
0.0000000000
11
28.9971614093
21
18.9938464101
31
0.0000000000
11
29.0324429511
21
18.9980655206
31
0.0000000000
11
29.0653245318
21
18.9990048966
31
0.0000000000
11
29.0957069069
21
18.9967068774
31
0.0000000000
11
29.1235032110
21
18.9912259179
31
0.0000000000
11
29.1486389714
21
18.9826279774
31
0.0000000000
11
29.1579648491
21
18.9783166945
31
0.0000000000
0
SPLINE
5
340
100
AcDbEntity
8
0
100
AcDbSpline
62
9
6
CONTINUOUS
70
0
71
3
72
19
73
15
74
13
42
0.0000001000
43
0.0000001000
44
0.0000000001
12
0.0043621578
22
1.5071270313
32
0.0000000000
13
-0.7596320570
23
1.3016950699
33
0.0000000000
40
0.0000000000
40
0.0000000000
40
0.0000000000
40
0.0000000000
40
0.0762817009
40
0.1544246992
40
0.2342915930
40
0.3157231579
40
0.3985441601
40
0.4825648517
40
0.5675828668
40
0.6533860756
40
0.7397553920
40
0.8264664344
40
0.9132904740
40
1.0000000000
40
1.0000000000
40
1.0000000000
40
1.0000000000
10
29.5461018895
20
16.8999287991
30
0.0000000000
10
29.5462128071
20
16.9382508702
30
0.0000000000
10
29.5443217591
20
17.0158498170
30
0.0000000000
10
29.5354356420
20
17.1332630907
30
0.0000000000
10
29.5205033841
20
17.2526697865
30
0.0000000000
10
29.4995893331
20
17.3735572983
30
0.0000000000
10
29.4727831607
20
17.4954118469
30
0.0000000000
10
29.4401994602
20
17.6177139195
30
0.0000000000
10
29.4019774399
20
17.7399420494
30
0.0000000000
10
29.3582803086
20
17.8615748612
30
0.0000000000
10
29.3092946318
20
17.9820934592
30
0.0000000000
10
29.2552291495
20
18.1009841510
30
0.0000000000
10
29.1963158253
20
18.2177374816
30
0.0000000000
10
29.1539071924
20
18.2939392529
30
0.0000000000
10
29.1319514139
20
18.3315623737
30
0.0000000000
11
29.5461018895
21
16.8999287991
31
0.0000000000
11
29.5433768314
21
17.0148631934
31
0.0000000000
11
29.5345567183
21
17.1323043718
31
0.0000000000
11
29.5196792017
21
17.2517514753
31
0.0000000000
11
29.4988081248
21
17.3726920217
31
0.0000000000
11
29.4720327976
21
17.4946087431
31
0.0000000000
11
29.4394677267
21
17.6169801890
31
0.0000000000
11
29.4012523811
21
17.7392821818
31
0.0000000000
11
29.3575504787
21
17.8609908439
31
0.0000000000
11
29.3085489509
21
17.9815856163
31
0.0000000000
11
29.2544573360
21
18.1005507095
31
0.0000000000
11
29.1955077030
21
18.2173756976
31
0.0000000000
11
29.1319514139
21
18.3315623737
31
0.0000000000
0
SPLINE
5
341
100
AcDbEntity
8
0
100
AcDbSpline
62
9
6
CONTINUOUS
70
0
71
3
72
17
73
13
74
11
42
0.0000001000
43
0.0000001000
44
0.0000000001
12
0.4163435503
22
0.2155681837
32
0.0000000000
13
-0.0000278342
23
0.4693695292
33
0.0000000000
40
0.0000000000
40
0.0000000000
40
0.0000000000
40
0.0000000000
40
0.1329189116
40
0.2587863602
40
0.3775375991
40
0.4893034249
40
0.5944452287
40
0.6935904860
40
0.7876608200
40
0.8778788512
40
0.9657362157
40
1.0000000000
40
1.0000000000
40
1.0000000000
40
1.0000000000
10
29.5461018895
20
16.8999287991
30
0.0000000000
10
29.5645485333
20
16.9094798285
30
0.0000000000
10
29.5998752843
20
16.9292485190
30
0.0000000000
10
29.6491445363
20
16.9618144967
30
0.0000000000
10
29.6929687465
20
16.9963031310
30
0.0000000000
10
29.7310547743
20
17.0324991361
30
0.0000000000
10
29.7631452004
20
17.0701828500
30
0.0000000000
10
29.7890103819
20
17.1091271580
30
0.0000000000
10
29.8084463845
20
17.1490927477
30
0.0000000000
10
29.8212764124
20
17.1898173502
30
0.0000000000
10
29.8261494870
20
17.2227890924
30
0.0000000000
10
29.8267608627
20
17.2418954976
30
0.0000000000
10
29.8267605448
20
17.2472562897
30
0.0000000000
11
29.5461018895
21
16.8999287991
31
0.0000000000
11
29.6004277238
21
16.9304609334
31
0.0000000000
11
29.6495853624
21
16.9631093168
31
0.0000000000
11
29.6932464253
21
16.9976558533
31
0.0000000000
11
29.7311192506
21
17.0338697673
31
0.0000000000
11
29.7629508423
21
17.0715091448
31
0.0000000000
11
29.7885285610
21
17.1103225492
31
0.0000000000
11
29.8076815439
21
17.1500507016
31
0.0000000000
11
29.8202818464
21
17.1904282124
31
0.0000000000
11
29.8262452967
21
17.2311853541
31
0.0000000000
11
29.8267605448
21
17.2472562897
31
0.0000000000
0
SPLINE
5
342
100
AcDbEntity
8
0
100
AcDbSpline
62
9
6
CONTINUOUS
70
0
71
3
72
17
73
13
74
11
42
0.0000001000
43
0.0000001000
44
0.0000000001
12
0.4163456096
22
0.2155692499
32
0.0000000000
13
-0.0000199210
23
0.4693694760
33
0.0000000000
40
0.0000000000
40
0.0000000000
40
0.0000000000
40
0.0000000000
40
0.1324789456
40
0.2579547231
40
0.3763623229
40
0.4878294083
40
0.5927107565
40
0.6916231879
40
0.7854733697
40
0.8754651162
40
0.9630689797
40
1.0000000000
40
1.0000000000
40
1.0000000000
40
1.0000000000
10
29.5461018895
20
-13.4451514468
30
0.0000000000
10
29.5644875653
20
-13.4356319844
30
0.0000000000
10
29.5997028214
20
-13.4159306005
30
0.0000000000
10
29.6488309717
20
-13.3834848713
30
0.0000000000
10
29.6925527075
20
-13.3491282544
30
0.0000000000
10
29.7305775733
20
-13.3130739079
30
0.0000000000
10
29.7626504368
20
-13.2755393387
30
0.0000000000
10
29.7885436912
20
-13.2367493877
30
0.0000000000
10
29.8080552301
20
-13.1969407614
30
0.0000000000
10
29.8210096937
20
-13.1563724558
30
0.0000000000
10
29.8260884920
20
-13.1230855813
30
0.0000000000
10
29.8267607357
20
-13.1036014800
30
0.0000000000
10
29.8267604904
20
-13.0978233821
30
0.0000000000
11
29.5461018895
21
-13.4451514468
31
0.0000000000
11
29.6002518035
21
-13.4147266879
31
0.0000000000
11
29.6492697084
21
-13.3821993072
31
0.0000000000
11
29.6928303764
21
-13.3477851197
31
0.0000000000
11
29.7306447878
21
-13.3117124595
31
0.0000000000
11
29.7624620487
21
-13.2742206640
31
0.0000000000
11
29.7880710555
21
-13.2355584869
31
0.0000000000
11
29.8073018956
21
-13.1959824469
31
0.0000000000
11
29.8200269747
21
-13.1557551261
31
0.0000000000
11
29.8261618634
21
-13.1151434279
31
0.0000000000
11
29.8267604904
21
-13.0978233821
31
0.0000000000
0
SPLINE
5
343
100
AcDbEntity
8
0
100
AcDbSpline
62
9
6
CONTINUOUS
70
0
71
3
72
9
73
5
74
3
42
0.0000001000
43
0.0000001000
44
0.0000000001
12
0.0776924171
22
0.0410062346
32
0.0000000000
13
0.0711542095
23
0.0515681931
33
0.0000000000
40
0.0000000000
40
0.0000000000
40
0.0000000000
40
0.0000000000
40
0.6190889221
40
1.0000000000
40
1.0000000000
40
1.0000000000
40
1.0000000000
10
29.1319514139
20
-14.4626345458
30
0.0000000000
10
29.1479842521
20
-14.4541723772
30
0.0000000000
10
29.1733011148
20
-14.4393683745
30
0.0000000000
10
29.1974844709
20
-14.4228199601
30
0.0000000000
10
29.2065189464
20
-14.4162723281
30
0.0000000000
11
29.1319514139
21
-14.4626345458
31
0.0000000000
11
29.1788965902
21
-14.4351738065
31
0.0000000000
11
29.2065189464
21
-14.4162723281
31
0.0000000000
0
SPLINE
5
344
100
AcDbEntity
8
0
100
AcDbSpline
62
9
6
CONTINUOUS
70
0
71
3
72
9
73
5
74
3
42
0.0000001000
43
0.0000001000
44
0.0000000001
12
0.0699950325
22
0.0506595091
32
0.0000000000
13
0.0640798488
23
0.0580279161
33
0.0000000000
40
0.0000000000
40
0.0000000000
40
0.0000000000
40
0.0000000000
40
0.9448939271
40
1.0000000000
40
1.0000000000
40
1.0000000000
40
1.0000000000
10
29.1319514139
20
-14.4626345458
30
0.0000000000
10
29.1539973742
20
-14.4466785916
30
0.0000000000
10
29.1764539650
20
-14.4285470584
30
0.0000000000
10
29.1978713104
20
-14.4092671841
30
0.0000000000
10
29.1990483734
20
-14.4082012873
30
0.0000000000
11
29.1319514139
21
-14.4626345458
31
0.0000000000
11
29.1955077030
21
-14.4113885733
31
0.0000000000
11
29.1990483734
21
-14.4082012873
31
0.0000000000
0
SPLINE
5
345
100
AcDbEntity
8
0
100
AcDbSpline
62
9
6
CONTINUOUS
70
0
71
3
72
18
73
14
74
12
42
0.0000001000
43
0.0000001000
44
0.0000000001
12
0.7812084705
22
0.7074283177
32
0.0000000000
13
-0.0030579805
23
1.0533643708
33
0.0000000000
40
0.0000000000
40
0.0000000000
40
0.0000000000
40
0.0000000000
40
0.0742437328
40
0.1547197810
40
0.2373042128
40
0.3223302176
40
0.4100633502
40
0.5007007547
40
0.5943739111
40
0.6911530636
40
0.7910513794
40
0.8940285524
40
1.0000000000
40
1.0000000000
40
1.0000000000
40
1.0000000000
10
29.1990483734
20
-14.4082012873
30
0.0000000000
10
29.2183816510
20
-14.3906939143
30
0.0000000000
10
29.2568929322
20
-14.3522650160
30
0.0000000000
10
29.3100700011
20
-14.2879482065
30
0.0000000000
10
29.3591135294
20
-14.2158117815
30
0.0000000000
10
29.4028120399
20
-14.1373982630
30
0.0000000000
10
29.4409878123
20
-14.0530501726
30
0.0000000000
10
29.4734875351
20
-13.9631313707
30
0.0000000000
10
29.5001809237
20
-13.8680269404
30
0.0000000000
10
29.5209612047
20
-13.7681423482
30
0.0000000000
10
29.5357452600
20
-13.6639013513
30
0.0000000000
10
29.5444742804
20
-13.5557503977
30
0.0000000000
10
29.5462099090
20
-13.4823602958
30
0.0000000000
10
29.5461018895
20
-13.4451514468
30
0.0000000000
11
29.1990483734
21
-14.4082012873
31
0.0000000000
11
29.2544573360
21
-14.3530059113
31
0.0000000000
11
29.3085489509
21
-14.2877356064
31
0.0000000000
11
29.3575504787
21
-14.2158576906
31
0.0000000000
11
29.4012523811
21
-14.1376796405
31
0.0000000000
11
29.4394677267
21
-14.0535358146
31
0.0000000000
11
29.4720327976
21
-13.9637866182
31
0.0000000000
11
29.4988081248
21
-13.8688165142
31
0.0000000000
11
29.5196792017
21
-13.7690317160
31
0.0000000000
11
29.5345567183
21
-13.6648589556
31
0.0000000000
11
29.5433768314
21
-13.5567451971
31
0.0000000000
11
29.5461018895
21
-13.4451514468
31
0.0000000000
0
SPLINE
5
346
100
AcDbEntity
8
0
100
AcDbSpline
62
9
6
CONTINUOUS
70
0
71
3
72
13
73
9
74
7
42
0.0000001000
43
0.0000001000
44
0.0000000001
12
0.0831894255
22
0.0416210685
32
0.0000000000
13
0.0830442216
23
-0.0415221109
33
0.0000000000
40
0.0000000000
40
0.0000000000
40
0.0000000000
40
0.0000000000
40
0.0398015084
40
0.2136565539
40
0.3933138876
40
0.5826498345
40
0.7843828888
40
1.0000000000
40
1.0000000000
40
1.0000000000
40
1.0000000000
10
8.2383636933
20
19.4578340322
30
0.0000000000
10
8.2394673815
20
19.4583862260
30
0.0000000000
10
8.2454649014
20
19.4612041880
30
0.0000000000
10
8.2571598613
20
19.4648985259
30
0.0000000000
10
8.2739874435
20
19.4665722870
30
0.0000000000
10
8.2916731881
20
19.4649861900
30
0.0000000000
10
8.3099076566
20
19.4602100505
30
0.0000000000
10
8.3218375171
20
19.4551385874
30
0.0000000000
10
8.3278061022
20
19.4521542948
30
0.0000000000
11
8.2383636933
21
19.4578340322
31
0.0000000000
11
8.2417142400
21
19.4594079790
31
0.0000000000
11
8.2570954290
21
19.4643045542
31
0.0000000000
11
8.2736864967
21
19.4660296482
31
0.0000000000
11
8.2912035654
21
19.4645537444
31
0.0000000000
11
8.3093469131
21
19.4599020962
31
0.0000000000
11
8.3278061022
21
19.4521542948
31
0.0000000000
0
SPLINE
5
347
100
AcDbEntity
8
0
100
AcDbSpline
62
7
6
CONTINUOUS
70
0
71
3
72
14
73
10
74
8
42
0.0000001000
43
0.0000001000
44
0.0000000001
12
0.0791351001
22
0.0395884654
32
0.0000000000
13
0.0790056663
23
-0.0395028331
33
0.0000000000
40
0.0000000000
40
0.0000000000
40
0.0000000000
40
0.0000000000
40
0.0108975268
40
0.1508652764
40
0.2976080641
40
0.4542147772
40
0.6228187521
40
0.8046187890
40
1.0000000000
40
1.0000000000
40
1.0000000000
40
1.0000000000
10
8.1768063426
20
19.4270559824
30
0.0000000000
10
8.1770938016
20
19.4271997879
30
0.0000000000
10
8.1810896996
20
19.4291577386
30
0.0000000000
10
8.1894026419
20
19.4321139356
30
0.0000000000
10
8.2023876985
20
19.4340370095
30
0.0000000000
10
8.2163391021
20
19.4336739756
30
0.0000000000
10
8.2310841168
20
19.4310507930
30
0.0000000000
10
8.2464471440
20
19.4262122634
30
0.0000000000
10
8.2566241781
20
19.4217087404
30
0.0000000000
10
8.2617695857
20
19.4191360366
30
0.0000000000
11
8.1768063426
21
19.4270559824
31
0.0000000000
11
8.1776722152
21
19.4274802502
31
0.0000000000
11
8.1893062004
21
19.4316643123
31
0.0000000000
11
8.2021179656
21
19.4336316877
31
0.0000000000
11
8.2159483490
21
19.4333510321
31
0.0000000000
11
8.2306245915
21
19.4308195906
31
0.0000000000
11
8.2459626226
21
19.4260632391
31
0.0000000000
11
8.2617695857
21
19.4191360366
31
0.0000000000
0
SPLINE
5
348
100
AcDbEntity
8
0
100
AcDbSpline
62
7
6
CONTINUOUS
70
0
71
3
72
14
73
10
74
8
42
0.0000001000
43
0.0000001000
44
0.0000000001
12
-0.0767194535
22
0.0305938721
32
0.0000000000
13
-0.0718368564
23
-0.0405369472
33
0.0000000000
40
0.0000000000
40
0.0000000000
40
0.0000000000
40
0.0000000000
40
0.0115072713
40
0.1590396405
40
0.3105108561
40
0.4685864605
40
0.6353469381
40
0.8122195419
40
1.0000000000
40
1.0000000000
40
1.0000000000
40
1.0000000000
10
9.4758851426
20
19.4986111299
30
0.0000000000
10
9.4755908655
20
19.4987284806
30
0.0000000000
10
9.4715121574
20
19.5003212647
30
0.0000000000
10
9.4632473133
20
19.5026397226
30
0.0000000000
10
9.4506783510
20
19.5038638995
30
0.0000000000
10
9.4375584707
20
19.5029867670
30
0.0000000000
10
9.4240370105
20
19.5000360276
30
0.0000000000
10
9.4102610370
20
19.4950594181
30
0.0000000000
10
9.4012714013
20
19.4905668404
30
0.0000000000
10
9.3967748820
20
19.4880294915
30
0.0000000000
11
9.4758851426
21
19.4986111299
31
0.0000000000
11
9.4749998292
21
19.4989568497
31
0.0000000000
11
9.4632879843
21
19.5022617489
31
0.0000000000
11
9.4508565106
21
19.5035112059
31
0.0000000000
11
9.4378434019
21
19.5026919962
31
0.0000000000
11
9.4243926972
21
19.4998135953
31
0.0000000000
11
9.4106528180
21
19.4949080316
31
0.0000000000
11
9.3967748820
21
19.4880294915
31
0.0000000000
0
SPLINE
5
349
100
AcDbEntity
8
0
100
AcDbSpline
62
7
6
CONTINUOUS
70
0
71
3
72
12
73
8
74
6
42
0.0000001000
43
0.0000001000
44
0.0000000001
12
-0.1186155455
22
-0.0259064390
32
0.0000000000
13
-0.1049839928
23
0.0609848544
33
0.0000000000
40
0.0000000000
40
0.0000000000
40
0.0000000000
40
0.0000000000
40
0.2205374340
40
0.4282314194
40
0.6252048294
40
0.8146008629
40
1.0000000000
40
1.0000000000
40
1.0000000000
40
1.0000000000
10
29.6636515060
20
13.0768931648
30
0.0000000000
10
29.6549317833
20
13.0749887183
30
0.0000000000
10
29.6377574233
20
13.0722747591
30
0.0000000000
10
29.6123694517
20
13.0718338217
30
0.0000000000
10
29.5884519611
20
13.0751557771
30
0.0000000000
10
29.5662558861
20
13.0820336370
30
0.0000000000
10
29.5525898701
20
13.0887616740
30
0.0000000000
10
29.5461018895
20
13.0925305205
30
0.0000000000
11
29.6636515060
21
13.0768931648
31
0.0000000000
11
29.6371853037
21
13.0728330594
31
0.0000000000
11
29.6119710645
21
13.0724975295
31
0.0000000000
11
29.5882915725
21
13.0758445589
31
0.0000000000
11
29.5663263489
21
13.0826485116
31
0.0000000000
11
29.5461018895
21
13.0925305205
31
0.0000000000
0
SPLINE
5
34A
100
AcDbEntity
8
0
100
AcDbSpline
62
9
6
CONTINUOUS
70
0
71
3
72
26
73
22
74
20
42
0.0000001000
43
0.0000001000
44
0.0000000001
12
0.5182280144
22
-1.6358446979
32
0.0000000000
13
-1.2093933320
23
-1.2168883099
33
0.0000000000
40
0.0000000000
40
0.0000000000
40
0.0000000000
40
0.0000000000
40
0.0440767476
40
0.1241401869
40
0.2083797520
40
0.2953207116
40
0.3823573643
40
0.4656486343
40
0.5404803916
40
0.6066753271
40
0.6657854875
40
0.7187674542
40
0.7661079903
40
0.8082482940
40
0.8457577402
40
0.8793179295
40
0.9094922063
40
0.9365022720
40
0.9604007653
40
0.9813995221
40
1.0000000000
40
1.0000000000
40
1.0000000000
40
1.0000000000
10
29.8268569787
20
14.7286864952
30
0.0000000000
10
29.8344709138
20
14.7046522573
30
0.0000000000
10
29.8545883734
20
14.6365399068
30
0.0000000000
10
29.8822419536
20
14.5205340797
30
0.0000000000
10
29.9062930560
20
14.3787747243
30
0.0000000000
10
29.9215513411
20
14.2317941073
30
0.0000000000
10
29.9275940733
20
14.0846985337
30
0.0000000000
10
29.9250680132
20
13.9444415205
30
0.0000000000
10
29.9157792532
20
13.8164370363
30
0.0000000000
10
29.9018349915
20
13.7027912498
30
0.0000000000
10
29.8847240572
20
13.6022423386
30
0.0000000000
10
29.8653862505
20
13.5131085287
30
0.0000000000
10
29.8445400393
20
13.4343197220
30
0.0000000000
10
29.8227484231
20
13.3650149338
30
0.0000000000
10
29.8003805020
20
13.3042308947
30
0.0000000000
10
29.7776245645
20
13.2509610540
30
0.0000000000
10
29.7546055760
20
13.2044176014
30
0.0000000000
10
29.7315301947
20
13.1641605986
30
0.0000000000
10
29.7087121492
20
13.1299080163
30
0.0000000000
10
29.6864118774
20
13.1012081861
30
0.0000000000
10
29.6711499373
20
13.0844380662
30
0.0000000000
10
29.6636515060
20
13.0768931648
30
0.0000000000
11
29.8268569787
21
14.7286864952
31
0.0000000000
11
29.8482973042
21
14.6561591435
31
0.0000000000
11
29.8802450220
21
14.5225653257
31
0.0000000000
11
29.9045156590
21
14.3800923499
31
0.0000000000
11
29.9199988628
21
14.2317380074
31
0.0000000000
11
29.9261791485
21
14.0825416651
31
0.0000000000
11
29.9236161512
21
13.9396661186
31
0.0000000000
11
29.9142992951
21
13.8116196417
31
0.0000000000
11
29.9004216748
21
13.6989035010
31
0.0000000000
11
29.8833467466
21
13.5989390496
31
0.0000000000
11
29.8640014696
21
13.5101230371
31
0.0000000000
11
29.8431461118
21
13.4316265654
31
0.0000000000
11
29.8213745702
21
13.3626846137
31
0.0000000000
11
29.7990620447
21
13.3023235130
31
0.0000000000
11
29.7763527472
21
13.2494136409
31
0.0000000000
11
29.7533105753
21
13.2030560023
31
0.0000000000
11
29.7301755555
21
13.1629044686
31
0.0000000000
11
29.7073611003
21
13.1288366483
31
0.0000000000
11
29.6851886469
21
13.1004414056
31
0.0000000000
11
29.6636515060
21
13.0768931648
31
0.0000000000
0
SPLINE
5
34B
100
AcDbEntity
8
0
100
AcDbSpline
62
9
6
CONTINUOUS
70
0
71
3
72
26
73
22
74
20
42
0.0000001000
43
0.0000001000
44
0.0000000001
12
0.5615466741
22
0.2085741534
32
0.0000000000
13
-0.4382444104
23
-0.4088799131
33
0.0000000000
40
0.0000000000
40
0.0000000000
40
0.0000000000
40
0.0000000000
40
0.0377805972
40
0.0757080866
40
0.1140705018
40
0.1527597122
40
0.1917038381
40
0.2312699412
40
0.2722494537
40
0.3154571987
40
0.3614842032
40
0.4107192388
40
0.4635187500
40
0.5206552983
40
0.5835369981
40
0.6524988374
40
0.7254272896
40
0.8021500970
40
0.8812987799
40
0.9643827184
40
1.0000000000
40
1.0000000000
40
1.0000000000
40
1.0000000000
10
29.6636515889
20
11.4574252181
30
0.0000000000
10
29.6707234452
20
11.4600519035
30
0.0000000000
10
29.6851193789
20
11.4647386063
30
0.0000000000
10
29.7073837571
20
11.4697217401
30
0.0000000000
10
29.7302547391
20
11.4722603909
30
0.0000000000
10
29.7534792973
20
11.4719566151
30
0.0000000000
10
29.7767012628
20
11.4685117205
30
0.0000000000
10
29.7996587358
20
11.4617278858
30
0.0000000000
10
29.8221995883
20
11.4513999311
30
0.0000000000
10
29.8441315582
20
11.4372718355
30
0.0000000000
10
29.8650899063
20
11.4190956137
30
0.0000000000
10
29.8845182665
20
11.3966774753
30
0.0000000000
10
29.9017083466
20
11.3698074910
30
0.0000000000
10
29.9157326717
20
11.3381207890
30
0.0000000000
10
29.9250930666
20
11.3013610888
30
0.0000000000
10
29.9275971256
20
11.2602757243
30
0.0000000000
10
29.9212618393
20
11.2167632476
30
0.0000000000
10
29.9054057231
20
11.1735839296
30
0.0000000000
10
29.8806756618
20
11.1324931159
30
0.0000000000
10
29.8550387281
20
11.1022503063
30
0.0000000000
10
29.8381022179
20
11.0856405546
30
0.0000000000
10
29.8328991931
20
11.0807861576
30
0.0000000000
11
29.6636515889
21
11.4574252181
31
0.0000000000
11
29.6851862870
21
11.4643859951
31
0.0000000000
11
29.7073692630
21
11.4692953561
31
0.0000000000
11
29.7302146566
21
11.4717814457
31
0.0000000000
11
29.7533881834
21
11.4714410396
31
0.0000000000
11
29.7764618979
21
11.4680010826
31
0.0000000000
11
29.7991930940
21
11.4612895296
31
0.0000000000
11
29.8215201813
21
11.4510863489
31
0.0000000000
11
29.8432995204
21
11.4371014257
31
0.0000000000
11
29.8641564943
21
11.4190686977
31
0.0000000000
11
29.8834988778
21
11.3968037707
31
0.0000000000
11
29.9005591754
21
11.3701708921
31
0.0000000000
11
29.9144063644
21
11.3388705398
31
0.0000000000
11
29.9236731716
21
11.3023601312
31
0.0000000000
11
29.9261674528
21
11.2611252387
31
0.0000000000
11
29.9199387741
21
11.2178851663
31
0.0000000000
11
29.9042826324
21
11.1746746996
31
0.0000000000
11
29.8800756615
21
11.1339074669
31
0.0000000000
11
29.8481260499
21
11.0957465087
31
0.0000000000
11
29.8328991931
21
11.0807861576
31
0.0000000000
0
SPLINE
5
34C
100
AcDbEntity
8
0
100
AcDbSpline
62
9
6
CONTINUOUS
70
0
71
3
72
8
73
4
74
2
42
0.0000001000
43
0.0000001000
44
0.0000000001
12
-0.0037667968
22
-0.0035144031
32
0.0000000000
13
-0.0038083062
23
-0.0034695209
33
0.0000000000
40
0.0000000000
40
0.0000000000
40
0.0000000000
40
0.0000000000
40
1.0000000000
40
1.0000000000
40
1.0000000000
40
1.0000000000
10
29.8328991931
20
11.0807861576
30
0.0000000000
10
29.8316435942
20
11.0796146899
30
0.0000000000
10
29.8303809438
20
11.0784507635
30
0.0000000000
10
29.8291115083
20
11.0772942565
30
0.0000000000
11
29.8328991931
21
11.0807861576
31
0.0000000000
11
29.8291115083
21
11.0772942565
31
0.0000000000
0
SPLINE
5
34D
100
AcDbEntity
8
0
100
AcDbSpline
62
9
6
CONTINUOUS
70
0
71
3
72
8
73
4
74
2
42
0.0000001000
43
0.0000001000
44
0.0000000001
12
-0.0003109459
22
-0.0002832843
32
0.0000000000
13
-0.0003112169
23
-0.0002829877
33
0.0000000000
40
0.0000000000
40
0.0000000000
40
0.0000000000
40
0.0000000000
40
1.0000000000
40
1.0000000000
40
1.0000000000
40
1.0000000000
10
29.8291115083
20
11.0772942565
30
0.0000000000
10
29.8290078597
20
11.0771998284
30
0.0000000000
10
29.8289041658
20
11.0771054498
30
0.0000000000
10
29.8288004269
20
11.0770111205
30
0.0000000000
11
29.8291115083
21
11.0772942565
31
0.0000000000
11
29.8288004269
21
11.0770111205
31
0.0000000000
0
SPLINE
5
34E
100
AcDbEntity
8
0
100
AcDbSpline
62
9
6
CONTINUOUS
70
0
71
3
72
8
73
4
74
2
42
0.0000001000
43
0.0000001000
44
0.0000000001
12
-0.0019842086
22
-0.0018042295
32
0.0000000000
13
-0.0019950925
23
-0.0017922336
33
0.0000000000
40
0.0000000000
40
0.0000000000
40
0.0000000000
40
0.0000000000
40
1.0000000000
40
1.0000000000
40
1.0000000000
40
1.0000000000
10
29.8288004269
20
11.0770111205
30
0.0000000000
10
29.8281390240
20
11.0764097107
30
0.0000000000
10
29.8274757884
20
11.0758103088
30
0.0000000000
10
29.8268107575
20
11.0752128976
30
0.0000000000
11
29.8288004269
21
11.0770111205
31
0.0000000000
11
29.8268107575
21
11.0752128976
31
0.0000000000
0
SPLINE
5
34F
100
AcDbEntity
8
0
100
AcDbSpline
62
7
6
CONTINUOUS
70
0
71
3
72
12
73
8
74
6
42
0.0000001000
43
0.0000001000
44
0.0000000001
12
0.0955439166
22
0.1544400270
32
0.0000000000
13
0.1406273947
23
0.1149099553
33
0.0000000000
40
0.0000000000
40
0.0000000000
40
0.0000000000
40
0.0000000000
40
0.2030093957
40
0.4057526520
40
0.6071217681
40
0.8056666823
40
1.0000000000
40
1.0000000000
40
1.0000000000
40
1.0000000000
10
29.5461018895
20
11.3200616035
30
0.0000000000
10
29.5525673271
20
11.3305125291
30
0.0000000000
10
29.5660203030
20
11.3510800048
30
0.0000000000
10
29.5879264366
20
11.3806185299
30
0.0000000000
10
29.6115412513
20
11.4084639801
30
0.0000000000
10
29.6366972019
20
11.4342194938
30
0.0000000000
10
29.6545420595
20
11.4499816072
30
0.0000000000
10
29.6636515889
20
11.4574252181
30
0.0000000000
11
29.5461018895
21
11.3200616035
31
0.0000000000
11
29.5663263587
21
11.3508866647
31
0.0000000000
11
29.5882915972
21
11.3804362908
31
0.0000000000
11
29.6119711068
21
11.4083041701
31
0.0000000000
11
29.6371853666
21
11.4340787644
31
0.0000000000
11
29.6636515889
21
11.4574252181
31
0.0000000000
0
SPLINE
5
350
100
AcDbEntity
8
0
100
AcDbSpline
62
9
6
CONTINUOUS
70
0
71
3
72
26
73
22
74
20
42
0.0000001000
43
0.0000001000
44
0.0000000001
12
0.3679460190
22
0.3343450283
32
0.0000000000
13
0.0091124368
23
-0.4973243940
33
0.0000000000
40
0.0000000000
40
0.0000000000
40
0.0000000000
40
0.0000000000
40
0.0464259377
40
0.0898717096
40
0.1306996075
40
0.1691507387
40
0.2054556519
40
0.2400827855
40
0.2742473728
40
0.3095311292
40
0.3468008509
40
0.3869829663
40
0.4310746930
40
0.4804710675
40
0.5367587285
40
0.6012563057
40
0.6749144893
40
0.7584769196
40
0.8529777768
40
0.9606527485
40
1.0000000000
40
1.0000000000
40
1.0000000000
40
1.0000000000
10
29.5461018895
20
11.3200618254
30
0.0000000000
10
29.5517959692
20
11.3252359193
30
0.0000000000
10
29.5630728092
20
11.3349790567
30
0.0000000000
10
29.5803272150
20
11.3480990926
30
0.0000000000
10
29.5974208862
20
11.3591625618
30
0.0000000000
10
29.6144186516
20
11.3680633501
30
0.0000000000
10
29.6313538137
20
11.3746520449
30
0.0000000000
10
29.6483366604
20
11.3787756985
30
0.0000000000
10
29.6656048904
20
11.3802031938
30
0.0000000000
10
29.6833126041
20
11.3784914080
30
0.0000000000
10
29.7013256635
20
11.3730981081
30
0.0000000000
10
29.7192531590
20
11.3636602566
30
0.0000000000
10
29.7368038246
20
11.3499777104
30
0.0000000000
10
29.7538389665
20
11.3318076527
30
0.0000000000
10
29.7702328874
20
11.3087684553
30
0.0000000000
10
29.7857243685
20
11.2804375787
30
0.0000000000
10
29.7998704999
20
11.2464583731
30
0.0000000000
10
29.8120666882
20
11.2064985614
30
0.0000000000
10
29.8215318661
20
11.1600281142
30
0.0000000000
10
29.8256687440
20
11.1201494827
30
0.0000000000
10
29.8265510689
20
11.0957852339
30
0.0000000000
10
29.8266705853
20
11.0892624513
30
0.0000000000
11
29.5461018895
21
11.3200618254
31
0.0000000000
11
29.5636035666
21
11.3351095964
31
0.0000000000
11
29.5808356205
21
11.3481326532
31
0.0000000000
11
29.5979154173
21
11.3591005121
31
0.0000000000
11
29.6148878323
21
11.3678969127
31
0.0000000000
11
29.6317393454
21
11.3743629209
31
0.0000000000
11
29.6484868341
21
11.3783490199
31
0.0000000000
11
29.6654193589
21
11.3796877302
31
0.0000000000
11
29.6828775731
21
11.3779776080
31
0.0000000000
11
29.7006400326
21
11.3727028266
31
0.0000000000
11
29.7183661163
21
11.3634904089
31
0.0000000000
11
29.7357421617
21
11.3501265366
31
0.0000000000
11
29.7526533096
21
11.3323189413
31
0.0000000000
11
29.7690049774
21
11.3096091500
31
0.0000000000
11
29.7845167238
21
11.2815449185
31
0.0000000000
11
29.7987088321
21
11.2477867114
31
0.0000000000
11
29.8109357148
21
11.2080825759
31
0.0000000000
11
29.8203888551
21
11.1620611043
31
0.0000000000
11
29.8259616274
21
11.1088199693
31
0.0000000000
11
29.8266705853
21
11.0892624513
31
0.0000000000
0
SPLINE
5
351
100
AcDbEntity
8
0
100
AcDbSpline
62
9
6
CONTINUOUS
70
0
71
3
72
8
73
4
74
2
42
0.0000001000
43
0.0000001000
44
0.0000000001
12
0.0001721350
22
-0.0093945181
32
0.0000000000
13
0.0000110469
23
-0.0093962265
33
0.0000000000
40
0.0000000000
40
0.0000000000
40
0.0000000000
40
0.0000000000
40
1.0000000000
40
1.0000000000
40
1.0000000000
40
1.0000000000
10
29.8266705853
20
11.0892624513
30
0.0000000000
10
29.8267279637
20
11.0861309452
30
0.0000000000
10
29.8267584634
20
11.0829989253
30
0.0000000000
10
29.8267621457
20
11.0798668498
30
0.0000000000
11
29.8266705853
21
11.0892624513
31
0.0000000000
11
29.8267621457
21
11.0798668498
31
0.0000000000
0
SPLINE
5
352
100
AcDbEntity
8
0
100
AcDbSpline
62
9
6
CONTINUOUS
70
0
71
3
72
15
73
11
74
9
42
0.0000001000
43
0.0000001000
44
0.0000000001
12
-0.3945151521
22
0.2041142431
32
0.0000000000
13
-0.4056645176
23
-0.1817600012
33
0.0000000000
40
0.0000000000
40
0.0000000000
40
0.0000000000
40
0.0000000000
40
0.1425078965
40
0.2791099952
40
0.4100698687
40
0.5358503481
40
0.6571232361
40
0.7747667924
40
0.8898452490
40
1.0000000000
40
1.0000000000
40
1.0000000000
40
1.0000000000
10
22.2625896856
20
22.1862052854
30
0.0000000000
10
22.2438491774
20
22.1959012493
30
0.0000000000
10
22.2063560408
20
22.2134229787
30
0.0000000000
10
22.1491924156
20
22.2341377456
30
0.0000000000
10
22.0926679223
20
22.2485815220
30
0.0000000000
10
22.0371663529
20
22.2566379553
30
0.0000000000
10
21.9830644276
20
22.2582324889
30
0.0000000000
10
21.9307400085
20
22.2533317383
30
0.0000000000
10
21.8810860019
20
22.2420671302
30
0.0000000000
10
21.8497291845
20
22.2304305927
30
0.0000000000
10
21.8348338932
20
22.2237566835
30
0.0000000000
11
22.2625896856
21
22.1862052854
31
0.0000000000
11
22.2051939035
21
22.2129015294
31
0.0000000000
11
22.1481057739
21
22.2334607098
31
0.0000000000
11
22.0917151156
21
22.2477424411
31
0.0000000000
11
22.0364069845
21
22.2556492024
31
0.0000000000
11
21.9825590449
21
22.2571270035
31
0.0000000000
11
21.9305389902
21
22.2521657533
31
0.0000000000
11
21.8807020325
21
22.2407993291
31
0.0000000000
11
21.8348338932
21
22.2237566835
31
0.0000000000
0
SPLINE
5
353
100
AcDbEntity
8
0
100
AcDbSpline
62
9
6
CONTINUOUS
70
0
71
3
72
9
73
5
74
3
42
0.0000001000
43
0.0000001000
44
0.0000000001
12
-0.0038736307
22
-0.0017355995
32
0.0000000000
13
-0.0038535210
23
-0.0017798133
33
0.0000000000
40
0.0000000000
40
0.0000000000
40
0.0000000000
40
0.0000000000
40
0.3735012990
40
1.0000000000
40
1.0000000000
40
1.0000000000
40
1.0000000000
10
21.8348338932
20
22.2237566835
30
0.0000000000
10
21.8343516245
20
22.2235406006
30
0.0000000000
10
21.8330616503
20
22.2229593090
30
0.0000000000
10
21.8317750191
20
22.2223706394
30
0.0000000000
10
21.8309702771
20
22.2219989558
30
0.0000000000
11
21.8348338932
21
22.2237566835
31
0.0000000000
11
21.8333884768
21
22.2231053450
31
0.0000000000
11
21.8309702771
21
22.2219989558
31
0.0000000000
0
SPLINE
5
354
100
AcDbEntity
8
0
100
AcDbSpline
62
9
6
CONTINUOUS
70
0
71
3
72
8
73
4
74
2
42
0.0000001000
43
0.0000001000
44
0.0000000001
12
-0.0494399858
22
-0.0228330797
32
0.0000000000
13
-0.0502020998
23
-0.0211267031
33
0.0000000000
40
0.0000000000
40
0.0000000000
40
0.0000000000
40
0.0000000000
40
1.0000000000
40
1.0000000000
40
1.0000000000
40
1.0000000000
10
16.3442706183
20
19.4529294138
30
0.0000000000
10
16.3277906230
20
19.4453183873
30
0.0000000000
10
16.3111733364
20
19.4380002295
30
0.0000000000
10
16.2944393031
20
19.4309579952
30
0.0000000000
11
16.3442706183
21
19.4529294138
31
0.0000000000
11
16.2944393031
21
19.4309579952
31
0.0000000000
0
SPLINE
5
355
100
AcDbEntity
8
0
100
AcDbSpline
62
9
6
CONTINUOUS
70
0
71
3
72
12
73
8
74
6
42
0.0000001000
43
0.0000001000
44
0.0000000001
12
-0.2180363040
22
0.1128076195
32
0.0000000000
13
-0.2450330367
23
0.0171826668
33
0.0000000000
40
0.0000000000
40
0.0000000000
40
0.0000000000
40
0.0000000000
40
0.2578540087
40
0.5050220516
40
0.7419810374
40
0.9695684142
40
1.0000000000
40
1.0000000000
40
1.0000000000
40
1.0000000000
10
16.3442706183
20
19.4529294138
30
0.0000000000
10
16.3255301066
20
19.4626253795
30
0.0000000000
10
16.2880369633
20
19.4801471117
30
0.0000000000
10
16.2308733282
20
19.5008618805
30
0.0000000000
10
16.1743488264
20
19.5153056564
30
0.0000000000
10
16.1341836914
20
19.5211358985
30
0.0000000000
10
16.1131212910
20
19.5227807212
30
0.0000000000
10
16.1106357097
20
19.5229550198
30
0.0000000000
11
16.3442706183
21
19.4529294138
31
0.0000000000
11
16.2868748252
21
19.4796256623
31
0.0000000000
11
16.2297866858
21
19.5001848446
31
0.0000000000
11
16.1733960191
21
19.5144665753
31
0.0000000000
11
16.1180878813
21
19.5223733339
31
0.0000000000
11
16.1106357097
21
19.5229550198
31
0.0000000000
0
SPLINE
5
356
100
AcDbEntity
8
0
100
AcDbSpline
62
7
6
CONTINUOUS
70
0
71
3
72
26
73
22
74
20
42
0.0000001000
43
0.0000001000
44
0.0000000001
12
-1.2123392634
22
1.7380614368
32
0.0000000000
13
1.9093347856
23
0.9176090968
33
0.0000000000
40
0.0000000000
40
0.0000000000
40
0.0000000000
40
0.0000000000
40
0.0063716361
40
0.0591587563
40
0.1098340794
40
0.1587916959
40
0.2064648530
40
0.2533931078
40
0.3000860966
40
0.3471452992
40
0.3950648845
40
0.4443978106
40
0.4955307626
40
0.5488913750
40
0.6047162725
40
0.6632834157
40
0.7246880278
40
0.7890682131
40
0.8564165857
40
0.9267550041
40
1.0000000000
40
1.0000000000
40
1.0000000000
40
1.0000000000
10
18.9677295960
20
18.3082395984
30
0.0000000000
10
18.9651547345
20
18.3119310300
30
0.0000000000
10
18.9414351870
20
18.3463360744
30
0.0000000000
10
18.9006970592
20
18.4124791310
30
0.0000000000
10
18.8538594321
20
18.5096091612
30
0.0000000000
10
18.8192632190
20
18.6079464826
30
0.0000000000
10
18.7970766406
20
18.7071138645
30
0.0000000000
10
18.7874301855
20
18.8066807557
30
0.0000000000
10
18.7903788408
20
18.9062398999
30
0.0000000000
10
18.8058988779
20
19.0053287817
30
0.0000000000
10
18.8339102117
20
19.1035590346
30
0.0000000000
10
18.8742521275
20
19.2005020501
30
0.0000000000
10
18.9267418817
20
19.2958259411
30
0.0000000000
10
18.9911337683
20
19.3891469850
30
0.0000000000
10
19.0671795870
20
19.4801669509
30
0.0000000000
10
19.1545544615
20
19.5685293253
30
0.0000000000
10
19.2529447120
20
19.6539394930
30
0.0000000000
10
19.3619421720
20
19.7360684640
30
0.0000000000
10
19.4811562936
20
19.8146301453
30
0.0000000000
10
19.6101043168
20
19.8893209530
30
0.0000000000
10
19.7004518170
20
19.9354442114
30
0.0000000000
10
19.7470682232
20
19.9578476363
30
0.0000000000
11
18.9677295960
21
18.3082395984
31
0.0000000000
11
18.9600659689
21
18.3193563159
31
0.0000000000
11
18.9016270248
21
18.4146946730
31
0.0000000000
11
18.8551985351
21
18.5114852309
31
0.0000000000
11
18.8209536412
21
18.6093795680
31
0.0000000000
11
18.7990342052
21
18.7079623420
31
0.0000000000
11
18.7895131354
21
18.8069175883
31
0.0000000000
11
18.7924313356
21
18.9057883775
31
0.0000000000
11
18.8077761167
21
19.0042899497
31
0.0000000000
11
18.8354721385
21
19.1019509338
31
0.0000000000
11
18.8754428317
21
19.1985112840
31
0.0000000000
11
18.9274936098
21
19.2935050246
31
0.0000000000
11
18.9914914787
21
19.3866820894
31
0.0000000000
11
19.0671270375
21
19.4775908257
31
0.0000000000
11
19.1541930757
21
19.5659783272
31
0.0000000000
11
19.2522755514
21
19.6514201970
31
0.0000000000
11
19.3610728155
21
19.7336592088
31
0.0000000000
11
19.4800956566
21
19.8123248234
31
0.0000000000
11
19.6089445065
21
19.8871591378
31
0.0000000000
11
19.7470682232
21
19.9578476363
31
0.0000000000
0
SPLINE
5
357
100
AcDbEntity
8
0
100
AcDbSpline
62
7
6
CONTINUOUS
70
0
71
3
72
10
73
6
74
4
42
0.0000001000
43
0.0000001000
44
0.0000000001
12
0.0480137065
22
-0.0241288565
32
0.0000000000
13
0.0480239769
23
-0.0241084088
33
0.0000000000
40
0.0000000000
40
0.0000000000
40
0.0000000000
40
0.0000000000
40
0.3356593340
40
0.6689922796
40
1.0000000000
40
1.0000000000
40
1.0000000000
40
1.0000000000
10
24.5019237631
20
18.5167533797
30
0.0000000000
10
24.5072958460
20
18.5140536877
30
0.0000000000
10
24.5180031527
20
18.5086737584
30
0.0000000000
10
24.5340094143
20
18.5006341754
30
0.0000000000
10
24.5446437873
20
18.4952946718
30
0.0000000000
10
24.5499425563
20
18.4926346487
30
0.0000000000
11
24.5019237631
21
18.5167533797
31
0.0000000000
11
24.5180405778
21
18.5086554302
31
0.0000000000
11
24.5340468244
21
18.5006158638
31
0.0000000000
11
24.5499425563
21
18.4926346487
31
0.0000000000
0
SPLINE
5
358
100
AcDbEntity
8
0
100
AcDbSpline
62
7
6
CONTINUOUS
70
0
71
3
72
41
73
37
74
35
42
0.0000001000
43
0.0000001000
44
0.0000000001
12
4.5556386745
22
2.2453587843
32
0.0000000000
13
1.8321637608
23
-4.7398186514
33
0.0000000000
40
0.0000000000
40
0.0000000000
40
0.0000000000
40
0.0000000000
40
0.0279736704
40
0.0569680524
40
0.0869213691
40
0.1177723082
40
0.1494359093
40
0.1818404858
40
0.2148825874
40
0.2484842730
40
0.2825277509
40
0.3169321231
40
0.3515691686
40
0.3863577846
40
0.4211631769
40
0.4559064469
40
0.4904501353
40
0.5247197787
40
0.5585792820
40
0.5919608306
40
0.6247339119
40
0.6568397403
40
0.6881578938
40
0.7186414016
40
0.7481849032
40
0.7767567717
40
0.8042724358
40
0.8307203619
40
0.8560437029
40
0.8802576062
40
0.9033416285
40
0.9253465603
40
0.9462989245
40
0.9662960068
40
0.9854218906
40
1.0000000000
40
1.0000000000
40
1.0000000000
40
1.0000000000
10
20.8069786207
20
18.8704719490
30
0.0000000000
10
20.8494579323
20
18.8914089245
30
0.0000000000
10
20.9370897453
20
18.9317994069
30
0.0000000000
10
21.0735473562
20
18.9870107925
30
0.0000000000
10
21.2169068040
20
19.0377520956
30
0.0000000000
10
21.3665680486
20
19.0838105670
30
0.0000000000
10
21.5219352951
20
19.1250032367
30
0.0000000000
10
21.6823540416
20
19.1611563003
30
0.0000000000
10
21.8471909523
20
19.1921269710
30
0.0000000000
10
22.0157436653
20
19.2177829895
30
0.0000000000
10
22.1873532037
20
19.2380239437
30
0.0000000000
10
22.3612808669
20
19.2527624723
30
0.0000000000
10
22.5368529297
20
19.2619414249
30
0.0000000000
10
22.7133070576
20
19.2655208287
30
0.0000000000
10
22.8899655022
20
19.2634869516
30
0.0000000000
10
23.0660556459
20
19.2558487089
30
0.0000000000
10
23.2409062505
20
19.2426353089
30
0.0000000000
10
23.4137481245
20
19.2239050406
30
0.0000000000
10
23.5839268005
20
19.1997289753
30
0.0000000000
10
23.7506903056
20
19.1702142249
30
0.0000000000
10
23.9134108521
20
19.1354720551
30
0.0000000000
10
24.0713672803
20
19.0956567868
30
0.0000000000
10
24.2239679581
20
19.0509175965
30
0.0000000000
10
24.3705356435
20
19.0014532883
30
0.0000000000
10
24.5105237933
20
18.9474479750
30
0.0000000000
10
24.6433113538
20
18.8891410104
30
0.0000000000
10
24.7684050529
20
18.8267476241
30
0.0000000000
10
24.8852509506
20
18.7605424174
30
0.0000000000
10
24.9934159651
20
18.6907668640
30
0.0000000000
10
25.0924218814
20
18.6177240374
30
0.0000000000
10
25.1819002520
20
18.5416758047
30
0.0000000000
10
25.2614530099
20
18.4629461537
30
0.0000000000
10
25.3307761666
20
18.3818122999
30
0.0000000000
10
25.3895498879
20
18.2986146389
30
0.0000000000
10
25.4343360294
20
18.2193033370
30
0.0000000000
10
25.4573961940
20
18.1670118304
30
0.0000000000
10
25.4662993552
20
18.1439792988
30
0.0000000000
11
20.8069786207
21
18.8704719490
31
0.0000000000
11
20.9359541655
21
18.9300617854
31
0.0000000000
11
21.0724206724
21
18.9854015226
31
0.0000000000
11
21.2157994050
21
19.0362569443
31
0.0000000000
11
21.3655316048
21
19.0824294636
31
0.0000000000
11
21.5209585008
21
19.1237163369
31
0.0000000000
11
21.6814979708
21
19.1599626038
31
0.0000000000
11
21.8464204958
21
19.1910038990
31
0.0000000000
11
22.0151310748
21
19.2167279602
31
0.0000000000
11
22.1868410923
21
19.2370148424
31
0.0000000000
11
22.3609522250
21
19.2517936285
31
0.0000000000
11
22.5366304453
21
19.2609937855
31
0.0000000000
11
22.7132827380
21
19.2645840672
31
0.0000000000
11
22.8900449817
21
19.2625471380
31
0.0000000000
11
23.0663372124
21
19.2548895225
31
0.0000000000
11
23.2412817253
21
19.2416495414
31
0.0000000000
11
23.4143185351
21
19.2228694440
31
0.0000000000
11
23.5845735793
21
19.1986442600
31
0.0000000000
11
23.7515130592
21
19.1690498370
31
0.0000000000
11
23.9142839998
21
19.1342375224
31
0.0000000000
11
24.0723843914
21
19.0943146011
31
0.0000000000
11
24.2249995091
21
19.0494869075
31
0.0000000000
11
24.3716642529
21
18.9998909981
31
0.0000000000
11
24.5116185352
21
18.9457839702
31
0.0000000000
11
24.6444389291
21
18.8873294917
31
0.0000000000
11
24.7694351252
21
18.8248313936
31
0.0000000000
11
24.8862298939
21
18.7584782908
31
0.0000000000
11
24.9942161663
21
18.6886150415
31
0.0000000000
11
25.0930672959
21
18.6154530141
31
0.0000000000
11
25.1822708532
21
18.5393713702
31
0.0000000000
11
25.2615551026
21
18.4606019710
31
0.0000000000
11
25.3305112680
21
18.3795507326
31
0.0000000000
11
25.3889268425
21
18.2964676285
31
0.0000000000
11
25.4365030800
21
18.2117771715
31
0.0000000000
11
25.4662993552
21
18.1439792988
31
0.0000000000
0
SPLINE
5
359
100
AcDbEntity
8
0
100
AcDbSpline
62
7
6
CONTINUOUS
70
0
71
3
72
20
73
16
74
14
42
0.0000001000
43
0.0000001000
44
0.0000000001
12
-1.1621140638
22
-0.5803025967
32
0.0000000000
13
0.0000887943
23
-1.2998309662
33
0.0000000000
40
0.0000000000
40
0.0000000000
40
0.0000000000
40
0.0000000000
40
0.1035949487
40
0.2029315819
40
0.2979357345
40
0.3886196468
40
0.4750345354
40
0.5575377023
40
0.6362334278
40
0.7113344977
40
0.7833156948
40
0.8529992282
40
0.9210474642
40
0.9880990121
40
1.0000000000
40
1.0000000000
40
1.0000000000
40
1.0000000000
10
20.1242684227
20
18.9610742761
30
0.0000000000
10
20.0841387071
20
18.9410354702
30
0.0000000000
10
20.0064973172
20
18.8997947590
30
0.0000000000
10
19.8960527250
20
18.8330028937
30
0.0000000000
10
19.7944485447
20
18.7628078741
30
0.0000000000
10
19.7021038188
20
18.6894908994
30
0.0000000000
10
19.6193308483
20
18.6132819463
30
0.0000000000
10
19.5464758103
20
18.5344523046
30
0.0000000000
10
19.4838959312
20
18.4533212559
30
0.0000000000
10
19.4319422531
20
18.3703111745
30
0.0000000000
10
19.3908122023
20
18.2857342012
30
0.0000000000
10
19.3606676806
20
18.1998551188
30
0.0000000000
10
19.3416876648
20
18.1130052229
30
0.0000000000
10
19.3360974565
20
18.0494257102
30
0.0000000000
10
19.3357073706
20
18.0152175092
30
0.0000000000
10
19.3357077228
20
18.0100610850
30
0.0000000000
11
20.1242684227
21
18.9610742761
31
0.0000000000
11
20.0054973868
21
18.8978210438
31
0.0000000000
11
19.8951689282
21
18.8309097501
31
0.0000000000
11
19.7937397097
21
18.7606177292
31
0.0000000000
11
19.7016082626
21
18.6872208482
31
0.0000000000
11
19.6191718891
21
18.6110374150
31
0.0000000000
11
19.5465968324
21
18.5321852904
31
0.0000000000
11
19.4843421512
21
18.4511076353
31
0.0000000000
11
19.4327722339
21
18.3683007566
31
0.0000000000
11
19.3920587401
21
18.2841306880
31
0.0000000000
11
19.3622327067
21
18.1986707729
31
0.0000000000
11
19.3434685948
21
18.1122944347
31
0.0000000000
11
19.3358843267
21
18.0255289519
31
0.0000000000
11
19.3357077228
21
18.0100610850
31
0.0000000000
0
SPLINE
5
35A
100
AcDbEntity
8
0
100
AcDbSpline
62
7
6
CONTINUOUS
70
0
71
3
72
9
73
5
74
3
42
0.0000001000
43
0.0000001000
44
0.0000000001
12
-0.0020380283
22
-0.0010223068
32
0.0000000000
13
-0.0020398765
23
-0.0010186140
33
0.0000000000
40
0.0000000000
40
0.0000000000
40
0.0000000000
40
0.0000000000
40
0.5001117328
40
1.0000000000
40
1.0000000000
40
1.0000000000
40
1.0000000000
10
20.1263073753
20
18.9620947376
30
0.0000000000
10
20.1259676280
20
18.9619243151
30
0.0000000000
10
20.1252881311
20
18.9615838534
30
0.0000000000
10
20.1246083262
20
18.9612440071
30
0.0000000000
10
20.1242684227
20
18.9610742761
30
0.0000000000
11
20.1263073753
21
18.9620947376
31
0.0000000000
11
20.1252879022
21
18.9615839312
31
0.0000000000
11
20.1242684227
21
18.9610742761
31
0.0000000000
0
SPLINE
5
35B
100
AcDbEntity
8
0
100
AcDbSpline
62
7
6
CONTINUOUS
70
0
71
3
72
10
73
6
74
4
42
0.0000001000
43
0.0000001000
44
0.0000000001
12
0.3128288885
22
-0.1337260017
32
0.0000000000
13
0.2936766765
23
-0.1717514678
33
0.0000000000
40
0.0000000000
40
0.0000000000
40
0.0000000000
40
0.0000000000
40
0.3436742093
40
0.6771155842
40
1.0000000000
40
1.0000000000
40
1.0000000000
40
1.0000000000
10
24.5499425563
20
18.4926346487
30
0.0000000000
10
24.5857796300
20
18.4773152560
30
0.0000000000
10
24.6558302562
20
18.4458053724
30
0.0000000000
10
24.7573210775
20
18.3951422982
30
0.0000000000
10
24.8224540662
20
18.3590602475
30
0.0000000000
10
24.8540619403
20
18.3405749567
30
0.0000000000
11
24.5499425563
21
18.4926346487
31
0.0000000000
11
24.6565463634
21
18.4446091862
31
0.0000000000
11
24.7580110154
21
18.3938768603
31
0.0000000000
11
24.8540619403
21
18.3405749567
31
0.0000000000
0
SPLINE
5
35C
100
AcDbEntity
8
0
100
AcDbSpline
62
7
6
CONTINUOUS
70
0
71
3
72
10
73
6
74
4
42
0.0000001000
43
0.0000001000
44
0.0000000001
12
-0.0401259497
22
0.0199380878
32
0.0000000000
13
-0.0401137297
23
0.0199626619
33
0.0000000000
40
0.0000000000
40
0.0000000000
40
0.0000000000
40
0.0000000000
40
0.3304773746
40
0.6638133650
40
1.0000000000
40
1.0000000000
40
1.0000000000
40
1.0000000000
10
24.8941816974
20
18.3206244125
30
0.0000000000
10
24.8897614579
20
18.3228207748
30
0.0000000000
10
24.8808832093
20
18.3272334344
30
0.0000000000
10
24.8675099637
20
18.3338836300
30
0.0000000000
10
24.8585571735
20
18.3383378967
30
0.0000000000
10
24.8540619403
20
18.3405749567
30
0.0000000000
11
24.8941816974
21
18.3206244125
31
0.0000000000
11
24.8809216676
21
18.3272148853
31
0.0000000000
11
24.8675483092
21
18.3338651214
31
0.0000000000
11
24.8540619403
21
18.3405749567
31
0.0000000000
0
SPLINE
5
35D
100
AcDbEntity
8
0
100
AcDbSpline
62
7
6
CONTINUOUS
70
0
71
3
72
17
73
13
74
11
42
0.0000001000
43
0.0000001000
44
0.0000000001
12
0.4874775690
22
0.2342773280
32
0.0000000000
13
0.4839201125
23
-0.2418800080
33
0.0000000000
40
0.0000000000
40
0.0000000000
40
0.0000000000
40
0.0000000000
40
0.0999796027
40
0.1997326423
40
0.3000303629
40
0.4016462208
40
0.5053393739
40
0.6118486692
40
0.7218700944
40
0.8360428414
40
0.9549309061
40
1.0000000000
40
1.0000000000
40
1.0000000000
40
1.0000000000
10
23.3021879543
20
21.6664061511
30
0.0000000000
10
23.3184338922
20
21.6742138025
30
0.0000000000
10
23.3517021212
20
21.6881840381
30
0.0000000000
10
23.4035499744
20
21.7039172647
30
0.0000000000
10
23.4570412705
20
21.7142685085
30
0.0000000000
10
23.5120191630
20
21.7191249511
30
0.0000000000
10
23.5683246122
20
21.7183649436
30
0.0000000000
10
23.6257804218
20
21.7118561152
30
0.0000000000
10
23.6841891449
20
21.6994613407
30
0.0000000000
10
23.7433252898
20
21.6810453294
30
0.0000000000
10
23.7897442581
20
21.6619174293
30
0.0000000000
10
23.8163933610
20
21.6491020672
30
0.0000000000
10
23.8236633080
20
21.6454682962
30
0.0000000000
11
23.3021879543
21
21.6664061511
31
0.0000000000
11
23.3520523929
21
21.6873237759
31
0.0000000000
11
23.4036802070
21
21.7029871388
31
0.0000000000
11
23.4569359929
21
21.7133054489
31
0.0000000000
11
23.5116793518
21
21.7181701299
31
0.0000000000
11
23.5677574028
21
21.7174567740
31
0.0000000000
11
23.6250033447
21
21.7110287813
31
0.0000000000
11
23.6832263457
21
21.6987423629
31
0.0000000000
11
23.7422065484
21
21.6804541469
31
0.0000000000
11
23.8016885598
21
21.6560312011
31
0.0000000000
11
23.8236633080
21
21.6454682962
31
0.0000000000
0
SPLINE
5
35E
100
AcDbEntity
8
0
100
AcDbSpline
62
7
6
CONTINUOUS
70
0
71
3
72
13
73
9
74
7
42
0.0000001000
43
0.0000001000
44
0.0000000001
12
-0.1961525084
22
-0.1002226116
32
0.0000000000
13
0.0000000000
23
-0.2196572814
33
0.0000000000
40
0.0000000000
40
0.0000000000
40
0.0000000000
40
0.0000000000
40
0.0932095149
40
0.2503342003
40
0.4167661673
40
0.5962409861
40
0.7905974107
40
1.0000000000
40
1.0000000000
40
1.0000000000
40
1.0000000000
10
-3.2094487455
20
20.0794617258
30
0.0000000000
10
-3.2155431722
20
20.0763478255
30
0.0000000000
10
-3.2312643282
20
20.0667135708
30
0.0000000000
10
-3.2536737186
20
20.0455480945
30
0.0000000000
10
-3.2740391394
20
20.0145114196
30
0.0000000000
10
-3.2887597838
20
19.9775489535
30
0.0000000000
10
-3.2976036844
20
19.9355958915
30
0.0000000000
10
-3.2994262867
20
19.9059825666
30
0.0000000000
10
-3.2994262867
20
19.8906502988
30
0.0000000000
11
-3.2094487455
21
20.0794617258
31
0.0000000000
11
-3.2269369866
21
20.0687465223
31
0.0000000000
11
-3.2521596430
21
20.0451879805
31
0.0000000000
11
-3.2724510023
21
20.0147783172
31
0.0000000000
11
-3.2873131163
21
19.9782641198
31
0.0000000000
11
-3.2963791997
21
19.9365460632
31
0.0000000000
11
-3.2994262867
21
19.8906502988
31
0.0000000000
0
SPLINE
5
35F
100
AcDbEntity
8
0
100
AcDbSpline
62
7
6
CONTINUOUS
70
0
71
3
72
9
73
5
74
3
42
0.0000001000
43
0.0000001000
44
0.0000000001
12
-0.0004065111
22
0.0259308417
32
0.0000000000
13
-0.0020642167
23
0.0258517468
33
0.0000000000
40
0.0000000000
40
0.0000000000
40
0.0000000000
40
0.0000000000
40
0.4989863682
40
1.0000000000
40
1.0000000000
40
1.0000000000
40
1.0000000000
10
19.7203207704
20
17.5492214499
30
0.0000000000
10
19.7202531559
20
17.5535344954
30
0.0000000000
10
19.7199770066
20
17.5621767213
30
0.0000000000
10
19.7194024157
20
17.5708038383
30
0.0000000000
10
19.7190576821
20
17.5751211975
30
0.0000000000
11
19.7203207704
21
17.5492214499
31
0.0000000000
11
19.7199032582
21
17.5621554393
31
0.0000000000
11
19.7190576821
21
17.5751211975
31
0.0000000000
0
SPLINE
5
360
100
AcDbEntity
8
0
100
AcDbSpline
62
7
6
CONTINUOUS
70
0
71
3
72
9
73
5
74
3
42
0.0000001000
43
0.0000001000
44
0.0000000001
12
-0.0005036446
22
-0.0035227343
32
0.0000000000
13
-0.0017167576
23
-0.0031170593
33
0.0000000000
40
0.0000000000
40
0.0000000000
40
0.0000000000
40
0.0000000000
40
0.4474175335
40
1.0000000000
40
1.0000000000
40
1.0000000000
40
1.0000000000
10
19.7203207704
20
-19.9687227525
30
0.0000000000
10
19.7202456572
20
-19.9692481302
30
0.0000000000
10
19.7199061256
20
-19.9703972718
30
0.0000000000
10
19.7193738988
20
-19.9714603573
30
0.0000000000
10
19.7190576821
20
-19.9720345014
30
0.0000000000
11
19.7203207704
21
-19.9687227525
31
0.0000000000
11
19.7199032582
21
-19.9702591955
31
0.0000000000
11
19.7190576821
21
-19.9720345014
31
0.0000000000
0
SPLINE
5
361
100
AcDbEntity
8
0
100
AcDbSpline
62
7
6
CONTINUOUS
70
0
71
3
72
12
73
8
74
6
42
0.0000001000
43
0.0000001000
44
0.0000000001
12
0.1035245975
22
-0.0518042949
32
0.0000000000
13
0.1037892104
23
0.0505590123
33
0.0000000000
40
0.0000000000
40
0.0000000000
40
0.0000000000
40
0.0000000000
40
0.0702682166
40
0.2823115323
40
0.5037058504
40
0.7425202568
40
1.0000000000
40
1.0000000000
40
1.0000000000
40
1.0000000000
10
12.1705711399
20
-28.0138072604
30
0.0000000000
10
12.1729959695
20
-28.0150206589
30
0.0000000000
10
12.1829449340
20
-28.0194799683
30
0.0000000000
10
12.2019313034
20
-28.0242960314
30
0.0000000000
10
12.2280184161
20
-28.0245366083
30
0.0000000000
10
12.2552491175
20
-28.0190009879
30
0.0000000000
10
12.2730798322
20
-28.0118808278
30
0.0000000000
10
12.2819877053
20
-28.0075415206
30
0.0000000000
11
12.1705711399
21
-28.0138072604
31
0.0000000000
11
12.1779915162
21
-28.0171314905
31
0.0000000000
11
12.2016942046
21
-28.0232519160
31
0.0000000000
11
12.2272504700
21
-28.0236707573
31
0.0000000000
11
12.2543094122
21
-28.0183826549
31
0.0000000000
11
12.2819877053
21
-28.0075415206
31
0.0000000000
0
SPLINE
5
362
100
AcDbEntity
8
0
100
AcDbSpline
62
7
6
CONTINUOUS
70
0
71
3
72
13
73
9
74
7
42
0.0000001000
43
0.0000001000
44
0.0000000001
12
-0.1410768327
22
0.0705989525
32
0.0000000000
13
-0.0000000000
23
0.1573187955
33
0.0000000000
40
0.0000000000
40
0.0000000000
40
0.0000000000
40
0.0000000000
40
0.1002829637
40
0.2556824971
40
0.4210753023
40
0.5986534561
40
0.7921182670
40
1.0000000000
40
1.0000000000
40
1.0000000000
40
1.0000000000
10
10.4933280127
20
-27.1751855903
30
0.0000000000
10
10.4886121451
20
-27.1728256329
30
0.0000000000
10
10.4770966157
20
-27.1657874764
30
0.0000000000
10
10.4609668025
20
-27.1503837155
30
0.0000000000
10
10.4466233347
20
-27.1282925096
30
0.0000000000
10
10.4362439528
20
-27.1019764669
30
0.0000000000
10
10.4300138246
20
-27.0721408711
30
0.0000000000
10
10.4287298356
20
-27.0510593893
30
0.0000000000
10
10.4287298356
20
-27.0401581547
30
0.0000000000
11
10.4933280127
21
-27.1751855903
31
0.0000000000
11
10.4798437710
21
-27.1669485087
31
0.0000000000
11
10.4620666808
21
-27.1501662577
31
0.0000000000
11
10.4477263138
21
-27.1284553643
31
0.0000000000
11
10.4372811478
21
-27.1025451365
31
0.0000000000
11
10.4308742199
21
-27.0727914791
31
0.0000000000
11
10.4287298356
21
-27.0401581547
31
0.0000000000
0
SPLINE
5
363
100
AcDbEntity
8
0
100
AcDbSpline
62
7
6
CONTINUOUS
70
0
71
3
72
9
73
5
74
3
42
0.0000001000
43
0.0000001000
44
0.0000000001
12
0.0223544506
22
-0.0111796084
32
0.0000000000
13
0.0243998698
23
-0.0050947154
33
0.0000000000
40
0.0000000000
40
0.0000000000
40
0.0000000000
40
0.0000000000
40
0.0711022819
40
1.0000000000
40
1.0000000000
40
1.0000000000
40
1.0000000000
10
-1.1937441333
20
20.3079251979
30
0.0000000000
10
-1.1932143158
20
20.3076602327
30
0.0000000000
10
-1.1857272058
20
20.3040039564
30
0.0000000000
10
-1.1777536070
20
20.3013499803
30
0.0000000000
10
-1.1701986125
20
20.2997724905
30
0.0000000000
11
-1.1937441333
21
20.3079251979
31
0.0000000000
11
-1.1921471551
21
20.3071453607
31
0.0000000000
11
-1.1701986125
21
20.2997724905
31
0.0000000000
0
SPLINE
5
364
100
AcDbEntity
8
0
100
AcDbSpline
62
7
6
CONTINUOUS
70
0
71
3
72
13
73
9
74
7
42
0.0000001000
43
0.0000001000
44
0.0000000001
12
-0.1411200199
22
0.0705753522
32
0.0000000000
13
0.0000000000
23
0.1573462303
33
0.0000000000
40
0.0000000000
40
0.0000000000
40
0.0000000000
40
0.0000000000
40
0.1341877812
40
0.2839661477
40
0.4437692844
40
0.6151905100
40
0.8009213695
40
1.0000000000
40
1.0000000000
40
1.0000000000
40
1.0000000000
10
-2.8709873531
20
21.1465468013
30
0.0000000000
10
-2.8772995473
20
21.1497035847
30
0.0000000000
10
-2.8898778796
20
21.1579201904
30
0.0000000000
10
-2.9060643452
20
21.1749317194
30
0.0000000000
10
-2.9192018660
20
21.1966700423
30
0.0000000000
10
-2.9287039031
20
21.2222085166
30
0.0000000000
10
-2.9344084212
20
21.2509244511
30
0.0000000000
10
-2.9355883288
20
21.2711375770
30
0.0000000000
10
-2.9355883288
20
21.2815790010
30
0.0000000000
11
-2.8709873531
21
21.1465468013
31
0.0000000000
11
-2.8886914094
21
21.1580650681
31
0.0000000000
11
-2.9050347626
21
21.1750445023
31
0.0000000000
11
-2.9181958958
21
21.1964694058
31
0.0000000000
11
-2.9277723755
21
21.2216845978
31
0.0000000000
11
-2.9336270375
21
21.2503161899
31
0.0000000000
11
-2.9355883288
21
21.2815790010
31
0.0000000000
0
SPLINE
5
365
100
AcDbEntity
8
0
100
AcDbSpline
62
7
6
CONTINUOUS
70
0
71
3
72
9
73
5
74
3
42
0.0000001000
43
0.0000001000
44
0.0000000001
12
0.0223544506
22
-0.0111796084
32
0.0000000000
13
0.0243998698
23
-0.0050947154
33
0.0000000000
40
0.0000000000
40
0.0000000000
40
0.0000000000
40
0.0000000000
40
0.0711022819
40
1.0000000000
40
1.0000000000
40
1.0000000000
40
1.0000000000
10
12.1705740312
20
13.6257661157
30
0.0000000000
10
12.1711038486
20
13.6255011505
30
0.0000000000
10
12.1785909586
20
13.6218448742
30
0.0000000000
10
12.1865645575
20
13.6191908981
30
0.0000000000
10
12.1941195519
20
13.6176134083
30
0.0000000000
11
12.1705740312
21
13.6257661157
31
0.0000000000
11
12.1721710093
21
13.6249862785
31
0.0000000000
11
12.1941195519
21
13.6176134083
31
0.0000000000
0
SPLINE
5
366
100
AcDbEntity
8
0
100
AcDbSpline
62
7
6
CONTINUOUS
70
0
71
3
72
13
73
9
74
7
42
0.0000001000
43
0.0000001000
44
0.0000000001
12
-0.1411200199
22
0.0705753522
32
0.0000000000
13
-0.0000000000
23
0.1573462303
33
0.0000000000
40
0.0000000000
40
0.0000000000
40
0.0000000000
40
0.0000000000
40
0.1341877812
40
0.2839661477
40
0.4437692844
40
0.6151905100
40
0.8009213695
40
1.0000000000
40
1.0000000000
40
1.0000000000
40
1.0000000000
10
10.4933308113
20
14.4643877191
30
0.0000000000
10
10.4870186172
20
14.4675445024
30
0.0000000000
10
10.4744402849
20
14.4757611082
30
0.0000000000
10
10.4582538193
20
14.4927726372
30
0.0000000000
10
10.4451162984
20
14.5145109601
30
0.0000000000
10
10.4356142613
20
14.5400494343
30
0.0000000000
10
10.4299097432
20
14.5687653689
30
0.0000000000
10
10.4287298356
20
14.5889784948
30
0.0000000000
10
10.4287298356
20
14.5994199188
30
0.0000000000
11
10.4933308113
21
14.4643877191
31
0.0000000000
11
10.4756267550
21
14.4759059859
31
0.0000000000
11
10.4592834018
21
14.4928854201
31
0.0000000000
11
10.4461222686
21
14.5143103236
31
0.0000000000
11
10.4365457890
21
14.5395255156
31
0.0000000000
11
10.4306911269
21
14.5681571077
31
0.0000000000
11
10.4287298356
21
14.5994199188
31
0.0000000000
0
SPLINE
5
367
100
AcDbEntity
8
0
100
AcDbSpline
62
7
6
CONTINUOUS
70
0
71
3
72
13
73
9
74
7
42
0.0000001000
43
0.0000001000
44
0.0000000001
12
-0.1411184857
22
0.0705745873
32
0.0000000000
13
-0.0000000000
23
0.1573445288
33
0.0000000000
40
0.0000000000
40
0.0000000000
40
0.0000000000
40
0.0000000000
40
0.1341870270
40
0.2839657539
40
0.4437691199
40
0.6151904691
40
0.8009213618
40
1.0000000000
40
1.0000000000
40
1.0000000000
40
1.0000000000
10
13.9478694721
20
-26.0447187977
30
0.0000000000
10
13.9415573821
20
-26.0415620663
30
0.0000000000
10
13.9289791903
20
-26.0333455874
30
0.0000000000
10
13.9127928315
20
-26.0163343220
30
0.0000000000
10
13.8996553177
20
-25.9945962744
30
0.0000000000
10
13.8901532155
20
-25.9690581145
30
0.0000000000
10
13.8844486150
20
-25.9403425176
30
0.0000000000
10
13.8832684962
20
-25.9201296158
30
0.0000000000
10
13.8832684962
20
-25.9096883043
30
0.0000000000
11
13.9478694721
21
-26.0447187977
31
0.0000000000
11
13.9301656851
21
-26.0332007525
31
0.0000000000
11
13.9138223965
21
-26.0162215311
31
0.0000000000
11
13.9006612728
21
-25.9947968986
31
0.0000000000
11
13.8910847411
21
-25.9695820175
31
0.0000000000
11
13.8852299643
21
-25.9409507661
31
0.0000000000
11
13.8832684962
21
-25.9096883043
31
0.0000000000
0
SPLINE
5
368
100
AcDbEntity
8
0
100
AcDbSpline
62
7
6
CONTINUOUS
70
0
71
3
72
9
73
5
74
3
42
0.0000001000
43
0.0000001000
44
0.0000000001
12
0.0032858702
22
0.0020479729
32
0.0000000000
13
0.0001131308
23
0.0034647824
33
0.0000000000
40
0.0000000000
40
0.0000000000
40
0.0000000000
40
0.0000000000
40
0.7170165807
40
1.0000000000
40
1.0000000000
40
1.0000000000
40
1.0000000000
10
19.7185168070
20
16.9640315701
30
0.0000000000
10
19.7193021481
20
16.9645210470
30
0.0000000000
10
19.7202266863
20
16.9654287811
30
0.0000000000
10
19.7204267387
20
16.9665451655
30
0.0000000000
10
19.7204374101
20
16.9668719909
30
0.0000000000
11
19.7185168070
21
16.9640315701
31
0.0000000000
11
19.7202554991
21
16.9659300376
31
0.0000000000
11
19.7204374101
21
16.9668719909
31
0.0000000000
0
SPLINE
5
369
100
AcDbEntity
8
0
100
AcDbSpline
62
7
6
CONTINUOUS
70
0
71
3
72
12
73
8
74
6
42
0.0000001000
43
0.0000001000
44
0.0000000001
12
0.0000024720
22
0.1446720053
32
0.0000000000
13
-0.1289551214
23
0.0644775607
33
0.0000000000
40
0.0000000000
40
0.0000000000
40
0.0000000000
40
0.0000000000
40
0.1637122150
40
0.3390315196
40
0.5344106615
40
0.7543496530
40
1.0000000000
40
1.0000000000
40
1.0000000000
40
1.0000000000
10
9.4102977231
20
22.3928632921
30
0.0000000000
10
9.4102978580
20
22.4007581503
30
0.0000000000
10
9.4076011897
20
22.4171067013
30
0.0000000000
10
9.3959837038
20
22.4403677167
30
0.0000000000
10
9.3774049844
20
22.4621164474
30
0.0000000000
10
9.3524530685
20
22.4820091778
30
0.0000000000
10
9.3329890476
20
22.4932069483
30
0.0000000000
10
9.3224297575
20
22.4984865934
30
0.0000000000
11
9.4102977231
21
22.3928632921
31
0.0000000000
11
9.4066037706
21
22.4161758468
31
0.0000000000
11
9.3956141284
21
22.4389387126
31
0.0000000000
11
9.3775989178
21
22.4605938758
31
0.0000000000
11
9.3530024280
21
22.4806072435
31
0.0000000000
11
9.3224297575
21
22.4984865934
31
0.0000000000
0
SPLINE
5
36A
100
AcDbEntity
8
0
100
AcDbSpline
62
7
6
CONTINUOUS
70
0
71
3
72
13
73
9
74
7
42
0.0000001000
43
0.0000001000
44
0.0000000001
12
0.0000258596
22
0.1446711661
32
0.0000000000
13
-0.1289558739
23
0.0644779370
33
0.0000000000
40
0.0000000000
40
0.0000000000
40
0.0000000000
40
0.0000000000
40
0.0029880403
40
0.1661938042
40
0.3410778189
40
0.5359454890
40
0.7552121694
40
1.0000000000
40
1.0000000000
40
1.0000000000
40
1.0000000000
10
14.9647611851
20
19.6156332049
30
0.0000000000
10
14.9647612109
20
19.6157772993
30
0.0000000000
10
14.9647385901
20
19.6237917517
30
0.0000000000
10
14.9619388903
20
19.6402215230
30
0.0000000000
10
14.9502752638
20
19.6633758188
30
0.0000000000
10
14.9317080028
20
19.6850280234
30
0.0000000000
10
14.9068171840
20
19.7048369233
30
0.0000000000
10
14.8874155479
20
19.7159936982
30
0.0000000000
10
14.8768932717
20
19.7212548363
30
0.0000000000
11
14.9647611851
21
19.6156332049
31
0.0000000000
11
14.9647599638
21
19.6160654842
31
0.0000000000
11
14.9609572714
21
19.6392867065
31
0.0000000000
11
14.9499154112
21
19.6619546640
31
0.0000000000
11
14.9319037888
21
19.6835170279
31
0.0000000000
11
14.9073633179
21
19.7034459307
31
0.0000000000
11
14.8768932717
21
19.7212548363
31
0.0000000000
0
SPLINE
5
36B
100
AcDbEntity
8
0
100
AcDbSpline
62
7
6
CONTINUOUS
70
0
71
3
72
17
73
13
74
11
42
0.0000001000
43
0.0000001000
44
0.0000000001
12
0.4608527432
22
-0.2304263716
32
0.0000000000
13
0.0000000000
23
-0.5152490307
33
0.0000000000
40
0.0000000000
40
0.0000000000
40
0.0000000000
40
0.0000000000
40
0.0874854453
40
0.1810663987
40
0.2799044282
40
0.3828032215
40
0.4883360357
40
0.5949178722
40
0.7009068930
40
0.8047067593
40
0.9048273562
40
1.0000000000
40
1.0000000000
40
1.0000000000
40
1.0000000000
10
14.6964412945
20
13.6820472094
30
0.0000000000
10
14.7098805970
20
13.6753275581
30
0.0000000000
10
14.7366159245
20
13.6591963966
30
0.0000000000
10
14.7742365712
20
13.6290866725
30
0.0000000000
10
14.8099509429
20
13.5929213782
30
0.0000000000
10
14.8428971564
20
13.5515780170
30
0.0000000000
10
14.8722888694
20
13.5060519065
30
0.0000000000
10
14.8974152011
20
13.4574443594
30
0.0000000000
10
14.9176685090
20
13.4069327034
30
0.0000000000
10
14.9325582565
20
13.3557349485
30
0.0000000000
10
14.9417230941
20
13.3050954529
30
0.0000000000
10
14.9439286679
20
13.2715289603
30
0.0000000000
10
14.9439286679
20
13.2551830894
30
0.0000000000
11
14.6964412945
21
13.6820472094
31
0.0000000000
11
14.7351558352
21
13.6589582202
31
0.0000000000
11
14.7729169470
21
13.6289744695
31
0.0000000000
11
14.8087958153
21
13.5928332943
31
0.0000000000
11
14.8419076335
21
13.5514259374
31
0.0000000000
11
14.8714393679
21
13.5057686130
31
0.0000000000
11
14.8966620243
21
13.4569874148
31
0.0000000000
11
14.9169533836
21
13.4062863922
31
0.0000000000
11
14.9318154975
21
13.3549100808
31
0.0000000000
11
14.9408815810
21
13.3041259408
31
0.0000000000
11
14.9439286679
21
13.2551830894
31
0.0000000000
0
SPLINE
5
36C
100
AcDbEntity
8
0
100
AcDbSpline
62
7
6
CONTINUOUS
70
0
71
3
72
13
73
9
74
7
42
0.0000001000
43
0.0000001000
44
0.0000000001
12
0.0000000000
22
-0.2196572814
32
0.0000000000
13
-0.1961525084
23
-0.1002226116
33
0.0000000000
40
0.0000000000
40
0.0000000000
40
0.0000000000
40
0.0000000000
40
0.2094025893
40
0.4037590139
40
0.5832338327
40
0.7496657997
40
0.9067904851
40
1.0000000000
40
1.0000000000
40
1.0000000000
40
1.0000000000
10
14.9439286679
20
-24.9213987553
30
0.0000000000
10
14.9439286679
20
-24.9367310231
30
0.0000000000
10
14.9421060656
20
-24.9663443480
30
0.0000000000
10
14.9332621650
20
-25.0082974100
30
0.0000000000
10
14.9185415206
20
-25.0452598761
30
0.0000000000
10
14.8981760999
20
-25.0762965510
30
0.0000000000
10
14.8757667095
20
-25.0974620273
30
0.0000000000
10
14.8600455535
20
-25.1070962820
30
0.0000000000
10
14.8539511268
20
-25.1102101823
30
0.0000000000
11
14.9439286679
21
-24.9213987553
31
0.0000000000
11
14.9408815810
21
-24.9672945197
31
0.0000000000
11
14.9318154975
21
-25.0090125763
31
0.0000000000
11
14.9169533836
21
-25.0455267737
31
0.0000000000
11
14.8966620243
21
-25.0759364370
31
0.0000000000
11
14.8714393679
21
-25.0994949788
31
0.0000000000
11
14.8539511268
21
-25.1102101823
31
0.0000000000
0
SPLINE
5
36D
100
AcDbEntity
8
0
100
AcDbSpline
62
7
6
CONTINUOUS
70
0
71
3
72
12
73
8
74
6
42
0.0000001000
43
0.0000001000
44
0.0000000001
12
0.1442257105
22
-0.0721128553
32
0.0000000000
13
0.1452198943
23
0.0711107357
33
0.0000000000
40
0.0000000000
40
0.0000000000
40
0.0000000000
40
0.0000000000
40
0.2589093298
40
0.4980032510
40
0.7205148469
40
0.9322066891
40
1.0000000000
40
1.0000000000
40
1.0000000000
40
1.0000000000
10
12.2215675604
20
-26.3268758351
30
0.0000000000
10
12.2340146877
20
-26.3330993987
30
0.0000000000
10
12.2589002142
20
-26.3433381943
30
0.0000000000
10
12.2970014597
20
-26.3514917922
30
0.0000000000
10
12.3335021775
20
-26.3514958008
30
0.0000000000
10
12.3599826833
20
-26.3449857809
30
0.0000000000
10
12.3737852805
20
-26.3389232306
30
0.0000000000
10
12.3770669264
20
-26.3373162866
30
0.0000000000
11
12.2215675604
21
-26.3268758351
31
0.0000000000
11
12.2602821010
21
-26.3425013866
31
0.0000000000
11
12.2980432128
21
-26.3502787476
31
0.0000000000
11
12.3339220811
21
-26.3500164408
31
0.0000000000
11
12.3670338994
21
-26.3417209021
31
0.0000000000
11
12.3770669264
21
-26.3373162866
31
0.0000000000
0
SPLINE
5
36E
100
AcDbEntity
8
0
100
AcDbSpline
62
7
6
CONTINUOUS
70
0
71
3
72
12
73
8
74
6
42
0.0000001000
43
0.0000001000
44
0.0000000001
12
-0.1280997254
22
-0.0657175839
32
0.0000000000
13
-0.0000198404
23
-0.1444569908
33
0.0000000000
40
0.0000000000
40
0.0000000000
40
0.0000000000
40
0.0000000000
40
0.2451070430
40
0.4650070858
40
0.6609705450
40
0.8375383260
40
1.0000000000
40
1.0000000000
40
1.0000000000
40
1.0000000000
10
2.7479894241
20
19.6694150784
30
0.0000000000
10
2.7375233758
20
19.6640457975
30
0.0000000000
10
2.7182348902
20
19.6526616622
30
0.0000000000
10
2.6935676083
20
19.6324842720
30
0.0000000000
10
2.6752525318
20
19.6104514362
30
0.0000000000
10
2.6639382572
20
19.5870558766
30
0.0000000000
10
2.6613531064
20
19.5707291213
30
0.0000000000
10
2.6613520320
20
19.5629062131
30
0.0000000000
11
2.7479894241
21
19.6694150784
31
0.0000000000
11
2.7177267881
21
19.6512635230
31
0.0000000000
11
2.6934190276
21
19.6309787254
31
0.0000000000
11
2.6756596890
21
19.6090559306
31
0.0000000000
11
2.6648834994
21
19.5860319379
31
0.0000000000
11
2.6613520320
21
19.5629062131
31
0.0000000000
0
SPLINE
5
36F
100
AcDbEntity
8
0
100
AcDbSpline
62
7
6
CONTINUOUS
70
0
71
3
72
17
73
13
74
11
42
0.0000001000
43
0.0000001000
44
0.0000000001
12
-0.3892831373
22
0.1946415686
32
0.0000000000
13
-0.3912763246
23
-0.1906030928
33
0.0000000000
40
0.0000000000
40
0.0000000000
40
0.0000000000
40
0.0000000000
40
0.0891031991
40
0.1852014033
40
0.2868711654
40
0.3924014128
40
0.4999155417
40
0.6074372688
40
0.7129896138
40
0.8146951064
40
0.9108405521
40
1.0000000000
40
1.0000000000
40
1.0000000000
40
1.0000000000
10
9.1419777804
20
22.5887125820
30
0.0000000000
10
9.1304156561
20
22.5944936441
30
0.0000000000
10
9.1055986109
20
22.6049706733
30
0.0000000000
10
9.0657329804
20
22.6171247291
30
0.0000000000
10
9.0225975972
20
22.6260944969
30
0.0000000000
10
8.9772311562
20
22.6316601576
30
0.0000000000
10
8.9307217786
20
22.6336873116
30
0.0000000000
10
8.8841912359
20
22.6321259593
30
0.0000000000
10
8.8387618189
20
22.6270147960
30
0.0000000000
10
8.7955233248
20
22.6184772809
30
0.0000000000
10
8.7555170806
20
22.6067227961
30
0.0000000000
10
8.7305800891
20
22.5964952623
30
0.0000000000
10
8.7189514288
20
22.5908305735
30
0.0000000000
11
9.1419777804
21
22.5887125820
31
0.0000000000
11
9.1063230263
21
22.6039660765
31
0.0000000000
11
9.0663552958
21
22.6162912743
31
0.0000000000
11
9.0230503441
21
22.6253871975
31
0.0000000000
11
8.9774683181
21
22.6310311832
31
0.0000000000
11
8.9307198696
21
22.6330855313
31
0.0000000000
11
8.8839498775
21
22.6314996197
31
0.0000000000
11
8.8383039201
21
22.6263125389
31
0.0000000000
11
8.7948941819
21
22.6176507953
31
0.0000000000
11
8.7547835906
21
22.6057264170
31
0.0000000000
11
8.7189514288
21
22.5908305735
31
0.0000000000
0
SPLINE
5
370
100
AcDbEntity
8
0
100
AcDbSpline
62
7
6
CONTINUOUS
70
0
71
3
72
17
73
13
74
11
42
0.0000001000
43
0.0000001000
44
0.0000000001
12
-0.3905141315
22
0.1952570657
32
0.0000000000
13
-0.3916239349
23
-0.1930215070
33
0.0000000000
40
0.0000000000
40
0.0000000000
40
0.0000000000
40
0.0000000000
40
0.0891659336
40
0.1853519118
40
0.2871213145
40
0.3927472656
40
0.5003366228
40
0.6078965497
40
0.7134351177
40
0.8150632032
40
0.9110602977
40
1.0000000000
40
1.0000000000
40
1.0000000000
40
1.0000000000
10
14.6964412945
20
19.8114808249
30
0.0000000000
10
14.6848344421
20
19.8172842511
30
0.0000000000
10
14.6599156942
20
19.8277970849
30
0.0000000000
10
14.6198819783
20
19.8399778637
30
0.0000000000
10
14.5765621484
20
19.8489491099
30
0.0000000000
10
14.5310069871
20
19.8544893202
30
0.0000000000
10
14.4843171857
20
19.8564637173
30
0.0000000000
10
14.4376271451
20
19.8548232215
30
0.0000000000
10
14.3920712423
20
19.8496087749
30
0.0000000000
10
14.3487501511
20
19.8409472333
30
0.0000000000
10
14.3087146411
20
19.8290525429
30
0.0000000000
10
14.2837875312
20
19.8187147665
30
0.0000000000
10
14.2721772258
20
19.8129923414
30
0.0000000000
11
14.6964412945
21
19.8114808249
31
0.0000000000
11
14.6606453773
21
19.8267857689
31
0.0000000000
11
14.6205079068
21
19.8391393813
31
0.0000000000
11
14.5770160501
21
19.8482377517
31
0.0000000000
11
14.5312424707
21
19.8538564968
31
0.0000000000
11
14.4843107281
21
19.8558575154
31
0.0000000000
11
14.4373787706
21
19.8541911169
31
0.0000000000
11
14.3916047228
21
19.8488986760
31
0.0000000000
11
14.3481121285
21
19.8401102231
31
0.0000000000
11
14.3079738878
21
19.8280424927
31
0.0000000000
11
14.2721772258
21
19.8129923414
31
0.0000000000
0
SPLINE
5
371
100
AcDbEntity
8
0
100
AcDbSpline
62
7
6
CONTINUOUS
70
0
71
3
72
13
73
9
74
7
42
0.0000001000
43
0.0000001000
44
0.0000000001
12
-0.4312367598
22
0.4734665699
32
0.0000000000
13
-0.5730157043
23
0.2864360409
33
0.0000000000
40
0.0000000000
40
0.0000000000
40
0.0000000000
40
0.0000000000
40
0.2263325555
40
0.4392651718
40
0.6372076945
40
0.8197560175
40
0.9872792954
40
1.0000000000
40
1.0000000000
40
1.0000000000
40
1.0000000000
10
19.7190576821
20
17.5751211975
30
0.0000000000
10
19.6865233761
20
17.6108414971
30
0.0000000000
10
19.6211694967
20
17.6782000998
30
0.0000000000
10
19.5199786140
20
17.7692582929
30
0.0000000000
10
19.4200479234
20
17.8472909973
30
0.0000000000
10
19.3227372405
20
17.9124220383
30
0.0000000000
10
19.2551818348
20
17.9504575423
30
0.0000000000
10
19.2208111271
20
17.9677800776
30
0.0000000000
10
19.2183814060
20
17.9689946337
30
0.0000000000
11
19.7190576821
21
17.5751211975
31
0.0000000000
11
19.6180069174
21
17.6790371768
31
0.0000000000
11
19.5165395047
21
17.7701417380
31
0.0000000000
11
19.4165110208
21
17.8480129782
31
0.0000000000
11
19.3192467996
21
17.9128742881
31
0.0000000000
11
19.2256585247
21
17.9653271626
31
0.0000000000
11
19.2183814060
21
17.9689946337
31
0.0000000000
0
SPLINE
5
372
100
AcDbEntity
8
0
100
AcDbSpline
62
7
6
CONTINUOUS
70
0
71
3
72
13
73
9
74
7
42
0.0000001000
43
0.0000001000
44
0.0000000001
12
0.4109068760
22
0.2010615886
32
0.0000000000
13
0.4098481622
23
-0.2048837263
33
0.0000000000
40
0.0000000000
40
0.0000000000
40
0.0000000000
40
0.0000000000
40
0.2005143800
40
0.3892497752
40
0.5669911938
40
0.7362259433
40
0.8992258387
40
1.0000000000
40
1.0000000000
40
1.0000000000
40
1.0000000000
10
15.5511400244
20
19.5567443123
30
0.0000000000
10
15.5786042702
20
19.5701828922
30
0.0000000000
10
15.6334940376
20
19.5932442626
30
0.0000000000
10
15.7172263436
20
19.6158870118
30
0.0000000000
10
15.7987434578
20
19.6251361137
30
0.0000000000
10
15.8767947656
20
19.6207168961
30
0.0000000000
10
15.9412857219
20
19.6047709552
30
0.0000000000
10
15.9784278415
20
19.5889652254
30
0.0000000000
10
15.9921952098
20
19.5820828969
30
0.0000000000
11
15.5511400244
21
19.5567443123
31
0.0000000000
11
15.6358433804
21
19.5919474875
31
0.0000000000
11
15.7192861173
21
19.6141225773
31
0.0000000000
11
15.8001182726
21
19.6229220119
31
0.0000000000
11
15.8773945152
21
19.6182352939
31
0.0000000000
11
15.9497348769
21
19.6001531069
31
0.0000000000
11
15.9921952098
21
19.5820828969
31
0.0000000000
0
SPLINE
5
373
100
AcDbEntity
8
0
100
AcDbSpline
62
7
6
CONTINUOUS
70
0
71
3
72
15
73
11
74
9
42
0.0000001000
43
0.0000001000
44
0.0000000001
12
0.0000000000
22
0.6311300022
32
0.0000000000
13
-0.5654420458
23
0.2826653478
33
0.0000000000
40
0.0000000000
40
0.0000000000
40
0.0000000000
40
0.0000000000
40
0.1606293349
40
0.3126800366
40
0.4557227302
40
0.5905083928
40
0.7175351878
40
0.8389320932
40
0.9563750069
40
1.0000000000
40
1.0000000000
40
1.0000000000
40
1.0000000000
10
12.0094355260
20
21.1625403220
30
0.0000000000
10
12.0094355260
20
21.1963329862
30
0.0000000000
10
12.0063004454
20
21.2621743299
30
0.0000000000
10
11.9913692203
20
21.3570833785
30
0.0000000000
10
11.9664941907
20
21.4442952239
30
0.0000000000
10
11.9319769360
20
21.5224929618
30
0.0000000000
10
11.8881754031
20
21.5906076144
30
0.0000000000
10
11.8356780230
20
21.6474783608
30
0.0000000000
10
11.7875785259
20
21.6830054603
30
0.0000000000
10
11.7577769911
20
21.6992928158
30
0.0000000000
10
11.7495545227
20
21.7034032404
30
0.0000000000
11
12.0094355260
21
21.1625403220
31
0.0000000000
11
12.0043381870
21
21.2637900849
31
0.0000000000
11
11.9891074910
21
21.3585374811
31
0.0000000000
11
11.9639989777
21
21.4452541262
31
0.0000000000
11
11.9293000953
21
21.5229228389
31
0.0000000000
11
11.8856361899
21
21.5901594348
31
0.0000000000
11
11.8334572000
21
21.6462624901
31
0.0000000000
11
11.7737462289
21
21.6901786969
31
0.0000000000
11
11.7495545227
21
21.7034032404
31
0.0000000000
0
SPLINE
5
374
100
AcDbEntity
8
0
100
AcDbSpline
62
7
6
CONTINUOUS
70
0
71
3
72
10
73
6
74
4
42
0.0000001000
43
0.0000001000
44
0.0000000001
12
0.0556154923
22
0.0171628862
32
0.0000000000
13
0.0478528501
23
-0.0308246041
33
0.0000000000
40
0.0000000000
40
0.0000000000
40
0.0000000000
40
0.0000000000
40
0.4565615055
40
0.7960097470
40
1.0000000000
40
1.0000000000
40
1.0000000000
40
1.0000000000
10
8.4661686280
20
23.3093321641
30
0.0000000000
10
8.4746325923
20
23.3119441351
30
0.0000000000
10
8.4897384425
20
23.3162220637
30
0.0000000000
10
8.5083228146
20
23.3188386318
30
0.0000000000
10
8.5200091326
20
23.3187552677
30
0.0000000000
10
8.5232629709
20
23.3166592948
30
0.0000000000
11
8.4661686280
21
23.3093321641
31
0.0000000000
11
8.4918580896
21
23.3161293196
31
0.0000000000
11
8.5114593486
21
23.3186057511
31
0.0000000000
11
8.5232629709
21
23.3166592948
31
0.0000000000
0
SPLINE
5
375
100
AcDbEntity
8
0
100
AcDbSpline
62
7
6
CONTINUOUS
70
0
71
3
72
8
73
4
74
2
42
0.0000001000
43
0.0000001000
44
0.0000000001
12
-0.0189936958
22
-0.0058614358
32
0.0000000000
13
-0.0178492873
23
-0.0089568130
33
0.0000000000
40
0.0000000000
40
0.0000000000
40
0.0000000000
40
0.0000000000
40
1.0000000000
40
1.0000000000
40
1.0000000000
40
1.0000000000
10
8.4661686280
20
23.3093321641
30
0.0000000000
10
8.4598373961
20
23.3073783521
30
0.0000000000
10
8.4536789132
20
23.3048439628
30
0.0000000000
10
8.4477291508
20
23.3018583584
30
0.0000000000
11
8.4661686280
21
23.3093321641
31
0.0000000000
11
8.4477291508
21
23.3018583584
31
0.0000000000
0
SPLINE
5
376
100
AcDbEntity
8
0
100
AcDbSpline
62
7
6
CONTINUOUS
70
0
71
3
72
15
73
11
74
9
42
0.0000001000
43
0.0000001000
44
0.0000000001
12
0.7619365976
22
0.4349160100
32
0.0000000000
13
0.7317445571
23
0.4839929935
33
0.0000000000
40
0.0000000000
40
0.0000000000
40
0.0000000000
40
0.0000000000
40
0.1045853351
40
0.2166076899
40
0.3351402480
40
0.4599360516
40
0.5902559263
40
0.7249598041
40
0.8623492495
40
1.0000000000
40
1.0000000000
40
1.0000000000
40
1.0000000000
10
18.9720707932
20
-20.4318755668
30
0.0000000000
10
18.9986332580
20
-20.4167136212
30
0.0000000000
10
19.0535190780
20
-20.3850869400
30
0.0000000000
10
19.1380605342
20
-20.3355018612
30
0.0000000000
10
19.2272977966
20
-20.2822462836
30
0.0000000000
10
19.3207002169
20
-20.2255345020
30
0.0000000000
10
19.4176818269
20
-20.1656118670
30
0.0000000000
10
19.5172933815
20
-20.1029460305
30
0.0000000000
10
19.6181721122
20
-20.0382763663
30
0.0000000000
10
19.6854826196
20
-19.9942418343
30
0.0000000000
10
19.7190576821
20
-19.9720345014
30
0.0000000000
11
18.9720707932
21
-20.4318755668
31
0.0000000000
11
19.0515775032
21
-20.3860746365
31
0.0000000000
11
19.1363566502
21
-20.3363608650
31
0.0000000000
11
19.2256585247
21
-20.2830746057
31
0.0000000000
11
19.3192467996
21
-20.2262544841
31
0.0000000000
11
19.4165110208
21
-20.1661572098
31
0.0000000000
11
19.5165395047
21
-20.1032239107
31
0.0000000000
11
19.6180069174
21
-20.0381616295
31
0.0000000000
11
19.7190576821
21
-19.9720345014
31
0.0000000000
0
SPLINE
5
377
100
AcDbEntity
8
0
100
AcDbSpline
62
7
6
CONTINUOUS
70
0
71
3
72
8
73
4
74
2
42
0.0000001000
43
0.0000001000
44
0.0000000001
12
-0.0496543828
22
-0.0283428911
32
0.0000000000
13
-0.0511446455
23
-0.0256282980
33
0.0000000000
40
0.0000000000
40
0.0000000000
40
0.0000000000
40
0.0000000000
40
1.0000000000
40
1.0000000000
40
1.0000000000
40
1.0000000000
10
18.9720707932
20
-20.4318755668
30
0.0000000000
10
18.9555193323
20
-20.4413231972
30
0.0000000000
10
18.9386980538
20
-20.4503102712
30
0.0000000000
10
18.9216498386
20
-20.4588530372
30
0.0000000000
11
18.9720707932
21
-20.4318755668
31
0.0000000000
11
18.9216498386
21
-20.4588530372
31
0.0000000000
0
SPLINE
5
378
100
AcDbEntity
8
0
100
AcDbSpline
62
7
6
CONTINUOUS
70
0
71
3
72
14
73
10
74
8
42
0.0000001000
43
0.0000001000
44
0.0000000001
12
0.0000000000
22
0.2525400005
32
0.0000000000
13
0.1603202703
23
0.1951252490
33
0.0000000000
40
0.0000000000
40
0.0000000000
40
0.0000000000
40
0.0000000000
40
0.1318788968
40
0.2706570924
40
0.4139746772
40
0.5610771939
40
0.7087227910
40
0.8559736017
40
1.0000000000
40
1.0000000000
40
1.0000000000
40
1.0000000000
10
13.8832684962
20
13.8899192478
30
0.0000000000
10
13.8832684962
20
13.9010208134
30
0.0000000000
10
13.8846855025
20
13.9238202161
30
0.0000000000
10
13.8905931395
20
13.9582226238
30
0.0000000000
10
13.9002157408
20
13.9931062040
30
0.0000000000
10
13.9133223519
20
14.0276302702
30
0.0000000000
10
13.9296549815
20
14.0611187366
30
0.0000000000
10
13.9488197175
20
14.0927656806
30
0.0000000000
10
13.9634458317
20
14.1125011005
30
0.0000000000
10
13.9711426154
20
14.1218688295
30
0.0000000000
11
13.8832684962
21
13.8899192478
31
0.0000000000
11
13.8852299643
21
13.9231661343
31
0.0000000000
11
13.8910847411
21
13.9577206853
31
0.0000000000
11
13.9006612728
21
13.9926241795
31
0.0000000000
11
13.9138223965
21
14.0273639702
31
0.0000000000
11
13.9301656851
21
14.0608777580
31
0.0000000000
11
13.9494481359
21
14.0926746009
31
0.0000000000
11
13.9711426154
21
14.1218688295
31
0.0000000000
0
SPLINE
5
379
100
AcDbEntity
8
0
100
AcDbSpline
62
7
6
CONTINUOUS
70
0
71
3
72
14
73
10
74
8
42
0.0000001000
43
0.0000001000
44
0.0000000001
12
-0.0000000000
22
0.2525400005
32
0.0000000000
13
0.1603202703
23
0.1951252490
33
0.0000000000
40
0.0000000000
40
0.0000000000
40
0.0000000000
40
0.0000000000
40
0.1318788968
40
0.2706570924
40
0.4139746772
40
0.5610771939
40
0.7087227910
40
0.8559736017
40
1.0000000000
40
1.0000000000
40
1.0000000000
40
1.0000000000
10
0.5189503317
20
20.5720783300
30
0.0000000000
10
0.5189503317
20
20.5831798956
30
0.0000000000
10
0.5203673381
20
20.6059792983
30
0.0000000000
10
0.5262749751
20
20.6403817060
30
0.0000000000
10
0.5358975764
20
20.6752652862
30
0.0000000000
10
0.5490041874
20
20.7097893524
30
0.0000000000
10
0.5653368171
20
20.7432778188
30
0.0000000000
10
0.5845015530
20
20.7749247628
30
0.0000000000
10
0.5991276673
20
20.7946601828
30
0.0000000000
10
0.6068244510
20
20.8040279117
30
0.0000000000
11
0.5189503317
21
20.5720783300
31
0.0000000000
11
0.5209117999
21
20.6053252166
31
0.0000000000
11
0.5267665767
21
20.6398797675
31
0.0000000000
11
0.5363431083
21
20.6747832617
31
0.0000000000
11
0.5495042320
21
20.7095230524
31
0.0000000000
11
0.5658475207
21
20.7430368402
31
0.0000000000
11
0.5851299715
21
20.7748336831
31
0.0000000000
11
0.6068244510
21
20.8040279117
31
0.0000000000
0
SPLINE
5
37A
100
AcDbEntity
8
0
100
AcDbSpline
62
7
6
CONTINUOUS
70
0
71
3
72
14
73
10
74
8
42
0.0000001000
43
0.0000001000
44
0.0000000001
12
0.1603213519
22
0.1951265654
32
0.0000000000
13
-0.0000000000
23
0.2525417043
33
0.0000000000
40
0.0000000000
40
0.0000000000
40
0.0000000000
40
0.0000000000
40
0.1440265224
40
0.2912774710
40
0.4389231742
40
0.5860257506
40
0.7293433004
40
0.8681213611
40
1.0000000000
40
1.0000000000
40
1.0000000000
40
1.0000000000
10
14.4983873311
20
14.7635765575
30
0.0000000000
10
14.5060841734
20
14.7729443577
30
0.0000000000
10
14.5207103924
20
14.7926799346
30
0.0000000000
10
14.5398752413
20
14.8243271393
30
0.0000000000
10
14.5562079348
20
14.8578158831
30
0.0000000000
10
14.5693145588
20
14.8923402249
30
0.0000000000
10
14.5789370977
20
14.9272240636
30
0.0000000000
10
14.5848446677
20
14.9616266940
30
0.0000000000
10
14.5862614504
20
14.9844262268
30
0.0000000000
10
14.5862614504
20
14.9955278455
30
0.0000000000
11
14.4983873311
21
14.7635765575
31
0.0000000000
11
14.5200819652
21
14.7927710160
31
0.0000000000
11
14.5393645310
21
14.8245681234
31
0.0000000000
11
14.5557078842
21
14.8580821893
31
0.0000000000
11
14.5688690174
21
14.8928222606
31
0.0000000000
11
14.5784454971
21
14.9277260131
31
0.0000000000
11
14.5843001592
21
14.9622807887
31
0.0000000000
11
14.5862614504
21
14.9955278455
31
0.0000000000
0
SPLINE
5
37B
100
AcDbEntity
8
0
100
AcDbSpline
62
7
6
CONTINUOUS
70
0
71
3
72
13
73
9
74
7
42
0.0000001000
43
0.0000001000
44
0.0000000001
12
0.0000000000
22
0.1573187955
32
0.0000000000
13
-0.1410768327
23
0.0705989525
33
0.0000000000
40
0.0000000000
40
0.0000000000
40
0.0000000000
40
0.0000000000
40
0.2078817330
40
0.4013465439
40
0.5789246977
40
0.7443175029
40
0.8997170363
40
1.0000000000
40
1.0000000000
40
1.0000000000
40
1.0000000000
10
14.5862614504
20
15.3430593623
30
0.0000000000
10
14.5862614504
20
15.3539605969
30
0.0000000000
10
14.5849774614
20
15.3750420786
30
0.0000000000
10
14.5787473332
20
15.4048776745
30
0.0000000000
10
14.5683679514
20
15.4311937171
30
0.0000000000
10
14.5540244836
20
15.4532849230
30
0.0000000000
10
14.5378946703
20
15.4686886839
30
0.0000000000
10
14.5263791410
20
15.4757268404
30
0.0000000000
10
14.5216632733
20
15.4780867978
30
0.0000000000
11
14.5862614504
21
15.3430593623
31
0.0000000000
11
14.5841170661
21
15.3756926867
31
0.0000000000
11
14.5777101383
21
15.4054463441
31
0.0000000000
11
14.5672649723
21
15.4313565719
31
0.0000000000
11
14.5529246052
21
15.4530674652
31
0.0000000000
11
14.5351475151
21
15.4698497162
31
0.0000000000
11
14.5216632733
21
15.4780867978
31
0.0000000000
0
SPLINE
5
37C
100
AcDbEntity
8
0
100
AcDbSpline
62
7
6
CONTINUOUS
70
0
71
3
72
12
73
8
74
6
42
0.0000001000
43
0.0000001000
44
0.0000000001
12
0.1037892104
22
0.0505590123
32
0.0000000000
13
0.1035245975
23
-0.0518042949
33
0.0000000000
40
0.0000000000
40
0.0000000000
40
0.0000000000
40
0.0000000000
40
0.2574797432
40
0.4962941496
40
0.7176884677
40
0.9297317834
40
1.0000000000
40
1.0000000000
40
1.0000000000
40
1.0000000000
10
12.7206621000
20
16.3166134685
30
0.0000000000
10
12.7295699731
20
16.3209527757
30
0.0000000000
10
12.7474006878
20
16.3280729358
30
0.0000000000
10
12.7746313892
20
16.3336085562
30
0.0000000000
10
12.8007185019
20
16.3333679793
30
0.0000000000
10
12.8197048713
20
16.3285519162
30
0.0000000000
10
12.8296538358
20
16.3240926068
30
0.0000000000
10
12.8320786654
20
16.3228792083
30
0.0000000000
11
12.7206621000
21
16.3166134685
31
0.0000000000
11
12.7483403932
21
16.3274546028
31
0.0000000000
11
12.7753993353
21
16.3327427052
31
0.0000000000
11
12.8009556007
21
16.3323238639
31
0.0000000000
11
12.8246582891
21
16.3262034384
31
0.0000000000
11
12.8320786654
21
16.3228792083
31
0.0000000000
0
SPLINE
5
37D
100
AcDbEntity
8
0
100
AcDbSpline
62
7
6
CONTINUOUS
70
0
71
3
72
17
73
13
74
11
42
0.0000001000
43
0.0000001000
44
0.0000000001
12
0.0000000000
22
0.3666502398
32
0.0000000000
13
0.3262254999
23
0.1673598566
33
0.0000000000
40
0.0000000000
40
0.0000000000
40
0.0000000000
40
0.0000000000
40
0.0951010066
40
0.1954626647
40
0.2989499556
40
0.4051948209
40
0.5116959089
40
0.6171488294
40
0.7202917296
40
0.8188238537
40
0.9126130540
40
1.0000000000
40
1.0000000000
40
1.0000000000
40
1.0000000000
10
10.4287298356
20
14.9393938529
30
0.0000000000
10
10.4287298356
20
14.9510167885
30
0.0000000000
10
10.4302844936
20
14.9749229463
30
0.0000000000
10
10.4367427520
20
15.0109506850
30
0.0000000000
10
10.4472443531
20
15.0474316894
30
0.0000000000
10
10.4615169828
20
15.0834124537
30
0.0000000000
10
10.4792442943
20
15.1180915909
30
0.0000000000
10
10.4999847530
20
15.1506105202
30
0.0000000000
10
10.5232292422
20
15.1801655980
30
0.0000000000
10
10.5484631459
20
15.2060997916
30
0.0000000000
10
10.5750298244
20
15.2277388347
30
0.0000000000
10
10.5939530014
20
15.2394068823
30
0.0000000000
10
10.6034556181
20
15.2442819046
30
0.0000000000
11
10.4287298356
21
14.9393938529
31
0.0000000000
11
10.4308742199
21
14.9741966590
31
0.0000000000
11
10.4372811478
21
15.0104322293
31
0.0000000000
11
10.4477263138
21
15.0469098707
31
0.0000000000
11
10.4620666808
21
15.0831289671
31
0.0000000000
11
10.4798437710
21
15.1178963669
31
0.0000000000
11
10.5006624940
21
15.1504772178
31
0.0000000000
11
10.5240909813
21
15.1801632312
31
0.0000000000
11
10.5493516027
21
15.2059905159
31
0.0000000000
11
10.5760975174
21
15.2276048420
31
0.0000000000
11
10.6034556181
21
15.2442819046
31
0.0000000000
0
SPLINE
5
37E
100
AcDbEntity
8
0
100
AcDbSpline
62
7
6
CONTINUOUS
70
0
71
3
72
14
73
10
74
8
42
0.0000001000
43
0.0000001000
44
0.0000000001
12
0.1603213519
22
0.1951265654
32
0.0000000000
13
0.0000000000
23
0.2525417043
33
0.0000000000
40
0.0000000000
40
0.0000000000
40
0.0000000000
40
0.0000000000
40
0.1440265224
40
0.2912774710
40
0.4389231742
40
0.5860257506
40
0.7293433004
40
0.8681213611
40
1.0000000000
40
1.0000000000
40
1.0000000000
40
1.0000000000
10
1.1340691667
20
21.4457356397
30
0.0000000000
10
1.1417660090
20
21.4551034399
30
0.0000000000
10
1.1563922280
20
21.4748390168
30
0.0000000000
10
1.1755570769
20
21.5064862215
30
0.0000000000
10
1.1918897704
20
21.5399749653
30
0.0000000000
10
1.2049963944
20
21.5744993071
30
0.0000000000
10
1.2146189332
20
21.6093831458
30
0.0000000000
10
1.2205265033
20
21.6437857762
30
0.0000000000
10
1.2219432860
20
21.6665853090
30
0.0000000000
10
1.2219432860
20
21.6776869277
30
0.0000000000
11
1.1340691667
21
21.4457356397
31
0.0000000000
11
1.1557638008
21
21.4749300982
31
0.0000000000
11
1.1750463666
21
21.5067272056
31
0.0000000000
11
1.1913897198
21
21.5402412715
31
0.0000000000
11
1.2045508530
21
21.5749813428
31
0.0000000000
11
1.2141273327
21
21.6098850953
31
0.0000000000
11
1.2199819947
21
21.6444398709
31
0.0000000000
11
1.2219432860
21
21.6776869277
31
0.0000000000
0
SPLINE
5
37F
100
AcDbEntity
8
0
100
AcDbSpline
62
7
6
CONTINUOUS
70
0
71
3
72
13
73
9
74
7
42
0.0000001000
43
0.0000001000
44
0.0000000001
12
0.0000000000
22
0.1573187955
32
0.0000000000
13
-0.1410768327
23
0.0705989525
33
0.0000000000
40
0.0000000000
40
0.0000000000
40
0.0000000000
40
0.0000000000
40
0.2078817330
40
0.4013465439
40
0.5789246977
40
0.7443175029
40
0.8997170363
40
1.0000000000
40
1.0000000000
40
1.0000000000
40
1.0000000000
10
1.2219432860
20
22.0252184445
30
0.0000000000
10
1.2219432860
20
22.0361196791
30
0.0000000000
10
1.2206592970
20
22.0572011608
30
0.0000000000
10
1.2144291688
20
22.0870367567
30
0.0000000000
10
1.2040497870
20
22.1133527993
30
0.0000000000
10
1.1897063191
20
22.1354440052
30
0.0000000000
10
1.1735765059
20
22.1508477661
30
0.0000000000
10
1.1620609765
20
22.1578859226
30
0.0000000000
10
1.1573451089
20
22.1602458800
30
0.0000000000
11
1.2219432860
21
22.0252184445
31
0.0000000000
11
1.2197989017
21
22.0578517689
31
0.0000000000
11
1.2133919738
21
22.0876054263
31
0.0000000000
11
1.2029468078
21
22.1135156541
31
0.0000000000
11
1.1886064408
21
22.1352265474
31
0.0000000000
11
1.1708293506
21
22.1520087984
31
0.0000000000
11
1.1573451089
21
22.1602458800
31
0.0000000000
0
SPLINE
5
380
100
AcDbEntity
8
0
100
AcDbSpline
62
7
6
CONTINUOUS
70
0
71
3
72
12
73
8
74
6
42
0.0000001000
43
0.0000001000
44
0.0000000001
12
0.1037892104
22
0.0505590123
32
0.0000000000
13
0.1035245975
23
-0.0518042949
33
0.0000000000
40
0.0000000000
40
0.0000000000
40
0.0000000000
40
0.0000000000
40
0.2574797432
40
0.4962941496
40
0.7176884677
40
0.9297317834
40
1.0000000000
40
1.0000000000
40
1.0000000000
40
1.0000000000
10
-0.6436560644
20
22.9987725507
30
0.0000000000
10
-0.6347481914
20
23.0031118579
30
0.0000000000
10
-0.6169174766
20
23.0102320180
30
0.0000000000
10
-0.5896867752
20
23.0157676384
30
0.0000000000
10
-0.5635996625
20
23.0155270615
30
0.0000000000
10
-0.5446132932
20
23.0107109984
30
0.0000000000
10
-0.5346643286
20
23.0062516890
30
0.0000000000
10
-0.5322394990
20
23.0050382905
30
0.0000000000
11
-0.6436560644
21
22.9987725507
31
0.0000000000
11
-0.6159777713
21
23.0096136850
31
0.0000000000
11
-0.5889188291
21
23.0149017874
31
0.0000000000
11
-0.5633625637
21
23.0144829461
31
0.0000000000
11
-0.5396598753
21
23.0083625206
31
0.0000000000
11
-0.5322394990
21
23.0050382905
31
0.0000000000
0
SPLINE
5
381
100
AcDbEntity
8
0
100
AcDbSpline
62
7
6
CONTINUOUS
70
0
71
3
72
17
73
13
74
11
42
0.0000001000
43
0.0000001000
44
0.0000000001
12
0.0000000000
22
0.3666502398
32
0.0000000000
13
0.3262254999
23
0.1673598566
33
0.0000000000
40
0.0000000000
40
0.0000000000
40
0.0000000000
40
0.0000000000
40
0.0951010066
40
0.1954626647
40
0.2989499556
40
0.4051948209
40
0.5116959089
40
0.6171488294
40
0.7202917296
40
0.8188238537
40
0.9126130540
40
1.0000000000
40
1.0000000000
40
1.0000000000
40
1.0000000000
10
-2.9355883288
20
21.6215529351
30
0.0000000000
10
-2.9355883288
20
21.6331758707
30
0.0000000000
10
-2.9340336709
20
21.6570820286
30
0.0000000000
10
-2.9275754124
20
21.6931097672
30
0.0000000000
10
-2.9170738113
20
21.7295907716
30
0.0000000000
10
-2.9028011816
20
21.7655715359
30
0.0000000000
10
-2.8850738701
20
21.8002506731
30
0.0000000000
10
-2.8643334114
20
21.8327696024
30
0.0000000000
10
-2.8410889223
20
21.8623246802
30
0.0000000000
10
-2.8158550185
20
21.8882588738
30
0.0000000000
10
-2.7892883400
20
21.9098979170
30
0.0000000000
10
-2.7703651630
20
21.9215659646
30
0.0000000000
10
-2.7608625463
20
21.9264409868
30
0.0000000000
11
-2.9355883288
21
21.6215529351
31
0.0000000000
11
-2.9334439445
21
21.6563557412
31
0.0000000000
11
-2.9270370167
21
21.6925913115
31
0.0000000000
11
-2.9165918506
21
21.7290689529
31
0.0000000000
11
-2.9022514836
21
21.7652880493
31
0.0000000000
11
-2.8844743934
21
21.8000554491
31
0.0000000000
11
-2.8636556704
21
21.8326363001
31
0.0000000000
11
-2.8402271831
21
21.8623223134
31
0.0000000000
11
-2.8149665617
21
21.8881495981
31
0.0000000000
11
-2.7882206471
21
21.9097639242
31
0.0000000000
11
-2.7608625463
21
21.9264409868
31
0.0000000000
0
SPLINE
5
382
100
AcDbEntity
8
0
100
AcDbSpline
62
7
6
CONTINUOUS
70
0
71
3
72
13
73
9
74
7
42
0.0000001000
43
0.0000001000
44
0.0000000001
12
0.0000000000
22
0.1573462303
32
0.0000000000
13
-0.1411200199
23
0.0705753522
33
0.0000000000
40
0.0000000000
40
0.0000000000
40
0.0000000000
40
0.0000000000
40
0.1990786305
40
0.3848094900
40
0.5562307156
40
0.7160338523
40
0.8658122188
40
1.0000000000
40
1.0000000000
40
1.0000000000
40
1.0000000000
10
14.5862614504
20
-26.3040762939
30
0.0000000000
10
14.5862614504
20
-26.2936348698
30
0.0000000000
10
14.5850815428
20
-26.2734217440
30
0.0000000000
10
14.5793770248
20
-26.2447058094
30
0.0000000000
10
14.5698749876
20
-26.2191673352
30
0.0000000000
10
14.5567374668
20
-26.1974290122
30
0.0000000000
10
14.5405510012
20
-26.1804174833
30
0.0000000000
10
14.5279726689
20
-26.1722008775
30
0.0000000000
10
14.5216604748
20
-26.1690440942
30
0.0000000000
11
14.5862614504
21
-26.3040762939
31
0.0000000000
11
14.5843001592
21
-26.2728134828
31
0.0000000000
11
14.5784454971
21
-26.2441818907
31
0.0000000000
11
14.5688690174
21
-26.2189666986
31
0.0000000000
11
14.5557078842
21
-26.1975417952
31
0.0000000000
11
14.5393645310
21
-26.1805623609
31
0.0000000000
11
14.5216604748
21
-26.1690440942
31
0.0000000000
0
SPLINE
5
383
100
AcDbEntity
8
0
100
AcDbSpline
62
7
6
CONTINUOUS
70
0
71
3
72
17
73
13
74
11
42
0.0000001000
43
0.0000001000
44
0.0000000001
12
0.3262254999
22
0.1673598566
32
0.0000000000
13
-0.0000000000
23
0.3666502398
33
0.0000000000
40
0.0000000000
40
0.0000000000
40
0.0000000000
40
0.0000000000
40
0.0873869460
40
0.1811761463
40
0.2797082704
40
0.3828511706
40
0.4883040911
40
0.5948051791
40
0.7010500444
40
0.8045373353
40
0.9048989934
40
1.0000000000
40
1.0000000000
40
1.0000000000
40
1.0000000000
10
14.4115356679
20
-26.9564958623
30
0.0000000000
10
14.4210382846
20
-26.9516208400
30
0.0000000000
10
14.4399614617
20
-26.9399527924
30
0.0000000000
10
14.4665281401
20
-26.9183137493
30
0.0000000000
10
14.4917620439
20
-26.8923795557
30
0.0000000000
10
14.5150065330
20
-26.8628244779
30
0.0000000000
10
14.5357469918
20
-26.8303055486
30
0.0000000000
10
14.5534743032
20
-26.7956264114
30
0.0000000000
10
14.5677469329
20
-26.7596456471
30
0.0000000000
10
14.5782485340
20
-26.7231646427
30
0.0000000000
10
14.5847067925
20
-26.6871369040
30
0.0000000000
10
14.5862614504
20
-26.6632307462
30
0.0000000000
10
14.5862614504
20
-26.6516078106
30
0.0000000000
11
14.4115356679
21
-26.9564958623
31
0.0000000000
11
14.4388937687
21
-26.9398187997
31
0.0000000000
11
14.4656396834
21
-26.9182044736
31
0.0000000000
11
14.4909003047
21
-26.8923771889
31
0.0000000000
11
14.5143287920
21
-26.8626911755
31
0.0000000000
11
14.5351475151
21
-26.8301103246
31
0.0000000000
11
14.5529246052
21
-26.7953429248
31
0.0000000000
11
14.5672649723
21
-26.7591238284
31
0.0000000000
11
14.5777101383
21
-26.7226461870
31
0.0000000000
11
14.5841170661
21
-26.6864106167
31
0.0000000000
11
14.5862614504
21
-26.6516078106
31
0.0000000000
0
SPLINE
5
384
100
AcDbEntity
8
0
100
AcDbSpline
62
7
6
CONTINUOUS
70
0
71
3
72
14
73
10
74
8
42
0.0000001000
43
0.0000001000
44
0.0000000001
12
0.0000000000
22
0.2525417043
32
0.0000000000
13
0.1603213519
23
0.1951265654
33
0.0000000000
40
0.0000000000
40
0.0000000000
40
0.0000000000
40
0.0000000000
40
0.1318786389
40
0.2706566996
40
0.4139742494
40
0.5610768258
40
0.7087225290
40
0.8559734776
40
1.0000000000
40
1.0000000000
40
1.0000000000
40
1.0000000000
10
10.4287298356
20
-26.7001842206
30
0.0000000000
10
10.4287298356
20
-26.6890826019
30
0.0000000000
10
10.4301466183
20
-26.6662830691
30
0.0000000000
10
10.4360541884
20
-26.6318804387
30
0.0000000000
10
10.4456767272
20
-26.5969966000
30
0.0000000000
10
10.4587833513
20
-26.5624722582
30
0.0000000000
10
10.4751160447
20
-26.5289835144
30
0.0000000000
10
10.4942808937
20
-26.4973363097
30
0.0000000000
10
10.5089071126
20
-26.4776007328
30
0.0000000000
10
10.5166039549
20
-26.4682329326
30
0.0000000000
11
10.4287298356
21
-26.7001842206
31
0.0000000000
11
10.4306911269
21
-26.6669371638
31
0.0000000000
11
10.4365457890
21
-26.6323823882
31
0.0000000000
11
10.4461222686
21
-26.5974786357
31
0.0000000000
11
10.4592834018
21
-26.5627385644
31
0.0000000000
11
10.4756267550
21
-26.5292244985
31
0.0000000000
11
10.4949093209
21
-26.4974273911
31
0.0000000000
11
10.5166039549
21
-26.4682329326
31
0.0000000000
0
SPLINE
5
385
100
AcDbEntity
8
0
100
AcDbSpline
62
7
6
CONTINUOUS
70
0
71
3
72
9
73
5
74
3
42
0.0000001000
43
0.0000001000
44
0.0000000001
12
-0.0220849486
22
0.0110448753
32
0.0000000000
13
-0.0241207855
23
0.0049542358
33
0.0000000000
40
0.0000000000
40
0.0000000000
40
0.0000000000
40
0.0000000000
40
0.0711334077
40
1.0000000000
40
1.0000000000
40
1.0000000000
40
1.0000000000
10
14.5216604748
20
-26.1690440942
30
0.0000000000
10
14.5211368155
20
-26.1687822077
30
0.0000000000
10
14.5137395299
20
-26.1651708213
30
0.0000000000
10
14.5058556617
20
-26.1625615232
30
0.0000000000
10
14.4983873311
20
-26.1610275819
30
0.0000000000
11
14.5216604748
21
-26.1690440942
31
0.0000000000
11
14.5200819652
21
-26.1682734978
31
0.0000000000
11
14.4983873311
21
-26.1610275819
31
0.0000000000
0
SPLINE
5
386
100
AcDbEntity
8
0
100
AcDbSpline
62
7
6
CONTINUOUS
70
0
71
3
72
12
73
8
74
6
42
0.0000001000
43
0.0000001000
44
0.0000000001
12
-0.1024460385
22
0.0512669789
32
0.0000000000
13
-0.1022335317
23
-0.0509823104
33
0.0000000000
40
0.0000000000
40
0.0000000000
40
0.0000000000
40
0.0000000000
40
0.0701707674
40
0.2818334567
40
0.5029641069
40
0.7418852029
40
1.0000000000
40
1.0000000000
40
1.0000000000
40
1.0000000000
10
1.1573451089
20
22.1602458800
30
0.0000000000
10
1.1549488699
20
22.1614450278
30
0.0000000000
10
1.1451179747
20
22.1658459378
30
0.0000000000
10
1.1263397882
20
22.1705552610
30
0.0000000000
10
1.1005401504
20
22.1706410389
30
0.0000000000
10
1.0736189229
20
22.1649412272
30
0.0000000000
10
1.0560134992
20
22.1577221963
30
0.0000000000
10
1.0472175035
20
22.1533357667
30
0.0000000000
11
1.1573451089
21
22.1602458800
31
0.0000000000
11
1.1500106276
21
22.1635272692
31
0.0000000000
11
1.1265821403
21
22.1695105941
31
0.0000000000
11
1.1013215189
21
22.1697816134
31
0.0000000000
11
1.0745756043
21
22.1643369973
31
0.0000000000
11
1.0472175035
21
22.1533357667
31
0.0000000000
0
SPLINE
5
387
100
AcDbEntity
8
0
100
AcDbSpline
62
7
6
CONTINUOUS
70
0
71
3
72
12
73
8
74
6
42
0.0000001000
43
0.0000001000
44
0.0000000001
12
-0.1024460385
22
0.0512669789
32
0.0000000000
13
-0.1022335317
23
-0.0509823104
33
0.0000000000
40
0.0000000000
40
0.0000000000
40
0.0000000000
40
0.0000000000
40
0.0701707674
40
0.2818334567
40
0.5029641069
40
0.7418852029
40
1.0000000000
40
1.0000000000
40
1.0000000000
40
1.0000000000
10
14.5216632733
20
15.4780867978
30
0.0000000000
10
14.5192670343
20
15.4792859455
30
0.0000000000
10
14.5094361391
20
15.4836868556
30
0.0000000000
10
14.4906579526
20
15.4883961788
30
0.0000000000
10
14.4648583148
20
15.4884819567
30
0.0000000000
10
14.4379370873
20
15.4827821450
30
0.0000000000
10
14.4203316637
20
15.4755631141
30
0.0000000000
10
14.4115356679
20
15.4711766845
30
0.0000000000
11
14.5216632733
21
15.4780867978
31
0.0000000000
11
14.5143287920
21
15.4813681870
31
0.0000000000
11
14.4909003047
21
15.4873515119
31
0.0000000000
11
14.4656396834
21
15.4876225312
31
0.0000000000
11
14.4388937687
21
15.4821779151
31
0.0000000000
11
14.4115356679
21
15.4711766845
31
0.0000000000
0
SPLINE
5
388
100
AcDbEntity
8
0
100
AcDbSpline
62
7
6
CONTINUOUS
70
0
71
3
72
8
73
4
74
2
42
0.0000001000
43
0.0000001000
44
0.0000000001
12
0.0002454748
22
0.0085435457
32
0.0000000000
13
-0.0053364816
23
0.0075239063
33
0.0000000000
40
0.0000000000
40
0.0000000000
40
0.0000000000
40
0.0000000000
40
1.0000000000
40
1.0000000000
40
1.0000000000
40
1.0000000000
10
19.7203840009
20
-19.9679812792
30
0.0000000000
10
19.7204658258
20
-19.9651334307
30
0.0000000000
10
19.7187264549
20
-19.9624089588
30
0.0000000000
10
19.7169476277
20
-19.9599009901
30
0.0000000000
11
19.7203840009
21
-19.9679812792
31
0.0000000000
11
19.7169476277
21
-19.9599009901
31
0.0000000000
0
SPLINE
5
389
100
AcDbEntity
8
0
100
AcDbSpline
62
7
6
CONTINUOUS
70
0
71
3
72
11
73
7
74
5
42
0.0000001000
43
0.0000001000
44
0.0000000001
12
-0.0663186737
22
0.0935027089
32
0.0000000000
13
-0.0863886430
23
0.0648670732
33
0.0000000000
40
0.0000000000
40
0.0000000000
40
0.0000000000
40
0.0000000000
40
0.1581044998
40
0.3820090898
40
0.6646809553
40
1.0000000000
40
1.0000000000
40
1.0000000000
40
1.0000000000
10
19.7169476277
20
-19.9599009901
30
0.0000000000
10
19.7134525342
20
-19.9549732571
30
0.0000000000
10
19.7046397148
20
-19.9450864613
30
0.0000000000
10
19.6867666557
20
-19.9286835369
30
0.0000000000
10
19.6634885915
20
-19.9094348911
30
0.0000000000
10
19.6458251218
20
-19.8958382110
30
0.0000000000
10
19.6361692028
20
-19.8885878227
30
0.0000000000
11
19.7169476277
21
-19.9599009901
31
0.0000000000
11
19.7059077346
21
-19.9468681661
31
0.0000000000
11
19.6882716849
21
-19.9303133541
31
0.0000000000
11
19.6648236967
21
-19.9107500454
31
0.0000000000
11
19.6361692028
21
-19.8885878227
31
0.0000000000
0
SPLINE
5
38A
100
AcDbEntity
8
0
100
AcDbSpline
62
7
6
CONTINUOUS
70
0
71
3
72
11
73
7
74
5
42
0.0000001000
43
0.0000001000
44
0.0000000001
12
-0.1625542203
22
-0.0815700781
32
0.0000000000
13
-0.0905678769
23
-0.1567410448
33
0.0000000000
40
0.0000000000
40
0.0000000000
40
0.0000000000
40
0.0000000000
40
0.1162303016
40
0.3703269026
40
0.6635318032
40
1.0000000000
40
1.0000000000
40
1.0000000000
40
1.0000000000
10
8.4477291508
20
23.3018583584
30
0.0000000000
10
8.4414312421
20
23.2986980535
30
0.0000000000
10
8.4221102921
20
23.2870180508
30
0.0000000000
10
8.3925217452
20
23.2596854002
30
0.0000000000
10
8.3596441918
20
23.2175054089
30
0.0000000000
10
8.3395671731
20
23.1851890652
30
0.0000000000
10
8.3294094363
20
23.1676096063
30
0.0000000000
11
8.4477291508
21
23.3018583584
31
0.0000000000
11
8.4295796717
21
23.2910141746
31
0.0000000000
11
8.3951375991
21
23.2605254804
31
0.0000000000
11
8.3619795341
21
23.2190794193
31
0.0000000000
11
8.3294094363
21
23.1676096063
31
0.0000000000
0
SPLINE
5
38B
100
AcDbEntity
8
0
100
AcDbSpline
62
7
6
CONTINUOUS
70
0
71
3
72
13
73
9
74
7
42
0.0000001000
43
0.0000001000
44
0.0000000001
12
-0.4098481622
22
0.2048837263
32
0.0000000000
13
-0.4109068760
23
-0.2010615886
33
0.0000000000
40
0.0000000000
40
0.0000000000
40
0.0000000000
40
0.0000000000
40
0.1007741613
40
0.2637740567
40
0.4330088062
40
0.6107502248
40
0.7994856200
40
1.0000000000
40
1.0000000000
40
1.0000000000
40
1.0000000000
10
11.7495545227
20
21.7034032404
30
0.0000000000
10
11.7357871544
20
21.7102855690
30
0.0000000000
10
11.6986450347
20
21.7260912988
30
0.0000000000
10
11.6341540785
20
21.7420372397
30
0.0000000000
10
11.5561027707
20
21.7464564572
30
0.0000000000
10
11.4745856565
20
21.7372073554
30
0.0000000000
10
11.3908533505
20
21.7145646061
30
0.0000000000
10
11.3359635831
20
21.6915032358
30
0.0000000000
10
11.3084993372
20
21.6780646558
30
0.0000000000
11
11.7495545227
21
21.7034032404
31
0.0000000000
11
11.7070941898
21
21.7214734504
31
0.0000000000
11
11.6347538281
21
21.7395556374
31
0.0000000000
11
11.5574775855
21
21.7442423554
31
0.0000000000
11
11.4766454302
21
21.7354429208
31
0.0000000000
11
11.3932026932
21
21.7132678311
31
0.0000000000
11
11.3084993372
21
21.6780646558
31
0.0000000000
0
SPLINE
5
38C
100
AcDbEntity
8
0
100
AcDbSpline
62
7
6
CONTINUOUS
70
0
71
3
72
10
73
6
74
4
42
0.0000001000
43
0.0000001000
44
0.0000000001
12
-0.2344480368
22
0.1171946370
32
0.0000000000
13
-0.2568936911
23
0.0516051973
33
0.0000000000
40
0.0000000000
40
0.0000000000
40
0.0000000000
40
0.0000000000
40
0.3436557906
40
0.6870119842
40
1.0000000000
40
1.0000000000
40
1.0000000000
40
1.0000000000
10
19.2183814060
20
17.9689946337
30
0.0000000000
10
19.1915249308
20
17.9824195056
30
0.0000000000
10
19.1368556705
20
18.0073083591
30
0.0000000000
10
19.0545160258
20
18.0367757562
30
0.0000000000
10
18.9988723421
20
18.0509971454
30
0.0000000000
10
18.9720707932
20
18.0563810815
30
0.0000000000
11
19.2183814060
21
17.9689946337
31
0.0000000000
11
19.1363566502
21
18.0061571003
31
0.0000000000
11
19.0515775032
21
18.0362696128
31
0.0000000000
11
18.9720707932
21
18.0563810815
31
0.0000000000
0
SPLINE
5
38D
100
AcDbEntity
8
0
100
AcDbSpline
62
7
6
CONTINUOUS
70
0
71
3
72
9
73
5
74
3
42
0.0000001000
43
0.0000001000
44
0.0000000001
12
0.0001767801
22
0.0054141286
32
0.0000000000
13
-0.0029429943
23
0.0049589549
33
0.0000000000
40
0.0000000000
40
0.0000000000
40
0.0000000000
40
0.0000000000
40
0.6316411435
40
1.0000000000
40
1.0000000000
40
1.0000000000
40
1.0000000000
10
19.7204374101
20
16.9668719909
30
0.0000000000
10
19.7204746306
20
16.9680119197
30
0.0000000000
10
19.7196487553
20
16.9700266973
30
0.0000000000
10
19.7187064278
20
16.9717570379
30
0.0000000000
10
19.7183450685
20
16.9723659296
30
0.0000000000
11
19.7204374101
21
16.9668719909
31
0.0000000000
11
19.7193848560
21
16.9704436706
31
0.0000000000
11
19.7183450685
21
16.9723659296
31
0.0000000000
0
SPLINE
5
38E
100
AcDbEntity
8
0
100
AcDbSpline
62
7
6
CONTINUOUS
70
0
71
3
72
14
73
10
74
8
42
0.0000001000
43
0.0000001000
44
0.0000000001
12
-0.0566695584
22
0.0954883889
32
0.0000000000
13
-0.0880104637
23
0.0641532364
33
0.0000000000
40
0.0000000000
40
0.0000000000
40
0.0000000000
40
0.0000000000
40
0.0507979489
40
0.1496779943
40
0.2757326834
40
0.4265637239
40
0.5995479182
40
0.7917799682
40
1.0000000000
40
1.0000000000
40
1.0000000000
40
1.0000000000
10
19.7183450685
20
16.9723659296
30
0.0000000000
10
19.7173855027
20
16.9739828010
30
0.0000000000
10
19.7142621463
20
16.9781549381
30
0.0000000000
10
19.7073680439
20
16.9856518929
30
0.0000000000
10
19.6974544119
20
16.9949363129
30
0.0000000000
10
19.6850515369
20
17.0056020637
30
0.0000000000
10
19.6704706378
20
17.0173568661
30
0.0000000000
10
19.6539637822
20
17.0300477312
30
0.0000000000
10
19.6422777166
20
17.0386957889
30
0.0000000000
10
19.6361692028
20
17.0431484519
30
0.0000000000
11
19.7183450685
21
16.9723659296
31
0.0000000000
11
19.7151941851
21
16.9768028866
31
0.0000000000
11
19.7079875189
21
16.9848051844
31
0.0000000000
11
19.6980399294
21
16.9942667814
31
0.0000000000
11
19.6856141682
21
17.0050115081
31
0.0000000000
11
19.6709709874
21
17.0168653940
31
0.0000000000
11
19.6543874378
21
17.0296444801
31
0.0000000000
11
19.6361692028
21
17.0431484519
31
0.0000000000
0
SPLINE
5
38F
100
AcDbEntity
8
0
100
AcDbSpline
62
7
6
CONTINUOUS
70
0
71
3
72
12
73
8
74
6
42
0.0000001000
43
0.0000001000
44
0.0000000001
12
-0.0001112880
22
-0.3027556084
32
0.0000000000
13
-0.1478565247
23
-0.2641316829
33
0.0000000000
40
0.0000000000
40
0.0000000000
40
0.0000000000
40
0.0000000000
40
0.1758487554
40
0.3770020419
40
0.5821736245
40
0.7902417506
40
1.0000000000
40
1.0000000000
40
1.0000000000
40
1.0000000000
10
19.7203675427
20
17.5430841117
30
0.0000000000
10
19.7203610194
20
17.5253377127
30
0.0000000000
10
19.7177324739
20
17.4872591283
30
0.0000000000
10
19.7068505817
20
17.4294226325
30
0.0000000000
10
19.6890859450
20
17.3699233061
30
0.0000000000
10
19.6655804345
20
17.3115392145
30
0.0000000000
10
19.6465072447
20
17.2738755391
30
0.0000000000
10
19.6361692028
20
17.2554076060
30
0.0000000000
11
19.7203675427
21
17.5430841117
31
0.0000000000
11
19.7169476277
21
17.4899509617
31
0.0000000000
11
19.7059077346
21
17.4300711199
31
0.0000000000
11
19.6882716849
21
17.3705224247
31
0.0000000000
11
19.6648236967
21
17.3120677945
31
0.0000000000
11
19.6361692028
21
17.2554076060
31
0.0000000000
0
SPLINE
5
390
100
AcDbEntity
8
0
100
AcDbSpline
62
7
6
CONTINUOUS
70
0
71
3
72
12
73
8
74
6
42
0.0000001000
43
0.0000001000
44
0.0000000001
12
-0.0000037860
22
-0.1438614601
32
0.0000000000
13
-0.1287763930
23
-0.0630118104
33
0.0000000000
40
0.0000000000
40
0.0000000000
40
0.0000000000
40
0.0000000000
40
0.1638187652
40
0.3390033906
40
0.5342164121
40
0.7541293018
40
1.0000000000
40
1.0000000000
40
1.0000000000
40
1.0000000000
10
9.4102977231
20
21.1604946901
30
0.0000000000
10
9.4102975164
20
21.1526389545
30
0.0000000000
10
9.4076088345
20
21.1363810810
30
0.0000000000
10
9.3959858316
20
21.1132894899
30
0.0000000000
10
9.3773980536
20
21.0917756186
30
0.0000000000
10
9.3524396598
20
21.0721741525
30
0.0000000000
10
9.3329838714
20
21.0611961468
30
0.0000000000
10
9.3224297575
20
21.0560318942
30
0.0000000000
11
9.4102977231
21
21.1604946901
31
0.0000000000
11
9.4066044709
21
21.1373008178
31
0.0000000000
11
9.3956153177
21
21.1147169969
31
0.0000000000
11
9.3776001722
21
21.0932991749
31
0.0000000000
11
9.3530033074
21
21.0735757668
31
0.0000000000
11
9.3224297575
21
21.0560318942
31
0.0000000000
0
SPLINE
5
391
100
AcDbEntity
8
0
100
AcDbSpline
62
7
6
CONTINUOUS
70
0
71
3
72
12
73
8
74
6
42
0.0000001000
43
0.0000001000
44
0.0000000001
12
-0.0000271067
22
-0.1424881500
32
0.0000000000
13
-0.1272561834
23
-0.0630046818
33
0.0000000000
40
0.0000000000
40
0.0000000000
40
0.0000000000
40
0.0000000000
40
0.1616494759
40
0.3374736946
40
0.5331965554
40
0.7535889118
40
1.0000000000
40
1.0000000000
40
1.0000000000
40
1.0000000000
10
14.9647611807
20
18.3832645974
30
0.0000000000
10
14.9647597201
20
18.3755868858
30
0.0000000000
10
14.9621744052
20
18.3595544047
30
0.0000000000
10
14.9508385521
20
18.3366487145
30
0.0000000000
10
14.9325082384
20
18.3151667295
30
0.0000000000
10
14.9078361062
20
18.2955718489
30
0.0000000000
10
14.8885762538
20
18.2845808225
30
0.0000000000
10
14.8781238089
20
18.2794058051
30
0.0000000000
11
14.9647611807
21
18.3832645974
31
0.0000000000
11
14.9612299958
21
18.3605799731
31
0.0000000000
11
14.9504539941
21
18.3380583754
31
0.0000000000
11
14.9326946823
21
18.3166801731
31
0.0000000000
11
14.9083867803
21
18.2969688983
31
0.0000000000
11
14.8781238089
21
18.2794058051
31
0.0000000000
0
SPLINE
5
392
100
AcDbEntity
8
0
100
AcDbSpline
62
7
6
CONTINUOUS
70
0
71
3
72
13
73
9
74
7
42
0.0000001000
43
0.0000001000
44
0.0000000001
12
-0.0000199727
22
-0.1454202046
32
0.0000000000
13
0.1296323661
23
-0.0648161831
33
0.0000000000
40
0.0000000000
40
0.0000000000
40
0.0000000000
40
0.0000000000
40
0.0030152475
40
0.1674532572
40
0.3429528197
40
0.5377595388
40
0.7563608844
40
1.0000000000
40
1.0000000000
40
1.0000000000
40
1.0000000000
10
2.6613520320
20
19.5629062131
30
0.0000000000
10
2.6613520119
20
19.5627600538
30
0.0000000000
10
2.6613748915
20
19.5546430406
30
0.0000000000
10
2.6641584778
20
19.5380350070
30
0.0000000000
10
2.6758080548
20
19.5146254203
30
0.0000000000
10
2.6943753878
20
19.4927800649
30
0.0000000000
10
2.7192729811
20
19.4728529394
30
0.0000000000
10
2.7386921230
20
19.4616630989
30
0.0000000000
10
2.7492199613
20
19.4563991797
30
0.0000000000
11
2.6613520320
21
19.5629062131
31
0.0000000000
11
2.6613532691
21
19.5624677383
31
0.0000000000
11
2.6651559615
21
19.5389405121
31
0.0000000000
11
2.6761978218
21
19.5160264436
31
0.0000000000
11
2.6942094442
21
19.4942838558
31
0.0000000000
11
2.7187499150
21
19.4742450281
31
0.0000000000
11
2.7492199613
21
19.4563991797
31
0.0000000000
0
SPLINE
5
393
100
AcDbEntity
8
0
100
AcDbSpline
62
7
6
CONTINUOUS
70
0
71
3
72
12
73
8
74
6
42
0.0000001000
43
0.0000001000
44
0.0000000001
12
-0.1462308253
22
0.0731154127
32
0.0000000000
13
-0.1459964177
23
-0.0745957438
33
0.0000000000
40
0.0000000000
40
0.0000000000
40
0.0000000000
40
0.0000000000
40
0.2553591691
40
0.4911746382
40
0.7106351586
40
0.9194242855
40
1.0000000000
40
1.0000000000
40
1.0000000000
40
1.0000000000
10
-3.0519389133
20
20.0700270453
30
0.0000000000
10
-3.0643860406
20
20.0762506090
30
0.0000000000
10
-3.0892715671
20
20.0864894045
30
0.0000000000
10
-3.1273728126
20
20.0946430025
30
0.0000000000
10
-3.1638735304
20
20.0946470110
30
0.0000000000
10
-3.1910874042
20
20.0879566985
30
0.0000000000
10
-3.2055274903
20
20.0814652609
30
0.0000000000
10
-3.2094487455
20
20.0794617258
30
0.0000000000
11
-3.0519389133
21
20.0700270453
31
0.0000000000
11
-3.0906534539
21
20.0856525968
31
0.0000000000
11
-3.1284145657
21
20.0934299579
31
0.0000000000
11
-3.1642934341
21
20.0931676510
31
0.0000000000
11
-3.1974052523
21
20.0848721123
31
0.0000000000
11
-3.2094487455
21
20.0794617258
31
0.0000000000
0
SPLINE
5
394
100
AcDbEntity
8
0
100
AcDbSpline
62
7
6
CONTINUOUS
70
0
71
3
72
17
73
13
74
11
42
0.0000001000
43
0.0000001000
44
0.0000000001
12
0.0000000000
22
0.5152490307
32
0.0000000000
13
-0.4608527432
23
0.2304263716
33
0.0000000000
40
0.0000000000
40
0.0000000000
40
0.0000000000
40
0.0000000000
40
0.0951726438
40
0.1952932407
40
0.2990931070
40
0.4050821278
40
0.5116639643
40
0.6171967785
40
0.7200955718
40
0.8189336013
40
0.9125145547
40
1.0000000000
40
1.0000000000
40
1.0000000000
40
1.0000000000
10
12.4690549338
20
12.0064096885
30
0.0000000000
10
12.4690549338
20
12.0227555594
30
0.0000000000
10
12.4668493599
20
12.0563220520
30
0.0000000000
10
12.4576845223
20
12.1069615477
30
0.0000000000
10
12.4427947749
20
12.1581593026
30
0.0000000000
10
12.4225414669
20
12.2086709586
30
0.0000000000
10
12.3974151352
20
12.2572785057
30
0.0000000000
10
12.3680234222
20
12.3028046162
30
0.0000000000
10
12.3350772088
20
12.3441479773
30
0.0000000000
10
12.2993628371
20
12.3803132716
30
0.0000000000
10
12.2617421904
20
12.4104229957
30
0.0000000000
10
12.2350068628
20
12.4265541572
30
0.0000000000
10
12.2215675604
20
12.4332738085
30
0.0000000000
11
12.4690549338
21
12.0064096885
31
0.0000000000
11
12.4660078468
21
12.0553525399
31
0.0000000000
11
12.4569417634
21
12.1061366799
31
0.0000000000
11
12.4420796494
21
12.1575129914
31
0.0000000000
11
12.4217882901
21
12.2082140139
31
0.0000000000
11
12.3965656337
21
12.2569952122
31
0.0000000000
11
12.3670338994
21
12.3026525365
31
0.0000000000
11
12.3339220811
21
12.3440598934
31
0.0000000000
11
12.2980432128
21
12.3802010686
31
0.0000000000
11
12.2602821010
21
12.4101848194
31
0.0000000000
11
12.2215675604
21
12.4332738085
31
0.0000000000
0
SPLINE
5
395
100
AcDbEntity
8
0
100
AcDbSpline
62
7
6
CONTINUOUS
70
0
71
3
72
17
73
13
74
11
42
0.0000001000
43
0.0000001000
44
0.0000000001
12
0.0000000000
22
0.5152490286
32
0.0000000000
13
-0.4608527413
23
0.2304263707
33
0.0000000000
40
0.0000000000
40
0.0000000000
40
0.0000000000
40
0.0000000000
40
0.0951686493
40
0.1952865842
40
0.2990826087
40
0.4050717387
40
0.5116494140
40
0.6171798582
40
0.7200829815
40
0.8189239543
40
0.9125100339
40
1.0000000000
40
1.0000000000
40
1.0000000000
40
1.0000000000
10
14.2368218867
20
12.9091873880
30
0.0000000000
10
14.2368218867
20
12.9255325727
30
0.0000000000
10
14.2346164799
20
12.9590979193
30
0.0000000000
10
14.2254522605
20
13.0097356884
30
0.0000000000
10
14.2105632525
20
13.0609325055
30
0.0000000000
10
14.1903109306
20
13.1114430961
30
0.0000000000
10
14.1651856537
20
13.1600499364
30
0.0000000000
10
14.1357948103
20
13.2055761501
30
0.0000000000
10
14.1028486792
20
13.2469206634
30
0.0000000000
10
14.0671332620
20
13.2830879269
30
0.0000000000
10
14.0295112069
20
13.3131993746
30
0.0000000000
10
14.0027745102
20
13.3293315095
30
0.0000000000
10
13.9893345133
20
13.3360515080
30
0.0000000000
11
14.2368218867
21
12.9091873880
31
0.0000000000
11
14.2337750484
21
12.9581281925
31
0.0000000000
11
14.2247094998
21
13.0089110345
31
0.0000000000
11
14.2098483663
21
13.0602855688
31
0.0000000000
11
14.1895574735
21
13.1109868383
31
0.0000000000
11
14.1643363524
21
13.1597664165
31
0.0000000000
11
14.1348059516
21
13.2054231488
31
0.0000000000
11
14.1016933531
21
13.2468327381
31
0.0000000000
11
14.0658138712
21
13.2829754408
31
0.0000000000
11
14.0280509720
21
13.3129611877
31
0.0000000000
11
13.9893345133
21
13.3360515080
31
0.0000000000
0
SPLINE
5
396
100
AcDbEntity
8
0
100
AcDbSpline
62
7
6
CONTINUOUS
70
0
71
3
72
13
73
9
74
7
42
0.0000001000
43
0.0000001000
44
0.0000000001
12
0.0000000000
22
-0.2196500159
32
0.0000000000
13
-0.1961404309
23
-0.1002301717
33
0.0000000000
40
0.0000000000
40
0.0000000000
40
0.0000000000
40
0.0000000000
40
0.2094012719
40
0.4037602127
40
0.5832359259
40
0.7496749212
40
0.9067994324
40
1.0000000000
40
1.0000000000
40
1.0000000000
40
1.0000000000
10
14.2368218867
20
-25.2825098351
30
0.0000000000
10
14.2368218867
20
-25.2978414993
30
0.0000000000
10
14.2349994106
20
-25.3274539267
30
0.0000000000
10
14.2261561102
20
-25.3694058141
30
0.0000000000
10
14.2114362267
20
-25.4063679662
30
0.0000000000
10
14.1910718350
20
-25.4374045284
30
0.0000000000
10
14.1686639264
20
-25.4585698145
30
0.0000000000
10
14.1529443175
20
-25.4682041044
30
0.0000000000
10
14.1468508510
20
-25.4713179407
30
0.0000000000
11
14.2368218867
21
-25.2825098351
31
0.0000000000
11
14.2337750484
21
-25.3284038012
31
0.0000000000
11
14.2247094998
21
-25.3701210946
31
0.0000000000
11
14.2098483663
21
-25.4066344954
31
0.0000000000
11
14.1895574735
21
-25.4370448721
31
0.0000000000
11
14.1643363524
21
-25.4606033292
31
0.0000000000
11
14.1468508510
21
-25.4713179407
31
0.0000000000
0
SPLINE
5
397
100
AcDbEntity
8
0
100
AcDbSpline
62
7
6
CONTINUOUS
70
0
71
3
72
17
73
13
74
11
42
0.0000001000
43
0.0000001000
44
0.0000000001
12
0.3895861697
22
-0.1947930849
32
0.0000000000
13
0.3893834854
23
0.1951979274
33
0.0000000000
40
0.0000000000
40
0.0000000000
40
0.0000000000
40
0.0000000000
40
0.0890005659
40
0.1849499553
40
0.2864563904
40
0.3918366128
40
0.4992385642
40
0.6067076896
40
0.7122861312
40
0.8141130460
40
0.9104892925
40
1.0000000000
40
1.0000000000
40
1.0000000000
40
1.0000000000
10
8.5417290294
20
16.5601446457
30
0.0000000000
10
8.5532868259
20
16.5543657474
30
0.0000000000
10
8.5781009638
20
16.5439166321
30
0.0000000000
10
8.6179727225
20
16.5318720350
30
0.0000000000
10
8.6611134140
20
16.5230821571
30
0.0000000000
10
8.7064844314
20
16.5177622032
30
0.0000000000
10
8.7529980026
20
16.5160404279
30
0.0000000000
10
8.7995325671
20
16.5179594539
30
0.0000000000
10
8.8449660076
20
16.5234720383
30
0.0000000000
10
8.8882085825
20
16.5324453164
30
0.0000000000
10
8.9282188476
20
16.5446596570
30
0.0000000000
10
8.9531373839
20
16.5552079984
30
0.0000000000
10
8.9647553809
20
16.5610321000
30
0.0000000000
11
8.5417290294
21
16.5601446457
31
0.0000000000
11
8.5773837834
21
16.5449280940
31
0.0000000000
11
8.6173515139
21
16.5327128209
31
0.0000000000
11
8.6606564656
21
16.5237971217
31
0.0000000000
11
8.7062384916
21
16.5183992471
31
0.0000000000
11
8.7529869401
21
16.5166509028
31
0.0000000000
11
8.7997569322
21
16.5185952215
31
0.0000000000
11
8.8454028897
21
16.5241843302
31
0.0000000000
11
8.8888126278
21
16.5332819253
31
0.0000000000
11
8.9289232191
21
16.5456653075
31
0.0000000000
11
8.9647553809
21
16.5610321000
31
0.0000000000
0
SPLINE
5
398
100
AcDbEntity
8
0
100
AcDbSpline
62
7
6
CONTINUOUS
70
0
71
3
72
17
73
13
74
11
42
0.0000001000
43
0.0000001000
44
0.0000000001
12
-0.3889091088
22
-0.1963377245
32
0.0000000000
13
-0.3896652892
23
0.1948326446
33
0.0000000000
40
0.0000000000
40
0.0000000000
40
0.0000000000
40
0.0000000000
40
0.0896005383
40
0.1860363505
40
0.2878952112
40
0.3934811365
40
0.5009374680
40
0.6083108940
40
0.7136525634
40
0.8151165594
40
0.9110269511
40
1.0000000000
40
1.0000000000
40
1.0000000000
40
1.0000000000
10
8.9647553809
20
15.3468286271
30
0.0000000000
10
8.9531398924
20
15.3409646385
30
0.0000000000
10
8.9282256788
20
15.3303360554
30
0.0000000000
10
8.8882139586
20
15.3180066543
30
0.0000000000
10
8.8449699639
20
15.3089244287
30
0.0000000000
10
8.7995352278
20
15.3033115544
30
0.0000000000
10
8.7529995618
20
15.3013032209
30
0.0000000000
10
8.7064850372
20
15.3029487664
30
0.0000000000
10
8.6611131649
20
15.3082073711
30
0.0000000000
10
8.6179715482
20
15.3169522899
30
0.0000000000
10
8.5780987155
20
15.3289694537
30
0.0000000000
10
8.5532855990
20
15.3394114948
30
0.0000000000
10
8.5417290294
20
15.3451897796
30
0.0000000000
11
8.9647553809
21
15.3468286271
31
0.0000000000
11
8.9289227523
21
15.3313439204
31
0.0000000000
11
8.8888116808
21
15.3188457084
31
0.0000000000
11
8.8454014850
21
15.3096391569
31
0.0000000000
11
8.7997552381
21
15.3039496303
31
0.0000000000
11
8.7529851148
21
15.3019158406
31
0.0000000000
11
8.7062368013
21
15.3035878160
31
0.0000000000
11
8.6606550673
21
15.3089242555
31
0.0000000000
11
8.6173505736
21
15.3177949111
31
0.0000000000
11
8.5773833213
21
15.3299826314
31
0.0000000000
11
8.5417290294
21
15.3451897796
31
0.0000000000
0
SPLINE
5
399
100
AcDbEntity
8
0
100
AcDbSpline
62
7
6
CONTINUOUS
70
0
71
3
72
13
73
9
74
7
42
0.0000001000
43
0.0000001000
44
0.0000000001
12
-0.1298016753
22
0.0649008377
32
0.0000000000
13
0.0000186465
23
0.1456076944
33
0.0000000000
40
0.0000000000
40
0.0000000000
40
0.0000000000
40
0.0000000000
40
0.2433506852
40
0.4617848989
40
0.6565755890
40
0.8322279170
40
0.9969716939
40
1.0000000000
40
1.0000000000
40
1.0000000000
40
1.0000000000
10
2.7492199613
20
18.2414443136
30
0.0000000000
10
2.7386908524
20
18.2467088680
30
0.0000000000
10
2.7192675165
20
18.2579068697
30
0.0000000000
10
2.6943684148
20
18.2778633359
30
0.0000000000
10
2.6758011044
20
18.2997567501
30
0.0000000000
10
2.6641548773
20
18.3232299113
30
0.0000000000
10
2.6613749975
20
18.3398827643
30
0.0000000000
10
2.6613520096
20
18.3480257210
30
0.0000000000
10
2.6613520285
20
18.3481727025
30
0.0000000000
11
2.7492199613
21
18.2414443136
31
0.0000000000
11
2.7187502512
21
18.2592991664
31
0.0000000000
11
2.6942099247
21
18.2793652355
31
0.0000000000
11
2.6761982788
21
18.3011526497
31
0.0000000000
11
2.6651562333
21
18.3241281001
31
0.0000000000
11
2.6613532745
21
18.3477317608
31
0.0000000000
11
2.6613520285
21
18.3481727025
31
0.0000000000
0
SPLINE
5
39A
100
AcDbEntity
8
0
100
AcDbSpline
62
7
6
CONTINUOUS
70
0
71
3
72
12
73
8
74
6
42
0.0000001000
43
0.0000001000
44
0.0000000001
12
0.1274265362
22
0.0635456794
32
0.0000000000
13
0.0000255395
23
0.1428803290
33
0.0000000000
40
0.0000000000
40
0.0000000000
40
0.0000000000
40
0.0000000000
40
0.2461437340
40
0.4664340245
40
0.6622044411
40
0.8381796843
40
1.0000000000
40
1.0000000000
40
1.0000000000
40
1.0000000000
10
14.8781238089
20
19.5112443834
30
0.0000000000
10
14.8885788900
20
19.5164581737
30
0.0000000000
10
14.9078443840
20
19.5275276641
30
0.0000000000
10
14.9325154594
20
19.5472389026
30
0.0000000000
10
14.9508427315
20
19.5688309647
30
0.0000000000
10
14.9621744192
20
19.5918347359
30
0.0000000000
10
14.9647598075
20
19.6079262249
30
0.0000000000
10
14.9647611851
20
19.6156332049
30
0.0000000000
11
14.8781238089
21
19.5112443834
31
0.0000000000
11
14.9083864448
21
19.5289249898
31
0.0000000000
11
14.9326942053
21
19.5487507836
31
0.0000000000
11
14.9504535440
21
19.5702377269
31
0.0000000000
11
14.9612297335
21
19.5928596917
31
0.0000000000
11
14.9647611851
21
19.6156332049
31
0.0000000000
0
SPLINE
5
39B
100
AcDbEntity
8
0
100
AcDbSpline
62
7
6
CONTINUOUS
70
0
71
3
72
12
73
8
74
6
42
0.0000001000
43
0.0000001000
44
0.0000000001
12
0.1289494975
22
0.0635559375
32
0.0000000000
13
0.0000024649
23
0.1442557351
33
0.0000000000
40
0.0000000000
40
0.0000000000
40
0.0000000000
40
0.0000000000
40
0.2456022684
40
0.4654114574
40
0.6606705777
40
0.8360059861
40
1.0000000000
40
1.0000000000
40
1.0000000000
40
1.0000000000
10
9.3224297575
20
22.2878660755
30
0.0000000000
10
9.3329865205
20
22.2930692364
30
0.0000000000
10
9.3524480027
20
22.3041260018
30
0.0000000000
10
9.3774053822
20
22.3238444022
30
0.0000000000
10
9.3959901510
20
22.3454690150
30
0.0000000000
10
9.4076089102
20
22.3686599589
30
0.0000000000
10
9.4102975884
20
22.3849775998
30
0.0000000000
10
9.4102977231
20
22.3928632921
30
0.0000000000
11
9.3224297575
21
22.2878660755
31
0.0000000000
11
9.3530029692
21
22.3055279520
31
0.0000000000
11
9.3775996897
21
22.3253664425
31
0.0000000000
11
9.3956148603
21
22.3468936072
31
0.0000000000
11
9.4066042015
21
22.3695784014
31
0.0000000000
11
9.4102977231
21
22.3928632921
31
0.0000000000
0
SPLINE
5
39C
100
AcDbEntity
8
0
100
AcDbSpline
62
7
6
CONTINUOUS
70
0
71
3
72
13
73
9
74
7
42
0.0000001000
43
0.0000001000
44
0.0000000001
12
0.1998406808
22
0.0978572385
32
0.0000000000
13
-0.0000000000
23
0.2218990679
33
0.0000000000
40
0.0000000000
40
0.0000000000
40
0.0000000000
40
0.0000000000
40
0.1023705749
40
0.2579078719
40
0.4226584216
40
0.6003200547
40
0.7927129486
40
1.0000000000
40
1.0000000000
40
1.0000000000
40
1.0000000000
10
12.3770669264
20
-26.3373162866
30
0.0000000000
10
12.3838861948
20
-26.3339770527
30
0.0000000000
10
12.4003442105
20
-26.3240806642
30
0.0000000000
10
12.4233023657
20
-26.3023968843
30
0.0000000000
10
12.4436677865
20
-26.2713602093
30
0.0000000000
10
12.4583884309
20
-26.2343977433
30
0.0000000000
10
12.4672323315
20
-26.1924446812
30
0.0000000000
10
12.4690549338
20
-26.1628313564
30
0.0000000000
10
12.4690549338
20
-26.1474990885
30
0.0000000000
11
12.3770669264
21
-26.3373162866
31
0.0000000000
11
12.3965656337
21
-26.3255953121
31
0.0000000000
11
12.4217882901
21
-26.3020367703
31
0.0000000000
11
12.4420796494
21
-26.2716271070
31
0.0000000000
11
12.4569417634
21
-26.2351129095
31
0.0000000000
11
12.4660078468
21
-26.1933948530
31
0.0000000000
11
12.4690549338
21
-26.1474990885
31
0.0000000000
0
SPLINE
5
39D
100
AcDbEntity
8
0
100
AcDbSpline
62
7
6
CONTINUOUS
70
0
71
3
72
11
73
7
74
5
42
0.0000001000
43
0.0000001000
44
0.0000000001
12
-0.4351467956
22
0.0874129533
32
0.0000000000
13
-0.4398144642
23
-0.0596405499
33
0.0000000000
40
0.0000000000
40
0.0000000000
40
0.0000000000
40
0.0000000000
40
0.2406426210
40
0.4887663275
40
0.7423989614
40
1.0000000000
40
1.0000000000
40
1.0000000000
40
1.0000000000
10
18.9720707932
20
18.0563810815
30
0.0000000000
10
18.9371658381
20
18.0633928422
30
0.0000000000
10
18.8655506566
20
18.0742118519
30
0.0000000000
10
18.7558271195
20
18.0813074505
30
0.0000000000
10
18.6433826148
20
18.0795058011
30
0.0000000000
10
18.5679954796
20
18.0723205177
30
0.0000000000
10
18.5302299253
20
18.0671993618
30
0.0000000000
11
18.9720707932
21
18.0563810815
31
0.0000000000
11
18.8664959083
21
18.0725560563
31
0.0000000000
11
18.7566066434
21
18.0797909583
31
0.0000000000
11
18.6440479257
21
18.0780452235
31
0.0000000000
11
18.5302299253
21
18.0671993618
31
0.0000000000
0
SPLINE
5
39E
100
AcDbEntity
8
0
100
AcDbSpline
62
7
6
CONTINUOUS
70
0
71
3
72
9
73
5
74
3
42
0.0000001000
43
0.0000001000
44
0.0000000001
12
-0.0241207860
22
0.0049542359
32
0.0000000000
13
-0.0220849478
23
0.0110448753
33
0.0000000000
40
0.0000000000
40
0.0000000000
40
0.0000000000
40
0.0000000000
40
0.9288596728
40
1.0000000000
40
1.0000000000
40
1.0000000000
40
1.0000000000
10
13.9711426154
20
-26.0527353099
30
0.0000000000
10
13.9636743403
20
-26.0512013799
30
0.0000000000
10
13.9557904711
20
-26.0485920893
30
0.0000000000
10
13.9483931823
20
-26.0449807097
30
0.0000000000
10
13.9478694721
20
-26.0447187977
30
0.0000000000
11
13.9711426154
21
-26.0527353099
31
0.0000000000
11
13.9494481359
21
-26.0454894676
31
0.0000000000
11
13.9478694721
21
-26.0447187977
31
0.0000000000
0
SPLINE
5
39F
100
AcDbEntity
8
0
100
AcDbSpline
62
7
6
CONTINUOUS
70
0
71
3
72
17
73
13
74
11
42
0.0000001000
43
0.0000001000
44
0.0000000001
12
-0.3281832376
22
-0.1645182454
32
0.0000000000
13
0.0000000000
23
-0.3671110057
33
0.0000000000
40
0.0000000000
40
0.0000000000
40
0.0000000000
40
0.0000000000
40
0.0877988990
40
0.1818695997
40
0.2805570128
40
0.3837432653
40
0.4891441471
40
0.5955191608
40
0.7015876633
40
0.8048773159
40
0.9050482431
40
1.0000000000
40
1.0000000000
40
1.0000000000
40
1.0000000000
10
12.2819877053
20
14.4050158610
30
0.0000000000
10
12.2723829963
20
14.4002010207
30
0.0000000000
10
12.2532525504
20
14.3886556460
30
0.0000000000
10
12.2263701718
20
14.3671724915
30
0.0000000000
10
12.2008364900
20
14.3413850755
30
0.0000000000
10
12.1773159671
20
14.3119642139
30
0.0000000000
10
12.1563293128
20
14.2795640713
30
0.0000000000
10
12.1383916671
20
14.2449855243
30
0.0000000000
10
12.1239496808
20
14.2090844099
30
0.0000000000
10
12.1133235389
20
14.1726601519
30
0.0000000000
10
12.1067889400
20
14.1366646314
30
0.0000000000
10
12.1052169759
20
14.1127695611
30
0.0000000000
10
12.1052169759
20
14.1011502828
30
0.0000000000
11
12.2819877053
21
14.4050158610
31
0.0000000000
11
12.2543094122
21
14.3884988945
31
0.0000000000
11
12.2272504700
21
14.3670410822
31
0.0000000000
11
12.2016942046
21
14.3413616196
31
0.0000000000
11
12.1779915162
21
14.3118127068
31
0.0000000000
11
12.1569291360
21
14.2793536844
31
0.0000000000
11
12.1389439872
21
14.2446903139
31
0.0000000000
11
12.1244357841
21
14.2085551355
31
0.0000000000
11
12.1138683705
21
14.1721386179
31
0.0000000000
11
12.1073864576
21
14.1359405401
31
0.0000000000
11
12.1052169759
21
14.1011502828
31
0.0000000000
0
SPLINE
5
3A0
100
AcDbEntity
8
0
100
AcDbSpline
62
7
6
CONTINUOUS
70
0
71
3
72
13
73
9
74
7
42
0.0000001000
43
0.0000001000
44
0.0000000001
12
0.0000000000
22
-0.1580771600
32
0.0000000000
13
0.1417682681
23
-0.0708992473
33
0.0000000000
40
0.0000000000
40
0.0000000000
40
0.0000000000
40
0.0000000000
40
0.1982397194
40
0.3834113548
40
0.5546239440
40
0.7146143823
40
0.8649759067
40
1.0000000000
40
1.0000000000
40
1.0000000000
40
1.0000000000
10
12.1052169759
20
13.7611763486
30
0.0000000000
10
12.1052169759
20
13.7507306247
30
0.0000000000
10
12.1064127132
20
13.7304967768
30
0.0000000000
10
12.1121885444
20
13.7017411534
30
0.0000000000
10
12.1218086472
20
13.6761428948
30
0.0000000000
10
12.1351071705
20
13.6543291271
30
0.0000000000
10
12.1514836490
20
13.6372331240
30
0.0000000000
10
12.1641933205
20
13.6289571512
30
0.0000000000
10
12.1705740312
20
13.6257661157
30
0.0000000000
11
12.1052169759
21
13.7611763486
31
0.0000000000
11
12.1072012216
21
13.7299020603
31
0.0000000000
11
12.1131244052
21
13.7012362075
31
0.0000000000
11
12.1228129656
21
13.6759649751
31
0.0000000000
11
12.1361281334
21
13.6544630543
31
0.0000000000
11
12.1526627651
21
13.6373879808
31
0.0000000000
11
12.1705740312
21
13.6257661157
31
0.0000000000
0
SPLINE
5
3A1
100
AcDbEntity
8
0
100
AcDbSpline
62
7
6
CONTINUOUS
70
0
71
3
72
17
73
13
74
11
42
0.0000001000
43
0.0000001000
44
0.0000000001
12
-0.3281832376
22
-0.1645182454
32
0.0000000000
13
0.0000000000
23
-0.3671110057
33
0.0000000000
40
0.0000000000
40
0.0000000000
40
0.0000000000
40
0.0000000000
40
0.0877988990
40
0.1818695997
40
0.2805570128
40
0.3837432653
40
0.4891441471
40
0.5955191608
40
0.7015876633
40
0.8048773159
40
0.9050482431
40
1.0000000000
40
1.0000000000
40
1.0000000000
40
1.0000000000
10
-1.0823304591
20
21.0871749432
30
0.0000000000
10
-1.0919351681
20
21.0823601029
30
0.0000000000
10
-1.1110656140
20
21.0708147282
30
0.0000000000
10
-1.1379479926
20
21.0493315737
30
0.0000000000
10
-1.1634816744
20
21.0235441577
30
0.0000000000
10
-1.1870021973
20
20.9941232962
30
0.0000000000
10
-1.2079888516
20
20.9617231536
30
0.0000000000
10
-1.2259264973
20
20.9271446066
30
0.0000000000
10
-1.2403684836
20
20.8912434921
30
0.0000000000
10
-1.2509946256
20
20.8548192341
30
0.0000000000
10
-1.2575292245
20
20.8188237137
30
0.0000000000
10
-1.2591011885
20
20.7949286433
30
0.0000000000
10
-1.2591011885
20
20.7833093650
30
0.0000000000
11
-1.0823304591
21
21.0871749432
31
0.0000000000
11
-1.1100087523
21
21.0706579768
31
0.0000000000
11
-1.1370676944
21
21.0492001644
31
0.0000000000
11
-1.1626239598
21
21.0235207018
31
0.0000000000
11
-1.1863266483
21
20.9939717890
31
0.0000000000
11
-1.2073890284
21
20.9615127666
31
0.0000000000
11
-1.2253741772
21
20.9268493961
31
0.0000000000
11
-1.2398823803
21
20.8907142178
31
0.0000000000
11
-1.2504497939
21
20.8542977001
31
0.0000000000
11
-1.2569317069
21
20.8180996224
31
0.0000000000
11
-1.2591011885
21
20.7833093650
31
0.0000000000
0
SPLINE
5
3A2
100
AcDbEntity
8
0
100
AcDbSpline
62
7
6
CONTINUOUS
70
0
71
3
72
13
73
9
74
7
42
0.0000001000
43
0.0000001000
44
0.0000000001
12
0.0000000000
22
-0.1580771600
32
0.0000000000
13
0.1417682681
23
-0.0708992473
33
0.0000000000
40
0.0000000000
40
0.0000000000
40
0.0000000000
40
0.0000000000
40
0.1982397194
40
0.3834113548
40
0.5546239440
40
0.7146143823
40
0.8649759067
40
1.0000000000
40
1.0000000000
40
1.0000000000
40
1.0000000000
10
-1.2591011885
20
20.4433354308
30
0.0000000000
10
-1.2591011885
20
20.4328897069
30
0.0000000000
10
-1.2579054512
20
20.4126558590
30
0.0000000000
10
-1.2521296201
20
20.3839002356
30
0.0000000000
10
-1.2425095172
20
20.3583019771
30
0.0000000000
10
-1.2292109940
20
20.3364882093
30
0.0000000000
10
-1.2128345154
20
20.3193922062
30
0.0000000000
10
-1.2001248439
20
20.3111162334
30
0.0000000000
10
-1.1937441333
20
20.3079251979
30
0.0000000000
11
-1.2591011885
21
20.4433354308
31
0.0000000000
11
-1.2571169428
21
20.4120611425
31
0.0000000000
11
-1.2511937592
21
20.3833952897
31
0.0000000000
11
-1.2415051988
21
20.3581240573
31
0.0000000000
11
-1.2281900310
21
20.3366221365
31
0.0000000000
11
-1.2116553993
21
20.3195470630
31
0.0000000000
11
-1.1937441333
21
20.3079251979
31
0.0000000000
0
SPLINE
5
3A3
100
AcDbEntity
8
0
100
AcDbSpline
62
7
6
CONTINUOUS
70
0
71
3
72
13
73
9
74
7
42
0.0000001000
43
0.0000001000
44
0.0000000001
12
0.0000000000
22
-0.1580496594
32
0.0000000000
13
0.1417254613
23
-0.0709202235
33
0.0000000000
40
0.0000000000
40
0.0000000000
40
0.0000000000
40
0.0000000000
40
0.2070101272
40
0.3999125266
40
0.5773183208
40
0.7429756756
40
0.8990662596
40
1.0000000000
40
1.0000000000
40
1.0000000000
40
1.0000000000
10
12.1052169759
20
-27.8784017249
30
0.0000000000
10
12.1052169759
20
-27.8893076849
30
0.0000000000
10
12.1065183349
20
-27.9104121296
30
0.0000000000
10
12.1128267734
20
-27.9402913151
30
0.0000000000
10
12.1233356969
20
-27.9666723549
30
0.0000000000
10
12.1378549711
20
-27.9888445622
30
0.0000000000
10
12.1541676524
20
-28.0043263156
30
0.0000000000
10
12.1658028462
20
-28.0114211792
30
0.0000000000
10
12.1705711399
20
-28.0138072604
30
0.0000000000
11
12.1052169759
21
-27.8784017249
31
0.0000000000
11
12.1073864576
21
-27.9110475979
31
0.0000000000
11
12.1138683705
21
-27.9408387479
31
0.0000000000
11
12.1244357841
21
-27.9668100995
31
0.0000000000
11
12.1389439872
21
-27.9886049109
31
0.0000000000
11
12.1569291360
21
-28.0054911912
31
0.0000000000
11
12.1705711399
21
-28.0138072604
31
0.0000000000
0
SPLINE
5
3A4
100
AcDbEntity
8
0
100
AcDbSpline
62
7
6
CONTINUOUS
70
0
71
3
72
14
73
10
74
8
42
0.0000001000
43
0.0000001000
44
0.0000000001
12
-0.1618915143
22
-0.1938217939
32
0.0000000000
13
0.0000000000
23
-0.2525386112
33
0.0000000000
40
0.0000000000
40
0.0000000000
40
0.0000000000
40
0.0000000000
40
0.1442287221
40
0.2915661604
40
0.4392076970
40
0.5862445358
40
0.7294680978
40
0.8681597286
40
1.0000000000
40
1.0000000000
40
1.0000000000
40
1.0000000000
10
12.1941195519
20
-27.3069907311
30
0.0000000000
10
12.1863364165
20
-27.3163089543
30
0.0000000000
10
12.1715435835
20
-27.3359510562
30
0.0000000000
10
12.1521515663
20
-27.3674884562
30
0.0000000000
10
12.1356253032
20
-27.4008845138
30
0.0000000000
10
12.1223633515
20
-27.4353356247
30
0.0000000000
10
12.1126268391
20
-27.4701673600
30
0.0000000000
10
12.1066495369
20
-27.5045403509
30
0.0000000000
10
12.1052169759
20
-27.5273295377
30
0.0000000000
10
12.1052169759
20
-27.5384277908
30
0.0000000000
11
12.1941195519
21
-27.3069907311
31
0.0000000000
11
12.1721710093
21
-27.3360582353
31
0.0000000000
11
12.1526627651
21
-27.3677425035
31
0.0000000000
11
12.1361281334
21
-27.4011609302
31
0.0000000000
11
12.1228129656
21
-27.4358239842
31
0.0000000000
11
12.1131244052
21
-27.4706716963
31
0.0000000000
11
12.1072012216
21
-27.5051922112
31
0.0000000000
11
12.1052169759
21
-27.5384277908
31
0.0000000000
0
SPLINE
5
3A5
100
AcDbEntity
8
0
100
AcDbSpline
62
7
6
CONTINUOUS
70
0
71
3
72
15
73
11
74
9
42
0.0000001000
43
0.0000001000
44
0.0000000001
12
0.0627631636
22
-0.5850015930
32
0.0000000000
13
-0.5352556215
23
-0.2471302028
33
0.0000000000
40
0.0000000000
40
0.0000000000
40
0.0000000000
40
0.0000000000
40
0.1659352099
40
0.3204718358
40
0.4633438016
40
0.5955774700
40
0.7183321631
40
0.8346015069
40
0.9472409223
40
1.0000000000
40
1.0000000000
40
1.0000000000
40
1.0000000000
10
11.2766027158
20
-20.9359596467
30
0.0000000000
10
11.2800742554
20
-20.9683171007
30
0.0000000000
10
11.2838532433
20
-21.0311848243
30
0.0000000000
10
11.2792465491
20
-21.1221455391
30
0.0000000000
10
11.2642106447
20
-21.2053285557
30
0.0000000000
10
11.2388993806
20
-21.2794983332
30
0.0000000000
10
11.2035335926
20
-21.3436308455
30
0.0000000000
10
11.1585526083
20
-21.3965861308
30
0.0000000000
10
11.1141292427
20
-21.4301879077
30
0.0000000000
10
11.0853117295
20
-21.4453067081
30
0.0000000000
10
11.0758985318
20
-21.4496528286
30
0.0000000000
11
11.2766027158
21
-20.9359596467
31
0.0000000000
11
11.2821202800
21
-21.0334330495
31
0.0000000000
11
11.2771187640
21
-21.1242183668
31
0.0000000000
11
11.2617146268
21
-21.2068548753
31
0.0000000000
11
11.2361265758
21
-21.2803274740
31
0.0000000000
11
11.2008574728
21
-21.3433542004
31
0.0000000000
11
11.1563280527
21
-21.3952849018
31
0.0000000000
11
11.1034183029
21
-21.4351921472
31
0.0000000000
11
11.0758985318
21
-21.4496528286
31
0.0000000000
0
ENDSEC
0
SECTION
2
OBJECTS
0
DICTIONARY
5
3A6
100
AcDbDictionary
3
ACAD_GROUP
350
3A7
3
ACAD_MLINESTYLE
350
3A8
0
DICTIONARY
5
3A7
102
{ACAD_REACTORS
330
3A6
102
}
100
AcDbDictionary
0
DICTIONARY
5
3A8
102
{ACAD_REACTORS
330
3A6
102
}
100
AcDbDictionary
3
STANDARD
350
3A9
0
MLINESTYLE
5
3A9
102
{ACAD_REACTORS
330
3A8
102
}
100
AcDbMlineStyle
2
STANDARD
70
0
3

62
256
51
90.0
52
90.0
71
2
49
0.5
62
256
6
BYLAYER
49
-0.5
62
256
6
BYLAYER
0
ENDSEC
0
EOF
