0
SECTION
2
HEADER
9
$ACADVER
1
AC1014
9
$HANDSEED
5
       3B4
9
$EXTMAX
10
297.0000000000
20
210.0000000000
9
$EXTMIN
10
0.0000000000
20
0.0000000000
9
$LIMMIN
10
0.0000000000
20
0.0000000000
9
$LIMMAX
10
297.0000000000
20
210.0000000000
9
$VIEWCTR
10
148.5000000000
20
105.0000000000
9
$VIEWSIZE
40
210.0000000000
9
$CLAYER
8
0
9
$LTSCALE
40
16.3350000000
9
$CELTYPE
6
BYLAYER
9
$DIMSCALE
40
1
9
$DIMASZ
40
3.0000000000
9
$DIMEXO
40
1.8562500000
9
$DIMDLI
40
11.2860000000
9
$DIMEXE
40
5.3460000000
9
$DIMCEN
40
2.6730000000
9
$DIMLFAC
40
1.0000000000
9
$DIMTXT
40
3.0000000000
9
$DIMTOL
70
1
9
$DIMLIM
70
0
9
$DIMTFAC
40
1.0000000000
9
$DIMTP
40
0.0100000000
9
$DIMTM
40
0.0100000000
9
$MEASUREMENT
70
1
0
ENDSEC
0
SECTION
2
CLASSES
0
ENDSEC
0
SECTION
2
TABLES
0
TABLE
2
VPORT
5
8
100
AcDbSymbolTable
70
2
0
VPORT
5
1F4
100
AcDbSymbolTableRecord
100
AcDbViewportTableRecord
2
*ACTIVE
70
0
10
0.0
20
0.0
11
1.0
21
1.0
12
148.5000000000
22
105.0000000000
13
0.0
23
0.0
14
1.0
24
1.0
15
0.0
25
0.0
16
0.0
26
0.0
36
1.0
17
0.0
27
0.0
37
0.0
40
210.0000000000
41
1.4142857143
42
50.0
43
0.0
44
0.0
50
0.0
51
0.0
71
0
72
100
73
1
74
1
75
0
76
0
77
0
78
0
0
ENDTAB
0
TABLE
2
LTYPE
5
5
100
AcDbSymbolTable
70
6
0
LTYPE
5
14
100
AcDbSymbolTableRecord
100
AcDbLinetypeTableRecord
2
BYBLOCK
70
0
3

72
65
73
0
40
0.0
0
LTYPE
5
15
100
AcDbSymbolTableRecord
100
AcDbLinetypeTableRecord
2
BYLAYER
70
0
3

72
65
73
0
40
0.0
0
LTYPE
5
16
100
AcDbSymbolTableRecord
100
AcDbLinetypeTableRecord
2
CONTINUOUS
70
64
3
Solid line
72
65
73
0
40
0
0
LTYPE
5
1F5
100
AcDbSymbolTableRecord
100
AcDbLinetypeTableRecord
2
CENTER
70
64
3
____ _ ____ _ ____ _ ____ _ ____ _ ____ _ ____
72
65
73
4
40
0.6
49
0.375
74
0
49
-0.075
74
0
49
0.075
74
0
49
-0.075
74
0
0
LTYPE
5
1F6
100
AcDbSymbolTableRecord
100
AcDbLinetypeTableRecord
2
HIDDEN
70
64
3
- - - - - - - - - - - - - - - - - - - -
72
65
73
2
40
0.2
49
0.1
74
0
49
-0.1
74
0
0
LTYPE
5
1F7
100
AcDbSymbolTableRecord
100
AcDbLinetypeTableRecord
2
PHANTOM
70
64
3
_____ _ _ _____ _ _ _____ _ _ _____
72
65
73
6
40
0.8
49
0.45
74
0
49
-0.05
74
0
49
0.1
74
0
49
-0.05
74
0
49
0.1
74
0
49
-0.05
74
0
0
LTYPE
5
1F8
100
AcDbSymbolTableRecord
100
AcDbLinetypeTableRecord
2
DOT
70
64
3
. . . . . . . . . . . . . . . . . . . .
72
65
73
2
40
0.2
49
0.1
74
0
49
-0.1
74
0
0
LTYPE
5
1F9
100
AcDbSymbolTableRecord
100
AcDbLinetypeTableRecord
2
DASHED
70
64
3
- - - - - - - - - - - - - - - - - - - -
72
65
73
2
40
0.2
49
0.1
74
0
49
-0.1
74
0
0
ENDTAB
0
TABLE
2
LAYER
5
2
100
AcDbSymbolTable
70
36
0
LAYER
5
10
100
AcDbSymbolTableRecord
100
AcDbLayerTableRecord
2
0
70
0
62
7
6
CONTINUOUS
0
LAYER
5
1FA
100
AcDbSymbolTableRecord
100
AcDbLayerTableRecord
2
DEFAULT_1
70
0
62
7
6
CENTER
0
LAYER
5
1FB
100
AcDbSymbolTableRecord
100
AcDbLayerTableRecord
2
DEFAULT_2
70
0
62
8
6
HIDDEN
0
LAYER
5
1FC
100
AcDbSymbolTableRecord
100
AcDbLayerTableRecord
2
DEFAULT_3
70
0
62
7
6
PHANTOM
0
LAYER
5
1FD
100
AcDbSymbolTableRecord
100
AcDbLayerTableRecord
2
ASSI
70
0
62
7
6
CONTINUOUS
0
LAYER
5
1FE
100
AcDbSymbolTableRecord
100
AcDbLayerTableRecord
2
COLOR5
70
0
62
7
6
CONTINUOUS
0
LAYER
5
1FF
100
AcDbSymbolTableRecord
100
AcDbLayerTableRecord
2
COORDINATE
70
0
62
7
6
CONTINUOUS
0
LAYER
5
200
100
AcDbSymbolTableRecord
100
AcDbLayerTableRecord
2
COORD_ORIGINE
70
0
62
7
6
CONTINUOUS
0
LAYER
5
201
100
AcDbSymbolTableRecord
100
AcDbLayerTableRecord
2
CURVE
70
0
62
7
6
CONTINUOUS
0
LAYER
5
202
100
AcDbSymbolTableRecord
100
AcDbLayerTableRecord
2
DRAFT
70
0
62
7
6
CONTINUOUS
0
LAYER
5
203
100
AcDbSymbolTableRecord
100
AcDbLayerTableRecord
2
IGES_SCRITTE
70
0
62
7
6
CONTINUOUS
0
LAYER
5
204
100
AcDbSymbolTableRecord
100
AcDbLayerTableRecord
2
NOTE
70
0
62
7
6
CONTINUOUS
0
LAYER
5
205
100
AcDbSymbolTableRecord
100
AcDbLayerTableRecord
2
PIANI
70
0
62
7
6
CONTINUOUS
0
LAYER
5
206
100
AcDbSymbolTableRecord
100
AcDbLayerTableRecord
2
PIANI_DI_RIFERIMENTO
70
0
62
7
6
CONTINUOUS
0
LAYER
5
207
100
AcDbSymbolTableRecord
100
AcDbLayerTableRecord
2
PIANI_ORIGINE
70
0
62
7
6
CONTINUOUS
0
LAYER
5
208
100
AcDbSymbolTableRecord
100
AcDbLayerTableRecord
2
PIANI_RIFERIMENTO
70
0
62
7
6
CONTINUOUS
0
LAYER
5
209
100
AcDbSymbolTableRecord
100
AcDbLayerTableRecord
2
PUNTI
70
0
62
7
6
CONTINUOUS
0
LAYER
5
20A
100
AcDbSymbolTableRecord
100
AcDbLayerTableRecord
2
RACCORDO
70
0
62
7
6
CONTINUOUS
0
LAYER
5
20B
100
AcDbSymbolTableRecord
100
AcDbLayerTableRecord
2
SCRITTE
70
0
62
7
6
CONTINUOUS
0
LAYER
5
20C
100
AcDbSymbolTableRecord
100
AcDbLayerTableRecord
2
SMUSSO
70
0
62
7
6
CONTINUOUS
0
LAYER
5
20D
100
AcDbSymbolTableRecord
100
AcDbLayerTableRecord
2
SUPERFICI
70
0
62
7
6
CONTINUOUS
0
LAYER
5
20E
100
AcDbSymbolTableRecord
100
AcDbLayerTableRecord
2
TRASH
70
0
62
7
6
CONTINUOUS
0
ENDTAB
0
TABLE
2
STYLE
5
3
100
AcDbSymbolTable
70
1
0
STYLE
5
11
100
AcDbSymbolTableRecord
100
AcDbTextStyleTableRecord
2
STANDARD
70
0
40
0.0
41
0.8000000000
50
0.0
71
0
42
0.2
3
txt
4

0
ENDTAB
0
TABLE
2
VIEW
5
6
100
AcDbSymbolTable
70
0
0
ENDTAB
0
TABLE
2
UCS
5
7
100
AcDbSymbolTable
70
0
0
ENDTAB
0
TABLE
2
APPID
5
9
100
AcDbSymbolTable
70
1
0
APPID
5
20F
100
AcDbSymbolTableRecord
100
AcDbRegAppTableRecord
2
ACAD
70
0
0
ENDTAB
0
TABLE
2
DIMSTYLE
5
A
100
AcDbSymbolTable
70
1
0
DIMSTYLE
105
210
100
AcDbSymbolTableRecord
100
AcDbDimStyleTableRecord
2
STANDARD
70
0
3

4

5

6

7

40
1.0
41
3.0000000000
42
0.0625
43
0.38
44
0.18
45
0.0
46
0.0
47
0.0100000000
48
0.0100000000
140
3.0000000000
141
0.09
142
0.0
143
25.4
144
1.0000000000
145
0.0
146
1.0000000000
147
0.09
71
1
72
0
73
0
74
0
75
0
76
0
77
1
78
8
170
0
171
2
172
0
173
0
174
0
175
0
176
0
177
0
178
0
270
2
271
2
272
2
273
2
274
2
340
11
275
0
280
0
281
0
282
0
283
1
284
8
285
0
286
0
287
3
288
0
0
ENDTAB
0
TABLE
2
BLOCK_RECORD
5
1
100
AcDbSymbolTable
70
0
0
BLOCK_RECORD
5
1B
100
AcDbSymbolTableRecord
100
AcDbBlockTableRecord
2
*MODEL_SPACE
0
BLOCK_RECORD
5
1C
100
AcDbSymbolTableRecord
100
AcDbBlockTableRecord
2
*PAPER_SPACE
0
ENDTAB
0
ENDSEC
0
SECTION
2
BLOCKS
0
BLOCK
5
1E
100
AcDbEntity
8
0
100
AcDbBlockBegin
2
*MODEL_SPACE
70
0
10
0.0
20
0.0
30
0.0
3
*MODEL_SPACE
1

0
ENDBLK
5
1F
100
AcDbEntity
8
0
100
AcDbBlockEnd
0
BLOCK
5
20
100
AcDbEntity
8
0
100
AcDbBlockBegin
2
*PAPER_SPACE
70
0
10
0.0
20
0.0
30
0.0
3
*PAPER_SPACE
1

0
ENDBLK
5
21
100
AcDbEntity
8
0
100
AcDbBlockEnd
0
ENDSEC
0
SECTION
2
ENTITIES
0
LINE
5
211
100
AcDbEntity
8
0
100
AcDbLine
62
7
6
CONTINUOUS
10
-7.2898909241
20
21.7380123526
11
-8.8730626190
21
20.9258153054
0
LINE
5
212
100
AcDbEntity
8
0
100
AcDbLine
62
9
6
CONTINUOUS
10
-7.1772203497
20
21.7313514276
11
-8.7599769529
21
20.9193673302
0
LINE
5
213
100
AcDbEntity
8
0
100
AcDbLine
62
7
6
CONTINUOUS
10
-7.2881525385
20
21.7388815854
11
-7.2898889504
21
21.7380133652
0
LINE
5
214
100
AcDbEntity
8
0
100
AcDbLine
62
7
6
CONTINUOUS
10
-6.7532825821
20
21.9994336852
11
-7.2881497730
21
21.7388829326
0
LINE
5
215
100
AcDbEntity
8
0
100
AcDbLine
62
9
6
CONTINUOUS
10
-6.6427704710
20
21.9916988941
11
-7.1772203497
21
21.7313514276
0
LINE
5
216
100
AcDbEntity
8
0
100
AcDbLine
62
7
6
CONTINUOUS
10
-12.8949303861
20
16.9019690411
11
-8.3059555593
21
19.5777616830
0
LINE
5
217
100
AcDbEntity
8
0
100
AcDbLine
62
9
6
CONTINUOUS
10
-8.3059555593
20
19.4329275065
11
-12.6615763385
21
16.8932016480
0
LINE
5
218
100
AcDbEntity
8
0
100
AcDbLine
62
9
6
CONTINUOUS
10
-5.8337114822
20
21.0595969938
11
-7.4349922731
21
20.2568749903
0
LINE
5
219
100
AcDbEntity
8
0
100
AcDbLine
62
9
6
CONTINUOUS
10
-5.6569377786
20
20.7547074550
11
-7.2582185694
21
19.9519854515
0
LINE
5
21A
100
AcDbEntity
8
0
100
AcDbLine
62
9
6
CONTINUOUS
10
-5.3054443105
20
21.3230358138
11
-5.8337114822
21
21.0595969938
0
LINE
5
21B
100
AcDbEntity
8
0
100
AcDbLine
62
9
6
CONTINUOUS
10
-5.1286706068
20
21.0181462750
11
-5.6569377786
21
20.7547074550
0
LINE
5
21C
100
AcDbEntity
8
0
100
AcDbLine
62
7
6
CONTINUOUS
10
-5.6569377786
20
19.1525567940
11
-6.5469979613
21
18.6558758727
0
LINE
5
21D
100
AcDbEntity
8
0
100
AcDbLine
62
7
6
CONTINUOUS
10
-3.2881180602
20
18.8224383807
11
-2.9345766710
21
19.0038118055
0
LINE
5
21E
100
AcDbEntity
8
0
100
AcDbLine
62
7
6
CONTINUOUS
10
2.0656452830
20
22.2928608231
11
-4.2488950436
21
19.1480845185
0
LINE
5
21F
100
AcDbEntity
8
0
100
AcDbLine
62
7
6
CONTINUOUS
10
3.0071771696
20
21.3004900537
11
-1.5910737867
21
19.0341287562
0
LINE
5
220
100
AcDbEntity
8
0
100
AcDbLine
62
7
6
CONTINUOUS
10
-2.9345766710
20
19.0038118055
11
2.4016467350
21
21.6032552710
0
LINE
5
221
100
AcDbEntity
8
0
100
AcDbLine
62
9
6
CONTINUOUS
10
-5.6569377786
20
20.0276626025
11
-5.1286706068
21
20.6706147583
0
LINE
5
222
100
AcDbEntity
8
0
100
AcDbLine
62
7
6
CONTINUOUS
10
-5.6569377786
20
19.9381321362
11
-5.1133100344
21
20.5997795917
0
LINE
5
223
100
AcDbEntity
8
0
100
AcDbLine
62
7
6
CONTINUOUS
10
4.4736154756
20
19.8993050372
11
0.5760945634
21
17.9505445811
0
LINE
5
224
100
AcDbEntity
8
0
100
AcDbLine
62
7
6
CONTINUOUS
10
-0.3629929637
20
18.4200883447
11
3.0560532011
21
20.0930680238
0
LINE
5
225
100
AcDbEntity
8
0
100
AcDbLine
62
7
6
CONTINUOUS
10
5.1326112270
20
20.7593778511
11
-0.0094395731
21
18.2433116494
0
LINE
5
226
100
AcDbEntity
8
0
100
AcDbLine
62
9
6
CONTINUOUS
10
8.2356475576
20
-27.3111484633
11
7.7073803859
21
-27.2026461862
0
LINE
5
227
100
AcDbEntity
8
0
100
AcDbLine
62
9
6
CONTINUOUS
10
8.1462337623
20
-26.9915816573
11
7.7073803859
21
-26.9014443306
0
LINE
5
228
100
AcDbEntity
8
0
100
AcDbLine
62
7
6
CONTINUOUS
10
1.5641725200
20
-28.6468650672
11
-13.2697261941
21
-21.2299157101
0
LINE
5
229
100
AcDbEntity
8
0
100
AcDbLine
62
9
6
CONTINUOUS
10
1.1707037290
20
-27.8862654143
11
-13.6541423486
21
-20.4738423755
0
LINE
5
22A
100
AcDbEntity
8
0
100
AcDbLine
62
7
6
CONTINUOUS
10
4.4935662520
20
-28.1819390247
11
5.8185509318
21
-28.8444313646
0
LINE
5
22B
100
AcDbEntity
8
0
100
AcDbLine
62
9
6
CONTINUOUS
10
4.4285929556
20
-28.0467205746
11
5.7535776354
21
-28.7092129145
0
LINE
5
22C
100
AcDbEntity
8
0
100
AcDbLine
62
9
6
CONTINUOUS
10
5.7535776354
20
-28.3692389804
11
4.5311742651
21
-27.7580372952
0
LINE
5
22D
100
AcDbEntity
8
0
100
AcDbLine
62
9
6
CONTINUOUS
10
5.8419659830
20
-28.1375448066
11
4.8311313552
21
-27.6321274926
0
LINE
5
22E
100
AcDbEntity
8
0
100
AcDbLine
62
7
6
CONTINUOUS
10
6.4647982435
20
-27.3927425032
11
5.9794952152
21
-27.1500909891
0
LINE
5
22F
100
AcDbEntity
8
0
100
AcDbLine
62
7
6
CONTINUOUS
10
2.9302838542
20
15.7132374235
11
3.2879630035
21
15.8925419683
0
LINE
5
230
100
AcDbEntity
8
0
100
AcDbLine
62
7
6
CONTINUOUS
10
3.2879630035
20
15.8925419683
11
8.5624550726
21
18.5228511022
0
LINE
5
231
100
AcDbEntity
8
0
100
AcDbLine
62
7
6
CONTINUOUS
10
3.2879630035
20
14.6801064030
11
8.6127970737
21
17.3164378349
0
LINE
5
232
100
AcDbEntity
8
0
100
AcDbLine
62
7
6
CONTINUOUS
10
7.9569246379
20
18.8256163195
11
3.3586736816
21
16.5592550220
0
LINE
5
233
100
AcDbEntity
8
0
100
AcDbLine
62
7
6
CONTINUOUS
10
9.3752519141
20
18.6380575075
11
8.7363911375
21
18.3254553824
0
LINE
5
234
100
AcDbEntity
8
0
100
AcDbLine
62
9
6
CONTINUOUS
10
7.7073803859
20
-26.7721549691
11
8.1462337623
21
-26.9915816573
0
LINE
5
235
100
AcDbEntity
8
0
100
AcDbLine
62
7
6
CONTINUOUS
10
7.7073803859
20
-26.7685348196
11
8.1696488135
21
-26.9996690334
0
LINE
5
236
100
AcDbEntity
8
0
100
AcDbLine
62
7
6
CONTINUOUS
10
3.2879630035
20
14.6801064030
11
2.9302838542
21
14.4805104512
0
LINE
5
237
100
AcDbEntity
8
0
100
AcDbLine
62
7
6
CONTINUOUS
10
6.0744272403
20
15.0558532704
11
4.4912555454
21
14.2436562231
0
LINE
5
238
100
AcDbEntity
8
0
100
AcDbLine
62
9
6
CONTINUOUS
10
6.1870978147
20
15.0491923453
11
4.6043412115
21
14.2372082480
0
LINE
5
239
100
AcDbEntity
8
0
100
AcDbLine
62
9
6
CONTINUOUS
10
7.5306066822
20
14.3774379116
11
5.9293258914
21
13.5747159081
0
LINE
5
23A
100
AcDbEntity
8
0
100
AcDbLine
62
7
6
CONTINUOUS
10
6.0761656259
20
15.0567225032
11
6.0744292141
21
15.0558542830
0
LINE
5
23B
100
AcDbEntity
8
0
100
AcDbLine
62
9
6
CONTINUOUS
10
8.0588738539
20
14.6408767316
11
7.5306066822
21
14.3774379116
0
LINE
5
23C
100
AcDbEntity
8
0
100
AcDbLine
62
7
6
CONTINUOUS
10
6.6110355823
20
15.3172746030
11
6.0761683914
21
15.0567238504
0
LINE
5
23D
100
AcDbEntity
8
0
100
AcDbLine
62
9
6
CONTINUOUS
10
6.7215476934
20
15.3095398119
11
6.1870978147
21
15.0491923453
0
LINE
5
23E
100
AcDbEntity
8
0
100
AcDbLine
62
7
6
CONTINUOUS
10
12.4422178580
20
17.1045745356
11
7.7586809784
21
14.8529505403
0
LINE
5
23F
100
AcDbEntity
8
0
100
AcDbLine
62
7
6
CONTINUOUS
10
12.4643135311
20
-18.8524415100
11
12.4643851415
21
-18.8524212813
0
LINE
5
240
100
AcDbEntity
8
0
100
AcDbLine
62
9
6
CONTINUOUS
10
2.1866421222
20
9.4690924176
11
6.7056732606
21
11.9361643458
0
LINE
5
241
100
AcDbEntity
8
0
100
AcDbLine
62
7
6
CONTINUOUS
10
13.3237533166
20
16.3707163442
11
7.8322099883
21
13.4079027333
0
LINE
5
242
100
AcDbEntity
8
0
100
AcDbLine
62
7
6
CONTINUOUS
10
13.3237533166
20
15.8733863873
11
7.9656019795
21
13.0408360070
0
LINE
5
243
100
AcDbEntity
8
0
100
AcDbLine
62
9
6
CONTINUOUS
10
7.7073803859
20
14.0725483728
11
6.1060995950
21
13.2698263693
0
LINE
5
244
100
AcDbEntity
8
0
100
AcDbLine
62
9
6
CONTINUOUS
10
8.2356475576
20
14.3359871928
11
7.7073803859
21
14.0725483728
0
LINE
5
245
100
AcDbEntity
8
0
100
AcDbLine
62
9
6
CONTINUOUS
10
8.4143794569
20
12.8164472683
11
7.7073803859
21
12.4825036359
0
LINE
5
246
100
AcDbEntity
8
0
100
AcDbLine
62
9
6
CONTINUOUS
10
8.7680405576
20
12.2065215777
11
8.0501641347
21
11.8674401416
0
LINE
5
247
100
AcDbEntity
8
0
100
AcDbLine
62
7
6
CONTINUOUS
10
-9.0089485136
20
20.7033788629
11
-9.0089485136
21
20.3634049288
0
LINE
5
248
100
AcDbEntity
8
0
100
AcDbLine
62
9
6
CONTINUOUS
10
-8.9357252089
20
20.6149905153
11
-8.9357252089
21
20.2750165811
0
LINE
5
249
100
AcDbEntity
8
0
100
AcDbLine
62
7
6
CONTINUOUS
10
-8.3059555593
20
19.8573999545
11
-8.3059555593
21
19.4034428599
0
LINE
5
24A
100
AcDbEntity
8
0
100
AcDbLine
62
9
6
CONTINUOUS
10
-8.2327322546
20
19.8207883021
11
-8.2327322546
21
19.3117141579
0
LINE
5
24B
100
AcDbEntity
8
0
100
AcDbLine
62
9
6
CONTINUOUS
10
8.0501641347
20
11.8674401416
11
2.5524748623
21
8.8660899718
0
LINE
5
24C
100
AcDbEntity
8
0
100
AcDbLine
62
9
6
CONTINUOUS
10
-7.6107405290
20
19.6125242412
11
-7.6107405290
21
19.9524981753
0
LINE
5
24D
100
AcDbEntity
8
0
100
AcDbLine
62
9
6
CONTINUOUS
10
-7.2582185694
20
19.6120115174
11
-7.2582185694
21
19.9519854515
0
LINE
5
24E
100
AcDbEntity
8
0
100
AcDbLine
62
9
6
CONTINUOUS
10
-6.8995199209
20
19.3339286141
11
-6.8995199209
21
18.6451079911
0
LINE
5
24F
100
AcDbEntity
8
0
100
AcDbLine
62
9
6
CONTINUOUS
10
-6.5469979613
20
19.4635079945
11
-6.5469979613
21
18.6558758727
0
LINE
5
250
100
AcDbEntity
8
0
100
AcDbLine
62
7
6
CONTINUOUS
10
-5.6569377786
20
19.1525567940
11
-5.6569377786
21
20.7547074550
0
LINE
5
251
100
AcDbEntity
8
0
100
AcDbLine
62
7
6
CONTINUOUS
10
13.3176368070
20
-20.1385904708
11
13.0756089928
21
-20.0175765637
0
LINE
5
252
100
AcDbEntity
8
0
100
AcDbLine
62
9
6
CONTINUOUS
10
11.9287147519
20
-19.0038711166
11
8.7680405576
21
-17.4235340195
0
LINE
5
253
100
AcDbEntity
8
0
100
AcDbLine
62
7
6
CONTINUOUS
10
12.0857747258
20
-18.9594656195
11
8.7680405576
21
-17.3005985354
0
LINE
5
254
100
AcDbEntity
8
0
100
AcDbLine
62
9
6
CONTINUOUS
10
-5.1286706068
20
21.0181462750
11
-5.1286706068
21
20.6706147583
0
LINE
5
255
100
AcDbEntity
8
0
100
AcDbLine
62
7
6
CONTINUOUS
10
-5.0564727498
20
21.1060189072
11
-5.0564727498
21
20.7584873905
0
LINE
5
256
100
AcDbEntity
8
0
100
AcDbLine
62
7
6
CONTINUOUS
10
-3.4325137742
20
18.6382813795
11
-3.4325137742
21
17.3980923469
0
LINE
5
257
100
AcDbEntity
8
0
100
AcDbLine
62
9
6
CONTINUOUS
10
7.7073803859
20
13.3455035203
11
8.2356475576
21
13.9884556761
0
LINE
5
258
100
AcDbEntity
8
0
100
AcDbLine
62
7
6
CONTINUOUS
10
7.7073803859
20
13.2559730540
11
8.3067405877
21
13.9854522918
0
LINE
5
259
100
AcDbEntity
8
0
100
AcDbLine
62
7
6
CONTINUOUS
10
8.7680405576
20
6.4543916974
11
16.0400919890
21
10.2933770301
0
LINE
5
25A
100
AcDbEntity
8
0
100
AcDbLine
62
9
6
CONTINUOUS
10
-3.2860671648
20
18.2952115485
11
-3.2860671648
21
17.2146282377
0
LINE
5
25B
100
AcDbEntity
8
0
100
AcDbLine
62
7
6
CONTINUOUS
10
-3.5255365623
20
-4.8371374506
11
-4.2816360203
21
-5.2151871796
0
LINE
5
25C
100
AcDbEntity
8
0
100
AcDbLine
62
9
6
CONTINUOUS
10
2.2252399349
20
14.4589746879
11
2.2252399349
21
15.5395579987
0
LINE
5
25D
100
AcDbEntity
8
0
100
AcDbLine
62
7
6
CONTINUOUS
10
-3.0331026791
20
-6.0256642231
11
-3.6367334373
21
-6.3274796022
0
LINE
5
25E
100
AcDbEntity
8
0
100
AcDbLine
62
9
6
CONTINUOUS
10
2.9302838542
20
14.4805104512
11
2.9302838542
21
15.7132374235
0
LINE
5
25F
100
AcDbEntity
8
0
100
AcDbLine
62
9
6
CONTINUOUS
10
3.0560532011
20
20.0930680238
11
3.0560532011
21
21.3204186208
0
LINE
5
260
100
AcDbEntity
8
0
100
AcDbLine
62
7
6
CONTINUOUS
10
3.1814027084
20
20.2420961822
11
3.1814027084
21
21.3297302399
0
LINE
5
261
100
AcDbEntity
8
0
100
AcDbLine
62
7
6
CONTINUOUS
10
3.2879630035
20
15.8925419683
11
3.2879630035
21
14.6801064030
0
LINE
5
262
100
AcDbEntity
8
0
100
AcDbLine
62
7
6
CONTINUOUS
10
4.3553696509
20
14.0212197807
11
4.3553696509
21
13.6812458466
0
LINE
5
263
100
AcDbEntity
8
0
100
AcDbLine
62
7
6
CONTINUOUS
10
4.3553696509
20
-27.8318329313
11
4.3553696509
21
-27.9583322269
0
LINE
5
264
100
AcDbEntity
8
0
100
AcDbLine
62
9
6
CONTINUOUS
10
4.4285929556
20
13.9328314330
11
4.4285929556
21
13.5928574989
0
LINE
5
265
100
AcDbEntity
8
0
100
AcDbLine
62
9
6
CONTINUOUS
10
4.4285929556
20
-27.8010967622
11
4.4285929556
21
-28.0467205746
0
LINE
5
266
100
AcDbEntity
8
0
100
AcDbLine
62
7
6
CONTINUOUS
10
5.0583626051
20
12.7212686793
11
5.0583626051
21
13.1752408722
0
LINE
5
267
100
AcDbEntity
8
0
100
AcDbLine
62
9
6
CONTINUOUS
10
5.1315859098
20
12.6295550757
11
5.1315859098
21
13.1386292199
0
LINE
5
268
100
AcDbEntity
8
0
100
AcDbLine
62
9
6
CONTINUOUS
10
5.7535776354
20
-28.7092129145
11
5.7535776354
21
-28.3692389804
0
LINE
5
269
100
AcDbEntity
8
0
100
AcDbLine
62
9
6
CONTINUOUS
10
5.7535776354
20
12.9303651590
11
5.7535776354
21
13.2703390931
0
LINE
5
26A
100
AcDbEntity
8
0
100
AcDbLine
62
7
6
CONTINUOUS
10
5.8335474157
20
20.2438535173
11
5.8335474157
21
19.9730532246
0
LINE
5
26B
100
AcDbEntity
8
0
100
AcDbLine
62
9
6
CONTINUOUS
10
6.1060995950
20
-28.7097256384
11
6.1060995950
21
-28.3697517042
0
LINE
5
26C
100
AcDbEntity
8
0
100
AcDbLine
62
9
6
CONTINUOUS
10
6.1060995950
20
12.9298524352
11
6.1060995950
21
13.2698263693
0
LINE
5
26D
100
AcDbEntity
8
0
100
AcDbLine
62
9
6
CONTINUOUS
10
6.4647982435
20
-27.3927425032
11
6.4647982435
21
-26.9463804902
0
LINE
5
26E
100
AcDbEntity
8
0
100
AcDbLine
62
9
6
CONTINUOUS
10
6.4647982435
20
11.9629489089
11
6.4647982435
21
12.6517695318
0
LINE
5
26F
100
AcDbEntity
8
0
100
AcDbLine
62
9
6
CONTINUOUS
10
6.8173202031
20
-27.5182552271
11
6.8173202031
21
-26.7984060905
0
LINE
5
270
100
AcDbEntity
8
0
100
AcDbLine
62
9
6
CONTINUOUS
10
6.8173202031
20
11.9728480883
11
6.8173202031
21
12.7813489123
0
LINE
5
271
100
AcDbEntity
8
0
100
AcDbLine
62
7
6
CONTINUOUS
10
12.8121071827
20
-4.0104714568
11
16.8391869867
21
-1.8845376062
0
LINE
5
272
100
AcDbEntity
8
0
100
AcDbLine
62
7
6
CONTINUOUS
10
7.7073803859
20
-26.4247949788
11
7.7073803859
21
-27.9296910387
0
LINE
5
273
100
AcDbEntity
8
0
100
AcDbLine
62
7
6
CONTINUOUS
10
7.7073803859
20
12.4701292162
11
7.7073803859
21
14.0725483728
0
LINE
5
274
100
AcDbEntity
8
0
100
AcDbLine
62
9
6
CONTINUOUS
10
8.2356475576
20
14.3359871928
11
8.2356475576
21
13.9884556761
0
LINE
5
275
100
AcDbEntity
8
0
100
AcDbLine
62
9
6
CONTINUOUS
10
8.2356475576
20
-27.3111484633
11
8.2356475576
21
-27.6586799801
0
LINE
5
276
100
AcDbEntity
8
0
100
AcDbLine
62
7
6
CONTINUOUS
10
8.3078454146
20
14.4238598250
11
8.3078454146
21
13.9886153460
0
LINE
5
277
100
AcDbEntity
8
0
100
AcDbLine
62
7
6
CONTINUOUS
10
8.3078454146
20
-27.2232758311
11
8.3078454146
21
-27.5708073479
0
LINE
5
278
100
AcDbEntity
8
0
100
AcDbLine
62
9
6
CONTINUOUS
10
8.6127970737
20
17.3164378349
11
8.6127970737
21
18.5434878022
0
LINE
5
279
100
AcDbEntity
8
0
100
AcDbLine
62
7
6
CONTINUOUS
10
8.7363911375
20
17.4646014557
11
8.7363911375
21
18.5522779448
0
LINE
5
27A
100
AcDbEntity
8
0
100
AcDbLine
62
7
6
CONTINUOUS
10
8.7680405576
20
-25.7101108530
11
8.7680405576
21
12.2065215777
0
LINE
5
27B
100
AcDbEntity
8
0
100
AcDbLine
62
7
6
CONTINUOUS
10
8.8606741570
20
-8.1568210338
11
9.4034997319
21
-7.8854082464
0
LINE
5
27C
100
AcDbEntity
8
0
100
AcDbLine
62
7
6
CONTINUOUS
10
10.5414230815
20
-6.9377480400
11
13.1634422383
21
-3.5575441295
0
LINE
5
27D
100
AcDbEntity
8
0
100
AcDbLine
62
9
6
CONTINUOUS
10
12.8353148114
20
-19.3706279709
11
12.8353148114
21
-19.3356524506
0
LINE
5
27E
100
AcDbEntity
8
0
100
AcDbLine
62
9
6
CONTINUOUS
10
12.8353148114
20
15.4235238394
11
12.8353148114
21
15.4584993596
0
LINE
5
27F
100
AcDbEntity
8
0
100
AcDbLine
62
7
6
CONTINUOUS
10
12.9346059675
20
-19.3838812404
11
12.9346059675
21
-19.2148109877
0
LINE
5
280
100
AcDbEntity
8
0
100
AcDbLine
62
7
6
CONTINUOUS
10
12.9346059675
20
15.5443719587
11
12.9346059675
21
15.5727584501
0
LINE
5
281
100
AcDbEntity
8
0
100
AcDbLine
62
7
6
CONTINUOUS
10
13.0756089928
20
-19.6598463568
11
13.0756089928
21
-20.0175765637
0
LINE
5
282
100
AcDbEntity
8
0
100
AcDbLine
62
9
6
CONTINUOUS
10
13.3237533166
20
16.3707163442
11
13.3237533166
21
15.8733863873
0
LINE
5
283
100
AcDbEntity
8
0
100
AcDbLine
62
9
6
CONTINUOUS
10
13.3237533166
20
-20.4853188640
11
13.3237533166
21
-20.9826488210
0
LINE
5
284
100
AcDbEntity
8
0
100
AcDbLine
62
7
6
CONTINUOUS
10
13.4640834164
20
16.6712208529
11
13.4640834164
21
16.0496504609
0
LINE
5
285
100
AcDbEntity
8
0
100
AcDbLine
62
7
6
CONTINUOUS
10
13.4640834164
20
-20.3142537524
11
13.4640834164
21
-20.9358241444
0
LINE
5
286
100
AcDbEntity
8
0
100
AcDbLine
62
7
6
CONTINUOUS
10
8.7680405576
20
-13.0311798878
11
16.0400920030
21
-9.1921945476
0
LINE
5
287
100
AcDbEntity
8
0
100
AcDbLine
62
9
6
CONTINUOUS
10
16.0401542594
20
-9.1921616799
11
16.0400920014
21
-9.1921945485
0
LINE
5
288
100
AcDbEntity
8
0
100
AcDbLine
62
9
6
CONTINUOUS
10
1.1707037290
20
7.7289744533
11
-13.6541423486
21
15.1413974921
0
LINE
5
289
100
AcDbEntity
8
0
100
AcDbLine
62
7
6
CONTINUOUS
10
15.0259355711
20
9.7579941812
11
15.0259355711
21
8.7419922345
0
LINE
5
28A
100
AcDbEntity
8
0
100
AcDbLine
62
9
6
CONTINUOUS
10
2.1866421222
20
9.4690924176
11
-12.6615763385
21
16.8932016480
0
LINE
5
28B
100
AcDbEntity
8
0
100
AcDbLine
62
7
6
CONTINUOUS
10
6.4647982435
20
11.9629489089
11
5.1315859098
21
12.6295550757
0
LINE
5
28C
100
AcDbEntity
8
0
100
AcDbLine
62
7
6
CONTINUOUS
10
-6.8995199209
20
18.6451079911
11
-8.2327322546
21
19.3117141579
0
LINE
5
28D
100
AcDbEntity
8
0
100
AcDbLine
62
7
6
CONTINUOUS
10
-3.2860671648
20
17.2146282377
11
2.2252399349
21
14.4589746879
0
LINE
5
28E
100
AcDbEntity
8
0
100
AcDbLine
62
7
6
CONTINUOUS
10
-8.8707519124
20
20.1397981310
11
-7.5457672326
21
19.4773057911
0
LINE
5
28F
100
AcDbEntity
8
0
100
AcDbLine
62
7
6
CONTINUOUS
10
4.4935662520
20
13.4576390488
11
5.8185509318
21
12.7951467089
0
LINE
5
290
100
AcDbEntity
8
0
100
AcDbLine
62
9
6
CONTINUOUS
10
-8.9357252089
20
20.2750165811
11
-7.6107405290
21
19.6125242412
0
LINE
5
291
100
AcDbEntity
8
0
100
AcDbLine
62
9
6
CONTINUOUS
10
4.4285929556
20
13.5928574989
11
5.7535776354
21
12.9303651590
0
LINE
5
292
100
AcDbEntity
8
0
100
AcDbLine
62
9
6
CONTINUOUS
10
6.4642840151
20
-27.3924853891
11
5.8419659830
21
-28.1375448066
0
LINE
5
293
100
AcDbEntity
8
0
100
AcDbLine
62
9
6
CONTINUOUS
10
6.8173202031
20
-27.5182552271
11
6.1060995950
21
-28.3697517042
0
LINE
5
294
100
AcDbEntity
8
0
100
AcDbLine
62
7
6
CONTINUOUS
10
13.3237533166
20
-20.4853188640
11
8.7680405576
21
-22.7945508610
0
LINE
5
295
100
AcDbEntity
8
0
100
AcDbLine
62
7
6
CONTINUOUS
10
13.0756089928
20
-20.0175765637
11
8.7680405576
21
-22.1502586175
0
LINE
5
296
100
AcDbEntity
8
0
100
AcDbLine
62
7
6
CONTINUOUS
10
5.8792561015
20
12.7740312744
11
6.5036613509
21
12.6436548789
0
LINE
5
297
100
AcDbEntity
8
0
100
AcDbLine
62
9
6
CONTINUOUS
10
6.1060995950
20
12.9298524352
11
6.8173202031
21
12.7813489123
0
LINE
5
298
100
AcDbEntity
8
0
100
AcDbLine
62
9
6
CONTINUOUS
10
5.7535776354
20
13.2703390931
11
4.4285929556
21
13.9328314330
0
LINE
5
299
100
AcDbEntity
8
0
100
AcDbLine
62
9
6
CONTINUOUS
10
-7.6107405290
20
19.9524981753
11
-8.9357252089
21
20.6149905153
0
LINE
5
29A
100
AcDbEntity
8
0
100
AcDbLine
62
7
6
CONTINUOUS
10
-5.6569377786
20
19.1525567940
11
-3.4325137742
21
18.0403447918
0
LINE
5
29B
100
AcDbEntity
8
0
100
AcDbLine
62
7
6
CONTINUOUS
10
3.2879630035
20
14.6801064030
11
4.3819036041
21
14.1331361027
0
LINE
5
29C
100
AcDbEntity
8
0
100
AcDbLine
62
9
6
CONTINUOUS
10
5.9293258914
20
13.5747159081
11
4.6043412115
21
14.2372082480
0
LINE
5
29D
100
AcDbEntity
8
0
100
AcDbLine
62
9
6
CONTINUOUS
10
-7.4349922731
20
20.2568749903
11
-8.7599769529
21
20.9193673302
0
LINE
5
29E
100
AcDbEntity
8
0
100
AcDbLine
62
9
6
CONTINUOUS
10
2.2252399349
20
15.5395579987
11
-3.2860671648
21
18.2952115485
0
LINE
5
29F
100
AcDbEntity
8
0
100
AcDbLine
62
9
6
CONTINUOUS
10
2.6480623147
20
15.6419475632
11
-3.4276923351
21
18.6798248880
0
LINE
5
2A0
100
AcDbEntity
8
0
100
AcDbLine
62
7
6
CONTINUOUS
10
-5.6569377786
20
19.8521058860
11
-4.2488950436
21
19.1480845185
0
LINE
5
2A1
100
AcDbEntity
8
0
100
AcDbLine
62
7
6
CONTINUOUS
10
7.7073803859
20
13.1699468038
11
8.4143794569
21
12.8164472683
0
LINE
5
2A2
100
AcDbEntity
8
0
100
AcDbLine
62
7
6
CONTINUOUS
10
-2.9345766710
20
19.0038118055
11
3.2879630035
21
15.8925419683
0
LINE
5
2A3
100
AcDbEntity
8
0
100
AcDbLine
62
7
6
CONTINUOUS
10
-7.1772203497
20
21.7313514276
11
-5.8337114822
21
21.0595969938
0
LINE
5
2A4
100
AcDbEntity
8
0
100
AcDbLine
62
7
6
CONTINUOUS
10
6.1870978147
20
15.0491923453
11
7.5306066822
21
14.3774379116
0
LINE
5
2A5
100
AcDbEntity
8
0
100
AcDbLine
62
7
6
CONTINUOUS
10
-1.5910737867
20
19.0341287562
11
3.3586736816
21
16.5592550220
0
LINE
5
2A6
100
AcDbEntity
8
0
100
AcDbLine
62
7
6
CONTINUOUS
10
12.4422178580
20
-21.5420778650
11
8.7680405576
21
-23.3863104044
0
LINE
5
2A7
100
AcDbEntity
8
0
100
AcDbLine
62
7
6
CONTINUOUS
10
13.3237533166
20
-20.9826488210
11
8.7680405576
21
-23.2423159346
0
LINE
5
2A8
100
AcDbEntity
8
0
100
AcDbLine
62
7
6
CONTINUOUS
10
-7.4850620629
20
19.4561903566
11
-6.8606559785
21
19.3258137868
0
LINE
5
2A9
100
AcDbEntity
8
0
100
AcDbLine
62
9
6
CONTINUOUS
10
-6.6427704710
20
21.9916988941
11
-5.3054443105
21
21.3230358138
0
LINE
5
2AA
100
AcDbEntity
8
0
100
AcDbLine
62
9
6
CONTINUOUS
10
6.7215476934
20
15.3095398119
11
8.0588738539
21
14.6408767316
0
LINE
5
2AB
100
AcDbEntity
8
0
100
AcDbLine
62
7
6
CONTINUOUS
10
-6.5319955115
20
21.9982887852
11
-5.1946693509
21
21.3296257050
0
LINE
5
2AC
100
AcDbEntity
8
0
100
AcDbLine
62
7
6
CONTINUOUS
10
6.8323226529
20
15.3161297030
11
8.1696488135
21
14.6474666227
0
LINE
5
2AD
100
AcDbEntity
8
0
100
AcDbLine
62
9
6
CONTINUOUS
10
8.2356475576
20
-27.6586799801
11
7.7073803859
21
-27.9296910387
0
LINE
5
2AE
100
AcDbEntity
8
0
100
AcDbLine
62
7
6
CONTINUOUS
10
8.1719595201
20
-27.7932437903
11
7.6432772565
21
-28.0644677989
0
LINE
5
2AF
100
AcDbEntity
8
0
100
AcDbLine
62
7
6
CONTINUOUS
10
7.6415388694
20
-28.0653370325
11
7.6432752868
21
-28.0644688095
0
LINE
5
2B0
100
AcDbEntity
8
0
100
AcDbLine
62
9
6
CONTINUOUS
10
8.0501641347
20
-26.0642746202
11
8.7680405576
21
-25.7101108530
0
LINE
5
2B1
100
AcDbEntity
8
0
100
AcDbLine
62
7
6
CONTINUOUS
10
7.9155197156
20
-26.3370495751
11
8.6371659004
21
-25.9810259987
0
LINE
5
2B2
100
AcDbEntity
8
0
100
AcDbLine
62
9
6
CONTINUOUS
10
7.7073803859
20
-27.9296910387
11
6.1060995950
21
-28.7097256384
0
LINE
5
2B3
100
AcDbEntity
8
0
100
AcDbLine
62
7
6
CONTINUOUS
10
7.6415361054
20
-28.0653383789
11
6.0398380025
21
-28.8455762645
0
LINE
5
2B4
100
AcDbEntity
8
0
100
AcDbLine
62
7
6
CONTINUOUS
10
7.9155191939
20
-26.3370498324
11
7.9051053971
21
-26.3417980359
0
LINE
5
2B5
100
AcDbEntity
8
0
100
AcDbLine
62
9
6
CONTINUOUS
10
2.5524748623
20
-28.3719812683
11
8.0501641347
21
-26.0642746202
0
LINE
5
2B6
100
AcDbEntity
8
0
100
AcDbLine
62
7
6
CONTINUOUS
10
2.3986676168
20
-28.6531769667
11
7.9051152292
21
-26.3417939233
0
LINE
5
2B7
100
AcDbEntity
8
0
100
AcDbLine
62
9
6
CONTINUOUS
10
-7.2582185694
20
19.6120115174
11
-6.5469979613
21
19.4635079945
0
LINE
5
2B8
100
AcDbEntity
8
0
100
AcDbLine
62
7
6
CONTINUOUS
10
7.2841651226
20
18.4940302137
11
4.4736154756
21
19.8993050372
0
LINE
5
2B9
100
AcDbEntity
8
0
100
AcDbLine
62
9
6
CONTINUOUS
10
2.4016467350
20
21.6032552710
11
3.0071771696
21
21.3004900537
0
LINE
5
2BA
100
AcDbEntity
8
0
100
AcDbLine
62
9
6
CONTINUOUS
10
7.9569246379
20
18.8256163195
11
8.5624550726
21
18.5228511022
0
LINE
5
2BB
100
AcDbEntity
8
0
100
AcDbLine
62
7
6
CONTINUOUS
10
5.8335474157
20
19.9730532246
11
8.0694082873
21
18.8551227888
0
LINE
5
2BC
100
AcDbEntity
8
0
100
AcDbLine
62
7
6
CONTINUOUS
10
8.7363911375
20
18.5216313637
11
8.9346865371
21
18.4224836640
0
LINE
5
2BD
100
AcDbEntity
8
0
100
AcDbLine
62
7
6
CONTINUOUS
10
2.6779187560
20
21.5890740023
11
3.1743252406
21
21.3408707600
0
LINE
5
2BE
100
AcDbEntity
8
0
100
AcDbLine
62
7
6
CONTINUOUS
10
8.2328741481
20
18.8115963062
11
8.7292809180
21
18.5633929213
0
LINE
5
2BF
100
AcDbEntity
8
0
100
AcDbLine
62
7
6
CONTINUOUS
10
4.4736154756
20
19.8993050372
11
5.8335474157
21
19.9730532246
0
LINE
5
2C0
100
AcDbEntity
8
0
100
AcDbLine
62
9
6
CONTINUOUS
10
2.0656452830
20
22.2928608231
11
5.1326112270
21
20.7593778511
0
LINE
5
2C1
100
AcDbEntity
8
0
100
AcDbLine
62
9
6
CONTINUOUS
10
9.3752519141
20
18.6380575075
11
12.4422178580
21
17.1045745356
0
LINE
5
2C2
100
AcDbEntity
8
0
100
AcDbLine
62
7
6
CONTINUOUS
10
2.3464755397
20
22.3983166628
11
5.5736542300
21
20.7847273177
0
LINE
5
2C3
100
AcDbEntity
8
0
100
AcDbLine
62
7
6
CONTINUOUS
10
9.8162949172
20
18.6634069741
11
13.0434736075
21
17.0498176290
0
SPLINE
5
2C4
100
AcDbEntity
8
0
100
AcDbSpline
62
7
6
CONTINUOUS
70
0
71
3
72
9
73
5
74
3
42
0.0000001000
43
0.0000001000
44
0.0000000001
12
0.0374833895
22
0.0410839238
32
0.0000000000
13
-0.0232677463
23
0.0529192931
33
0.0000000000
40
0.0000000000
40
0.0000000000
40
0.0000000000
40
0.0000000000
40
0.7283640877
40
1.0000000000
40
1.0000000000
40
1.0000000000
40
1.0000000000
10
8.9410812639
20
0.8189023839
30
0.0000000000
10
8.9501817821
20
0.8288770688
30
0.0000000000
10
8.9641717116
20
0.8453699455
30
0.0000000000
10
8.9599514788
20
0.8643641646
30
0.0000000000
10
8.9578446936
20
0.8691557581
30
0.0000000000
11
8.9410812639
21
0.8189023839
31
0.0000000000
11
8.9609005561
21
0.8542297048
31
0.0000000000
11
8.9578446936
21
0.8691557581
31
0.0000000000
0
SPLINE
5
2C5
100
AcDbEntity
8
0
100
AcDbSpline
62
7
6
CONTINUOUS
70
0
71
3
72
8
73
4
74
2
42
0.0000001000
43
0.0000001000
44
0.0000000001
12
0.0254389894
22
0.0591081281
32
0.0000000000
13
0.0093362663
23
0.0641584701
33
0.0000000000
40
0.0000000000
40
0.0000000000
40
0.0000000000
40
0.0000000000
40
1.0000000000
40
1.0000000000
40
1.0000000000
40
1.0000000000
10
9.6141783027
20
-3.0837968885
30
0.0000000000
10
9.6226579659
20
-3.0640941792
30
0.0000000000
10
9.6284408933
20
-3.0430960753
30
0.0000000000
10
9.6315529820
20
-3.0217099186
30
0.0000000000
11
9.6141783027
21
-3.0837968885
31
0.0000000000
11
9.6315529820
21
-3.0217099186
31
0.0000000000
0
SPLINE
5
2C6
100
AcDbEntity
8
0
100
AcDbSpline
62
7
6
CONTINUOUS
70
0
71
3
72
14
73
10
74
8
42
0.0000001000
43
0.0000001000
44
0.0000000001
12
0.5197977320
22
0.1457759068
32
0.0000000000
13
0.1108340947
23
-0.5384718026
33
0.0000000000
40
0.0000000000
40
0.0000000000
40
0.0000000000
40
0.0000000000
40
0.2215568490
40
0.4321598302
40
0.6184481134
40
0.7716042927
40
0.8855990536
40
0.9614475127
40
1.0000000000
40
1.0000000000
40
1.0000000000
40
1.0000000000
10
9.1149425577
20
-1.4866312401
30
0.0000000000
10
9.1533308069
20
-1.4758653566
30
0.0000000000
10
9.2287687958
20
-1.4568641406
30
0.0000000000
10
9.3381686471
20
-1.4356975437
30
0.0000000000
10
9.4362584136
20
-1.4234594625
30
0.0000000000
10
9.5184991992
20
-1.4198668365
30
0.0000000000
10
9.5788616710
20
-1.4264613763
30
0.0000000000
10
9.6212011773
20
-1.4381468126
30
0.0000000000
10
9.6319320599
20
-1.4581869171
30
0.0000000000
10
9.6333563699
20
-1.4651067262
30
0.0000000000
11
9.1149425577
21
-1.4866312401
31
0.0000000000
11
9.2309459899
21
-1.4574891566
31
0.0000000000
11
9.3426301957
21
-1.4362037362
31
0.0000000000
11
9.4424777983
21
-1.4241869376
31
0.0000000000
11
9.5251289571
21
-1.4219403520
31
0.0000000000
11
9.5862178152
21
-1.4293808761
31
0.0000000000
11
9.6235097947
21
-1.4462912580
31
0.0000000000
11
9.6333563699
21
-1.4651067262
31
0.0000000000
0
SPLINE
5
2C7
100
AcDbEntity
8
0
100
AcDbSpline
62
7
6
CONTINUOUS
70
0
71
3
72
8
73
4
74
2
42
0.0000001000
43
0.0000001000
44
0.0000000001
12
0.0036650560
22
-0.0246113967
32
0.0000000000
13
0.0015906696
23
-0.0248311252
33
0.0000000000
40
0.0000000000
40
0.0000000000
40
0.0000000000
40
0.0000000000
40
1.0000000000
40
1.0000000000
40
1.0000000000
40
1.0000000000
10
8.9579671670
20
-4.5949181311
30
0.0000000000
10
8.9591888524
20
-4.6031219300
30
0.0000000000
10
8.9600791480
20
-4.6113742679
30
0.0000000000
10
8.9606093712
20
-4.6196513096
30
0.0000000000
11
8.9579671670
21
-4.5949181311
31
0.0000000000
11
8.9606093712
21
-4.6196513096
31
0.0000000000
0
SPLINE
5
2C8
100
AcDbEntity
8
0
100
AcDbSpline
62
7
6
CONTINUOUS
70
0
71
3
72
9
73
5
74
3
42
0.0000001000
43
0.0000001000
44
0.0000000001
12
0.0076940083
22
-0.1201072096
32
0.0000000000
13
-0.0474000212
23
-0.1101351347
33
0.0000000000
40
0.0000000000
40
0.0000000000
40
0.0000000000
40
0.0000000000
40
0.2503664822
40
1.0000000000
40
1.0000000000
40
1.0000000000
40
1.0000000000
10
8.9606093712
20
-4.6196513096
30
0.0000000000
10
8.9612514785
20
-4.6296749161
30
0.0000000000
10
8.9617069786
20
-4.6698553586
30
0.0000000000
10
8.9529254787
20
-4.7099384556
30
0.0000000000
10
8.9410812639
20
-4.7374587851
30
0.0000000000
11
8.9606093712
21
-4.6196513096
31
0.0000000000
11
8.9609005561
21
-4.6497884862
31
0.0000000000
11
8.9410812639
21
-4.7374587851
31
0.0000000000
0
SPLINE
5
2C9
100
AcDbEntity
8
0
100
AcDbSpline
62
7
6
CONTINUOUS
70
0
71
3
72
8
73
4
74
2
42
0.0000001000
43
0.0000001000
44
0.0000000001
12
-0.1805231811
22
0.3965214819
32
0.0000000000
13
-0.1999268321
23
0.3871056287
33
0.0000000000
40
0.0000000000
40
0.0000000000
40
0.0000000000
40
0.0000000000
40
1.0000000000
40
1.0000000000
40
1.0000000000
40
1.0000000000
10
8.9587683451
20
0.8695616793
30
0.0000000000
10
8.8985939514
20
1.0017355066
30
0.0000000000
10
8.8351366420
20
1.1324146227
30
0.0000000000
10
8.7684943646
20
1.2614498323
30
0.0000000000
11
8.9587683451
21
0.8695616793
31
0.0000000000
11
8.7684943646
21
1.2614498323
31
0.0000000000
0
SPLINE
5
2CA
100
AcDbEntity
8
0
100
AcDbSpline
62
7
6
CONTINUOUS
70
0
71
3
72
11
73
7
74
5
42
0.0000001000
43
0.0000001000
44
0.0000000001
12
0.2903004699
22
-2.2714299513
32
0.0000000000
13
0.9826427564
23
-2.0677662841
33
0.0000000000
40
0.0000000000
40
0.0000000000
40
0.0000000000
40
0.0000000000
40
0.1922893255
40
0.4561075016
40
0.7262952612
40
1.0000000000
40
1.0000000000
40
1.0000000000
40
1.0000000000
10
-4.9382088908
20
-3.0310373393
30
0.0000000000
10
-4.9196016636
20
-3.1766279170
30
0.0000000000
10
-4.8631141749
20
-3.5205035138
30
0.0000000000
10
-4.7309933854
20
-4.0594404168
30
0.0000000000
10
-4.5347004129
20
-4.6444372186
30
0.0000000000
10
-4.3712873466
20
-5.0265347027
30
0.0000000000
10
-4.2816360203
20
-5.2151871796
30
0.0000000000
11
-4.9382088908
21
-3.0310373393
31
0.0000000000
11
-4.8672657599
21
-3.4656106964
31
0.0000000000
11
-4.7241868372
21
-4.0523978598
31
0.0000000000
11
-4.5278472295
21
-4.6389718583
31
0.0000000000
11
-4.2816360203
21
-5.2151871796
31
0.0000000000
0
SPLINE
5
2CB
100
AcDbEntity
8
0
100
AcDbSpline
62
7
6
CONTINUOUS
70
0
71
3
72
10
73
6
74
4
42
0.0000001000
43
0.0000001000
44
0.0000000001
12
0.2171292996
22
1.5056420093
32
0.0000000000
13
-0.1791409996
23
1.5101085040
33
0.0000000000
40
0.0000000000
40
0.0000000000
40
0.0000000000
40
0.0000000000
40
0.2268463524
40
0.7317960351
40
1.0000000000
40
1.0000000000
40
1.0000000000
40
1.0000000000
10
9.6316064743
20
-3.0217426147
30
0.0000000000
10
9.6480248042
20
-2.9078928155
30
0.0000000000
10
9.6878731034
20
-2.5386955107
30
0.0000000000
10
9.6895891339
20
-2.0306466256
30
0.0000000000
10
9.6549647487
20
-1.6401077377
30
0.0000000000
10
9.6389493066
20
-1.5051020416
30
0.0000000000
11
9.6316064743
21
-3.0217426147
31
0.0000000000
11
9.6690212150
21
-2.6787520406
31
0.0000000000
11
9.6746606270
21
-1.9113326286
31
0.0000000000
11
9.6389493066
21
-1.5051020416
31
0.0000000000
0
SPLINE
5
2CC
100
AcDbEntity
8
0
100
AcDbSpline
62
7
6
CONTINUOUS
70
0
71
3
72
8
73
4
74
2
42
0.0000001000
43
0.0000001000
44
0.0000000001
12
-0.0047629663
22
0.0401504731
32
0.0000000000
13
-0.0049981392
23
0.0401221377
33
0.0000000000
40
0.0000000000
40
0.0000000000
40
0.0000000000
40
0.0000000000
40
1.0000000000
40
1.0000000000
40
1.0000000000
40
1.0000000000
10
9.6389493066
20
-1.5051020416
30
0.0000000000
10
9.6373616511
20
-1.4917185505
30
0.0000000000
10
9.6357346434
20
-1.4783396853
30
0.0000000000
10
9.6340685970
20
-1.4649656394
30
0.0000000000
11
9.6389493066
21
-1.5051020416
31
0.0000000000
11
9.6340685970
21
-1.4649656394
31
0.0000000000
0
SPLINE
5
2CD
100
AcDbEntity
8
0
100
AcDbSpline
62
7
6
CONTINUOUS
70
0
71
3
72
10
73
6
74
4
42
0.0000001000
43
0.0000001000
44
0.0000000001
12
0.7543780617
22
-1.0825268469
32
0.0000000000
13
0.9469307307
23
-0.9194766930
33
0.0000000000
40
0.0000000000
40
0.0000000000
40
0.0000000000
40
0.0000000000
40
0.4631676441
40
0.9129907676
40
1.0000000000
40
1.0000000000
40
1.0000000000
40
1.0000000000
10
-3.6367334373
20
-6.3274796022
30
0.0000000000
10
-3.5202656008
20
-6.4946100720
30
0.0000000000
10
-3.2772081510
20
-6.8149302041
30
0.0000000000
10
-2.9819199633
20
-7.1416406278
30
0.0000000000
10
-2.8140060024
20
-7.3077521990
30
0.0000000000
10
-2.7865420970
20
-7.3344198527
30
0.0000000000
11
-3.6367334373
21
-6.3274796022
31
0.0000000000
11
-3.2668257124
21
-6.8139407342
31
0.0000000000
11
-2.8681898753
21
-7.2536621090
31
0.0000000000
11
-2.7865420970
21
-7.3344198527
31
0.0000000000
0
SPLINE
5
2CE
100
AcDbEntity
8
0
100
AcDbSpline
62
7
6
CONTINUOUS
70
0
71
3
72
8
73
4
74
2
42
0.0000001000
43
0.0000001000
44
0.0000000001
12
-0.6939172652
22
-0.3441773075
32
0.0000000000
13
-0.6939172176
23
-0.3441774035
33
0.0000000000
40
0.0000000000
40
0.0000000000
40
0.0000000000
40
0.0000000000
40
1.0000000000
40
1.0000000000
40
1.0000000000
40
1.0000000000
10
-3.8163690764
20
-4.3391328166
30
0.0000000000
10
-4.0476748315
20
-4.4538585857
30
0.0000000000
10
-4.2789805843
20
-4.5685843594
30
0.0000000000
10
-4.5102863235
20
-4.6833101605
30
0.0000000000
11
-3.8163690764
21
-4.3391328166
31
0.0000000000
11
-4.5102863235
21
-4.6833101605
31
0.0000000000
0
SPLINE
5
2CF
100
AcDbEntity
8
0
100
AcDbSpline
62
7
6
CONTINUOUS
70
0
71
3
72
8
73
4
74
2
42
0.0000001000
43
0.0000001000
44
0.0000000001
12
-0.2068476339
22
-0.1047942368
32
0.0000000000
13
-0.2068476437
23
-0.1047942175
33
0.0000000000
40
0.0000000000
40
0.0000000000
40
0.0000000000
40
0.0000000000
40
1.0000000000
40
1.0000000000
40
1.0000000000
40
1.0000000000
10
-2.8213845743
20
-6.9810461979
30
0.0000000000
10
-2.8903337856
20
-7.0159776102
30
0.0000000000
10
-2.9592829983
20
-7.0509090198
30
0.0000000000
10
-3.0282322128
20
-7.0858404256
30
0.0000000000
11
-2.8213845743
21
-6.9810461979
31
0.0000000000
11
-3.0282322128
21
-7.0858404256
31
0.0000000000
0
SPLINE
5
2D0
100
AcDbEntity
8
0
100
AcDbSpline
62
7
6
CONTINUOUS
70
0
71
3
72
8
73
4
74
2
42
0.0000001000
43
0.0000001000
44
0.0000000001
12
0.3469238754
22
0.0971278068
32
0.0000000000
13
0.3468807067
23
0.0972817818
33
0.0000000000
40
0.0000000000
40
0.0000000000
40
0.0000000000
40
0.0000000000
40
1.0000000000
40
1.0000000000
40
1.0000000000
40
1.0000000000
10
8.7680409006
20
-1.5838383320
30
0.0000000000
10
8.8836821924
20
-1.5514623964
30
0.0000000000
10
8.9993156554
20
-1.5190585007
30
0.0000000000
10
9.1149425577
20
-1.4866312401
30
0.0000000000
11
8.7680409006
21
-1.5838383320
31
0.0000000000
11
9.1149425577
21
-1.4866312401
31
0.0000000000
0
SPLINE
5
2D1
100
AcDbEntity
8
0
100
AcDbSpline
62
7
6
CONTINUOUS
70
0
71
3
72
8
73
4
74
2
42
0.0000001000
43
0.0000001000
44
0.0000000001
12
0.1731858227
22
0.1891920134
32
0.0000000000
13
0.1728725964
23
0.1894781843
33
0.0000000000
40
0.0000000000
40
0.0000000000
40
0.0000000000
40
0.0000000000
40
1.0000000000
40
1.0000000000
40
1.0000000000
40
1.0000000000
10
8.7680474992
20
0.6295713570
30
0.0000000000
10
8.8257761068
20
0.6926353615
30
0.0000000000
10
8.8834570651
20
0.7557429892
30
0.0000000000
10
8.9410812639
20
0.8189023839
30
0.0000000000
11
8.7680474992
21
0.6295713570
31
0.0000000000
11
8.9410812639
21
0.8189023839
31
0.0000000000
0
SPLINE
5
2D2
100
AcDbEntity
8
0
100
AcDbSpline
62
7
6
CONTINUOUS
70
0
71
3
72
10
73
6
74
4
42
0.0000001000
43
0.0000001000
44
0.0000000001
12
-0.0751442329
22
-0.1720859559
32
0.0000000000
13
-0.1671113366
23
-0.0856389697
33
0.0000000000
40
0.0000000000
40
0.0000000000
40
0.0000000000
40
0.0000000000
40
0.3212192485
40
0.6518298217
40
1.0000000000
40
1.0000000000
40
1.0000000000
40
1.0000000000
10
8.9656000530
20
-4.5788038701
30
0.0000000000
10
8.9575541284
20
-4.5972296439
30
0.0000000000
10
8.9363949206
20
-4.6326986127
30
0.0000000000
10
8.8919411102
20
-4.6774993558
30
0.0000000000
10
8.8558214555
20
-4.7005542468
30
0.0000000000
10
8.8364270609
20
-4.7104932252
30
0.0000000000
11
8.9656000530
21
-4.5788038701
31
0.0000000000
11
8.9348014042
21
-4.6306657793
31
0.0000000000
11
8.8913112909
21
-4.6749678285
31
0.0000000000
11
8.8364270609
21
-4.7104932252
31
0.0000000000
0
SPLINE
5
2D3
100
AcDbEntity
8
0
100
AcDbSpline
62
7
6
CONTINUOUS
70
0
71
3
72
10
73
6
74
4
42
0.0000001000
43
0.0000001000
44
0.0000000001
12
0.6521432352
22
1.4934571515
32
0.0000000000
13
0.6442311534
23
1.4968871980
33
0.0000000000
40
0.0000000000
40
0.0000000000
40
0.0000000000
40
0.0000000000
40
0.3444961047
40
0.6778091985
40
1.0000000000
40
1.0000000000
40
1.0000000000
40
1.0000000000
10
8.9656000530
20
-4.5788038701
30
0.0000000000
10
9.0404869878
20
-4.4073071464
30
0.0000000000
10
9.1876032362
20
-4.0697817614
30
0.0000000000
10
9.4038529313
20
-3.5714699432
30
0.0000000000
10
9.5449898522
20
-3.2445579839
30
0.0000000000
10
9.6141783027
20
-3.0837968885
30
0.0000000000
11
8.9656000530
21
-4.5788038701
31
0.0000000000
11
9.1898909246
21
-4.0641523199
31
0.0000000000
11
9.4060989576
21
-3.5658586370
31
0.0000000000
11
9.6141783027
21
-3.0837968885
31
0.0000000000
0
SPLINE
5
2D4
100
AcDbEntity
8
0
100
AcDbSpline
62
7
6
CONTINUOUS
70
0
71
3
72
8
73
4
74
2
42
0.0000001000
43
0.0000001000
44
0.0000000001
12
-0.0683864399
22
-0.0350457627
32
0.0000000000
13
-0.0683864459
23
-0.0350457510
33
0.0000000000
40
0.0000000000
40
0.0000000000
40
0.0000000000
40
0.0000000000
40
1.0000000000
40
1.0000000000
40
1.0000000000
40
1.0000000000
10
8.8364270609
20
-4.7104932252
30
0.0000000000
10
8.8136315809
20
-4.7221751461
30
0.0000000000
10
8.7908360999
20
-4.7338570650
30
0.0000000000
10
8.7680406180
20
-4.7455389821
30
0.0000000000
11
8.8364270609
21
-4.7104932252
31
0.0000000000
11
8.7680406180
21
-4.7455389821
31
0.0000000000
0
SPLINE
5
2D5
100
AcDbEntity
8
0
100
AcDbSpline
62
7
6
CONTINUOUS
70
0
71
3
72
8
73
4
74
2
42
0.0000001000
43
0.0000001000
44
0.0000000001
12
-0.1726656651
22
-0.4011929916
32
0.0000000000
13
-0.1733653928
23
-0.4008912395
33
0.0000000000
40
0.0000000000
40
0.0000000000
40
0.0000000000
40
0.0000000000
40
1.0000000000
40
1.0000000000
40
1.0000000000
40
1.0000000000
10
8.9410812639
20
-4.7374587851
30
0.0000000000
10
8.8835260422
20
-4.8711897823
30
0.0000000000
10
8.8258444358
20
-5.0048664141
30
0.0000000000
10
8.7680559716
20
-5.1384968273
30
0.0000000000
11
8.9410812639
21
-4.7374587851
31
0.0000000000
11
8.7680559716
21
-5.1384968273
31
0.0000000000
0
SPLINE
5
2D6
100
AcDbEntity
8
0
100
AcDbSpline
62
7
6
CONTINUOUS
70
0
71
3
72
9
73
5
74
3
42
0.0000001000
43
0.0000001000
44
0.0000000001
12
0.0098445301
22
-0.0478282600
32
0.0000000000
13
-0.0323186196
23
-0.0354230427
33
0.0000000000
40
0.0000000000
40
0.0000000000
40
0.0000000000
40
0.0000000000
40
0.1552375976
40
1.0000000000
40
1.0000000000
40
1.0000000000
40
1.0000000000
10
9.6333563699
20
-1.4651067262
30
0.0000000000
10
9.6338657837
20
-1.4675816409
30
0.0000000000
10
9.6353411028
20
-1.4836615142
30
0.0000000000
10
9.6232788210
20
-1.4978818666
30
0.0000000000
10
9.6141783027
20
-1.5078565515
30
0.0000000000
11
9.6333563699
21
-1.4651067262
31
0.0000000000
11
9.6339975949
21
-1.4725292307
31
0.0000000000
11
9.6141783027
21
-1.5078565515
31
0.0000000000
0
SPLINE
5
2D7
100
AcDbEntity
8
0
100
AcDbSpline
62
9
6
CONTINUOUS
70
0
71
3
72
8
73
4
74
2
42
0.0000001000
43
0.0000001000
44
0.0000000001
12
0.0092361685
22
0.0630969916
32
0.0000000000
13
0.0083890314
23
0.0632242605
33
0.0000000000
40
0.0000000000
40
0.0000000000
40
0.0000000000
40
0.0000000000
40
1.0000000000
40
1.0000000000
40
1.0000000000
40
1.0000000000
10
9.6141783027
20
-3.0837968885
30
0.0000000000
10
9.6172570256
20
-3.0627645580
30
0.0000000000
10
9.6201933792
20
-3.0417098871
30
0.0000000000
10
9.6229897230
20
-3.0206351336
30
0.0000000000
11
9.6141783027
21
-3.0837968885
31
0.0000000000
11
9.6229897230
21
-3.0206351336
31
0.0000000000
0
SPLINE
5
2D8
100
AcDbEntity
8
0
100
AcDbSpline
62
9
6
CONTINUOUS
70
0
71
3
72
10
73
6
74
4
42
0.0000001000
43
0.0000001000
44
0.0000000001
12
0.1994944535
22
1.5034976811
32
0.0000000000
13
-0.1920763312
23
1.5042479958
33
0.0000000000
40
0.0000000000
40
0.0000000000
40
0.0000000000
40
0.0000000000
40
0.2894917772
40
0.6373095144
40
1.0000000000
40
1.0000000000
40
1.0000000000
40
1.0000000000
10
9.6229897230
20
-3.0206351336
30
0.0000000000
10
9.6422403910
20
-2.8755517283
30
0.0000000000
10
9.6700125491
20
-2.5540586466
30
0.0000000000
10
9.6689835390
20
-2.0479691220
30
0.0000000000
10
9.6373997220
20
-1.6897153635
30
0.0000000000
10
9.6141783027
20
-1.5078565515
30
0.0000000000
11
9.6229897230
21
-3.0206351336
31
0.0000000000
11
9.6616052021
21
-2.5832662656
31
0.0000000000
11
9.6616052021
21
-2.0558140733
31
0.0000000000
11
9.6141783027
21
-1.5078565515
31
0.0000000000
0
SPLINE
5
2D9
100
AcDbEntity
8
0
100
AcDbSpline
62
7
6
CONTINUOUS
70
0
71
3
72
8
73
4
74
2
42
0.0000001000
43
0.0000001000
44
0.0000000001
12
-0.0683864827
22
-0.0344719127
32
0.0000000000
13
-0.0683864847
23
-0.0344719089
33
0.0000000000
40
0.0000000000
40
0.0000000000
40
0.0000000000
40
0.0000000000
40
1.0000000000
40
1.0000000000
40
1.0000000000
40
1.0000000000
10
8.8364270609
20
-2.3013394284
30
0.0000000000
10
8.8136315666
20
-2.3128300660
30
0.0000000000
10
8.7908360721
20
-2.3243207029
30
0.0000000000
10
8.7680405772
20
-2.3358113392
30
0.0000000000
11
8.8364270609
21
-2.3013394284
31
0.0000000000
11
8.7680405772
21
-2.3358113392
31
0.0000000000
0
SPLINE
5
2DA
100
AcDbEntity
8
0
100
AcDbSpline
62
7
6
CONTINUOUS
70
0
71
3
72
10
73
6
74
4
42
0.0000001000
43
0.0000001000
44
0.0000000001
12
-0.6466314071
22
-0.7087447489
32
0.0000000000
13
-0.6501627915
23
-0.7055066551
33
0.0000000000
40
0.0000000000
40
0.0000000000
40
0.0000000000
40
0.0000000000
40
0.3210756103
40
0.6544048374
40
1.0000000000
40
1.0000000000
40
1.0000000000
40
1.0000000000
10
9.6141783027
20
-1.5078565515
30
0.0000000000
10
9.5449724448
20
-1.5837101024
30
0.0000000000
10
9.4037526755
20
-1.7381599140
30
0.0000000000
10
9.1875343879
20
-1.9737911891
30
0.0000000000
10
9.0404977582
20
-2.1335457484
30
0.0000000000
10
8.9656000530
20
-2.2148189775
30
0.0000000000
11
9.6141783027
21
-1.5078565515
31
0.0000000000
11
9.4063309062
21
-1.7352073100
31
0.0000000000
11
9.1901284725
21
-1.9708476167
31
0.0000000000
11
8.9656000530
21
-2.2148189775
31
0.0000000000
0
SPLINE
5
2DB
100
AcDbEntity
8
0
100
AcDbSpline
62
7
6
CONTINUOUS
70
0
71
3
72
10
73
6
74
4
42
0.0000001000
43
0.0000001000
44
0.0000000001
12
0.1393875793
22
0.0702617868
32
0.0000000000
13
0.1057816658
23
0.1147861277
33
0.0000000000
40
0.0000000000
40
0.0000000000
40
0.0000000000
40
0.0000000000
40
0.4009656380
40
0.7362615364
40
1.0000000000
40
1.0000000000
40
1.0000000000
40
1.0000000000
10
8.8364270609
20
-2.3013394284
30
0.0000000000
10
8.8550569374
20
-2.2919485743
30
0.0000000000
10
8.8887957488
20
-2.2736998942
30
0.0000000000
10
8.9323591586
20
-2.2451723704
30
0.0000000000
10
8.9563004884
20
-2.2249101498
30
0.0000000000
10
8.9656000530
20
-2.2148189775
30
0.0000000000
11
8.8364270609
21
-2.3013394284
31
0.0000000000
11
8.8913112909
21
-2.2712551259
31
0.0000000000
11
8.9348014042
21
-2.2421368505
31
0.0000000000
11
8.9656000530
21
-2.2148189775
31
0.0000000000
0
SPLINE
5
2DC
100
AcDbEntity
8
0
100
AcDbSpline
62
9
6
CONTINUOUS
70
0
71
3
72
10
73
6
74
4
42
0.0000001000
43
0.0000001000
44
0.0000000001
12
0.3782145404
22
-2.3897494031
32
0.0000000000
13
-0.4470858919
23
-2.3778272969
33
0.0000000000
40
0.0000000000
40
0.0000000000
40
0.0000000000
40
0.0000000000
40
0.3515881623
40
0.6856843729
40
1.0000000000
40
1.0000000000
40
1.0000000000
40
1.0000000000
10
8.8364270609
20
-2.3013394284
30
0.0000000000
10
8.8807523126
20
-2.5814086288
30
0.0000000000
10
8.9413014054
20
-3.1322335598
30
0.0000000000
10
8.9438986825
20
-3.9402230283
30
0.0000000000
10
8.8832690884
20
-4.4613637992
30
0.0000000000
10
8.8364270609
20
-4.7104932252
30
0.0000000000
11
8.8364270609
21
-2.3013394284
31
0.0000000000
11
8.9273948248
21
-3.1471267718
31
0.0000000000
11
8.9274066584
21
-3.9554703575
31
0.0000000000
11
8.8364270609
21
-4.7104932252
31
0.0000000000
0
SPLINE
5
2DD
100
AcDbEntity
8
0
100
AcDbSpline
62
9
6
CONTINUOUS
70
0
71
3
72
10
73
6
74
4
42
0.0000001000
43
0.0000001000
44
0.0000000001
12
0.3679876129
22
-2.3452517057
32
0.0000000000
13
-0.4343556145
23
-2.3338713860
33
0.0000000000
40
0.0000000000
40
0.0000000000
40
0.0000000000
40
0.0000000000
40
0.3514361266
40
0.6855204191
40
1.0000000000
40
1.0000000000
40
1.0000000000
40
1.0000000000
10
8.9656000530
20
-2.2148189775
30
0.0000000000
10
9.0087081001
20
-2.4895543693
30
0.0000000000
10
9.0675831765
20
-3.0299193320
30
0.0000000000
10
9.0700832442
20
-3.8226728740
30
0.0000000000
10
9.0111320436
20
-4.3341522383
30
0.0000000000
10
8.9656000530
20
-4.5788038701
30
0.0000000000
11
8.9656000530
21
-2.2148189775
31
0.0000000000
11
9.0540505244
21
-3.0444074701
31
0.0000000000
11
9.0540597656
21
-3.8375055987
31
0.0000000000
11
8.9656000530
21
-4.5788038701
31
0.0000000000
0
SPLINE
5
2DE
100
AcDbEntity
8
0
100
AcDbSpline
62
9
6
CONTINUOUS
70
0
71
3
72
8
73
4
74
2
42
0.0000001000
43
0.0000001000
44
0.0000000001
12
-0.0158273602
22
0.0350734809
32
0.0000000000
13
-0.0159779413
23
0.0350068806
33
0.0000000000
40
0.0000000000
40
0.0000000000
40
0.0000000000
40
0.0000000000
40
1.0000000000
40
1.0000000000
40
1.0000000000
40
1.0000000000
10
8.9410812639
20
0.8189023839
30
0.0000000000
10
8.9358054771
20
0.8305935442
30
0.0000000000
10
8.9305045612
20
0.8422736667
30
0.0000000000
10
8.9251785807
20
0.8539426269
30
0.0000000000
11
8.9410812639
21
0.8189023839
31
0.0000000000
11
8.9251785807
21
0.8539426269
31
0.0000000000
0
SPLINE
5
2DF
100
AcDbEntity
8
0
100
AcDbSpline
62
9
6
CONTINUOUS
70
0
71
3
72
8
73
4
74
2
42
0.0000001000
43
0.0000001000
44
0.0000000001
12
-0.1504720257
22
0.3296767790
32
0.0000000000
13
-0.1636474549
23
0.3234252295
33
0.0000000000
40
0.0000000000
40
0.0000000000
40
0.0000000000
40
0.0000000000
40
1.0000000000
40
1.0000000000
40
1.0000000000
40
1.0000000000
10
8.9251785807
20
0.8539426269
30
0.0000000000
10
8.8750212388
20
0.9638348865
30
0.0000000000
10
8.8226409522
20
1.0727371764
30
0.0000000000
10
8.7680918005
20
1.1805455862
30
0.0000000000
11
8.9251785807
21
0.8539426269
31
0.0000000000
11
8.7680918005
21
1.1805455862
31
0.0000000000
0
SPLINE
5
2E0
100
AcDbEntity
8
0
100
AcDbSpline
62
7
6
CONTINUOUS
70
0
71
3
72
21
73
17
74
15
42
0.0000001000
43
0.0000001000
44
0.0000000001
12
9.5353797639
22
-7.4211188769
32
0.0000000000
13
-10.6853512918
23
-5.6408988951
33
0.0000000000
40
0.0000000000
40
0.0000000000
40
0.0000000000
40
0.0000000000
40
0.0752341941
40
0.1536268958
40
0.2342061213
40
0.3158937084
40
0.3976192519
40
0.4783133829
40
0.5569882617
40
0.6326744315
40
0.7045736776
40
0.7721469853
40
0.8350356486
40
0.8931026260
40
0.9476960411
40
1.0000000000
40
1.0000000000
40
1.0000000000
40
1.0000000000
10
15.1823936381
20
8.5760472207
30
0.0000000000
10
15.4215225088
20
8.3899399213
30
0.0000000000
10
15.8849953110
20
7.9772183826
30
0.0000000000
10
16.5137975430
20
7.2716982515
30
0.0000000000
10
17.0796048788
20
6.4825405641
30
0.0000000000
10
17.5699480785
20
5.6290558754
30
0.0000000000
10
17.9741400099
20
4.7310489459
30
0.0000000000
10
18.2829860549
20
3.8086657794
30
0.0000000000
10
18.4886591595
20
2.8826651237
30
0.0000000000
10
18.5848800595
20
1.9743104257
30
0.0000000000
10
18.5672500770
20
1.1053201078
30
0.0000000000
10
18.4337969870
20
0.2980087966
30
0.0000000000
10
18.1865841319
20
-0.4241987491
30
0.0000000000
10
17.8324254084
20
-1.0418076090
30
0.0000000000
10
17.3835302724
20
-1.5388130816
30
0.0000000000
10
17.0254823782
20
-1.7861904916
30
0.0000000000
10
16.8391869867
20
-1.8845376063
30
0.0000000000
11
15.1823936381
21
8.5760472207
31
0.0000000000
11
15.8632325905
21
7.9736974763
31
0.0000000000
11
16.4950250961
21
7.2679728548
31
0.0000000000
11
17.0633379758
21
6.4774178237
31
0.0000000000
11
17.5554217706
21
5.6218081946
31
0.0000000000
11
17.9604360112
21
4.7212065533
31
0.0000000000
11
18.2689835946
21
3.7962953879
31
0.0000000000
11
18.4732404026
21
2.8678779924
31
0.0000000000
11
18.5668037692
21
1.9581683962
31
0.0000000000
11
18.5454892877
21
1.0896785061
31
0.0000000000
11
18.4078948872
21
0.2848742728
31
0.0000000000
11
18.1571716442
21
-0.4324482246
31
0.0000000000
11
17.8043560329
21
-1.0389036928
31
0.0000000000
11
17.3597827234
21
-1.5262315505
31
0.0000000000
11
16.8391869867
21
-1.8845376063
31
0.0000000000
0
SPLINE
5
2E1
100
AcDbEntity
8
0
100
AcDbSpline
62
7
6
CONTINUOUS
70
0
71
3
72
9
73
5
74
3
42
0.0000001000
43
0.0000001000
44
0.0000000001
12
-0.0030504250
22
0.0023740534
32
0.0000000000
13
-0.0030349248
23
0.0023938372
33
0.0000000000
40
0.0000000000
40
0.0000000000
40
0.0000000000
40
0.0000000000
40
0.9244162247
40
1.0000000000
40
1.0000000000
40
1.0000000000
40
1.0000000000
10
15.1823935075
20
8.5760473273
30
0.0000000000
10
15.1814535534
20
8.5767788652
30
0.0000000000
10
15.1804391450
20
8.5775732979
30
0.0000000000
10
15.1794273091
20
8.5783709971
30
0.0000000000
10
15.1793508454
20
8.5784313089
30
0.0000000000
11
15.1823935075
21
8.5760473273
31
0.0000000000
11
15.1795802805
21
8.5782504295
31
0.0000000000
11
15.1793508454
21
8.5784313089
31
0.0000000000
0
SPLINE
5
2E2
100
AcDbEntity
8
0
100
AcDbSpline
62
7
6
CONTINUOUS
70
0
71
3
72
8
73
4
74
2
42
0.0000001000
43
0.0000001000
44
0.0000000001
12
-0.0246664977
22
0.0194541338
32
0.0000000000
13
-0.0237026051
23
0.0206458483
33
0.0000000000
40
0.0000000000
40
0.0000000000
40
0.0000000000
40
0.0000000000
40
1.0000000000
40
1.0000000000
40
1.0000000000
40
1.0000000000
10
15.1793484893
20
8.5784331243
30
0.0000000000
10
15.1711263234
20
8.5849178355
30
0.0000000000
10
15.1630681422
20
8.5916133699
30
0.0000000000
10
15.1551672738
20
8.5984953193
30
0.0000000000
11
15.1793484893
21
8.5784331243
31
0.0000000000
11
15.1551672738
21
8.5984953193
31
0.0000000000
0
SPLINE
5
2E3
100
AcDbEntity
8
0
100
AcDbSpline
62
7
6
CONTINUOUS
70
0
71
3
72
8
73
4
74
2
42
0.0000001000
43
0.0000001000
44
0.0000000001
12
-0.0268668092
22
0.0234019875
32
0.0000000000
13
-0.0256832534
23
0.0247324009
33
0.0000000000
40
0.0000000000
40
0.0000000000
40
0.0000000000
40
0.0000000000
40
1.0000000000
40
1.0000000000
40
1.0000000000
40
1.0000000000
10
15.1551672738
20
8.5984953193
30
0.0000000000
10
15.1462116707
20
8.6062959818
30
0.0000000000
10
15.1374581852
20
8.6143361529
30
0.0000000000
10
15.1288971008
20
8.6225802865
30
0.0000000000
11
15.1551672738
21
8.5984953193
31
0.0000000000
11
15.1288971008
21
8.6225802865
31
0.0000000000
0
SPLINE
5
2E4
100
AcDbEntity
8
0
100
AcDbSpline
62
7
6
CONTINUOUS
70
0
71
3
72
10
73
6
74
4
42
0.0000001000
43
0.0000001000
44
0.0000000001
12
-0.2117233932
22
0.2038849114
32
0.0000000000
13
-0.1419532732
23
0.2571918838
33
0.0000000000
40
0.0000000000
40
0.0000000000
40
0.0000000000
40
0.0000000000
40
0.1307333183
40
0.5727022399
40
1.0000000000
40
1.0000000000
40
1.0000000000
40
1.0000000000
10
15.1288971008
20
8.6225802865
30
0.0000000000
10
15.1196706669
20
8.6314651369
30
0.0000000000
10
15.0802314624
20
8.6714246936
30
0.0000000000
10
15.0184469370
20
8.7476455531
30
0.0000000000
10
14.9731727911
20
8.8198829287
30
0.0000000000
10
14.9529540192
20
8.8565154340
30
0.0000000000
11
15.1288971008
21
8.6225802865
31
0.0000000000
11
15.1018760439
21
8.6499010357
31
0.0000000000
11
15.0197205229
21
8.7503099817
31
0.0000000000
11
14.9529540192
21
8.8565154340
31
0.0000000000
0
SPLINE
5
2E5
100
AcDbEntity
8
0
100
AcDbSpline
62
7
6
CONTINUOUS
70
0
71
3
72
8
73
4
74
2
42
0.0000001000
43
0.0000001000
44
0.0000000001
12
0.0925737661
22
0.0425852319
32
0.0000000000
13
0.0911489166
23
0.0455489992
33
0.0000000000
40
0.0000000000
40
0.0000000000
40
0.0000000000
40
0.0000000000
40
1.0000000000
40
1.0000000000
40
1.0000000000
40
1.0000000000
10
8.7689730351
20
-8.2006958853
30
0.0000000000
10
8.7998309572
20
-8.1865008081
30
0.0000000000
10
8.8304601209
20
-8.1718085052
30
0.0000000000
10
8.8608430931
20
-8.1566255055
30
0.0000000000
11
8.7689730351
21
-8.2006958853
31
0.0000000000
11
8.8608430931
21
-8.1566255055
31
0.0000000000
0
SPLINE
5
2E6
100
AcDbEntity
8
0
100
AcDbSpline
62
7
6
CONTINUOUS
70
0
71
3
72
20
73
16
74
14
42
0.0000001000
43
0.0000001000
44
0.0000000001
12
5.9537480458
22
-4.3500037980
32
0.0000000000
13
-6.5100841730
23
-3.4367355441
33
0.0000000000
40
0.0000000000
40
0.0000000000
40
0.0000000000
40
0.0000000000
40
0.0029931168
40
0.0909150095
40
0.1825317662
40
0.2762140404
40
0.3706600035
40
0.4642656242
40
0.5555692900
40
0.6432624277
40
0.7261313385
40
0.8029765876
40
0.8730336506
40
0.9381733150
40
1.0000000000
40
1.0000000000
40
1.0000000000
40
1.0000000000
10
15.0422933687
20
-2.8599689862
30
0.0000000000
10
15.0482334564
20
-2.8643090093
30
0.0000000000
10
15.2282833367
20
-2.9966373663
30
0.0000000000
10
15.5666029847
20
-3.2924357869
30
0.0000000000
10
16.0070115103
20
-3.8005487800
30
0.0000000000
10
16.3891043802
20
-4.3728434407
30
0.0000000000
10
16.7027100253
20
-4.9907642380
30
0.0000000000
10
16.9389906138
20
-5.6360191898
30
0.0000000000
10
17.0900193338
20
-6.2895717643
30
0.0000000000
10
17.1489590988
20
-6.9316697325
30
0.0000000000
10
17.1105824583
20
-7.5403763731
30
0.0000000000
10
16.9737235059
20
-8.0910493144
30
0.0000000000
10
16.7434193609
20
-8.5625734313
30
0.0000000000
10
16.4315018247
20
-8.9382700622
30
0.0000000000
10
16.1742576285
20
-9.1213672339
30
0.0000000000
10
16.0400919872
20
-9.1921945560
30
0.0000000000
11
15.0422933687
21
-2.8599689862
31
0.0000000000
11
15.0600762032
21
-2.8730383354
31
0.0000000000
11
15.5493535162
21
-3.2967464912
31
0.0000000000
11
15.9925364588
21
-3.8051355105
31
0.0000000000
11
16.3762709935
21
-4.3781623973
31
0.0000000000
11
16.6909653550
21
-4.9981344606
31
0.0000000000
11
16.9271114322
21
-5.6454898782
31
0.0000000000
11
17.0766996111
21
-6.3007686415
31
0.0000000000
11
17.1329033221
21
-6.9438743667
31
0.0000000000
11
17.0907071500
21
-7.5524565084
31
0.0000000000
11
16.9499633328
21
-8.1003683706
31
0.0000000000
11
16.7200351765
21
-8.5620052972
31
0.0000000000
11
16.4114542301
21
-8.9290549654
31
0.0000000000
11
16.0400919872
21
-9.1921945560
31
0.0000000000
0
SPLINE
5
2E7
100
AcDbEntity
8
0
100
AcDbSpline
62
7
6
CONTINUOUS
70
0
71
3
72
11
73
7
74
5
42
0.0000001000
43
0.0000001000
44
0.0000000001
12
1.4521883222
22
0.4562705457
32
0.0000000000
13
1.3987098965
23
-0.5940195866
33
0.0000000000
40
0.0000000000
40
0.0000000000
40
0.0000000000
40
0.0000000000
40
0.1309558151
40
0.4344864097
40
0.7642176344
40
1.0000000000
40
1.0000000000
40
1.0000000000
40
1.0000000000
10
12.8877723727
20
17.1287255986
30
0.0000000000
10
12.9511632079
20
17.1486426923
30
0.0000000000
10
13.1653340230
20
17.2029427825
30
0.0000000000
10
13.5546749110
20
17.2280621359
30
0.0000000000
10
13.9914536985
20
17.1535866673
30
0.0000000000
10
14.2622152018
20
17.0577574473
30
0.0000000000
10
14.3721455779
20
17.0110709996
30
0.0000000000
11
12.8877723727
21
17.1287255986
31
0.0000000000
11
13.0809195969
21
17.1777397142
31
0.0000000000
11
13.5403276532
21
17.2099510076
31
0.0000000000
11
14.0340948737
21
17.1294327305
31
0.0000000000
11
14.3721455779
21
17.0110709996
31
0.0000000000
0
SPLINE
5
2E8
100
AcDbEntity
8
0
100
AcDbSpline
62
7
6
CONTINUOUS
70
0
71
3
72
8
73
4
74
2
42
0.0000001000
43
0.0000001000
44
0.0000000001
12
0.1728171434
22
-0.0733938956
32
0.0000000000
13
0.1676737974
23
-0.0838368988
33
0.0000000000
40
0.0000000000
40
0.0000000000
40
0.0000000000
40
0.0000000000
40
1.0000000000
40
1.0000000000
40
1.0000000000
40
1.0000000000
10
14.3721455779
20
17.0110709996
30
0.0000000000
10
14.4297512924
20
16.9866063677
30
0.0000000000
10
14.4865443232
20
16.9602931769
30
0.0000000000
10
14.5424355890
20
16.9323475439
30
0.0000000000
11
14.3721455779
21
17.0110709996
31
0.0000000000
11
14.5424355890
21
16.9323475439
31
0.0000000000
0
SPLINE
5
2E9
100
AcDbEntity
8
0
100
AcDbSpline
62
7
6
CONTINUOUS
70
0
71
3
72
20
73
16
74
14
42
0.0000001000
43
0.0000001000
44
0.0000000001
12
7.1092366638
22
-3.5546183362
32
0.0000000000
13
-7.0320136400
23
-3.7113333726
33
0.0000000000
40
0.0000000000
40
0.0000000000
40
0.0000000000
40
0.0000000000
40
0.0768074923
40
0.1585214205
40
0.2436715483
40
0.3307340993
40
0.4184903139
40
0.5054396621
40
0.5902167631
40
0.6716000899
40
0.7484544315
40
0.8196714721
40
0.8845662811
40
0.9449439674
40
1.0000000000
40
1.0000000000
40
1.0000000000
40
1.0000000000
10
14.5424355891
20
16.9323475439
30
0.0000000000
10
14.7244498025
20
16.8413404371
30
0.0000000000
10
15.0823929784
20
16.6168436294
30
0.0000000000
10
15.5697278918
20
16.1901199750
30
0.0000000000
10
16.0111213728
20
15.6797631332
30
0.0000000000
10
16.3937175818
20
15.1049931316
30
0.0000000000
10
16.7072625241
20
14.4845460226
30
0.0000000000
10
16.9428479806
20
13.8368970405
30
0.0000000000
10
17.0924897571
20
13.1812798772
30
0.0000000000
10
17.1493119557
20
12.5376749229
30
0.0000000000
10
17.1081043620
20
11.9282748783
30
0.0000000000
10
16.9678372976
20
11.3779623996
30
0.0000000000
10
16.7337869809
20
10.9079075082
30
0.0000000000
10
16.4220681171
20
10.5394674922
30
0.0000000000
10
16.1686988815
20
10.3612548227
30
0.0000000000
10
16.0396472907
20
10.2931443924
30
0.0000000000
11
14.5424355891
21
16.9323475439
31
0.0000000000
11
15.0617110196
21
16.6113238159
31
0.0000000000
11
15.5523837430
21
16.1857881024
31
0.0000000000
11
15.9965737787
21
15.6751418077
31
0.0000000000
11
16.3808206631
21
15.0996198283
31
0.0000000000
11
16.6954503218
21
14.4770922985
31
0.0000000000
11
16.9308779564
21
13.8273226830
31
0.0000000000
11
17.0790374967
21
13.1699730205
31
0.0000000000
11
17.1330670612
21
12.5253687391
31
0.0000000000
11
17.0879827407
21
11.9161681022
31
0.0000000000
11
16.9438300869
21
11.3687714449
31
0.0000000000
11
16.7103384493
21
10.9088373392
31
0.0000000000
11
16.3981424795
21
10.5443629159
31
0.0000000000
11
16.0396472907
21
10.2931443924
31
0.0000000000
0
SPLINE
5
2EA
100
AcDbEntity
8
0
100
AcDbSpline
62
7
6
CONTINUOUS
70
0
71
3
72
16
73
12
74
10
42
0.0000001000
43
0.0000001000
44
0.0000000001
12
4.9950967326
22
6.4386232632
32
0.0000000000
13
-3.8958407495
23
7.1436995322
33
0.0000000000
40
0.0000000000
40
0.0000000000
40
0.0000000000
40
0.0000000000
40
0.0742393103
40
0.1710778690
40
0.2759474448
40
0.3889341872
40
0.5093905422
40
0.6361112118
40
0.7674870856
40
0.9016384904
40
1.0000000000
40
1.0000000000
40
1.0000000000
40
1.0000000000
10
9.2068635955
20
-6.1499472218
30
0.0000000000
10
9.3304744409
20
-5.9906142383
30
0.0000000000
10
9.5799595145
20
-5.5962052321
30
0.0000000000
10
9.8583846582
20
-4.8971473408
30
0.0000000000
10
10.0350893221
20
-4.0588074435
30
0.0000000000
10
10.0916465782
20
-3.1404700792
30
0.0000000000
10
10.0274395263
20
-2.1637475949
30
0.0000000000
10
9.8443192988
20
-1.1518188871
30
0.0000000000
10
9.5468115044
20
-0.1289120177
30
0.0000000000
10
9.1790605494
20
0.7882487600
30
0.0000000000
10
8.8965935757
20
1.3525300309
30
0.0000000000
10
8.7688599832
20
1.5867517210
30
0.0000000000
11
9.2068635955
21
-6.1499472218
31
0.0000000000
11
9.5325269107
21
-5.6409653957
31
0.0000000000
11
9.8294780990
21
-4.9114169995
31
0.0000000000
11
10.0106248964
21
-4.0778827765
31
0.0000000000
11
10.0715068676
21
-3.1608871055
31
0.0000000000
11
10.0106248964
21
-2.1830094633
31
0.0000000000
11
9.8294780990
21
-1.1683284429
31
0.0000000000
11
9.5325269107
21
-0.1418288584
31
0.0000000000
11
9.1270832554
21
0.8712134635
31
0.0000000000
11
8.7688599832
21
1.5867517210
31
0.0000000000
0
SPLINE
5
2EB
100
AcDbEntity
8
0
100
AcDbSpline
62
7
6
CONTINUOUS
70
0
71
3
72
14
73
10
74
8
42
0.0000001000
43
0.0000001000
44
0.0000000001
12
0.0870575980
22
-0.4613402293
32
0.0000000000
13
0.3386858317
23
-0.3248435372
33
0.0000000000
40
0.0000000000
40
0.0000000000
40
0.0000000000
40
0.0000000000
40
0.0537904829
40
0.2104065412
40
0.3704641535
40
0.5317178137
40
0.6918629630
40
0.8486497668
40
1.0000000000
40
1.0000000000
40
1.0000000000
40
1.0000000000
10
15.0369077312
20
-2.8359694332
30
0.0000000000
10
15.0384686879
20
-2.8442413377
30
0.0000000000
10
15.0451726418
20
-2.8764845762
30
0.0000000000
10
15.0608780019
20
-2.9323653299
30
0.0000000000
10
15.0879037779
20
-3.0021881766
30
0.0000000000
10
15.1215141265
20
-3.0697056402
30
0.0000000000
10
15.1609535796
20
-3.1333967640
30
0.0000000000
10
15.2053257147
20
-3.1918181914
30
0.0000000000
10
15.2382619370
20
-3.2271573391
30
0.0000000000
10
15.2553486636
20
-3.2435457208
30
0.0000000000
11
15.0369077312
21
-2.8359694332
31
0.0000000000
11
15.0420412517
21
-2.8606942799
31
0.0000000000
11
15.0618284386
21
-2.9314786940
31
0.0000000000
11
15.0888935245
21
-3.0015462777
31
0.0000000000
11
15.1226163782
21
-3.0692913148
31
0.0000000000
11
15.1622241020
21
-3.1331613889
31
0.0000000000
11
15.2068087948
21
-3.1916930578
31
0.0000000000
11
15.2553486636
21
-3.2435457208
31
0.0000000000
0
SPLINE
5
2EC
100
AcDbEntity
8
0
100
AcDbSpline
62
7
6
CONTINUOUS
70
0
71
3
72
10
73
6
74
4
42
0.0000001000
43
0.0000001000
44
0.0000000001
12
1.3363574793
22
0.6676764819
32
0.0000000000
13
0.9150214982
23
1.1797655492
33
0.0000000000
40
0.0000000000
40
0.0000000000
40
0.0000000000
40
0.0000000000
40
0.1813965295
40
0.7074284423
40
1.0000000000
40
1.0000000000
40
1.0000000000
40
1.0000000000
10
9.4034990907
20
-7.8852993662
30
0.0000000000
10
9.4843026270
20
-7.8449279673
30
0.0000000000
10
9.7926356894
20
-7.6739461006
30
0.0000000000
10
10.1839719923
20
-7.3602144555
30
0.0000000000
10
10.4521777697
20
-7.0527621281
30
0.0000000000
10
10.5414141914
20
-6.9377068466
30
0.0000000000
11
9.4034990907
21
-7.8852993662
31
0.0000000000
11
9.6403556791
21
-7.7538920727
31
0.0000000000
11
10.2538018690
21
-7.2660636680
31
0.0000000000
11
10.5414141914
21
-6.9377068466
31
0.0000000000
0
SPLINE
5
2ED
100
AcDbEntity
8
0
100
AcDbSpline
62
9
6
CONTINUOUS
70
0
71
3
72
11
73
7
74
5
42
0.0000001000
43
0.0000001000
44
0.0000000001
12
1.4285849113
22
0.4011609791
32
0.0000000000
13
1.3223612812
23
-0.6611806406
33
0.0000000000
40
0.0000000000
40
0.0000000000
40
0.0000000000
40
0.0000000000
40
0.0986574826
40
0.3893810347
40
0.6918522922
40
1.0000000000
40
1.0000000000
40
1.0000000000
40
1.0000000000
10
12.8913835438
20
17.1260394738
30
0.0000000000
10
12.9383637408
20
17.1392319845
30
0.0000000000
10
13.1263582536
20
17.1821164219
30
0.0000000000
10
13.4709755868
20
17.1936115575
30
0.0000000000
10
13.9093007977
20
17.1039399702
30
0.0000000000
10
14.1891716149
20
16.9890796461
30
0.0000000000
10
14.3249991474
20
16.9211658798
30
0.0000000000
11
12.8913835438
21
17.1260394738
31
0.0000000000
11
13.0340106611
21
17.1586255443
31
0.0000000000
11
13.4634418538
21
17.1768738480
31
0.0000000000
11
13.9023506282
21
17.0912270849
31
0.0000000000
11
14.3249991474
21
16.9211658798
31
0.0000000000
0
SPLINE
5
2EE
100
AcDbEntity
8
0
100
AcDbSpline
62
7
6
CONTINUOUS
70
0
71
3
72
9
73
5
74
3
42
0.0000001000
43
0.0000001000
44
0.0000000001
12
0.4862172598
22
0.4057085718
32
0.0000000000
13
0.3879738403
23
0.5000938976
33
0.0000000000
40
0.0000000000
40
0.0000000000
40
0.0000000000
40
0.0000000000
40
0.7996036875
40
1.0000000000
40
1.0000000000
40
1.0000000000
40
1.0000000000
10
8.7689737621
20
-6.6057311348
30
0.0000000000
10
8.8985674667
20
-6.4975957782
30
0.0000000000
10
9.0482564982
20
-6.3474579090
30
0.0000000000
10
9.1809474198
20
-6.1833528795
30
0.0000000000
10
9.2068635955
20
-6.1499472218
30
0.0000000000
11
8.7689737621
21
-6.6057311348
31
0.0000000000
11
9.1270832554
21
-6.2485640623
31
0.0000000000
11
9.2068635955
21
-6.1499472218
31
0.0000000000
0
SPLINE
5
2EF
100
AcDbEntity
8
0
100
AcDbSpline
62
9
6
CONTINUOUS
70
0
71
3
72
9
73
5
74
3
42
0.0000001000
43
0.0000001000
44
0.0000000001
12
-0.6992685345
22
-0.0394046656
32
0.0000000000
13
-0.6992354212
23
-0.0399880293
33
0.0000000000
40
0.0000000000
40
0.0000000000
40
0.0000000000
40
0.0000000000
40
0.5689694892
40
1.0000000000
40
1.0000000000
40
1.0000000000
40
1.0000000000
10
10.2676316158
20
6.9166037223
30
0.0000000000
10
10.1350107955
20
6.9091303715
30
0.0000000000
10
9.9019246350
20
6.8959359609
30
0.0000000000
10
9.6688439473
20
6.8826453033
30
0.0000000000
10
9.5683800137
20
6.8768999497
30
0.0000000000
11
10.2676316158
21
6.9166037223
31
0.0000000000
11
9.8697747399
21
6.8940847797
31
0.0000000000
11
9.5683800137
21
6.8768999497
31
0.0000000000
0
SPLINE
5
2F0
100
AcDbEntity
8
0
100
AcDbSpline
62
7
6
CONTINUOUS
70
0
71
3
72
10
73
6
74
4
42
0.0000001000
43
0.0000001000
44
0.0000000001
12
0.0027141108
22
-0.0022549329
32
0.0000000000
13
0.0027609451
23
-0.0021973397
33
0.0000000000
40
0.0000000000
40
0.0000000000
40
0.0000000000
40
0.0000000000
40
0.3318477375
40
0.6651668399
40
1.0000000000
40
1.0000000000
40
1.0000000000
40
1.0000000000
10
10.4802534182
20
6.3312657030
30
0.0000000000
10
10.4805536420
20
6.3310162716
30
0.0000000000
10
10.4811571975
20
6.3305184366
30
0.0000000000
10
10.4820698282
20
6.3297764237
30
0.0000000000
10
10.4826830244
20
6.3292848793
30
0.0000000000
10
10.4829911764
20
6.3290396319
30
0.0000000000
11
10.4802534182
21
6.3312657030
31
0.0000000000
11
10.4811567326
21
6.3305206013
31
0.0000000000
11
10.4820692975
21
6.3297786007
31
0.0000000000
11
10.4829911764
21
6.3290396319
31
0.0000000000
0
SPLINE
5
2F1
100
AcDbEntity
8
0
100
AcDbSpline
62
9
6
CONTINUOUS
70
0
71
3
72
9
73
5
74
3
42
0.0000001000
43
0.0000001000
44
0.0000000001
12
-1.7149990349
22
-0.1034516703
32
0.0000000000
13
-1.7149073386
23
-0.1049609272
33
0.0000000000
40
0.0000000000
40
0.0000000000
40
0.0000000000
40
0.0000000000
40
0.4921987088
40
1.0000000000
40
1.0000000000
40
1.0000000000
40
1.0000000000
10
10.4829911726
20
6.3290396349
30
0.0000000000
10
10.2016177357
20
6.3120667087
30
0.0000000000
10
9.6299602554
20
6.2774357489
30
0.0000000000
10
9.0583179558
20
6.2425552997
30
0.0000000000
10
8.7680405689
20
6.2247888682
30
0.0000000000
11
10.4829911726
21
6.3290396349
31
0.0000000000
11
9.6388832661
21
6.2779156401
31
0.0000000000
11
8.7680405689
21
6.2247888682
31
0.0000000000
0
SPLINE
5
2F2
100
AcDbEntity
8
0
100
AcDbSpline
62
9
6
CONTINUOUS
70
0
71
3
72
10
73
6
74
4
42
0.0000001000
43
0.0000001000
44
0.0000000001
12
-4.4797703531
22
-2.2358502821
32
0.0000000000
13
-4.4793135085
23
-2.2367653862
33
0.0000000000
40
0.0000000000
40
0.0000000000
40
0.0000000000
40
0.0000000000
40
0.3343080470
40
0.6676414336
40
1.0000000000
40
1.0000000000
40
1.0000000000
40
1.0000000000
10
14.9597938995
20
8.5675764816
30
0.0000000000
10
14.4605861403
20
8.3184222346
30
0.0000000000
10
13.4636433608
20
7.8208054336
30
0.0000000000
10
11.9704636711
20
7.0753675561
30
0.0000000000
10
10.9764994901
20
6.5790684154
30
0.0000000000
10
10.4802534182
20
6.3312657030
30
0.0000000000
11
14.9597938995
21
8.5675764816
31
0.0000000000
11
13.4621965307
21
7.8200618318
31
0.0000000000
11
11.9690164945
21
7.0746240529
31
0.0000000000
11
10.4802534182
21
6.3312657030
31
0.0000000000
0
SPLINE
5
2F3
100
AcDbEntity
8
0
100
AcDbSpline
62
7
6
CONTINUOUS
70
0
71
3
72
11
73
7
74
5
42
0.0000001000
43
0.0000001000
44
0.0000000001
12
-0.4969758776
22
0.4128966501
32
0.0000000000
13
0.0887351186
23
0.6399958947
33
0.0000000000
40
0.0000000000
40
0.0000000000
40
0.0000000000
40
0.0000000000
40
0.2374581277
40
0.4920910404
40
0.7509425780
40
1.0000000000
40
1.0000000000
40
1.0000000000
40
1.0000000000
10
10.4802534182
20
6.3312657030
30
0.0000000000
10
10.4409164310
20
6.3639475915
30
0.0000000000
10
10.3703835963
20
6.4453318991
30
0.0000000000
10
10.2980200414
20
6.5915552885
30
0.0000000000
10
10.2600975229
20
6.7527463286
30
0.0000000000
10
10.2602650190
20
6.8634718714
30
0.0000000000
10
10.2676317323
20
6.9166037806
30
0.0000000000
11
10.4802534182
21
6.3312657030
31
0.0000000000
11
10.3782272918
21
6.4458528273
31
0.0000000000
11
10.3043147968
21
6.5928383477
31
0.0000000000
11
10.2662146329
21
6.7556894990
31
0.0000000000
11
10.2676317323
21
6.9166037806
31
0.0000000000
0
SPLINE
5
2F4
100
AcDbEntity
8
0
100
AcDbSpline
62
9
6
CONTINUOUS
70
0
71
3
72
10
73
6
74
4
42
0.0000001000
43
0.0000001000
44
0.0000000001
12
-4.4171866566
22
-2.2103441997
32
0.0000000000
13
-4.4167849798
23
-2.2111467347
33
0.0000000000
40
0.0000000000
40
0.0000000000
40
0.0000000000
40
0.0000000000
40
0.3342927584
40
0.6676261601
40
1.0000000000
40
1.0000000000
40
1.0000000000
40
1.0000000000
10
14.6846161154
20
9.1273518561
30
0.0000000000
10
14.1924049448
20
8.8810511696
30
0.0000000000
10
13.2094103945
20
8.3891261797
30
0.0000000000
10
11.7370826496
20
7.6522092861
30
0.0000000000
10
10.7569728771
20
7.1615794993
30
0.0000000000
10
10.2676316158
20
6.9166037223
30
0.0000000000
11
14.6846161154
21
9.1273518561
31
0.0000000000
11
13.2080053932
21
8.3884042550
31
0.0000000000
11
11.7356772488
21
7.6514874078
31
0.0000000000
11
10.2676316158
21
6.9166037223
31
0.0000000000
0
SPLINE
5
2F5
100
AcDbEntity
8
0
100
AcDbSpline
62
9
6
CONTINUOUS
70
0
71
3
72
9
73
5
74
3
42
0.0000001000
43
0.0000001000
44
0.0000000001
12
-3.0227783605
22
-1.5135539019
32
0.0000000000
13
-3.0224880032
23
-1.5141336542
33
0.0000000000
40
0.0000000000
40
0.0000000000
40
0.0000000000
40
0.0000000000
40
0.8125130726
40
1.0000000000
40
1.0000000000
40
1.0000000000
40
1.0000000000
10
15.2553486636
20
-3.2435457208
30
0.0000000000
10
14.4366663524
20
-3.6534731645
30
0.0000000000
10
13.4291136287
20
-4.1580711479
30
0.0000000000
10
12.4216087237
20
-4.6627645923
30
0.0000000000
10
12.2327163941
20
-4.7573913478
30
0.0000000000
11
15.2553486636
21
-3.2435457208
31
0.0000000000
11
12.7993984027
21
-4.4735211015
31
0.0000000000
11
12.2327163941
21
-4.7573913478
31
0.0000000000
0
SPLINE
5
2F6
100
AcDbEntity
8
0
100
AcDbSpline
62
9
6
CONTINUOUS
70
0
71
3
72
8
73
4
74
2
42
0.0000001000
43
0.0000001000
44
0.0000000001
12
0.1380355537
22
-0.0690177768
32
0.0000000000
13
0.1345907032
23
-0.0757229119
33
0.0000000000
40
0.0000000000
40
0.0000000000
40
0.0000000000
40
0.0000000000
40
1.0000000000
40
1.0000000000
40
1.0000000000
40
1.0000000000
10
14.3249991474
20
16.9211658798
30
0.0000000000
10
14.3710109987
20
16.8981599542
30
0.0000000000
10
14.4164550831
20
16.8739859448
30
0.0000000000
10
14.4613186508
20
16.8487449742
30
0.0000000000
11
14.3249991474
21
16.9211658798
31
0.0000000000
11
14.4613186508
21
16.8487449742
31
0.0000000000
0
SPLINE
5
2F7
100
AcDbEntity
8
0
100
AcDbSpline
62
9
6
CONTINUOUS
70
0
71
3
72
8
73
4
74
2
42
0.0000001000
43
0.0000001000
44
0.0000000001
12
0.0235071869
22
-0.0132255245
32
0.0000000000
13
0.0234007311
23
-0.0134191942
33
0.0000000000
40
0.0000000000
40
0.0000000000
40
0.0000000000
40
0.0000000000
40
1.0000000000
40
1.0000000000
40
1.0000000000
40
1.0000000000
10
14.4613186508
20
16.8487449742
30
0.0000000000
10
14.4691543798
20
16.8443364660
30
0.0000000000
10
14.4769724001
20
16.8398954101
30
0.0000000000
10
14.4847726438
20
16.8354223454
30
0.0000000000
11
14.4613186508
21
16.8487449742
31
0.0000000000
11
14.4847726438
21
16.8354223454
31
0.0000000000
0
SPLINE
5
2F8
100
AcDbEntity
8
0
100
AcDbSpline
62
9
6
CONTINUOUS
70
0
71
3
72
21
73
17
74
15
42
0.0000001000
43
0.0000001000
44
0.0000000001
12
6.6541322915
22
-3.8158249414
32
0.0000000000
13
-6.6516513213
23
-3.8493761606
33
0.0000000000
40
0.0000000000
40
0.0000000000
40
0.0000000000
40
0.0000000000
40
0.0396626961
40
0.1120856834
40
0.1918920546
40
0.2763669694
40
0.3624811472
40
0.4485931807
40
0.5334783763
40
0.6155667949
40
0.6933899010
40
0.7659494037
40
0.8327366817
40
0.8937893190
40
0.9500214497
40
1.0000000000
40
1.0000000000
40
1.0000000000
40
1.0000000000
10
14.4847726438
20
16.8354223454
30
0.0000000000
10
14.5727462527
20
16.7849737104
30
0.0000000000
10
14.8149671798
20
16.6309011902
30
0.0000000000
10
15.1974042000
20
16.3220273314
30
0.0000000000
10
15.6174706704
20
15.8848579854
30
0.0000000000
10
16.0047075111
20
15.3739195105
30
0.0000000000
10
16.3416856139
20
14.8097802822
30
0.0000000000
10
16.6170418196
20
14.2120122788
30
0.0000000000
10
16.8231984504
20
13.5977706615
30
0.0000000000
10
16.9541291466
20
12.9847162166
30
0.0000000000
10
17.0057032442
20
12.3913204212
30
0.0000000000
10
16.9761236699
20
11.8351712982
30
0.0000000000
10
16.8656030249
20
11.3324892475
30
0.0000000000
10
16.6760445377
20
10.8981785945
30
0.0000000000
10
16.4162064738
20
10.5532249316
30
0.0000000000
10
16.1994034417
20
10.3843207134
30
0.0000000000
10
16.0885901449
20
10.3201919667
30
0.0000000000
11
14.4847726438
21
16.8354223454
31
0.0000000000
11
14.7418124470
21
16.6726347325
31
0.0000000000
11
15.1751665549
21
16.3257363418
31
0.0000000000
11
15.6003406233
21
15.8859736278
31
0.0000000000
11
15.9923931879
21
15.3706917281
31
0.0000000000
11
16.3312786116
21
14.8042948633
31
0.0000000000
11
16.6072374641
21
14.2047335618
31
0.0000000000
11
16.8134058249
21
13.5876457905
31
0.0000000000
11
16.9432208398
21
12.9720025992
31
0.0000000000
11
16.9924507912
21
12.3775490387
31
0.0000000000
11
16.9596464695
21
11.8223725824
31
0.0000000000
11
16.8457515592
21
11.3233012485
31
0.0000000000
11
16.6544378878
21
10.8962476014
31
0.0000000000
11
16.3919695741
21
10.5543819799
31
0.0000000000
11
16.0885901449
21
10.3201919667
31
0.0000000000
0
SPLINE
5
2F9
100
AcDbEntity
8
0
100
AcDbSpline
62
9
6
CONTINUOUS
70
0
71
3
72
9
73
5
74
3
42
0.0000001000
43
0.0000001000
44
0.0000000001
12
-0.0479122025
22
-0.0277272637
32
0.0000000000
13
-0.0489793391
23
-0.0257856459
33
0.0000000000
40
0.0000000000
40
0.0000000000
40
0.0000000000
40
0.0000000000
40
0.4882802511
40
1.0000000000
40
1.0000000000
40
1.0000000000
40
1.0000000000
10
16.0885901449
20
10.3201919667
30
0.0000000000
10
16.0807919508
20
10.3156790749
30
0.0000000000
10
16.0647320219
20
10.3065923467
30
0.0000000000
10
16.0484933355
20
10.2978306893
30
0.0000000000
10
16.0401387704
20
10.2934323479
30
0.0000000000
11
16.0885901449
21
10.3201919667
31
0.0000000000
11
16.0650658396
21
10.3068828377
31
0.0000000000
11
16.0401387704
21
10.2934323479
31
0.0000000000
0
SPLINE
5
2FA
100
AcDbEntity
8
0
100
AcDbSpline
62
9
6
CONTINUOUS
70
0
71
3
72
19
73
15
74
13
42
0.0000001000
43
0.0000001000
44
0.0000000001
12
4.9321907355
22
-4.5626665837
32
0.0000000000
13
-5.6880318188
23
-3.6115716295
33
0.0000000000
40
0.0000000000
40
0.0000000000
40
0.0000000000
40
0.0000000000
40
0.0891880832
40
0.1867909860
40
0.2861925679
40
0.3855039819
40
0.4832768376
40
0.5776505358
40
0.6669244491
40
0.7499743617
40
0.8262632863
40
0.8959348275
40
0.9602224355
40
1.0000000000
40
1.0000000000
40
1.0000000000
40
1.0000000000
10
15.1997494302
20
-3.1824126726
30
0.0000000000
10
15.3463803094
20
-3.3180578349
30
0.0000000000
10
15.6351732551
20
-3.6217839118
30
0.0000000000
10
16.0207197682
20
-4.1350765899
30
0.0000000000
10
16.3584954387
20
-4.7073750520
30
0.0000000000
10
16.6328382180
20
-5.3130361076
30
0.0000000000
10
16.8360465492
20
-5.9343629496
30
0.0000000000
10
16.9620232166
20
-6.5530704236
30
0.0000000000
10
17.0066918083
20
-7.1501166001
30
0.0000000000
10
16.9683990331
20
-7.7074676041
30
0.0000000000
10
16.8475378592
20
-8.2085505865
30
0.0000000000
10
16.6462068807
20
-8.6381207617
30
0.0000000000
10
16.3988527395
20
-8.9439108181
30
0.0000000000
10
16.2131350565
20
-9.0876081121
30
0.0000000000
10
16.1377163724
20
-9.1354946199
30
0.0000000000
11
15.1997494302
21
-3.1824126726
31
0.0000000000
11
15.6136923774
21
-3.6152342851
31
0.0000000000
11
16.0082753804
21
-4.1385168408
31
0.0000000000
11
16.3479274658
21
-4.7130893578
31
0.0000000000
11
16.6228468934
21
-5.3206324135
31
0.0000000000
11
16.8260001943
21
-5.9449290086
31
0.0000000000
11
16.9507192408
21
-6.5662294419
31
0.0000000000
11
16.9928645187
21
-7.1641971141
31
0.0000000000
11
16.9511801164
21
-7.7202955076
31
0.0000000000
11
16.8269064037
21
-8.2172528440
31
0.0000000000
11
16.6241602376
21
-8.6388632995
31
0.0000000000
11
16.3496241442
21
-8.9719891454
31
0.0000000000
11
16.1377163724
21
-9.1354946199
31
0.0000000000
0
SPLINE
5
2FB
100
AcDbEntity
8
0
100
AcDbSpline
62
9
6
CONTINUOUS
70
0
71
3
72
8
73
4
74
2
42
0.0000001000
43
0.0000001000
44
0.0000000001
12
-0.0952869782
22
-0.0605017268
32
0.0000000000
13
-0.0997650540
23
-0.0527244851
33
0.0000000000
40
0.0000000000
40
0.0000000000
40
0.0000000000
40
0.0000000000
40
1.0000000000
40
1.0000000000
40
1.0000000000
40
1.0000000000
10
16.1377163724
20
-9.1354946199
30
0.0000000000
10
16.1059540464
20
-9.1556618622
30
0.0000000000
10
16.0734059060
20
-9.1745804722
30
0.0000000000
10
16.0401508880
20
-9.1921553006
30
0.0000000000
11
16.1377163724
21
-9.1354946199
31
0.0000000000
11
16.0401508880
21
-9.1921553006
31
0.0000000000
0
SPLINE
5
2FC
100
AcDbEntity
8
0
100
AcDbSpline
62
7
6
CONTINUOUS
70
0
71
3
72
9
73
5
74
3
42
0.0000001000
43
0.0000001000
44
0.0000000001
12
0.5351807163
22
0.2674408752
32
0.0000000000
13
0.4751599520
23
0.3633418261
33
0.0000000000
40
0.0000000000
40
0.0000000000
40
0.0000000000
40
0.0000000000
40
0.4638790297
40
1.0000000000
40
1.0000000000
40
1.0000000000
40
1.0000000000
10
8.8608430931
20
-8.1566255055
30
0.0000000000
10
8.9435961303
20
-8.1152721009
30
0.0000000000
10
9.1180526082
20
-8.0182779199
30
0.0000000000
10
9.2823848215
20
-7.9049802251
30
0.0000000000
10
9.3672992264
20
-7.8400485010
30
0.0000000000
11
8.8608430931
21
-8.1566255055
31
0.0000000000
11
9.1032709564
21
-8.0217767165
31
0.0000000000
11
9.3672992264
21
-7.8400485010
31
0.0000000000
0
SPLINE
5
2FD
100
AcDbEntity
8
0
100
AcDbSpline
62
7
6
CONTINUOUS
70
0
71
3
72
19
73
15
74
13
42
0.0000001000
43
0.0000001000
44
0.0000000001
12
9.5209635852
22
7.2804205830
32
0.0000000000
13
-6.7584390651
23
9.8689974242
33
0.0000000000
40
0.0000000000
40
0.0000000000
40
0.0000000000
40
0.0000000000
40
0.0387072085
40
0.1074091861
40
0.1807985981
40
0.2601903467
40
0.3455530052
40
0.4370494613
40
0.5335552094
40
0.6345013486
40
0.7381722470
40
0.8435835076
40
0.9488534110
40
1.0000000000
40
1.0000000000
40
1.0000000000
40
1.0000000000
10
9.3672992264
20
-7.8400485010
30
0.0000000000
10
9.4901425338
20
-7.7461135819
30
0.0000000000
10
9.8125105142
20
-7.4611161355
30
0.0000000000
10
10.2577834063
20
-6.8871651524
30
0.0000000000
10
10.6473981041
20
-6.0891369438
30
0.0000000000
10
10.9087877567
20
-5.1723277298
30
0.0000000000
10
11.0384432165
20
-4.1559383349
30
0.0000000000
10
11.0342822619
20
-3.0636982860
30
0.0000000000
10
10.8969093567
20
-1.9179808110
30
0.0000000000
10
10.6297631688
20
-0.7458511642
30
0.0000000000
10
10.2385435218
20
0.4281843549
30
0.0000000000
10
9.7325520298
20
1.5762998806
30
0.0000000000
10
9.2249780748
20
2.4897621326
30
0.0000000000
10
8.8846951108
20
3.0126189930
30
0.0000000000
10
8.7694714090
20
3.1808741780
30
0.0000000000
11
9.3672992264
21
-7.8400485010
31
0.0000000000
11
9.7149755298
21
-7.5334341412
31
0.0000000000
11
10.2228639504
21
-6.8878091444
31
0.0000000000
11
10.6135192370
21
-6.1020669953
31
0.0000000000
11
10.8795994269
21
-5.1908549286
31
0.0000000000
11
11.0138660267
21
-4.1790661159
31
0.0000000000
11
11.0138660267
21
-3.0850672543
31
0.0000000000
11
10.8795994269
21
-1.9390118417
31
0.0000000000
11
10.6135192370
21
-0.7617195851
31
0.0000000000
11
10.2228639504
21
0.4146778506
31
0.0000000000
11
9.7149755298
21
1.5681912680
31
0.0000000000
11
9.1032709564
21
2.6682384166
31
0.0000000000
11
8.7694714090
21
3.1808741780
31
0.0000000000
0
SPLINE
5
2FE
100
AcDbEntity
8
0
100
AcDbSpline
62
7
6
CONTINUOUS
70
0
71
3
72
20
73
16
74
14
42
0.0000001000
43
0.0000001000
44
0.0000000001
12
6.8114356751
22
8.7801980983
32
0.0000000000
13
-8.6743869226
23
6.9036408692
33
0.0000000000
40
0.0000000000
40
0.0000000000
40
0.0000000000
40
0.0000000000
40
0.0194562454
40
0.0820730809
40
0.1500007381
40
0.2232312594
40
0.3019755176
40
0.3851419230
40
0.4722420826
40
0.5616430036
40
0.6524255435
40
0.7428726817
40
0.8318488557
40
0.9179171345
40
1.0000000000
40
1.0000000000
40
1.0000000000
40
1.0000000000
10
13.1634529713
20
-3.5574729524
30
0.0000000000
10
13.2076279593
20
-3.5005297229
30
0.0000000000
10
13.3850700265
20
-3.2533993025
30
0.0000000000
10
13.6404127367
20
-2.7572080495
30
0.0000000000
10
13.8564453499
20
-2.0319946151
30
0.0000000000
10
13.9635794025
20
-1.2235641208
30
0.0000000000
10
13.9600056636
20
-0.3522824930
30
0.0000000000
10
13.8462872146
20
0.5628365709
30
0.0000000000
10
13.6254959580
20
1.4984547639
30
0.0000000000
10
13.3026760648
20
2.4336129574
30
0.0000000000
10
12.8860767227
20
3.3444954654
30
0.0000000000
10
12.3852987535
20
4.2101299642
30
0.0000000000
10
11.8128135980
20
5.0089268438
30
0.0000000000
10
11.1822179155
20
5.7219258219
30
0.0000000000
10
10.7203306844
20
6.1401494265
30
0.0000000000
10
10.4829911726
20
6.3290396349
30
0.0000000000
11
13.1634529713
21
-3.5574729524
31
0.0000000000
11
13.2896364096
21
-3.3819912053
31
0.0000000000
11
13.6120862396
21
-2.7672381139
31
0.0000000000
11
13.8320945191
21
-2.0470286737
31
0.0000000000
11
13.9431655121
21
-1.2428095909
31
0.0000000000
11
13.9431655121
21
-0.3698299686
31
0.0000000000
11
13.8320945191
21
0.5454601072
31
0.0000000000
11
13.6120862396
21
1.4856778268
31
0.0000000000
11
13.2896364096
21
2.4228807484
31
0.0000000000
11
12.8712832288
21
3.3382497750
31
0.0000000000
11
12.3687574590
21
4.2059576338
31
0.0000000000
11
11.7931495186
21
5.0070111748
31
0.0000000000
11
11.1594746201
21
5.7203885546
31
0.0000000000
11
10.4829911726
21
6.3290396349
31
0.0000000000
0
SPLINE
5
2FF
100
AcDbEntity
8
0
100
AcDbSpline
62
7
6
CONTINUOUS
70
0
71
3
72
19
73
15
74
13
42
0.0000001000
43
0.0000001000
44
0.0000000001
12
7.3557100769
22
9.4839447553
32
0.0000000000
13
-7.4645429570
23
9.3729104495
33
0.0000000000
40
0.0000000000
40
0.0000000000
40
0.0000000000
40
0.0000000000
40
0.0322698769
40
0.1056216230
40
0.1849806348
40
0.2703198810
40
0.3618007017
40
0.4582984340
40
0.5592389186
40
0.6629037383
40
0.7683023096
40
0.8735493024
40
0.9774719811
40
1.0000000000
40
1.0000000000
40
1.0000000000
40
1.0000000000
10
10.5414141914
20
-6.9377068466
30
0.0000000000
10
10.6205368110
20
-6.8356916033
30
0.0000000000
10
10.8624731895
20
-6.4884828822
30
0.0000000000
10
11.1890401279
20
-5.8210844537
30
0.0000000000
10
11.4512408181
20
-4.9031519832
30
0.0000000000
10
11.5812960254
20
-3.8852910946
30
0.0000000000
10
11.5771154100
20
-2.7913272280
30
0.0000000000
10
11.4393079647
20
-1.6437477092
30
0.0000000000
10
11.1713325497
20
-0.4697333864
30
0.0000000000
10
10.7789266950
20
0.7060827396
30
0.0000000000
10
10.2714460330
20
1.8557552724
30
0.0000000000
10
9.6597644846
20
2.9546911183
30
0.0000000000
10
9.1355745094
20
3.7186299583
30
0.0000000000
10
8.8252829003
20
4.1171561160
30
0.0000000000
10
8.7692291120
20
4.1875404840
30
0.0000000000
11
10.5414141914
21
-6.9377068466
31
0.0000000000
11
10.7631933668
21
-6.6203694900
31
0.0000000000
11
11.1550414636
21
-5.8340165168
31
0.0000000000
11
11.4219485141
21
-4.9217308344
31
0.0000000000
11
11.5566383043
21
-3.9084864695
31
0.0000000000
11
11.5566383043
21
-2.8127680283
31
0.0000000000
11
11.4219485141
21
-1.6648338732
31
0.0000000000
11
11.1550414636
21
-0.4856411403
31
0.0000000000
11
10.7631933668
21
0.6925599297
31
0.0000000000
11
10.2538018690
21
1.8476456055
31
0.0000000000
11
9.6403556791
21
2.9489202001
31
0.0000000000
11
8.9350754050
21
3.9745720522
31
0.0000000000
11
8.7692291120
21
4.1875404840
31
0.0000000000
0
SPLINE
5
300
100
AcDbEntity
8
0
100
AcDbSpline
62
7
6
CONTINUOUS
70
0
71
3
72
9
73
5
74
3
42
0.0000001000
43
0.0000001000
44
0.0000000001
12
-0.3137223662
22
0.1893675399
32
0.0000000000
13
-0.2962899100
23
0.2156121848
33
0.0000000000
40
0.0000000000
40
0.0000000000
40
0.0000000000
40
0.0000000000
40
0.9029660475
40
1.0000000000
40
1.0000000000
40
1.0000000000
40
1.0000000000
10
9.9522153879
20
-1.7902302250
30
0.0000000000
10
9.8577885063
20
-1.7332327387
30
0.0000000000
10
9.7557841397
20
-1.6657192722
30
0.0000000000
10
9.6567348644
20
-1.5942291329
30
0.0000000000
10
9.6471514707
20
-1.5872552321
30
0.0000000000
11
9.9522153879
21
-1.7902302250
31
0.0000000000
11
9.6759849737
21
-1.6080656318
31
0.0000000000
11
9.6471514707
21
-1.5872552321
31
0.0000000000
0
SPLINE
5
301
100
AcDbEntity
8
0
100
AcDbSpline
62
7
6
CONTINUOUS
70
0
71
3
72
9
73
5
74
3
42
0.0000001000
43
0.0000001000
44
0.0000000001
12
-0.7259141490
22
0.5930901362
32
0.0000000000
13
-0.6158252833
23
0.7066698579
33
0.0000000000
40
0.0000000000
40
0.0000000000
40
0.0000000000
40
0.0000000000
40
0.4028192962
40
1.0000000000
40
1.0000000000
40
1.0000000000
40
1.0000000000
10
9.4376118030
20
-1.4255002160
30
0.0000000000
10
9.3401410607
20
-1.3458641656
30
0.0000000000
10
9.1057891612
20
-1.1388888204
30
0.0000000000
10
8.8897988865
20
-0.9126682747
30
0.0000000000
10
8.7672125611
20
-0.7719984070
30
0.0000000000
11
9.4376118030
21
-1.4255002160
31
0.0000000000
11
9.1543175457
21
-1.1759940484
31
0.0000000000
11
8.7672125611
21
-0.7719984070
31
0.0000000000
0
SPLINE
5
302
100
AcDbEntity
8
0
100
AcDbSpline
62
9
6
CONTINUOUS
70
0
71
3
72
25
73
21
74
19
42
0.0000001000
43
0.0000001000
44
0.0000000001
12
0.0071774016
22
-0.6385868757
32
0.0000000000
13
0.4969959646
23
-0.4010482814
33
0.0000000000
40
0.0000000000
40
0.0000000000
40
0.0000000000
40
0.0000000000
40
0.0509206032
40
0.1033404931
40
0.1570565570
40
0.2119482039
40
0.2679043162
40
0.3246795643
40
0.3821420684
40
0.4400208108
40
0.4981297549
40
0.5562918427
40
0.6142766142
40
0.6719415535
40
0.7289774607
40
0.7853074842
40
0.8406123190
40
0.8948169592
40
0.9479797201
40
1.0000000000
40
1.0000000000
40
1.0000000000
40
1.0000000000
10
14.6846161672
20
9.1273518275
30
0.0000000000
10
14.6847379931
20
9.1165127512
30
0.0000000000
10
14.6856506299
20
9.0945183843
30
0.0000000000
10
14.6889083599
20
9.0612282844
30
0.0000000000
10
14.6940553562
20
9.0273222519
30
0.0000000000
10
14.7010620353
20
8.9929838958
30
0.0000000000
10
14.7098909139
20
8.9583964638
30
0.0000000000
10
14.7204967745
20
8.9237398587
30
0.0000000000
10
14.7328167957
20
8.8892204955
30
0.0000000000
10
14.7467830068
20
8.8550271708
30
0.0000000000
10
14.7623152522
20
8.8213522711
30
0.0000000000
10
14.7793295729
20
8.7883759850
30
0.0000000000
10
14.7977393252
20
8.7562667196
30
0.0000000000
10
14.8174366746
20
8.7252140397
30
0.0000000000
10
14.8383217164
20
8.6953759640
30
0.0000000000
10
14.8602642354
20
8.6669379643
30
0.0000000000
10
14.8831537098
20
8.6400424191
30
0.0000000000
10
14.9068904349
20
8.6148078410
30
0.0000000000
10
14.9314046466
20
8.5913277249
30
0.0000000000
10
14.9484144537
20
8.5767446151
30
0.0000000000
10
14.9570324101
20
8.5697904005
30
0.0000000000
11
14.6846161672
21
9.1273518275
31
0.0000000000
11
14.6859362482
21
9.0948593494
31
0.0000000000
11
14.6891719853
21
9.0615393253
31
0.0000000000
11
14.6942997616
21
9.0276201954
31
0.0000000000
11
14.7012910847
21
8.9932691341
31
0.0000000000
11
14.7101156653
21
8.9586407664
31
0.0000000000
11
14.7207153254
21
8.9239664878
31
0.0000000000
11
14.7330429452
21
8.8894019350
31
0.0000000000
11
14.7470148483
21
8.8551814026
31
0.0000000000
11
14.7625559366
21
8.8214823941
31
0.0000000000
11
14.7795879814
21
8.7884736354
31
0.0000000000
11
14.7980100569
21
8.7563504914
31
0.0000000000
11
14.8177417386
21
8.7252563694
31
0.0000000000
11
14.8386368502
21
8.6954209577
31
0.0000000000
11
14.8606230318
21
8.6669476673
31
0.0000000000
11
14.8835260878
21
8.6400609799
31
0.0000000000
11
14.9072582369
21
8.6148599640
31
0.0000000000
11
14.9317930083
21
8.5913923693
31
0.0000000000
11
14.9570324101
21
8.5697904005
31
0.0000000000
0
SPLINE
5
303
100
AcDbEntity
8
0
100
AcDbSpline
62
7
6
CONTINUOUS
70
0
71
3
72
11
73
7
74
5
42
0.0000001000
43
0.0000001000
44
0.0000000001
12
0.3105247145
22
-0.2264673233
32
0.0000000000
13
0.1858986040
23
-0.3372916645
33
0.0000000000
40
0.0000000000
40
0.0000000000
40
0.0000000000
40
0.0000000000
40
0.2988363160
40
0.6150634317
40
0.9569425566
40
1.0000000000
40
1.0000000000
40
1.0000000000
40
1.0000000000
10
14.6846161154
20
9.1273518561
30
0.0000000000
10
14.7155481360
20
9.1047929693
30
0.0000000000
10
14.7790582394
20
9.0581149545
30
0.0000000000
10
14.8707116396
20
8.9761168988
30
0.0000000000
10
14.9258174510
20
8.9042061485
30
0.0000000000
10
14.9503177394
20
8.8612901374
30
0.0000000000
10
14.9529858456
20
8.8564491652
30
0.0000000000
11
14.6846161154
21
9.1273518561
31
0.0000000000
11
14.7761763867
21
9.0580124289
31
0.0000000000
11
14.8656434295
21
8.9757513070
31
0.0000000000
11
14.9447647582
21
8.8708479534
31
0.0000000000
11
14.9529858456
21
8.8564491652
31
0.0000000000
0
SPLINE
5
304
100
AcDbEntity
8
0
100
AcDbSpline
62
9
6
CONTINUOUS
70
0
71
3
72
9
73
5
74
3
42
0.0000001000
43
0.0000001000
44
0.0000000001
12
0.0027544395
22
-0.0022226827
32
0.0000000000
13
0.0027685596
23
-0.0022050699
33
0.0000000000
40
0.0000000000
40
0.0000000000
40
0.0000000000
40
0.0000000000
40
0.5002698515
40
1.0000000000
40
1.0000000000
40
1.0000000000
40
1.0000000000
10
14.9570324086
20
8.5697903942
30
0.0000000000
10
14.9574917296
20
8.5694197471
30
0.0000000000
10
14.9584110571
20
8.5686803153
30
0.0000000000
10
14.9593327231
20
8.5679438002
30
0.0000000000
10
14.9597939007
20
8.5675764869
30
0.0000000000
11
14.9570324086
21
8.5697903942
31
0.0000000000
11
14.9584121385
21
8.5686806462
31
0.0000000000
11
14.9597939007
21
8.5675764869
31
0.0000000000
0
SPLINE
5
305
100
AcDbEntity
8
0
100
AcDbSpline
62
9
6
CONTINUOUS
70
0
71
3
72
8
73
4
74
2
42
0.0000001000
43
0.0000001000
44
0.0000000001
12
0.0454071027
22
-0.0353390746
32
0.0000000000
13
0.0451132065
23
-0.0357169763
33
0.0000000000
40
0.0000000000
40
0.0000000000
40
0.0000000000
40
0.0000000000
40
1.0000000000
40
1.0000000000
40
1.0000000000
40
1.0000000000
10
14.9597938995
20
8.5675764816
30
0.0000000000
10
14.9749296004
20
8.5557967901
30
0.0000000000
10
14.9900163197
20
8.5439535171
30
0.0000000000
10
15.0050540552
20
8.5320478583
30
0.0000000000
11
14.9597938995
21
8.5675764816
31
0.0000000000
11
15.0050540552
21
8.5320478583
31
0.0000000000
0
SPLINE
5
306
100
AcDbEntity
8
0
100
AcDbSpline
62
9
6
CONTINUOUS
70
0
71
3
72
52
73
48
74
46
42
0.0000001000
43
0.0000001000
44
0.0000000001
12
9.2578434983
22
-7.3296092798
32
0.0000000000
13
-9.9847415749
23
-6.3086736538
33
0.0000000000
40
0.0000000000
40
0.0000000000
40
0.0000000000
40
0.0000000000
40
0.0182172092
40
0.0417310999
40
0.0656447784
40
0.0899317586
40
0.1145632541
40
0.1395084305
40
0.1647346460
40
0.1902076840
40
0.2158919769
40
0.2417508241
40
0.2677466038
40
0.2938409810
40
0.3199951126
40
0.3461698487
40
0.3723259348
40
0.3984242112
40
0.4244258146
40
0.4502923798
40
0.4759862448
40
0.5014706580
40
0.5267099903
40
0.5516699525
40
0.5763178190
40
0.6006226597
40
0.6245555803
40
0.6480899740
40
0.6712017844
40
0.6938697815
40
0.7160758518
40
0.7378053034
40
0.7590471852
40
0.7797946185
40
0.8000451399
40
0.8198010478
40
0.8390697444
40
0.8578640619
40
0.8762025525
40
0.8941097209
40
0.9116161678
40
0.9287586126
40
0.9455797563
40
0.9621279519
40
0.9784566537
40
0.9946236351
40
1.0000000000
40
1.0000000000
40
1.0000000000
40
1.0000000000
10
15.0050540552
20
8.5320478583
30
0.0000000000
10
15.0612714125
20
8.4875395164
30
0.0000000000
10
15.1884831909
20
8.3835846829
30
0.0000000000
10
15.3829407121
20
8.2133779731
30
0.0000000000
10
15.5884490611
20
8.0198017381
30
0.0000000000
10
15.7900773294
20
7.8159579892
30
0.0000000000
10
15.9873445115
20
7.6023339527
30
0.0000000000
10
16.1797782732
20
7.3794415298
30
0.0000000000
10
16.3669181356
20
7.1478145115
30
0.0000000000
10
16.5483160538
20
6.9080077409
30
0.0000000000
10
16.7235376671
20
6.6605956708
30
0.0000000000
10
16.8921633210
20
6.4061710197
30
0.0000000000
10
17.0537891029
20
6.1453433400
30
0.0000000000
10
17.2080278235
20
5.8787375545
30
0.0000000000
10
17.3545099588
20
5.6069924512
30
0.0000000000
10
17.4928845462
20
5.3307591429
30
0.0000000000
10
17.6228200346
20
5.0506994971
30
0.0000000000
10
17.7440050840
20
4.7674845376
30
0.0000000000
10
17.8561493159
20
4.4817928237
30
0.0000000000
10
17.9589840095
20
4.1943088101
30
0.0000000000
10
18.0522627437
20
3.9057211911
30
0.0000000000
10
18.1357619824
20
3.6167212346
30
0.0000000000
10
18.2092816007
20
3.3280011086
30
0.0000000000
10
18.2726453511
20
3.0402522050
30
0.0000000000
10
18.3257012671
20
2.7541634656
30
0.0000000000
10
18.3683220023
20
2.4704197144
30
0.0000000000
10
18.4004051032
20
2.1897000012
30
0.0000000000
10
18.4218732137
20
1.9126759628
30
0.0000000000
10
18.4326742100
20
1.6400102069
30
0.0000000000
10
18.4327812634
20
1.3723547266
30
0.0000000000
10
18.4221928311
20
1.1103493528
30
0.0000000000
10
18.4009325753
20
0.8546202542
30
0.0000000000
10
18.3690492113
20
0.6057784957
30
0.0000000000
10
18.3266162907
20
0.3644186664
30
0.0000000000
10
18.2737319270
20
0.1311175905
30
0.0000000000
10
18.2105184789
20
-0.0935668666
30
0.0000000000
10
18.1371222103
20
-0.3090968876
30
0.0000000000
10
18.0537129582
20
-0.5149556846
30
0.0000000000
10
17.9604838415
20
-0.7106483801
30
0.0000000000
10
17.8576510518
20
-0.8957028139
30
0.0000000000
10
17.7454537589
20
-1.0696703250
30
0.0000000000
10
17.6241541464
20
-1.2321265833
30
0.0000000000
10
17.4940375574
20
-1.3826725667
30
0.0000000000
10
17.3554126740
20
-1.5209357786
30
0.0000000000
10
17.2086115967
20
-1.6465717709
30
0.0000000000
10
17.0880266508
20
-1.7344585377
30
0.0000000000
10
17.0169271211
20
-1.7807146686
30
0.0000000000
10
16.9990332499
20
-1.7920205790
30
0.0000000000
11
15.0050540552
21
8.5320478583
31
0.0000000000
11
15.1716522483
21
8.3959696426
31
0.0000000000
11
15.3806299858
21
8.2131739836
31
0.0000000000
11
15.5862255454
21
8.0196282319
31
0.0000000000
11
15.7879454777
21
7.8157969159
31
0.0000000000
11
15.9853056357
21
7.6021692504
31
0.0000000000
11
16.1778323358
21
7.3792579624
31
0.0000000000
11
16.3650634954
21
7.1475980605
31
0.0000000000
11
16.5465497417
21
6.9077455508
31
0.0000000000
11
16.7218554903
21
6.6602761024
31
0.0000000000
11
16.8905599903
21
6.4057836659
31
0.0000000000
11
17.0522583348
21
6.1448790476
31
0.0000000000
11
17.2065624321
21
5.8781884438
31
0.0000000000
11
17.3531019376
21
5.6063519376
31
0.0000000000
11
17.4915251422
21
5.3300219629
31
0.0000000000
11
17.6214998170
21
5.0498617382
31
0.0000000000
11
17.7427140102
21
4.7665436750
31
0.0000000000
11
17.8548767960
21
4.4807477641
31
0.0000000000
11
17.9577189730
21
4.1931599432
31
0.0000000000
11
18.0509937100
21
3.9044704507
31
0.0000000000
11
18.1344771387
21
3.6153721693
31
0.0000000000
11
18.2079688907
21
3.3265589628
31
0.0000000000
11
18.2712925789
21
3.0387240105
31
0.0000000000
11
18.3242962201
21
2.7525581443
31
0.0000000000
11
18.3668526007
21
2.4687481897
31
0.0000000000
11
18.3988595812
21
2.1879753180
31
0.0000000000
11
18.4202403416
21
1.9109134111
31
0.0000000000
11
18.4309435663
21
1.6382274444
31
0.0000000000
11
18.4309435663
21
1.3705718905
31
0.0000000000
11
18.4202403416
21
1.1085891484
31
0.0000000000
11
18.3988595812
21
0.8529080020
31
0.0000000000
11
18.3668526007
21
0.6041421108
31
0.0000000000
11
18.3242962201
21
0.3628885367
31
0.0000000000
11
18.2712925789
21
0.1297263118
31
0.0000000000
11
18.2079688907
21
-0.0947849523
31
0.0000000000
11
18.1344771387
21
-0.3101064068
31
0.0000000000
11
18.0509937100
21
-0.5157212596
31
0.0000000000
11
17.9577189730
21
-0.7111360150
31
0.0000000000
11
17.8548767960
21
-0.8958816590
31
0.0000000000
11
17.7427140102
21
-1.0695147840
31
0.0000000000
11
17.6214998170
21
-1.2316186540
31
0.0000000000
11
17.4915251422
21
-1.3818042039
31
0.0000000000
11
17.3531019376
21
-1.5197109740
31
0.0000000000
11
17.2065624321
21
-1.6450079748
31
0.0000000000
11
17.0522583348
21
-1.7573944813
31
0.0000000000
11
16.9990332499
21
-1.7920205790
31
0.0000000000
0
SPLINE
5
307
100
AcDbEntity
8
0
100
AcDbSpline
62
9
6
CONTINUOUS
70
0
71
3
72
9
73
5
74
3
42
0.0000001000
43
0.0000001000
44
0.0000000001
12
-0.1561746535
22
-0.0986760563
32
0.0000000000
13
-0.1633701918
23
-0.0862425606
33
0.0000000000
40
0.0000000000
40
0.0000000000
40
0.0000000000
40
0.0000000000
40
0.6834446134
40
1.0000000000
40
1.0000000000
40
1.0000000000
40
1.0000000000
10
16.9990332499
20
-1.7920205790
30
0.0000000000
10
16.9634543413
20
-1.8145004521
30
0.0000000000
10
16.9105269970
20
-1.8460169777
30
0.0000000000
10
16.8564253039
20
-1.8754369424
30
0.0000000000
10
16.8391867325
20
-1.8845371247
30
0.0000000000
11
16.9990332499
21
-1.7920205790
31
0.0000000000
11
16.8905599903
21
-1.8566007551
31
0.0000000000
11
16.8391867325
21
-1.8845371247
31
0.0000000000
0
SPLINE
5
308
100
AcDbEntity
8
0
100
AcDbSpline
62
9
6
CONTINUOUS
70
0
71
3
72
8
73
4
74
2
42
0.0000001000
43
0.0000001000
44
0.0000000001
12
0.0679484420
22
0.0328159711
32
0.0000000000
13
0.0732881621
23
0.0193587960
33
0.0000000000
40
0.0000000000
40
0.0000000000
40
0.0000000000
40
0.0000000000
40
1.0000000000
40
1.0000000000
40
1.0000000000
40
1.0000000000
10
14.9597938995
20
8.5675764816
30
0.0000000000
10
14.9824433802
20
8.5785151387
30
0.0000000000
10
15.0059564388
20
8.5878926312
30
0.0000000000
10
15.0303858262
20
8.5943455632
30
0.0000000000
11
14.9597938995
21
8.5675764816
31
0.0000000000
11
15.0303858262
21
8.5943455632
31
0.0000000000
0
SPLINE
5
309
100
AcDbEntity
8
0
100
AcDbSpline
62
9
6
CONTINUOUS
70
0
71
3
72
9
73
5
74
3
42
0.0000001000
43
0.0000001000
44
0.0000000001
12
0.0621732835
22
0.0164228420
32
0.0000000000
13
0.0649988099
23
0.0003805231
33
0.0000000000
40
0.0000000000
40
0.0000000000
40
0.0000000000
40
0.0000000000
40
0.5221641866
40
1.0000000000
40
1.0000000000
40
1.0000000000
40
1.0000000000
10
15.0303858262
20
8.5943455632
30
0.0000000000
10
15.0412073802
20
8.5972040365
30
0.0000000000
10
15.0622761567
20
8.6015792920
30
0.0000000000
10
15.0840212143
20
8.6034151480
30
0.0000000000
10
15.0943741340
20
8.6034757572
30
0.0000000000
11
15.0303858262
21
8.5943455632
31
0.0000000000
11
15.0633944930
21
8.6010808589
31
0.0000000000
11
15.0943741340
21
8.6034757572
31
0.0000000000
0
SPLINE
5
30A
100
AcDbEntity
8
0
100
AcDbSpline
62
9
6
CONTINUOUS
70
0
71
3
72
9
73
5
74
3
42
0.0000001000
43
0.0000001000
44
0.0000000001
12
0.0943354388
22
0.0005522688
32
0.0000000000
13
0.0746772414
23
-0.0581166910
33
0.0000000000
40
0.0000000000
40
0.0000000000
40
0.0000000000
40
0.0000000000
40
0.5948351435
40
1.0000000000
40
1.0000000000
40
1.0000000000
40
1.0000000000
10
15.0943741340
20
8.6034757572
30
0.0000000000
10
15.1130788121
20
8.6035852601
30
0.0000000000
10
15.1443173657
20
8.5992880632
30
0.0000000000
10
15.1720074455
20
8.5835101068
30
0.0000000000
10
15.1820929767
20
8.5756611598
30
0.0000000000
11
15.0943741340
21
8.6034757572
31
0.0000000000
11
15.1489868387
21
8.5944107887
31
0.0000000000
11
15.1820929767
21
8.5756611598
31
0.0000000000
0
SPLINE
5
30B
100
AcDbEntity
8
0
100
AcDbSpline
62
7
6
CONTINUOUS
70
0
71
3
72
20
73
16
74
14
42
0.0000001000
43
0.0000001000
44
0.0000000001
12
-0.0000951869
22
0.6887590431
32
0.0000000000
13
-0.6629242384
23
-0.1872502411
33
0.0000000000
40
0.0000000000
40
0.0000000000
40
0.0000000000
40
0.0000000000
40
0.0649432360
40
0.1474594084
40
0.2287883878
40
0.3090579594
40
0.3886148648
40
0.4676954641
40
0.5465193081
40
0.6252657091
40
0.7040959917
40
0.7831769412
40
0.8626677597
40
0.9427029398
40
1.0000000000
40
1.0000000000
40
1.0000000000
40
1.0000000000
10
12.9346055623
20
-19.2147693583
30
0.0000000000
10
12.9346035017
20
-19.1998592780
30
0.0000000000
10
12.9327221467
20
-19.1659767832
30
0.0000000000
10
12.9230583834
20
-19.1141967563
30
0.0000000000
10
12.9047641176
20
-19.0610391745
30
0.0000000000
10
12.8791563022
20
-19.0117614933
30
0.0000000000
10
12.8468586741
20
-18.9672210071
30
0.0000000000
10
12.8085637340
20
-18.9281825228
30
0.0000000000
10
12.7650605087
20
-18.8953548735
30
0.0000000000
10
12.7172245371
20
-18.8693618874
30
0.0000000000
10
12.6660093626
20
-18.8507231195
30
0.0000000000
10
12.6124296205
20
-18.8398482388
30
0.0000000000
10
12.5575503568
20
-18.8370198743
30
0.0000000000
10
12.5078606803
20
-18.8418470935
30
0.0000000000
10
12.4770465262
20
-18.8488456291
30
0.0000000000
10
12.4643853228
20
-18.8524219252
30
0.0000000000
11
12.9346055623
21
-19.2147693583
31
0.0000000000
11
12.9321031536
21
-19.1701133474
31
0.0000000000
11
12.9216492232
21
-19.1142840548
31
0.0000000000
11
12.9034057616
21
-19.0613576399
31
0.0000000000
11
12.8779114833
21
-19.0123377068
31
0.0000000000
11
12.8457537850
21
-18.9680113586
31
0.0000000000
11
12.8076288227
21
-18.9291574244
31
0.0000000000
11
12.7643159009
21
-18.8964783517
31
0.0000000000
11
12.7166882562
21
-18.8705986958
31
0.0000000000
11
12.6656983552
21
-18.8520395486
31
0.0000000000
11
12.6123522796
21
-18.8412061093
31
0.0000000000
11
12.5577083184
21
-18.8383776963
31
0.0000000000
11
12.5028733980
21
-18.8436918544
31
0.0000000000
11
12.4643853228
21
-18.8524219252
31
0.0000000000
0
SPLINE
5
30C
100
AcDbEntity
8
0
100
AcDbSpline
62
7
6
CONTINUOUS
70
0
71
3
72
8
73
4
74
2
42
0.0000001000
43
0.0000001000
44
0.0000000001
12
-3.6962729734
22
-1.0450456276
32
0.0000000000
13
-3.6962729734
23
-1.0450456276
33
0.0000000000
40
0.0000000000
40
0.0000000000
40
0.0000000000
40
0.0000000000
40
1.0000000000
40
1.0000000000
40
1.0000000000
40
1.0000000000
10
12.4643135311
20
-18.8524415100
30
0.0000000000
10
11.2322225399
20
-19.2007900525
30
0.0000000000
10
10.0001315488
20
-19.5491385951
30
0.0000000000
10
8.7680405576
20
-19.8974871376
30
0.0000000000
11
12.4643135311
21
-18.8524415100
31
0.0000000000
11
8.7680405576
21
-19.8974871376
31
0.0000000000
0
SPLINE
5
30D
100
AcDbEntity
8
0
100
AcDbSpline
62
7
6
CONTINUOUS
70
0
71
3
72
8
73
4
74
2
42
0.0000001000
43
0.0000001000
44
0.0000000001
12
4.0026525187
22
2.8773192551
32
0.0000000000
13
4.0026525187
23
2.8773192551
33
0.0000000000
40
0.0000000000
40
0.0000000000
40
0.0000000000
40
0.0000000000
40
1.0000000000
40
1.0000000000
40
1.0000000000
40
1.0000000000
10
8.7561097055
20
12.3235408398
30
0.0000000000
10
10.0903272117
20
13.2826472581
30
0.0000000000
10
11.4245447180
20
14.2417536765
30
0.0000000000
10
12.7587622242
20
15.2008600948
30
0.0000000000
11
8.7561097055
21
12.3235408398
31
0.0000000000
11
12.7587622242
21
15.2008600948
31
0.0000000000
0
SPLINE
5
30E
100
AcDbEntity
8
0
100
AcDbSpline
62
7
6
CONTINUOUS
70
0
71
3
72
14
73
10
74
8
42
0.0000001000
43
0.0000001000
44
0.0000000001
12
0.3249620118
22
0.2336503082
32
0.0000000000
13
0.0000368873
23
0.4002181510
33
0.0000000000
40
0.0000000000
40
0.0000000000
40
0.0000000000
40
0.0000000000
40
0.1175603318
40
0.2693575356
40
0.4206936303
40
0.5727134892
40
0.7246414738
40
0.8774296458
40
1.0000000000
40
1.0000000000
40
1.0000000000
40
1.0000000000
10
12.7587775752
20
15.2008720761
30
0.0000000000
10
12.7715117891
20
15.2100280787
30
0.0000000000
10
12.7994853710
20
15.2327362788
30
0.0000000000
10
12.8381703957
20
15.2736104837
30
0.0000000000
10
12.8733194929
20
15.3233294980
30
0.0000000000
10
12.9012097996
20
15.3774665743
30
0.0000000000
10
12.9213623321
20
15.4351478007
30
0.0000000000
10
12.9323665615
20
15.4912382448
30
0.0000000000
10
12.9346040103
20
15.5280086027
30
0.0000000000
10
12.9346055174
20
15.5443602295
30
0.0000000000
11
12.7587775752
21
15.2008720761
31
0.0000000000
11
12.7953193155
21
15.2305094634
31
0.0000000000
11
12.8370930669
21
15.2745732845
31
0.0000000000
11
12.8720613251
21
15.3239850630
31
0.0000000000
11
12.8999125114
21
15.3780387506
31
0.0000000000
11
12.9199329206
21
15.4354164909
31
0.0000000000
11
12.9316503107
21
15.4953969994
31
0.0000000000
11
12.9346055174
21
15.5443602295
31
0.0000000000
0
SPLINE
5
30F
100
AcDbEntity
8
0
100
AcDbSpline
62
7
6
CONTINUOUS
70
0
71
3
72
15
73
11
74
9
42
0.0000001000
43
0.0000001000
44
0.0000000001
12
1.5800861866
22
-0.7900430933
32
0.0000000000
13
1.6703670518
23
0.5793359944
33
0.0000000000
40
0.0000000000
40
0.0000000000
40
0.0000000000
40
0.0000000000
40
0.1580803988
40
0.3095057759
40
0.4545402250
40
0.5936802911
40
0.7276680972
40
0.8574902732
40
0.9843554294
40
1.0000000000
40
1.0000000000
40
1.0000000000
40
1.0000000000
10
-5.4094504051
20
-9.6369074749
30
0.0000000000
10
-5.3261901870
20
-9.6785375840
30
0.0000000000
10
-5.1597556986
20
-9.7534664329
30
0.0000000000
10
-4.9064030209
20
-9.8409883125
30
0.0000000000
10
-4.6564416561
20
-9.9005747211
30
0.0000000000
10
-4.4116604434
20
-9.9317148573
30
0.0000000000
10
-4.1738113396
20
-9.9340924476
30
0.0000000000
10
-3.9446470012
20
-9.9075838376
30
0.0000000000
10
-3.7886972027
20
-9.8681609569
30
0.0000000000
10
-3.7091146535
20
-9.8413195150
30
0.0000000000
10
-3.7004039284
20
-9.8382983607
30
0.0000000000
11
-5.4094504051
21
-9.6369074749
31
0.0000000000
11
-5.1545913169
21
-9.7510775866
31
0.0000000000
11
-4.9015684943
21
-9.8379062354
31
0.0000000000
11
-4.6522049725
21
-9.8967678187
31
0.0000000000
11
-4.4082974214
21
-9.9272382375
31
0.0000000000
11
-4.1716032004
21
-9.9290979518
31
0.0000000000
11
-3.9438276970
21
-9.9023335623
31
0.0000000000
11
-3.7266120387
21
-9.8471379070
31
0.0000000000
11
-3.7004039284
21
-9.8382983607
31
0.0000000000
0
SPLINE
5
310
100
AcDbEntity
8
0
100
AcDbSpline
62
7
6
CONTINUOUS
70
0
71
3
72
14
73
10
74
8
42
0.0000001000
43
0.0000001000
44
0.0000000001
12
0.2821589682
22
-0.1410254242
32
0.0000000000
13
0.0000000000
23
-0.3147355722
33
0.0000000000
40
0.0000000000
40
0.0000000000
40
0.0000000000
40
0.0000000000
40
0.0516295080
40
0.1875083635
40
0.3291753307
40
0.4797905721
40
0.6413741717
40
0.8148105042
40
1.0000000000
40
1.0000000000
40
1.0000000000
40
1.0000000000
10
12.9464230231
20
-19.3897946943
30
0.0000000000
10
12.9512789327
20
-19.3922217188
30
0.0000000000
10
12.9685290844
20
-19.4018059911
30
0.0000000000
10
12.9958911735
20
-19.4233478617
30
0.0000000000
10
13.0246038214
20
-19.4583019513
30
0.0000000000
10
13.0473199524
20
-19.5004431655
30
0.0000000000
10
13.0637137927
20
-19.5489022034
30
0.0000000000
10
13.0735612939
20
-19.6027458864
30
0.0000000000
10
13.0756089928
20
-19.6404177828
30
0.0000000000
10
13.0756089928
20
-19.6598463568
30
0.0000000000
11
12.9464230231
21
-19.3897946943
31
0.0000000000
11
12.9606522761
21
-19.3977033707
31
0.0000000000
11
12.9943415115
21
-19.4240464613
31
0.0000000000
11
13.0228357521
21
-19.4583412911
31
0.0000000000
11
13.0455871171
21
-19.4999286950
31
0.0000000000
11
13.0621581043
21
-19.5480093145
31
0.0000000000
11
13.0722299624
21
-19.6016586645
31
0.0000000000
11
13.0756089928
21
-19.6598463568
31
0.0000000000
0
SPLINE
5
311
100
AcDbEntity
8
0
100
AcDbSpline
62
7
6
CONTINUOUS
70
0
71
3
72
15
73
11
74
9
42
0.0000001000
43
0.0000001000
44
0.0000000001
12
0.0000000000
22
-0.2765187015
32
0.0000000000
13
0.2476701277
23
-0.1238065108
33
0.0000000000
40
0.0000000000
40
0.0000000000
40
0.0000000000
40
0.0000000000
40
0.1372038061
40
0.2753693855
40
0.4143226051
40
0.5538334203
40
0.6936450402
40
0.8334813200
40
0.9730599772
40
1.0000000000
40
1.0000000000
40
1.0000000000
40
1.0000000000
10
-9.0089485136
20
20.3634049288
30
0.0000000000
10
-9.0089485136
20
20.3507584560
30
0.0000000000
10
-9.0070152076
20
20.3253348445
30
0.0000000000
10
-8.9983350801
20
20.2879989733
30
0.0000000000
10
-8.9839704847
20
20.2522192662
30
0.0000000000
10
-8.9642041722
20
20.2189397969
30
0.0000000000
10
-8.9394962563
20
20.1890377434
30
0.0000000000
10
-8.9104660074
20
20.1632982984
30
0.0000000000
10
-8.8866141175
20
20.1479841083
30
0.0000000000
10
-8.8729694689
20
20.1409071465
30
0.0000000000
10
-8.8707453892
20
20.1397953631
30
0.0000000000
11
-9.0089485136
21
20.3634049288
31
0.0000000000
11
-9.0060697146
21
20.3255748881
31
0.0000000000
11
-8.9974196905
21
20.2883616227
31
0.0000000000
11
-8.9831036756
21
20.2527050492
31
0.0000000000
11
-8.9634038400
21
20.2195368660
31
0.0000000000
11
-8.9387776935
21
20.1897343612
31
0.0000000000
11
-8.9098456261
21
20.1640809176
31
0.0000000000
11
-8.8773666365
21
20.1432296619
31
0.0000000000
11
-8.8707453892
21
20.1397953631
31
0.0000000000
0
SPLINE
5
312
100
AcDbEntity
8
0
100
AcDbSpline
62
7
6
CONTINUOUS
70
0
71
3
72
14
73
10
74
8
42
0.0000001000
43
0.0000001000
44
0.0000000001
12
0.2472867605
22
-0.1236433802
32
0.0000000000
13
0.0000162066
23
-0.2767915247
33
0.0000000000
40
0.0000000000
40
0.0000000000
40
0.0000000000
40
0.0000000000
40
0.1437525298
40
0.2886119094
40
0.4331946815
40
0.5818895261
40
0.7310838435
40
0.8800925955
40
1.0000000000
40
1.0000000000
40
1.0000000000
40
1.0000000000
10
-5.1946693509
20
21.3296257050
30
0.0000000000
10
-5.1828199851
20
21.3237010221
30
0.0000000000
10
-5.1599363514
20
21.3098855565
30
0.0000000000
10
-5.1293548391
20
21.2839684257
30
0.0000000000
10
-5.1029948373
20
21.2531528053
30
0.0000000000
10
-5.0817503095
20
21.2181301318
30
0.0000000000
10
-5.0663906904
20
21.1797137896
30
0.0000000000
10
-5.0581223907
20
21.1418995752
30
0.0000000000
10
-5.0564735305
20
21.1170888110
30
0.0000000000
10
-5.0564728828
20
21.1060256932
30
0.0000000000
11
-5.1946693509
21
21.3296257050
31
0.0000000000
11
-5.1606465568
21
21.3090822506
31
0.0000000000
11
-5.1300915824
21
21.2831902474
31
0.0000000000
11
-5.1041083001
21
21.2528134217
31
0.0000000000
11
-5.0827869762
21
21.2176642146
31
0.0000000000
11
-5.0674736624
21
21.1793635472
31
0.0000000000
11
-5.0586734357
21
21.1391172443
31
0.0000000000
11
-5.0564728828
21
21.1060256932
31
0.0000000000
0
SPLINE
5
313
100
AcDbEntity
8
0
100
AcDbSpline
62
7
6
CONTINUOUS
70
0
71
3
72
12
73
8
74
6
42
0.0000001000
43
0.0000001000
44
0.0000000001
12
0.1090316425
22
0.1327020367
32
0.0000000000
13
-0.0000090362
23
0.1719527056
33
0.0000000000
40
0.0000000000
40
0.0000000000
40
0.0000000000
40
0.0000000000
40
0.2419534870
40
0.4852361377
40
0.7286233895
40
0.9719522926
40
1.0000000000
40
1.0000000000
40
1.0000000000
40
1.0000000000
10
-5.1133100344
20
20.5997795917
30
0.0000000000
10
-5.1045165057
20
20.6104821652
30
0.0000000000
10
-5.0886382023
20
20.6334611845
30
0.0000000000
10
-5.0708803178
20
20.6714115773
30
0.0000000000
10
-5.0596653076
20
20.7118764434
30
0.0000000000
10
-5.0566221762
20
20.7413268186
30
0.0000000000
10
-5.0564728223
20
20.7568814208
30
0.0000000000
10
-5.0564729068
20
20.7584890472
30
0.0000000000
11
-5.1133100344
21
20.5997795917
31
0.0000000000
11
-5.0896892068
21
20.6339687353
31
0.0000000000
11
-5.0719784710
21
20.6718130966
31
0.0000000000
11
-5.0608147180
21
20.7120963200
31
0.0000000000
11
-5.0565192364
21
20.7536664846
31
0.0000000000
11
-5.0564729068
21
20.7584890472
31
0.0000000000
0
SPLINE
5
314
100
AcDbEntity
8
0
100
AcDbSpline
62
7
6
CONTINUOUS
70
0
71
3
72
13
73
9
74
7
42
0.0000001000
43
0.0000001000
44
0.0000000001
12
-0.2048013009
22
0.1024006505
32
0.0000000000
13
-0.2060921486
23
-0.1004031776
33
0.0000000000
40
0.0000000000
40
0.0000000000
40
0.0000000000
40
0.0000000000
40
0.1780417675
40
0.3605922599
40
0.5441907093
40
0.7285502135
40
0.9149400794
40
1.0000000000
40
1.0000000000
40
1.0000000000
40
1.0000000000
10
-6.5319955115
20
21.9982887852
30
0.0000000000
10
-6.5441499067
20
22.0043659828
30
0.0000000000
10
-6.5698209560
20
22.0146817302
30
0.0000000000
10
-6.6105672159
20
22.0236503846
30
0.0000000000
10
-6.6527355476
20
22.0257118864
30
0.0000000000
10
-6.6949421159
20
22.0206276684
30
0.0000000000
10
-6.7284437809
20
22.0106351615
30
0.0000000000
10
-6.7474456370
20
22.0022768214
30
0.0000000000
10
-6.7532890309
20
21.9994300593
30
0.0000000000
11
-6.5319955115
21
21.9982887852
31
0.0000000000
11
-6.5698237923
21
22.0134866815
31
0.0000000000
11
-6.6106456508
21
22.0224739595
31
0.0000000000
11
-6.6526349700
21
22.0245257868
31
0.0000000000
11
-6.6945456877
21
22.0194773400
31
0.0000000000
11
-6.7354437820
21
22.0072786717
31
0.0000000000
11
-6.7532890309
21
21.9994300593
31
0.0000000000
0
SPLINE
5
315
100
AcDbEntity
8
0
100
AcDbSpline
62
7
6
CONTINUOUS
70
0
71
3
72
14
73
10
74
8
42
0.0000001000
43
0.0000001000
44
0.0000000001
12
0.0000000000
22
0.2738582159
32
0.0000000000
13
0.2439931792
23
0.1251474837
33
0.0000000000
40
0.0000000000
40
0.0000000000
40
0.0000000000
40
0.0000000000
40
0.1562679989
40
0.3143610164
40
0.4733409827
40
0.6327902268
40
0.7925669787
40
0.9524347924
40
1.0000000000
40
1.0000000000
40
1.0000000000
40
1.0000000000
10
-9.0089485136
20
20.7033788629
30
0.0000000000
10
-9.0089485136
20
20.7176439547
30
0.0000000000
10
-9.0064804026
20
20.7464010113
30
0.0000000000
10
-8.9953965954
20
20.7883791367
30
0.0000000000
10
-8.9770922324
20
20.8280866462
30
0.0000000000
10
-8.9520790450
20
20.8641344538
30
0.0000000000
10
-8.9211110797
20
20.8953339633
30
0.0000000000
10
-8.8935689445
20
20.9147412064
30
0.0000000000
10
-8.8769237093
20
20.9238342083
30
0.0000000000
10
-8.8730551805
20
20.9258184303
30
0.0000000000
11
-9.0089485136
21
20.7033788629
31
0.0000000000
11
-9.0052856424
21
20.7460170966
31
0.0000000000
11
-8.9942352762
21
20.7878782079
31
0.0000000000
11
-8.9760074599
21
20.8274168161
31
0.0000000000
11
-8.9511139949
21
20.8632926765
31
0.0000000000
11
-8.9202891433
21
20.8943479735
31
0.0000000000
11
-8.8845001920
21
20.9195657636
31
0.0000000000
11
-8.8730551805
21
20.9258184303
31
0.0000000000
0
SPLINE
5
316
100
AcDbEntity
8
0
100
AcDbSpline
62
7
6
CONTINUOUS
70
0
71
3
72
9
73
5
74
3
42
0.0000001000
43
0.0000001000
44
0.0000000001
12
0.0576442133
22
-0.0288194541
32
0.0000000000
13
0.0630899563
23
-0.0131749282
33
0.0000000000
40
0.0000000000
40
0.0000000000
40
0.0000000000
40
0.0000000000
40
0.5477730969
40
1.0000000000
40
1.0000000000
40
1.0000000000
40
1.0000000000
10
-7.5457671165
20
19.4773058420
30
0.0000000000
10
-7.5352418001
20
19.4720436681
30
0.0000000000
10
-7.5153463439
20
19.4637938188
30
0.0000000000
10
-7.4945722714
20
19.4581765325
30
0.0000000000
10
-7.4850619462
20
19.4561905135
30
0.0000000000
11
-7.5457671165
21
19.4773058420
31
0.0000000000
11
-7.5131817753
21
19.4637954918
31
0.0000000000
11
-7.4850619462
21
19.4561905135
31
0.0000000000
0
SPLINE
5
317
100
AcDbEntity
8
0
100
AcDbSpline
62
7
6
CONTINUOUS
70
0
71
3
72
8
73
4
74
2
42
0.0000001000
43
0.0000001000
44
0.0000000001
12
-0.0002831542
22
-0.0031036624
32
0.0000000000
13
-0.0016127229
23
-0.0025258849
33
0.0000000000
40
0.0000000000
40
0.0000000000
40
0.0000000000
40
0.0000000000
40
1.0000000000
40
1.0000000000
40
1.0000000000
40
1.0000000000
10
8.3076972686
20
13.9884539374
30
0.0000000000
10
8.3076028839
20
13.9874193832
30
0.0000000000
10
8.3072786031
20
13.9863904505
30
0.0000000000
10
8.3067410288
20
13.9855484889
30
0.0000000000
11
8.3076972686
21
13.9884539374
31
0.0000000000
11
8.3067410288
21
13.9855484889
31
0.0000000000
0
SPLINE
5
318
100
AcDbEntity
8
0
100
AcDbSpline
62
7
6
CONTINUOUS
70
0
71
3
72
14
73
10
74
8
42
0.0000001000
43
0.0000001000
44
0.0000000001
12
0.0000000000
22
0.2764437653
32
0.0000000000
13
-0.2475925103
23
0.1237730878
33
0.0000000000
40
0.0000000000
40
0.0000000000
40
0.0000000000
40
0.0000000000
40
0.1550886622
40
0.3119188690
40
0.4696359821
40
0.6278490431
40
0.7864071094
40
0.9450859973
40
1.0000000000
40
1.0000000000
40
1.0000000000
40
1.0000000000
10
8.3078454146
20
14.4238598250
30
0.0000000000
10
8.3078454146
20
14.4381509229
30
0.0000000000
10
8.3053688005
20
14.4669542051
30
0.0000000000
10
8.2942495631
20
14.5089926933
30
0.0000000000
10
8.2758910689
20
14.5487468282
30
0.0000000000
10
8.2508035700
20
14.5848290312
30
0.0000000000
10
8.2197417690
20
14.6160457091
30
0.0000000000
10
8.1915339919
20
14.6358561862
30
0.0000000000
10
8.1741734873
20
14.6452039026
30
0.0000000000
10
8.1696413887
20
14.6474695278
30
0.0000000000
11
8.3078454146
21
14.4238598250
31
0.0000000000
11
8.3041691760
21
14.4665752155
31
0.0000000000
11
8.2930854326
21
14.5084892167
31
0.0000000000
11
8.2748048764
21
14.5480717083
31
0.0000000000
11
8.2498373266
21
14.5839819837
31
0.0000000000
11
8.2189203051
21
14.6150531294
31
0.0000000000
11
8.1830227459
21
14.6402636968
31
0.0000000000
11
8.1696413887
21
14.6474695278
31
0.0000000000
0
SPLINE
5
319
100
AcDbEntity
8
0
100
AcDbSpline
62
7
6
CONTINUOUS
70
0
71
3
72
13
73
9
74
7
42
0.0000001000
43
0.0000001000
44
0.0000000001
12
0.2058509839
22
0.1002765354
32
0.0000000000
13
0.2050420785
23
-0.1025286694
33
0.0000000000
40
0.0000000000
40
0.0000000000
40
0.0000000000
40
0.0000000000
40
0.1774292252
40
0.3593739775
40
0.5423737539
40
0.7260526449
40
0.9117680367
40
1.0000000000
40
1.0000000000
40
1.0000000000
40
1.0000000000
10
6.6110355823
20
15.3172746030
30
0.0000000000
10
6.6232102425
20
15.3232052656
30
0.0000000000
10
6.6488959739
20
15.3332277722
30
0.0000000000
10
6.6895883351
20
15.3417797921
30
0.0000000000
10
6.7316279166
20
15.3434577794
30
0.0000000000
10
6.7736405935
20
15.3380398885
30
0.0000000000
10
6.8071960802
20
15.3277476257
30
0.0000000000
10
6.8262980428
20
15.3191417490
30
0.0000000000
10
6.8323284645
20
15.3161263137
30
0.0000000000
11
6.6110355823
21
15.3172746030
31
0.0000000000
11
6.6488844649
21
15.3320400382
31
0.0000000000
11
6.6896544035
21
15.3406103112
31
0.0000000000
11
6.7315236584
21
15.3422805940
31
0.0000000000
11
6.7732363178
21
15.3369015279
31
0.0000000000
11
6.8138912588
21
15.3244316562
31
0.0000000000
11
6.8323284645
21
15.3161263137
31
0.0000000000
0
SPLINE
5
31A
100
AcDbEntity
8
0
100
AcDbSpline
62
7
6
CONTINUOUS
70
0
71
3
72
15
73
11
74
9
42
0.0000001000
43
0.0000001000
44
0.0000000001
12
-0.2439506743
22
-0.1251622805
32
0.0000000000
13
0.0000014006
23
-0.2741811328
33
0.0000000000
40
0.0000000000
40
0.0000000000
40
0.0000000000
40
0.0000000000
40
0.0876383217
40
0.2288023631
40
0.3706945820
40
0.5134369001
40
0.6570527615
40
0.8015692219
40
0.9468110568
40
1.0000000000
40
1.0000000000
40
1.0000000000
40
1.0000000000
10
4.4912499804
20
14.2436534096
30
0.0000000000
10
4.4841235045
20
14.2399970722
30
0.0000000000
10
4.4659793177
20
14.2295586179
30
0.0000000000
10
4.4388753037
20
14.2090593374
30
0.0000000000
10
4.4117580358
20
14.1809825660
30
0.0000000000
10
4.3892042469
20
14.1488458444
30
0.0000000000
10
4.3718475198
20
14.1133593405
30
0.0000000000
10
4.3602230394
20
14.0753633111
30
0.0000000000
10
4.3558982990
20
14.0442152487
30
0.0000000000
10
4.3553696309
20
14.0260805794
30
0.0000000000
10
4.3553696557
20
14.0212194445
30
0.0000000000
11
4.4912499804
21
14.2436534096
31
0.0000000000
11
4.4704315255
21
14.2316757199
31
0.0000000000
11
4.4395925038
21
14.2083505839
31
0.0000000000
11
4.4125917165
21
14.1803947411
31
0.0000000000
11
4.3901313032
21
14.1483907432
31
0.0000000000
11
4.3728472652
21
14.1130530001
31
0.0000000000
11
4.3612669088
21
14.0751998816
31
0.0000000000
11
4.3557948534
21
14.0357944315
31
0.0000000000
11
4.3553696557
21
14.0212194445
31
0.0000000000
0
SPLINE
5
31B
100
AcDbEntity
8
0
100
AcDbSpline
62
7
6
CONTINUOUS
70
0
71
3
72
15
73
11
74
9
42
0.0000001000
43
0.0000001000
44
0.0000000001
12
0.0000000000
22
-0.2765187015
32
0.0000000000
13
0.2476701277
23
-0.1238065108
33
0.0000000000
40
0.0000000000
40
0.0000000000
40
0.0000000000
40
0.0000000000
40
0.1372038061
40
0.2753693855
40
0.4143226051
40
0.5538334203
40
0.6936450402
40
0.8334813200
40
0.9730599772
40
1.0000000000
40
1.0000000000
40
1.0000000000
40
1.0000000000
10
4.3553696509
20
13.6812458466
30
0.0000000000
10
4.3553696509
20
13.6685993738
30
0.0000000000
10
4.3573029568
20
13.6431757623
30
0.0000000000
10
4.3659830843
20
13.6058398911
30
0.0000000000
10
4.3803476797
20
13.5700601840
30
0.0000000000
10
4.4001139922
20
13.5367807146
30
0.0000000000
10
4.4248219082
20
13.5068786612
30
0.0000000000
10
4.4538521570
20
13.4811392162
30
0.0000000000
10
4.4777040469
20
13.4658250261
30
0.0000000000
10
4.4913486956
20
13.4587480643
30
0.0000000000
10
4.4935727752
20
13.4576362809
30
0.0000000000
11
4.3553696509
21
13.6812458466
31
0.0000000000
11
4.3582484498
21
13.6434158059
31
0.0000000000
11
4.3668984740
21
13.6062025405
31
0.0000000000
11
4.3812144889
21
13.5705459670
31
0.0000000000
11
4.4009143244
21
13.5373777838
31
0.0000000000
11
4.4255404710
21
13.5075752789
31
0.0000000000
11
4.4544725383
21
13.4819218354
31
0.0000000000
11
4.4869515279
21
13.4610705797
31
0.0000000000
11
4.4935727752
21
13.4576362809
31
0.0000000000
0
SPLINE
5
31C
100
AcDbEntity
8
0
100
AcDbSpline
62
7
6
CONTINUOUS
70
0
71
3
72
9
73
5
74
3
42
0.0000001000
43
0.0000001000
44
0.0000000001
12
0.0576442133
22
-0.0288194541
32
0.0000000000
13
0.0630899563
23
-0.0131749282
33
0.0000000000
40
0.0000000000
40
0.0000000000
40
0.0000000000
40
0.0000000000
40
0.5477730969
40
1.0000000000
40
1.0000000000
40
1.0000000000
40
1.0000000000
10
5.8185510479
20
12.7951467598
30
0.0000000000
10
5.8290763643
20
12.7898845859
30
0.0000000000
10
5.8489718205
20
12.7816347366
30
0.0000000000
10
5.8697458930
20
12.7760174503
30
0.0000000000
10
5.8792562182
20
12.7740314313
30
0.0000000000
11
5.8185510479
21
12.7951467598
31
0.0000000000
11
5.8511363892
21
12.7816364095
31
0.0000000000
11
5.8792562182
21
12.7740314313
31
0.0000000000
0
SPLINE
5
31D
100
AcDbEntity
8
0
100
AcDbSpline
62
7
6
CONTINUOUS
70
0
71
3
72
15
73
11
74
9
42
0.0000001000
43
0.0000001000
44
0.0000000001
12
0.0000000000
22
0.2765187015
32
0.0000000000
13
-0.2476701277
23
0.1238065108
33
0.0000000000
40
0.0000000000
40
0.0000000000
40
0.0000000000
40
0.0000000000
40
0.1372038061
40
0.2753693855
40
0.4143226051
40
0.5538334203
40
0.6936450402
40
0.8334813200
40
0.9730599772
40
1.0000000000
40
1.0000000000
40
1.0000000000
40
1.0000000000
10
8.3078454146
20
-27.2232758311
30
0.0000000000
10
8.3078454146
20
-27.2106293584
30
0.0000000000
10
8.3059121087
20
-27.1852057469
30
0.0000000000
10
8.2972319812
20
-27.1478698757
30
0.0000000000
10
8.2828673858
20
-27.1120901685
30
0.0000000000
10
8.2631010733
20
-27.0788106992
30
0.0000000000
10
8.2383931573
20
-27.0489086458
30
0.0000000000
10
8.2093629085
20
-27.0231692008
30
0.0000000000
10
8.1855110186
20
-27.0078550107
30
0.0000000000
10
8.1718663699
20
-27.0007780489
30
0.0000000000
10
8.1696422903
20
-26.9996662654
30
0.0000000000
11
8.3078454146
21
-27.2232758311
31
0.0000000000
11
8.3049666157
21
-27.1854457905
31
0.0000000000
11
8.2963165915
21
-27.1482325251
31
0.0000000000
11
8.2820005766
21
-27.1125759515
31
0.0000000000
11
8.2623007411
21
-27.0794077684
31
0.0000000000
11
8.2376745945
21
-27.0496052635
31
0.0000000000
11
8.2087425272
21
-27.0239518200
31
0.0000000000
11
8.1762635375
21
-27.0031005642
31
0.0000000000
11
8.1696422903
21
-26.9996662654
31
0.0000000000
0
SPLINE
5
31E
100
AcDbEntity
8
0
100
AcDbSpline
62
7
6
CONTINUOUS
70
0
71
3
72
15
73
11
74
9
42
0.0000001000
43
0.0000001000
44
0.0000000001
12
0.2439506743
22
0.1251622805
32
0.0000000000
13
-0.0000014006
23
0.2741811328
33
0.0000000000
40
0.0000000000
40
0.0000000000
40
0.0000000000
40
0.0000000000
40
0.0876383217
40
0.2288023631
40
0.3706945820
40
0.5134369001
40
0.6570527615
40
0.8015692219
40
0.9468110568
40
1.0000000000
40
1.0000000000
40
1.0000000000
40
1.0000000000
10
8.1719650851
20
-27.7932409768
30
0.0000000000
10
8.1790915610
20
-27.7895846394
30
0.0000000000
10
8.1972357477
20
-27.7791461851
30
0.0000000000
10
8.2243397618
20
-27.7586469046
30
0.0000000000
10
8.2514570297
20
-27.7305701332
30
0.0000000000
10
8.2740108186
20
-27.6984334116
30
0.0000000000
10
8.2913675457
20
-27.6629469077
30
0.0000000000
10
8.3029920261
20
-27.6249508783
30
0.0000000000
10
8.3073167665
20
-27.5938028158
30
0.0000000000
10
8.3078454346
20
-27.5756681466
30
0.0000000000
10
8.3078454097
20
-27.5708070117
30
0.0000000000
11
8.1719650851
21
-27.7932409768
31
0.0000000000
11
8.1927835399
21
-27.7812632870
31
0.0000000000
11
8.2236225617
21
-27.7579381511
31
0.0000000000
11
8.2506233490
21
-27.7299823082
31
0.0000000000
11
8.2730837623
21
-27.6979783103
31
0.0000000000
11
8.2903678002
21
-27.6626405673
31
0.0000000000
11
8.3019481567
21
-27.6247874488
31
0.0000000000
11
8.3074202121
21
-27.5853819987
31
0.0000000000
11
8.3078454097
21
-27.5708070117
31
0.0000000000
0
SPLINE
5
31F
100
AcDbEntity
8
0
100
AcDbSpline
62
7
6
CONTINUOUS
70
0
71
3
72
13
73
9
74
7
42
0.0000001000
43
0.0000001000
44
0.0000000001
12
-0.2058509839
22
-0.1002765354
32
0.0000000000
13
-0.2050420785
23
0.1025286694
33
0.0000000000
40
0.0000000000
40
0.0000000000
40
0.0000000000
40
0.0000000000
40
0.1774292252
40
0.3593739775
40
0.5423737539
40
0.7260526449
40
0.9117680367
40
1.0000000000
40
1.0000000000
40
1.0000000000
40
1.0000000000
10
6.0398380025
20
-28.8455762645
30
0.0000000000
10
6.0276633423
20
-28.8515069272
30
0.0000000000
10
6.0019776109
20
-28.8615294338
30
0.0000000000
10
5.9612852497
20
-28.8700814537
30
0.0000000000
10
5.9192456681
20
-28.8717594410
30
0.0000000000
10
5.8772329912
20
-28.8663415501
30
0.0000000000
10
5.8436775046
20
-28.8560492873
30
0.0000000000
10
5.8245755419
20
-28.8474434105
30
0.0000000000
10
5.8185451202
20
-28.8444279753
30
0.0000000000
11
6.0398380025
21
-28.8455762645
31
0.0000000000
11
6.0019891198
21
-28.8603416998
31
0.0000000000
11
5.9612191812
21
-28.8689119728
31
0.0000000000
11
5.9193499263
21
-28.8705822556
31
0.0000000000
11
5.8776372669
21
-28.8652031895
31
0.0000000000
11
5.8369823260
21
-28.8527333177
31
0.0000000000
11
5.8185451202
21
-28.8444279753
31
0.0000000000
0
SPLINE
5
320
100
AcDbEntity
8
0
100
AcDbSpline
62
7
6
CONTINUOUS
70
0
71
3
72
14
73
10
74
8
42
0.0000001000
43
0.0000001000
44
0.0000000001
12
-0.2472867605
22
0.1236433802
32
0.0000000000
13
-0.0000162066
23
0.2767915247
33
0.0000000000
40
0.0000000000
40
0.0000000000
40
0.0000000000
40
0.0000000000
40
0.1437525298
40
0.2886119094
40
0.4331946815
40
0.5818895261
40
0.7310838435
40
0.8800925955
40
1.0000000000
40
1.0000000000
40
1.0000000000
40
1.0000000000
10
4.4935662520
20
-28.1819390247
30
0.0000000000
10
4.4817168862
20
-28.1760143418
30
0.0000000000
10
4.4588332524
20
-28.1621988763
30
0.0000000000
10
4.4282517401
20
-28.1362817455
30
0.0000000000
10
4.4018917384
20
-28.1054661250
30
0.0000000000
10
4.3806472106
20
-28.0704434516
30
0.0000000000
10
4.3652875915
20
-28.0320271093
30
0.0000000000
10
4.3570192917
20
-27.9942128950
30
0.0000000000
10
4.3553704316
20
-27.9694021307
30
0.0000000000
10
4.3553697838
20
-27.9583390129
30
0.0000000000
11
4.4935662520
21
-28.1819390247
31
0.0000000000
11
4.4595434579
21
-28.1613955704
31
0.0000000000
11
4.4289884834
21
-28.1355035671
31
0.0000000000
11
4.4030052012
21
-28.1051267415
31
0.0000000000
11
4.3816838772
21
-28.0699775344
31
0.0000000000
11
4.3663705635
21
-28.0316768670
31
0.0000000000
11
4.3575703367
21
-27.9914305640
31
0.0000000000
11
4.3553697838
21
-27.9583390129
31
0.0000000000
0
SPLINE
5
321
100
AcDbEntity
8
0
100
AcDbSpline
62
7
6
CONTINUOUS
70
0
71
3
72
13
73
9
74
7
42
0.0000001000
43
0.0000001000
44
0.0000000001
12
0.0000447718
22
-0.2369216055
32
0.0000000000
13
-0.2087426030
23
-0.1103503620
33
0.0000000000
40
0.0000000000
40
0.0000000000
40
0.0000000000
40
0.0000000000
40
0.0662401735
40
0.2209740190
40
0.3878784249
40
0.5714556151
40
0.7754283906
40
1.0000000000
40
1.0000000000
40
1.0000000000
40
1.0000000000
10
13.4640743225
20
16.0496516532
30
0.0000000000
10
13.4640753111
20
16.0444204104
30
0.0000000000
10
13.4630195264
20
16.0269704928
30
0.0000000000
10
13.4549321433
20
15.9971506164
30
0.0000000000
10
13.4351264569
20
15.9622676670
30
0.0000000000
10
13.4060380706
20
15.9293996456
30
0.0000000000
10
13.3683803019
20
15.8990659464
30
0.0000000000
10
13.3393792040
20
15.8816469067
30
0.0000000000
10
13.3237533166
20
15.8733863873
30
0.0000000000
11
13.4640743225
21
16.0496516532
31
0.0000000000
11
13.4631231959
21
16.0340001527
31
0.0000000000
11
13.4538197797
21
15.9986694220
31
0.0000000000
11
13.4347260859
21
15.9641950553
31
0.0000000000
11
13.4063205072
21
15.9314543542
31
0.0000000000
11
13.3690501441
21
15.9009515515
31
0.0000000000
11
13.3237533166
21
15.8733863873
31
0.0000000000
0
SPLINE
5
322
100
AcDbEntity
8
0
100
AcDbSpline
62
7
6
CONTINUOUS
70
0
71
3
72
8
73
4
74
2
42
0.0000001000
43
0.0000001000
44
0.0000000001
12
0.0000075722
22
0.0718432513
32
0.0000000000
13
-0.0075338391
23
0.0713991650
33
0.0000000000
40
0.0000000000
40
0.0000000000
40
0.0000000000
40
0.0000000000
40
1.0000000000
40
1.0000000000
40
1.0000000000
40
1.0000000000
10
13.4640834076
20
16.6710805012
30
0.0000000000
10
13.4640859317
20
16.6950282516
30
0.0000000000
10
13.4627041129
20
16.7189728506
30
0.0000000000
10
13.4601928332
20
16.7427725723
30
0.0000000000
11
13.4640834076
21
16.6710805012
31
0.0000000000
11
13.4601928332
21
16.7427725723
31
0.0000000000
0
SPLINE
5
323
100
AcDbEntity
8
0
100
AcDbSpline
62
7
6
CONTINUOUS
70
0
71
3
72
13
73
9
74
7
42
0.0000001000
43
0.0000001000
44
0.0000000001
12
-0.0000532121
22
0.2409317012
32
0.0000000000
13
-0.2147313561
23
0.1073656781
33
0.0000000000
40
0.0000000000
40
0.0000000000
40
0.0000000000
40
0.0000000000
40
0.0818987178
40
0.2321567084
40
0.3955644679
40
0.5763345295
40
0.7778386145
40
1.0000000000
40
1.0000000000
40
1.0000000000
40
1.0000000000
10
13.4640737240
20
-20.3142655659
30
0.0000000000
10
13.4640722713
20
-20.3076882335
30
0.0000000000
10
13.4625844052
20
-20.2890412471
30
0.0000000000
10
13.4529747595
20
-20.2584761871
30
0.0000000000
10
13.4319635028
20
-20.2245501120
30
0.0000000000
10
13.4017699041
20
-20.1926706471
30
0.0000000000
10
13.3631045459
20
-20.1633286699
30
0.0000000000
10
13.3335384789
20
-20.1465413067
30
0.0000000000
10
13.3176368070
20
-20.1385904708
30
0.0000000000
11
13.4640737240
21
-20.3142655659
31
0.0000000000
11
13.4625057953
21
-20.2946200655
31
0.0000000000
11
13.4519840508
21
-20.2601151541
31
0.0000000000
11
13.4317054403
21
-20.2265323436
31
0.0000000000
11
13.4021787998
21
-20.1947262607
31
0.0000000000
11
13.3638684834
21
-20.1651863867
31
0.0000000000
11
13.3176368070
21
-20.1385904708
31
0.0000000000
0
SPLINE
5
324
100
AcDbEntity
8
0
100
AcDbSpline
62
7
6
CONTINUOUS
70
0
71
3
72
15
73
11
74
9
42
0.0000001000
43
0.0000001000
44
0.0000000001
12
0.7705270650
22
-0.3853542639
32
0.0000000000
13
0.7940192165
23
0.3332752263
33
0.0000000000
40
0.0000000000
40
0.0000000000
40
0.0000000000
40
0.0000000000
40
0.0705277847
40
0.1949331015
40
0.3216321179
40
0.4513086541
40
0.5846519790
40
0.7225437846
40
0.8660743936
40
1.0000000000
40
1.0000000000
40
1.0000000000
40
1.0000000000
10
1.5640809178
20
-28.6468175079
30
0.0000000000
10
1.5821954401
20
-28.6558769021
30
0.0000000000
10
1.6331314010
20
-28.6792129281
30
0.0000000000
10
1.7204990888
20
-28.7096446673
30
0.0000000000
10
1.8275147133
20
-28.7330469374
30
0.0000000000
10
1.9391056650
20
-28.7437925344
30
0.0000000000
10
2.0543963677
20
-28.7412867515
30
0.0000000000
10
2.1725711000
20
-28.7249911930
30
0.0000000000
10
2.2883146578
20
-28.6955379781
30
0.0000000000
10
2.3632111090
20
-28.6680590487
30
0.0000000000
10
2.3986576107
20
-28.6531810197
30
0.0000000000
11
1.5640809178
21
-28.6468175079
31
0.0000000000
11
1.6193170381
21
-28.6721226948
31
0.0000000000
11
1.7204556406
21
-28.7073839709
31
0.0000000000
11
1.8270094122
21
-28.7307422165
31
0.0000000000
11
1.9381346410
21
-28.7415289860
31
0.0000000000
11
2.0529144996
21
-28.7391493959
31
0.0000000000
11
2.1705420312
21
-28.7230761059
31
0.0000000000
11
2.2903432925
21
-28.6927684712
31
0.0000000000
11
2.3986576107
21
-28.6531810197
31
0.0000000000
0
SPLINE
5
325
100
AcDbEntity
8
0
100
AcDbSpline
62
7
6
CONTINUOUS
70
0
71
3
72
16
73
12
74
10
42
0.0000001000
43
0.0000001000
44
0.0000000001
12
0.0378911318
22
-1.1277322746
32
0.0000000000
13
1.0099004801
23
-0.5048060521
33
0.0000000000
40
0.0000000000
40
0.0000000000
40
0.0000000000
40
0.0000000000
40
0.1238980173
40
0.2543398441
40
0.3792945857
40
0.4989213466
40
0.6132997264
40
0.7231215824
40
0.8296936827
40
0.9342176132
40
1.0000000000
40
1.0000000000
40
1.0000000000
40
1.0000000000
10
-13.8006060524
20
-20.2961949128
30
0.0000000000
10
-13.7990411737
20
-20.3427695104
30
0.0000000000
10
-13.7914429295
20
-20.4382983582
30
0.0000000000
10
-13.7653772853
20
-20.5788312842
30
0.0000000000
10
-13.7236269284
20
-20.7139010312
30
0.0000000000
10
-13.6680583967
20
-20.8373187342
30
0.0000000000
10
-13.6001037967
20
-20.9477555094
30
0.0000000000
10
-13.5213106176
20
-21.0444827582
30
0.0000000000
10
-13.4329947815
20
-21.1272768287
30
0.0000000000
10
-13.3478714490
20
-21.1877693396
30
0.0000000000
10
-13.2917473856
20
-21.2189058549
30
0.0000000000
10
-13.2696028309
20
-21.2299749706
30
0.0000000000
11
-13.8006060524
21
-20.2961949128
31
0.0000000000
11
-13.7892938056
21
-20.4355336885
31
0.0000000000
11
-13.7621617025
21
-20.5801749249
31
0.0000000000
11
-13.7202582811
21
-20.7147766484
31
0.0000000000
11
-13.6646261989
21
-20.8377398094
31
0.0000000000
11
-13.5968360426
21
-20.9475402752
31
0.0000000000
11
-13.5184749521
21
-21.0435137122
31
0.0000000000
11
-13.4306964236
21
-21.1256794243
31
0.0000000000
11
-13.3345425081
21
-21.1939463910
31
0.0000000000
11
-13.2696028309
21
-21.2299749706
31
0.0000000000
0
SPLINE
5
326
100
AcDbEntity
8
0
100
AcDbSpline
62
7
6
CONTINUOUS
70
0
71
3
72
14
73
10
74
8
42
0.0000001000
43
0.0000001000
44
0.0000000001
12
-1.1557659343
22
-35.6002163908
32
0.0000000000
13
1.1959283496
23
-35.5988900200
33
0.0000000000
40
0.0000000000
40
0.0000000000
40
0.0000000000
40
0.0000000000
40
0.1446706530
40
0.2890281420
40
0.4326996159
40
0.5756779816
40
0.7179559884
40
0.8595271083
40
1.0000000000
40
1.0000000000
40
1.0000000000
40
1.0000000000
10
-13.8006247715
20
15.3164410412
30
0.0000000000
10
-13.8563599090
20
13.5996721909
30
0.0000000000
10
-13.9521334272
20
10.1693239070
30
0.0000000000
10
-14.0482588076
20
5.0327150118
30
0.0000000000
10
-14.0964217780
20
-0.0844797234
30
0.0000000000
10
-14.0965332051
20
-5.1772109841
30
0.0000000000
10
-14.0485918603
20
-10.2447807848
30
0.0000000000
10
-13.9526903194
20
-15.2819130365
30
0.0000000000
10
-13.8566046545
20
-18.6293024060
30
0.0000000000
10
-13.8006061500
20
-20.2961954140
30
0.0000000000
11
-13.8006247715
21
15.3164410412
31
0.0000000000
11
-13.9443288034
21
10.1654252083
31
0.0000000000
11
-14.0404231489
21
5.0244579484
31
0.0000000000
11
-14.0884712326
21
-0.0927465982
31
0.0000000000
11
-14.0884653770
21
-5.1854889171
31
0.0000000000
11
-14.0404044536
21
-10.2530572717
31
0.0000000000
11
-13.9442938830
21
-15.2947589375
31
0.0000000000
11
-13.8006061500
21
-20.2961954140
31
0.0000000000
0
SPLINE
5
327
100
AcDbEntity
8
0
100
AcDbSpline
62
7
6
CONTINUOUS
70
0
71
3
72
19
73
15
74
13
42
0.0000001000
43
0.0000001000
44
0.0000000001
12
-1.6392347846
22
-0.9558296695
32
0.0000000000
13
-0.0615554043
23
-1.8965056930
33
0.0000000000
40
0.0000000000
40
0.0000000000
40
0.0000000000
40
0.0000000000
40
0.0733645946
40
0.1551723665
40
0.2382787289
40
0.3226670944
40
0.4081597521
40
0.4944600840
40
0.5811961316
40
0.6679534606
40
0.7543206176
40
0.8399333161
40
0.9245205508
40
1.0000000000
40
1.0000000000
40
1.0000000000
40
1.0000000000
10
-12.8949206878
20
16.9019745098
30
0.0000000000
10
-12.9350079530
20
16.8785998244
30
0.0000000000
10
-13.0173190302
20
16.8247929170
30
0.0000000000
10
-13.1349794480
20
16.7302789700
30
0.0000000000
10
-13.2482965245
20
16.6203384930
30
0.0000000000
10
-13.3531646402
20
16.4992508389
30
0.0000000000
10
-13.4489818362
20
16.3683880149
30
0.0000000000
10
-13.5350400050
20
16.2291738774
30
0.0000000000
10
-13.6105804882
20
16.0830870934
30
0.0000000000
10
-13.6748274337
20
15.9316459708
30
0.0000000000
10
-13.7270119580
20
15.7763804358
30
0.0000000000
10
-13.7663777778
20
15.6187776803
30
0.0000000000
10
-13.7913590206
20
15.4652396580
30
0.0000000000
10
-13.7990763558
20
15.3641477496
30
0.0000000000
10
-13.8006250785
20
15.3164320145
30
0.0000000000
11
-12.8949206878
21
16.9019745098
31
0.0000000000
11
-13.0115688854
21
16.8259898865
31
0.0000000000
11
-13.1327451037
21
16.7289946879
31
0.0000000000
11
-13.2460636880
21
16.6193518008
31
0.0000000000
11
-13.3510092097
21
16.4984299926
31
0.0000000000
11
-13.4469292314
21
16.3676235972
31
0.0000000000
11
-13.5330826945
21
16.2283826996
31
0.0000000000
11
-13.6086865148
21
16.0822118570
31
0.0000000000
11
-13.6729436799
21
15.9306659536
31
0.0000000000
11
-13.7250710957
21
15.7753124353
31
0.0000000000
11
-13.7643065182
21
15.6176879322
31
0.0000000000
11
-13.7898950484
21
15.4592523259
31
0.0000000000
11
-13.8006250785
21
15.3164320145
31
0.0000000000
0
SPLINE
5
328
100
AcDbEntity
8
0
100
AcDbSpline
62
7
6
CONTINUOUS
70
0
71
3
72
10
73
6
74
4
42
0.0000001000
43
0.0000001000
44
0.0000000001
12
-0.0009473905
22
0.0129284418
32
0.0000000000
13
-0.0113269603
23
0.0063928555
33
0.0000000000
40
0.0000000000
40
0.0000000000
40
0.0000000000
40
0.0000000000
40
0.0987828997
40
0.8567589871
40
1.0000000000
40
1.0000000000
40
1.0000000000
40
1.0000000000
10
3.1815048816
20
21.3300232186
30
0.0000000000
10
3.1814736863
20
21.3304489216
30
0.0000000000
10
3.1810193604
20
21.3341382199
30
0.0000000000
10
3.1784650340
20
21.3383882829
30
0.0000000000
10
3.1751918329
20
21.3405433158
30
0.0000000000
10
3.1746510045
20
21.3408485555
30
0.0000000000
11
3.1815048816
21
21.3300232186
31
0.0000000000
11
3.1813458674
21
21.3312990233
31
0.0000000000
11
3.1762077946
21
21.3398159468
31
0.0000000000
11
3.1746510045
21
21.3408485555
31
0.0000000000
0
SPLINE
5
329
100
AcDbEntity
8
0
100
AcDbSpline
62
7
6
CONTINUOUS
70
0
71
3
72
10
73
6
74
4
42
0.0000001000
43
0.0000001000
44
0.0000000001
12
-0.0009920622
22
0.0129891822
32
0.0000000000
13
-0.0113660186
23
0.0063151626
33
0.0000000000
40
0.0000000000
40
0.0000000000
40
0.0000000000
40
0.0000000000
40
0.0811237922
40
0.8361333356
40
1.0000000000
40
1.0000000000
40
1.0000000000
40
1.0000000000
10
8.7364768242
20
18.5525233995
30
0.0000000000
10
8.7364499975
20
18.5528746434
30
0.0000000000
10
8.7360268592
20
18.5564954123
30
0.0000000000
10
8.7335850064
20
18.5608149428
30
0.0000000000
10
8.7302604380
20
18.5630207160
30
0.0000000000
10
8.7296396008
20
18.5633656642
30
0.0000000000
11
8.7364768242
21
18.5525233995
31
0.0000000000
11
8.7363526534
21
18.5535771506
31
0.0000000000
11
8.7314118308
21
18.5621779089
31
0.0000000000
11
8.7296396008
21
18.5633656642
31
0.0000000000
0
SPLINE
5
32A
100
AcDbEntity
8
0
100
AcDbSpline
62
7
6
CONTINUOUS
70
0
71
3
72
10
73
6
74
4
42
0.0000001000
43
0.0000001000
44
0.0000000001
12
0.5446668258
22
-0.9715635737
32
0.0000000000
13
0.4318217412
23
-1.0267067445
33
0.0000000000
40
0.0000000000
40
0.0000000000
40
0.0000000000
40
0.0000000000
40
0.2179753448
40
0.6337023429
40
1.0000000000
40
1.0000000000
40
1.0000000000
40
1.0000000000
10
-3.4289857922
20
-4.4440344860
30
0.0000000000
10
-3.3894111458
20
-4.5146267876
30
0.0000000000
10
-3.2768955520
20
-4.7212763095
30
0.0000000000
10
-3.1110634648
20
-5.0535695135
30
0.0000000000
10
-2.9929378193
20
-5.3188667311
30
0.0000000000
10
-2.9402127220
20
-5.4442268227
30
0.0000000000
11
-3.4289857922
21
-4.4440344860
31
0.0000000000
11
-3.3128856849
21
-4.6572541941
31
0.0000000000
11
-3.1061331313
21
-5.0715306996
31
0.0000000000
11
-2.9402127220
21
-5.4442268227
31
0.0000000000
0
SPLINE
5
32B
100
AcDbEntity
8
0
100
AcDbSpline
62
7
6
CONTINUOUS
70
0
71
3
72
35
73
31
74
29
42
0.0000001000
43
0.0000001000
44
0.0000000001
12
-7.2424757261
22
-4.8925591209
32
0.0000000000
13
7.8114504932
23
-3.9057252466
33
0.0000000000
40
0.0000000000
40
0.0000000000
40
0.0000000000
40
0.0000000000
40
0.0253860105
40
0.0515547893
40
0.0785371264
40
0.1065387276
40
0.1357161539
40
0.1661761268
40
0.1979778955
40
0.2311373056
40
0.2656315762
40
0.3014041801
40
0.3383695130
40
0.3764172306
40
0.4154162351
40
0.4552183447
40
0.4956616992
40
0.5365739594
40
0.5777753523
40
0.6190816131
40
0.6603068638
40
0.7012664720
40
0.7417799243
40
0.7816737584
40
0.8207845919
40
0.8589622994
40
0.8960733880
40
0.9320046304
40
0.9666670075
40
1.0000000000
40
1.0000000000
40
1.0000000000
40
1.0000000000
10
-7.4904534155
20
-2.2604233068
30
0.0000000000
10
-7.5517392705
20
-2.3018241592
30
0.0000000000
10
-7.6704050849
20
-2.3944569015
30
0.0000000000
10
-7.8308858151
20
-2.5582066918
30
0.0000000000
10
-7.9740500980
20
-2.7468719503
30
0.0000000000
10
-8.0984772578
20
-2.9585382128
30
0.0000000000
10
-8.2033493427
20
-3.1916235300
30
0.0000000000
10
-8.2879886568
20
-3.4444286346
30
0.0000000000
10
-8.3518510449
20
-3.7151379807
30
0.0000000000
10
-8.3945261500
20
-4.0018217393
30
0.0000000000
10
-8.4157413019
20
-4.3024414447
30
0.0000000000
10
-8.4153662785
20
-4.6148595332
30
0.0000000000
10
-8.3934173243
20
-4.9368520041
30
0.0000000000
10
-8.3500596959
20
-5.2661232692
30
0.0000000000
10
-8.2856085205
20
-5.6003224220
30
0.0000000000
10
-8.2005279934
20
-5.9370603704
30
0.0000000000
10
-8.0954290265
20
-6.2739274477
30
0.0000000000
10
-7.9710654784
20
-6.6085112366
30
0.0000000000
10
-7.8283290851
20
-6.9384144043
30
0.0000000000
10
-7.6682431941
20
-7.2612723899
30
0.0000000000
10
-7.4919553911
20
-7.5747708011
30
0.0000000000
10
-7.3007290875
20
-7.8766623919
30
0.0000000000
10
-7.0959341658
20
-8.1647834722
30
0.0000000000
10
-6.8790366305
20
-8.4370696681
30
0.0000000000
10
-6.6515877427
20
-8.6915706711
30
0.0000000000
10
-6.4152111860
20
-8.9264645564
30
0.0000000000
10
-6.1715938232
20
-9.1400687452
30
0.0000000000
10
-5.9224605443
20
-9.3308570770
30
0.0000000000
10
-5.6696033468
20
-9.4974480434
30
0.0000000000
10
-5.4962434120
20
-9.5935109715
30
0.0000000000
10
-5.4094504051
20
-9.6369074749
30
0.0000000000
11
-7.4904534155
21
-2.2604233068
31
0.0000000000
11
-7.6653736845
21
-2.3966532193
31
0.0000000000
11
-7.8256256526
21
-2.5596002795
31
0.0000000000
11
-7.9684690227
21
-2.7470206355
31
0.0000000000
11
-8.0928746051
21
-2.9575639193
31
0.0000000000
11
-8.1979460546
21
-3.1897131618
31
0.0000000000
11
-8.2829263290
21
-3.4417957223
31
0.0000000000
11
-8.3472031435
21
-3.7119953402
31
0.0000000000
11
-8.3903133823
21
-3.9983652211
31
0.0000000000
11
-8.4119464350
21
-4.2988420633
31
0.0000000000
11
-8.4119464350
21
-4.6112609245
31
0.0000000000
11
-8.3903133823
21
-4.9333708195
31
0.0000000000
11
-8.3472031435
21
-5.2628509391
31
0.0000000000
11
-8.2829263290
21
-5.5973273715
31
0.0000000000
11
-8.1979460546
21
-5.9343902064
31
0.0000000000
11
-8.0928746051
21
-6.2716108984
31
0.0000000000
11
-7.9684690227
21
-6.6065597646
31
0.0000000000
11
-7.8256256526
21
-6.9368234907
31
0.0000000000
11
-7.6653736845
21
-7.2600225191
31
0.0000000000
11
-7.4888677374
21
-7.5738281933
31
0.0000000000
11
-7.2973795408
21
-7.8759795362
31
0.0000000000
11
-7.0922887716
21
-8.1642995406
31
0.0000000000
11
-6.8750731133
21
-8.4367108542
31
0.0000000000
11
-6.6472976098
21
-8.6912507471
31
0.0000000000
11
-6.4106033889
21
-8.9260852537
31
0.0000000000
11
-6.1666958378
21
-9.1395223860
31
0.0000000000
11
-5.9173323160
21
-9.3300243245
31
0.0000000000
11
-5.6643094933
21
-9.4962184984
31
0.0000000000
11
-5.4094504051
21
-9.6369074749
31
0.0000000000
0
SPLINE
5
32C
100
AcDbEntity
8
0
100
AcDbSpline
62
7
6
CONTINUOUS
70
0
71
3
72
9
73
5
74
3
42
0.0000001000
43
0.0000001000
44
0.0000000001
12
0.0951394454
22
0.0872135467
32
0.0000000000
13
0.0771623662
23
0.1035078003
33
0.0000000000
40
0.0000000000
40
0.0000000000
40
0.0000000000
40
0.0000000000
40
0.4971437078
40
1.0000000000
40
1.0000000000
40
1.0000000000
40
1.0000000000
10
12.8353148114
20
15.4584993596
30
0.0000000000
10
12.8510808036
20
15.4729519149
30
0.0000000000
10
12.8812825528
20
15.5037069733
30
0.0000000000
10
12.9084785815
20
15.5371112217
30
0.0000000000
10
12.9214124419
20
15.5544610712
30
0.0000000000
11
12.8353148114
21
15.4584993596
31
0.0000000000
11
12.8803671533
21
15.5041860347
31
0.0000000000
11
12.9214124419
21
15.5544610712
31
0.0000000000
0
SPLINE
5
32D
100
AcDbEntity
8
0
100
AcDbSpline
62
7
6
CONTINUOUS
70
0
71
3
72
11
73
7
74
5
42
0.0000001000
43
0.0000001000
44
0.0000000001
12
0.1064658720
22
0.1428163593
32
0.0000000000
13
0.0724412465
23
0.1627365901
33
0.0000000000
40
0.0000000000
40
0.0000000000
40
0.0000000000
40
0.0000000000
40
0.0094380323
40
0.3928605511
40
0.7813589041
40
1.0000000000
40
1.0000000000
40
1.0000000000
40
1.0000000000
10
12.9214124419
20
15.5544610712
30
0.0000000000
10
12.9217473847
20
15.5549103730
30
0.0000000000
10
12.9356687566
20
15.5736280955
30
0.0000000000
10
12.9616435904
20
15.6121250964
30
0.0000000000
10
12.9902946461
20
15.6635514333
30
0.0000000000
10
13.0057403162
20
15.6961366287
30
0.0000000000
10
13.0110198607
20
15.7079969308
30
0.0000000000
11
12.9214124419
21
15.5544610712
31
0.0000000000
11
12.9224157781
21
15.5558100858
31
0.0000000000
11
12.9606522761
21
15.6123791425
31
0.0000000000
11
12.9943415115
21
15.6728057589
31
0.0000000000
11
13.0110198607
21
15.7079969308
31
0.0000000000
0
SPLINE
5
32E
100
AcDbEntity
8
0
100
AcDbSpline
62
7
6
CONTINUOUS
70
0
71
3
72
9
73
5
74
3
42
0.0000001000
43
0.0000001000
44
0.0000000001
12
-0.0524116030
22
-0.0162835663
32
0.0000000000
13
-0.0493400830
23
-0.0240351174
33
0.0000000000
40
0.0000000000
40
0.0000000000
40
0.0000000000
40
0.0000000000
40
0.4899934872
40
1.0000000000
40
1.0000000000
40
1.0000000000
40
1.0000000000
10
2.4525779262
20
21.6235973759
30
0.0000000000
10
2.4440174782
20
21.6209377621
30
0.0000000000
10
2.4267663105
20
21.6147839491
30
0.0000000000
10
2.4100346562
20
21.6073412932
30
0.0000000000
10
2.4016467350
20
21.6032552710
30
0.0000000000
11
2.4525779262
21
21.6235973759
31
0.0000000000
11
2.4272362904
21
21.6145976625
31
0.0000000000
11
2.4016467350
21
21.6032552710
31
0.0000000000
0
SPLINE
5
32F
100
AcDbEntity
8
0
100
AcDbSpline
62
7
6
CONTINUOUS
70
0
71
3
72
9
73
5
74
3
42
0.0000001000
43
0.0000001000
44
0.0000000001
12
-0.0502803636
22
-0.0161753641
32
0.0000000000
13
-0.0473762501
23
-0.0233505524
33
0.0000000000
40
0.0000000000
40
0.0000000000
40
0.0000000000
40
0.0000000000
40
0.4902123986
40
1.0000000000
40
1.0000000000
40
1.0000000000
40
1.0000000000
10
8.0058006694
20
18.8455448866
30
0.0000000000
10
7.9975846502
20
18.8429017653
30
0.0000000000
10
7.9810346443
20
18.8368395352
30
0.0000000000
10
7.9649752462
20
18.8295842602
30
0.0000000000
10
7.9569246379
20
18.8256163195
30
0.0000000000
11
8.0058006694
21
18.8455448866
31
0.0000000000
11
7.9814765111
21
18.8366715061
31
0.0000000000
11
7.9569246379
21
18.8256163195
31
0.0000000000
0
SPLINE
5
330
100
AcDbEntity
8
0
100
AcDbSpline
62
7
6
CONTINUOUS
70
0
71
3
72
15
73
11
74
9
42
0.0000001000
43
0.0000001000
44
0.0000000001
12
-1.7659697413
22
0.8829848706
32
0.0000000000
13
-1.7675019030
23
-0.8836058371
33
0.0000000000
40
0.0000000000
40
0.0000000000
40
0.0000000000
40
0.0000000000
40
0.1452817778
40
0.2842783406
40
0.4172553572
40
0.5447114935
40
0.6673910399
40
0.7862809192
40
0.9025843142
40
1.0000000000
40
1.0000000000
40
1.0000000000
40
1.0000000000
10
-5.7807114275
20
-2.4613220539
30
0.0000000000
10
-5.8662325020
20
-2.4185615167
30
0.0000000000
10
-6.0371837070
20
-2.3418248325
30
0.0000000000
10
-6.2974795991
20
-2.2530169264
30
0.0000000000
10
-6.5541047021
20
-2.1937498331
30
0.0000000000
10
-6.8051196497
20
-2.1645694027
30
0.0000000000
10
-7.0486230163
20
-2.1658053792
30
0.0000000000
10
-7.2827096050
20
-2.1975702744
30
0.0000000000
10
-7.4942489963
20
-2.2565866412
30
0.0000000000
10
-7.6239744358
20
-2.3119233741
30
0.0000000000
10
-7.6813685725
20
-2.3406157303
30
0.0000000000
11
-5.7807114275
21
-2.4613220539
31
0.0000000000
11
-6.0426321985
21
-2.3443674929
31
0.0000000000
11
-6.3025595944
21
-2.2563146758
31
0.0000000000
11
-6.5585154105
21
-2.1978337376
31
0.0000000000
11
-6.8085516688
21
-2.1693697536
31
0.0000000000
11
-7.0507654421
21
-2.1711393520
31
0.0000000000
11
-7.2833133375
21
-2.2031290650
31
0.0000000000
11
-7.5044255251
21
-2.2650954316
31
0.0000000000
11
-7.6813685725
21
-2.3406157303
31
0.0000000000
0
SPLINE
5
331
100
AcDbEntity
8
0
100
AcDbSpline
62
7
6
CONTINUOUS
70
0
71
3
72
36
73
32
74
30
42
0.0000001000
43
0.0000001000
44
0.0000000001
12
7.9981760405
22
-3.9990880203
32
0.0000000000
13
-8.0051152872
23
-4.0019004123
33
0.0000000000
40
0.0000000000
40
0.0000000000
40
0.0000000000
40
0.0000000000
40
0.0334773377
40
0.0683247578
40
0.1044767596
40
0.1418370518
40
0.1802833312
40
0.2196716637
40
0.2598405138
40
0.3006144882
40
0.3418078604
40
0.3832279372
40
0.4246783228
40
0.4659621297
40
0.5068851825
40
0.5472592605
40
0.5869054274
40
0.6256575009
40
0.6633657220
40
0.6999006895
40
0.7351576266
40
0.7690610343
40
0.8015697487
40
0.8326823236
40
0.8624424873
40
0.8909441191
40
0.9183347605
40
0.9448162022
40
0.9706404125
40
0.9960994184
40
1.0000000000
40
1.0000000000
40
1.0000000000
40
1.0000000000
10
-5.7807114275
20
-2.4613220539
30
0.0000000000
10
-5.6914588808
20
-2.5059483273
30
0.0000000000
10
-5.5132010765
20
-2.6050039284
30
0.0000000000
10
-5.2534581654
20
-2.7773037827
30
0.0000000000
10
-4.9977574034
20
-2.9750805588
30
0.0000000000
10
-4.7480403796
20
-3.1968222622
30
0.0000000000
10
-4.5061737547
20
-3.4408560944
30
0.0000000000
10
-4.2739801485
20
-3.7053362835
30
0.0000000000
10
-4.0532099840
20
-3.9882634925
30
0.0000000000
10
-3.8455307690
20
-4.2874976810
30
0.0000000000
10
-3.6525125458
20
-4.6007747099
30
0.0000000000
10
-3.4756155853
20
-4.9257234760
30
0.0000000000
10
-3.3161787417
20
-5.2598841890
30
0.0000000000
10
-3.1754089988
20
-5.6007273830
30
0.0000000000
10
-3.0543721563
20
-5.9456735546
30
0.0000000000
10
-2.9539847775
20
-6.2921132533
30
0.0000000000
10
-2.8750074844
20
-6.6374274616
30
0.0000000000
10
-2.8180397196
20
-6.9790080869
30
0.0000000000
10
-2.7835161107
20
-7.3142783521
30
0.0000000000
10
-2.7717045967
20
-7.6407128087
30
0.0000000000
10
-2.7827064755
20
-7.9558565820
30
0.0000000000
10
-2.8164584823
20
-8.2573432732
30
0.0000000000
10
-2.8727368099
20
-8.5429106833
30
0.0000000000
10
-2.9511625112
20
-8.8104132559
30
0.0000000000
10
-3.0512067910
20
-9.0578300828
30
0.0000000000
10
-3.1721932928
20
-9.2832680621
30
0.0000000000
10
-3.3132932219
20
-9.4849621687
30
0.0000000000
10
-3.4735099517
20
-9.6612791930
30
0.0000000000
10
-3.6516554929
20
-9.8107355525
30
0.0000000000
10
-3.7917335703
20
-9.8980175946
30
0.0000000000
10
-3.8696460808
20
-9.9380410635
30
0.0000000000
10
-3.8800542825
20
-9.9432443098
30
0.0000000000
11
-5.7807114275
21
-2.4613220539
31
0.0000000000
11
-5.5187906565
21
-2.6062882640
31
0.0000000000
11
-5.2588632606
21
-2.7781628426
31
0.0000000000
11
-5.0029074445
21
-2.9756377206
31
0.0000000000
11
-4.7528711862
21
-3.1972099949
31
0.0000000000
11
-4.5106574129
21
-3.4411933666
31
0.0000000000
11
-4.2781095175
21
-3.7057309750
31
0.0000000000
11
-4.0569973299
21
-3.9888095292
31
0.0000000000
11
-3.8490036474
21
-4.2882746303
31
0.0000000000
11
-3.6557114275
21
-4.6018471683
31
0.0000000000
11
-3.4785917407
21
-4.9271406667
31
0.0000000000
11
-3.3189925748
21
-5.2616794456
31
0.0000000000
11
-3.1781285758
21
-5.6029174628
31
0.0000000000
11
-3.0570718038
21
-5.9482576911
31
0.0000000000
11
-2.9567435739
21
-6.2950718827
31
0.0000000000
11
-2.8779074445
21
-6.6407205724
31
0.0000000000
11
-2.8211634061
21
-6.9825731647
31
0.0000000000
11
-2.7869433153
21
-7.3180279551
31
0.0000000000
11
-2.7755076075
21
-7.6445319300
31
0.0000000000
11
-2.7869433153
21
-7.9596001972
31
0.0000000000
11
-2.8211634061
21
-8.2608348967
31
0.0000000000
11
-2.8779074445
21
-8.5459434507
31
0.0000000000
11
-2.9567435739
21
-8.8127560109
31
0.0000000000
11
-3.0570718038
21
-9.0592419727
31
0.0000000000
11
-3.1781285758
21
-9.2835254289
31
0.0000000000
11
-3.3189925748
21
-9.4838994471
31
0.0000000000
11
-3.4785917407
21
-9.6588390601
31
0.0000000000
11
-3.6557114275
21
-9.8070128717
31
0.0000000000
11
-3.8490036474
21
-9.9272931898
31
0.0000000000
11
-3.8800542825
21
-9.9432443098
31
0.0000000000
0
SPLINE
5
332
100
AcDbEntity
8
0
100
AcDbSpline
62
7
6
CONTINUOUS
70
0
71
3
72
12
73
8
74
6
42
0.0000001000
43
0.0000001000
44
0.0000000001
12
0.2232195028
22
0.0718104737
32
0.0000000000
13
0.2099080423
23
-0.1048629522
33
0.0000000000
40
0.0000000000
40
0.0000000000
40
0.0000000000
40
0.0000000000
40
0.1665047016
40
0.3506519844
40
0.5559548999
40
0.7852900837
40
1.0000000000
40
1.0000000000
40
1.0000000000
40
1.0000000000
10
8.0058006694
20
18.8455448866
30
0.0000000000
10
8.0181897017
20
18.8495304805
30
0.0000000000
10
8.0452305728
20
18.8551514707
30
0.0000000000
10
8.0888983020
20
18.8558269575
30
0.0000000000
10
8.1369023501
20
18.8484439480
30
0.0000000000
10
8.1855476036
20
18.8334245860
30
0.0000000000
10
8.2173447888
20
18.8193550203
30
0.0000000000
10
8.2323679015
20
18.8118499818
30
0.0000000000
11
8.0058006694
21
18.8455448866
31
0.0000000000
11
8.0439830672
21
18.8536973220
31
0.0000000000
11
8.0871523734
21
18.8546565645
31
0.0000000000
11
8.1347796478
21
18.8476447109
31
0.0000000000
11
8.1862516655
21
18.8320730039
31
0.0000000000
11
8.2323679015
21
18.8118499818
31
0.0000000000
0
SPLINE
5
333
100
AcDbEntity
8
0
100
AcDbSpline
62
7
6
CONTINUOUS
70
0
71
3
72
12
73
8
74
6
42
0.0000001000
43
0.0000001000
44
0.0000000001
12
0.2221403376
22
0.0690159568
32
0.0000000000
13
0.2082362667
23
-0.1040158412
33
0.0000000000
40
0.0000000000
40
0.0000000000
40
0.0000000000
40
0.0000000000
40
0.1675752984
40
0.3529382434
40
0.5596034574
40
0.7905636802
40
1.0000000000
40
1.0000000000
40
1.0000000000
40
1.0000000000
10
2.4525779262
20
21.6235973759
30
0.0000000000
10
2.4649863374
20
21.6274524991
30
0.0000000000
10
2.4920324913
20
21.6328177388
30
0.0000000000
10
2.5356350384
20
21.6331794205
30
0.0000000000
10
2.5835346704
20
21.6255456828
30
0.0000000000
10
2.6315582200
20
21.6105029153
30
0.0000000000
10
2.6628193451
20
21.5966172435
30
0.0000000000
10
2.6773567576
20
21.5893556785
30
0.0000000000
11
2.4525779262
21
21.6235973759
31
0.0000000000
11
2.4907716763
21
21.6313892454
31
0.0000000000
11
2.5338849589
21
21.6320350513
31
0.0000000000
11
2.5814062190
21
21.6247703709
31
0.0000000000
11
2.6327639827
21
21.6089993675
31
0.0000000000
11
2.6773567576
21
21.5893556785
31
0.0000000000
0
SPLINE
5
334
100
AcDbEntity
8
0
100
AcDbSpline
62
7
6
CONTINUOUS
70
0
71
3
72
14
73
10
74
8
42
0.0000001000
43
0.0000001000
44
0.0000000001
12
0.0000000000
22
-0.3164868317
32
0.0000000000
13
-0.2844942199
23
-0.1402506731
33
0.0000000000
40
0.0000000000
40
0.0000000000
40
0.0000000000
40
0.0000000000
40
0.1893369747
40
0.3665734988
40
0.5311546098
40
0.6848972396
40
0.8292569482
40
0.9687228975
40
1.0000000000
40
1.0000000000
40
1.0000000000
40
1.0000000000
10
8.7680405576
20
-25.7101108530
30
0.0000000000
10
8.7680405576
20
-25.7300850727
30
0.0000000000
10
8.7658641317
20
-25.7688098382
30
0.0000000000
10
8.7553818413
20
-25.8240371950
30
0.0000000000
10
8.7379247523
20
-25.8735611984
30
0.0000000000
10
8.7137633918
20
-25.9163060698
30
0.0000000000
10
8.6832246620
20
-25.9513887599
30
0.0000000000
10
8.6561195819
20
-25.9711475828
30
0.0000000000
10
8.6401396209
20
-25.9795573233
30
0.0000000000
10
8.6371735693
20
-25.9810195349
30
0.0000000000
11
8.7680405576
21
-25.7101108530
31
0.0000000000
11
8.7644429641
21
-25.7699254199
31
0.0000000000
11
8.7537083789
21
-25.8249817205
31
0.0000000000
11
8.7360969618
21
-25.8740018403
31
0.0000000000
11
8.7118801275
21
-25.9162049087
31
0.0000000000
11
8.6816915940
21
-25.9504983617
31
0.0000000000
11
8.6459507358
21
-25.9763992192
31
0.0000000000
11
8.6371735693
21
-25.9810195349
31
0.0000000000
0
SPLINE
5
335
100
AcDbEntity
8
0
100
AcDbSpline
62
7
6
CONTINUOUS
70
0
71
3
72
18
73
14
74
12
42
0.0000001000
43
0.0000001000
44
0.0000000001
12
0.6585649027
22
-0.3292824513
32
0.0000000000
13
-0.0000000000
23
-0.7362979450
33
0.0000000000
40
0.0000000000
40
0.0000000000
40
0.0000000000
40
0.0000000000
40
0.0792653594
40
0.1637066815
40
0.2524724019
40
0.3451271580
40
0.4401120866
40
0.5368851972
40
0.6335836001
40
0.7296003675
40
0.8232033591
40
0.9137385471
40
1.0000000000
40
1.0000000000
40
1.0000000000
40
1.0000000000
10
8.4143794569
20
12.8164472683
30
0.0000000000
10
8.4317799181
20
12.8077470377
30
0.0000000000
10
8.4664514905
20
12.7871738261
30
0.0000000000
10
8.5156052945
20
12.7492382580
30
0.0000000000
10
8.5627302508
20
12.7039344584
30
0.0000000000
10
8.6068153274
20
12.6522377779
30
0.0000000000
10
8.6470667749
20
12.5950918516
30
0.0000000000
10
8.6825997309
20
12.5337530062
30
0.0000000000
10
8.7127736281
20
12.4693296601
30
0.0000000000
10
8.7369252886
20
12.4032401602
30
0.0000000000
10
8.7546108597
20
12.3366899795
30
0.0000000000
10
8.7654513128
20
12.2711125439
30
0.0000000000
10
8.7680405576
20
12.2276929545
30
0.0000000000
10
8.7680405576
20
12.2065215777
30
0.0000000000
11
8.4143794569
21
12.8164472683
31
0.0000000000
11
8.4646989392
21
12.7868807284
31
0.0000000000
11
8.5140455888
21
12.7490586322
31
0.0000000000
11
8.5612695924
21
12.7038749634
31
0.0000000000
11
8.6056215355
21
12.6520379196
31
0.0000000000
11
8.6459507358
21
12.5948997658
31
0.0000000000
11
8.6816915940
21
12.5332580501
31
0.0000000000
11
8.7118801275
21
12.4687760634
31
0.0000000000
11
8.7360969618
21
12.4023561608
31
0.0000000000
11
8.7537083789
21
12.3357246239
31
0.0000000000
11
8.7644429641
21
12.2699337381
31
0.0000000000
11
8.7680405576
21
12.2065215777
31
0.0000000000
0
SPLINE
5
336
100
AcDbEntity
8
0
100
AcDbSpline
62
7
6
CONTINUOUS
70
0
71
3
72
8
73
4
74
2
42
0.0000001000
43
0.0000001000
44
0.0000000001
12
0.0055971906
22
0.0084399740
32
0.0000000000
13
-0.0019635754
23
0.0093247255
33
0.0000000000
40
0.0000000000
40
0.0000000000
40
0.0000000000
40
0.0000000000
40
1.0000000000
40
1.0000000000
40
1.0000000000
40
1.0000000000
10
13.4601928332
20
-20.9451227791
30
0.0000000000
10
13.4620585634
20
-20.9423094545
30
0.0000000000
10
13.4647871446
20
-20.9388388325
30
0.0000000000
10
13.4641326195
20
-20.9357305907
30
0.0000000000
11
13.4601928332
21
-20.9451227791
31
0.0000000000
11
13.4641326195
21
-20.9357305907
31
0.0000000000
0
SPLINE
5
337
100
AcDbEntity
8
0
100
AcDbSpline
62
7
6
CONTINUOUS
70
0
71
3
72
15
73
11
74
9
42
0.0000001000
43
0.0000001000
44
0.0000000001
12
0.0548220266
22
0.1975428018
32
0.0000000000
13
0.1824057236
23
0.0935775889
33
0.0000000000
40
0.0000000000
40
0.0000000000
40
0.0000000000
40
0.0000000000
40
0.1029198789
40
0.2104743227
40
0.3238712058
40
0.4440050730
40
0.5714710306
40
0.7065956722
40
0.8494731528
40
1.0000000000
40
1.0000000000
40
1.0000000000
40
1.0000000000
10
-3.4276923351
20
18.6798248880
30
0.0000000000
10
-3.4258115763
20
18.6866019151
30
0.0000000000
10
-3.4208952679
20
18.7001829271
30
0.0000000000
10
-3.4105074057
20
18.7197951954
30
0.0000000000
10
-3.3970589433
20
18.7389016323
30
0.0000000000
10
-3.3806494805
20
18.7573832149
30
0.0000000000
10
-3.3613891755
20
18.7751341093
30
0.0000000000
10
-3.3394022299
20
18.7920493482
30
0.0000000000
10
-3.3148294832
20
18.8080269433
30
0.0000000000
10
-3.2972703797
20
18.8177430676
30
0.0000000000
10
-3.2881180602
20
18.8224383807
30
0.0000000000
11
-3.4276923351
21
18.6798248880
31
0.0000000000
11
-3.4205648838
21
18.6996840820
31
0.0000000000
11
-3.4103097550
21
18.7192037536
31
0.0000000000
11
-3.3969926793
21
18.7382588123
31
0.0000000000
11
-3.3806990084
21
18.7567271465
31
0.0000000000
11
-3.3615331674
21
18.7744904060
31
0.0000000000
11
-3.3396179824
21
18.7914347617
31
0.0000000000
11
-3.3150938945
21
18.8074516325
31
0.0000000000
11
-3.2881180602
21
18.8224383807
31
0.0000000000
0
SPLINE
5
338
100
AcDbEntity
8
0
100
AcDbSpline
62
7
6
CONTINUOUS
70
0
71
3
72
9
73
5
74
3
42
0.0000001000
43
0.0000001000
44
0.0000000001
12
-0.0110755293
22
-0.0399089786
32
0.0000000000
13
0.0000076398
23
-0.0414526487
33
0.0000000000
40
0.0000000000
40
0.0000000000
40
0.0000000000
40
0.0000000000
40
0.7184555853
40
1.0000000000
40
1.0000000000
40
1.0000000000
40
1.0000000000
10
-3.4276923351
20
18.6798248880
30
0.0000000000
10
-3.4303447603
20
18.6702672785
30
0.0000000000
10
-3.4321585255
20
18.6564524045
30
0.0000000000
10
-3.4325166723
20
18.6426282330
30
0.0000000000
10
-3.4325159553
20
18.6387379791
30
0.0000000000
11
-3.4276923351
21
18.6798248880
31
0.0000000000
11
-3.4321996209
21
18.6504117326
31
0.0000000000
11
-3.4325159553
21
18.6387379791
31
0.0000000000
0
SPLINE
5
339
100
AcDbEntity
8
0
100
AcDbSpline
62
7
6
CONTINUOUS
70
0
71
3
72
13
73
9
74
7
42
0.0000001000
43
0.0000001000
44
0.0000000001
12
0.4109068760
22
0.2010615886
32
0.0000000000
13
0.4098481622
23
-0.2048837263
33
0.0000000000
40
0.0000000000
40
0.0000000000
40
0.0000000000
40
0.0000000000
40
0.2005143800
40
0.3892497752
40
0.5669911938
40
0.7362259433
40
0.8992258387
40
1.0000000000
40
1.0000000000
40
1.0000000000
40
1.0000000000
10
9.3752519141
20
18.6380575075
30
0.0000000000
10
9.4027161599
20
18.6514960875
30
0.0000000000
10
9.4576059273
20
18.6745574578
30
0.0000000000
10
9.5413382333
20
18.6972002071
30
0.0000000000
10
9.6228553475
20
18.7064493089
30
0.0000000000
10
9.7009066553
20
18.7020300914
30
0.0000000000
10
9.7653976116
20
18.6860841505
30
0.0000000000
10
9.8025397312
20
18.6702784207
30
0.0000000000
10
9.8163070995
20
18.6633960921
30
0.0000000000
11
9.3752519141
21
18.6380575075
31
0.0000000000
11
9.4599552701
21
18.6732606828
31
0.0000000000
11
9.5433980071
21
18.6954357725
31
0.0000000000
11
9.6242301623
21
18.7042352071
31
0.0000000000
11
9.7015064049
21
18.6995484891
31
0.0000000000
11
9.7738467666
21
18.6814663021
31
0.0000000000
11
9.8163070995
21
18.6633960921
31
0.0000000000
0
SPLINE
5
33A
100
AcDbEntity
8
0
100
AcDbSpline
62
7
6
CONTINUOUS
70
0
71
3
72
11
73
7
74
5
42
0.0000001000
43
0.0000001000
44
0.0000000001
12
-0.3714534514
22
0.3656050754
32
0.0000000000
13
-0.4665225503
23
0.2329349302
33
0.0000000000
40
0.0000000000
40
0.0000000000
40
0.0000000000
40
0.0000000000
40
0.3313178509
40
0.6331039431
40
0.9049039262
40
1.0000000000
40
1.0000000000
40
1.0000000000
40
1.0000000000
10
13.4601928332
20
16.7427725723
30
0.0000000000
10
13.4191697801
20
16.7831497349
30
0.0000000000
10
13.3375961382
20
16.8571714771
30
0.0000000000
10
13.2121393698
20
16.9522555160
30
0.0000000000
10
13.1132402087
20
17.0135533428
30
0.0000000000
10
13.0567557405
20
17.0431887506
30
0.0000000000
10
13.0419675862
20
17.0505724830
30
0.0000000000
11
13.4601928332
21
16.7427725723
31
0.0000000000
11
13.3320929403
21
16.8585709865
31
0.0000000000
11
13.2065116512
21
16.9532775984
31
0.0000000000
11
13.0858871106
21
17.0275577297
31
0.0000000000
11
13.0419675862
21
17.0505724830
31
0.0000000000
0
SPLINE
5
33B
100
AcDbEntity
8
0
100
AcDbSpline
62
7
6
CONTINUOUS
70
0
71
3
72
14
73
10
74
8
42
0.0000001000
43
0.0000001000
44
0.0000000001
12
0.2708906112
22
0.1349093253
32
0.0000000000
13
0.2717712229
23
-0.1267148392
33
0.0000000000
40
0.0000000000
40
0.0000000000
40
0.0000000000
40
0.0000000000
40
0.2329202022
40
0.4399164115
40
0.6194083446
40
0.7700461865
40
0.8880329346
40
0.9699863429
40
1.0000000000
40
1.0000000000
40
1.0000000000
40
1.0000000000
10
2.0656452830
20
22.2928608231
30
0.0000000000
10
2.0866772484
20
22.3033351922
30
0.0000000000
10
2.1265712469
20
22.3227922286
30
0.0000000000
10
2.1832743904
20
22.3489943573
30
0.0000000000
10
2.2332203179
20
22.3702186931
30
0.0000000000
10
2.2752119086
20
22.3863899260
30
0.0000000000
10
2.3098587687
20
22.3962979571
30
0.0000000000
10
2.3312342534
20
22.4011041480
30
0.0000000000
10
2.3445479190
20
22.3991576005
30
0.0000000000
10
2.3472668685
20
22.3978898752
30
0.0000000000
11
2.0656452830
21
22.2928608231
31
0.0000000000
11
2.1290280643
21
22.3237011668
31
0.0000000000
11
2.1859522543
21
22.3498488370
31
0.0000000000
11
2.2359735993
21
22.3710243607
31
0.0000000000
11
2.2787041278
21
22.3869071910
31
0.0000000000
11
2.3130110076
21
22.3968037984
31
0.0000000000
11
2.3376190419
21
22.3998931519
31
0.0000000000
11
2.3472668685
21
22.3978898752
31
0.0000000000
0
SPLINE
5
33C
100
AcDbEntity
8
0
100
AcDbSpline
62
7
6
CONTINUOUS
70
0
71
3
72
15
73
11
74
9
42
0.0000001000
43
0.0000001000
44
0.0000000001
12
0.0000000000
22
0.6311300022
32
0.0000000000
13
-0.5654420458
23
0.2826653478
33
0.0000000000
40
0.0000000000
40
0.0000000000
40
0.0000000000
40
0.0000000000
40
0.1606293349
40
0.3126800366
40
0.4557227302
40
0.5905083928
40
0.7175351878
40
0.8389320932
40
0.9563750069
40
1.0000000000
40
1.0000000000
40
1.0000000000
40
1.0000000000
10
5.8335474157
20
20.2438535173
30
0.0000000000
10
5.8335474157
20
20.2776461814
30
0.0000000000
10
5.8304123351
20
20.3434875252
30
0.0000000000
10
5.8154811100
20
20.4383965737
30
0.0000000000
10
5.7906060804
20
20.5256084192
30
0.0000000000
10
5.7560888258
20
20.6038061570
30
0.0000000000
10
5.7122872928
20
20.6719208096
30
0.0000000000
10
5.6597899127
20
20.7287915560
30
0.0000000000
10
5.6116904156
20
20.7643186556
30
0.0000000000
10
5.5818888809
20
20.7806060111
30
0.0000000000
10
5.5736664124
20
20.7847164357
30
0.0000000000
11
5.8335474157
21
20.2438535173
31
0.0000000000
11
5.8284500767
21
20.3451032802
31
0.0000000000
11
5.8132193807
21
20.4398506763
31
0.0000000000
11
5.7881108674
21
20.5265673214
31
0.0000000000
11
5.7534119851
21
20.6042360341
31
0.0000000000
11
5.7097480796
21
20.6714726300
31
0.0000000000
11
5.6575690897
21
20.7275756854
31
0.0000000000
11
5.5978581186
21
20.7714918922
31
0.0000000000
11
5.5736664124
21
20.7847164357
31
0.0000000000
0
SPLINE
5
33D
100
AcDbEntity
8
0
100
AcDbSpline
62
7
6
CONTINUOUS
70
0
71
3
72
17
73
13
74
11
42
0.0000001000
43
0.0000001000
44
0.0000000001
12
1.0551396127
22
0.5296213678
32
0.0000000000
13
0.9898942831
23
0.6433721347
33
0.0000000000
40
0.0000000000
40
0.0000000000
40
0.0000000000
40
0.0000000000
40
0.0675213051
40
0.1418306670
40
0.2230260770
40
0.3118684727
40
0.4084188083
40
0.5131016756
40
0.6257109067
40
0.7455368430
40
0.8710698098
40
1.0000000000
40
1.0000000000
40
1.0000000000
40
1.0000000000
10
12.4422178580
20
-21.5420778650
30
0.0000000000
10
12.4659659926
20
-21.5301576231
30
0.0000000000
10
12.5156323718
20
-21.5046846972
30
0.0000000000
10
12.5931681947
20
-21.4635526411
30
0.0000000000
10
12.6775662993
20
-21.4174669459
30
0.0000000000
10
12.7690932656
20
-21.3661871983
30
0.0000000000
10
12.8681133470
20
-21.3093831724
30
0.0000000000
10
12.9746448651
20
-21.2468882216
30
0.0000000000
10
13.0884303819
20
-21.1786679997
30
0.0000000000
10
13.2085482345
20
-21.1050649377
30
0.0000000000
10
13.3333651452
20
-21.0268512903
30
0.0000000000
10
13.4176504138
20
-20.9727728097
30
0.0000000000
10
13.4601928332
20
-20.9451227791
30
0.0000000000
11
12.4422178580
21
-21.5420778650
31
0.0000000000
11
12.5131740880
21
-21.5057487032
31
0.0000000000
11
12.5906942967
21
-21.4646741740
31
0.0000000000
11
12.6748445523
21
-21.4187638974
31
0.0000000000
11
12.7663631484
21
-21.3675221654
31
0.0000000000
11
12.8652484313
21
-21.3108226914
31
0.0000000000
11
12.9718575689
21
-21.2483034590
31
0.0000000000
11
13.0858871106
21
-21.1799510619
31
0.0000000000
11
13.2065116512
21
-21.1060421979
31
0.0000000000
11
13.3320929403
21
-21.0273410995
31
0.0000000000
11
13.4601928332
21
-20.9451227791
31
0.0000000000
0
SPLINE
5
33E
100
AcDbEntity
8
0
100
AcDbSpline
62
7
6
CONTINUOUS
70
0
71
3
72
8
73
4
74
2
42
0.0000001000
43
0.0000001000
44
0.0000000001
12
0.0031252547
22
0.0016020349
32
0.0000000000
13
0.0030623916
23
0.0017186206
33
0.0000000000
40
0.0000000000
40
0.0000000000
40
0.0000000000
40
0.0000000000
40
1.0000000000
40
1.0000000000
40
1.0000000000
40
1.0000000000
10
7.6432749462
20
-28.0644681451
30
0.0000000000
10
7.6443166978
20
-28.0639341335
30
0.0000000000
10
7.6453483785
20
-28.0633805813
30
0.0000000000
10
7.6463691757
20
-28.0628077078
30
0.0000000000
11
7.6432749462
21
-28.0644681451
31
0.0000000000
11
7.6463691757
21
-28.0628077078
31
0.0000000000
0
SPLINE
5
33F
100
AcDbEntity
8
0
100
AcDbSpline
62
7
6
CONTINUOUS
70
0
71
3
72
13
73
9
74
7
42
0.0000001000
43
0.0000001000
44
0.0000000001
12
0.1339245570
22
0.0751587447
32
0.0000000000
13
-0.0000000000
23
0.1532497058
33
0.0000000000
40
0.0000000000
40
0.0000000000
40
0.0000000000
40
0.0000000000
40
0.1437253460
40
0.2929995974
40
0.4514947733
40
0.6216146730
40
0.8044628653
40
1.0000000000
40
1.0000000000
40
1.0000000000
40
1.0000000000
10
7.6463691757
20
-28.0628077078
30
0.0000000000
10
7.6527852934
20
-28.0592069689
30
0.0000000000
10
7.6649887130
20
-28.0503103753
30
0.0000000000
10
7.6802463129
20
-28.0327803576
30
0.0000000000
10
7.6923288260
20
-28.0114020650
30
0.0000000000
10
7.7010521479
20
-27.9866511057
30
0.0000000000
10
7.7062924834
20
-27.9590353349
30
0.0000000000
10
7.7073803859
20
-27.9396797082
30
0.0000000000
10
7.7073803859
20
-27.9296910387
30
0.0000000000
11
7.6463691757
21
-28.0628077078
31
0.0000000000
11
7.6642037096
21
-28.0498822207
31
0.0000000000
11
7.6793185408
21
-28.0327106160
31
0.0000000000
11
7.6914059755
21
-28.0116424904
31
0.0000000000
11
7.7002199692
21
-27.9871067734
31
0.0000000000
11
7.7055811344
21
-27.9596029820
31
0.0000000000
11
7.7073803859
21
-27.9296910387
31
0.0000000000
0
SPLINE
5
340
100
AcDbEntity
8
0
100
AcDbSpline
62
9
6
CONTINUOUS
70
0
71
3
72
13
73
9
74
7
42
0.0000001000
43
0.0000001000
44
0.0000000001
12
0.1404641343
22
0.1009168633
32
0.0000000000
13
-0.0253703020
23
0.1705159218
33
0.0000000000
40
0.0000000000
40
0.0000000000
40
0.0000000000
40
0.0000000000
40
0.0099836599
40
0.1744627661
40
0.3499247271
40
0.5438129824
40
0.7601582436
40
1.0000000000
40
1.0000000000
40
1.0000000000
40
1.0000000000
10
12.7587776026
20
15.2008720382
30
0.0000000000
10
12.7592450514
20
15.2012078780
30
0.0000000000
10
12.7673578891
20
15.2071536911
30
0.0000000000
10
12.7816136765
20
15.2217669657
30
0.0000000000
10
12.7961533104
20
15.2491741680
30
0.0000000000
10
12.8045980882
20
15.2820107759
30
0.0000000000
10
12.8069743832
20
15.3194617487
30
0.0000000000
10
12.8046584651
20
15.3456694178
30
0.0000000000
10
12.8026301792
20
15.3593016971
30
0.0000000000
11
12.7587776026
21
15.2008720382
31
0.0000000000
11
12.7601702762
21
15.2018927663
31
0.0000000000
11
12.7800916286
21
15.2220706747
31
0.0000000000
11
12.7945829995
21
15.2486218754
31
0.0000000000
11
12.8032880069
21
15.2808934023
31
0.0000000000
11
12.8059925710
21
15.3180916111
31
0.0000000000
11
12.8026301792
21
15.3593016971
31
0.0000000000
0
SPLINE
5
341
100
AcDbEntity
8
0
100
AcDbSpline
62
7
6
CONTINUOUS
70
0
71
3
72
16
73
12
74
10
42
0.0000001000
43
0.0000001000
44
0.0000000001
12
0.0000699534
22
-0.3795606888
32
0.0000000000
13
0.2340882352
23
-0.2983680849
33
0.0000000000
40
0.0000000000
40
0.0000000000
40
0.0000000000
40
0.0000000000
40
0.0597108165
40
0.1596350220
40
0.2670631249
40
0.3804958614
40
0.4987285191
40
0.6207319988
40
0.7455653644
40
0.8723118181
40
1.0000000000
40
1.0000000000
40
1.0000000000
40
1.0000000000
10
-3.4325159553
20
18.6387379791
30
0.0000000000
10
-3.4325145629
20
18.6311833529
30
0.0000000000
10
-3.4314870048
20
18.6110050898
30
0.0000000000
10
-3.4263999227
20
18.5775595104
30
0.0000000000
10
-3.4165188414
20
18.5381815799
30
0.0000000000
10
-3.4027839831
20
18.4975331610
30
0.0000000000
10
-3.3855088096
20
18.4562612935
30
0.0000000000
10
-3.3649731399
20
18.4148995799
30
0.0000000000
10
-3.3414379895
20
18.3739241467
30
0.0000000000
10
-3.3151664144
20
18.3337885740
30
0.0000000000
10
-3.2960305985
20
18.3079109080
30
0.0000000000
10
-3.2860671648
20
18.2952115485
30
0.0000000000
11
-3.4325159553
21
18.6387379791
31
0.0000000000
11
-3.4314641867
21
18.6161142432
31
0.0000000000
11
-3.4259768288
21
18.5786186738
31
0.0000000000
11
-3.4161968448
21
18.5390692263
31
0.0000000000
11
-3.4025151337
21
18.4982850239
31
0.0000000000
11
-3.3852620669
21
18.4568990684
31
0.0000000000
11
-3.3647254646
21
18.4154382544
31
0.0000000000
11
-3.3411700875
21
18.3743729761
31
0.0000000000
11
-3.3148566032
21
18.3341481882
31
0.0000000000
11
-3.2860671648
21
18.2952115485
31
0.0000000000
0
SPLINE
5
342
100
AcDbEntity
8
0
100
AcDbSpline
62
7
6
CONTINUOUS
70
0
71
3
72
13
73
9
74
7
42
0.0000001000
43
0.0000001000
44
0.0000000001
12
0.0001621197
22
-0.2053015825
32
0.0000000000
13
-0.1837351430
23
-0.0899037760
33
0.0000000000
40
0.0000000000
40
0.0000000000
40
0.0000000000
40
0.0000000000
40
0.0400211980
40
0.1970867995
40
0.3665716191
40
0.5547424593
40
0.7657022224
40
1.0000000000
40
1.0000000000
40
1.0000000000
40
1.0000000000
10
3.1813963881
20
20.2420771693
30
0.0000000000
10
3.1813985508
20
20.2393383642
30
0.0000000000
10
3.1808825674
20
20.2258536202
30
0.0000000000
10
3.1749980039
20
20.2011830106
30
0.0000000000
10
3.1576310714
20
20.1702589239
30
0.0000000000
10
3.1313803209
20
20.1413766787
30
0.0000000000
10
3.0969685563
20
20.1149861220
30
0.0000000000
10
3.0704027797
20
20.1000894421
30
0.0000000000
10
3.0560532011
20
20.0930680238
30
0.0000000000
11
3.1813963881
21
20.2420771693
31
0.0000000000
11
3.1810798120
21
20.2338709343
31
0.0000000000
11
3.1738611488
21
20.2025644020
31
0.0000000000
11
3.1572635823
21
20.1721273153
31
0.0000000000
11
3.1317084835
21
20.1433442565
31
0.0000000000
11
3.0977029195
21
20.1167787268
31
0.0000000000
11
3.0560532011
21
20.0930680238
31
0.0000000000
0
SPLINE
5
343
100
AcDbEntity
8
0
100
AcDbSpline
62
9
6
CONTINUOUS
70
0
71
3
72
13
73
9
74
7
42
0.0000001000
43
0.0000001000
44
0.0000000001
12
0.1432602364
22
0.0698555072
32
0.0000000000
13
0.0007575955
23
0.1589430906
33
0.0000000000
40
0.0000000000
40
0.0000000000
40
0.0000000000
40
0.0000000000
40
0.1029995317
40
0.2582084770
40
0.4228143965
40
0.6004233616
40
0.7927869796
40
1.0000000000
40
1.0000000000
40
1.0000000000
40
1.0000000000
10
6.0398367066
20
-28.8455736069
30
0.0000000000
10
6.0447552856
20
-28.8431752454
30
0.0000000000
10
6.0565636752
20
-28.8360855665
30
0.0000000000
10
6.0730148686
20
-28.8205502521
30
0.0000000000
10
6.0876103796
20
-28.7983603440
30
0.0000000000
10
6.0982111998
20
-28.7719222492
30
0.0000000000
10
6.1046483877
20
-28.7419034445
30
0.0000000000
10
6.1060472672
20
-28.7207039976
30
0.0000000000
10
6.1060995950
20
-28.7097256384
30
0.0000000000
11
6.0398367066
21
-28.8455736069
31
0.0000000000
11
6.0538956918
21
-28.8371375831
31
0.0000000000
11
6.0719286483
21
-28.8203029437
31
0.0000000000
11
6.0864757252
21
-28.7985566959
31
0.0000000000
11
6.0971787405
21
-28.7724342815
31
0.0000000000
11
6.1037741618
21
-28.7425788933
31
0.0000000000
11
6.1060995950
21
-28.7097256384
31
0.0000000000
0
SPLINE
5
344
100
AcDbEntity
8
0
100
AcDbSpline
62
7
6
CONTINUOUS
70
0
71
3
72
10
73
6
74
4
42
0.0000001000
43
0.0000001000
44
0.0000000001
12
0.1135227119
22
0.0107860175
32
0.0000000000
13
0.1022309127
23
-0.0510958696
33
0.0000000000
40
0.0000000000
40
0.0000000000
40
0.0000000000
40
0.0000000000
40
0.3950794014
40
0.7723224693
40
1.0000000000
40
1.0000000000
40
1.0000000000
40
1.0000000000
10
12.8353148114
20
-19.3706279709
30
0.0000000000
10
12.8502649731
20
-19.3692075264
30
0.0000000000
10
12.8798515214
20
-19.3691041926
30
0.0000000000
10
12.9173305215
20
-19.3770515555
30
0.0000000000
10
12.9386644626
20
-19.3859169005
30
0.0000000000
10
12.9464230231
20
-19.3897946943
30
0.0000000000
11
12.8353148114
21
-19.3706279709
31
0.0000000000
11
12.8803671533
21
-19.3707350227
31
0.0000000000
11
12.9224157781
21
-19.3798183224
31
0.0000000000
11
12.9464230231
21
-19.3897946943
31
0.0000000000
0
SPLINE
5
345
100
AcDbEntity
8
0
100
AcDbSpline
62
7
6
CONTINUOUS
70
0
71
3
72
9
73
5
74
3
42
0.0000001000
43
0.0000001000
44
0.0000000001
12
-0.0038588150
22
-0.0060437679
32
0.0000000000
13
-0.0074305183
23
-0.0014562581
33
0.0000000000
40
0.0000000000
40
0.0000000000
40
0.0000000000
40
0.0000000000
40
0.0719497757
40
1.0000000000
40
1.0000000000
40
1.0000000000
40
1.0000000000
10
8.3067410288
20
13.9855484889
30
0.0000000000
10
8.3066484819
20
13.9854035396
30
0.0000000000
10
8.3052743493
20
13.9834659683
30
0.0000000000
10
8.3026954387
20
13.9827775814
30
0.0000000000
10
8.3003968073
20
13.9823270878
30
0.0000000000
11
8.3067410288
21
13.9855484889
31
0.0000000000
11
8.3064445079
21
13.9851311907
31
0.0000000000
11
8.3003968073
21
13.9823270878
31
0.0000000000
0
SPLINE
5
346
100
AcDbEntity
8
0
100
AcDbSpline
62
7
6
CONTINUOUS
70
0
71
3
72
11
73
7
74
5
42
0.0000001000
43
0.0000001000
44
0.0000000001
12
-0.0675890104
22
-0.0132463231
32
0.0000000000
13
-0.0640010296
23
0.0131465066
33
0.0000000000
40
0.0000000000
40
0.0000000000
40
0.0000000000
40
0.0000000000
40
0.1615209064
40
0.3849533613
40
0.6664082617
40
1.0000000000
40
1.0000000000
40
1.0000000000
40
1.0000000000
10
8.3003968073
20
13.9823270878
30
0.0000000000
10
8.2967577945
20
13.9816139018
30
0.0000000000
10
8.2886507476
20
13.9810393014
30
0.0000000000
10
8.2739852648
20
13.9820211870
30
0.0000000000
10
8.2559495385
20
13.9845100446
30
0.0000000000
10
8.2427642959
20
13.9869938207
30
0.0000000000
10
8.2356475576
20
13.9884556761
30
0.0000000000
11
8.3003968073
21
13.9823270878
31
0.0000000000
11
8.2898904176
21
13.9813327283
31
0.0000000000
11
8.2753112635
21
13.9820835090
31
0.0000000000
11
8.2570803108
21
13.9844931078
31
0.0000000000
11
8.2356475576
21
13.9884556761
31
0.0000000000
0
SPLINE
5
347
100
AcDbEntity
8
0
100
AcDbSpline
62
7
6
CONTINUOUS
70
0
71
3
72
13
73
9
74
7
42
0.0000001000
43
0.0000001000
44
0.0000000001
12
0.0001642299
22
-0.2033186216
32
0.0000000000
13
-0.1815612064
23
-0.0898911607
33
0.0000000000
40
0.0000000000
40
0.0000000000
40
0.0000000000
40
0.0000000000
40
0.0343386883
40
0.1926287897
40
0.3631221672
40
0.5522760236
40
0.7643520725
40
1.0000000000
40
1.0000000000
40
1.0000000000
40
1.0000000000
10
8.7363861419
20
17.4645823249
30
0.0000000000
10
8.7363880217
20
17.4622550933
30
0.0000000000
10
8.7359638114
20
17.4492023340
30
0.0000000000
10
8.7304732203
20
17.4249287287
30
0.0000000000
10
8.7134670757
20
17.3939341936
30
0.0000000000
10
8.6875487792
20
17.3649637700
30
0.0000000000
10
8.6534423098
20
17.3384684908
30
0.0000000000
10
8.6270585810
20
17.3234987235
30
0.0000000000
10
8.6127970737
20
17.3164378349
30
0.0000000000
11
8.7363861419
21
17.4645823249
31
0.0000000000
11
8.7361577020
21
17.4576070279
31
0.0000000000
11
8.7293078115
21
17.4262782900
31
0.0000000000
11
8.7130695444
21
17.3957920427
31
0.0000000000
11
8.6878550091
21
17.3669341172
31
0.0000000000
11
8.6541646027
21
17.3402694987
31
0.0000000000
11
8.6127970737
21
17.3164378349
31
0.0000000000
0
SPLINE
5
348
100
AcDbEntity
8
0
100
AcDbSpline
62
7
6
CONTINUOUS
70
0
71
3
72
9
73
5
74
3
42
0.0000001000
43
0.0000001000
44
0.0000000001
12
-0.0518542419
22
-0.0166023986
32
0.0000000000
13
-0.0487246985
23
-0.0242982675
33
0.0000000000
40
0.0000000000
40
0.0000000000
40
0.0000000000
40
0.0000000000
40
0.4897603159
40
1.0000000000
40
1.0000000000
40
1.0000000000
40
1.0000000000
10
8.6127970737
20
18.5434878022
30
0.0000000000
10
8.6043316904
20
18.5407774035
30
0.0000000000
10
8.5872722673
20
18.5345202232
30
0.0000000000
10
8.5707421642
20
18.5269837490
30
0.0000000000
10
8.5624550726
20
18.5228511022
30
0.0000000000
11
8.6127970737
21
18.5434878022
31
0.0000000000
11
8.5877485989
21
18.5343415083
31
0.0000000000
11
8.5624550726
21
18.5228511022
31
0.0000000000
0
SPLINE
5
349
100
AcDbEntity
8
0
100
AcDbSpline
62
7
6
CONTINUOUS
70
0
71
3
72
14
73
10
74
8
42
0.0000001000
43
0.0000001000
44
0.0000000001
12
-0.5575549069
22
0.2783874290
32
0.0000000000
13
-0.5613902463
23
-0.2698899959
33
0.0000000000
40
0.0000000000
40
0.0000000000
40
0.0000000000
40
0.0000000000
40
0.1238265934
40
0.3054769581
40
0.4682472532
40
0.6158055794
40
0.7510618594
40
0.8780877179
40
1.0000000000
40
1.0000000000
40
1.0000000000
40
1.0000000000
10
13.0419675862
20
17.0505724830
30
0.0000000000
10
13.0189542113
20
17.0620630720
30
0.0000000000
10
12.9612971925
20
17.0886327060
30
0.0000000000
10
12.8696202261
20
17.1216219408
30
0.0000000000
10
12.7698289698
20
17.1446414613
30
0.0000000000
10
12.6774633749
20
17.1536137572
30
0.0000000000
10
12.5921414274
20
17.1497684100
30
0.0000000000
10
12.5136254076
20
17.1339721283
30
0.0000000000
10
12.4650313134
20
17.1155421707
30
0.0000000000
10
12.4422178580
20
17.1045745356
30
0.0000000000
11
13.0419675862
21
17.0505724830
31
0.0000000000
11
12.9718575689
21
17.0827738884
31
0.0000000000
11
12.8652484313
21
17.1206850865
31
0.0000000000
11
12.7663631484
21
17.1430776806
31
0.0000000000
11
12.6748445523
21
17.1515888842
31
0.0000000000
11
12.5906942967
21
17.1474778159
31
0.0000000000
11
12.5131740880
21
17.1316281549
31
0.0000000000
11
12.4422178580
21
17.1045745356
31
0.0000000000
0
SPLINE
5
34A
100
AcDbEntity
8
0
100
AcDbSpline
62
7
6
CONTINUOUS
70
0
71
3
72
13
73
9
74
7
42
0.0000001000
43
0.0000001000
44
0.0000000001
12
-0.4098481622
22
0.2048837263
32
0.0000000000
13
-0.4109068760
23
-0.2010615886
33
0.0000000000
40
0.0000000000
40
0.0000000000
40
0.0000000000
40
0.0000000000
40
0.1007741613
40
0.2637740567
40
0.4330088062
40
0.6107502248
40
0.7994856200
40
1.0000000000
40
1.0000000000
40
1.0000000000
40
1.0000000000
10
5.5736664124
20
20.7847164357
30
0.0000000000
10
5.5598990441
20
20.7915987643
30
0.0000000000
10
5.5227569245
20
20.8074044941
30
0.0000000000
10
5.4582659682
20
20.8233504349
30
0.0000000000
10
5.3802146604
20
20.8277696525
30
0.0000000000
10
5.2986975462
20
20.8185205506
30
0.0000000000
10
5.2149652402
20
20.7958778014
30
0.0000000000
10
5.1600754728
20
20.7728164310
30
0.0000000000
10
5.1326112270
20
20.7593778511
30
0.0000000000
11
5.5736664124
21
20.7847164357
31
0.0000000000
11
5.5312060795
21
20.8027866457
31
0.0000000000
11
5.4588657178
21
20.8208688327
31
0.0000000000
11
5.3815894752
21
20.8255555507
31
0.0000000000
11
5.3007573199
21
20.8167561161
31
0.0000000000
11
5.2173145830
21
20.7945810263
31
0.0000000000
11
5.1326112270
21
20.7593778511
31
0.0000000000
0
SPLINE
5
34B
100
AcDbEntity
8
0
100
AcDbSpline
62
7
6
CONTINUOUS
70
0
71
3
72
9
73
5
74
3
42
0.0000001000
43
0.0000001000
44
0.0000000001
12
-0.0502803636
22
-0.0161753641
32
0.0000000000
13
-0.0473762501
23
-0.0233505524
33
0.0000000000
40
0.0000000000
40
0.0000000000
40
0.0000000000
40
0.0000000000
40
0.4902123986
40
1.0000000000
40
1.0000000000
40
1.0000000000
40
1.0000000000
10
3.0560532011
20
21.3204186208
30
0.0000000000
10
3.0478371819
20
21.3177754995
30
0.0000000000
10
3.0312871760
20
21.3117132694
30
0.0000000000
10
3.0152277779
20
21.3044579944
30
0.0000000000
10
3.0071771696
20
21.3004900537
30
0.0000000000
11
3.0560532011
21
21.3204186208
31
0.0000000000
11
3.0317290428
21
21.3115452403
31
0.0000000000
11
3.0071771696
21
21.3004900537
31
0.0000000000
0
SPLINE
5
34C
100
AcDbEntity
8
0
100
AcDbSpline
62
9
6
CONTINUOUS
70
0
71
3
72
12
73
8
74
6
42
0.0000001000
43
0.0000001000
44
0.0000000001
12
-0.1029828724
22
0.0515261895
32
0.0000000000
13
-0.1030059359
23
-0.0507690139
33
0.0000000000
40
0.0000000000
40
0.0000000000
40
0.0000000000
40
0.0000000000
40
0.0701535190
40
0.2815617197
40
0.5035609336
40
0.7419467138
40
1.0000000000
40
1.0000000000
40
1.0000000000
40
1.0000000000
10
8.1696403359
20
14.6474674243
30
0.0000000000
10
8.1672321323
20
14.6486723388
30
0.0000000000
10
8.1573606664
20
14.6530939441
30
0.0000000000
10
8.1384736163
20
14.6578640296
30
0.0000000000
10
8.1125371507
20
14.6580294274
30
0.0000000000
10
8.0854443088
20
14.6524086932
30
0.0000000000
10
8.0677341940
20
14.6452437686
30
0.0000000000
10
8.0588738539
20
14.6408767316
30
0.0000000000
11
8.1696403359
21
14.6474674243
31
0.0000000000
11
8.1622702343
21
14.6507667841
31
0.0000000000
11
8.1387573343
21
14.6568122572
31
0.0000000000
11
8.1132658303
21
14.6571615363
31
0.0000000000
11
8.0864190988
21
14.6518060148
31
0.0000000000
11
8.0588738539
21
14.6408767316
31
0.0000000000
0
SPLINE
5
34D
100
AcDbEntity
8
0
100
AcDbSpline
62
9
6
CONTINUOUS
70
0
71
3
72
12
73
8
74
6
42
0.0000001000
43
0.0000001000
44
0.0000000001
12
-0.0000215680
22
-0.1197211386
32
0.0000000000
13
-0.1064693987
23
-0.0538577450
33
0.0000000000
40
0.0000000000
40
0.0000000000
40
0.0000000000
40
0.0000000000
40
0.1621342377
40
0.3384131525
40
0.5342805221
40
0.7543772349
40
1.0000000000
40
1.0000000000
40
1.0000000000
40
1.0000000000
10
8.3078453778
20
14.4238598250
30
0.0000000000
10
8.3078442122
20
14.4173895265
30
0.0000000000
10
8.3056897652
20
14.4038824001
30
0.0000000000
10
8.2962541928
20
14.3845497414
30
0.0000000000
10
8.2809864924
20
14.3663726037
30
0.0000000000
10
8.2604288680
20
14.3497523734
30
0.0000000000
10
8.2443646603
20
14.3403967556
30
0.0000000000
10
8.2356475576
20
14.3359871928
30
0.0000000000
11
8.3078453778
21
14.4238598250
31
0.0000000000
11
8.3049025100
21
14.4047365955
31
0.0000000000
11
8.2959221841
21
14.3857171591
31
0.0000000000
11
8.2811228731
21
14.3676299919
31
0.0000000000
11
8.2608662963
21
14.3509171736
31
0.0000000000
11
8.2356475576
21
14.3359871928
31
0.0000000000
0
SPLINE
5
34E
100
AcDbEntity
8
0
100
AcDbSpline
62
9
6
CONTINUOUS
70
0
71
3
72
12
73
8
74
6
42
0.0000001000
43
0.0000001000
44
0.0000000001
12
-0.1029861430
22
0.0515381947
32
0.0000000000
13
-0.1030131708
23
-0.0507725798
33
0.0000000000
40
0.0000000000
40
0.0000000000
40
0.0000000000
40
0.0000000000
40
0.0706737044
40
0.2820803272
40
0.5040720840
40
0.7424554046
40
1.0000000000
40
1.0000000000
40
1.0000000000
40
1.0000000000
10
6.8323212654
20
15.3161269348
30
0.0000000000
10
6.8298951280
20
15.3173410665
30
0.0000000000
10
6.8200035851
20
15.3217688661
30
0.0000000000
10
6.8010934649
20
15.3265336738
30
0.0000000000
10
6.7751557315
20
15.3266865803
30
0.0000000000
10
6.7480828581
20
15.3210588428
30
0.0000000000
10
6.7303911885
20
15.3138985464
30
0.0000000000
10
6.7215476934
20
15.3095398119
30
0.0000000000
11
6.8323212654
21
15.3161269348
31
0.0000000000
11
6.8248952305
21
15.3194492216
31
0.0000000000
11
6.8013775783
21
15.3254823172
31
0.0000000000
11
6.7758849755
21
15.3258193729
31
0.0000000000
11
6.7490387651
21
15.3204528652
31
0.0000000000
11
6.7215476934
21
15.3095398119
31
0.0000000000
0
SPLINE
5
34F
100
AcDbEntity
8
0
100
AcDbSpline
62
9
6
CONTINUOUS
70
0
71
3
72
21
73
17
74
15
42
0.0000001000
43
0.0000001000
44
0.0000000001
12
0.6246353616
22
0.1762194645
32
0.0000000000
13
-0.0830346752
23
-0.6422362347
33
0.0000000000
40
0.0000000000
40
0.0000000000
40
0.0000000000
40
0.0000000000
40
0.0330238158
40
0.0912792351
40
0.1518692217
40
0.2158189405
40
0.2837015354
40
0.3556452433
40
0.4313921986
40
0.5103747497
40
0.5917926696
40
0.6746860546
40
0.7580038091
40
0.8406693189
40
0.9216453187
40
1.0000000000
40
1.0000000000
40
1.0000000000
40
1.0000000000
10
12.4643860594
20
-18.8524245350
30
0.0000000000
10
12.4712620071
20
-18.8504847219
30
0.0000000000
10
12.4906194263
20
-18.8463671563
30
0.0000000000
10
12.5236598314
20
-18.8454104148
30
0.0000000000
10
12.5627101036
20
-18.8527531911
30
0.0000000000
10
12.6014975179
20
-18.8682493086
30
0.0000000000
10
12.6391064982
20
-18.8914308156
30
0.0000000000
10
12.6746716209
20
-18.9216879683
30
0.0000000000
10
12.7073718448
20
-18.9582706782
30
0.0000000000
10
12.7364429016
20
-19.0002908681
30
0.0000000000
10
12.7611971950
20
-19.0467339998
30
0.0000000000
10
12.7810439108
20
-19.0964795804
30
0.0000000000
10
12.7955064691
20
-19.1483258150
30
0.0000000000
10
12.8042351001
20
-19.2010244079
30
0.0000000000
10
12.8070179212
20
-19.2532933486
30
0.0000000000
10
12.8048133337
20
-19.2877178145
30
0.0000000000
10
12.8026446152
20
-19.3044918863
30
0.0000000000
11
12.4643860594
21
-18.8524245350
31
0.0000000000
11
12.4853342006
21
-18.8479690284
31
0.0000000000
11
12.5230397140
21
-18.8467520749
31
0.0000000000
11
12.5616370381
21
-18.8538080237
31
0.0000000000
11
12.6001769586
21
-18.8689633494
31
0.0000000000
11
12.6377116728
21
-18.8918453410
31
0.0000000000
11
12.6733180990
21
-18.9218912674
31
0.0000000000
11
12.7061205773
21
-18.9583622167
31
0.0000000000
11
12.7353124044
21
-19.0003612680
31
0.0000000000
11
12.7601756733
21
-19.0468555492
31
0.0000000000
11
12.7800989277
21
-19.0967016379
31
0.0000000000
11
12.7945922000
21
-19.1486736820
31
0.0000000000
11
12.8032990608
21
-19.2014935460
31
0.0000000000
11
12.8060053845
21
-19.2538622442
31
0.0000000000
11
12.8026446152
21
-19.3044918863
31
0.0000000000
0
SPLINE
5
350
100
AcDbEntity
8
0
100
AcDbSpline
62
7
6
CONTINUOUS
70
0
71
3
72
15
73
11
74
9
42
0.0000001000
43
0.0000001000
44
0.0000000001
12
-0.0296530563
22
0.1408179220
32
0.0000000000
13
-0.1370097288
23
-0.0679578355
33
0.0000000000
40
0.0000000000
40
0.0000000000
40
0.0000000000
40
0.0000000000
40
0.0016125503
40
0.0406221323
40
0.1108236727
40
0.2212611171
40
0.3685290421
40
0.5483905742
40
0.7598644468
40
1.0000000000
40
1.0000000000
40
1.0000000000
40
1.0000000000
10
13.4641326195
20
-20.9357305907
30
0.0000000000
10
13.4641166805
20
-20.9356548987
30
0.0000000000
10
13.4636646170
20
-20.9337535375
30
0.0000000000
10
13.4588517594
20
-20.9289638659
30
0.0000000000
10
13.4470000785
20
-20.9318149201
30
0.0000000000
10
13.4311454642
20
-20.9353444825
30
0.0000000000
10
13.4100325022
20
-20.9433014263
30
0.0000000000
10
13.3847367995
20
-20.9537573210
30
0.0000000000
10
13.3554307162
20
-20.9671691610
30
0.0000000000
10
13.3347202856
20
-20.9772091235
30
0.0000000000
10
13.3237533166
20
-20.9826488210
30
0.0000000000
11
13.4641326195
21
-20.9357305907
31
0.0000000000
11
13.4640787224
21
-20.9355041741
31
0.0000000000
11
13.4600596491
21
-20.9310950221
31
0.0000000000
11
13.4493240648
21
-20.9312321932
31
0.0000000000
11
13.4329309927
21
-20.9352992374
31
0.0000000000
11
13.4116903928
21
-20.9427901709
31
0.0000000000
11
13.3862674580
21
-20.9532945851
31
0.0000000000
11
13.3568153542
21
-20.9666586951
31
0.0000000000
11
13.3237533166
21
-20.9826488210
31
0.0000000000
0
SPLINE
5
351
100
AcDbEntity
8
0
100
AcDbSpline
62
9
6
CONTINUOUS
70
0
71
3
72
12
73
8
74
6
42
0.0000001000
43
0.0000001000
44
0.0000000001
12
-0.1029857849
22
0.0515382536
32
0.0000000000
13
-0.1030131196
23
-0.0507725545
33
0.0000000000
40
0.0000000000
40
0.0000000000
40
0.0000000000
40
0.0000000000
40
0.0703997960
40
0.2817532383
40
0.5036958317
40
0.7420180863
40
1.0000000000
40
1.0000000000
40
1.0000000000
40
1.0000000000
10
-5.1946707305
20
21.3296229483
30
0.0000000000
10
-5.1970874566
20
21.3308323758
30
0.0000000000
10
-5.2069666949
20
21.3352566459
30
0.0000000000
10
-5.2258609273
20
21.3400246900
30
0.0000000000
10
-5.2517923371
20
21.3401869141
30
0.0000000000
10
-5.2788794157
20
21.3345656717
30
0.0000000000
10
-5.2965858033
20
21.3274019474
30
0.0000000000
10
-5.3054443105
20
21.3230358138
30
0.0000000000
11
-5.1946707305
21
21.3296229483
31
0.0000000000
11
-5.2020674317
21
21.3329335988
31
0.0000000000
11
-5.2255770309
21
21.3389734522
31
0.0000000000
11
-5.2510638537
21
21.3393195161
31
0.0000000000
11
-5.2779049604
21
21.3339633320
31
0.0000000000
11
-5.3054443105
21
21.3230358138
31
0.0000000000
0
SPLINE
5
352
100
AcDbEntity
8
0
100
AcDbSpline
62
9
6
CONTINUOUS
70
0
71
3
72
12
73
8
74
6
42
0.0000001000
43
0.0000001000
44
0.0000000001
12
-0.1029857849
22
0.0515382536
32
0.0000000000
13
-0.1030131196
23
-0.0507725545
33
0.0000000000
40
0.0000000000
40
0.0000000000
40
0.0000000000
40
0.0000000000
40
0.0703997960
40
0.2817532383
40
0.5036958317
40
0.7420180863
40
1.0000000000
40
1.0000000000
40
1.0000000000
40
1.0000000000
10
-6.5319968911
20
21.9982860285
30
0.0000000000
10
-6.5344136171
20
21.9994954561
30
0.0000000000
10
-6.5442928554
20
22.0039197262
30
0.0000000000
10
-6.5631870879
20
22.0086877703
30
0.0000000000
10
-6.5891184977
20
22.0088499944
30
0.0000000000
10
-6.6162055763
20
22.0032287520
30
0.0000000000
10
-6.6339119638
20
21.9960650277
30
0.0000000000
10
-6.6427704710
20
21.9916988941
30
0.0000000000
11
-6.5319968911
21
21.9982860285
31
0.0000000000
11
-6.5393935922
21
22.0015966791
31
0.0000000000
11
-6.5629031915
21
22.0076365325
31
0.0000000000
11
-6.5883900142
21
22.0079825964
31
0.0000000000
11
-6.6152311209
21
22.0026264123
31
0.0000000000
11
-6.6427704710
21
21.9916988941
31
0.0000000000
0
SPLINE
5
353
100
AcDbEntity
8
0
100
AcDbSpline
62
7
6
CONTINUOUS
70
0
71
3
72
48
73
44
74
42
42
0.0000001000
43
0.0000001000
44
0.0000000001
12
-13.9373769569
22
6.9686884785
32
0.0000000000
13
13.9373769569
23
-6.9686884785
33
0.0000000000
40
0.0000000000
40
0.0000000000
40
0.0000000000
40
0.0000000000
40
0.0241879920
40
0.0492655120
40
0.0751623149
40
0.1018627482
40
0.1292462806
40
0.1572871564
40
0.1858420524
40
0.2148594057
40
0.2442077463
40
0.2737876499
40
0.3035085194
40
0.3332226797
40
0.3628774603
40
0.3923060389
40
0.4214672031
40
0.4502130390
40
0.4784839653
40
0.5061875101
40
0.5332275978
40
0.5595784510
40
0.5851316692
40
0.6099000992
40
0.6338071439
40
0.6568780226
40
0.6791018995
40
0.7005020878
40
0.7211526138
40
0.7410934886
40
0.7604661269
40
0.7793542347
40
0.7979384442
40
0.8163550320
40
0.8347853788
40
0.8534042493
40
0.8723555217
40
0.8918169380
40
0.9118772066
40
0.9326787255
40
0.9542575612
40
0.9766978671
40
1.0000000000
40
1.0000000000
40
1.0000000000
40
1.0000000000
10
-6.5150782135
20
-11.7344004682
30
0.0000000000
10
-6.6274506011
20
-11.6782142744
30
0.0000000000
10
-6.8520831080
20
-11.5551127325
30
0.0000000000
10
-7.1809868723
20
-11.3442864924
30
0.0000000000
10
-7.5062178807
20
-11.1050934199
30
0.0000000000
10
-7.8256462113
20
-10.8391129458
30
0.0000000000
10
-8.1375527742
20
-10.5478016768
30
0.0000000000
10
-8.4398876423
20
-10.2330895256
30
0.0000000000
10
-8.7310175523
20
-9.8966939980
30
0.0000000000
10
-9.0090853156
20
-9.5407756286
30
0.0000000000
10
-9.2725144176
20
-9.1673638572
30
0.0000000000
10
-9.5197377003
20
-8.7786981679
30
0.0000000000
10
-9.7492623000
20
-8.3771374641
30
0.0000000000
10
-9.9598385935
20
-7.9648883470
30
0.0000000000
10
-10.1501414722
20
-7.5445611513
30
0.0000000000
10
-10.3191938234
20
-7.1183315705
30
0.0000000000
10
-10.4659339019
20
-6.6888952471
30
0.0000000000
10
-10.5895977913
20
-6.2584997392
30
0.0000000000
10
-10.6894510289
20
-5.8297252371
30
0.0000000000
10
-10.7649337127
20
-5.4049798122
30
0.0000000000
10
-10.8156358304
20
-4.9865986751
30
0.0000000000
10
-10.8412506525
20
-4.5771067402
30
0.0000000000
10
-10.8416420863
20
-4.1785921225
30
0.0000000000
10
-10.8167983627
20
-3.7935435570
30
0.0000000000
10
-10.7668219536
20
-3.4239197812
30
0.0000000000
10
-10.6919869695
20
-3.0719793945
30
0.0000000000
10
-10.5926551729
20
-2.7396763190
30
0.0000000000
10
-10.4693399076
20
-2.4289417867
30
0.0000000000
10
-10.3227112980
20
-2.1416952314
30
0.0000000000
10
-10.1534722002
20
-1.8795468170
30
0.0000000000
10
-9.9626288880
20
-1.6442829618
30
0.0000000000
10
-9.7511246557
20
-1.4372903186
30
0.0000000000
10
-9.5202956765
20
-1.2600686546
30
0.0000000000
10
-9.2714491518
20
-1.1137837852
30
0.0000000000
10
-9.0061860905
20
-0.9994839515
30
0.0000000000
10
-8.7262116152
20
-0.9179713156
30
0.0000000000
10
-8.4332353986
20
-0.8697627493
30
0.0000000000
10
-8.1292305784
20
-0.8551802850
30
0.0000000000
10
-7.8159052995
20
-0.8742832327
30
0.0000000000
10
-7.4953502979
20
-0.9269191669
30
0.0000000000
10
-7.1693064676
20
-1.0127752866
30
0.0000000000
10
-6.8398906356
20
-1.1312622307
30
0.0000000000
10
-6.6233350838
20
-1.2296979227
30
0.0000000000
10
-6.5150782135
20
-1.2838263578
30
0.0000000000
11
-6.5150782135
21
-11.7344004682
31
0.0000000000
11
-6.8458454368
21
-11.5536989993
31
0.0000000000
11
-7.1750721767
21
-11.3431983083
31
0.0000000000
11
-7.5003886652
21
-11.1044297490
31
0.0000000000
11
-7.8203363202
21
-10.8384633154
31
0.0000000000
11
-8.1323794965
21
-10.5474231772
31
0.0000000000
11
-8.4352642905
21
-10.2324906699
31
0.0000000000
11
-8.7265921791
21
-9.8961671520
31
0.0000000000
11
-9.0050872640
21
-9.5399498526
31
0.0000000000
11
-9.2688013284
21
-9.1663244995
31
0.0000000000
11
-9.5162418036
21
-8.7774446273
31
0.0000000000
11
-9.7460864031
21
-8.3753804880
31
0.0000000000
11
-9.9566992322
21
-7.9630341247
31
0.0000000000
11
-10.1472418283
21
-7.5420533466
31
0.0000000000
11
-10.3162245006
21
-7.1157541433
31
0.0000000000
11
-10.4630308805
21
-6.6857196016
31
0.0000000000
11
-10.5865639310
21
-6.2551599054
31
0.0000000000
11
-10.6862737512
21
-5.8260618163
31
0.0000000000
11
-10.7615547266
21
-5.4009870904
31
0.0000000000
11
-10.8119480410
21
-4.9826603332
31
0.0000000000
11
-10.8372370620
21
-4.5728286857
31
0.0000000000
11
-10.8372369336
21
-4.1746466561
31
0.0000000000
11
-10.8119491675
21
-3.7895228793
31
0.0000000000
11
-10.7615575346
21
-3.4204162171
31
0.0000000000
11
-10.6862772212
21
-3.0688854307
31
0.0000000000
11
-10.5865688478
21
-2.7372473763
31
0.0000000000
11
-10.4630363693
21
-2.4275049530
31
0.0000000000
11
-10.3162311506
21
-2.1411581873
31
0.0000000000
11
-10.1472495298
21
-1.8803957597
31
0.0000000000
11
-9.9567073067
21
-1.6462564811
31
0.0000000000
11
-9.7460960080
21
-1.4406621464
31
0.0000000000
11
-9.5162509862
21
-1.2645022334
31
0.0000000000
11
-9.2688123285
21
-1.1191433685
31
0.0000000000
11
-9.0050978211
21
-1.0054206891
31
0.0000000000
11
-8.7266039160
21
-0.9240861884
31
0.0000000000
11
-8.4352765759
21
-0.8757655902
31
0.0000000000
11
-8.1323915674
21
-0.8607543797
31
0.0000000000
11
-7.8203497869
21
-0.8792315869
31
0.0000000000
11
-7.5004008587
21
-0.9311804491
31
0.0000000000
11
-7.1750861462
21
-1.0162411357
31
0.0000000000
11
-6.8458576005
21
-1.1340600925
31
0.0000000000
11
-6.5150782135
21
-1.2838263578
31
0.0000000000
0
SPLINE
5
354
100
AcDbEntity
8
0
100
AcDbSpline
62
9
6
CONTINUOUS
70
0
71
3
72
12
73
8
74
6
42
0.0000001000
43
0.0000001000
44
0.0000000001
12
-0.0000209833
22
-0.1197211810
32
0.0000000000
13
-0.1064694074
23
-0.0538577494
33
0.0000000000
40
0.0000000000
40
0.0000000000
40
0.0000000000
40
0.0000000000
40
0.1622418716
40
0.3385502066
40
0.5344404995
40
0.7545638407
40
1.0000000000
40
1.0000000000
40
1.0000000000
40
1.0000000000
10
-5.0564727846
20
20.7584873892
30
0.0000000000
10
-5.0564739194
20
20.7520127931
30
0.0000000000
10
-5.0586307925
20
20.7385002464
30
0.0000000000
10
-5.0680728825
20
20.7191636180
30
0.0000000000
10
-5.0833455745
20
20.7009866244
30
0.0000000000
10
-5.1039011579
20
20.6843726129
30
0.0000000000
10
-5.1199601260
20
20.6750209713
30
0.0000000000
10
-5.1286706068
20
20.6706147583
30
0.0000000000
11
-5.0564727846
21
20.7584873892
31
0.0000000000
11
-5.0594194710
21
20.7393518384
31
0.0000000000
11
-5.0684048413
21
20.7203309004
31
0.0000000000
11
-5.0832088825
21
20.7022440674
31
0.0000000000
11
-5.1034701923
21
20.6855319903
31
0.0000000000
11
-5.1286706068
21
20.6706147583
31
0.0000000000
0
SPLINE
5
355
100
AcDbEntity
8
0
100
AcDbSpline
62
7
6
CONTINUOUS
70
0
71
3
72
18
73
14
74
12
42
0.0000001000
43
0.0000001000
44
0.0000000001
12
4.0064564864
22
-2.0032282432
32
0.0000000000
13
2.1906395489
23
-3.9076100985
33
0.0000000000
40
0.0000000000
40
0.0000000000
40
0.0000000000
40
0.0000000000
40
0.0841001467
40
0.1712222711
40
0.2611416008
40
0.3538225618
40
0.4488643553
40
0.5461934478
40
0.6453260702
40
0.7460944726
40
0.8480507202
40
0.9508551991
40
1.0000000000
40
1.0000000000
40
1.0000000000
40
1.0000000000
10
-6.5150782135
20
-1.2838263578
30
0.0000000000
10
-6.4027636875
20
-1.3399836208
30
0.0000000000
10
-6.1784208226
20
-1.4631414551
30
0.0000000000
10
-5.8503914122
20
-1.6744452453
30
0.0000000000
10
-5.5266198245
20
-1.9144101665
30
0.0000000000
10
-5.2092008541
20
-2.1814358974
30
0.0000000000
10
-4.8998056906
20
-2.4740402397
30
0.0000000000
10
-4.6004221341
20
-2.7902607881
30
0.0000000000
10
-4.3126139806
20
-3.1283443071
30
0.0000000000
10
-4.0381573925
20
-3.4860891320
30
0.0000000000
10
-3.7785437635
20
-3.8614227102
30
0.0000000000
10
-3.5780456349
20
-4.1833457473
30
0.0000000000
10
-3.4648719737
20
-4.3800215792
30
0.0000000000
10
-3.4289857922
20
-4.4440344860
30
0.0000000000
11
-6.5150782135
21
-1.2838263578
31
0.0000000000
11
-6.1846154095
21
-1.4646800380
31
0.0000000000
11
-5.8562951578
21
-1.6756339750
31
0.0000000000
11
-5.5324641706
21
-1.9151452871
31
0.0000000000
11
-5.2145477836
21
-2.1821273570
31
0.0000000000
11
-4.9050290057
21
-2.4744296969
31
0.0000000000
11
-4.6051063291
21
-2.7908432654
31
0.0000000000
11
-4.3171020483
21
-3.1288285899
31
0.0000000000
11
-4.0422181208
21
-3.4868514708
31
0.0000000000
11
-3.7823136689
21
-3.8623816327
31
0.0000000000
11
-3.5387920517
21
-4.2532209359
31
0.0000000000
11
-3.4289857922
21
-4.4440344860
31
0.0000000000
0
SPLINE
5
356
100
AcDbEntity
8
0
100
AcDbSpline
62
9
6
CONTINUOUS
70
0
71
3
72
13
73
9
74
7
42
0.0000001000
43
0.0000001000
44
0.0000000001
12
0.0080751904
22
-0.2417710549
32
0.0000000000
13
0.2156181964
23
-0.1079921320
33
0.0000000000
40
0.0000000000
40
0.0000000000
40
0.0000000000
40
0.0000000000
40
0.0675610517
40
0.2247009877
40
0.3924610560
40
0.5760093709
40
0.7782297887
40
1.0000000000
40
1.0000000000
40
1.0000000000
40
1.0000000000
10
-13.8005982772
20
-20.2961951510
30
0.0000000000
10
-13.8004164211
20
-20.3016399199
30
0.0000000000
10
-13.7987504783
20
-20.3197118829
30
0.0000000000
10
-13.7896624891
20
-20.3502967206
30
0.0000000000
10
-13.7686711598
20
-20.3857699954
30
0.0000000000
10
-13.7384615108
20
-20.4187899171
30
0.0000000000
10
-13.6997433770
20
-20.4488562461
30
0.0000000000
10
-13.6700815794
20
-20.4658592295
30
0.0000000000
10
-13.6541423484
20
-20.4738423754
30
0.0000000000
11
-13.8005982772
21
-20.2961951510
31
0.0000000000
11
-13.7990948352
21
-20.3124566478
31
0.0000000000
11
-13.7885306031
21
-20.3488486689
31
0.0000000000
11
-13.7682582006
21
-20.3838582314
31
0.0000000000
11
-13.7386812181
21
-20.4167883517
31
0.0000000000
11
-13.7003884854
21
-20.4469834448
31
0.0000000000
11
-13.6541423484
21
-20.4738423754
31
0.0000000000
0
SPLINE
5
357
100
AcDbEntity
8
0
100
AcDbSpline
62
9
6
CONTINUOUS
70
0
71
3
72
12
73
8
74
6
42
0.0000001000
43
0.0000001000
44
0.0000000001
12
-0.0000227722
22
-0.1197212051
32
0.0000000000
13
-0.1064692941
23
-0.0538576921
33
0.0000000000
40
0.0000000000
40
0.0000000000
40
0.0000000000
40
0.0000000000
40
0.1619863906
40
0.3382910533
40
0.5341892806
40
0.7543267983
40
1.0000000000
40
1.0000000000
40
1.0000000000
40
1.0000000000
10
-5.0564727910
20
21.1060189105
30
0.0000000000
10
-5.0564740206
20
21.0995545085
30
0.0000000000
10
-5.0586255357
20
21.0860521347
30
0.0000000000
10
-5.0680556414
20
21.0667206976
30
0.0000000000
10
-5.0833238648
20
21.0485387644
30
0.0000000000
10
-5.1038844662
20
21.0319143833
30
0.0000000000
10
-5.1199517227
20
21.0225567389
30
0.0000000000
10
-5.1286706068
20
21.0181462750
30
0.0000000000
11
-5.0564727910
21
21.1060189105
31
0.0000000000
11
-5.0594104279
21
21.0869125659
31
0.0000000000
11
-5.0683881186
21
21.0678885113
31
0.0000000000
11
-5.0831875745
21
21.0497967352
31
0.0000000000
11
-5.1034469388
21
21.0330796859
31
0.0000000000
11
-5.1286706068
21
21.0181462750
31
0.0000000000
0
SPLINE
5
358
100
AcDbEntity
8
0
100
AcDbSpline
62
9
6
CONTINUOUS
70
0
71
3
72
13
73
9
74
7
42
0.0000001000
43
0.0000001000
44
0.0000000001
12
-0.0076204881
22
-0.2409153407
32
0.0000000000
13
0.2148666629
23
-0.1072382489
33
0.0000000000
40
0.0000000000
40
0.0000000000
40
0.0000000000
40
0.0000000000
40
0.0939896824
40
0.2396228738
40
0.3993021429
40
0.5780561394
40
0.7782162658
40
1.0000000000
40
1.0000000000
40
1.0000000000
40
1.0000000000
10
-13.8006162726
20
15.3164317359
30
0.0000000000
10
-13.8008550216
20
15.3088838837
30
0.0000000000
10
-13.7995425056
20
15.2895710325
30
0.0000000000
10
-13.7894415707
20
15.2588167541
30
0.0000000000
10
-13.7683716548
20
15.2259090154
30
0.0000000000
10
-13.7381809303
20
15.1948140648
30
0.0000000000
10
-13.6995243450
20
15.1659570126
30
0.0000000000
10
-13.6700268757
20
15.1493254442
30
0.0000000000
10
-13.6541422321
20
15.1413975444
30
0.0000000000
11
-13.8006162726
21
15.3164317359
31
0.0000000000
11
-13.7990947198
21
15.2938652010
31
0.0000000000
11
-13.7885304800
21
15.2605264377
31
0.0000000000
11
-13.7682580736
21
15.2279778499
31
0.0000000000
11
-13.7386810911
21
15.1968674270
31
0.0000000000
11
-13.7003883621
21
15.1678145265
31
0.0000000000
11
-13.6541422321
21
15.1413975444
31
0.0000000000
0
SPLINE
5
359
100
AcDbEntity
8
0
100
AcDbSpline
62
7
6
CONTINUOUS
70
0
71
3
72
36
73
32
74
30
42
0.0000001000
43
0.0000001000
44
0.0000000001
12
3.8522167776
22
-9.1590963801
32
0.0000000000
13
-8.8864160979
23
4.4432080490
33
0.0000000000
40
0.0000000000
40
0.0000000000
40
0.0000000000
40
0.0000000000
40
0.0054673815
40
0.0516579164
40
0.0974424596
40
0.1425841219
40
0.1869837252
40
0.2304896292
40
0.2729438601
40
0.3142983740
40
0.3543758214
40
0.3931888087
40
0.4306098486
40
0.4666724262
40
0.5013549799
40
0.5346914265
40
0.5667973935
40
0.5977390550
40
0.6277439988
40
0.6569545076
40
0.6856667636
40
0.7141112055
40
0.7425891909
40
0.7713911160
40
0.8007569460
40
0.8309752021
40
0.8621917427
40
0.8946315117
40
0.9283500039
40
0.9634747247
40
1.0000000000
40
1.0000000000
40
1.0000000000
40
1.0000000000
10
-2.9402127220
20
-5.4442268227
30
0.0000000000
10
-2.9331922091
20
-5.4609189141
30
0.0000000000
10
-2.8672960194
20
-5.6188157561
30
0.0000000000
10
-2.7507992087
20
-5.9198900625
30
0.0000000000
10
-2.6071938828
20
-6.3508684263
30
0.0000000000
10
-2.4862628290
20
-6.7825999533
30
0.0000000000
10
-2.3886764483
20
-7.2124733053
30
0.0000000000
10
-2.3149421659
20
-7.6380550047
30
0.0000000000
10
-2.2654296131
20
-8.0569903771
30
0.0000000000
10
-2.2404167685
20
-8.4667427692
30
0.0000000000
10
-2.2400252989
20
-8.8652198821
30
0.0000000000
10
-2.2642661564
20
-9.2499348911
30
0.0000000000
10
-2.3130493430
20
-9.6189373659
30
0.0000000000
10
-2.3861276686
20
-9.9699845662
30
0.0000000000
10
-2.4831796715
20
-10.3011470281
30
0.0000000000
10
-2.6037462222
20
-10.6105229490
30
0.0000000000
10
-2.7472252397
20
-10.8962280334
30
0.0000000000
10
-2.9129913758
20
-11.1566879917
30
0.0000000000
10
-3.1001282418
20
-11.3901543549
30
0.0000000000
10
-3.3077832254
20
-11.5952742088
30
0.0000000000
10
-3.5347142455
20
-11.7705815258
30
0.0000000000
10
-3.7796997825
20
-11.9149430257
30
0.0000000000
10
-4.0412197385
20
-12.0273484846
30
0.0000000000
10
-4.3176444501
20
-12.1070403487
30
0.0000000000
10
-4.6073372642
20
-12.1535513934
30
0.0000000000
10
-4.9083998934
20
-12.1666108919
30
0.0000000000
10
-5.2191942355
20
-12.1462047929
30
0.0000000000
10
-5.5376966170
20
-12.0925236839
30
0.0000000000
10
-5.8622199521
20
-12.0059078094
30
0.0000000000
10
-6.1906910302
20
-11.8869644155
30
0.0000000000
10
-6.4068852820
20
-11.7884969340
30
0.0000000000
10
-6.5150782135
20
-11.7344004682
30
0.0000000000
11
-2.9402127220
21
-5.4442268227
31
0.0000000000
11
-2.9192898791
21
-5.4943611524
31
0.0000000000
11
-2.7537521888
21
-5.9223828431
31
0.0000000000
11
-2.6100638311
21
-6.3539763917
31
0.0000000000
11
-2.4892445345
21
-6.7858929785
31
0.0000000000
11
-2.3917850751
21
-7.2161162762
31
0.0000000000
11
-2.3182385847
21
-7.6420582234
31
0.0000000000
11
-2.2690234332
21
-8.0609733406
31
0.0000000000
11
-2.2443308006
21
-8.4711008074
31
0.0000000000
11
-2.2443307410
21
-8.8692828818
31
0.0000000000
11
-2.2690222139
21
-9.2541108270
31
0.0000000000
11
-2.3182358451
21
-9.6226290688
31
0.0000000000
11
-2.3917816952
21
-9.9732926358
31
0.0000000000
11
-2.4892397287
21
-10.3038055065
31
0.0000000000
11
-2.6100584562
21
-10.6121910521
31
0.0000000000
11
-2.7537456755
21
-10.8969788245
31
0.0000000000
11
-2.9192823326
21
-11.1560187754
31
0.0000000000
11
-3.1061252106
21
-11.3883083838
31
0.0000000000
11
-3.3128762502
21
-11.5919725911
31
0.0000000000
11
-3.5387830202
21
-11.7661633804
31
0.0000000000
11
-3.7823028357
21
-11.9095628261
31
0.0000000000
11
-4.0422077088
21
-12.0213806897
31
0.0000000000
11
-4.3170904548
21
-12.1009096120
31
0.0000000000
11
-4.6050941741
21
-12.1475684004
31
0.0000000000
11
-4.9050170428
21
-12.1610985414
31
0.0000000000
11
-5.2145344143
21
-12.1413591297
31
0.0000000000
11
-5.5324520438
21
-12.0883946178
31
0.0000000000
11
-5.8562812395
21
-12.0025911721
31
0.0000000000
11
-6.1846032682
21
-11.8843189557
31
0.0000000000
11
-6.5150782135
21
-11.7344004682
31
0.0000000000
0
SPLINE
5
35A
100
AcDbEntity
8
0
100
AcDbSpline
62
7
6
CONTINUOUS
70
0
71
3
72
15
73
11
74
9
42
0.0000001000
43
0.0000001000
44
0.0000000001
12
-1.7675019030
22
-0.8836058371
32
0.0000000000
13
-1.7659697413
23
0.8829848706
33
0.0000000000
40
0.0000000000
40
0.0000000000
40
0.0000000000
40
0.0000000000
40
0.0974156858
40
0.2137190808
40
0.3326089601
40
0.4552885065
40
0.5827446428
40
0.7157216594
40
0.8547182222
40
1.0000000000
40
1.0000000000
40
1.0000000000
40
1.0000000000
10
-3.8800542825
20
-9.9432443098
30
0.0000000000
10
-3.9374484192
20
-9.9719366660
30
0.0000000000
10
-4.0671738587
20
-10.0272733989
30
0.0000000000
10
-4.2787132500
20
-10.0862897656
30
0.0000000000
10
-4.5127998387
20
-10.1180546608
30
0.0000000000
10
-4.7563032053
20
-10.1192906373
30
0.0000000000
10
-5.0073181529
20
-10.0901102069
30
0.0000000000
10
-5.2639432559
20
-10.0308431136
30
0.0000000000
10
-5.5242391480
20
-9.9420352075
30
0.0000000000
10
-5.6951903530
20
-9.8652985234
30
0.0000000000
10
-5.7807114275
20
-9.8225379861
30
0.0000000000
11
-3.8800542825
21
-9.9432443098
31
0.0000000000
11
-4.0569973299
21
-10.0187646085
31
0.0000000000
11
-4.2781095175
21
-10.0807309750
31
0.0000000000
11
-4.5106574129
21
-10.1127206880
31
0.0000000000
11
-4.7528711862
21
-10.1144902864
31
0.0000000000
11
-5.0029074445
21
-10.0860263024
31
0.0000000000
11
-5.2588632606
21
-10.0275453642
31
0.0000000000
11
-5.5187906565
21
-9.9394925471
31
0.0000000000
11
-5.7807114275
21
-9.8225379861
31
0.0000000000
0
SPLINE
5
35B
100
AcDbEntity
8
0
100
AcDbSpline
62
9
6
CONTINUOUS
70
0
71
3
72
13
73
9
74
7
42
0.0000001000
43
0.0000001000
44
0.0000000001
12
0.2101880802
22
0.1225987668
32
0.0000000000
13
0.2187270215
23
-0.1053810134
33
0.0000000000
40
0.0000000000
40
0.0000000000
40
0.0000000000
40
0.0000000000
40
0.0115971600
40
0.1876377996
40
0.3702885620
40
0.5646105608
40
0.7739750574
40
1.0000000000
40
1.0000000000
40
1.0000000000
40
1.0000000000
10
-12.8949206053
20
16.9019743684
30
0.0000000000
10
-12.8941080771
20
16.9024483009
30
0.0000000000
10
-12.8809003004
20
16.9100108218
30
0.0000000000
10
-12.8529186596
20
16.9215186513
30
0.0000000000
10
-12.8083561494
20
16.9285975751
30
0.0000000000
10
-12.7606665030
20
16.9261617745
30
0.0000000000
10
-12.7108384311
20
16.9144334236
30
0.0000000000
10
-12.6780555927
20
16.9011412271
30
0.0000000000
10
-12.6615763385
20
16.8932016480
30
0.0000000000
11
-12.8949206053
21
16.9019743684
31
0.0000000000
11
-12.8924717238
21
16.9033765079
31
0.0000000000
11
-12.8529849558
21
16.9197340894
31
0.0000000000
11
-12.8092299410
21
16.9269477024
31
0.0000000000
11
-12.7620963715
21
16.9248706688
31
0.0000000000
11
-12.7125426373
21
16.9135452221
31
0.0000000000
11
-12.6615763385
21
16.8932016480
31
0.0000000000
0
SPLINE
5
35C
100
AcDbEntity
8
0
100
AcDbSpline
62
7
6
CONTINUOUS
70
0
71
3
72
36
73
32
74
30
42
0.0000001000
43
0.0000001000
44
0.0000000001
12
-8.0051152872
22
-4.0019004123
32
0.0000000000
13
7.9981760405
23
-3.9990880203
33
0.0000000000
40
0.0000000000
40
0.0000000000
40
0.0000000000
40
0.0000000000
40
0.0039005816
40
0.0293595875
40
0.0551837978
40
0.0816652395
40
0.1090558809
40
0.1375575127
40
0.1673176764
40
0.1984302513
40
0.2309389657
40
0.2648423734
40
0.3000993105
40
0.3366342780
40
0.3743424991
40
0.4130945726
40
0.4527407395
40
0.4931148175
40
0.5340378703
40
0.5753216772
40
0.6167720628
40
0.6581921396
40
0.6993855118
40
0.7401594862
40
0.7803283363
40
0.8197166688
40
0.8581629482
40
0.8955232404
40
0.9316752422
40
0.9665226623
40
1.0000000000
40
1.0000000000
40
1.0000000000
40
1.0000000000
10
-7.6813685725
20
-2.3406157303
30
0.0000000000
10
-7.6917767742
20
-2.3458189766
30
0.0000000000
10
-7.7696892847
20
-2.3858424454
30
0.0000000000
10
-7.9097673621
20
-2.4731244875
30
0.0000000000
10
-8.0879129033
20
-2.6225808470
30
0.0000000000
10
-8.2481296331
20
-2.7988978713
30
0.0000000000
10
-8.3892295622
20
-3.0005919779
30
0.0000000000
10
-8.5102160640
20
-3.2260299572
30
0.0000000000
10
-8.6102603438
20
-3.4734467841
30
0.0000000000
10
-8.6886860451
20
-3.7409493567
30
0.0000000000
10
-8.7449643727
20
-4.0265167669
30
0.0000000000
10
-8.7787163795
20
-4.3280034580
30
0.0000000000
10
-8.7897182583
20
-4.6431472314
30
0.0000000000
10
-8.7779067443
20
-4.9695816880
30
0.0000000000
10
-8.7433831354
20
-5.3048519531
30
0.0000000000
10
-8.6864153706
20
-5.6464325784
30
0.0000000000
10
-8.6074380775
20
-5.9917467867
30
0.0000000000
10
-8.5070506988
20
-6.3381864854
30
0.0000000000
10
-8.3860138563
20
-6.6831326570
30
0.0000000000
10
-8.2452441133
20
-7.0239758510
30
0.0000000000
10
-8.0858072697
20
-7.3581365641
30
0.0000000000
10
-7.9089103092
20
-7.6830853301
30
0.0000000000
10
-7.7158920860
20
-7.9963623590
30
0.0000000000
10
-7.5082128710
20
-8.2955965476
30
0.0000000000
10
-7.2874427065
20
-8.5785237565
30
0.0000000000
10
-7.0552491003
20
-8.8430039456
30
0.0000000000
10
-6.8133824755
20
-9.0870377778
30
0.0000000000
10
-6.5636654516
20
-9.3087794812
30
0.0000000000
10
-6.3079646896
20
-9.5065562574
30
0.0000000000
10
-6.0482217786
20
-9.6788561116
30
0.0000000000
10
-5.8699639742
20
-9.7779117127
30
0.0000000000
10
-5.7807114275
20
-9.8225379861
30
0.0000000000
11
-7.6813685725
21
-2.3406157303
31
0.0000000000
11
-7.7124192076
21
-2.3565668502
31
0.0000000000
11
-7.9057114275
21
-2.4768471683
31
0.0000000000
11
-8.0828311143
21
-2.6250209799
31
0.0000000000
11
-8.2424302802
21
-2.7999605929
31
0.0000000000
11
-8.3832942792
21
-3.0003346111
31
0.0000000000
11
-8.5043510512
21
-3.2246180674
31
0.0000000000
11
-8.6046792812
21
-3.4711040291
31
0.0000000000
11
-8.6835154105
21
-3.7379165893
31
0.0000000000
11
-8.7402594489
21
-4.0230251433
31
0.0000000000
11
-8.7744795397
21
-4.3242598429
31
0.0000000000
11
-8.7859152475
21
-4.6393281100
31
0.0000000000
11
-8.7744795397
21
-4.9658320849
31
0.0000000000
11
-8.7402594489
21
-5.3012868753
31
0.0000000000
11
-8.6835154105
21
-5.6431394677
31
0.0000000000
11
-8.6046792812
21
-5.9887881573
31
0.0000000000
11
-8.5043510512
21
-6.3356023489
31
0.0000000000
11
-8.3832942792
21
-6.6809425772
31
0.0000000000
11
-8.2424302802
21
-7.0221805945
31
0.0000000000
11
-8.0828311143
21
-7.3567193733
31
0.0000000000
11
-7.9057114275
21
-7.6820128717
31
0.0000000000
11
-7.7124192076
21
-7.9955854097
31
0.0000000000
11
-7.5044255251
21
-8.2950505108
31
0.0000000000
11
-7.2833133375
21
-8.5781290650
31
0.0000000000
11
-7.0507654421
21
-8.8426666734
31
0.0000000000
11
-6.8085516688
21
-9.0866500451
31
0.0000000000
11
-6.5585154105
21
-9.3082223194
31
0.0000000000
11
-6.3025595944
21
-9.5056971974
31
0.0000000000
11
-6.0426321985
21
-9.6775717761
31
0.0000000000
11
-5.7807114275
21
-9.8225379861
31
0.0000000000
0
SPLINE
5
35D
100
AcDbEntity
8
0
100
AcDbSpline
62
7
6
CONTINUOUS
70
0
71
3
72
12
73
8
74
6
42
0.0000001000
43
0.0000001000
44
0.0000000001
12
-0.1036473351
22
0.0575883075
32
0.0000000000
13
-0.1140958085
23
-0.0365305522
33
0.0000000000
40
0.0000000000
40
0.0000000000
40
0.0000000000
40
0.0000000000
40
0.0896567935
40
0.2460014419
40
0.4536088281
40
0.7075585950
40
1.0000000000
40
1.0000000000
40
1.0000000000
40
1.0000000000
10
8.7296396008
20
18.5633656642
30
0.0000000000
10
8.7265420382
20
18.5650867252
30
0.0000000000
10
8.7161335441
20
18.5665020647
30
0.0000000000
10
8.6983474402
20
18.5655944227
30
0.0000000000
10
8.6739018230
20
18.5609845115
30
0.0000000000
10
8.6448031032
20
18.5534442124
30
0.0000000000
10
8.6239191865
20
18.5470488175
30
0.0000000000
10
8.6127970737
20
18.5434878022
30
0.0000000000
11
8.7296396008
21
18.5633656642
31
0.0000000000
11
8.7190564654
21
18.5658650043
31
0.0000000000
11
8.7003338175
21
18.5653303164
31
0.0000000000
11
8.6758257918
21
18.5610930805
31
0.0000000000
11
8.6463323814
21
18.5536279775
31
0.0000000000
11
8.6127970737
21
18.5434878022
31
0.0000000000
0
SPLINE
5
35E
100
AcDbEntity
8
0
100
AcDbSpline
62
7
6
CONTINUOUS
70
0
71
3
72
12
73
8
74
6
42
0.0000001000
43
0.0000001000
44
0.0000000001
12
-0.1050141181
22
0.0592692178
32
0.0000000000
13
-0.1158177379
23
-0.0372589604
33
0.0000000000
40
0.0000000000
40
0.0000000000
40
0.0000000000
40
0.0000000000
40
0.0920800339
40
0.2482692595
40
0.4555035979
40
0.7087319974
40
1.0000000000
40
1.0000000000
40
1.0000000000
40
1.0000000000
10
3.1746510045
20
21.3408485555
30
0.0000000000
10
3.1714277700
20
21.3426677260
30
0.0000000000
10
3.1607662485
20
21.3440019115
30
0.0000000000
10
3.1426215169
20
21.3430011138
30
0.0000000000
10
3.1178687310
20
21.3382397290
30
0.0000000000
10
3.0884217096
20
21.3305428792
30
0.0000000000
10
3.0672978682
20
21.3240360685
30
0.0000000000
10
3.0560532011
20
21.3204186208
30
0.0000000000
11
3.1746510045
21
21.3408485555
31
0.0000000000
11
3.1636254884
21
21.3433988299
31
0.0000000000
11
3.1446343187
21
21.3427424485
31
0.0000000000
11
3.1198052723
21
21.3383600659
31
0.0000000000
11
3.0899562199
21
21.3307308223
31
0.0000000000
11
3.0560532011
21
21.3204186208
31
0.0000000000
0
SPLINE
5
35F
100
AcDbEntity
8
0
100
AcDbSpline
62
7
6
CONTINUOUS
70
0
71
3
72
17
73
13
74
11
42
0.0000001000
43
0.0000001000
44
0.0000000001
12
0.3507708942
22
-0.0730903754
32
0.0000000000
13
0.2293790543
23
0.2746241685
33
0.0000000000
40
0.0000000000
40
0.0000000000
40
0.0000000000
40
0.0000000000
40
0.0661931432
40
0.1626365575
40
0.2628288026
40
0.3661562656
40
0.4717775083
40
0.5787329409
40
0.6860161352
40
0.7926218728
40
0.8975823973
40
1.0000000000
40
1.0000000000
40
1.0000000000
40
1.0000000000
10
6.5035065298
20
12.6436907612
30
0.0000000000
10
6.5112460725
20
12.6420780673
30
0.0000000000
10
6.5305077558
20
12.6393520811
30
0.0000000000
10
6.5619782485
20
12.6393285564
30
0.0000000000
10
6.5975109531
20
12.6442818719
30
0.0000000000
10
6.6332164985
20
12.6538059554
30
0.0000000000
10
6.6684095799
20
12.6674536503
30
0.0000000000
10
6.7024767514
20
12.6847573377
30
0.0000000000
10
6.7348695593
20
12.7052320064
30
0.0000000000
10
6.7651047890
20
12.7283826519
30
0.0000000000
10
6.7927586828
20
12.7537035898
30
0.0000000000
10
6.8094893855
20
12.7719734626
30
0.0000000000
10
6.8173202031
20
12.7813489123
30
0.0000000000
11
6.5035065298
21
12.6436907612
31
0.0000000000
11
6.5269602205
21
12.6403082588
31
0.0000000000
11
6.5614687923
21
12.6401142336
31
0.0000000000
11
6.5969936797
21
12.6449351990
31
0.0000000000
11
6.6327423315
21
12.6543685684
31
0.0000000000
11
6.6680039153
21
12.6679678078
31
0.0000000000
11
6.7021457396
21
12.6852584674
31
0.0000000000
11
6.7346078178
21
12.7057483418
31
0.0000000000
11
6.7648981100
21
12.7289338457
31
0.0000000000
11
6.7925896935
21
12.7543047125
31
0.0000000000
11
6.8173202031
21
12.7813489123
31
0.0000000000
0
SPLINE
5
360
100
AcDbEntity
8
0
100
AcDbSpline
62
9
6
CONTINUOUS
70
0
71
3
72
9
73
5
74
3
42
0.0000001000
43
0.0000001000
44
0.0000000001
12
-0.0222190764
22
0.0111115533
32
0.0000000000
13
-0.0242595856
23
0.0050243247
33
0.0000000000
40
0.0000000000
40
0.0000000000
40
0.0000000000
40
0.0000000000
40
0.0704920348
40
1.0000000000
40
1.0000000000
40
1.0000000000
40
1.0000000000
10
8.1696424547
20
-26.9996659366
30
0.0000000000
10
8.1691203654
20
-26.9994048446
30
0.0000000000
10
8.1616786839
20
-26.9957706194
30
0.0000000000
10
8.1537502549
20
-26.9931383739
30
0.0000000000
10
8.1462337623
20
-26.9915816573
30
0.0000000000
11
8.1696424547
21
-26.9996659366
31
0.0000000000
11
8.1680687881
21
-26.9988974557
31
0.0000000000
11
8.1462337623
21
-26.9915816573
31
0.0000000000
0
SPLINE
5
361
100
AcDbEntity
8
0
100
AcDbSpline
62
9
6
CONTINUOUS
70
0
71
3
72
17
73
13
74
11
42
0.0000001000
43
0.0000001000
44
0.0000000001
12
-0.0000009983
22
0.0538386955
32
0.0000000000
13
-0.0516321871
23
-0.0152552414
33
0.0000000000
40
0.0000000000
40
0.0000000000
40
0.0000000000
40
0.0000000000
40
0.1221798569
40
0.2366815538
40
0.3432608311
40
0.4425079910
40
0.5358182153
40
0.6253525888
40
0.7138512050
40
0.8042230689
40
0.8990373009
40
1.0000000000
40
1.0000000000
40
1.0000000000
40
1.0000000000
10
12.8353148114
20
-19.3356524506
30
0.0000000000
10
12.8353147707
20
-19.3334597826
30
0.0000000000
10
12.8350823966
20
-19.3292066012
30
0.0000000000
10
12.8339560281
20
-19.3231312388
30
0.0000000000
10
12.8320833011
20
-19.3176705609
30
0.0000000000
10
12.8294872420
20
-19.3129372172
30
0.0000000000
10
12.8262089970
20
-19.3090312886
30
0.0000000000
10
12.8223068638
20
-19.3060483064
30
0.0000000000
10
12.8178692350
20
-19.3040649754
30
0.0000000000
10
12.8130060374
20
-19.3031301645
30
0.0000000000
10
12.8078385848
20
-19.3032404291
30
0.0000000000
10
12.8043822568
20
-19.3039784828
30
0.0000000000
10
12.8026446152
20
-19.3044918863
30
0.0000000000
11
12.8353148114
21
-19.3356524506
31
0.0000000000
11
12.8349298199
21
-19.3290857224
31
0.0000000000
11
12.8337779269
21
-19.3230296753
31
0.0000000000
11
12.8318841306
21
-19.3176131077
31
0.0000000000
11
12.8292851889
21
-19.3129444078
31
0.0000000000
11
12.8260337088
21
-19.3091148587
31
0.0000000000
11
12.8221950451
21
-19.3061992025
31
0.0000000000
11
12.8178460865
21
-19.3042528085
31
0.0000000000
11
12.8130722177
21
-19.3033129693
31
0.0000000000
11
12.8079681779
21
-19.3033934716
31
0.0000000000
11
12.8026446152
21
-19.3044918863
31
0.0000000000
0
SPLINE
5
362
100
AcDbEntity
8
0
100
AcDbSpline
62
9
6
CONTINUOUS
70
0
71
3
72
8
73
4
74
2
42
0.0000001000
43
0.0000001000
44
0.0000000001
12
-4.0346040575
22
-1.1938512545
32
0.0000000000
13
-4.0346040575
23
-1.1938512545
33
0.0000000000
40
0.0000000000
40
0.0000000000
40
0.0000000000
40
0.0000000000
40
1.0000000000
40
1.0000000000
40
1.0000000000
40
1.0000000000
10
12.8026446152
20
-19.3044918863
30
0.0000000000
10
11.4577765960
20
-19.7024423045
30
0.0000000000
10
10.1129085768
20
-20.1003927226
30
0.0000000000
10
8.7680405576
20
-20.4983431408
30
0.0000000000
11
12.8026446152
21
-19.3044918863
31
0.0000000000
11
8.7680405576
21
-20.4983431408
31
0.0000000000
0
SPLINE
5
363
100
AcDbEntity
8
0
100
AcDbSpline
62
9
6
CONTINUOUS
70
0
71
3
72
8
73
4
74
2
42
0.0000001000
43
0.0000001000
44
0.0000000001
12
4.0792932149
22
2.9199613349
32
0.0000000000
13
4.0792932149
23
2.9199613349
33
0.0000000000
40
0.0000000000
40
0.0000000000
40
0.0000000000
40
0.0000000000
40
1.0000000000
40
1.0000000000
40
1.0000000000
40
1.0000000000
10
8.7233514003
20
12.4393493801
30
0.0000000000
10
10.0831158052
20
13.4126698251
30
0.0000000000
10
11.4428802102
20
14.3859902700
30
0.0000000000
10
12.8026446152
20
15.3593107150
30
0.0000000000
11
8.7233514003
21
12.4393493801
31
0.0000000000
11
12.8026446152
21
15.3593107150
31
0.0000000000
0
SPLINE
5
364
100
AcDbEntity
8
0
100
AcDbSpline
62
9
6
CONTINUOUS
70
0
71
3
72
17
73
13
74
11
42
0.0000001000
43
0.0000001000
44
0.0000000001
12
0.0605441499
22
0.0433354356
32
0.0000000000
13
0.0000246596
23
0.0744550432
33
0.0000000000
40
0.0000000000
40
0.0000000000
40
0.0000000000
40
0.0000000000
40
0.0918056183
40
0.1885557211
40
0.2891334104
40
0.3924628267
40
0.4973316704
40
0.6024482508
40
0.7064977446
40
0.8082119927
40
0.9064284913
40
1.0000000000
40
1.0000000000
40
1.0000000000
40
1.0000000000
10
12.8026446152
20
15.3593107150
30
0.0000000000
10
12.8044973796
20
15.3606368605
30
0.0000000000
10
12.8081425300
20
15.3635896589
30
0.0000000000
10
12.8132225536
20
15.3686734152
30
0.0000000000
10
12.8179784440
20
15.3744372177
30
0.0000000000
10
12.8223098792
20
15.3807709193
30
0.0000000000
10
12.8261353334
20
15.3875516653
30
0.0000000000
10
12.8293783581
20
15.3946491068
30
0.0000000000
10
12.8319756596
20
15.4019246615
30
0.0000000000
10
12.8338737928
20
15.4092371900
30
0.0000000000
10
12.8350388793
20
15.4164386672
30
0.0000000000
10
12.8353140422
20
15.4212015491
30
0.0000000000
10
12.8353148114
20
15.4235238394
30
0.0000000000
11
12.8026446152
21
15.3593107150
31
0.0000000000
11
12.8079681779
21
15.3635981687
31
0.0000000000
11
12.8130722176
21
15.3686814425
31
0.0000000000
11
12.8178460866
21
15.3744510228
31
0.0000000000
11
12.8221950451
21
15.3807972745
31
0.0000000000
11
12.8260337088
21
15.3875965211
31
0.0000000000
11
12.8292851889
21
15.3947156048
31
0.0000000000
11
12.8318841306
21
15.4020136639
31
0.0000000000
11
12.8337779269
21
15.4093461922
31
0.0000000000
11
12.8349298199
21
15.4165676138
31
0.0000000000
11
12.8353148114
21
15.4235238394
31
0.0000000000
0
SPLINE
5
365
100
AcDbEntity
8
0
100
AcDbSpline
62
9
6
CONTINUOUS
70
0
71
3
72
21
73
17
74
15
42
0.0000001000
43
0.0000001000
44
0.0000000001
12
0.0682266941
22
2.0885788966
32
0.0000000000
13
1.8102163674
23
1.0439987511
33
0.0000000000
40
0.0000000000
40
0.0000000000
40
0.0000000000
40
0.0000000000
40
0.0679967665
40
0.1384065408
40
0.2108394439
40
0.2848375953
40
0.3599107799
40
0.4355417890
40
0.5111977555
40
0.5863473153
40
0.6604710416
40
0.7330721178
40
0.8036941773
40
0.8719342921
40
0.9374507760
40
1.0000000000
40
1.0000000000
40
1.0000000000
40
1.0000000000
10
-13.6541423486
20
15.1413974921
30
0.0000000000
10
-13.6525959504
20
15.1887363626
30
0.0000000000
10
-13.6454093935
20
15.2849976233
30
0.0000000000
10
-13.6233595187
20
15.4303216653
30
0.0000000000
10
-13.5900802441
20
15.5777806324
30
0.0000000000
10
-13.5459391563
20
15.7257422650
30
0.0000000000
10
-13.4914240634
20
15.8725783370
30
0.0000000000
10
-13.4271362199
20
16.0166688063
30
0.0000000000
10
-13.3537850420
20
16.1564234806
30
0.0000000000
10
-13.2721799629
20
16.2902992819
30
0.0000000000
10
-13.1832210366
20
16.4168183767
30
0.0000000000
10
-13.0878877707
20
16.5345852897
30
0.0000000000
10
-12.9872288116
20
16.6423018234
30
0.0000000000
10
-12.8823435125
20
16.7387828826
30
0.0000000000
10
-12.7743895863
20
16.8229588233
30
0.0000000000
10
-12.6993188816
20
16.8714345440
30
0.0000000000
10
-12.6615763385
20
16.8932016480
30
0.0000000000
11
-13.6541423486
21
15.1413974921
31
0.0000000000
11
-13.6437756167
21
15.2831111858
31
0.0000000000
11
-13.6218742438
21
15.4286068289
31
0.0000000000
11
-13.5886792892
21
15.5762845519
31
0.0000000000
11
-13.5445617237
21
15.7244909415
31
0.0000000000
11
-13.4900112606
21
15.8715812260
31
0.0000000000
11
-13.4256335786
21
16.0159208319
31
0.0000000000
11
-13.3521458277
21
16.1559009953
31
0.0000000000
11
-13.2703648563
21
16.2899654550
31
0.0000000000
11
-13.1811995615
21
16.4166235307
31
0.0000000000
11
-13.0856437379
21
16.5344632935
31
0.0000000000
11
-12.9847596136
21
16.6421748704
31
0.0000000000
11
-12.8796668042
21
16.7385621859
31
0.0000000000
11
-12.7715424172
21
16.8225460123
31
0.0000000000
11
-12.6615763385
21
16.8932016480
31
0.0000000000
0
SPLINE
5
366
100
AcDbEntity
8
0
100
AcDbSpline
62
9
6
CONTINUOUS
70
0
71
3
72
14
73
10
74
8
42
0.0000001000
43
0.0000001000
44
0.0000000001
12
-1.1960367375
22
35.6014909398
32
0.0000000000
13
1.1558713647
23
35.6028176189
33
0.0000000000
40
0.0000000000
40
0.0000000000
40
0.0000000000
40
0.0000000000
40
0.1407483867
40
0.2822109274
40
0.4243811696
40
0.5672523671
40
0.7108174905
40
0.8550692288
40
1.0000000000
40
1.0000000000
40
1.0000000000
40
1.0000000000
10
-13.6541423486
20
-20.4738423755
30
0.0000000000
10
-13.7102557623
20
-18.8035582375
30
0.0000000000
10
-13.8063741071
20
-15.4539419245
30
0.0000000000
10
-13.9022192447
20
-10.4157377805
30
0.0000000000
10
-13.9500866135
20
-5.3516383980
30
0.0000000000
10
-13.9499694779
20
-0.2623498056
30
0.0000000000
10
-13.9018679367
20
4.8514284068
30
0.0000000000
10
-13.8057888717
20
9.9889840329
30
0.0000000000
10
-13.7099827913
20
13.4214162207
30
0.0000000000
10
-13.6541423486
20
15.1413974921
30
0.0000000000
11
-13.6541423486
21
-20.4738423755
31
0.0000000000
11
-13.7980763175
21
-15.4622295247
31
0.0000000000
11
-13.8940433389
21
-10.4240248126
31
0.0000000000
11
-13.9420301626
21
-5.3599241103
31
0.0000000000
11
-13.9420301626
21
-0.2706269211
31
0.0000000000
11
-13.8940433389
21
4.8431638565
31
0.0000000000
11
-13.7980763175
21
9.9807418582
31
0.0000000000
11
-13.6541423486
21
15.1413974921
31
0.0000000000
0
SPLINE
5
367
100
AcDbEntity
8
0
100
AcDbSpline
62
7
6
CONTINUOUS
70
0
71
3
72
14
73
10
74
8
42
0.0000001000
43
0.0000001000
44
0.0000000001
12
-0.0057788785
22
-0.3193905886
32
0.0000000000
13
-0.2869840828
23
-0.1415769231
33
0.0000000000
40
0.0000000000
40
0.0000000000
40
0.0000000000
40
0.0000000000
40
0.1650267205
40
0.3218437865
40
0.4702492848
40
0.6110082444
40
0.7453354189
40
0.8743373476
40
1.0000000000
40
1.0000000000
40
1.0000000000
40
1.0000000000
10
8.0501641347
20
-26.0642746202
30
0.0000000000
10
8.0498462449
20
-26.0818439474
30
0.0000000000
10
8.0475803010
20
-26.1161114371
30
0.0000000000
10
8.0387790532
20
-26.1655164212
30
0.0000000000
10
8.0246540025
20
-26.2110036859
30
0.0000000000
10
8.0051948682
20
-26.2518786781
30
0.0000000000
10
7.9804368758
20
-26.2873435482
30
0.0000000000
10
7.9505977710
20
-26.3164622377
30
0.0000000000
10
7.9275402537
20
-26.3311195207
30
0.0000000000
10
7.9155191933
20
-26.3370498313
30
0.0000000000
11
8.0501641347
21
-26.0642746202
31
0.0000000000
11
8.0465345315
21
-26.1168661288
31
0.0000000000
11
8.0375777887
21
-26.1661529920
31
0.0000000000
11
8.0233243818
21
-26.2113666114
31
0.0000000000
11
8.0037959430
21
-26.2518689745
31
0.0000000000
11
7.9790526253
21
-26.2869264143
31
0.0000000000
11
7.9494377499
21
-26.3155816036
31
0.0000000000
11
7.9155191933
21
-26.3370498313
31
0.0000000000
0
SPLINE
5
368
100
AcDbEntity
8
0
100
AcDbSpline
62
9
6
CONTINUOUS
70
0
71
3
72
15
73
11
74
9
42
0.0000001000
43
0.0000001000
44
0.0000000001
12
-0.7966349767
22
0.3983059990
32
0.0000000000
13
-0.0300482500
23
0.8890653807
33
0.0000000000
40
0.0000000000
40
0.0000000000
40
0.0000000000
40
0.0000000000
40
0.1087666220
40
0.2188776777
40
0.3329552854
40
0.4524698734
40
0.5784815937
40
0.7116327681
40
0.8521632193
40
1.0000000000
40
1.0000000000
40
1.0000000000
40
1.0000000000
10
-13.2697258753
20
-21.2299158642
30
0.0000000000
10
-13.2986083071
20
-21.2154750648
30
0.0000000000
10
-13.3541470417
20
-21.1812516602
30
0.0000000000
10
-13.4284071494
20
-21.1154913447
30
0.0000000000
10
-13.4930611001
20
-21.0361763238
30
0.0000000000
10
-13.5476227550
20
-20.9441483236
30
0.0000000000
10
-13.5915713187
20
-20.8404924447
30
0.0000000000
10
-13.6244989235
20
-20.7263728560
30
0.0000000000
10
-13.6461022909
20
-20.6030523911
30
0.0000000000
10
-13.6526616030
20
-20.5176545634
30
0.0000000000
10
-13.6541423486
20
-20.4738423755
30
0.0000000000
11
-13.2697258753
21
-21.2299158642
31
0.0000000000
11
-13.3521460487
21
-21.1792379435
31
0.0000000000
11
-13.4256337648
21
-21.1144759534
31
0.0000000000
11
-13.4900114263
21
-21.0360299180
31
0.0000000000
11
-13.5445618814
21
-20.9447745499
31
0.0000000000
11
-13.5886794019
21
-20.8417245721
31
0.0000000000
11
-13.6218743292
21
-20.7280234181
31
0.0000000000
11
-13.6437756749
21
-20.6049447624
31
0.0000000000
11
-13.6541423486
21
-20.4738423755
31
0.0000000000
0
SPLINE
5
369
100
AcDbEntity
8
0
100
AcDbSpline
62
7
6
CONTINUOUS
70
0
71
3
72
19
73
15
74
13
42
0.0000001000
43
0.0000001000
44
0.0000000001
12
0.6274176198
22
-0.3540982572
32
0.0000000000
13
0.0132648680
23
-0.7203211011
33
0.0000000000
40
0.0000000000
40
0.0000000000
40
0.0000000000
40
0.0000000000
40
0.0737301764
40
0.1523825260
40
0.2346017262
40
0.3194320527
40
0.4069395039
40
0.4966528261
40
0.5867439860
40
0.6755159765
40
0.7616763982
40
0.8447126847
40
0.9243093786
40
1.0000000000
40
1.0000000000
40
1.0000000000
40
1.0000000000
10
7.7072751445
20
12.4700782701
30
0.0000000000
10
7.7226950151
20
12.4613756944
30
0.0000000000
10
7.7534815290
20
12.4414290583
30
0.0000000000
10
7.7974157029
20
12.4060228273
30
0.0000000000
10
7.8396615648
20
12.3647094596
30
0.0000000000
10
7.8795495327
20
12.3182924511
30
0.0000000000
10
7.9165930851
20
12.2673369779
30
0.0000000000
10
7.9502041809
20
12.2125697685
30
0.0000000000
10
7.9796607073
20
12.1551205652
30
0.0000000000
10
8.0043311375
20
12.0963844358
30
0.0000000000
10
8.0238879547
20
12.0375364123
30
0.0000000000
10
8.0382104904
20
11.9794630468
30
0.0000000000
10
8.0472605856
20
11.9228831535
30
0.0000000000
10
8.0498294594
20
11.8856139922
30
0.0000000000
10
8.0501641347
20
11.8674401416
30
0.0000000000
11
7.7072751445
21
12.4700782701
31
0.0000000000
11
7.7519604176
21
12.4413590873
31
0.0000000000
11
7.7961581615
21
12.4058988143
31
0.0000000000
11
7.8385957346
21
12.3645738743
31
0.0000000000
11
7.8784896812
21
12.3182751774
31
0.0000000000
11
7.9156062209
21
12.2673151204
31
0.0000000000
11
7.9494377499
21
12.2122433646
31
0.0000000000
11
7.9790526253
21
12.1544879175
31
0.0000000000
11
8.0037959430
21
12.0955130653
31
0.0000000000
11
8.0233243818
21
12.0365912241
31
0.0000000000
11
8.0375777887
21
11.9784911089
31
0.0000000000
11
8.0465345315
21
11.9218500089
31
0.0000000000
11
8.0501641347
21
11.8674401416
31
0.0000000000
0
SPLINE
5
36A
100
AcDbEntity
8
0
100
AcDbSpline
62
7
6
CONTINUOUS
70
0
71
3
72
10
73
6
74
4
42
0.0000001000
43
0.0000001000
44
0.0000000001
12
0.8899815397
22
0.4974375475
32
0.0000000000
13
0.8901386879
23
0.4971562843
33
0.0000000000
40
0.0000000000
40
0.0000000000
40
0.0000000000
40
0.0000000000
40
0.3330127956
40
0.6663150956
40
1.0000000000
40
1.0000000000
40
1.0000000000
40
1.0000000000
10
6.8173202031
20
11.9728480883
30
0.0000000000
10
6.9161119500
20
12.0280657778
30
0.0000000000
10
7.1137871548
20
12.1385387360
30
0.0000000000
10
7.4104738819
20
12.3043043441
30
0.0000000000
10
7.6083717715
20
12.4148470501
30
0.0000000000
10
7.7073803859
20
12.4701448992
30
0.0000000000
11
6.8173202031
21
11.9728480883
31
0.0000000000
11
7.1137041753
21
12.1384855338
31
0.0000000000
11
7.4103632747
21
12.3042357191
31
0.0000000000
11
7.7073803859
21
12.4701448992
31
0.0000000000
0
SPLINE
5
36B
100
AcDbEntity
8
0
100
AcDbSpline
62
9
6
CONTINUOUS
70
0
71
3
72
21
73
17
74
15
42
0.0000001000
43
0.0000001000
44
0.0000000001
12
-1.2263237937
22
-0.6695161646
32
0.0000000000
13
-0.0469924029
23
-1.3963930878
33
0.0000000000
40
0.0000000000
40
0.0000000000
40
0.0000000000
40
0.0000000000
40
0.0632329430
40
0.1293136257
40
0.1979656031
40
0.2688548057
40
0.3415889336
40
0.4157248017
40
0.4907809467
40
0.5662552419
40
0.6416352654
40
0.7164086220
40
0.7900805152
40
0.8621847151
40
0.9322889534
40
1.0000000000
40
1.0000000000
40
1.0000000000
40
1.0000000000
10
2.5524748623
20
8.8660899718
30
0.0000000000
10
2.5266268414
20
8.8519781460
30
0.0000000000
10
2.4751854671
20
8.8204585385
30
0.0000000000
10
2.4010917478
20
8.7654134496
30
0.0000000000
10
2.3290895870
20
8.7021205574
30
0.0000000000
10
2.2599886500
20
8.6312914947
30
0.0000000000
10
2.1945437210
20
8.5537066134
30
0.0000000000
10
2.1334749242
20
8.4702214208
30
0.0000000000
10
2.0774546703
20
8.3817570260
30
0.0000000000
10
2.0271008955
20
8.2892901071
30
0.0000000000
10
1.9829693710
20
8.1938418073
30
0.0000000000
10
1.9455472501
20
8.0964655885
30
0.0000000000
10
1.9152473389
20
7.9982358374
30
0.0000000000
10
1.8924049793
20
7.9002330595
30
0.0000000000
10
1.8772743775
20
7.8035563715
30
0.0000000000
10
1.8723478379
20
7.7394761067
30
0.0000000000
10
1.8712872029
20
7.7079590276
30
0.0000000000
11
2.5524748623
21
8.8660899718
31
0.0000000000
11
2.4770457817
21
8.8200918403
31
0.0000000000
11
2.4028354528
21
8.7651639487
31
0.0000000000
11
2.3307053160
21
8.7019359677
31
0.0000000000
11
2.2614634975
21
8.6311155748
31
0.0000000000
11
2.1958785304
21
8.5534893437
31
0.0000000000
11
2.1346796295
21
8.4699201835
31
0.0000000000
11
2.0785490237
21
8.3813397825
31
0.0000000000
11
2.0281106812
21
8.2887331898
31
0.0000000000
11
1.9839254696
21
8.1931302990
31
0.0000000000
11
1.9464858479
21
8.0955972503
31
0.0000000000
11
1.9162075093
21
7.9972180987
31
0.0000000000
11
1.8934265812
21
7.8990848127
31
0.0000000000
11
1.8783974631
21
7.8022962165
31
0.0000000000
11
1.8712872029
21
7.7079590276
31
0.0000000000
0
SPLINE
5
36C
100
AcDbEntity
8
0
100
AcDbSpline
62
9
6
CONTINUOUS
70
0
71
3
72
21
73
17
74
15
42
0.0000001000
43
0.0000001000
44
0.0000000001
12
-1.8337293975
22
-1.0121395857
32
0.0000000000
13
-0.0700199895
23
-2.0933435565
33
0.0000000000
40
0.0000000000
40
0.0000000000
40
0.0000000000
40
0.0000000000
40
0.0631223844
40
0.1290866059
40
0.1976521805
40
0.2684835318
40
0.3411863670
40
0.4153149582
40
0.4903848712
40
0.5658906133
40
0.6413161779
40
0.7161454033
40
0.7898790638
40
0.8620461618
40
0.9322092616
40
1.0000000000
40
1.0000000000
40
1.0000000000
40
1.0000000000
10
2.1866421222
20
9.4690924176
30
0.0000000000
10
2.1480589983
20
9.4477961962
30
0.0000000000
10
2.0713012613
20
9.4002665076
30
0.0000000000
10
1.9607882063
20
9.3173646432
30
0.0000000000
10
1.8534158747
20
9.2221178182
30
0.0000000000
10
1.7503702182
20
9.1155825601
30
0.0000000000
10
1.6527768823
20
8.9989319164
30
0.0000000000
10
1.5617093937
20
8.8734521136
30
0.0000000000
10
1.4781703350
20
8.7405273704
30
0.0000000000
10
1.4030809448
20
8.6016249919
30
0.0000000000
10
1.3372697273
20
8.4582784666
30
0.0000000000
10
1.2814628712
20
8.3120694531
30
0.0000000000
10
1.2362760090
20
8.1646107060
30
0.0000000000
10
1.2022087545
20
8.0175242489
30
0.0000000000
10
1.1796379672
20
7.8724383939
30
0.0000000000
10
1.1722859646
20
7.7762775551
30
0.0000000000
10
1.1707037290
20
7.7289744533
30
0.0000000000
11
2.1866421222
21
9.4690924176
31
0.0000000000
11
2.0740866224
21
9.3997314925
31
0.0000000000
11
1.9634162341
21
9.3170206667
31
0.0000000000
11
1.8558487300
21
9.2218706986
31
0.0000000000
11
1.7525890478
21
9.1153469007
31
0.0000000000
11
1.6547831212
21
8.9986321894
31
0.0000000000
11
1.5635182080
21
8.8730239229
31
0.0000000000
11
1.4798114990
21
8.7399223319
31
0.0000000000
11
1.4045932951
21
8.6008073951
31
0.0000000000
11
1.3386996808
21
8.4572257553
31
0.0000000000
11
1.2828646903
21
8.3107777345
31
0.0000000000
11
1.2377082724
21
8.1630907711
31
0.0000000000
11
1.2037316570
21
8.0158038785
31
0.0000000000
11
1.1813145701
21
7.8705660924
31
0.0000000000
11
1.1707037290
21
7.7289744533
31
0.0000000000
0
SPLINE
5
36D
100
AcDbEntity
8
0
100
AcDbSpline
62
9
6
CONTINUOUS
70
0
71
3
72
18
73
14
74
12
42
0.0000001000
43
0.0000001000
44
0.0000000001
12
-0.0325473819
22
0.7320804071
32
0.0000000000
13
-0.6504608184
23
0.3374933752
33
0.0000000000
40
0.0000000000
40
0.0000000000
40
0.0000000000
40
0.0000000000
40
0.0850838874
40
0.1748243511
40
0.2682332118
40
0.3641524152
40
0.4613158132
40
0.5584058358
40
0.6541079076
40
0.7471649932
40
0.8364346813
40
0.9209517436
40
1.0000000000
40
1.0000000000
40
1.0000000000
40
1.0000000000
10
2.5524748623
20
8.8660899718
30
0.0000000000
10
2.5515517763
20
8.8868527208
30
0.0000000000
10
2.5471552156
20
8.9294281972
30
0.0000000000
10
2.5338956317
20
8.9936877705
30
0.0000000000
10
2.5140422293
20
9.0589950682
30
0.0000000000
10
2.4879935242
20
9.1240349182
30
0.0000000000
10
2.4562712090
20
9.1875084477
30
0.0000000000
10
2.4195116356
20
9.2481417109
30
0.0000000000
10
2.3784515850
20
9.3047192273
30
0.0000000000
10
2.3339139286
20
9.3561074026
30
0.0000000000
10
2.2867816245
20
9.4012821080
30
0.0000000000
10
2.2379995423
20
9.4393361445
30
0.0000000000
10
2.2037813868
20
9.4601996633
30
0.0000000000
10
2.1866421222
20
9.4690924176
30
0.0000000000
11
2.5524748623
21
8.8660899718
31
0.0000000000
11
2.5462667251
21
8.9281299068
31
0.0000000000
11
2.5331224106
21
8.9925650283
31
0.0000000000
11
2.5133091869
21
9.0580851471
31
0.0000000000
11
2.4872299242
21
9.1233580113
31
0.0000000000
11
2.4554149033
21
9.1870563961
31
0.0000000000
11
2.4185110334
21
9.2478850904
31
0.0000000000
11
2.3772686982
21
9.3046072334
31
0.0000000000
11
2.3325264979
21
9.3560694645
31
0.0000000000
11
2.2851941980
21
9.4012253750
31
0.0000000000
11
2.2362342301
21
9.4391567859
31
0.0000000000
11
2.1866421222
21
9.4690924176
31
0.0000000000
0
SPLINE
5
36E
100
AcDbEntity
8
0
100
AcDbSpline
62
9
6
CONTINUOUS
70
0
71
3
72
14
73
10
74
8
42
0.0000001000
43
0.0000001000
44
0.0000000001
12
-1.1963802517
22
-35.5662953330
32
0.0000000000
13
1.2365004073
23
-35.5649231149
33
0.0000000000
40
0.0000000000
40
0.0000000000
40
0.0000000000
40
0.0000000000
40
0.1448612482
40
0.2890651338
40
0.4326049597
40
0.5754743298
40
0.7176671330
40
0.8591775443
40
1.0000000000
40
1.0000000000
40
1.0000000000
40
1.0000000000
10
1.8712872029
20
7.7079590276
30
0.0000000000
10
1.8135174907
20
5.9905663822
30
0.0000000000
10
1.7144032267
20
2.5630079374
30
0.0000000000
10
1.6150150891
20
-2.5677236918
30
0.0000000000
10
1.5652589332
20
-7.6755535360
30
0.0000000000
10
1.5651419149
20
-12.7597694552
30
0.0000000000
10
1.6146641491
20
-17.8196727812
30
0.0000000000
10
1.7138186482
20
-22.8545571697
30
0.0000000000
10
1.8132448617
20
-26.2022189974
30
0.0000000000
10
1.8712872029
20
-27.8716656002
30
0.0000000000
11
1.8712872029
21
7.7079590276
31
0.0000000000
11
1.7223909226
21
2.5550177858
31
0.0000000000
11
1.6231152928
21
-2.5757206766
31
0.0000000000
11
1.5734740516
21
-7.6835467825
31
0.0000000000
11
1.5734740535
21
-12.7677549905
31
0.0000000000
11
1.6231152985
21
-17.8276431044
31
0.0000000000
11
1.7223909319
21
-22.8625122030
31
0.0000000000
11
1.8712872029
21
-27.8716656002
31
0.0000000000
0
SPLINE
5
36F
100
AcDbEntity
8
0
100
AcDbSpline
62
9
6
CONTINUOUS
70
0
71
3
72
14
73
10
74
8
42
0.0000001000
43
0.0000001000
44
0.0000000001
12
-1.1975571066
22
-35.6018976942
32
0.0000000000
13
1.2377174634
23
-35.6005241244
33
0.0000000000
40
0.0000000000
40
0.0000000000
40
0.0000000000
40
0.0000000000
40
0.1448613000
40
0.2890652005
40
0.4326050301
40
0.5754743923
40
0.7176671754
40
0.8591775541
40
1.0000000000
40
1.0000000000
40
1.0000000000
40
1.0000000000
10
1.1707037290
20
7.7289744533
30
0.0000000000
10
1.1128771693
20
6.0098620590
30
0.0000000000
10
1.0136654065
20
2.5788718073
30
0.0000000000
10
0.9141794863
20
-2.5569965224
30
0.0000000000
10
0.8643743824
20
-7.6699394083
30
0.0000000000
10
0.8642572452
20
-12.7592443082
30
0.0000000000
10
0.9138281890
20
-17.8242118552
30
0.0000000000
10
1.0130802360
20
-22.8641354239
30
0.0000000000
10
1.1126042622
20
-26.2151477873
30
0.0000000000
10
1.1707037290
20
-27.8862654143
30
0.0000000000
11
1.1707037290
21
7.7289744533
31
0.0000000000
11
1.0216609458
21
2.5708732265
31
0.0000000000
11
0.9222876563
21
-2.5650016411
31
0.0000000000
11
0.8725975809
21
-7.6779407929
31
0.0000000000
11
0.8725975809
21
-12.7672379821
31
0.0000000000
11
0.9222876563
21
-17.8321903102
31
0.0000000000
11
1.0216609458
21
-22.8720981564
31
0.0000000000
11
1.1707037290
21
-27.8862654143
31
0.0000000000
0
SPLINE
5
370
100
AcDbEntity
8
0
100
AcDbSpline
62
9
6
CONTINUOUS
70
0
71
3
72
18
73
14
74
12
42
0.0000001000
43
0.0000001000
44
0.0000000001
12
-0.6598811159
22
-0.2859158686
32
0.0000000000
13
-0.6430024739
23
0.3220850659
33
0.0000000000
40
0.0000000000
40
0.0000000000
40
0.0000000000
40
0.0000000000
40
0.0801802321
40
0.1664109950
40
0.2576286248
40
0.3525680072
40
0.4498271329
40
0.5479234206
40
0.6453460048
40
0.7406067501
40
0.8322922827
40
0.9191197082
40
1.0000000000
40
1.0000000000
40
1.0000000000
40
1.0000000000
10
1.8712872029
20
7.7079590276
30
0.0000000000
10
1.8536507293
20
7.7003174273
30
0.0000000000
10
1.8161360076
20
7.6865173090
30
0.0000000000
10
1.7563955190
20
7.6705875176
30
0.0000000000
10
1.6920847114
20
7.6589067992
30
0.0000000000
10
1.6244694758
20
7.6517098002
30
0.0000000000
10
1.5548739946
20
7.6491391259
30
0.0000000000
10
1.4846689638
20
7.6512470269
30
0.0000000000
10
1.4152369225
20
7.6579920600
30
0.0000000000
10
1.3479454607
20
7.6692398936
30
0.0000000000
10
1.2841129556
20
7.6847685369
30
0.0000000000
10
1.2249961330
20
7.7042675598
30
0.0000000000
10
1.1880391384
20
7.7202910086
30
0.0000000000
10
1.1707037292
20
7.7289744533
30
0.0000000000
11
1.8712872029
21
7.7079590276
31
0.0000000000
11
1.8172507504
21
7.6878340401
31
0.0000000000
11
1.7573753163
21
7.6716899300
31
0.0000000000
11
1.6928529231
21
7.6598481003
31
0.0000000000
11
1.6249681068
21
7.6525443025
31
0.0000000000
11
1.5550723438
21
7.6499239435
31
0.0000000000
11
1.4845571452
21
7.6520391903
31
0.0000000000
11
1.4148263538
21
7.6588479317
31
0.0000000000
11
1.3472681966
21
7.6702146168
31
0.0000000000
11
1.2832276465
21
7.6859129534
31
0.0000000000
11
1.2239796469
21
7.7056304131
31
0.0000000000
11
1.1707037292
21
7.7289744533
31
0.0000000000
0
SPLINE
5
371
100
AcDbEntity
8
0
100
AcDbSpline
62
9
6
CONTINUOUS
70
0
71
3
72
21
73
17
74
15
42
0.0000001000
43
0.0000001000
44
0.0000000001
12
0.0358352395
22
-1.0301967536
32
0.0000000000
13
0.9504865147
23
0.3989547602
33
0.0000000000
40
0.0000000000
40
0.0000000000
40
0.0000000000
40
0.0000000000
40
0.0851234649
40
0.1662595423
40
0.2433528894
40
0.3165752430
40
0.3863214243
40
0.4532113677
40
0.5180787890
40
0.5819316198
40
0.6458710758
40
0.7109883635
40
0.7782694729
40
0.8485202178
40
0.9223197416
40
1.0000000000
40
1.0000000000
40
1.0000000000
40
1.0000000000
10
1.8712872029
20
-27.8716656002
30
0.0000000000
10
1.8723040095
20
-27.9008969059
30
0.0000000000
10
1.8768126942
20
-27.9579464809
30
0.0000000000
10
1.8916481292
20
-28.0403854943
30
0.0000000000
10
1.9142650160
20
-28.1168157071
30
0.0000000000
10
1.9444516134
20
-28.1863689456
30
0.0000000000
10
1.9819226391
20
-28.2482592151
30
0.0000000000
10
2.0263115518
20
-28.3017538481
30
0.0000000000
10
2.0771506297
20
-28.3461820056
30
0.0000000000
10
2.1338532876
20
-28.3809603222
30
0.0000000000
10
2.1957166256
20
-28.4056360924
30
0.0000000000
10
2.2619564086
20
-28.4199223944
30
0.0000000000
10
2.3317553757
20
-28.4237013397
30
0.0000000000
10
2.4042983129
20
-28.4169958823
30
0.0000000000
10
2.4787555424
20
-28.3999525589
30
0.0000000000
10
2.5278635162
20
-28.3823115713
30
0.0000000000
10
2.5524748623
20
-28.3719812683
30
0.0000000000
11
1.8712872029
21
-27.8716656002
31
0.0000000000
11
1.8783958439
21
-27.9591241355
31
0.0000000000
11
1.8934237534
21
-28.0413996222
31
0.0000000000
11
1.9162033335
21
-28.1175341639
31
0.0000000000
11
1.9464802781
21
-28.1866745586
31
0.0000000000
11
1.9839184735
21
-28.2480535445
31
0.0000000000
11
2.0281022300
21
-28.3009884312
31
0.0000000000
11
2.0785393307
21
-28.3448888217
31
0.0000000000
11
2.1346691404
21
-28.3792663932
31
0.0000000000
11
2.1958676438
21
-28.4037383988
31
0.0000000000
11
2.2614523669
21
-28.4180317940
31
0.0000000000
11
2.3306941489
21
-28.4219878350
31
0.0000000000
11
2.4028243599
21
-28.4155621418
31
0.0000000000
11
2.4770348785
21
-28.3988273195
31
0.0000000000
11
2.5524748623
21
-28.3719812683
31
0.0000000000
0
SPLINE
5
372
100
AcDbEntity
8
0
100
AcDbSpline
62
9
6
CONTINUOUS
70
0
71
3
72
15
73
11
74
9
42
0.0000001000
43
0.0000001000
44
0.0000000001
12
0.0310425266
22
-0.8977018143
32
0.0000000000
13
0.8042792446
23
-0.4023116243
33
0.0000000000
40
0.0000000000
40
0.0000000000
40
0.0000000000
40
0.0000000000
40
0.1465677001
40
0.2861266119
40
0.4186567336
40
0.5444423650
40
0.6641545578
40
0.7788571626
40
0.8899895366
40
1.0000000000
40
1.0000000000
40
1.0000000000
40
1.0000000000
10
1.1707037290
20
-27.8862654143
30
0.0000000000
10
1.1722203396
20
-27.9301234444
30
0.0000000000
10
1.1789459404
20
-28.0156774279
30
0.0000000000
10
1.2010757432
20
-28.1392794184
30
0.0000000000
10
1.2348038088
20
-28.2538099629
30
0.0000000000
10
1.2798178987
20
-28.3579960452
30
0.0000000000
10
1.3356946483
20
-28.4506617770
30
0.0000000000
10
1.4018898283
20
-28.5307111836
30
0.0000000000
10
1.4778675201
20
-28.5972781926
30
0.0000000000
10
1.5345879191
20
-28.6320664476
30
0.0000000000
10
1.5640809633
20
-28.6468192770
30
0.0000000000
11
1.1707037290
21
-27.8862654143
31
0.0000000000
11
1.1813145084
21
-28.0174898540
31
0.0000000000
11
1.2037315701
21
-28.1408263677
31
0.0000000000
11
1.2377081536
21
-28.2549183499
31
0.0000000000
11
1.2828645245
21
-28.3584877529
31
0.0000000000
11
1.3386995041
21
-28.4503853832
31
0.0000000000
11
1.4045930951
21
-28.5295893833
31
0.0000000000
11
1.4798112613
21
-28.5952165985
31
0.0000000000
11
1.5640809633
21
-28.6468192770
31
0.0000000000
0
SPLINE
5
373
100
AcDbEntity
8
0
100
AcDbSpline
62
9
6
CONTINUOUS
70
0
71
3
72
18
73
14
74
12
42
0.0000001000
43
0.0000001000
44
0.0000000001
12
-0.6380970541
22
-0.3397256877
32
0.0000000000
13
-0.6467990319
23
0.3228504385
33
0.0000000000
40
0.0000000000
40
0.0000000000
40
0.0000000000
40
0.0000000000
40
0.0824426685
40
0.1702426490
40
0.2623898961
40
0.3576875551
40
0.4548144350
40
0.5523807492
40
0.6489805901
40
0.7432436847
40
0.8338887642
40
0.9197813557
40
1.0000000000
40
1.0000000000
40
1.0000000000
40
1.0000000000
10
1.8712872029
20
-27.8716656002
30
0.0000000000
10
1.8537517283
20
-27.8810015642
30
0.0000000000
10
1.8164147751
20
-27.8982078867
30
0.0000000000
10
1.7566406758
20
-27.9190595108
30
0.0000000000
10
1.6922953339
20
-27.9354566182
30
0.0000000000
10
1.6246458881
20
-27.9470734828
30
0.0000000000
10
1.5550163964
20
-27.9536827332
30
0.0000000000
10
1.4847766315
20
-27.9551535106
30
0.0000000000
10
1.4153076879
20
-27.9514570096
30
0.0000000000
10
1.3479755048
20
-27.9426670181
30
0.0000000000
10
1.2840958197
20
-27.9289550735
30
0.0000000000
10
1.2249251141
20
-27.9105934591
30
0.0000000000
10
1.1879990373
20
-27.8948981821
30
0.0000000000
10
1.1707039235
20
-27.8862653073
30
0.0000000000
11
1.8712872029
21
-27.8716656002
31
0.0000000000
11
1.8172507514
21
-27.8968040124
31
0.0000000000
11
1.7573753247
21
-27.9178617387
31
0.0000000000
11
1.6928529447
21
-27.9344195542
31
0.0000000000
11
1.6249681462
21
-27.9461478198
31
0.0000000000
11
1.5550724045
21
-27.9528130451
31
0.0000000000
11
1.4845572296
21
-27.9542825362
31
0.0000000000
11
1.4148264630
21
-27.9505270380
31
0.0000000000
11
1.3472683304
21
-27.9416213164
31
0.0000000000
11
1.2832278035
21
-27.9277426696
31
0.0000000000
11
1.2239798244
21
-27.9091673988
31
0.0000000000
11
1.1707039235
21
-27.8862653073
31
0.0000000000
0
SPLINE
5
374
100
AcDbEntity
8
0
100
AcDbSpline
62
9
6
CONTINUOUS
70
0
71
3
72
14
73
10
74
8
42
0.0000001000
43
0.0000001000
44
0.0000000001
12
-0.0143836992
22
-0.3374192641
32
0.0000000000
13
-0.3120967205
23
-0.1310012098
33
0.0000000000
40
0.0000000000
40
0.0000000000
40
0.0000000000
40
0.0000000000
40
0.1814597712
40
0.3519887890
40
0.5113357285
40
0.6601982272
40
0.8003674891
40
0.9347434728
40
1.0000000000
40
1.0000000000
40
1.0000000000
40
1.0000000000
10
2.5524748623
20
-28.3719812683
30
0.0000000000
10
2.5516048413
20
-28.3923906091
30
0.0000000000
10
2.5477192027
20
-28.4319373476
30
0.0000000000
10
2.5347947376
20
-28.4882074781
30
0.0000000000
10
2.5151472111
20
-28.5386292278
30
0.0000000000
10
2.4890838347
20
-28.5821723631
30
0.0000000000
10
2.4570242651
20
-28.6178901950
30
0.0000000000
10
2.4257361919
20
-28.6404466061
30
0.0000000000
10
2.4054545634
20
-28.6503230309
30
0.0000000000
10
2.3986657807
20
-28.6531725922
30
0.0000000000
11
2.5524748623
21
-28.3719812683
31
0.0000000000
11
2.5462667217
21
-28.4329496384
31
0.0000000000
11
2.5331224002
21
-28.4890216369
31
0.0000000000
11
2.5133091678
21
-28.5390571244
31
0.0000000000
11
2.4872298964
21
-28.5820387050
31
0.0000000000
11
2.4554148688
21
-28.6170924131
31
0.0000000000
11
2.4185109953
21
-28.6435054846
31
0.0000000000
11
2.3986657807
21
-28.6531725922
31
0.0000000000
0
SPLINE
5
375
100
AcDbEntity
8
0
100
AcDbSpline
62
7
6
CONTINUOUS
70
0
71
3
72
11
73
7
74
5
42
0.0000001000
43
0.0000001000
44
0.0000000001
12
-0.0764188699
22
0.0376016198
32
0.0000000000
13
-0.0842327845
23
-0.0080031235
33
0.0000000000
40
0.0000000000
40
0.0000000000
40
0.0000000000
40
0.0000000000
40
0.1017705050
40
0.3472520619
40
0.6465611872
40
1.0000000000
40
1.0000000000
40
1.0000000000
40
1.0000000000
10
12.9190415693
20
-19.3760301333
30
0.0000000000
10
12.9164491737
20
-19.3747545547
30
0.0000000000
10
12.9070679416
20
-19.3713598419
30
0.0000000000
10
12.8890124523
20
-19.3686091077
30
0.0000000000
10
12.8636065349
20
-19.3683648719
30
0.0000000000
10
12.8452385232
20
-19.3696850994
30
0.0000000000
10
12.8353148114
20
-19.3706279709
30
0.0000000000
11
12.9190415693
21
-19.3760301333
31
0.0000000000
11
12.9109232501
21
-19.3729294380
31
0.0000000000
11
12.8904758965
21
-19.3692786301
31
0.0000000000
11
12.8651574525
21
-19.3686944941
31
0.0000000000
11
12.8353148114
21
-19.3706279709
31
0.0000000000
0
SPLINE
5
376
100
AcDbEntity
8
0
100
AcDbSpline
62
7
6
CONTINUOUS
70
0
71
3
72
13
73
9
74
7
42
0.0000001000
43
0.0000001000
44
0.0000000001
12
0.2071169455
22
0.1049849064
32
0.0000000000
13
-0.0000514674
23
0.2330319311
33
0.0000000000
40
0.0000000000
40
0.0000000000
40
0.0000000000
40
0.0000000000
40
0.2260097833
40
0.4306123287
40
0.6140728523
40
0.7802918706
40
0.9341126742
40
1.0000000000
40
1.0000000000
40
1.0000000000
40
1.0000000000
10
13.3237533166
20
-20.4853188640
30
0.0000000000
10
13.3393568019
20
-20.4774096587
30
0.0000000000
10
13.3683112271
20
-20.4606999057
30
0.0000000000
10
13.4059752482
20
-20.4314175355
30
0.0000000000
10
13.4350831097
20
-20.3995544492
30
0.0000000000
10
13.4549202986
20
-20.3655943877
30
0.0000000000
10
13.4630218234
20
-20.3364481793
30
0.0000000000
10
13.4640748543
20
-20.3193835162
30
0.0000000000
10
13.4640737240
20
-20.3142655659
30
0.0000000000
11
13.3237533166
21
-20.4853188640
31
0.0000000000
11
13.3690501441
21
-20.4588157328
31
0.0000000000
11
13.4063205072
21
-20.4293522139
31
0.0000000000
11
13.4347260859
21
-20.3976043824
31
0.0000000000
11
13.4538197797
21
-20.3640610782
31
0.0000000000
11
13.4631231959
21
-20.3295759887
31
0.0000000000
11
13.4640737240
21
-20.3142655659
31
0.0000000000
0
SPLINE
5
377
100
AcDbEntity
8
0
100
AcDbSpline
62
9
6
CONTINUOUS
70
0
71
3
72
12
73
8
74
6
42
0.0000001000
43
0.0000001000
44
0.0000000001
12
-0.0000227722
22
-0.1197212051
32
0.0000000000
13
-0.1064692941
23
-0.0538576921
33
0.0000000000
40
0.0000000000
40
0.0000000000
40
0.0000000000
40
0.0000000000
40
0.1619863906
40
0.3382910533
40
0.5341892806
40
0.7543267983
40
1.0000000000
40
1.0000000000
40
1.0000000000
40
1.0000000000
10
8.3078453734
20
-27.5708073446
30
0.0000000000
10
8.3078441438
20
-27.5772717466
30
0.0000000000
10
8.3056926287
20
-27.5907741204
30
0.0000000000
10
8.2962625230
20
-27.6101055575
30
0.0000000000
10
8.2809942996
20
-27.6282874907
30
0.0000000000
10
8.2604336983
20
-27.6449118718
30
0.0000000000
10
8.2443664417
20
-27.6542695162
30
0.0000000000
10
8.2356475576
20
-27.6586799801
30
0.0000000000
11
8.3078453734
21
-27.5708073446
31
0.0000000000
11
8.3049077365
21
-27.5899136892
31
0.0000000000
11
8.2959300458
21
-27.6089377438
31
0.0000000000
11
8.2811305899
21
-27.6270295198
31
0.0000000000
11
8.2608712257
21
-27.6437465692
31
0.0000000000
11
8.2356475576
21
-27.6586799801
31
0.0000000000
0
SPLINE
5
378
100
AcDbEntity
8
0
100
AcDbSpline
62
7
6
CONTINUOUS
70
0
71
3
72
15
73
11
74
9
42
0.0000001000
43
0.0000001000
44
0.0000000001
12
0.3062164604
22
0.1652108055
32
0.0000000000
13
0.0000366968
23
0.3481724997
33
0.0000000000
40
0.0000000000
40
0.0000000000
40
0.0000000000
40
0.0000000000
40
0.1139539270
40
0.2311612393
40
0.3544660466
40
0.4887041879
40
0.6374071998
40
0.8045195132
40
0.9932614312
40
1.0000000000
40
1.0000000000
40
1.0000000000
40
1.0000000000
10
13.3237533166
20
16.3707163442
30
0.0000000000
10
13.3353848393
20
16.3769918176
30
0.0000000000
10
13.3578803560
20
16.3918916143
30
0.0000000000
10
13.3876529042
20
16.4205427500
30
0.0000000000
10
13.4133994545
20
16.4558174454
30
0.0000000000
10
13.4347180945
20
16.4980498933
30
0.0000000000
10
13.4510710141
20
16.5478062504
30
0.0000000000
10
13.4616358378
20
16.6055320297
30
0.0000000000
10
13.4640381057
20
16.6476113657
30
0.0000000000
10
13.4640833252
20
16.6702984397
30
0.0000000000
10
13.4640834076
20
16.6710805012
30
0.0000000000
11
13.3237533166
21
16.3707163442
31
0.0000000000
11
13.3568153542
21
16.3926016509
31
0.0000000000
11
13.3862674580
21
16.4208095379
31
0.0000000000
11
13.4116903928
21
16.4553685797
31
0.0000000000
11
13.4329309927
21
16.4969664141
31
0.0000000000
11
13.4493240648
21
16.5460407052
31
0.0000000000
11
13.4600596491
21
16.6031863072
31
0.0000000000
11
13.4640787224
21
16.6687343117
31
0.0000000000
11
13.4640834076
21
16.6710805012
31
0.0000000000
0
SPLINE
5
379
100
AcDbEntity
8
0
100
AcDbSpline
62
9
6
CONTINUOUS
70
0
71
3
72
12
73
8
74
6
42
0.0000001000
43
0.0000001000
44
0.0000000001
12
-0.0000298046
22
-0.1646477665
32
0.0000000000
13
-0.1464637922
23
-0.0739885656
33
0.0000000000
40
0.0000000000
40
0.0000000000
40
0.0000000000
40
0.0000000000
40
0.1621521864
40
0.3384460206
40
0.5343264323
40
0.7544339856
40
1.0000000000
40
1.0000000000
40
1.0000000000
40
1.0000000000
10
12.9346059164
20
-19.2148109868
30
0.0000000000
10
12.9346043055
20
-19.2237103186
30
0.0000000000
10
12.9316413183
20
-19.2422879290
30
0.0000000000
10
12.9186649049
20
-19.2688782941
30
0.0000000000
10
12.8976670630
20
-19.2938784373
30
0.0000000000
10
12.8693998568
20
-19.3167393980
30
0.0000000000
10
12.8473036546
20
-19.3295960916
30
0.0000000000
10
12.8353148114
20
-19.3356524506
30
0.0000000000
11
12.9346059164
21
-19.2148109868
31
0.0000000000
11
12.9305585552
21
-19.2411134006
31
0.0000000000
11
12.9182080508
21
-19.2672727305
31
0.0000000000
11
12.8978548602
21
-19.2921498901
31
0.0000000000
11
12.8699964488
21
-19.3151368309
31
0.0000000000
11
12.8353148114
21
-19.3356524506
31
0.0000000000
0
SPLINE
5
37A
100
AcDbEntity
8
0
100
AcDbSpline
62
9
6
CONTINUOUS
70
0
71
3
72
13
73
9
74
7
42
0.0000001000
43
0.0000001000
44
0.0000000001
12
-0.1077402002
22
0.0538701001
32
0.0000000000
13
0.0000095318
23
0.1208660442
33
0.0000000000
40
0.0000000000
40
0.0000000000
40
0.0000000000
40
0.0000000000
40
0.2438288023
40
0.4628444760
40
0.6577479316
40
0.8330084621
40
0.9968725987
40
1.0000000000
40
1.0000000000
40
1.0000000000
40
1.0000000000
10
4.4285929556
20
-28.0467205746
30
0.0000000000
10
4.4198362342
20
-28.0423422139
30
0.0000000000
10
4.4036715621
20
-28.0330392204
30
0.0000000000
10
4.3829301098
20
-28.0164949722
30
0.0000000000
10
4.3674464871
20
-27.9983702219
30
0.0000000000
10
4.3577228186
20
-27.9789666158
30
0.0000000000
10
4.3553900255
20
-27.9651928576
30
0.0000000000
10
4.3553696812
20
-27.9584650118
30
0.0000000000
10
4.3553696912
20
-27.9583390129
30
0.0000000000
11
4.4285929556
21
-28.0467205746
31
0.0000000000
11
4.4032404943
21
-28.0318913938
31
0.0000000000
11
4.3827786334
21
-28.0152383754
31
0.0000000000
11
4.3677586254
21
-27.9971941639
31
0.0000000000
11
4.3585471564
21
-27.9781983805
31
0.0000000000
11
4.3553708353
21
-27.9587170061
31
0.0000000000
11
4.3553696912
21
-27.9583390129
31
0.0000000000
0
SPLINE
5
37B
100
AcDbEntity
8
0
100
AcDbSpline
62
9
6
CONTINUOUS
70
0
71
3
72
14
73
10
74
8
42
0.0000001000
43
0.0000001000
44
0.0000000001
12
0.0000000000
22
0.2525393502
32
0.0000000000
13
0.1611079767
23
0.1944745311
33
0.0000000000
40
0.0000000000
40
0.0000000000
40
0.0000000000
40
0.0000000000
40
0.1319506529
40
0.2705192506
40
0.4141315362
40
0.5609363994
40
0.7089193506
40
0.8560272290
40
1.0000000000
40
1.0000000000
40
1.0000000000
40
1.0000000000
10
5.7535776354
20
-28.3692389804
30
0.0000000000
10
5.7535776354
20
-28.3581314030
30
0.0000000000
10
5.7550028810
20
-28.3353433957
30
0.0000000000
10
5.7609491456
20
-28.3009337569
30
0.0000000000
10
5.7706291327
20
-28.2660835971
30
0.0000000000
10
5.7838286582
20
-28.2315644867
30
0.0000000000
10
5.8002576504
20
-28.1981319400
30
0.0000000000
10
5.8195408836
20
-28.1665428377
30
0.0000000000
10
5.8342342624
20
-28.1468778189
30
0.0000000000
10
5.8419659830
20
-28.1375448066
30
0.0000000000
11
5.7535776354
21
-28.3692389804
31
0.0000000000
11
5.7555530481
21
-28.3359748522
31
0.0000000000
11
5.7614351401
21
-28.3014787266
31
0.0000000000
11
5.7710928133
21
-28.2665204761
31
0.0000000000
11
5.7843100720
21
-28.2318825503
31
0.0000000000
11
5.8007904071
21
-28.1983410993
31
0.0000000000
11
5.8201662646
21
-28.1666434988
31
0.0000000000
11
5.8419659830
21
-28.1375448066
31
0.0000000000
0
SPLINE
5
37C
100
AcDbEntity
8
0
100
AcDbSpline
62
9
6
CONTINUOUS
70
0
71
3
72
17
73
13
74
11
42
0.0000001000
43
0.0000001000
44
0.0000000001
12
0.3245266433
22
-0.1622633217
32
0.0000000000
13
0.3252757340
23
0.1607564141
33
0.0000000000
40
0.0000000000
40
0.0000000000
40
0.0000000000
40
0.0000000000
40
0.0890628786
40
0.1850997776
40
0.2867012896
40
0.3921723352
40
0.4996398690
40
0.6071422920
40
0.7127180571
40
0.8144820594
40
0.9107406962
40
1.0000000000
40
1.0000000000
40
1.0000000000
40
1.0000000000
10
5.7535776354
20
-28.3692389804
30
0.0000000000
10
5.7632120611
20
-28.3740561932
30
0.0000000000
10
5.7838943523
20
-28.3827763462
30
0.0000000000
10
5.8171226003
20
-28.3928598040
30
0.0000000000
10
5.8530760140
20
-28.4002597440
30
0.0000000000
10
5.8908879870
20
-28.4047946952
30
0.0000000000
10
5.9296514727
20
-28.4063553351
30
0.0000000000
10
5.9684318094
20
-28.4049032599
30
0.0000000000
10
6.0062930242
20
-28.4004743748
30
0.0000000000
10
6.0423271963
20
-28.3931756670
30
0.0000000000
10
6.0756576060
20
-28.3831888503
30
0.0000000000
10
6.0964216332
20
-28.3745347061
30
0.0000000000
10
6.1060995950
20
-28.3697517042
30
0.0000000000
11
5.7535776354
21
-28.3692389804
31
0.0000000000
11
5.7832934858
21
-28.3819361261
31
0.0000000000
11
5.8166044528
21
-28.3921620936
31
0.0000000000
11
5.8526967029
21
-28.3996669751
31
0.0000000000
11
5.8906874585
21
-28.4042671422
31
0.0000000000
11
5.9296479533
21
-28.4058501338
31
0.0000000000
11
5.9686254349
21
-28.4043772721
31
0.0000000000
11
6.0066673108
21
-28.3998845870
31
0.0000000000
11
6.0428409768
21
-28.3924825664
31
0.0000000000
11
6.0762651309
21
-28.3823519115
31
0.0000000000
11
6.1060995950
21
-28.3697517042
31
0.0000000000
0
SPLINE
5
37D
100
AcDbEntity
8
0
100
AcDbSpline
62
9
6
CONTINUOUS
70
0
71
3
72
17
73
13
74
11
42
0.0000001000
43
0.0000001000
44
0.0000000001
12
0.3245266519
22
-0.1622633259
32
0.0000000000
13
0.3252757425
23
0.1607564183
33
0.0000000000
40
0.0000000000
40
0.0000000000
40
0.0000000000
40
0.0000000000
40
0.0890743650
40
0.1851250120
40
0.2867396756
40
0.3922235448
40
0.4997027408
40
0.6072145441
40
0.7127988709
40
0.8145684647
40
0.9108304184
40
1.0000000000
40
1.0000000000
40
1.0000000000
40
1.0000000000
10
5.7535776354
20
-28.7092129145
30
0.0000000000
10
5.7632133039
20
-28.7140307487
30
0.0000000000
10
5.7838984987
20
-28.7227519271
30
0.0000000000
10
5.8171314002
20
-28.7328360988
30
0.0000000000
10
5.8530897390
20
-28.7402360167
30
0.0000000000
10
5.8909064013
20
-28.7447702030
30
0.0000000000
10
5.9296740571
20
-28.7463293987
30
0.0000000000
10
5.9684579124
20
-28.7448752883
30
0.0000000000
10
6.0063217132
20
-28.7404438571
30
0.0000000000
10
6.0423574471
20
-28.7331421643
30
0.0000000000
10
6.0756776516
20
-28.7231552089
30
0.0000000000
10
6.0964313611
20
-28.7145038325
30
0.0000000000
10
6.1060995950
20
-28.7097256384
30
0.0000000000
11
5.7535776354
21
-28.7092129145
31
0.0000000000
11
5.7832974092
21
-28.7219114872
31
0.0000000000
11
5.8166133365
21
-28.7321382972
31
0.0000000000
11
5.8527104657
21
-28.7396431578
31
0.0000000000
11
5.8907060010
21
-28.7442425659
31
0.0000000000
11
5.9296707910
21
-28.7458240996
31
0.0000000000
11
5.9686516016
21
-28.7443491788
31
0.0000000000
11
6.0066962971
21
-28.7398538743
31
0.0000000000
11
6.0428714163
21
-28.7324488311
31
0.0000000000
11
6.0762958110
21
-28.7223148180
31
0.0000000000
11
6.1060995950
21
-28.7097256384
31
0.0000000000
0
SPLINE
5
37E
100
AcDbEntity
8
0
100
AcDbSpline
62
9
6
CONTINUOUS
70
0
71
3
72
13
73
9
74
7
42
0.0000001000
43
0.0000001000
44
0.0000000001
12
0.0000000000
22
-0.1576755195
32
0.0000000000
13
0.1413879418
23
-0.0707685051
33
0.0000000000
40
0.0000000000
40
0.0000000000
40
0.0000000000
40
0.0000000000
40
0.2076596021
40
0.4004572497
40
0.5785401848
40
0.7437113101
40
0.8996143597
40
1.0000000000
40
1.0000000000
40
1.0000000000
40
1.0000000000
10
5.7535776354
20
-28.7092129145
30
0.0000000000
10
5.7535776354
20
-28.7201271930
30
0.0000000000
10
5.7548709661
20
-28.7412102619
30
0.0000000000
10
5.7611449018
20
-28.7710867356
30
0.0000000000
10
5.7715879470
20
-28.7974272673
30
0.0000000000
10
5.7860358940
20
-28.8195701187
30
0.0000000000
10
5.8022427599
20
-28.8349946311
30
0.0000000000
10
5.8138152075
20
-28.8420575435
30
0.0000000000
10
5.8185463139
20
-28.8444255908
30
0.0000000000
11
5.7535776354
21
-28.7092129145
31
0.0000000000
11
5.7557389496
21
-28.7418843394
31
0.0000000000
11
5.7621701033
21
-28.7715957513
31
0.0000000000
11
5.7727138072
21
-28.7976203258
31
0.0000000000
11
5.7871121668
21
-28.8193216659
31
0.0000000000
11
5.8050130281
21
-28.8361691740
31
0.0000000000
11
5.8185463139
21
-28.8444255908
31
0.0000000000
0
SPLINE
5
37F
100
AcDbEntity
8
0
100
AcDbSpline
62
9
6
CONTINUOUS
70
0
71
3
72
13
73
9
74
7
42
0.0000001000
43
0.0000001000
44
0.0000000001
12
0.0000000000
22
-0.1576823212
32
0.0000000000
13
0.1413986342
23
-0.0707615977
33
0.0000000000
40
0.0000000000
40
0.0000000000
40
0.0000000000
40
0.0000000000
40
0.2076061952
40
0.4003564674
40
0.5783993510
40
0.7435357712
40
0.8994054561
40
1.0000000000
40
1.0000000000
40
1.0000000000
40
1.0000000000
10
4.4285929556
20
-28.0467205746
30
0.0000000000
10
4.4285929556
20
-28.0576325168
30
0.0000000000
10
4.4298857427
20
-28.0787111709
30
0.0000000000
10
4.4361569117
20
-28.1085819081
30
0.0000000000
10
4.4465953298
20
-28.1349185343
30
0.0000000000
10
4.4610369836
20
-28.1570598486
30
0.0000000000
10
4.4772460718
20
-28.1724940632
30
0.0000000000
10
4.4888263212
20
-28.1795635245
30
0.0000000000
10
4.4935676316
20
-28.1819362680
30
0.0000000000
11
4.4285929556
21
-28.0467205746
31
0.0000000000
11
4.4307533112
21
-28.0793850387
31
0.0000000000
11
4.4371815753
21
-28.1090907744
31
0.0000000000
11
4.4477206307
21
-28.1351117250
31
0.0000000000
11
4.4621128857
21
-28.1568118959
31
0.0000000000
11
4.4800065700
21
-28.1736608994
31
0.0000000000
11
4.4935676316
21
-28.1819362680
31
0.0000000000
0
SPLINE
5
380
100
AcDbEntity
8
0
100
AcDbSpline
62
9
6
CONTINUOUS
70
0
71
3
72
12
73
8
74
6
42
0.0000001000
43
0.0000001000
44
0.0000000001
12
-0.0000215680
22
-0.1197211386
32
0.0000000000
13
-0.1064693987
23
-0.0538577450
33
0.0000000000
40
0.0000000000
40
0.0000000000
40
0.0000000000
40
0.0000000000
40
0.1621342377
40
0.3384131525
40
0.5342805221
40
0.7543772349
40
1.0000000000
40
1.0000000000
40
1.0000000000
40
1.0000000000
10
8.3078453778
20
-27.2232758311
30
0.0000000000
10
8.3078442122
20
-27.2297461296
30
0.0000000000
10
8.3056897652
20
-27.2432532560
30
0.0000000000
10
8.2962541928
20
-27.2625859147
30
0.0000000000
10
8.2809864924
20
-27.2807630524
30
0.0000000000
10
8.2604288680
20
-27.2973832827
30
0.0000000000
10
8.2443646603
20
-27.3067389006
30
0.0000000000
10
8.2356475576
20
-27.3111484633
30
0.0000000000
11
8.3078453778
21
-27.2232758311
31
0.0000000000
11
8.3049025100
21
-27.2423990607
31
0.0000000000
11
8.2959221841
21
-27.2614184970
31
0.0000000000
11
8.2811228731
21
-27.2795056643
31
0.0000000000
11
8.2608662963
21
-27.2962184826
31
0.0000000000
11
8.2356475576
21
-27.3111484633
31
0.0000000000
0
SPLINE
5
381
100
AcDbEntity
8
0
100
AcDbSpline
62
9
6
CONTINUOUS
70
0
71
3
72
17
73
13
74
11
42
0.0000001000
43
0.0000001000
44
0.0000000001
12
0.1279716299
22
0.3378013546
32
0.0000000000
13
-0.3232575311
23
0.1612174365
33
0.0000000000
40
0.0000000000
40
0.0000000000
40
0.0000000000
40
0.0000000000
40
0.1079910110
40
0.2163717187
40
0.3240308943
40
0.4300053495
40
0.5334387342
40
0.6336780368
40
0.7303326621
40
0.8233384017
40
0.9129992442
40
1.0000000000
40
1.0000000000
40
1.0000000000
40
1.0000000000
10
8.2356475576
20
-27.3111484633
30
0.0000000000
10
8.2402541528
20
-27.2989886267
30
0.0000000000
10
8.2479687227
20
-27.2740218075
30
0.0000000000
10
8.2548640694
20
-27.2355253138
30
0.0000000000
10
8.2569755992
20
-27.1967081536
30
0.0000000000
10
8.2542436604
20
-27.1585236008
30
0.0000000000
10
8.2467271292
20
-27.1218897272
30
0.0000000000
10
8.2345942692
20
-27.0876919996
30
0.0000000000
10
8.2181203645
20
-27.0567609350
30
0.0000000000
10
8.1976753231
20
-27.0298560817
30
0.0000000000
10
8.1737449182
20
-27.0076644411
30
0.0000000000
10
8.1556083121
20
-26.9962570036
30
0.0000000000
10
8.1462337623
20
-26.9915816573
30
0.0000000000
11
8.2356475576
21
-27.3111484633
31
0.0000000000
11
8.2471800766
21
-27.2738826329
31
0.0000000000
11
8.2540789333
21
-27.2353449964
31
0.0000000000
11
8.2561634200
21
-27.1965112693
31
0.0000000000
11
8.2533820121
21
-27.1583313866
31
0.0000000000
11
8.2458026223
21
-27.1217450771
31
0.0000000000
11
8.2336111253
21
-27.0876498434
31
0.0000000000
11
8.2171067120
21
-27.0568825820
31
0.0000000000
11
8.1966943669
21
-27.0301982579
31
0.0000000000
11
8.1728753104
21
-27.0082519104
31
0.0000000000
11
8.1462337623
21
-26.9915816573
31
0.0000000000
0
SPLINE
5
382
100
AcDbEntity
8
0
100
AcDbSpline
62
7
6
CONTINUOUS
70
0
71
3
72
13
73
9
74
7
42
0.0000001000
43
0.0000001000
44
0.0000000001
12
-0.2206694136
22
0.1103347068
32
0.0000000000
13
-0.0000090274
23
0.2474874123
33
0.0000000000
40
0.0000000000
40
0.0000000000
40
0.0000000000
40
0.0000000000
40
0.2181056656
40
0.4173085111
40
0.5980290005
40
0.7641011752
40
0.9198313393
40
1.0000000000
40
1.0000000000
40
1.0000000000
40
1.0000000000
10
-3.2860671648
20
17.2146282377
30
0.0000000000
10
-3.3021102479
20
17.2226497793
30
0.0000000000
10
-3.3319739339
20
17.2397875099
30
0.0000000000
10
-3.3708695998
20
17.2702027263
30
0.0000000000
10
-3.4011406841
20
17.3037318682
30
0.0000000000
10
-3.4220184627
20
17.3398167188
30
0.0000000000
10
-3.4311563517
20
17.3719793565
30
0.0000000000
10
-3.4325053904
20
17.3914395323
30
0.0000000000
10
-3.4325056317
20
17.3980531105
30
0.0000000000
11
-3.2860671648
21
17.2146282377
31
0.0000000000
11
-3.3325831131
21
17.2416799911
31
0.0000000000
11
-3.3710692323
21
17.2722446454
31
0.0000000000
11
-3.4006441255
21
17.3056106803
31
0.0000000000
11
-3.4208357498
21
17.3412625540
31
0.0000000000
11
-3.4311249240
21
17.3782803127
31
0.0000000000
11
-3.4325056317
21
17.3980531105
31
0.0000000000
0
SPLINE
5
383
100
AcDbEntity
8
0
100
AcDbSpline
62
7
6
CONTINUOUS
70
0
71
3
72
17
73
13
74
11
42
0.0000001000
43
0.0000001000
44
0.0000000001
12
-0.4345868483
22
-0.0321613807
32
0.0000000000
13
-0.4202201649
23
-0.1153910576
33
0.0000000000
40
0.0000000000
40
0.0000000000
40
0.0000000000
40
0.0000000000
40
0.1190594671
40
0.2358227810
40
0.3491116527
40
0.4582120724
40
0.5626289027
40
0.6619448783
40
0.7557608845
40
0.8436671436
40
0.9252339727
40
1.0000000000
40
1.0000000000
40
1.0000000000
40
1.0000000000
10
2.6480623147
20
15.6419475632
30
0.0000000000
10
2.6308150885
20
15.6406711909
30
0.0000000000
10
2.5967623477
20
15.6366070642
30
0.0000000000
10
2.5468393310
20
15.6276109130
30
0.0000000000
10
2.4987439705
20
15.6168928568
30
0.0000000000
10
2.4527201890
20
15.6052424240
30
0.0000000000
10
2.4088966032
20
15.5932165888
30
0.0000000000
10
2.3673687523
20
15.5812335871
30
0.0000000000
10
2.3282300258
20
15.5696275402
30
0.0000000000
10
2.2915850447
20
15.5586811919
30
0.0000000000
10
2.2575559877
20
15.5486460897
30
0.0000000000
10
2.2357126657
20
15.5424337757
30
0.0000000000
10
2.2252399349
20
15.5395579987
30
0.0000000000
11
2.6480623147
21
15.6419475632
31
0.0000000000
11
2.5965149108
21
15.6360544667
31
0.0000000000
11
2.5464129946
21
15.6271756525
31
0.0000000000
11
2.4982066409
21
15.6165269389
31
0.0000000000
11
2.4521020186
21
15.6049197947
31
0.0000000000
11
2.4082098501
21
15.5929225320
31
0.0000000000
11
2.3666165514
21
15.5809597592
31
0.0000000000
11
2.3274110375
21
15.5693700033
31
0.0000000000
11
2.2906960891
21
15.5584398879
31
0.0000000000
11
2.2565915857
21
15.5484240938
31
0.0000000000
11
2.2252399349
21
15.5395579987
31
0.0000000000
0
SPLINE
5
384
100
AcDbEntity
8
0
100
AcDbSpline
62
7
6
CONTINUOUS
70
0
71
3
72
18
73
14
74
12
42
0.0000001000
43
0.0000001000
44
0.0000000001
12
-0.6362934147
22
-0.3550712700
32
0.0000000000
13
-0.6517330228
23
0.3258665114
33
0.0000000000
40
0.0000000000
40
0.0000000000
40
0.0000000000
40
0.0000000000
40
0.0824711995
40
0.1703927471
40
0.2624911810
40
0.3579786781
40
0.4549885733
40
0.5527374323
40
0.6491673466
40
0.7435257574
40
0.8339975930
40
0.9198803357
40
1.0000000000
40
1.0000000000
40
1.0000000000
40
1.0000000000
10
2.9302838542
20
14.4805104512
30
0.0000000000
10
2.9127918938
20
14.4707494000
30
0.0000000000
10
2.8754473657
20
14.4526965758
30
0.0000000000
10
2.8155196776
20
14.4306925039
30
0.0000000000
10
2.7508410782
20
14.4132165728
30
0.0000000000
10
2.6827969069
20
14.4006446631
30
0.0000000000
10
2.6126261515
20
14.3932010116
30
0.0000000000
10
2.5418661286
20
14.3910469082
30
0.0000000000
10
2.4717874476
20
14.3942176052
30
0.0000000000
10
2.4039201441
20
14.4026387087
30
0.0000000000
10
2.3394858159
20
14.4161580065
30
0.0000000000
10
2.2798543897
20
14.4344819164
30
0.0000000000
10
2.2426454786
20
14.4502719161
30
0.0000000000
10
2.2252399349
20
14.4589746879
30
0.0000000000
11
2.9302838542
21
14.4805104512
31
0.0000000000
11
2.8762772154
21
14.4541570045
31
0.0000000000
11
2.8161959618
21
14.4319184663
31
0.0000000000
11
2.7514409611
21
14.4143023038
31
0.0000000000
11
2.6830343219
21
14.4015895442
31
0.0000000000
11
2.6127448291
21
14.3941017407
31
0.0000000000
11
2.5415519331
21
14.3919418842
31
0.0000000000
11
2.4713612626
21
14.3951640478
31
0.0000000000
11
2.4031403319
21
14.4037184516
31
0.0000000000
11
2.3386493892
21
14.4173853347
31
0.0000000000
11
2.2788857996
21
14.4359455347
31
0.0000000000
11
2.2252399349
21
14.4589746879
31
0.0000000000
0
SPLINE
5
385
100
AcDbEntity
8
0
100
AcDbSpline
62
7
6
CONTINUOUS
70
0
71
3
72
15
73
11
74
9
42
0.0000001000
43
0.0000001000
44
0.0000000001
12
0.2920381734
22
0.0216121378
32
0.0000000000
13
0.2617849119
23
0.1312327670
33
0.0000000000
40
0.0000000000
40
0.0000000000
40
0.0000000000
40
0.0000000000
40
0.1351030000
40
0.2684611539
40
0.3994593402
40
0.5275107863
40
0.6520655064
40
0.7726194425
40
0.8887245171
40
1.0000000000
40
1.0000000000
40
1.0000000000
40
1.0000000000
10
2.6480623147
20
15.6419475632
30
0.0000000000
10
2.6612140591
20
15.6429208514
30
0.0000000000
10
2.6873117321
20
15.6453861993
30
0.0000000000
10
2.7259555286
20
15.6506689419
30
0.0000000000
10
2.7636606576
20
15.6574846274
30
0.0000000000
10
2.8001859483
20
15.6657896567
30
0.0000000000
10
2.8352988774
20
15.6755309943
30
0.0000000000
10
2.8687765611
20
15.6866468811
30
0.0000000000
10
2.9004047353
20
15.6990659951
30
0.0000000000
10
2.9205737734
20
15.7083697603
30
0.0000000000
10
2.9302838542
20
15.7132374235
30
0.0000000000
11
2.6480623147
21
15.6419475632
31
0.0000000000
11
2.6874492708
21
15.6456770047
31
0.0000000000
11
2.7261398584
21
15.6509789469
31
0.0000000000
11
2.7638861311
21
15.6578194071
31
0.0000000000
11
2.8004461979
21
15.6661545434
31
0.0000000000
11
2.8355857713
21
15.6759309366
31
0.0000000000
11
2.8690796732
21
15.6870859339
31
0.0000000000
11
2.9007132713
21
15.6995480496
31
0.0000000000
11
2.9302838542
21
15.7132374235
31
0.0000000000
0
SPLINE
5
386
100
AcDbEntity
8
0
100
AcDbSpline
62
9
6
CONTINUOUS
70
0
71
3
72
17
73
13
74
11
42
0.0000001000
43
0.0000001000
44
0.0000000001
12
-0.1868918885
22
0.3018127970
32
0.0000000000
13
-0.3165617962
23
0.1606492193
33
0.0000000000
40
0.0000000000
40
0.0000000000
40
0.0000000000
40
0.0000000000
40
0.0801625557
40
0.1705174121
40
0.2692324543
40
0.3741793727
40
0.4830270029
40
0.5933228732
40
0.7025703915
40
0.8083048570
40
0.9081703016
40
1.0000000000
40
1.0000000000
40
1.0000000000
40
1.0000000000
10
6.1060995950
20
-28.3697517042
30
0.0000000000
10
6.1011056846
20
-28.3616870092
30
0.0000000000
10
6.0896265103
20
-28.3450595316
30
0.0000000000
10
6.0697139933
20
-28.3201675061
30
0.0000000000
10
6.0464354155
20
-28.2942879731
30
0.0000000000
10
6.0203515558
20
-28.2680559062
30
0.0000000000
10
5.9920922496
20
-28.2421119646
30
0.0000000000
10
5.9623453149
20
-28.2170907711
30
0.0000000000
10
5.9318366119
20
-28.1936031036
30
0.0000000000
10
5.9013108930
20
-28.1722197473
30
0.0000000000
10
5.8715157825
20
-28.1534593344
30
0.0000000000
10
5.8516559078
20
-28.1424622630
30
0.0000000000
10
5.8419659830
20
-28.1375448066
30
0.0000000000
11
6.1060995950
21
-28.3697517042
31
0.0000000000
11
6.0900623961
21
-28.3462439548
31
0.0000000000
11
6.0701071762
21
-28.3211319507
31
0.0000000000
11
6.0467234845
21
-28.2950317495
31
0.0000000000
11
6.0204849790
21
-28.2685836515
31
0.0000000000
11
5.9920353531
21
-28.2424364920
31
0.0000000000
11
5.9620725441
21
-28.2172317232
31
0.0000000000
11
5.9313316114
21
-28.1935876786
31
0.0000000000
11
5.9005667037
21
-28.1720844030
31
0.0000000000
11
5.8705325577
21
-28.1532494233
31
0.0000000000
11
5.8419659830
21
-28.1375448066
31
0.0000000000
0
SPLINE
5
387
100
AcDbEntity
8
0
100
AcDbSpline
62
7
6
CONTINUOUS
70
0
71
3
72
18
73
14
74
12
42
0.0000001000
43
0.0000001000
44
0.0000000001
12
-0.3676287117
22
0.0767677769
32
0.0000000000
13
-0.3359097036
23
0.1679548518
33
0.0000000000
40
0.0000000000
40
0.0000000000
40
0.0000000000
40
0.0000000000
40
0.0673230704
40
0.1433568521
40
0.2271917001
40
0.3177060342
40
0.4135703182
40
0.5132425120
40
0.6149605633
40
0.7167344977
40
0.8163457076
40
0.9113713369
40
1.0000000000
40
1.0000000000
40
1.0000000000
40
1.0000000000
10
6.8173202031
20
-27.5182552271
30
0.0000000000
10
6.8090702386
20
-27.5165324796
30
0.0000000000
10
6.7915726534
20
-27.5125275759
30
0.0000000000
10
6.7640373965
20
-27.5053949239
30
0.0000000000
10
6.7338898185
20
-27.4968058146
30
0.0000000000
10
6.7015595986
20
-27.4868470778
30
0.0000000000
10
6.6675475845
20
-27.4756369885
30
0.0000000000
10
6.6324278179
20
-27.4633281711
30
0.0000000000
10
6.5968502832
20
-27.4501085891
30
0.0000000000
10
6.5615402583
20
-27.4362097752
30
0.0000000000
10
6.5273049791
20
-27.4218907782
30
0.0000000000
10
6.4949050384
20
-27.4074668386
30
0.0000000000
10
6.4742077578
20
-27.3974472604
30
0.0000000000
10
6.4642840151
20
-27.3924853891
30
0.0000000000
11
6.8173202031
21
-27.5182552271
31
0.0000000000
11
6.7926629699
21
-27.5126615867
31
0.0000000000
11
6.7650115300
21
-27.5055346417
31
0.0000000000
11
6.7347246605
21
-27.4969321048
31
0.0000000000
11
6.7022324508
21
-27.4869416489
31
0.0000000000
11
6.6680358311
21
-27.4756819183
31
0.0000000000
11
6.6327086537
21
-27.4633045084
31
0.0000000000
11
6.5969005151
21
-27.4499966398
31
0.0000000000
11
6.5613395196
21
-27.4359844425
31
0.0000000000
11
6.5268324093
21
-27.4215360877
31
0.0000000000
11
6.4942561096
21
-27.4069623042
31
0.0000000000
11
6.4642840151
21
-27.3924853891
31
0.0000000000
0
SPLINE
5
388
100
AcDbEntity
8
0
100
AcDbSpline
62
9
6
CONTINUOUS
70
0
71
3
72
12
73
8
74
6
42
0.0000001000
43
0.0000001000
44
0.0000000001
12
-0.0000528223
22
-0.1646364860
32
0.0000000000
13
-0.1464131641
23
-0.0740633736
33
0.0000000000
40
0.0000000000
40
0.0000000000
40
0.0000000000
40
0.0000000000
40
0.1620745524
40
0.3383660244
40
0.5342473466
40
0.7543597380
40
1.0000000000
40
1.0000000000
40
1.0000000000
40
1.0000000000
10
12.9346059136
20
15.5443602310
30
0.0000000000
10
12.9346030599
20
15.5354657694
30
0.0000000000
10
12.9316396524
20
15.5168941677
30
0.0000000000
10
12.9186649695
20
15.4903101932
30
0.0000000000
10
12.8976678432
20
15.4653118189
30
0.0000000000
10
12.8693956699
20
15.4424546049
30
0.0000000000
10
12.8473031340
20
15.4295881549
30
0.0000000000
10
12.8353148114
20
15.4235238394
30
0.0000000000
11
12.9346059136
21
15.5443602310
31
0.0000000000
11
12.9305586950
21
15.5180724583
31
0.0000000000
11
12.9182083708
21
15.4919157011
31
0.0000000000
11
12.8978554024
21
15.4670410604
31
0.0000000000
11
12.8699972497
21
15.4440565132
31
0.0000000000
11
12.8353148114
21
15.4235238394
31
0.0000000000
0
SPLINE
5
389
100
AcDbEntity
8
0
100
AcDbSpline
62
9
6
CONTINUOUS
70
0
71
3
72
13
73
9
74
7
42
0.0000001000
43
0.0000001000
44
0.0000000001
12
0.1395220714
22
0.0716304567
32
0.0000000000
13
-0.0007403311
23
0.1563941952
33
0.0000000000
40
0.0000000000
40
0.0000000000
40
0.0000000000
40
0.0000000000
40
0.0921946367
40
0.2497146983
40
0.4163695893
40
0.5959673754
40
0.7904363276
40
1.0000000000
40
1.0000000000
40
1.0000000000
40
1.0000000000
10
8.1719634167
20
-27.7932377271
30
0.0000000000
10
8.1762511456
20
-27.7910364124
30
0.0000000000
10
8.1874109200
20
-27.7841868075
30
0.0000000000
10
8.2033554286
20
-27.7691337379
30
0.0000000000
10
8.2178590031
20
-27.7469883927
30
0.0000000000
10
8.2282924898
20
-27.7206239422
30
0.0000000000
10
8.2344929273
20
-27.6907102483
30
0.0000000000
10
8.2356992731
20
-27.6696048273
30
0.0000000000
10
8.2356475576
20
-27.6586799801
30
0.0000000000
11
8.1719634167
21
-27.7932377271
31
0.0000000000
11
8.1842738126
21
-27.7856817358
31
0.0000000000
11
8.2022781598
21
-27.7688665253
31
0.0000000000
11
8.2167248047
21
-27.7471724168
31
0.0000000000
11
8.2272578030
21
-27.7211337485
31
0.0000000000
11
8.2336176181
21
-27.6913919658
31
0.0000000000
11
8.2356475576
21
-27.6586799801
31
0.0000000000
0
SPLINE
5
38A
100
AcDbEntity
8
0
100
AcDbSpline
62
7
6
CONTINUOUS
70
0
71
3
72
13
73
9
74
7
42
0.0000001000
43
0.0000001000
44
0.0000000001
12
-0.1103075893
22
0.0551537946
32
0.0000000000
13
0.0000555049
23
0.1236898856
33
0.0000000000
40
0.0000000000
40
0.0000000000
40
0.0000000000
40
0.0000000000
40
0.2283605529
40
0.4360928621
40
0.6234281536
40
0.7955910661
40
0.9576329960
40
1.0000000000
40
1.0000000000
40
1.0000000000
40
1.0000000000
10
-8.2327322546
20
19.3117141579
30
0.0000000000
10
-8.2411288886
20
19.3159124749
30
0.0000000000
10
-8.2567109974
20
19.3249087009
30
0.0000000000
10
-8.2768165868
20
19.3409865135
30
0.0000000000
10
-8.2921490225
20
19.3587694161
30
0.0000000000
10
-8.3022524392
20
19.3779282273
30
0.0000000000
10
-8.3056466162
20
19.3932415262
30
0.0000000000
10
-8.3059539595
20
19.4016679433
30
0.0000000000
10
-8.3059531756
20
19.4034147333
30
0.0000000000
11
-8.2327322546
21
19.3117141579
31
0.0000000000
11
-8.2570317918
21
19.3259513083
31
0.0000000000
11
-8.2769042499
21
19.3421199645
31
0.0000000000
11
-8.2918115497
21
19.3597707319
31
0.0000000000
11
-8.3015297910
21
19.3786485627
31
0.0000000000
11
-8.3057606107
21
19.3981798280
31
0.0000000000
11
-8.3059531756
21
19.4034147333
31
0.0000000000
0
SPLINE
5
38B
100
AcDbEntity
8
0
100
AcDbSpline
62
9
6
CONTINUOUS
70
0
71
3
72
13
73
9
74
7
42
0.0000001000
43
0.0000001000
44
0.0000000001
12
-0.1077462308
22
0.0538731154
32
0.0000000000
13
0.0000217754
23
0.1208726378
33
0.0000000000
40
0.0000000000
40
0.0000000000
40
0.0000000000
40
0.0000000000
40
0.2442126372
40
0.4631472823
40
0.6579815541
40
0.8331752334
40
0.9969917700
40
1.0000000000
40
1.0000000000
40
1.0000000000
40
1.0000000000
10
-8.9357252089
20
20.6149905153
30
0.0000000000
10
-8.9444962059
20
20.6193760138
30
0.0000000000
10
-8.9606717732
20
20.6286872485
30
0.0000000000
10
-8.9814171177
20
20.6452441625
30
0.0000000000
10
-8.9968899451
20
20.6633684771
30
0.0000000000
10
-9.0066035067
20
20.6827702019
30
0.0000000000
10
-9.0089296459
20
20.6965361613
30
0.0000000000
10
-9.0089484986
20
20.7032576587
30
0.0000000000
10
-9.0089484767
20
20.7033788629
30
0.0000000000
11
-8.9357252089
21
20.6149905153
31
0.0000000000
11
-8.9611172380
21
20.6298468854
31
0.0000000000
11
-8.9815679334
21
20.6465004972
31
0.0000000000
11
-8.9965774465
21
20.6645443092
31
0.0000000000
11
-9.0057789203
21
20.6835373011
31
0.0000000000
11
-9.0089474559
21
20.7030152532
31
0.0000000000
11
-9.0089484767
21
20.7033788629
31
0.0000000000
0
SPLINE
5
38C
100
AcDbEntity
8
0
100
AcDbSpline
62
9
6
CONTINUOUS
70
0
71
3
72
13
73
9
74
7
42
0.0000001000
43
0.0000001000
44
0.0000000001
12
-0.1077462308
22
0.0538731154
32
0.0000000000
13
0.0000217754
23
0.1208726378
33
0.0000000000
40
0.0000000000
40
0.0000000000
40
0.0000000000
40
0.0000000000
40
0.2442126372
40
0.4631472823
40
0.6579815541
40
0.8331752334
40
0.9969917700
40
1.0000000000
40
1.0000000000
40
1.0000000000
40
1.0000000000
10
-8.9357252089
20
20.2750165811
30
0.0000000000
10
-8.9444962059
20
20.2794020797
30
0.0000000000
10
-8.9606717732
20
20.2887133143
30
0.0000000000
10
-8.9814171177
20
20.3052702283
30
0.0000000000
10
-8.9968899451
20
20.3233945430
30
0.0000000000
10
-9.0066035067
20
20.3427962678
30
0.0000000000
10
-9.0089296459
20
20.3565622272
30
0.0000000000
10
-9.0089484986
20
20.3632837245
30
0.0000000000
10
-9.0089484767
20
20.3634049288
30
0.0000000000
11
-8.9357252089
21
20.2750165811
31
0.0000000000
11
-8.9611172380
21
20.2898729513
31
0.0000000000
11
-8.9815679334
21
20.3065265631
31
0.0000000000
11
-8.9965774465
21
20.3245703751
31
0.0000000000
11
-9.0057789203
21
20.3435633670
31
0.0000000000
11
-9.0089474559
21
20.3630413190
31
0.0000000000
11
-9.0089484767
21
20.3634049288
31
0.0000000000
0
SPLINE
5
38D
100
AcDbEntity
8
0
100
AcDbSpline
62
9
6
CONTINUOUS
70
0
71
3
72
12
73
8
74
6
42
0.0000001000
43
0.0000001000
44
0.0000000001
12
0.0395024197
22
-0.0643081376
32
0.0000000000
13
-0.0469788758
23
-0.0602049749
33
0.0000000000
40
0.0000000000
40
0.0000000000
40
0.0000000000
40
0.0000000000
40
0.3205075999
40
0.5831201572
40
0.7896641767
40
0.9520704920
40
1.0000000000
40
1.0000000000
40
1.0000000000
40
1.0000000000
10
-5.1286706068
20
20.6706147583
30
0.0000000000
10
-5.1244503316
20
20.6637443427
30
0.0000000000
10
-5.1173031354
20
20.6508957047
30
0.0000000000
10
-5.1100321577
20
20.6323108969
30
0.0000000000
10
-5.1073097339
20
20.6165124246
30
0.0000000000
10
-5.1092462313
20
20.6057840116
30
0.0000000000
10
-5.1121714457
20
20.6012943749
30
0.0000000000
10
-5.1129220039
20
20.6003325099
30
0.0000000000
11
-5.1286706068
21
20.6706147583
31
0.0000000000
11
-5.1171306757
21
20.6493556427
31
0.0000000000
11
-5.1102357587
21
20.6307737901
31
0.0000000000
11
-5.1081550046
21
20.6153250577
31
0.0000000000
11
-5.1109394594
21
20.6033884399
31
0.0000000000
11
-5.1129220039
21
20.6003325099
31
0.0000000000
0
SPLINE
5
38E
100
AcDbEntity
8
0
100
AcDbSpline
62
9
6
CONTINUOUS
70
0
71
3
72
8
73
4
74
2
42
0.0000001000
43
0.0000001000
44
0.0000000001
12
-0.0004140280
22
-0.0005305905
32
0.0000000000
13
-0.0004307451
23
-0.0005179293
33
0.0000000000
40
0.0000000000
40
0.0000000000
40
0.0000000000
40
0.0000000000
40
1.0000000000
40
1.0000000000
40
1.0000000000
40
1.0000000000
10
-5.1129220039
20
20.6003325099
30
0.0000000000
10
-5.1130600132
20
20.6001556465
30
0.0000000000
10
-5.1132008621
20
20.5999808520
30
0.0000000000
10
-5.1133444438
20
20.5998082089
30
0.0000000000
11
-5.1129220039
21
20.6003325099
31
0.0000000000
11
-5.1133444438
21
20.5998082089
31
0.0000000000
0
SPLINE
5
38F
100
AcDbEntity
8
0
100
AcDbSpline
62
7
6
CONTINUOUS
70
0
71
3
72
18
73
14
74
12
42
0.0000001000
43
0.0000001000
44
0.0000000001
12
0.0000000000
22
0.3680541714
32
0.0000000000
13
-0.3291976587
23
0.1645988293
33
0.0000000000
40
0.0000000000
40
0.0000000000
40
0.0000000000
40
0.0000000000
40
0.0862976154
40
0.1767716919
40
0.2704937047
40
0.3663768358
40
0.4632356557
40
0.5598417779
40
0.6549778366
40
0.7474918948
40
0.8363544548
40
0.9207205835
40
1.0000000000
40
1.0000000000
40
1.0000000000
40
1.0000000000
10
-5.6569377786
20
20.7547074550
30
0.0000000000
10
-5.6569377786
20
20.7652948541
30
0.0000000000
10
-5.6582319755
20
20.7869960144
30
0.0000000000
10
-5.6636513886
20
20.8197877765
30
0.0000000000
10
-5.6724889736
20
20.8530456293
30
0.0000000000
10
-5.6845666551
20
20.8860989114
30
0.0000000000
10
-5.6996419204
20
20.9182871804
30
0.0000000000
10
-5.7174121657
20
20.9489641270
30
0.0000000000
10
-5.7375213465
20
20.9775145112
30
0.0000000000
10
-5.7595668664
20
21.0033658460
30
0.0000000000
10
-5.7831127122
20
21.0260020932
30
0.0000000000
10
-5.8076871911
20
21.0449668774
30
0.0000000000
10
-5.8250119495
20
21.0552472274
30
0.0000000000
10
-5.8337114822
20
21.0595969938
30
0.0000000000
11
-5.6569377786
21
20.7547074550
31
0.0000000000
11
-5.6587370300
21
20.7864186498
31
0.0000000000
11
-5.6640981952
21
20.8192836063
31
0.0000000000
11
-5.6729121889
21
20.8526333171
31
0.0000000000
11
-5.6849996236
21
20.8857888773
31
0.0000000000
11
-5.7001144548
21
20.9180753133
31
0.0000000000
11
-5.7179489888
21
20.9488353343
31
0.0000000000
11
-5.7381401494
21
20.9774427266
31
0.0000000000
11
-5.7602768764
21
21.0033151137
31
0.0000000000
11
-5.7839085033
21
21.0259258208
31
0.0000000000
11
-5.8085539415
21
21.0448145994
31
0.0000000000
11
-5.8337114822
21
21.0595969938
31
0.0000000000
0
SPLINE
5
390
100
AcDbEntity
8
0
100
AcDbSpline
62
9
6
CONTINUOUS
70
0
71
3
72
17
73
13
74
11
42
0.0000001000
43
0.0000001000
44
0.0000000001
12
-0.0017609283
22
0.3677011443
32
0.0000000000
13
-0.3281085688
23
0.1659879499
33
0.0000000000
40
0.0000000000
40
0.0000000000
40
0.0000000000
40
0.0000000000
40
0.0949037743
40
0.1950106697
40
0.2988560415
40
0.4049423265
40
0.5116330326
40
0.6172719431
40
0.7202542280
40
0.8191214814
40
0.9126578051
40
1.0000000000
40
1.0000000000
40
1.0000000000
40
1.0000000000
10
-7.2582185694
20
19.9519854515
30
0.0000000000
10
-7.2582742756
20
19.9636175270
30
0.0000000000
10
-7.2599489199
20
19.9875292708
30
0.0000000000
10
-7.2666042245
20
20.0236162410
30
0.0000000000
10
-7.2773214710
20
20.0601418504
30
0.0000000000
10
-7.2918369422
20
20.0961964414
30
0.0000000000
10
-7.3097994538
20
20.1309106164
30
0.0000000000
10
-7.3307741713
20
20.1634425833
30
0.0000000000
10
-7.3542539797
20
20.1930053249
30
0.0000000000
10
-7.3796781567
20
20.2188866814
30
0.0000000000
10
-7.4064321639
20
20.2404579788
30
0.0000000000
10
-7.4254396989
20
20.2520424064
30
0.0000000000
10
-7.4349922731
20
20.2568749903
30
0.0000000000
11
-7.2582185694
21
19.9519854515
31
0.0000000000
11
-7.2605361441
21
19.9868050350
31
0.0000000000
11
-7.2671252552
21
20.0230203369
31
0.0000000000
11
-7.2778233045
21
20.0596755926
31
0.0000000000
11
-7.2923681665
21
20.0958710305
31
0.0000000000
11
-7.3104006968
21
20.1307117993
31
0.0000000000
11
-7.3314772229
21
20.1633405581
31
0.0000000000
11
-7.3550784331
21
20.1929531067
31
0.0000000000
11
-7.3806229691
21
20.2188199075
31
0.0000000000
11
-7.4074815323
21
20.2403036592
31
0.0000000000
11
-7.4349922731
21
20.2568749903
31
0.0000000000
0
SPLINE
5
391
100
AcDbEntity
8
0
100
AcDbSpline
62
9
6
CONTINUOUS
70
0
71
3
72
17
73
13
74
11
42
0.0000001000
43
0.0000001000
44
0.0000000001
12
0.0017352843
22
0.3683326427
32
0.0000000000
13
-0.3302054118
23
0.1632064119
33
0.0000000000
40
0.0000000000
40
0.0000000000
40
0.0000000000
40
0.0000000000
40
0.0952855389
40
0.1954450498
40
0.2992254493
40
0.4051614696
40
0.5116692082
40
0.6171330614
40
0.7199975207
40
0.8188410132
40
0.9125015613
40
1.0000000000
40
1.0000000000
40
1.0000000000
40
1.0000000000
10
-5.1286706068
20
21.0181462750
30
0.0000000000
10
-5.1286154910
20
21.0298451998
30
0.0000000000
10
-5.1300891988
20
21.0538671647
30
0.0000000000
10
-5.1365199941
20
21.0901073308
30
0.0000000000
10
-5.1470739401
20
21.1267303297
30
0.0000000000
10
-5.1614944284
20
21.1628448492
30
0.0000000000
10
-5.1794319054
20
21.1975800270
30
0.0000000000
10
-5.2004525967
20
21.2300948583
30
0.0000000000
10
-5.2240478488
20
21.2596021151
30
0.0000000000
10
-5.2496546917
20
21.2853914280
30
0.0000000000
10
-5.2766391358
20
21.3068241080
30
0.0000000000
10
-5.2958134912
20
21.3182757118
30
0.0000000000
10
-5.3054443105
20
21.3230358138
30
0.0000000000
11
-5.1286706068
21
21.0181462750
31
0.0000000000
11
-5.1307005463
21
21.0531846862
31
0.0000000000
11
-5.1370603614
21
21.0895248004
31
0.0000000000
11
-5.1475933597
21
21.1262711362
31
0.0000000000
11
-5.1620400047
21
21.1625184090
31
0.0000000000
11
-5.1800443519
21
21.1973737136
31
0.0000000000
11
-5.2011625806
21
21.2299781384
31
0.0000000000
11
-5.2248750003
21
21.2595294358
31
0.0000000000
11
-5.2505951859
21
21.2852974754
31
0.0000000000
11
-5.2776915852
21
21.3066502253
31
0.0000000000
11
-5.3054443105
21
21.3230358138
31
0.0000000000
0
SPLINE
5
392
100
AcDbEntity
8
0
100
AcDbSpline
62
9
6
CONTINUOUS
70
0
71
3
72
12
73
8
74
6
42
0.0000001000
43
0.0000001000
44
0.0000000001
12
-0.1023063762
22
0.0517475861
32
0.0000000000
13
-0.1033358100
23
-0.0503876481
33
0.0000000000
40
0.0000000000
40
0.0000000000
40
0.0000000000
40
0.0000000000
40
0.2587066551
40
0.4980489301
40
0.7208658535
40
0.9330787874
40
1.0000000000
40
1.0000000000
40
1.0000000000
40
1.0000000000
10
-6.6427704710
20
21.9916988941
30
0.0000000000
10
-6.6515929178
20
21.9961613758
30
0.0000000000
10
-6.6692572726
20
22.0035189207
30
0.0000000000
10
-6.6963433040
20
22.0094103310
30
0.0000000000
10
-6.7223395585
20
22.0094648115
30
0.0000000000
10
-6.7411705732
20
22.0048496671
30
0.0000000000
10
-6.7509761600
20
22.0005550152
30
0.0000000000
10
-6.7532812792
20
21.9994310144
30
0.0000000000
11
-6.6427704710
21
21.9916988941
31
0.0000000000
11
-6.6702272416
21
22.0029180535
31
0.0000000000
11
-6.6970850251
21
22.0085423950
31
0.0000000000
11
-6.7226304182
21
22.0084071448
31
0.0000000000
11
-6.7462361673
21
22.0025149317
31
0.0000000000
11
-6.7532812792
21
21.9994310144
31
0.0000000000
0
SPLINE
5
393
100
AcDbEntity
8
0
100
AcDbSpline
62
7
6
CONTINUOUS
70
0
71
3
72
12
73
8
74
6
42
0.0000001000
43
0.0000001000
44
0.0000000001
12
-0.1029117008
22
0.0514558504
32
0.0000000000
13
-0.1036858895
23
-0.0504661476
33
0.0000000000
40
0.0000000000
40
0.0000000000
40
0.0000000000
40
0.0000000000
40
0.2365135992
40
0.4564779312
40
0.6620569350
40
0.8571721465
40
1.0000000000
40
1.0000000000
40
1.0000000000
40
1.0000000000
10
-7.1772203497
20
21.7313514276
30
0.0000000000
10
-7.1853336886
20
21.7354080970
30
0.0000000000
10
-7.2015517483
20
21.7422008590
30
0.0000000000
10
-7.2263604885
20
21.7481599506
30
0.0000000000
10
-7.2502936761
20
21.7493456013
30
0.0000000000
10
-7.2710348701
20
21.7459447831
30
0.0000000000
10
-7.2832155158
20
21.7412829858
30
0.0000000000
10
-7.2881519268
20
21.7388803286
30
0.0000000000
11
-7.1772203497
21
21.7313514276
31
0.0000000000
11
-7.2023778905
21
21.7417265739
31
0.0000000000
11
-7.2270233286
21
21.7474832335
31
0.0000000000
11
-7.2506549556
21
21.7485041533
31
0.0000000000
11
-7.2727916826
21
21.7447684932
31
0.0000000000
11
-7.2881519268
21
21.7388803286
31
0.0000000000
0
SPLINE
5
394
100
AcDbEntity
8
0
100
AcDbSpline
62
9
6
CONTINUOUS
70
0
71
3
72
12
73
8
74
6
42
0.0000001000
43
0.0000001000
44
0.0000000001
12
-0.1051788256
22
0.0519767254
32
0.0000000000
13
-0.1046705139
23
-0.0537184034
33
0.0000000000
40
0.0000000000
40
0.0000000000
40
0.0000000000
40
0.0000000000
40
0.2551656286
40
0.4908310022
40
0.7100613736
40
0.9184212323
40
1.0000000000
40
1.0000000000
40
1.0000000000
40
1.0000000000
10
-8.7599769529
20
20.9193673302
30
0.0000000000
10
-8.7689229599
20
20.9237882215
30
0.0000000000
10
-8.7867982919
20
20.9310537309
30
0.0000000000
10
-8.8141335358
20
20.9368142885
30
0.0000000000
10
-8.8402917723
20
20.9367703763
30
0.0000000000
10
-8.8598292332
20
20.9319552048
30
0.0000000000
10
-8.8702075204
20
20.9272765352
30
0.0000000000
10
-8.8730538175
20
20.9258157748
30
0.0000000000
11
-8.7599769529
21
20.9193673302
31
0.0000000000
11
-8.7877841796
21
20.9304549828
31
0.0000000000
11
-8.8148812593
21
20.9359490526
31
0.0000000000
11
-8.8406004644
21
20.9357141224
31
0.0000000000
11
-8.8643081940
21
20.9297560436
31
0.0000000000
11
-8.8730538175
21
20.9258157748
31
0.0000000000
0
SPLINE
5
395
100
AcDbEntity
8
0
100
AcDbSpline
62
9
6
CONTINUOUS
70
0
71
3
72
17
73
13
74
11
42
0.0000001000
43
0.0000001000
44
0.0000000001
12
0.0000000000
22
0.3668786628
32
0.0000000000
13
0.3272083604
23
0.1659356566
33
0.0000000000
40
0.0000000000
40
0.0000000000
40
0.0000000000
40
0.0000000000
40
0.0949365385
40
0.1949784340
40
0.2986958379
40
0.4046250491
40
0.5111655508
40
0.6166961316
40
0.7196450137
40
0.8185830339
40
0.9123176468
40
1.0000000000
40
1.0000000000
40
1.0000000000
40
1.0000000000
10
-7.6107405290
20
19.9524981753
30
0.0000000000
10
-7.6107405290
20
19.9641082388
30
0.0000000000
10
-7.6091812108
20
19.9879702836
30
0.0000000000
10
-7.6026927039
20
20.0239846462
30
0.0000000000
10
-7.5921379786
20
20.0604247179
30
0.0000000000
10
-7.5777749499
20
20.0963897756
30
0.0000000000
10
-7.5599486726
20
20.1310190185
30
0.0000000000
10
-7.5390874780
20
20.1634789392
30
0.0000000000
10
-7.5156919711
20
20.1929899544
30
0.0000000000
10
-7.4903167607
20
20.2188461142
30
0.0000000000
10
-7.4635708398
20
20.2404235407
30
0.0000000000
10
-7.4445557394
20
20.2520251140
30
0.0000000000
10
-7.4349922731
20
20.2568749903
30
0.0000000000
11
-7.6107405290
21
19.9524981753
31
0.0000000000
11
-7.6085875788
21
19.9872617621
31
0.0000000000
11
-7.6021654910
21
20.0233987844
31
0.0000000000
11
-7.5916312834
21
20.0599632826
31
0.0000000000
11
-7.5772412345
21
20.0960641451
31
0.0000000000
11
-7.5593480207
21
20.1308155568
31
0.0000000000
11
-7.5383886534
21
20.1633686625
31
0.0000000000
11
-7.5148757534
21
20.1929270355
31
0.0000000000
11
-7.4893842494
21
20.2187678186
31
0.0000000000
11
-7.4625375179
21
20.2402590286
31
0.0000000000
11
-7.4349922731
21
20.2568749903
31
0.0000000000
0
SPLINE
5
396
100
AcDbEntity
8
0
100
AcDbSpline
62
9
6
CONTINUOUS
70
0
71
3
72
17
73
13
74
11
42
0.0000001000
43
0.0000001000
44
0.0000000001
12
0.0000000000
22
0.3668786628
32
0.0000000000
13
0.3272083604
23
0.1659356566
33
0.0000000000
40
0.0000000000
40
0.0000000000
40
0.0000000000
40
0.0000000000
40
0.0949365385
40
0.1949784340
40
0.2986958379
40
0.4046250491
40
0.5111655508
40
0.6166961316
40
0.7196450137
40
0.8185830339
40
0.9123176468
40
1.0000000000
40
1.0000000000
40
1.0000000000
40
1.0000000000
10
-8.9357252089
20
20.6149905153
30
0.0000000000
10
-8.9357252089
20
20.6266005787
30
0.0000000000
10
-8.9341658906
20
20.6504626235
30
0.0000000000
10
-8.9276773837
20
20.6864769861
30
0.0000000000
10
-8.9171226585
20
20.7229170578
30
0.0000000000
10
-8.9027596297
20
20.7588821155
30
0.0000000000
10
-8.8849333524
20
20.7935113585
30
0.0000000000
10
-8.8640721579
20
20.8259712791
30
0.0000000000
10
-8.8406766509
20
20.8554822943
30
0.0000000000
10
-8.8153014405
20
20.8813384541
30
0.0000000000
10
-8.7885555197
20
20.9029158806
30
0.0000000000
10
-8.7695404192
20
20.9145174539
30
0.0000000000
10
-8.7599769529
20
20.9193673302
30
0.0000000000
11
-8.9357252089
21
20.6149905153
31
0.0000000000
11
-8.9335722586
21
20.6497541020
31
0.0000000000
11
-8.9271501708
21
20.6858911243
31
0.0000000000
11
-8.9166159632
21
20.7224556225
31
0.0000000000
11
-8.9022259143
21
20.7585564850
31
0.0000000000
11
-8.8843327005
21
20.7933078967
31
0.0000000000
11
-8.8633733332
21
20.8258610024
31
0.0000000000
11
-8.8398604333
21
20.8554193754
31
0.0000000000
11
-8.8143689292
21
20.8812601585
31
0.0000000000
11
-8.7875221977
21
20.9027513685
31
0.0000000000
11
-8.7599769529
21
20.9193673302
31
0.0000000000
0
SPLINE
5
397
100
AcDbEntity
8
0
100
AcDbSpline
62
9
6
CONTINUOUS
70
0
71
3
72
17
73
13
74
11
42
0.0000001000
43
0.0000001000
44
0.0000000001
12
0.3245266357
22
-0.1622633178
32
0.0000000000
13
0.3252757263
23
0.1607564103
33
0.0000000000
40
0.0000000000
40
0.0000000000
40
0.0000000000
40
0.0000000000
40
0.0890537733
40
0.1850803105
40
0.2866692718
40
0.3921274525
40
0.4995824897
40
0.6070742397
40
0.7126409721
40
0.8144054754
40
0.9106661329
40
1.0000000000
40
1.0000000000
40
1.0000000000
40
1.0000000000
10
-7.6107405290
20
19.6125242412
30
0.0000000000
10
-7.6011070886
20
19.6077075210
30
0.0000000000
10
-7.5804270392
20
19.5989881557
30
0.0000000000
10
-7.5472026606
20
19.5889053295
30
0.0000000000
10
-7.5112536658
20
19.5815054585
30
0.0000000000
10
-7.4734463933
20
19.5769699309
30
0.0000000000
10
-7.4346873340
20
19.5754080242
30
0.0000000000
10
-7.3959108362
20
19.5768581895
30
0.0000000000
10
-7.3580517007
20
19.5812847051
30
0.0000000000
10
-7.3220178258
20
19.5885808950
30
0.0000000000
10
-7.2886777521
20
19.5985678540
30
0.0000000000
10
-7.2679046155
20
19.6072245201
30
0.0000000000
10
-7.2582185694
20
19.6120115174
30
0.0000000000
11
-7.6107405290
21
19.6125242412
31
0.0000000000
11
-7.5810277887
21
19.5998282266
31
0.0000000000
11
-7.5477205651
21
19.5896028790
31
0.0000000000
11
-7.5116329412
21
19.5820981224
31
0.0000000000
11
-7.4736469574
21
19.5774973855
31
0.0000000000
11
-7.4346910532
21
19.5759131177
31
0.0000000000
11
-7.3957173747
21
19.5773840412
31
0.0000000000
11
-7.3576785020
21
19.5818742041
31
0.0000000000
11
-7.3215041675
21
19.5892738596
31
0.0000000000
11
-7.2880785309
21
19.5994021480
31
0.0000000000
11
-7.2582185694
21
19.6120115174
31
0.0000000000
0
SPLINE
5
398
100
AcDbEntity
8
0
100
AcDbSpline
62
9
6
CONTINUOUS
70
0
71
3
72
17
73
13
74
11
42
0.0000001000
43
0.0000001000
44
0.0000000001
12
0.3245266357
22
-0.1622633178
32
0.0000000000
13
0.3252757263
23
0.1607564103
33
0.0000000000
40
0.0000000000
40
0.0000000000
40
0.0000000000
40
0.0000000000
40
0.0890537733
40
0.1850803105
40
0.2866692718
40
0.3921274525
40
0.4995824897
40
0.6070742397
40
0.7126409721
40
0.8144054754
40
0.9106661329
40
1.0000000000
40
1.0000000000
40
1.0000000000
40
1.0000000000
10
-7.6107405290
20
19.9524981753
30
0.0000000000
10
-7.6011070886
20
19.9476814551
30
0.0000000000
10
-7.5804270392
20
19.9389620898
30
0.0000000000
10
-7.5472026606
20
19.9288792636
30
0.0000000000
10
-7.5112536658
20
19.9214793927
30
0.0000000000
10
-7.4734463933
20
19.9169438650
30
0.0000000000
10
-7.4346873340
20
19.9153819583
30
0.0000000000
10
-7.3959108362
20
19.9168321236
30
0.0000000000
10
-7.3580517007
20
19.9212586393
30
0.0000000000
10
-7.3220178258
20
19.9285548291
30
0.0000000000
10
-7.2886777521
20
19.9385417881
30
0.0000000000
10
-7.2679046155
20
19.9471984542
30
0.0000000000
10
-7.2582185694
20
19.9519854515
30
0.0000000000
11
-7.6107405290
21
19.9524981753
31
0.0000000000
11
-7.5810277887
21
19.9398021608
31
0.0000000000
11
-7.5477205651
21
19.9295768131
31
0.0000000000
11
-7.5116329412
21
19.9220720565
31
0.0000000000
11
-7.4736469574
21
19.9174713196
31
0.0000000000
11
-7.4346910532
21
19.9158870518
31
0.0000000000
11
-7.3957173747
21
19.9173579753
31
0.0000000000
11
-7.3576785020
21
19.9218481383
31
0.0000000000
11
-7.3215041675
21
19.9292477937
31
0.0000000000
11
-7.2880785309
21
19.9393760821
31
0.0000000000
11
-7.2582185694
21
19.9519854515
31
0.0000000000
0
SPLINE
5
399
100
AcDbEntity
8
0
100
AcDbSpline
62
7
6
CONTINUOUS
70
0
71
3
72
17
73
13
74
11
42
0.0000001000
43
0.0000001000
44
0.0000000001
12
-0.3181250359
22
-0.1775235416
32
0.0000000000
13
-0.3258443141
23
0.1629221571
33
0.0000000000
40
0.0000000000
40
0.0000000000
40
0.0000000000
40
0.0000000000
40
0.0909700039
40
0.1886105471
40
0.2907022515
40
0.3966963028
40
0.5038835773
40
0.6107295677
40
0.7156871758
40
0.8161327365
40
0.9115989935
40
1.0000000000
40
1.0000000000
40
1.0000000000
40
1.0000000000
10
-6.5469979613
20
18.6558758727
30
0.0000000000
10
-6.5566445732
20
18.6504927670
30
0.0000000000
10
-6.5773797100
20
18.6406206226
30
0.0000000000
10
-6.6107399071
20
18.6289103842
30
0.0000000000
10
-6.6468274378
20
18.6199729945
30
0.0000000000
10
-6.6846977291
20
18.6140450193
30
0.0000000000
10
-6.7235047188
20
18.6112588900
30
0.0000000000
10
-6.7622838308
20
18.6116799859
30
0.0000000000
10
-6.8000764539
20
18.6152974924
30
0.0000000000
10
-6.8360424753
20
18.6220274767
30
0.0000000000
10
-6.8692483489
20
18.6316893465
30
0.0000000000
10
-6.8899182658
20
18.6403071636
30
0.0000000000
10
-6.8995199209
20
18.6451079911
30
0.0000000000
11
-6.5469979613
21
18.6558758727
31
0.0000000000
11
-6.5768579046
21
18.6414988658
31
0.0000000000
11
-6.6103857334
21
18.6296170959
31
0.0000000000
11
-6.6464710114
21
18.6206095284
31
0.0000000000
11
-6.6846146083
21
18.6145995583
31
0.0000000000
11
-6.7235625615
21
18.6117941053
31
0.0000000000
11
-6.7624845862
21
18.6122357676
31
0.0000000000
11
-6.8005424778
21
18.6159280827
31
0.0000000000
11
-6.8364962417
21
18.6227370085
31
0.0000000000
11
-6.8698566252
21
18.6325681976
31
0.0000000000
11
-6.8995199209
21
18.6451079911
31
0.0000000000
0
SPLINE
5
39A
100
AcDbEntity
8
0
100
AcDbSpline
62
9
6
CONTINUOUS
70
0
71
3
72
16
73
12
74
10
42
0.0000001000
43
0.0000001000
44
0.0000000001
12
-0.1071013126
22
-0.2788208586
32
0.0000000000
13
-0.2929014228
23
0.0611244404
33
0.0000000000
40
0.0000000000
40
0.0000000000
40
0.0000000000
40
0.0000000000
40
0.1289394256
40
0.2552269787
40
0.3778356690
40
0.4961472378
40
0.6098996248
40
0.7192818507
40
0.8249559230
40
0.9280345409
40
1.0000000000
40
1.0000000000
40
1.0000000000
40
1.0000000000
10
-7.2582185694
20
19.6120115174
30
0.0000000000
10
-7.2628217633
20
19.6000278502
30
0.0000000000
10
-7.2734006197
20
19.5768376049
30
0.0000000000
10
-7.2933001873
20
19.5447931539
30
0.0000000000
10
-7.3166531600
20
19.5165099445
30
0.0000000000
10
-7.3429024494
20
19.4926950671
30
0.0000000000
10
-7.3714326549
20
19.4739394857
30
0.0000000000
10
-7.4015685853
20
19.4607288283
30
0.0000000000
10
-7.4325812678
20
19.4534275063
30
0.0000000000
10
-7.4606957262
20
19.4523761770
30
0.0000000000
10
-7.4780355958
20
19.4547246555
30
0.0000000000
10
-7.4850618576
20
19.4561909383
30
0.0000000000
11
-7.2582185694
21
19.6120115174
31
0.0000000000
11
-7.2742413009
21
19.5769907932
31
0.0000000000
11
-7.2941942293
21
19.5449801926
31
0.0000000000
11
-7.3175762405
21
19.5167952277
31
0.0000000000
11
-7.3438157330
21
19.4931257952
31
0.0000000000
11
-7.3722672370
21
19.4745549326
31
0.0000000000
11
-7.4022328433
21
19.4615382506
31
0.0000000000
11
-7.4329770611
21
19.4543953048
31
0.0000000000
11
-7.4637454906
21
19.4533013679
31
0.0000000000
11
-7.4850618576
21
19.4561909383
31
0.0000000000
0
SPLINE
5
39B
100
AcDbEntity
8
0
100
AcDbSpline
62
7
6
CONTINUOUS
70
0
71
3
72
17
73
13
74
11
42
0.0000001000
43
0.0000001000
44
0.0000000001
12
-0.2293550453
22
-0.2745954237
32
0.0000000000
13
-0.3507160826
23
0.0730796552
33
0.0000000000
40
0.0000000000
40
0.0000000000
40
0.0000000000
40
0.0000000000
40
0.1021387792
40
0.2069864708
40
0.3136189946
40
0.4210326509
40
0.5281801696
40
0.6340088688
40
0.7375134601
40
0.8378124364
40
0.9342621822
40
1.0000000000
40
1.0000000000
40
1.0000000000
40
1.0000000000
10
-6.5469979613
20
19.4635079945
30
0.0000000000
10
-6.5548066427
20
19.4541590474
30
0.0000000000
10
-6.5715015114
20
19.4359236128
30
0.0000000000
10
-6.5991128703
20
19.4106266753
30
0.0000000000
10
-6.6293413419
20
19.3874650315
30
0.0000000000
10
-6.6617601868
20
19.3669607653
30
0.0000000000
10
-6.6958773881
20
19.3496242868
30
0.0000000000
10
-6.7311312654
20
19.3359527029
30
0.0000000000
10
-6.7668917383
20
19.3264219827
30
0.0000000000
10
-6.8024582540
20
19.3214766261
30
0.0000000000
10
-6.8338818666
20
19.3215240261
30
0.0000000000
10
-6.8530923332
20
19.3242353848
30
0.0000000000
10
-6.8607774365
20
19.3258367505
30
0.0000000000
11
-6.5469979613
21
19.4635079945
31
0.0000000000
11
-6.5716551945
21
19.4365371637
31
0.0000000000
11
-6.5993066344
21
19.4111880619
31
0.0000000000
11
-6.6295935039
21
19.3879888917
31
0.0000000000
11
-6.6620857136
21
19.3674668369
31
0.0000000000
11
-6.6962823334
21
19.3501411304
31
0.0000000000
11
-6.7316095107
21
19.3365166903
31
0.0000000000
11
-6.7674176493
21
19.3270755435
31
0.0000000000
11
-6.8029786448
21
19.3222646129
31
0.0000000000
11
-6.8374857551
21
19.3224780720
31
0.0000000000
11
-6.8607774365
21
19.3258367505
31
0.0000000000
0
SPLINE
5
39C
100
AcDbEntity
8
0
100
AcDbSpline
62
9
6
CONTINUOUS
70
0
71
3
72
13
73
9
74
7
42
0.0000001000
43
0.0000001000
44
0.0000000001
12
0.0000000000
22
-0.1577052419
32
0.0000000000
13
0.1414334405
23
-0.0707430069
33
0.0000000000
40
0.0000000000
40
0.0000000000
40
0.0000000000
40
0.0000000000
40
0.1984713040
40
0.3837230347
40
0.5554551366
40
0.7150768613
40
0.8655112998
40
1.0000000000
40
1.0000000000
40
1.0000000000
40
1.0000000000
10
-8.9357252089
20
20.2750165811
30
0.0000000000
10
-8.9357252089
20
20.2645832595
30
0.0000000000
10
-8.9345397671
20
20.2443809309
30
0.0000000000
10
-8.9288062698
20
20.2156439536
30
0.0000000000
10
-8.9192519759
20
20.1900765908
30
0.0000000000
10
-8.9060245134
20
20.1682773893
30
0.0000000000
10
-8.8897466822
20
20.1512219233
30
0.0000000000
10
-8.8770922768
20
20.1429695751
30
0.0000000000
10
-8.8707518769
20
20.1397981968
30
0.0000000000
11
-8.9357252089
21
20.2750165811
31
0.0000000000
11
-8.9337564443
21
20.2437785950
31
0.0000000000
11
-8.9278810928
21
20.2151603081
31
0.0000000000
11
-8.9182304738
21
20.1898550262
31
0.0000000000
11
-8.9050193897
21
20.1684270915
31
0.0000000000
11
-8.8885435446
21
20.1513569739
31
0.0000000000
11
-8.8707518769
21
20.1397981968
31
0.0000000000
0
SPLINE
5
39D
100
AcDbEntity
8
0
100
AcDbSpline
62
9
6
CONTINUOUS
70
0
71
3
72
13
73
9
74
7
42
0.0000001000
43
0.0000001000
44
0.0000000001
12
0.0000000000
22
-0.1577052419
32
0.0000000000
13
0.1414334405
23
-0.0707430069
33
0.0000000000
40
0.0000000000
40
0.0000000000
40
0.0000000000
40
0.0000000000
40
0.1984713040
40
0.3837230347
40
0.5554551366
40
0.7150768613
40
0.8655112998
40
1.0000000000
40
1.0000000000
40
1.0000000000
40
1.0000000000
10
-7.6107405290
20
19.6125242412
30
0.0000000000
10
-7.6107405290
20
19.6020909196
30
0.0000000000
10
-7.6095550873
20
19.5818885910
30
0.0000000000
10
-7.6038215900
20
19.5531516137
30
0.0000000000
10
-7.5942672961
20
19.5275842509
30
0.0000000000
10
-7.5810398336
20
19.5057850494
30
0.0000000000
10
-7.5647620024
20
19.4887295834
30
0.0000000000
10
-7.5521075970
20
19.4804772352
30
0.0000000000
10
-7.5457671971
20
19.4773058568
30
0.0000000000
11
-7.6107405290
21
19.6125242412
31
0.0000000000
11
-7.6087717645
21
19.5812862551
31
0.0000000000
11
-7.6028964130
21
19.5526679682
31
0.0000000000
11
-7.5932457940
21
19.5273626863
31
0.0000000000
11
-7.5800347099
21
19.5059347516
31
0.0000000000
11
-7.5635588648
21
19.4888646340
31
0.0000000000
11
-7.5457671971
21
19.4773058568
31
0.0000000000
0
SPLINE
5
39E
100
AcDbEntity
8
0
100
AcDbSpline
62
9
6
CONTINUOUS
70
0
71
3
72
16
73
12
74
10
42
0.0000001000
43
0.0000001000
44
0.0000000001
12
-0.1071013126
22
-0.2788208586
32
0.0000000000
13
-0.2929014228
23
0.0611244404
33
0.0000000000
40
0.0000000000
40
0.0000000000
40
0.0000000000
40
0.0000000000
40
0.1289394256
40
0.2552269787
40
0.3778356690
40
0.4961472378
40
0.6098996248
40
0.7192818507
40
0.8249559230
40
0.9280345409
40
1.0000000000
40
1.0000000000
40
1.0000000000
40
1.0000000000
10
6.1060995950
20
12.9298524352
30
0.0000000000
10
6.1014964011
20
12.9178687680
30
0.0000000000
10
6.0909175447
20
12.8946785227
30
0.0000000000
10
6.0710179772
20
12.8626340717
30
0.0000000000
10
6.0476650044
20
12.8343508623
30
0.0000000000
10
6.0214157151
20
12.8105359849
30
0.0000000000
10
5.9928855096
20
12.7917804035
30
0.0000000000
10
5.9627495791
20
12.7785697461
30
0.0000000000
10
5.9317368967
20
12.7712684241
30
0.0000000000
10
5.9036224382
20
12.7702170948
30
0.0000000000
10
5.8862825687
20
12.7725655733
30
0.0000000000
10
5.8792563069
20
12.7740318561
30
0.0000000000
11
6.1060995950
21
12.9298524352
31
0.0000000000
11
6.0900768635
21
12.8948317110
31
0.0000000000
11
6.0701239351
21
12.8628211104
31
0.0000000000
11
6.0467419239
21
12.8346361455
31
0.0000000000
11
6.0205024314
21
12.8109667130
31
0.0000000000
11
5.9920509275
21
12.7923958504
31
0.0000000000
11
5.9620853211
21
12.7793791684
31
0.0000000000
11
5.9313411033
21
12.7722362226
31
0.0000000000
11
5.9005726739
21
12.7711422857
31
0.0000000000
11
5.8792563069
21
12.7740318561
31
0.0000000000
0
SPLINE
5
39F
100
AcDbEntity
8
0
100
AcDbSpline
62
7
6
CONTINUOUS
70
0
71
3
72
11
73
7
74
5
42
0.0000001000
43
0.0000001000
44
0.0000000001
12
-0.1030364129
22
-0.0575901614
32
0.0000000000
13
-0.1163063543
23
-0.0201484743
33
0.0000000000
40
0.0000000000
40
0.0000000000
40
0.0000000000
40
0.0000000000
40
0.2315549567
40
0.4767646435
40
0.7337478709
40
1.0000000000
40
1.0000000000
40
1.0000000000
40
1.0000000000
10
6.8173202031
20
11.9728480883
30
0.0000000000
10
6.8093673391
20
11.9684029926
30
0.0000000000
10
6.7924561736
20
11.9601897435
30
0.0000000000
10
6.7653487844
20
11.9501502923
30
0.0000000000
10
6.7361873547
20
11.9420506450
30
0.0000000000
10
6.7159955321
20
11.9379525372
30
0.0000000000
10
6.7056732606
20
11.9361643458
30
0.0000000000
11
6.8173202031
21
11.9728480883
31
0.0000000000
11
6.7927748536
21
11.9608236083
31
0.0000000000
11
6.7656634279
21
11.9506875902
31
0.0000000000
11
6.7364581037
21
11.9424901413
31
0.0000000000
11
6.7056732606
21
11.9361643458
31
0.0000000000
0
SPLINE
5
3A0
100
AcDbEntity
8
0
100
AcDbSpline
62
7
6
CONTINUOUS
70
0
71
3
72
14
73
10
74
8
42
0.0000001000
43
0.0000001000
44
0.0000000001
12
-0.2424152710
22
-0.0419951076
32
0.0000000000
13
-0.2200522714
23
0.1100261357
33
0.0000000000
40
0.0000000000
40
0.0000000000
40
0.0000000000
40
0.0000000000
40
0.1502520783
40
0.3021346675
40
0.4524318522
40
0.5999254049
40
0.7411746963
40
0.8753095783
40
1.0000000000
40
1.0000000000
40
1.0000000000
40
1.0000000000
10
6.7056732606
20
11.9361643458
30
0.0000000000
10
6.6935321279
20
11.9340610618
30
0.0000000000
10
6.6689320547
20
11.9308439110
30
0.0000000000
10
6.6318400871
20
11.9289593415
30
0.0000000000
10
6.5949380274
20
11.9300008837
30
0.0000000000
10
6.5591073531
20
11.9339414646
30
0.0000000000
10
6.5250444645
20
11.9407038887
30
0.0000000000
10
6.4935630022
20
11.9501226015
30
0.0000000000
10
6.4739443803
20
11.9583758405
30
0.0000000000
10
6.4647982435
20
11.9629489089
30
0.0000000000
11
6.7056732606
21
11.9361643458
31
0.0000000000
11
6.6690227702
21
11.9313456602
31
0.0000000000
11
6.6317039567
21
11.9294475443
31
0.0000000000
11
6.5947422931
21
11.9305125206
31
0.0000000000
11
6.5586777026
21
11.9345261057
31
0.0000000000
11
6.5246062417
21
11.9413647187
31
0.0000000000
11
6.4930207442
21
11.9509250403
31
0.0000000000
11
6.4647982435
21
11.9629489089
31
0.0000000000
0
SPLINE
5
3A1
100
AcDbEntity
8
0
100
AcDbSpline
62
9
6
CONTINUOUS
70
0
71
3
72
13
73
9
74
7
42
0.0000001000
43
0.0000001000
44
0.0000000001
12
0.0000000000
22
-0.1577052419
32
0.0000000000
13
0.1414334405
23
-0.0707430069
33
0.0000000000
40
0.0000000000
40
0.0000000000
40
0.0000000000
40
0.0000000000
40
0.1984713040
40
0.3837230347
40
0.5554551366
40
0.7150768613
40
0.8655112998
40
1.0000000000
40
1.0000000000
40
1.0000000000
40
1.0000000000
10
5.7535776354
20
12.9303651590
30
0.0000000000
10
5.7535776354
20
12.9199318373
30
0.0000000000
10
5.7547630772
20
12.8997295088
30
0.0000000000
10
5.7604965744
20
12.8709925315
30
0.0000000000
10
5.7700508684
20
12.8454251687
30
0.0000000000
10
5.7832783309
20
12.8236259671
30
0.0000000000
10
5.7995561620
20
12.8065705012
30
0.0000000000
10
5.8122105675
20
12.7983181530
30
0.0000000000
10
5.8185509673
20
12.7951467746
30
0.0000000000
11
5.7535776354
21
12.9303651590
31
0.0000000000
11
5.7555463999
21
12.8991271729
31
0.0000000000
11
5.7614217514
21
12.8705088860
31
0.0000000000
11
5.7710723705
21
12.8452036041
31
0.0000000000
11
5.7842834546
21
12.8237756694
31
0.0000000000
11
5.8007592996
21
12.8067055518
31
0.0000000000
11
5.8185509673
21
12.7951467746
31
0.0000000000
0
SPLINE
5
3A2
100
AcDbEntity
8
0
100
AcDbSpline
62
9
6
CONTINUOUS
70
0
71
3
72
17
73
13
74
11
42
0.0000001000
43
0.0000001000
44
0.0000000001
12
0.0000000000
22
0.3668786876
32
0.0000000000
13
0.3272083824
23
0.1659356678
33
0.0000000000
40
0.0000000000
40
0.0000000000
40
0.0000000000
40
0.0000000000
40
0.0951260700
40
0.1951871607
40
0.2989216269
40
0.4048562768
40
0.5113989431
40
0.6169244000
40
0.7198650762
40
0.8187836095
40
0.9124975085
40
1.0000000000
40
1.0000000000
40
1.0000000000
40
1.0000000000
10
5.7535776354
20
13.2703390931
30
0.0000000000
10
5.7535776354
20
13.2819723357
30
0.0000000000
10
5.7551417111
20
13.3058599977
30
0.0000000000
10
5.7616428681
20
13.3419001243
30
0.0000000000
10
5.7722067005
20
13.3783428931
30
0.0000000000
10
5.7865783326
20
13.4143077594
30
0.0000000000
10
5.8044119545
20
13.4489335722
30
0.0000000000
10
5.8252793143
20
13.4813879127
30
0.0000000000
10
5.8486789005
20
13.5108905974
30
0.0000000000
10
5.8740560269
20
13.5367365559
30
0.0000000000
10
5.9007864259
20
13.5582904281
30
0.0000000000
10
5.9197820418
20
13.5698759800
30
0.0000000000
10
5.9293258914
20
13.5747159081
30
0.0000000000
11
5.7535776354
21
13.2703390931
31
0.0000000000
11
5.7557389496
21
13.3051718323
31
0.0000000000
11
5.7621701033
21
13.3413143978
31
0.0000000000
11
5.7727138072
21
13.3778826762
31
0.0000000000
11
5.7871121668
21
13.4139823760
31
0.0000000000
11
5.8050130281
21
13.4487307453
31
0.0000000000
11
5.8259783542
21
13.4812777806
31
0.0000000000
11
5.8494960064
21
13.5108285285
31
0.0000000000
11
5.8749886093
21
13.5366581870
31
0.0000000000
11
5.9018348197
21
13.5581378896
31
0.0000000000
11
5.9293258914
21
13.5747159081
31
0.0000000000
0
SPLINE
5
3A3
100
AcDbEntity
8
0
100
AcDbSpline
62
9
6
CONTINUOUS
70
0
71
3
72
13
73
9
74
7
42
0.0000001000
43
0.0000001000
44
0.0000000001
12
0.0000000000
22
-0.1577052419
32
0.0000000000
13
0.1414334405
23
-0.0707430069
33
0.0000000000
40
0.0000000000
40
0.0000000000
40
0.0000000000
40
0.0000000000
40
0.1984713040
40
0.3837230347
40
0.5554551366
40
0.7150768613
40
0.8655112998
40
1.0000000000
40
1.0000000000
40
1.0000000000
40
1.0000000000
10
4.4285929556
20
13.5928574989
30
0.0000000000
10
4.4285929556
20
13.5824241772
30
0.0000000000
10
4.4297783973
20
13.5622218487
30
0.0000000000
10
4.4355118946
20
13.5334848714
30
0.0000000000
10
4.4450661885
20
13.5079175086
30
0.0000000000
10
4.4582936510
20
13.4861183070
30
0.0000000000
10
4.4745714822
20
13.4690628411
30
0.0000000000
10
4.4872258876
20
13.4608104929
30
0.0000000000
10
4.4935662875
20
13.4576391145
30
0.0000000000
11
4.4285929556
21
13.5928574989
31
0.0000000000
11
4.4305617201
21
13.5616195128
31
0.0000000000
11
4.4364370716
21
13.5330012259
31
0.0000000000
11
4.4460876906
21
13.5076959440
31
0.0000000000
11
4.4592987747
21
13.4862680093
31
0.0000000000
11
4.4757746198
21
13.4691978917
31
0.0000000000
11
4.4935662875
21
13.4576391145
31
0.0000000000
0
SPLINE
5
3A4
100
AcDbEntity
8
0
100
AcDbSpline
62
9
6
CONTINUOUS
70
0
71
3
72
17
73
13
74
11
42
0.0000001000
43
0.0000001000
44
0.0000000001
12
0.0000000000
22
0.3668786542
32
0.0000000000
13
0.3272083526
23
0.1659356527
33
0.0000000000
40
0.0000000000
40
0.0000000000
40
0.0000000000
40
0.0000000000
40
0.0951043724
40
0.1951411062
40
0.2988504059
40
0.4047604858
40
0.5112804371
40
0.6167872853
40
0.7197115413
40
0.8186252806
40
0.9123372168
40
1.0000000000
40
1.0000000000
40
1.0000000000
40
1.0000000000
10
4.4285929556
20
13.9328314330
30
0.0000000000
10
4.4285929556
20
13.9444620211
30
0.0000000000
10
4.4301563083
20
13.9683440389
30
0.0000000000
10
4.4366545643
20
14.0043757929
30
0.0000000000
10
4.4472137731
20
14.0408104218
30
0.0000000000
10
4.4615793600
20
14.0767681183
30
0.0000000000
10
4.4794059525
20
14.1113884395
30
0.0000000000
10
4.5002656591
20
14.1438392564
30
0.0000000000
10
4.5236579461
20
14.1733414406
30
0.0000000000
10
4.5490285844
20
14.1991897597
30
0.0000000000
10
4.5757690379
20
14.2207609301
30
0.0000000000
10
4.5947798799
20
14.2323594543
30
0.0000000000
10
4.6043412115
20
14.2372082480
30
0.0000000000
11
4.4285929556
21
13.9328314330
31
0.0000000000
11
4.4307533112
21
13.9676562528
31
0.0000000000
11
4.4371815753
21
14.0037902526
31
0.0000000000
11
4.4477206307
21
14.0403502586
31
0.0000000000
11
4.4621128857
21
14.0764426844
31
0.0000000000
11
4.4800065700
21
14.1111853723
31
0.0000000000
11
4.5009643327
21
14.1437291542
31
0.0000000000
11
4.5244739320
21
14.1732786068
31
0.0000000000
11
4.5499607547
21
14.1991114935
31
0.0000000000
11
4.5768018614
21
14.2205964160
31
0.0000000000
11
4.6043412115
21
14.2372082480
31
0.0000000000
0
SPLINE
5
3A5
100
AcDbEntity
8
0
100
AcDbSpline
62
9
6
CONTINUOUS
70
0
71
3
72
17
73
13
74
11
42
0.0000001000
43
0.0000001000
44
0.0000000001
12
0.3245266357
22
-0.1622633178
32
0.0000000000
13
0.3252757263
23
0.1607564103
33
0.0000000000
40
0.0000000000
40
0.0000000000
40
0.0000000000
40
0.0000000000
40
0.0890537733
40
0.1850803105
40
0.2866692718
40
0.3921274525
40
0.4995824897
40
0.6070742397
40
0.7126409721
40
0.8144054754
40
0.9106661329
40
1.0000000000
40
1.0000000000
40
1.0000000000
40
1.0000000000
10
5.7535776354
20
12.9303651590
30
0.0000000000
10
5.7632110759
20
12.9255484388
30
0.0000000000
10
5.7838911252
20
12.9168290735
30
0.0000000000
10
5.8171155038
20
12.9067462473
30
0.0000000000
10
5.8530644986
20
12.8993463763
30
0.0000000000
10
5.8908717711
20
12.8948108487
30
0.0000000000
10
5.9296308304
20
12.8932489420
30
0.0000000000
10
5.9684073282
20
12.8946991073
30
0.0000000000
10
6.0062664637
20
12.8991256229
30
0.0000000000
10
6.0423003386
20
12.9064218127
30
0.0000000000
10
6.0756404123
20
12.9164087717
30
0.0000000000
10
6.0964135489
20
12.9250654379
30
0.0000000000
10
6.1060995950
20
12.9298524352
30
0.0000000000
11
5.7535776354
21
12.9303651590
31
0.0000000000
11
5.7832903757
21
12.9176691444
31
0.0000000000
11
5.8165975993
21
12.9074437968
31
0.0000000000
11
5.8526852233
21
12.8999390402
31
0.0000000000
11
5.8906712071
21
12.8953383033
31
0.0000000000
11
5.9296271112
21
12.8937540355
31
0.0000000000
11
5.9686007898
21
12.8952249590
31
0.0000000000
11
6.0066396624
21
12.8997151219
31
0.0000000000
11
6.0428139969
21
12.9071147774
31
0.0000000000
11
6.0762396335
21
12.9172430658
31
0.0000000000
11
6.1060995950
21
12.9298524352
31
0.0000000000
0
SPLINE
5
3A6
100
AcDbEntity
8
0
100
AcDbSpline
62
7
6
CONTINUOUS
70
0
71
3
72
13
73
9
74
7
42
0.0000001000
43
0.0000001000
44
0.0000000001
12
-0.1102935773
22
0.0551467886
32
0.0000000000
13
0.0000035654
23
0.1236934328
33
0.0000000000
40
0.0000000000
40
0.0000000000
40
0.0000000000
40
0.0000000000
40
0.2387871820
40
0.4551702042
40
0.6490863712
40
0.8273924715
40
0.9964896319
40
1.0000000000
40
1.0000000000
40
1.0000000000
40
1.0000000000
10
5.1315859098
20
12.6295550757
30
0.0000000000
10
5.1228070123
20
12.6339445245
30
0.0000000000
10
5.1065641691
20
12.6433796901
30
0.0000000000
10
5.0858117390
20
12.6603623506
30
0.0000000000
10
5.0703345970
20
12.6792084797
30
0.0000000000
10
5.0606667046
20
12.6995435648
30
0.0000000000
10
5.0583846962
20
12.7140034837
30
0.0000000000
10
5.0583625936
20
12.7211203233
30
0.0000000000
10
5.0583625978
20
12.7212650598
30
0.0000000000
11
5.1315859098
21
12.6295550757
31
0.0000000000
11
5.1062298575
21
12.6445249563
31
0.0000000000
11
5.0857412869
21
12.6616182442
31
0.0000000000
11
5.0707762495
21
12.6802687190
31
0.0000000000
11
5.0615415682
21
12.7002226904
31
0.0000000000
11
5.0583639478
21
12.7208308507
31
0.0000000000
11
5.0583625978
21
12.7212650598
31
0.0000000000
0
SPLINE
5
3A7
100
AcDbEntity
8
0
100
AcDbSpline
62
9
6
CONTINUOUS
70
0
71
3
72
13
73
9
74
7
42
0.0000001000
43
0.0000001000
44
0.0000000001
12
-0.1077462308
22
0.0538731154
32
0.0000000000
13
0.0000217754
23
0.1208726378
33
0.0000000000
40
0.0000000000
40
0.0000000000
40
0.0000000000
40
0.0000000000
40
0.2442126372
40
0.4631472823
40
0.6579815541
40
0.8331752334
40
0.9969917700
40
1.0000000000
40
1.0000000000
40
1.0000000000
40
1.0000000000
10
4.4285929556
20
13.5928574989
30
0.0000000000
10
4.4198219585
20
13.5972429974
30
0.0000000000
10
4.4036463912
20
13.6065542321
30
0.0000000000
10
4.3829010467
20
13.6231111461
30
0.0000000000
10
4.3674282193
20
13.6412354608
30
0.0000000000
10
4.3577146577
20
13.6606371856
30
0.0000000000
10
4.3553885186
20
13.6744031450
30
0.0000000000
10
4.3553696658
20
13.6811246423
30
0.0000000000
10
4.3553696877
20
13.6812458466
30
0.0000000000
11
4.4285929556
21
13.5928574989
31
0.0000000000
11
4.4032009264
21
13.6077138691
31
0.0000000000
11
4.3827502311
21
13.6243674809
31
0.0000000000
11
4.3677407180
21
13.6424112929
31
0.0000000000
11
4.3585392441
21
13.6614042847
31
0.0000000000
11
4.3553707086
21
13.6808822368
31
0.0000000000
11
4.3553696877
21
13.6812458466
31
0.0000000000
0
SPLINE
5
3A8
100
AcDbEntity
8
0
100
AcDbSpline
62
9
6
CONTINUOUS
70
0
71
3
72
17
73
13
74
11
42
0.0000001000
43
0.0000001000
44
0.0000000001
12
0.3245266519
22
-0.1622633259
32
0.0000000000
13
0.3252757425
23
0.1607564183
33
0.0000000000
40
0.0000000000
40
0.0000000000
40
0.0000000000
40
0.0000000000
40
0.0890743650
40
0.1851250120
40
0.2867396756
40
0.3922235448
40
0.4997027408
40
0.6072145441
40
0.7127988709
40
0.8145684647
40
0.9108304184
40
1.0000000000
40
1.0000000000
40
1.0000000000
40
1.0000000000
10
5.7535776354
20
13.2703390931
30
0.0000000000
10
5.7632133039
20
13.2655212589
30
0.0000000000
10
5.7838984987
20
13.2568000806
30
0.0000000000
10
5.8171314002
20
13.2467159088
30
0.0000000000
10
5.8530897390
20
13.2393159910
30
0.0000000000
10
5.8909064013
20
13.2347818046
30
0.0000000000
10
5.9296740571
20
13.2332226089
30
0.0000000000
10
5.9684579124
20
13.2346767193
30
0.0000000000
10
6.0063217132
20
13.2391081505
30
0.0000000000
10
6.0423574471
20
13.2464098433
30
0.0000000000
10
6.0756776516
20
13.2563967988
30
0.0000000000
10
6.0964313611
20
13.2650481751
30
0.0000000000
10
6.1060995950
20
13.2698263693
30
0.0000000000
11
5.7535776354
21
13.2703390931
31
0.0000000000
11
5.7832974092
21
13.2576405205
31
0.0000000000
11
5.8166133365
21
13.2474137105
31
0.0000000000
11
5.8527104657
21
13.2399088498
31
0.0000000000
11
5.8907060010
21
13.2353094417
31
0.0000000000
11
5.9296707910
21
13.2337279080
31
0.0000000000
11
5.9686516016
21
13.2352028288
31
0.0000000000
11
6.0066962971
21
13.2396981333
31
0.0000000000
11
6.0428714163
21
13.2471031766
31
0.0000000000
11
6.0762958110
21
13.2572371896
31
0.0000000000
11
6.1060995950
21
13.2698263693
31
0.0000000000
0
SPLINE
5
3A9
100
AcDbEntity
8
0
100
AcDbSpline
62
9
6
CONTINUOUS
70
0
71
3
72
13
73
9
74
7
42
0.0000001000
43
0.0000001000
44
0.0000000001
12
-0.1077459496
22
0.0538729748
32
0.0000000000
13
0.0000223307
23
0.1208725076
33
0.0000000000
40
0.0000000000
40
0.0000000000
40
0.0000000000
40
0.0000000000
40
0.2438157914
40
0.4628197782
40
0.6577128337
40
0.8329640122
40
0.9968194048
40
1.0000000000
40
1.0000000000
40
1.0000000000
40
1.0000000000
10
4.4285929556
20
13.9328314330
30
0.0000000000
10
4.4198362342
20
13.9372097937
30
0.0000000000
10
4.4036715621
20
13.9465127872
30
0.0000000000
10
4.3829301098
20
13.9630570354
30
0.0000000000
10
4.3674464871
20
13.9811817857
30
0.0000000000
10
4.3577228186
20
14.0005853918
30
0.0000000000
10
4.3553896618
20
14.0143612977
30
0.0000000000
10
4.3553696683
20
14.0210912957
30
0.0000000000
10
4.3553696920
20
14.0212194445
30
0.0000000000
11
4.4285929556
21
13.9328314330
31
0.0000000000
11
4.4032404943
21
13.9476606139
31
0.0000000000
11
4.3827786334
21
13.9643136322
31
0.0000000000
11
4.3677586254
21
13.9823578438
31
0.0000000000
11
4.3585471564
21
14.0013536272
31
0.0000000000
11
4.3553708353
21
14.0208350015
31
0.0000000000
11
4.3553696920
21
14.0212194445
31
0.0000000000
0
SPLINE
5
3AA
100
AcDbEntity
8
0
100
AcDbSpline
62
9
6
CONTINUOUS
70
0
71
3
72
12
73
8
74
6
42
0.0000001000
43
0.0000001000
44
0.0000000001
12
-0.1051861438
22
0.0519803419
32
0.0000000000
13
-0.1046736161
23
-0.0537305865
33
0.0000000000
40
0.0000000000
40
0.0000000000
40
0.0000000000
40
0.0000000000
40
0.2546644038
40
0.4903262845
40
0.7095488276
40
0.9179069590
40
1.0000000000
40
1.0000000000
40
1.0000000000
40
1.0000000000
10
4.6043412115
20
14.2372082480
30
0.0000000000
10
4.5954121560
20
14.2416207623
30
0.0000000000
10
4.5775554126
20
14.2488815473
30
0.0000000000
10
4.5502403461
20
14.2546489974
30
0.0000000000
10
4.5240809781
20
14.2546176219
30
0.0000000000
10
4.5045201991
20
14.2498081794
30
0.0000000000
10
4.4941215271
20
14.2451233131
30
0.0000000000
10
4.4912572019
20
14.2436530106
30
0.0000000000
11
4.6043412115
21
14.2372082480
31
0.0000000000
11
4.5765884862
21
14.2482794300
31
0.0000000000
11
4.5494920869
21
14.2537844636
31
0.0000000000
11
4.5237719014
21
14.2535618171
31
0.0000000000
11
4.5000594817
21
14.2476162688
31
0.0000000000
11
4.4912572019
21
14.2436530106
31
0.0000000000
0
SPLINE
5
3AB
100
AcDbEntity
8
0
100
AcDbSpline
62
7
6
CONTINUOUS
70
0
71
3
72
12
73
8
74
6
42
0.0000001000
43
0.0000001000
44
0.0000000001
12
-0.1029117008
22
0.0514558504
32
0.0000000000
13
-0.1036858895
23
-0.0504661476
33
0.0000000000
40
0.0000000000
40
0.0000000000
40
0.0000000000
40
0.0000000000
40
0.2365135992
40
0.4564779312
40
0.6620569350
40
0.8571721465
40
1.0000000000
40
1.0000000000
40
1.0000000000
40
1.0000000000
10
6.1870978147
20
15.0491923453
30
0.0000000000
10
6.1789844758
20
15.0532490148
30
0.0000000000
10
6.1627664161
20
15.0600417768
30
0.0000000000
10
6.1379576759
20
15.0660008683
30
0.0000000000
10
6.1140244883
20
15.0671865191
30
0.0000000000
10
6.0932832943
20
15.0637857009
30
0.0000000000
10
6.0811026486
20
15.0591239036
30
0.0000000000
10
6.0761662376
20
15.0567212464
30
0.0000000000
11
6.1870978147
21
15.0491923453
31
0.0000000000
11
6.1619402739
21
15.0595674917
31
0.0000000000
11
6.1372948358
21
15.0653241513
31
0.0000000000
11
6.1136632089
21
15.0663450711
31
0.0000000000
11
6.0915264818
21
15.0626094110
31
0.0000000000
11
6.0761662376
21
15.0567212464
31
0.0000000000
0
SPLINE
5
3AC
100
AcDbEntity
8
0
100
AcDbSpline
62
7
6
CONTINUOUS
70
0
71
3
72
18
73
14
74
12
42
0.0000001000
43
0.0000001000
44
0.0000000001
12
0.0000000000
22
0.3680541714
32
0.0000000000
13
-0.3291976587
23
0.1645988293
33
0.0000000000
40
0.0000000000
40
0.0000000000
40
0.0000000000
40
0.0000000000
40
0.0862976154
40
0.1767716919
40
0.2704937047
40
0.3663768358
40
0.4632356557
40
0.5598417779
40
0.6549778366
40
0.7474918948
40
0.8363544548
40
0.9207205835
40
1.0000000000
40
1.0000000000
40
1.0000000000
40
1.0000000000
10
7.7073803859
20
14.0725483728
30
0.0000000000
10
7.7073803859
20
14.0831357719
30
0.0000000000
10
7.7060861889
20
14.1048369322
30
0.0000000000
10
7.7006667758
20
14.1376286943
30
0.0000000000
10
7.6918291909
20
14.1708865471
30
0.0000000000
10
7.6797515093
20
14.2039398292
30
0.0000000000
10
7.6646762440
20
14.2361280982
30
0.0000000000
10
7.6469059987
20
14.2668050448
30
0.0000000000
10
7.6267968179
20
14.2953554289
30
0.0000000000
10
7.6047512980
20
14.3212067638
30
0.0000000000
10
7.5812054522
20
14.3438430110
30
0.0000000000
10
7.5566309734
20
14.3628077952
30
0.0000000000
10
7.5393062150
20
14.3730881452
30
0.0000000000
10
7.5306066822
20
14.3774379116
30
0.0000000000
11
7.7073803859
21
14.0725483728
31
0.0000000000
11
7.7055811344
21
14.1042595676
31
0.0000000000
11
7.7002199692
21
14.1371245241
31
0.0000000000
11
7.6914059755
21
14.1704742348
31
0.0000000000
11
7.6793185408
21
14.2036297951
31
0.0000000000
11
7.6642037096
21
14.2359162311
31
0.0000000000
11
7.6463691757
21
14.2666762521
31
0.0000000000
11
7.6261780151
21
14.2952836443
31
0.0000000000
11
7.6040412880
21
14.3211560315
31
0.0000000000
11
7.5804096611
21
14.3437667386
31
0.0000000000
11
7.5557642230
21
14.3626555172
31
0.0000000000
11
7.5306066822
21
14.3774379116
31
0.0000000000
0
SPLINE
5
3AD
100
AcDbEntity
8
0
100
AcDbSpline
62
9
6
CONTINUOUS
70
0
71
3
72
12
73
8
74
6
42
0.0000001000
43
0.0000001000
44
0.0000000001
12
-0.1023063227
22
0.0517475591
32
0.0000000000
13
-0.1033354543
23
-0.0503876774
33
0.0000000000
40
0.0000000000
40
0.0000000000
40
0.0000000000
40
0.0000000000
40
0.2591427862
40
0.4984240280
40
0.7211919206
40
0.9333519805
40
1.0000000000
40
1.0000000000
40
1.0000000000
40
1.0000000000
10
6.7215476934
20
15.3095398119
30
0.0000000000
10
6.7127103782
20
15.3140098141
30
0.0000000000
10
6.6950314035
20
15.3213709124
30
0.0000000000
10
6.6679311645
20
15.3272559379
30
0.0000000000
10
6.6419411306
20
15.3273010365
30
0.0000000000
10
6.6231259063
20
15.3226825812
30
0.0000000000
10
6.6133325793
20
15.3183913583
30
0.0000000000
10
6.6110368782
20
15.3172719453
30
0.0000000000
11
6.7215476934
21
15.3095398119
31
0.0000000000
11
6.6940429978
21
15.3207738339
31
0.0000000000
11
6.6671902074
21
15.3263878023
31
0.0000000000
11
6.6416504987
21
15.3262434884
31
0.0000000000
11
6.6180527170
21
15.3203444455
31
0.0000000000
11
6.6110368782
21
15.3172719453
31
0.0000000000
0
SPLINE
5
3AE
100
AcDbEntity
8
0
100
AcDbSpline
62
9
6
CONTINUOUS
70
0
71
3
72
17
73
13
74
11
42
0.0000001000
43
0.0000001000
44
0.0000000001
12
-0.0017609283
22
0.3677011356
32
0.0000000000
13
-0.3281085610
23
0.1659879460
33
0.0000000000
40
0.0000000000
40
0.0000000000
40
0.0000000000
40
0.0000000000
40
0.0950752777
40
0.1951772889
40
0.2990147184
40
0.4050813897
40
0.5117509338
40
0.6173654056
40
0.7203223727
40
0.8191647087
40
0.9126778229
40
1.0000000000
40
1.0000000000
40
1.0000000000
40
1.0000000000
10
6.1060995950
20
13.2698263693
30
0.0000000000
10
6.1060437881
20
13.2814794651
30
0.0000000000
10
6.1043649187
20
13.3054116909
30
0.0000000000
10
6.0976995703
20
13.3415165254
30
0.0000000000
10
6.0869777474
20
13.3780366291
30
0.0000000000
10
6.0724596849
20
13.4140836921
30
0.0000000000
10
6.0544969030
20
13.4487886897
30
0.0000000000
10
6.0335237641
20
13.4813112886
30
0.0000000000
10
6.0100472997
20
13.5108649498
30
0.0000000000
10
5.9846278355
20
13.5367382539
30
0.0000000000
10
5.9578794434
20
13.5583031314
30
0.0000000000
10
5.9388762760
20
13.5698844318
30
0.0000000000
10
5.9293258914
20
13.5747159081
30
0.0000000000
11
6.1060995950
21
13.2698263693
31
0.0000000000
11
6.1037741618
21
13.3047086309
31
0.0000000000
11
6.0971787405
21
13.3409209578
31
0.0000000000
11
6.0864757252
21
13.3775717205
31
0.0000000000
11
6.0719286483
21
13.4137584944
31
0.0000000000
11
6.0538956918
21
13.4485902794
31
0.0000000000
11
6.0328208678
21
13.4812094383
31
0.0000000000
11
6.0092230860
21
13.5108128136
31
0.0000000000
11
5.9836833773
21
13.5366715033
31
0.0000000000
11
5.9568305870
21
13.5581488081
31
0.0000000000
11
5.9293258914
21
13.5747159081
31
0.0000000000
0
SPLINE
5
3AF
100
AcDbEntity
8
0
100
AcDbSpline
62
9
6
CONTINUOUS
70
0
71
3
72
17
73
13
74
11
42
0.0000001000
43
0.0000001000
44
0.0000000001
12
0.0017352842
22
0.3683326171
32
0.0000000000
13
-0.3302053889
23
0.1632064006
33
0.0000000000
40
0.0000000000
40
0.0000000000
40
0.0000000000
40
0.0000000000
40
0.0950922099
40
0.1952326481
40
0.2989961559
40
0.4049274728
40
0.5114338416
40
0.6169036358
40
0.7197770578
40
0.8186406362
40
0.9123223783
40
1.0000000000
40
1.0000000000
40
1.0000000000
40
1.0000000000
10
8.2356475576
20
14.3359871928
30
0.0000000000
10
8.2357025616
20
14.3476623803
30
0.0000000000
10
8.2342336434
20
14.3716581475
30
0.0000000000
10
8.2278157902
20
14.4078720308
30
0.0000000000
10
8.2172711771
20
14.4444924942
30
0.0000000000
10
8.2028594567
20
14.4806074818
30
0.0000000000
10
8.1849293967
20
14.5153464608
30
0.0000000000
10
8.1639148746
20
14.5478672531
30
0.0000000000
10
8.1403236423
20
14.5773831983
30
0.0000000000
10
8.1147186031
20
14.6031830214
30
0.0000000000
10
8.0877184327
20
14.6246393539
30
0.0000000000
10
8.0685243950
20
14.6361068819
30
0.0000000000
10
8.0588738539
20
14.6408767316
30
0.0000000000
11
8.2356475576
21
14.3359871928
31
0.0000000000
11
8.2336259376
21
14.3709547537
31
0.0000000000
11
8.2272754424
21
14.4072893635
31
0.0000000000
11
8.2167521855
21
14.4440320154
31
0.0000000000
11
8.2023139942
21
14.4802807887
31
0.0000000000
11
8.1843173679
21
14.5151395096
31
0.0000000000
11
8.1632050950
21
14.5477503948
31
0.0000000000
11
8.1394973654
21
14.5773096838
31
0.0000000000
11
8.1137781603
21
14.6030891500
31
0.0000000000
11
8.0866810806
21
14.6244536435
31
0.0000000000
11
8.0588738539
21
14.6408767316
31
0.0000000000
0
ENDSEC
0
SECTION
2
OBJECTS
0
DICTIONARY
5
3B0
100
AcDbDictionary
3
ACAD_GROUP
350
3B1
3
ACAD_MLINESTYLE
350
3B2
0
DICTIONARY
5
3B1
102
{ACAD_REACTORS
330
3B0
102
}
100
AcDbDictionary
0
DICTIONARY
5
3B2
102
{ACAD_REACTORS
330
3B0
102
}
100
AcDbDictionary
3
STANDARD
350
3B3
0
MLINESTYLE
5
3B3
102
{ACAD_REACTORS
330
3B2
102
}
100
AcDbMlineStyle
2
STANDARD
70
0
3

62
256
51
90.0
52
90.0
71
2
49
0.5
62
256
6
BYLAYER
49
-0.5
62
256
6
BYLAYER
0
ENDSEC
0
EOF
