0
SECTION
2
HEADER
9
$ACADVER
1
AC1014
9
$HANDSEED
5
       42D
9
$EXTMAX
10
297.0000000000
20
210.0000000000
9
$EXTMIN
10
0.0000000000
20
0.0000000000
9
$LIMMIN
10
0.0000000000
20
0.0000000000
9
$LIMMAX
10
297.0000000000
20
210.0000000000
9
$VIEWCTR
10
148.5000000000
20
105.0000000000
9
$VIEWSIZE
40
210.0000000000
9
$CLAYER
8
0
9
$LTSCALE
40
16.3350000000
9
$CELTYPE
6
BYLAYER
9
$DIMSCALE
40
1
9
$DIMASZ
40
3.0000000000
9
$DIMEXO
40
1.8562500000
9
$DIMDLI
40
11.2860000000
9
$DIMEXE
40
5.3460000000
9
$DIMCEN
40
2.6730000000
9
$DIMLFAC
40
1.0000000000
9
$DIMTXT
40
3.0000000000
9
$DIMTOL
70
1
9
$DIMLIM
70
0
9
$DIMTFAC
40
1.0000000000
9
$DIMTP
40
0.0100000000
9
$DIMTM
40
0.0100000000
9
$MEASUREMENT
70
1
0
ENDSEC
0
SECTION
2
CLASSES
0
ENDSEC
0
SECTION
2
TABLES
0
TABLE
2
VPORT
5
8
100
AcDbSymbolTable
70
2
0
VPORT
5
1F4
100
AcDbSymbolTableRecord
100
AcDbViewportTableRecord
2
*ACTIVE
70
0
10
0.0
20
0.0
11
1.0
21
1.0
12
148.5000000000
22
105.0000000000
13
0.0
23
0.0
14
1.0
24
1.0
15
0.0
25
0.0
16
0.0
26
0.0
36
1.0
17
0.0
27
0.0
37
0.0
40
210.0000000000
41
1.4142857143
42
50.0
43
0.0
44
0.0
50
0.0
51
0.0
71
0
72
100
73
1
74
1
75
0
76
0
77
0
78
0
0
ENDTAB
0
TABLE
2
LTYPE
5
5
100
AcDbSymbolTable
70
6
0
LTYPE
5
14
100
AcDbSymbolTableRecord
100
AcDbLinetypeTableRecord
2
BYBLOCK
70
0
3

72
65
73
0
40
0.0
0
LTYPE
5
15
100
AcDbSymbolTableRecord
100
AcDbLinetypeTableRecord
2
BYLAYER
70
0
3

72
65
73
0
40
0.0
0
LTYPE
5
16
100
AcDbSymbolTableRecord
100
AcDbLinetypeTableRecord
2
CONTINUOUS
70
64
3
Solid line
72
65
73
0
40
0
0
LTYPE
5
1F5
100
AcDbSymbolTableRecord
100
AcDbLinetypeTableRecord
2
CENTER
70
64
3
____ _ ____ _ ____ _ ____ _ ____ _ ____ _ ____
72
65
73
4
40
0.6
49
0.375
74
0
49
-0.075
74
0
49
0.075
74
0
49
-0.075
74
0
0
LTYPE
5
1F6
100
AcDbSymbolTableRecord
100
AcDbLinetypeTableRecord
2
HIDDEN
70
64
3
- - - - - - - - - - - - - - - - - - - -
72
65
73
2
40
0.2
49
0.1
74
0
49
-0.1
74
0
0
LTYPE
5
1F7
100
AcDbSymbolTableRecord
100
AcDbLinetypeTableRecord
2
PHANTOM
70
64
3
_____ _ _ _____ _ _ _____ _ _ _____
72
65
73
6
40
0.8
49
0.45
74
0
49
-0.05
74
0
49
0.1
74
0
49
-0.05
74
0
49
0.1
74
0
49
-0.05
74
0
0
LTYPE
5
1F8
100
AcDbSymbolTableRecord
100
AcDbLinetypeTableRecord
2
DOT
70
64
3
. . . . . . . . . . . . . . . . . . . .
72
65
73
2
40
0.2
49
0.1
74
0
49
-0.1
74
0
0
LTYPE
5
1F9
100
AcDbSymbolTableRecord
100
AcDbLinetypeTableRecord
2
DASHED
70
64
3
- - - - - - - - - - - - - - - - - - - -
72
65
73
2
40
0.2
49
0.1
74
0
49
-0.1
74
0
0
ENDTAB
0
TABLE
2
LAYER
5
2
100
AcDbSymbolTable
70
36
0
LAYER
5
10
100
AcDbSymbolTableRecord
100
AcDbLayerTableRecord
2
0
70
0
62
7
6
CONTINUOUS
0
LAYER
5
1FA
100
AcDbSymbolTableRecord
100
AcDbLayerTableRecord
2
DEFAULT_1
70
0
62
7
6
CENTER
0
LAYER
5
1FB
100
AcDbSymbolTableRecord
100
AcDbLayerTableRecord
2
DEFAULT_2
70
0
62
8
6
HIDDEN
0
LAYER
5
1FC
100
AcDbSymbolTableRecord
100
AcDbLayerTableRecord
2
DEFAULT_3
70
0
62
7
6
PHANTOM
0
LAYER
5
1FD
100
AcDbSymbolTableRecord
100
AcDbLayerTableRecord
2
ASSI
70
0
62
7
6
CONTINUOUS
0
LAYER
5
1FE
100
AcDbSymbolTableRecord
100
AcDbLayerTableRecord
2
COORDINATE
70
0
62
7
6
CONTINUOUS
0
LAYER
5
1FF
100
AcDbSymbolTableRecord
100
AcDbLayerTableRecord
2
COORD_ORIGINE
70
0
62
7
6
CONTINUOUS
0
LAYER
5
200
100
AcDbSymbolTableRecord
100
AcDbLayerTableRecord
2
COSMETICHE
70
0
62
7
6
CONTINUOUS
0
LAYER
5
201
100
AcDbSymbolTableRecord
100
AcDbLayerTableRecord
2
CURVE
70
0
62
7
6
CONTINUOUS
0
LAYER
5
202
100
AcDbSymbolTableRecord
100
AcDbLayerTableRecord
2
C_CONTATTI
70
0
62
7
6
CONTINUOUS
0
LAYER
5
203
100
AcDbSymbolTableRecord
100
AcDbLayerTableRecord
2
C_COPERCHIO
70
0
62
7
6
CONTINUOUS
0
LAYER
5
204
100
AcDbSymbolTableRecord
100
AcDbLayerTableRecord
2
C_CORPO
70
0
62
7
6
CONTINUOUS
0
LAYER
5
205
100
AcDbSymbolTableRecord
100
AcDbLayerTableRecord
2
C_OTTURATORE
70
0
62
7
6
CONTINUOUS
0
LAYER
5
206
100
AcDbSymbolTableRecord
100
AcDbLayerTableRecord
2
DRAFT
70
0
62
7
6
CONTINUOUS
0
LAYER
5
207
100
AcDbSymbolTableRecord
100
AcDbLayerTableRecord
2
NOTE
70
0
62
7
6
CONTINUOUS
0
LAYER
5
208
100
AcDbSymbolTableRecord
100
AcDbLayerTableRecord
2
PIANI
70
0
62
7
6
CONTINUOUS
0
LAYER
5
209
100
AcDbSymbolTableRecord
100
AcDbLayerTableRecord
2
PIANI_ORIGINE
70
0
62
7
6
CONTINUOUS
0
LAYER
5
20A
100
AcDbSymbolTableRecord
100
AcDbLayerTableRecord
2
PIANI_SFORMO
70
0
62
7
6
CONTINUOUS
0
LAYER
5
20B
100
AcDbSymbolTableRecord
100
AcDbLayerTableRecord
2
PUNTI
70
0
62
7
6
CONTINUOUS
0
LAYER
5
20C
100
AcDbSymbolTableRecord
100
AcDbLayerTableRecord
2
RACCORDO
70
0
62
7
6
CONTINUOUS
0
LAYER
5
20D
100
AcDbSymbolTableRecord
100
AcDbLayerTableRecord
2
SMUSSO
70
0
62
7
6
CONTINUOUS
0
LAYER
5
20E
100
AcDbSymbolTableRecord
100
AcDbLayerTableRecord
2
SUPERFICI
70
0
62
7
6
CONTINUOUS
0
LAYER
5
20F
100
AcDbSymbolTableRecord
100
AcDbLayerTableRecord
2
TRASH
70
0
62
7
6
CONTINUOUS
0
LAYER
5
210
100
AcDbSymbolTableRecord
100
AcDbLayerTableRecord
2
XSEC_DATUMS
70
0
62
7
6
CONTINUOUS
0
ENDTAB
0
TABLE
2
STYLE
5
3
100
AcDbSymbolTable
70
1
0
STYLE
5
11
100
AcDbSymbolTableRecord
100
AcDbTextStyleTableRecord
2
STANDARD
70
0
40
0.0
41
0.8000000000
50
0.0
71
0
42
0.2
3
txt
4

0
ENDTAB
0
TABLE
2
VIEW
5
6
100
AcDbSymbolTable
70
0
0
ENDTAB
0
TABLE
2
UCS
5
7
100
AcDbSymbolTable
70
0
0
ENDTAB
0
TABLE
2
APPID
5
9
100
AcDbSymbolTable
70
1
0
APPID
5
211
100
AcDbSymbolTableRecord
100
AcDbRegAppTableRecord
2
ACAD
70
0
0
ENDTAB
0
TABLE
2
DIMSTYLE
5
A
100
AcDbSymbolTable
70
1
0
DIMSTYLE
105
212
100
AcDbSymbolTableRecord
100
AcDbDimStyleTableRecord
2
STANDARD
70
0
3

4

5

6

7

40
1.0
41
3.0000000000
42
0.0625
43
0.38
44
0.18
45
0.0
46
0.0
47
0.0100000000
48
0.0100000000
140
3.0000000000
141
0.09
142
0.0
143
25.4
144
1.0000000000
145
0.0
146
1.0000000000
147
0.09
71
1
72
0
73
0
74
0
75
0
76
0
77
1
78
8
170
0
171
2
172
0
173
0
174
0
175
0
176
0
177
0
178
0
270
2
271
2
272
2
273
2
274
2
340
11
275
0
280
0
281
0
282
0
283
1
284
8
285
0
286
0
287
3
288
0
0
ENDTAB
0
TABLE
2
BLOCK_RECORD
5
1
100
AcDbSymbolTable
70
0
0
BLOCK_RECORD
5
1B
100
AcDbSymbolTableRecord
100
AcDbBlockTableRecord
2
*MODEL_SPACE
0
BLOCK_RECORD
5
1C
100
AcDbSymbolTableRecord
100
AcDbBlockTableRecord
2
*PAPER_SPACE
0
ENDTAB
0
ENDSEC
0
SECTION
2
BLOCKS
0
BLOCK
5
1E
100
AcDbEntity
8
0
100
AcDbBlockBegin
2
*MODEL_SPACE
70
0
10
0.0
20
0.0
30
0.0
3
*MODEL_SPACE
1

0
ENDBLK
5
1F
100
AcDbEntity
8
0
100
AcDbBlockEnd
0
BLOCK
5
20
100
AcDbEntity
8
0
100
AcDbBlockBegin
2
*PAPER_SPACE
70
0
10
0.0
20
0.0
30
0.0
3
*PAPER_SPACE
1

0
ENDBLK
5
21
100
AcDbEntity
8
0
100
AcDbBlockEnd
0
ENDSEC
0
SECTION
2
ENTITIES
0
LINE
5
213
100
AcDbEntity
8
0
100
AcDbLine
62
7
6
CONTINUOUS
10
-19.5138672474
20
27.9519074853
11
-18.1410147048
21
28.5871903735
0
LINE
5
214
100
AcDbEntity
8
0
100
AcDbLine
62
9
6
CONTINUOUS
10
-19.4161423532
20
27.9605829957
11
-18.0441967909
21
28.5954461819
0
LINE
5
215
100
AcDbEntity
8
0
100
AcDbLine
62
9
6
CONTINUOUS
10
-16.5576335063
20
28.2414287205
11
-17.9911517018
21
27.6212287428
0
LINE
5
216
100
AcDbEntity
8
0
100
AcDbLine
62
7
6
CONTINUOUS
10
-18.1409546802
20
28.5872181497
11
-18.1321810917
21
28.5909109618
0
LINE
5
217
100
AcDbEntity
8
0
100
AcDbLine
62
9
6
CONTINUOUS
10
-16.0980688415
20
28.4289308788
11
-16.5576335063
21
28.2414287205
0
LINE
5
218
100
AcDbEntity
8
0
100
AcDbLine
62
7
6
CONTINUOUS
10
-18.1321334000
20
28.5909292553
11
-17.6510557435
21
28.7738705546
0
LINE
5
219
100
AcDbEntity
8
0
100
AcDbLine
62
9
6
CONTINUOUS
10
-18.0441967909
20
28.5954461819
11
-17.5640284698
21
28.7780416846
0
LINE
5
21A
100
AcDbEntity
8
0
100
AcDbLine
62
7
6
CONTINUOUS
10
-23.0475784359
20
24.2185453176
11
-19.1368480055
21
26.2430333993
0
LINE
5
21B
100
AcDbEntity
8
0
100
AcDbLine
62
9
6
CONTINUOUS
10
-22.8430224108
20
24.2405301719
11
-19.2153108189
21
26.1185064127
0
LINE
5
21C
100
AcDbEntity
8
0
100
AcDbLine
62
7
6
CONTINUOUS
10
-16.3238504354
20
26.2062453855
11
-17.3971261042
21
25.6855149998
0
LINE
5
21D
100
AcDbEntity
8
0
100
AcDbLine
62
9
6
CONTINUOUS
10
-16.3575213643
20
27.9581530825
11
-17.7910395598
21
27.3379531047
0
LINE
5
21E
100
AcDbEntity
8
0
100
AcDbLine
62
9
6
CONTINUOUS
10
-15.8979566995
20
28.1456552408
11
-16.3575213643
21
27.9581530825
0
LINE
5
21F
100
AcDbEntity
8
0
100
AcDbLine
62
7
6
CONTINUOUS
10
-15.8856044704
20
27.5029653638
11
-16.3370027527
21
26.8905640716
0
LINE
5
220
100
AcDbEntity
8
0
100
AcDbLine
62
7
6
CONTINUOUS
10
-13.2582087736
20
26.7708011914
11
-13.5685316245
21
26.6272003378
0
LINE
5
221
100
AcDbEntity
8
0
100
AcDbLine
62
9
6
CONTINUOUS
10
-13.1807544425
20
26.7774058381
11
-13.4903517103
21
26.6341407456
0
LINE
5
222
100
AcDbEntity
8
0
100
AcDbLine
62
7
6
CONTINUOUS
10
-13.2511418831
20
26.7737776620
11
-13.2581607540
21
26.7708234123
0
LINE
5
223
100
AcDbEntity
8
0
100
AcDbLine
62
7
6
CONTINUOUS
10
-7.9561474131
20
28.4889038936
11
-12.0102061922
21
26.8922826256
0
LINE
5
224
100
AcDbEntity
8
0
100
AcDbLine
62
7
6
CONTINUOUS
10
-7.8635371460
20
27.1896012226
11
-8.1852485460
21
27.0629007253
0
LINE
5
225
100
AcDbEntity
8
0
100
AcDbLine
62
7
6
CONTINUOUS
10
-5.9768839044
20
27.6854068190
11
-7.7940633604
21
26.9697419692
0
LINE
5
226
100
AcDbEntity
8
0
100
AcDbLine
62
7
6
CONTINUOUS
10
-9.2452929071
20
28.4637617467
11
-14.9129582703
21
26.2638854960
0
LINE
5
227
100
AcDbEntity
8
0
100
AcDbLine
62
7
6
CONTINUOUS
10
-8.4709107126
20
28.5915751625
11
-13.2511037298
21
26.7737922968
0
LINE
5
228
100
AcDbEntity
8
0
100
AcDbLine
62
9
6
CONTINUOUS
10
-8.4012888946
20
28.5949120661
11
-13.1807544425
21
26.7774058381
0
LINE
5
229
100
AcDbEntity
8
0
100
AcDbLine
62
7
6
CONTINUOUS
10
-18.5855181195
20
-18.3711689360
11
-17.1605274681
21
-18.7105231889
0
LINE
5
22A
100
AcDbEntity
8
0
100
AcDbLine
62
7
6
CONTINUOUS
10
-2.3737274531
20
-22.2319241661
11
-3.7987181045
21
-21.8925699132
0
LINE
5
22B
100
AcDbEntity
8
0
100
AcDbLine
62
7
6
CONTINUOUS
10
-22.3634170960
20
-17.4444678257
11
-5.9442170592
21
-21.3546165391
0
LINE
5
22C
100
AcDbEntity
8
0
100
AcDbLine
62
9
6
CONTINUOUS
10
-2.4714477607
20
-22.0541838161
11
-3.8964384121
21
-21.7148295632
0
LINE
5
22D
100
AcDbEntity
8
0
100
AcDbLine
62
9
6
CONTINUOUS
10
-2.4781153856
20
-21.7072654529
11
-3.9031060371
21
-21.3679112000
0
LINE
5
22E
100
AcDbEntity
8
0
100
AcDbLine
62
9
6
CONTINUOUS
10
-2.2348492404
20
-21.5098527926
11
-3.9986162001
21
-21.0898206904
0
LINE
5
22F
100
AcDbEntity
8
0
100
AcDbLine
62
9
6
CONTINUOUS
10
-22.9396319895
20
-16.4380602371
11
-6.5368472379
21
-20.3442997341
0
LINE
5
230
100
AcDbEntity
8
0
100
AcDbLine
62
7
6
CONTINUOUS
10
-5.9450279182
20
-21.3544228224
11
-5.9442410506
21
-21.3546108257
0
LINE
5
231
100
AcDbEntity
8
0
100
AcDbLine
62
9
6
CONTINUOUS
10
-6.6087956612
20
25.2123273863
11
-2.0344133334
21
27.0786731368
0
LINE
5
232
100
AcDbEntity
8
0
100
AcDbLine
62
7
6
CONTINUOUS
10
-8.1747640160
20
26.5173877456
11
-8.7976291747
21
26.2720830242
0
LINE
5
233
100
AcDbEntity
8
0
100
AcDbLine
62
7
6
CONTINUOUS
10
-7.7835788304
20
26.4242289896
11
-6.4902978959
21
26.9335654245
0
LINE
5
234
100
AcDbEntity
8
0
100
AcDbLine
62
7
6
CONTINUOUS
10
-6.5336135941
20
25.5880600415
11
-2.4795548149
21
27.1846813094
0
LINE
5
235
100
AcDbEntity
8
0
100
AcDbLine
62
7
6
CONTINUOUS
10
-2.9386451677
20
-20.5072223771
11
-1.6628380908
21
-20.8110493230
0
LINE
5
236
100
AcDbEntity
8
0
100
AcDbLine
62
9
6
CONTINUOUS
10
-1.9204629469
20
-20.1733127890
11
-1.6899137726
21
-20.2282168985
0
LINE
5
237
100
AcDbEntity
8
0
100
AcDbLine
62
7
6
CONTINUOUS
10
-23.1284680891
20
-16.3107464058
11
-23.1284626577
21
-16.3108664567
0
LINE
5
238
100
AcDbEntity
8
0
100
AcDbLine
62
7
6
CONTINUOUS
10
-6.4268652402
20
23.8493288584
11
-6.7500335464
21
23.6925345122
0
LINE
5
239
100
AcDbEntity
8
0
100
AcDbLine
62
7
6
CONTINUOUS
10
-4.7270672324
20
24.4305065081
11
-3.3542146899
21
25.0657893963
0
LINE
5
23A
100
AcDbEntity
8
0
100
AcDbLine
62
9
6
CONTINUOUS
10
-4.6293423382
20
24.4391820185
11
-3.2573967759
21
25.0740452047
0
LINE
5
23B
100
AcDbEntity
8
0
100
AcDbLine
62
9
6
CONTINUOUS
10
-6.9322875904
20
25.0723712365
11
-6.6087956612
21
25.2123273863
0
LINE
5
23C
100
AcDbEntity
8
0
100
AcDbLine
62
9
6
CONTINUOUS
10
-6.7721978768
20
24.8457507260
11
-6.4487059476
21
24.9857068758
0
LINE
5
23D
100
AcDbEntity
8
0
100
AcDbLine
62
7
6
CONTINUOUS
10
-3.3541499403
20
25.0658191597
11
-3.3453771652
21
25.0695116297
0
LINE
5
23E
100
AcDbEntity
8
0
100
AcDbLine
62
9
6
CONTINUOUS
10
-6.4487059476
20
24.9857068758
11
-1.8743236199
21
26.8520526264
0
LINE
5
23F
100
AcDbEntity
8
0
100
AcDbLine
62
7
6
CONTINUOUS
10
-6.4268652402
20
23.8493288584
11
-1.7827472448
21
25.7441267272
0
LINE
5
240
100
AcDbEntity
8
0
100
AcDbLine
62
7
6
CONTINUOUS
10
-1.2826616774
20
26.5675017469
11
-1.7145533935
21
26.3974086286
0
LINE
5
241
100
AcDbEntity
8
0
100
AcDbLine
62
7
6
CONTINUOUS
10
-1.3901793361
20
26.6519143467
11
-1.7169779748
21
26.5235602605
0
LINE
5
242
100
AcDbEntity
8
0
100
AcDbLine
62
7
6
CONTINUOUS
10
-3.3453333851
20
25.0695282781
11
-2.8642557285
21
25.2524695773
0
LINE
5
243
100
AcDbEntity
8
0
100
AcDbLine
62
9
6
CONTINUOUS
10
-3.2573967759
20
25.0740452047
11
-2.7772284548
21
25.2566407073
0
LINE
5
244
100
AcDbEntity
8
0
100
AcDbLine
62
7
6
CONTINUOUS
10
-0.2412806424
20
-20.6356356343
11
-0.7085323910
21
-20.4231767065
0
LINE
5
245
100
AcDbEntity
8
0
100
AcDbLine
62
9
6
CONTINUOUS
10
-1.7708334913
20
24.7200277433
11
-3.2043516868
21
24.0998277656
0
LINE
5
246
100
AcDbEntity
8
0
100
AcDbLine
62
9
6
CONTINUOUS
10
-1.5707213493
20
24.4367521053
11
-3.0042395448
21
23.8165521275
0
LINE
5
247
100
AcDbEntity
8
0
100
AcDbLine
62
7
6
CONTINUOUS
10
3.0035140194
20
24.8988168998
11
-1.3785301822
21
23.0407305032
0
LINE
5
248
100
AcDbEntity
8
0
100
AcDbLine
62
9
6
CONTINUOUS
10
-1.3112688265
20
24.9075299016
11
-1.7708334913
21
24.7200277433
0
LINE
5
249
100
AcDbEntity
8
0
100
AcDbLine
62
9
6
CONTINUOUS
10
-1.1111566845
20
24.6242542635
11
-1.5707213493
21
24.4367521053
0
LINE
5
24A
100
AcDbEntity
8
0
100
AcDbLine
62
7
6
CONTINUOUS
10
1.9857473252
20
25.7891468192
11
-1.0575308935
21
24.5729774312
0
LINE
5
24B
100
AcDbEntity
8
0
100
AcDbLine
62
7
6
CONTINUOUS
10
3.6796946044
20
25.4445497357
11
3.0955941552
21
25.2138842526
0
LINE
5
24C
100
AcDbEntity
8
0
100
AcDbLine
62
9
6
CONTINUOUS
10
-0.9143640181
20
22.9301916995
11
-1.5399801501
21
22.6922861838
0
LINE
5
24D
100
AcDbEntity
8
0
100
AcDbLine
62
7
6
CONTINUOUS
10
-20.3859602008
20
12.0155492519
11
-20.2375165329
21
4.2919843556
0
LINE
5
24E
100
AcDbEntity
8
0
100
AcDbLine
62
7
6
CONTINUOUS
10
-19.6486471372
20
27.1903688780
11
-19.6588306152
21
27.7202180418
0
LINE
5
24F
100
AcDbEntity
8
0
100
AcDbLine
62
9
6
CONTINUOUS
10
-19.5578460200
20
27.3126452041
11
-19.5645136450
21
27.6595635673
0
LINE
5
250
100
AcDbEntity
8
0
100
AcDbLine
62
9
6
CONTINUOUS
10
-2.6236846449
20
22.1672952944
11
-6.4143775479
21
20.3281322213
0
LINE
5
251
100
AcDbEntity
8
0
100
AcDbLine
62
7
6
CONTINUOUS
10
-1.5370451070
20
22.6845679506
11
-2.6102491300
21
22.1638723259
0
LINE
5
252
100
AcDbEntity
8
0
100
AcDbLine
62
9
6
CONTINUOUS
10
-1.1504139527
20
22.1212439409
11
-6.0033060163
21
19.7667245668
0
LINE
5
253
100
AcDbEntity
8
0
100
AcDbLine
62
7
6
CONTINUOUS
10
3.0097209764
20
24.5758672193
11
-0.7843724079
21
22.8721368192
0
LINE
5
254
100
AcDbEntity
8
0
100
AcDbLine
62
7
6
CONTINUOUS
10
-0.5674382723
20
22.6036841419
11
3.6986671981
21
24.4879135031
0
LINE
5
255
100
AcDbEntity
8
0
100
AcDbLine
62
7
6
CONTINUOUS
10
7.2158947467
20
24.6024217145
11
4.3992658599
21
23.4961569260
0
LINE
5
256
100
AcDbEntity
8
0
100
AcDbLine
62
9
6
CONTINUOUS
10
-0.5138958541
20
22.3632951905
11
-1.1504139527
21
22.1212439409
0
LINE
5
257
100
AcDbEntity
8
0
100
AcDbLine
62
7
6
CONTINUOUS
10
-19.1168941539
20
26.3607807923
11
-19.1280283664
21
26.9400969312
0
LINE
5
258
100
AcDbEntity
8
0
100
AcDbLine
62
9
6
CONTINUOUS
10
-18.1395229936
20
27.3202093144
11
-18.1328553686
21
26.9732909512
0
LINE
5
259
100
AcDbEntity
8
0
100
AcDbLine
62
9
6
CONTINUOUS
10
-17.7910395598
20
27.3379531047
11
-17.7791638574
21
26.7200570385
0
LINE
5
25A
100
AcDbEntity
8
0
100
AcDbLine
62
7
6
CONTINUOUS
10
-17.2801796480
20
25.9236566983
11
-17.2913084525
21
26.5026914552
0
LINE
5
25B
100
AcDbEntity
8
0
100
AcDbLine
62
7
6
CONTINUOUS
10
5.1920795569
20
22.7661467125
11
8.1679293213
21
24.0394808361
0
LINE
5
25C
100
AcDbEntity
8
0
100
AcDbLine
62
9
6
CONTINUOUS
10
5.4126072947
20
22.5098315855
11
-0.4687816154
21
20.0159889348
0
LINE
5
25D
100
AcDbEntity
8
0
100
AcDbLine
62
7
6
CONTINUOUS
10
5.4663672858
20
22.4305330310
11
8.1933509306
21
23.5604879244
0
LINE
5
25E
100
AcDbEntity
8
0
100
AcDbLine
62
9
6
CONTINUOUS
10
4.9250366803
20
22.7518839242
11
5.1025762661
21
22.8228331421
0
LINE
5
25F
100
AcDbEntity
8
0
100
AcDbLine
62
7
6
CONTINUOUS
10
12.2857686872
20
23.3950571034
11
9.1482575055
21
22.1560312934
0
LINE
5
260
100
AcDbEntity
8
0
100
AcDbLine
62
9
6
CONTINUOUS
10
-12.8157814657
20
-8.0484588575
11
-17.5100036926
21
-6.9305537854
0
LINE
5
261
100
AcDbEntity
8
0
100
AcDbLine
62
9
6
CONTINUOUS
10
-12.9403027633
20
-7.6079454114
11
-17.0941161295
21
-6.6187359522
0
LINE
5
262
100
AcDbEntity
8
0
100
AcDbLine
62
7
6
CONTINUOUS
10
-16.3838463072
20
-3.7425540349
11
-16.3347059630
21
-6.2993396723
0
LINE
5
263
100
AcDbEntity
8
0
100
AcDbLine
62
7
6
CONTINUOUS
10
-16.3575213643
20
27.9581530825
11
-16.3238504354
21
26.2062453855
0
LINE
5
264
100
AcDbEntity
8
0
100
AcDbLine
62
9
6
CONTINUOUS
10
-15.8856044704
20
27.5029653638
11
-15.8979566995
21
28.1456552408
0
LINE
5
265
100
AcDbEntity
8
0
100
AcDbLine
62
7
6
CONTINUOUS
10
-15.8356218971
20
27.6412461510
11
-15.8462819017
21
28.1958891241
0
LINE
5
266
100
AcDbEntity
8
0
100
AcDbLine
62
9
6
CONTINUOUS
10
5.8965743928
20
21.0617095610
11
-0.4372620804
21
18.3760188542
0
LINE
5
267
100
AcDbEntity
8
0
100
AcDbLine
62
9
6
CONTINUOUS
10
13.0691767462
20
23.2084924713
11
5.9114420699
21
20.2881402271
0
LINE
5
268
100
AcDbEntity
8
0
100
AcDbLine
62
9
6
CONTINUOUS
10
13.8696253141
20
22.0753899191
11
6.2385666798
21
18.9619217317
0
LINE
5
269
100
AcDbEntity
8
0
100
AcDbLine
62
7
6
CONTINUOUS
10
-16.3347059630
20
-6.2993396723
11
-12.9555535294
21
-7.1040675830
0
LINE
5
26A
100
AcDbEntity
8
0
100
AcDbLine
62
9
6
CONTINUOUS
10
-13.7464564658
20
26.3786842402
11
-13.7464357179
21
26.3778361563
0
LINE
5
26B
100
AcDbEntity
8
0
100
AcDbLine
62
7
6
CONTINUOUS
10
-13.7240585539
20
25.2133051261
11
-13.7464544612
21
26.3785703422
0
LINE
5
26C
100
AcDbEntity
8
0
100
AcDbLine
62
9
6
CONTINUOUS
10
-13.5352452155
20
25.0826620496
11
-13.5577844948
21
26.2553869536
0
LINE
5
26D
100
AcDbEntity
8
0
100
AcDbLine
62
7
6
CONTINUOUS
10
-1.5502027377
20
23.3691630944
11
-1.0988044555
21
23.9815643866
0
LINE
5
26E
100
AcDbEntity
8
0
100
AcDbLine
62
7
6
CONTINUOUS
10
-10.4342493062
20
8.8372709367
11
-10.3168829275
21
2.7306659499
0
LINE
5
26F
100
AcDbEntity
8
0
100
AcDbLine
62
7
6
CONTINUOUS
10
-21.0457755108
20
3.9520430142
11
-20.2375165329
21
4.2919843556
0
LINE
5
270
100
AcDbEntity
8
0
100
AcDbLine
62
7
6
CONTINUOUS
10
-19.4073119337
20
4.5972315054
11
-20.1708363878
21
4.2761048193
0
LINE
5
271
100
AcDbEntity
8
0
100
AcDbLine
62
9
6
CONTINUOUS
10
-8.7976291747
20
26.2720830242
11
-8.7948322396
21
26.1265577245
0
LINE
5
272
100
AcDbEntity
8
0
100
AcDbLine
62
7
6
CONTINUOUS
10
-8.1747640160
20
26.5173877456
11
-8.1852485460
21
27.0629007253
0
LINE
5
273
100
AcDbEntity
8
0
100
AcDbLine
62
9
6
CONTINUOUS
10
-7.8635371460
20
27.1896012226
11
-7.8888020503
21
28.5041411465
0
LINE
5
274
100
AcDbEntity
8
0
100
AcDbLine
62
7
6
CONTINUOUS
10
-7.7940633604
20
26.9697419692
11
-7.7835788304
21
26.4242289896
0
LINE
5
275
100
AcDbEntity
8
0
100
AcDbLine
62
7
6
CONTINUOUS
10
-7.7800713551
20
27.2644592035
11
-7.8028960105
21
28.4520323095
0
LINE
5
276
100
AcDbEntity
8
0
100
AcDbLine
62
9
6
CONTINUOUS
10
-7.4465318231
20
23.6326660215
11
-7.4690711023
21
24.8053909255
0
LINE
5
277
100
AcDbEntity
8
0
100
AcDbLine
62
9
6
CONTINUOUS
10
-7.3923936449
20
26.3310702336
11
-7.3827602485
21
25.8298419677
0
LINE
5
278
100
AcDbEntity
8
0
100
AcDbLine
62
9
6
CONTINUOUS
10
-6.7500335464
20
23.6925345122
11
-6.7721978768
21
24.8457507260
0
LINE
5
279
100
AcDbEntity
8
0
100
AcDbLine
62
7
6
CONTINUOUS
10
-6.4487059476
20
24.9857068758
11
-6.4268652402
21
23.8493288584
0
LINE
5
27A
100
AcDbEntity
8
0
100
AcDbLine
62
7
6
CONTINUOUS
10
-11.1233151773
20
2.3914929023
11
-10.3168829275
21
2.7306659499
0
LINE
5
27B
100
AcDbEntity
8
0
100
AcDbLine
62
7
6
CONTINUOUS
10
-9.4833674563
20
3.0373056017
11
-10.2502027825
21
2.7147864136
0
LINE
5
27C
100
AcDbEntity
8
0
100
AcDbLine
62
9
6
CONTINUOUS
10
-19.2711673595
20
3.1243510988
11
-21.4618043987
21
3.6460401325
0
LINE
5
27D
100
AcDbEntity
8
0
100
AcDbLine
62
9
6
CONTINUOUS
10
-19.3905076141
20
3.5578494103
11
-21.0457755108
21
3.9520430142
0
LINE
5
27E
100
AcDbEntity
8
0
100
AcDbLine
62
9
6
CONTINUOUS
10
-9.3487152170
20
1.5642846865
11
-11.5393522562
21
2.0859737202
0
LINE
5
27F
100
AcDbEntity
8
0
100
AcDbLine
62
7
6
CONTINUOUS
10
-20.2375165329
20
4.2919843556
11
-19.3994120143
21
4.0923940407
0
LINE
5
280
100
AcDbEntity
8
0
100
AcDbLine
62
9
6
CONTINUOUS
10
-9.4676577626
20
1.9972065367
11
-11.1233151773
21
2.3914929023
0
LINE
5
281
100
AcDbEntity
8
0
100
AcDbLine
62
7
6
CONTINUOUS
10
-10.3168829275
20
2.7306659499
11
-9.4759176233
21
2.5303943535
0
LINE
5
282
100
AcDbEntity
8
0
100
AcDbLine
62
9
6
CONTINUOUS
10
-3.9907557250
20
-21.6541569223
11
-3.9907492008
21
-21.6544306433
0
LINE
5
283
100
AcDbEntity
8
0
100
AcDbLine
62
7
6
CONTINUOUS
10
-5.3470040262
20
26.9958576981
11
-5.3429035916
21
26.7825109605
0
LINE
5
284
100
AcDbEntity
8
0
100
AcDbLine
62
7
6
CONTINUOUS
10
-3.9907553823
20
-21.6541750887
11
-4.0009388603
21
-21.1243259249
0
LINE
5
285
100
AcDbEntity
8
0
100
AcDbLine
62
7
6
CONTINUOUS
10
-4.8618471222
20
23.6689679022
11
-4.8720306002
21
24.1988170646
0
LINE
5
286
100
AcDbEntity
8
0
100
AcDbLine
62
9
6
CONTINUOUS
10
-3.8964384121
20
-21.7148295632
11
-3.9031060371
21
-21.3679112000
0
LINE
5
287
100
AcDbEntity
8
0
100
AcDbLine
62
9
6
CONTINUOUS
10
-4.7710460050
20
23.7912442269
11
-4.7777136300
21
24.1381625901
0
LINE
5
288
100
AcDbEntity
8
0
100
AcDbLine
62
7
6
CONTINUOUS
10
-4.3412283514
20
23.4186959540
11
-4.3300995470
21
22.8396611971
0
LINE
5
289
100
AcDbEntity
8
0
100
AcDbLine
62
7
6
CONTINUOUS
10
14.4118422831
20
14.3279817783
11
14.8577279769
21
14.5877594864
0
LINE
5
28A
100
AcDbEntity
8
0
100
AcDbLine
62
9
6
CONTINUOUS
10
-3.3527229786
20
23.7988083371
11
-3.3460553536
21
23.4518899740
0
LINE
5
28B
100
AcDbEntity
8
0
100
AcDbLine
62
9
6
CONTINUOUS
10
-2.4781153856
20
-21.7072654529
11
-2.4714477607
21
-22.0541838161
0
LINE
5
28C
100
AcDbEntity
8
0
100
AcDbLine
62
9
6
CONTINUOUS
10
-3.0042395448
20
23.8165521275
11
-2.9923638424
21
23.1986560613
0
LINE
5
28D
100
AcDbEntity
8
0
100
AcDbLine
62
9
6
CONTINUOUS
10
-2.1348400293
20
-21.4185439596
11
-2.1229643269
21
-22.0364400258
0
LINE
5
28E
100
AcDbEntity
8
0
100
AcDbLine
62
7
6
CONTINUOUS
10
-2.5045084375
20
22.9812904780
11
-2.4933742250
21
22.4019743390
0
LINE
5
28F
100
AcDbEntity
8
0
100
AcDbLine
62
7
6
CONTINUOUS
10
-1.6739723033
20
-20.2317331840
11
-1.6628380908
21
-20.8110493230
0
LINE
5
290
100
AcDbEntity
8
0
100
AcDbLine
62
9
6
CONTINUOUS
10
-14.0587209223
20
-2.7131048750
11
-16.3831763285
21
-3.6907352019
0
LINE
5
291
100
AcDbEntity
8
0
100
AcDbLine
62
9
6
CONTINUOUS
10
-17.1711042733
20
-4.0736626725
11
-16.3838463072
21
-3.7425540349
0
LINE
5
292
100
AcDbEntity
8
0
100
AcDbLine
62
7
6
CONTINUOUS
10
-16.1207192530
20
-2.0943022033
11
-16.1183549019
21
-2.0933101939
0
LINE
5
293
100
AcDbEntity
8
0
100
AcDbLine
62
9
6
CONTINUOUS
10
-1.7827472448
20
25.7441267272
11
-1.8041716585
21
26.8588448698
0
LINE
5
294
100
AcDbEntity
8
0
100
AcDbLine
62
7
6
CONTINUOUS
10
-1.7034047433
20
25.8173412897
11
-1.7233484386
21
26.8550172492
0
LINE
5
295
100
AcDbEntity
8
0
100
AcDbLine
62
7
6
CONTINUOUS
10
-0.6880137794
20
-21.4907657174
11
-0.7208955428
21
-19.7799185128
0
LINE
5
296
100
AcDbEntity
8
0
100
AcDbLine
62
7
6
CONTINUOUS
10
-1.5370451070
20
22.6845679506
11
-1.5707213493
21
24.4367521053
0
LINE
5
297
100
AcDbEntity
8
0
100
AcDbLine
62
9
6
CONTINUOUS
10
-0.2289284133
20
-21.2783255112
11
-0.2412806424
21
-20.6356356343
0
LINE
5
298
100
AcDbEntity
8
0
100
AcDbLine
62
9
6
CONTINUOUS
10
-1.0988044555
20
23.9815643866
11
-1.1111566845
21
24.6242542635
0
LINE
5
299
100
AcDbEntity
8
0
100
AcDbLine
62
7
6
CONTINUOUS
10
-0.1772536156
20
-21.2280916279
11
-0.1879136201
21
-20.6734486547
0
LINE
5
29A
100
AcDbEntity
8
0
100
AcDbLine
62
7
6
CONTINUOUS
10
-1.0488218821
20
24.1198451723
11
-1.0594818867
21
24.6744881469
0
LINE
5
29B
100
AcDbEntity
8
0
100
AcDbLine
62
7
6
CONTINUOUS
10
-0.5138958541
20
22.3632951905
11
0.2826260451
21
-19.0799584576
0
LINE
5
29C
100
AcDbEntity
8
0
100
AcDbLine
62
7
6
CONTINUOUS
10
-17.0941161295
20
-6.6187359522
11
-16.3347059630
21
-6.2993396723
0
LINE
5
29D
100
AcDbEntity
8
0
100
AcDbLine
62
7
6
CONTINUOUS
10
-13.0238996096
20
-4.9507894343
11
-16.2680258179
21
-6.3152192087
0
LINE
5
29E
100
AcDbEntity
8
0
100
AcDbLine
62
7
6
CONTINUOUS
10
-11.2885804820
20
9.0407255472
11
-9.5452192471
21
8.6255529642
0
LINE
5
29F
100
AcDbEntity
8
0
100
AcDbLine
62
9
6
CONTINUOUS
10
-11.6213798223
20
9.3108835991
11
-9.4307427830
21
8.7891945654
0
LINE
5
2A0
100
AcDbEntity
8
0
100
AcDbLine
62
7
6
CONTINUOUS
10
-21.2291966101
20
12.2163617004
11
-19.4862922851
21
11.8012979281
0
LINE
5
2A1
100
AcDbEntity
8
0
100
AcDbLine
62
9
6
CONTINUOUS
10
-21.5621792436
20
12.4870486912
11
-19.3715422043
21
11.9653596576
0
LINE
5
2A2
100
AcDbEntity
8
0
100
AcDbLine
62
9
6
CONTINUOUS
10
3.0035140194
20
24.8988168998
11
3.0097209764
21
24.5758672193
0
LINE
5
2A3
100
AcDbEntity
8
0
100
AcDbLine
62
9
6
CONTINUOUS
10
3.7761415938
20
-15.3012084569
11
3.7797138071
21
-15.4870716945
0
LINE
5
2A4
100
AcDbEntity
8
0
100
AcDbLine
62
7
6
CONTINUOUS
10
3.1049611205
20
25.0982719784
11
3.1130224145
21
24.6788406294
0
LINE
5
2A5
100
AcDbEntity
8
0
100
AcDbLine
62
7
6
CONTINUOUS
10
3.8805359553
20
-15.2551001452
11
3.8849661773
21
-15.4856058189
0
LINE
5
2A6
100
AcDbEntity
8
0
100
AcDbLine
62
7
6
CONTINUOUS
10
5.7265310089
20
21.9887461152
11
5.7279594774
21
21.9144225077
0
LINE
5
2A7
100
AcDbEntity
8
0
100
AcDbLine
62
7
6
CONTINUOUS
10
6.5370916894
20
-12.2645816815
11
6.5144372271
21
-11.0858637702
0
LINE
5
2A8
100
AcDbEntity
8
0
100
AcDbLine
62
7
6
CONTINUOUS
10
5.9192288551
20
19.8829916497
11
5.8965743928
21
21.0617095610
0
LINE
5
2A9
100
AcDbEntity
8
0
100
AcDbLine
62
7
6
CONTINUOUS
10
8.1881452914
20
23.8313387663
11
8.1933509306
21
23.5604879244
0
LINE
5
2AA
100
AcDbEntity
8
0
100
AcDbLine
62
7
6
CONTINUOUS
10
-3.8082184733
20
-20.7923961490
11
-3.9509562869
21
-20.9860451391
0
LINE
5
2AB
100
AcDbEntity
8
0
100
AcDbLine
62
9
6
CONTINUOUS
10
-23.6881110801
20
22.5055128616
11
-7.2853263286
21
18.5992733646
0
LINE
5
2AC
100
AcDbEntity
8
0
100
AcDbLine
62
7
6
CONTINUOUS
10
-19.1280283664
20
26.9400969312
11
-19.5952801150
21
27.1525558590
0
LINE
5
2AD
100
AcDbEntity
8
0
100
AcDbLine
62
7
6
CONTINUOUS
10
-1.6628380908
20
-20.8110493230
11
-2.1348400293
21
-21.4185439596
0
LINE
5
2AE
100
AcDbEntity
8
0
100
AcDbLine
62
9
6
CONTINUOUS
10
6.7933639726
20
-9.9043341137
11
14.4164638637
21
-6.3767703252
0
LINE
5
2AF
100
AcDbEntity
8
0
100
AcDbLine
62
7
6
CONTINUOUS
10
6.5837608794
20
-10.5544735937
11
14.0433095836
21
-7.1025925658
0
LINE
5
2B0
100
AcDbEntity
8
0
100
AcDbLine
62
9
6
CONTINUOUS
10
-22.8430224108
20
24.2405301719
11
-6.4143775479
21
20.3281322213
0
LINE
5
2B1
100
AcDbEntity
8
0
100
AcDbLine
62
7
6
CONTINUOUS
10
-17.2913084525
20
26.5026914552
11
-17.7791638574
21
26.7200570385
0
LINE
5
2B2
100
AcDbEntity
8
0
100
AcDbLine
62
9
6
CONTINUOUS
10
13.8696253141
20
22.0753899191
11
13.9339132594
21
18.7304704320
0
LINE
5
2B3
100
AcDbEntity
8
0
100
AcDbLine
62
9
6
CONTINUOUS
10
14.0391387818
20
13.2555575387
11
14.4164638637
21
-6.3767703252
0
LINE
5
2B4
100
AcDbEntity
8
0
100
AcDbLine
62
7
6
CONTINUOUS
10
14.0763245053
20
22.2763254524
11
14.1406102941
21
18.9315181668
0
LINE
5
2B5
100
AcDbEntity
8
0
100
AcDbLine
62
7
6
CONTINUOUS
10
14.2458379730
20
13.4564930718
11
14.6231630548
21
-6.1758347919
0
LINE
5
2B6
100
AcDbEntity
8
0
100
AcDbLine
62
7
6
CONTINUOUS
10
4.4576125150
20
-15.0002202307
11
5.6282215589
21
-13.8350188578
0
LINE
5
2B7
100
AcDbEntity
8
0
100
AcDbLine
62
7
6
CONTINUOUS
10
6.1045944854
20
-13.4944524085
11
5.9622577517
21
-13.6361316125
0
LINE
5
2B8
100
AcDbEntity
8
0
100
AcDbLine
62
7
6
CONTINUOUS
10
5.8055783813
20
-13.7545604109
11
5.9622577517
21
-13.6361316125
0
LINE
5
2B9
100
AcDbEntity
8
0
100
AcDbLine
62
9
6
CONTINUOUS
10
5.8055783813
20
-13.7545604109
11
5.6282215589
21
-13.8350188578
0
LINE
5
2BA
100
AcDbEntity
8
0
100
AcDbLine
62
9
6
CONTINUOUS
10
0.2059922714
20
-15.0926821213
11
6.5370916894
21
-12.2645816815
0
LINE
5
2BB
100
AcDbEntity
8
0
100
AcDbLine
62
9
6
CONTINUOUS
10
0.2257471132
20
-16.1205319787
11
6.1045944854
21
-13.4944524085
0
LINE
5
2BC
100
AcDbEntity
8
0
100
AcDbLine
62
9
6
CONTINUOUS
10
-2.6236846449
20
22.1672952944
11
-4.4418693596
21
22.6002867074
0
LINE
5
2BD
100
AcDbEntity
8
0
100
AcDbLine
62
9
6
CONTINUOUS
10
-17.3971261042
20
25.6855149998
11
-19.2153108189
21
26.1185064127
0
LINE
5
2BE
100
AcDbEntity
8
0
100
AcDbLine
62
9
6
CONTINUOUS
10
-2.5093265105
20
22.4060533885
11
-4.3300995470
21
22.8396611971
0
LINE
5
2BF
100
AcDbEntity
8
0
100
AcDbLine
62
9
6
CONTINUOUS
10
-17.2801796480
20
25.9236566983
11
-19.1009526845
21
26.3572645068
0
LINE
5
2C0
100
AcDbEntity
8
0
100
AcDbLine
62
7
6
CONTINUOUS
10
-7.4465318231
20
23.6326660215
11
-13.5352452155
21
25.0826620496
0
LINE
5
2C1
100
AcDbEntity
8
0
100
AcDbLine
62
7
6
CONTINUOUS
10
-4.3399530442
20
23.3523413669
11
-6.4268652402
21
23.8493288584
0
LINE
5
2C2
100
AcDbEntity
8
0
100
AcDbLine
62
7
6
CONTINUOUS
10
-13.7312761193
20
25.5888370401
11
-16.3238504354
21
26.2062453855
0
LINE
5
2C3
100
AcDbEntity
8
0
100
AcDbLine
62
7
6
CONTINUOUS
10
-4.3412283514
20
23.4186959540
11
-2.5045084375
21
22.9812904780
0
LINE
5
2C4
100
AcDbEntity
8
0
100
AcDbLine
62
7
6
CONTINUOUS
10
-17.2913084525
20
26.5026914552
11
-19.1280283664
21
26.9400969312
0
LINE
5
2C5
100
AcDbEntity
8
0
100
AcDbLine
62
9
6
CONTINUOUS
10
-19.6454752967
20
27.1806910259
11
-17.8817083370
21
26.7606589237
0
LINE
5
2C6
100
AcDbEntity
8
0
100
AcDbLine
62
9
6
CONTINUOUS
10
-3.0949083220
20
23.2392579465
11
-4.8586752817
21
23.6592900487
0
LINE
5
2C7
100
AcDbEntity
8
0
100
AcDbLine
62
7
6
CONTINUOUS
10
-2.9923638424
20
23.1986560613
11
-2.5045084375
21
22.9812904780
0
LINE
5
2C8
100
AcDbEntity
8
0
100
AcDbLine
62
7
6
CONTINUOUS
10
-4.8084801000
20
23.6311548817
11
-4.3412283514
21
23.4186959540
0
LINE
5
2C9
100
AcDbEntity
8
0
100
AcDbLine
62
7
6
CONTINUOUS
10
4.9250366803
20
22.7518839242
11
3.6986671981
21
24.4879135031
0
LINE
5
2CA
100
AcDbEntity
8
0
100
AcDbLine
62
7
6
CONTINUOUS
10
5.4126072947
20
22.5098315855
11
5.2634905359
21
22.7209189517
0
LINE
5
2CB
100
AcDbEntity
8
0
100
AcDbLine
62
9
6
CONTINUOUS
10
15.6011912475
20
17.8450877658
11
15.6449906777
21
15.5661913587
0
LINE
5
2CC
100
AcDbEntity
8
0
100
AcDbLine
62
7
6
CONTINUOUS
10
15.6634932466
20
17.8901630043
11
15.7067081932
21
15.6416774401
0
LINE
5
2CD
100
AcDbEntity
8
0
100
AcDbLine
62
7
6
CONTINUOUS
10
2.7947482606
20
-16.3033945175
11
0.2514368348
21
-17.4571752654
0
LINE
5
2CE
100
AcDbEntity
8
0
100
AcDbLine
62
7
6
CONTINUOUS
10
3.7797138071
20
-15.4870716945
11
0.2439283384
21
-17.0665061305
0
LINE
5
2CF
100
AcDbEntity
8
0
100
AcDbLine
62
7
6
CONTINUOUS
10
0.2400174931
20
-16.8630237711
11
4.4576125150
21
-15.0002202307
0
LINE
5
2D0
100
AcDbEntity
8
0
100
AcDbLine
62
9
6
CONTINUOUS
10
-19.5578460200
20
27.3126452041
11
-18.1328553686
21
26.9732909512
0
LINE
5
2D1
100
AcDbEntity
8
0
100
AcDbLine
62
9
6
CONTINUOUS
10
-3.3460553536
20
23.4518899740
11
-4.7710460050
21
23.7912442269
0
LINE
5
2D2
100
AcDbEntity
8
0
100
AcDbLine
62
7
6
CONTINUOUS
10
-0.9143640181
20
22.9301916995
11
-1.5446507427
21
23.0802912671
0
LINE
5
2D3
100
AcDbEntity
8
0
100
AcDbLine
62
7
6
CONTINUOUS
10
-14.9129582703
20
26.2638854960
11
-16.3314507577
21
26.6016922443
0
LINE
5
2D4
100
AcDbEntity
8
0
100
AcDbLine
62
9
6
CONTINUOUS
10
-19.5645136450
20
27.6595635673
11
-18.1395229936
21
27.3202093144
0
LINE
5
2D5
100
AcDbEntity
8
0
100
AcDbLine
62
9
6
CONTINUOUS
10
-3.3527229786
20
23.7988083371
11
-4.7777136300
21
24.1381625901
0
LINE
5
2D6
100
AcDbEntity
8
0
100
AcDbLine
62
9
6
CONTINUOUS
10
-13.5577844948
20
26.2553869536
11
-7.4690711023
21
24.8053909255
0
LINE
5
2D7
100
AcDbEntity
8
0
100
AcDbLine
62
7
6
CONTINUOUS
10
5.7714010681
20
21.7906132558
11
5.7894024280
21
21.7863263238
0
LINE
5
2D8
100
AcDbEntity
8
0
100
AcDbLine
62
9
6
CONTINUOUS
10
-13.4390874614
20
26.4962024963
11
-7.3503740689
21
25.0462064682
0
LINE
5
2D9
100
AcDbEntity
8
0
100
AcDbLine
62
9
6
CONTINUOUS
10
-19.4161423532
20
27.9605829957
11
-17.9911517018
21
27.6212287428
0
LINE
5
2DA
100
AcDbEntity
8
0
100
AcDbLine
62
9
6
CONTINUOUS
10
-3.2043516868
20
24.0998277656
11
-4.6293423382
21
24.4391820185
0
LINE
5
2DB
100
AcDbEntity
8
0
100
AcDbLine
62
7
6
CONTINUOUS
10
-13.1807544425
20
26.7774058381
11
-6.6087956612
21
25.2123273863
0
LINE
5
2DC
100
AcDbEntity
8
0
100
AcDbLine
62
7
6
CONTINUOUS
10
8.0828469312
20
21.8799318330
11
6.9743765455
21
22.1439083997
0
LINE
5
2DD
100
AcDbEntity
8
0
100
AcDbLine
62
7
6
CONTINUOUS
10
-12.0102061922
20
26.8922826256
11
-6.5336135941
21
25.5880600415
0
LINE
5
2DE
100
AcDbEntity
8
0
100
AcDbLine
62
9
6
CONTINUOUS
10
-7.4912911735
20
25.8400223362
11
-6.4958017123
21
25.6029516003
0
LINE
5
2DF
100
AcDbEntity
8
0
100
AcDbLine
62
7
6
CONTINUOUS
10
-7.4434914445
20
25.8443047922
11
-6.4710133093
21
25.6127140861
0
LINE
5
2E0
100
AcDbEntity
8
0
100
AcDbLine
62
7
6
CONTINUOUS
10
-3.2573967759
20
25.0740452047
11
-1.7708334913
21
24.7200277433
0
LINE
5
2E1
100
AcDbEntity
8
0
100
AcDbLine
62
7
6
CONTINUOUS
10
-16.5576335063
20
28.2414287205
11
-18.0441967909
21
28.5954461819
0
LINE
5
2E2
100
AcDbEntity
8
0
100
AcDbLine
62
7
6
CONTINUOUS
10
-8.1747640160
20
26.5173877456
11
-7.7835788304
21
26.4242289896
0
LINE
5
2E3
100
AcDbEntity
8
0
100
AcDbLine
62
7
6
CONTINUOUS
10
-7.3923936449
20
26.3310702336
11
-5.6815327095
21
25.9236374311
0
LINE
5
2E4
100
AcDbEntity
8
0
100
AcDbLine
62
9
6
CONTINUOUS
10
-17.5640284698
20
28.7780416846
11
-16.0980688415
21
28.4289308788
0
LINE
5
2E5
100
AcDbEntity
8
0
100
AcDbLine
62
9
6
CONTINUOUS
10
-1.3112688265
20
24.9075299016
11
-2.7772284548
21
25.2566407073
0
LINE
5
2E6
100
AcDbEntity
8
0
100
AcDbLine
62
7
6
CONTINUOUS
10
-17.5042788077
20
28.7833947544
11
-16.0383191794
21
28.4342839486
0
LINE
5
2E7
100
AcDbEntity
8
0
100
AcDbLine
62
7
6
CONTINUOUS
10
-1.2515191645
20
24.9128829714
11
-2.7174787928
21
25.2619937771
0
LINE
5
2E8
100
AcDbEntity
8
0
100
AcDbLine
62
7
6
CONTINUOUS
10
5.2634905359
20
22.7209189517
11
5.1025762661
21
22.8228331421
0
LINE
5
2E9
100
AcDbEntity
8
0
100
AcDbLine
62
9
6
CONTINUOUS
10
-0.6880137794
20
-21.4907657174
11
-0.2289284133
21
-21.2783255112
0
LINE
5
2EA
100
AcDbEntity
8
0
100
AcDbLine
62
9
6
CONTINUOUS
10
-0.3532566881
20
-19.3550679457
11
0.2826260451
21
-19.0799584576
0
LINE
5
2EB
100
AcDbEntity
8
0
100
AcDbLine
62
7
6
CONTINUOUS
10
-0.5500193982
20
-19.7226880694
11
0.0877584189
21
-19.4467586887
0
LINE
5
2EC
100
AcDbEntity
8
0
100
AcDbLine
62
9
6
CONTINUOUS
10
-5.2207219932
20
-20.9513375545
11
-0.3532566881
21
-19.3550679457
0
LINE
5
2ED
100
AcDbEntity
8
0
100
AcDbLine
62
7
6
CONTINUOUS
10
-0.5731658650
20
-19.7314710395
11
-5.4511728873
21
-21.3311970930
0
LINE
5
2EE
100
AcDbEntity
8
0
100
AcDbLine
62
7
6
CONTINUOUS
10
-6.4902978959
20
26.9335654245
11
-5.3429035916
21
26.7825109605
0
LINE
5
2EF
100
AcDbEntity
8
0
100
AcDbLine
62
7
6
CONTINUOUS
10
-8.1852485460
20
27.0629007253
11
-7.7940633604
21
26.9697419692
0
LINE
5
2F0
100
AcDbEntity
8
0
100
AcDbLine
62
7
6
CONTINUOUS
10
3.0928426226
20
24.6321875347
11
3.6986671981
21
24.4879135031
0
LINE
5
2F1
100
AcDbEntity
8
0
100
AcDbLine
62
7
6
CONTINUOUS
10
-4.3882517750
20
26.4329738660
11
-6.4902978959
21
26.9335654245
0
LINE
5
2F2
100
AcDbEntity
8
0
100
AcDbLine
62
7
6
CONTINUOUS
10
-5.3429035916
20
26.7825109605
11
-4.1949037531
21
26.5091206563
0
LINE
5
2F3
100
AcDbEntity
8
0
100
AcDbLine
62
7
6
CONTINUOUS
10
8.1933509306
20
23.5604879244
11
11.0075838935
21
22.8902927033
0
LINE
5
2F4
100
AcDbEntity
8
0
100
AcDbLine
62
9
6
CONTINUOUS
10
-9.2452929071
20
28.4637617467
11
-8.9757927793
21
28.3995816663
0
LINE
5
2F5
100
AcDbEntity
8
0
100
AcDbLine
62
9
6
CONTINUOUS
10
-7.7964902106
20
28.1187367767
11
-5.9768839044
21
27.6854068190
0
LINE
5
2F6
100
AcDbEntity
8
0
100
AcDbLine
62
9
6
CONTINUOUS
10
-1.2826616774
20
26.5675017469
11
1.9857473252
21
25.7891468192
0
LINE
5
2F7
100
AcDbEntity
8
0
100
AcDbLine
62
9
6
CONTINUOUS
10
-1.7209588791
20
26.7306878071
11
-1.3901793361
21
26.6519143467
0
LINE
5
2F8
100
AcDbEntity
8
0
100
AcDbLine
62
9
6
CONTINUOUS
10
3.6796946044
20
25.4445497357
11
7.2158947467
21
24.6024217145
0
LINE
5
2F9
100
AcDbEntity
8
0
100
AcDbLine
62
9
6
CONTINUOUS
10
12.2857686872
20
23.3950571034
11
13.0691767462
21
23.2084924713
0
LINE
5
2FA
100
AcDbEntity
8
0
100
AcDbLine
62
7
6
CONTINUOUS
10
-9.0648097157
20
28.4991091833
11
-8.8491333340
21
28.4477469534
0
LINE
5
2FB
100
AcDbEntity
8
0
100
AcDbLine
62
7
6
CONTINUOUS
10
-7.7980025753
20
28.1974255264
11
-5.7378852564
21
27.7068190982
0
LINE
5
2FC
100
AcDbEntity
8
0
100
AcDbLine
62
7
6
CONTINUOUS
10
-1.0436630294
20
26.5889140261
11
2.2247459733
21
25.8105590984
0
LINE
5
2FD
100
AcDbEntity
8
0
100
AcDbLine
62
7
6
CONTINUOUS
10
-1.7224712437
20
26.8093765569
11
-1.1160802713
21
26.6649676407
0
LINE
5
2FE
100
AcDbEntity
8
0
100
AcDbLine
62
7
6
CONTINUOUS
10
3.8835928356
20
25.4743210000
11
7.4899938115
21
24.6154750085
0
LINE
5
2FF
100
AcDbEntity
8
0
100
AcDbLine
62
7
6
CONTINUOUS
10
12.4896669184
20
23.4248283678
11
13.3081753943
21
23.2299047505
0
LINE
5
300
100
AcDbEntity
8
0
100
AcDbLine
62
9
6
CONTINUOUS
10
-2.0344133334
20
27.0786731368
11
-2.4795548149
21
27.1846813094
0
LINE
5
301
100
AcDbEntity
8
0
100
AcDbLine
62
9
6
CONTINUOUS
10
-7.9561474131
20
28.4889038936
11
-8.4012888946
21
28.5949120661
0
LINE
5
302
100
AcDbEntity
8
0
100
AcDbLine
62
7
6
CONTINUOUS
10
-1.9164768885
20
27.0897514681
11
-2.3514234617
21
27.1933317753
0
LINE
5
303
100
AcDbEntity
8
0
100
AcDbLine
62
7
6
CONTINUOUS
10
-7.8870241354
20
28.5116068316
11
-8.2802266915
21
28.6052460141
0
LINE
5
304
100
AcDbEntity
8
0
100
AcDbLine
62
9
6
CONTINUOUS
10
-1.9164572591
20
27.0897200810
11
-1.9143047058
21
27.0891881340
0
LINE
5
305
100
AcDbEntity
8
0
100
AcDbLine
62
7
6
CONTINUOUS
10
-0.7822093296
20
-21.6726409796
11
-0.3222169834
21
-21.4597810713
0
LINE
5
306
100
AcDbEntity
8
0
100
AcDbLine
62
7
6
CONTINUOUS
10
-0.7822740791
20
-21.6726707430
11
-0.7910468543
21
-21.6763632130
0
LINE
5
307
100
AcDbEntity
8
0
100
AcDbLine
62
9
6
CONTINUOUS
10
-2.1229643269
20
-22.0364400258
11
-0.6880137794
21
-21.4907657174
0
LINE
5
308
100
AcDbEntity
8
0
100
AcDbLine
62
7
6
CONTINUOUS
10
-2.2269505174
20
-22.2223999663
11
-0.7910906344
21
-21.6763798614
0
SPLINE
5
309
100
AcDbEntity
8
0
100
AcDbSpline
62
7
6
CONTINUOUS
70
0
71
3
72
11
73
7
74
5
42
0.0000001000
43
0.0000001000
44
0.0000000001
12
-1.4906723760
22
0.1002274694
32
0.0000000000
13
-1.4806678692
23
-0.1993982308
33
0.0000000000
40
0.0000000000
40
0.0000000000
40
0.0000000000
40
0.0000000000
40
0.2251472010
40
0.4863862957
40
0.7466315747
40
1.0000000000
40
1.0000000000
40
1.0000000000
40
1.0000000000
10
7.6068702060
20
21.8160958859
30
0.0000000000
10
7.4949966350
20
21.8236178640
30
0.0000000000
10
7.2529508640
20
21.8341423843
30
0.0000000000
10
6.8810171153
20
21.8326251143
30
0.0000000000
10
6.4955869884
20
21.8117658226
30
0.0000000000
10
6.2411415769
20
21.7848128725
30
0.0000000000
10
6.1160900814
20
21.7679724672
30
0.0000000000
11
7.6068702060
21
21.8160958859
31
0.0000000000
11
7.2708587320
21
21.8308944935
31
0.0000000000
11
6.8806169650
21
21.8293660173
31
0.0000000000
11
6.4924328267
21
21.8082106569
31
0.0000000000
11
6.1160900814
21
21.7679724672
31
0.0000000000
0
SPLINE
5
30A
100
AcDbEntity
8
0
100
AcDbSpline
62
9
6
CONTINUOUS
70
0
71
3
72
14
73
10
74
8
42
0.0000001000
43
0.0000001000
44
0.0000000001
12
1.3452966425
22
0.1709104323
32
0.0000000000
13
1.3535769635
23
-0.0813795339
33
0.0000000000
40
0.0000000000
40
0.0000000000
40
0.0000000000
40
0.0000000000
40
0.1318964582
40
0.3455321931
40
0.5386933807
40
0.7103251388
40
0.8618605770
40
0.9954756610
40
1.0000000000
40
1.0000000000
40
1.0000000000
40
1.0000000000
10
6.1875552722
20
21.7654896256
30
0.0000000000
10
6.2467018930
20
21.7730037858
30
0.0000000000
10
6.4019182854
20
21.7905703839
30
0.0000000000
10
6.6447063738
20
21.8098378894
30
0.0000000000
10
6.9059748893
20
21.8208299269
30
0.0000000000
10
7.1393793591
20
21.8230232600
30
0.0000000000
10
7.3458289106
20
21.8189413926
30
0.0000000000
10
7.4766344912
20
21.8128875476
30
0.0000000000
10
7.5389635777
20
21.8091676458
30
0.0000000000
10
7.5410049247
20
21.8090449163
30
0.0000000000
11
6.1875552722
21
21.7654896256
31
0.0000000000
11
6.3652751549
21
21.7856559759
31
0.0000000000
11
6.6540451225
21
21.8086894005
31
0.0000000000
11
6.9157362566
21
21.8197298724
31
0.0000000000
11
7.1484563867
21
21.8219068680
31
0.0000000000
11
7.3538956762
21
21.8178179113
31
0.0000000000
11
7.5348807236
21
21.8094104206
31
0.0000000000
11
7.5410049247
21
21.8090449163
31
0.0000000000
0
SPLINE
5
30B
100
AcDbEntity
8
0
100
AcDbSpline
62
7
6
CONTINUOUS
70
0
71
3
72
15
73
11
74
9
42
0.0000001000
43
0.0000001000
44
0.0000000001
12
-0.1992929352
22
0.4937533653
32
0.0000000000
13
-0.0102306503
23
0.5323295798
33
0.0000000000
40
0.0000000000
40
0.0000000000
40
0.0000000000
40
0.0000000000
40
0.0329731118
40
0.1565524259
40
0.2842097783
40
0.4164117664
40
0.5536365079
40
0.6963586107
40
0.8450219959
40
1.0000000000
40
1.0000000000
40
1.0000000000
40
1.0000000000
10
6.0288679743
20
19.3649632822
30
0.0000000000
10
6.0266775382
20
19.3703901438
30
0.0000000000
10
6.0164072229
20
19.3962085819
30
0.0000000000
10
5.9989099026
20
19.4435312327
30
0.0000000000
10
5.9779989967
20
19.5083127629
30
0.0000000000
10
5.9594230300
20
19.5763206605
30
0.0000000000
10
5.9436268243
20
19.6477731484
30
0.0000000000
10
5.9311144955
20
19.7228432359
30
0.0000000000
10
5.9224606031
20
19.8016291847
30
0.0000000000
10
5.9197573878
20
19.8554906054
30
0.0000000000
10
5.9192288792
20
19.8829903974
30
0.0000000000
11
6.0288679743
21
19.3649632822
31
0.0000000000
11
6.0223793101
21
19.3812769390
31
0.0000000000
11
5.9995882725
21
19.4430007053
31
0.0000000000
11
5.9787331279
21
19.5076904055
31
0.0000000000
11
5.9602064304
21
19.5755964836
31
0.0000000000
11
5.9444518951
21
19.6469399565
31
0.0000000000
11
5.9319733838
21
19.7218976067
31
0.0000000000
11
5.9233461797
21
19.8005785734
31
0.0000000000
11
5.9192288792
21
19.8829903974
31
0.0000000000
0
SPLINE
5
30C
100
AcDbEntity
8
0
100
AcDbSpline
62
7
6
CONTINUOUS
70
0
71
3
72
23
73
19
74
17
42
0.0000001000
43
0.0000001000
44
0.0000000001
12
1.2815635602
22
-0.3051978230
32
0.0000000000
13
0.0253151984
23
-1.3176099311
33
0.0000000000
40
0.0000000000
40
0.0000000000
40
0.0000000000
40
0.0000000000
40
0.0632273707
40
0.1270059985
40
0.1906364412
40
0.2513330375
40
0.3129959906
40
0.3757463848
40
0.4383156692
40
0.5017050076
40
0.5654285386
40
0.6310324239
40
0.6961891946
40
0.7603800008
40
0.8284862402
40
0.8946859039
40
0.9611110598
40
1.0000000000
40
1.0000000000
40
1.0000000000
40
1.0000000000
10
13.3081753943
20
23.2299047505
30
0.0000000000
10
13.3351853590
20
23.2234724652
30
0.0000000000
10
13.3889290999
20
23.2082831333
30
0.0000000000
10
13.4673909184
20
23.1788268966
30
0.0000000000
10
13.5421072727
20
23.1433702354
30
0.0000000000
10
13.6128564955
20
23.1023906391
30
0.0000000000
10
13.6797613107
20
23.0560646077
30
0.0000000000
10
13.7432867825
20
23.0038910862
30
0.0000000000
10
13.8028366644
20
22.9461282586
30
0.0000000000
10
13.8576765550
20
22.8833030411
30
0.0000000000
10
13.9078588759
20
22.8150352181
30
0.0000000000
10
13.9524577550
20
22.7420750636
30
0.0000000000
10
13.9907035044
20
22.6653651696
30
0.0000000000
10
14.0226843838
20
22.5846599888
30
0.0000000000
10
14.0476533151
20
22.5010218310
30
0.0000000000
10
14.0653270973
20
22.4145504734
30
0.0000000000
10
14.0739228038
20
22.3396286506
30
0.0000000000
10
14.0759962823
20
22.2933967572
30
0.0000000000
10
14.0763244427
20
22.2763166059
30
0.0000000000
11
13.3081753943
21
23.2299047505
31
0.0000000000
11
13.3883313079
21
23.2072499073
31
0.0000000000
11
13.4669929944
21
23.1777192022
31
0.0000000000
11
13.5427251246
21
23.1417803581
31
0.0000000000
11
13.6119180478
21
23.1017024082
31
0.0000000000
11
13.6787052957
21
23.0554575931
31
0.0000000000
11
13.7425887093
21
23.0029901235
31
0.0000000000
11
13.8017557952
21
22.9455985677
31
0.0000000000
11
13.8566720422
21
22.8826858457
31
0.0000000000
11
13.9063935218
21
22.8150448392
31
0.0000000000
11
13.9514695821
21
22.7413038485
31
0.0000000000
11
13.9897700307
21
22.6644846350
31
0.0000000000
11
14.0209234881
21
22.5858670202
31
0.0000000000
11
14.0465896286
21
22.4998929995
31
0.0000000000
11
14.0640538896
21
22.4144478717
31
0.0000000000
11
14.0740279908
21
22.3275094411
31
0.0000000000
11
14.0763244427
21
22.2763166059
31
0.0000000000
0
SPLINE
5
30D
100
AcDbEntity
8
0
100
AcDbSpline
62
7
6
CONTINUOUS
70
0
71
3
72
20
73
16
74
14
42
0.0000001000
43
0.0000001000
44
0.0000000001
12
-0.2950315398
22
0.4322086780
32
0.0000000000
13
-0.0101015414
23
0.5232183024
33
0.0000000000
40
0.0000000000
40
0.0000000000
40
0.0000000000
40
0.0000000000
40
0.0139826327
40
0.0399847082
40
0.0771011133
40
0.1247742678
40
0.1821875611
40
0.2503571721
40
0.3326128347
40
0.4300248480
40
0.5358957242
40
0.6483759108
40
0.7658794949
40
0.8866689946
40
1.0000000000
40
1.0000000000
40
1.0000000000
40
1.0000000000
10
14.2570590090
20
18.4268292549
30
0.0000000000
10
14.2556839031
20
18.4288437266
30
0.0000000000
10
14.2519097131
20
18.4347122891
30
0.0000000000
10
14.2451183579
20
18.4463256291
30
0.0000000000
10
14.2361291183
20
18.4634417123
30
0.0000000000
10
14.2255941811
20
18.4859078226
30
0.0000000000
10
14.2139872562
20
18.5138227735
30
0.0000000000
10
14.2015527926
20
18.5478906686
30
0.0000000000
10
14.1885733734
20
18.5891439482
30
0.0000000000
10
14.1758663051
20
18.6373236797
30
0.0000000000
10
14.1643346404
20
18.6912035655
30
0.0000000000
10
14.1546992523
20
18.7490108442
30
0.0000000000
10
14.1473194572
20
18.8097713359
30
0.0000000000
10
14.1425420182
20
18.8709382783
30
0.0000000000
10
14.1409917767
20
18.9117598856
30
0.0000000000
10
14.1406101708
20
18.9315255043
30
0.0000000000
11
14.2570590090
21
18.4268292549
31
0.0000000000
11
14.2530750782
21
18.4329670415
31
0.0000000000
11
14.2461717674
21
18.4446929271
31
0.0000000000
11
14.2371002430
21
18.4618676356
31
0.0000000000
11
14.2264691264
21
18.4844367775
31
0.0000000000
11
14.2148959294
21
18.5121630970
31
0.0000000000
11
14.2026258886
21
18.5456601546
31
0.0000000000
11
14.1896634419
21
18.5867069791
31
0.0000000000
11
14.1766153420
21
18.6359851318
31
0.0000000000
11
14.1649779933
21
18.6901520756
31
0.0000000000
11
14.1552642369
21
18.7482066628
31
0.0000000000
11
14.1478203618
21
18.8092448447
31
0.0000000000
11
14.1428747456
21
18.8722610274
31
0.0000000000
11
14.1406101708
21
18.9315255043
31
0.0000000000
0
SPLINE
5
30E
100
AcDbEntity
8
0
100
AcDbSpline
62
7
6
CONTINUOUS
70
0
71
3
72
34
73
30
74
28
42
0.0000001000
43
0.0000001000
44
0.0000000001
12
-0.0227806633
22
1.1849234505
32
0.0000000000
13
0.6840864716
23
0.9677758040
33
0.0000000000
40
0.0000000000
40
0.0000000000
40
0.0000000000
40
0.0000000000
40
0.0549520785
40
0.1138616508
40
0.1725499314
40
0.2305019776
40
0.2873604922
40
0.3428626929
40
0.3967845378
40
0.4487384407
40
0.4982512105
40
0.5448696549
40
0.5882584893
40
0.6286684844
40
0.6665358696
40
0.7022843778
40
0.7363100830
40
0.7689003401
40
0.7999147392
40
0.8290825069
40
0.8562472172
40
0.8815004249
40
0.9049061080
40
0.9264802624
40
0.9461446528
40
0.9637638040
40
0.9791516803
40
0.9919884701
40
1.0000000000
40
1.0000000000
40
1.0000000000
40
1.0000000000
10
14.2458378593
20
13.4564988949
30
0.0000000000
10
14.2454205777
20
13.4782035637
30
0.0000000000
10
14.2454754022
20
13.5231978458
30
0.0000000000
10
14.2481273517
20
13.5913252915
30
0.0000000000
10
14.2532678987
20
13.6604977132
30
0.0000000000
10
14.2605547035
20
13.7286597209
30
0.0000000000
10
14.2697034810
20
13.7953250488
30
0.0000000000
10
14.2804442651
20
13.8601377690
30
0.0000000000
10
14.2925085231
20
13.9227440319
30
0.0000000000
10
14.3056091643
20
13.9827209403
30
0.0000000000
10
14.3194216629
20
14.0395720310
30
0.0000000000
10
14.3336100002
20
14.0928352449
30
0.0000000000
10
14.3478993387
20
14.1423380057
30
0.0000000000
10
14.3621298262
20
14.1882494309
30
0.0000000000
10
14.3762666103
20
14.2310213814
30
0.0000000000
10
14.3903402833
20
14.2711503409
30
0.0000000000
10
14.4044009433
20
14.3090677457
30
0.0000000000
10
14.4184537884
20
14.3449868323
30
0.0000000000
10
14.4324195499
20
14.3788728148
30
0.0000000000
10
14.4461475484
20
14.4105322990
30
0.0000000000
10
14.4595130814
20
14.4398622207
30
0.0000000000
10
14.4724435282
20
14.4668830964
30
0.0000000000
10
14.4849011741
20
14.4916761230
30
0.0000000000
10
14.4968220341
20
14.5142622928
30
0.0000000000
10
14.5081061784
20
14.5345939422
30
0.0000000000
10
14.5186059582
20
14.5525600391
30
0.0000000000
10
14.5281130938
20
14.5679764082
30
0.0000000000
10
14.5359340538
20
14.5799676895
30
0.0000000000
10
14.5406021961
20
14.5867542310
30
0.0000000000
10
14.5424290559
20
14.5893386859
30
0.0000000000
11
14.2458378593
21
13.4564988949
31
0.0000000000
11
14.2458683334
21
13.5216249918
31
0.0000000000
11
14.2485413393
21
13.5913892144
31
0.0000000000
11
14.2536649710
21
13.6607533944
31
0.0000000000
11
14.2609434163
21
13.7290472583
31
0.0000000000
11
14.2700892694
21
13.7958083527
31
0.0000000000
11
14.2808324879
21
13.8607023309
31
0.0000000000
11
14.2929179364
21
13.9234534527
31
0.0000000000
11
14.3060534628
21
13.9836080475
31
0.0000000000
11
14.3199063492
21
14.0406284107
31
0.0000000000
11
14.3341285158
21
14.0940153471
31
0.0000000000
11
14.3483918981
21
14.1434188942
31
0.0000000000
11
14.3625735683
21
14.1891619982
31
0.0000000000
11
14.3766611170
21
14.2317712744
31
0.0000000000
11
14.3906866556
21
14.2717489052
31
0.0000000000
11
14.4047124802
21
14.3095558932
31
0.0000000000
11
14.4187908047
21
14.3455223565
31
0.0000000000
11
14.4328034828
21
14.3795025256
31
0.0000000000
11
14.4465628775
21
14.4112136392
31
0.0000000000
11
14.4599207062
21
14.4405052918
31
0.0000000000
11
14.4728482716
21
14.4674975302
31
0.0000000000
11
14.4853116803
21
14.4922785961
31
0.0000000000
11
14.4972567352
21
14.5148849158
31
0.0000000000
11
14.5085773815
21
14.5352554344
31
0.0000000000
11
14.5191263314
21
14.5532758133
31
0.0000000000
11
14.5287130460
21
14.5687893192
31
0.0000000000
11
14.5370393427
21
14.5815217821
31
0.0000000000
11
14.5424290559
21
14.5893386859
31
0.0000000000
0
SPLINE
5
30F
100
AcDbEntity
8
0
100
AcDbSpline
62
7
6
CONTINUOUS
70
0
71
3
72
21
73
17
74
15
42
0.0000001000
43
0.0000001000
44
0.0000000001
12
0.0222188087
22
-1.1560507327
32
0.0000000000
13
-1.0496660782
23
-0.4857339259
33
0.0000000000
40
0.0000000000
40
0.0000000000
40
0.0000000000
40
0.0000000000
40
0.0727546399
40
0.1454832683
40
0.2188643674
40
0.2923988178
40
0.3657252176
40
0.4395472455
40
0.5125950452
40
0.5864963580
40
0.6596955845
40
0.7331930361
40
0.8063850434
40
0.8794966109
40
0.9525353670
40
1.0000000000
40
1.0000000000
40
1.0000000000
40
1.0000000000
10
14.6231630548
20
-6.1758347919
30
0.0000000000
10
14.6237018953
20
-6.2038708101
30
0.0000000000
10
14.6224190720
20
-6.2600068626
30
0.0000000000
10
14.6134004185
20
-6.3439734808
30
0.0000000000
10
14.5972696143
20
-6.4271830159
30
0.0000000000
10
14.5740727809
20
-6.5089441805
30
0.0000000000
10
14.5439640875
20
-6.5886016526
30
0.0000000000
10
14.5072740806
20
-6.6652441251
30
0.0000000000
10
14.4641036357
20
-6.7386864269
30
0.0000000000
10
14.4149922458
20
-6.8080060524
30
0.0000000000
10
14.3600583878
20
-6.8730325688
30
0.0000000000
10
14.3000049171
20
-6.9329781173
30
0.0000000000
10
14.2351149746
20
-6.9875972334
30
0.0000000000
10
14.1659861151
20
-7.0364351356
30
0.0000000000
10
14.1015443259
20
-7.0742394258
30
0.0000000000
10
14.0599169238
20
-7.0949073776
30
0.0000000000
10
14.0433095854
20
-7.1025924384
30
0.0000000000
11
14.6231630548
21
-6.1758347919
31
0.0000000000
11
14.6212404100
21
-6.2599364057
31
0.0000000000
11
14.6122603706
21
-6.3435490697
31
0.0000000000
11
14.5961122671
21
-6.4268461988
31
0.0000000000
11
14.5729054235
21
-6.5086431202
31
0.0000000000
11
14.5429285767
21
-6.5879515868
31
0.0000000000
11
14.5060719915
21
-6.6649421127
31
0.0000000000
11
14.4632705347
21
-6.7377566647
31
0.0000000000
11
14.4138725733
21
-6.8074807566
31
0.0000000000
11
14.3592529052
21
-6.8721354024
31
0.0000000000
11
14.2991071890
21
-6.9321730054
31
0.0000000000
11
14.2343609934
21
-6.9866711575
31
0.0000000000
11
14.1653168858
21
-7.0354491811
31
0.0000000000
11
14.0924740763
21
-7.0781818675
31
0.0000000000
11
14.0433095854
21
-7.1025924384
31
0.0000000000
0
SPLINE
5
310
100
AcDbEntity
8
0
100
AcDbSpline
62
7
6
CONTINUOUS
70
0
71
3
72
8
73
4
74
2
42
0.0000001000
43
0.0000001000
44
0.0000000001
12
-0.0000884718
22
0.0035517563
32
0.0000000000
13
-0.0011785317
23
0.0033269969
33
0.0000000000
40
0.0000000000
40
0.0000000000
40
0.0000000000
40
0.0000000000
40
1.0000000000
40
1.0000000000
40
1.0000000000
40
1.0000000000
10
15.6634791986
20
17.8902091869
30
0.0000000000
10
15.6634497080
20
17.8913931057
30
0.0000000000
10
15.6632420189
20
17.8925745796
30
0.0000000000
10
15.6628491750
20
17.8936835786
30
0.0000000000
11
15.6634791986
21
17.8902091869
31
0.0000000000
11
15.6628491750
21
17.8936835786
31
0.0000000000
0
SPLINE
5
311
100
AcDbEntity
8
0
100
AcDbSpline
62
7
6
CONTINUOUS
70
0
71
3
72
21
73
17
74
15
42
0.0000001000
43
0.0000001000
44
0.0000000001
12
2.1811770528
22
-1.1900437155
32
0.0000000000
13
0.8439722192
23
-2.3366094924
33
0.0000000000
40
0.0000000000
40
0.0000000000
40
0.0000000000
40
0.0000000000
40
0.0440782463
40
0.1133796016
40
0.1839259238
40
0.2554915508
40
0.3279100644
40
0.4013125060
40
0.4754560313
40
0.5501925459
40
0.6255712287
40
0.7013686551
40
0.7774578495
40
0.8537930548
40
0.9302065304
40
1.0000000000
40
1.0000000000
40
1.0000000000
40
1.0000000000
10
14.1243680661
20
19.7775919404
30
0.0000000000
10
14.1564155525
20
19.7601069271
30
0.0000000000
10
14.2379211378
20
19.7134298981
30
0.0000000000
10
14.3661129775
20
19.6310066225
30
0.0000000000
10
14.5074931001
20
19.5275791715
30
0.0000000000
10
14.6445981569
20
19.4144554336
30
0.0000000000
10
14.7768405578
20
19.2921796097
30
0.0000000000
10
14.9036717168
20
19.1613151841
30
0.0000000000
10
15.0245980780
20
19.0224250996
30
0.0000000000
10
15.1391348218
20
18.8761403107
30
0.0000000000
10
15.2468443750
20
18.7230830769
30
0.0000000000
10
15.3473320766
20
18.5638665117
30
0.0000000000
10
15.4402005911
20
18.3991809660
30
0.0000000000
10
15.5251070647
20
18.2296814085
30
0.0000000000
10
15.5995345672
20
18.0610173240
30
0.0000000000
10
15.6432152535
20
17.9480439629
30
0.0000000000
10
15.6628498366
20
17.8936839351
30
0.0000000000
11
14.1243680661
21
19.7775919404
31
0.0000000000
11
14.2194136653
21
19.7231894247
31
0.0000000000
11
14.3642755344
21
19.6301535419
31
0.0000000000
11
14.5057733003
21
19.5267439418
31
0.0000000000
11
14.6429587312
21
19.4136540519
31
0.0000000000
11
14.7751008428
21
19.2915658682
31
0.0000000000
11
14.9020547894
21
19.1606641673
31
0.0000000000
11
15.0230464139
21
19.0217813994
31
0.0000000000
11
15.1375432627
21
18.8756214487
31
0.0000000000
11
15.2453437276
21
18.7224997148
31
0.0000000000
11
15.3458701519
21
18.5632755446
31
0.0000000000
11
15.4387373112
21
18.3986332306
31
0.0000000000
11
15.5236821473
21
18.2290832321
31
0.0000000000
11
15.6003235183
21
18.0554090707
31
0.0000000000
11
15.6628498366
21
17.8936839351
31
0.0000000000
0
SPLINE
5
312
100
AcDbEntity
8
0
100
AcDbSpline
62
7
6
CONTINUOUS
70
0
71
3
72
10
73
6
74
4
42
0.0000001000
43
0.0000001000
44
0.0000000001
12
0.0081683974
22
0.0211564624
32
0.0000000000
13
-0.0004414210
23
0.0226701193
33
0.0000000000
40
0.0000000000
40
0.0000000000
40
0.0000000000
40
0.0000000000
40
0.2838245173
40
0.8294236966
40
1.0000000000
40
1.0000000000
40
1.0000000000
40
1.0000000000
10
15.7027966005
20
15.6194431554
30
0.0000000000
10
15.7035693976
20
15.6214447296
30
0.0000000000
10
15.7055167992
20
15.6274133507
30
0.0000000000
10
15.7066660947
20
15.6349310513
30
0.0000000000
10
15.7067335616
20
15.6403460156
30
0.0000000000
10
15.7067084629
20
15.6416350106
30
0.0000000000
11
15.7027966005
21
15.6194431554
31
0.0000000000
11
15.7047857671
21
15.6255608267
31
0.0000000000
11
15.7066585580
21
15.6377683360
31
0.0000000000
11
15.7067084629
21
15.6416350106
31
0.0000000000
0
SPLINE
5
313
100
AcDbEntity
8
0
100
AcDbSpline
62
7
6
CONTINUOUS
70
0
71
3
72
16
73
12
74
10
42
0.0000001000
43
0.0000001000
44
0.0000000001
12
-0.4895226378
22
-1.2679919645
32
0.0000000000
13
-1.1743872357
23
-0.6842103903
33
0.0000000000
40
0.0000000000
40
0.0000000000
40
0.0000000000
40
0.0000000000
40
0.1147583843
40
0.2321344885
40
0.3472740305
40
0.4602806691
40
0.5712898893
40
0.6804998903
40
0.7881548531
40
0.8945467127
40
1.0000000000
40
1.0000000000
40
1.0000000000
40
1.0000000000
10
15.7027975920
20
15.6194427267
30
0.0000000000
10
15.6840719830
20
15.5709384903
30
0.0000000000
10
15.6430712358
20
15.4739930967
30
0.0000000000
10
15.5721119304
20
15.3334320504
30
0.0000000000
10
15.4917589907
20
15.1989281521
30
0.0000000000
10
15.4034479369
20
15.0730135199
30
0.0000000000
10
15.3076382002
20
14.9561532060
30
0.0000000000
10
15.2048104448
20
14.8487459112
30
0.0000000000
10
15.0954392100
20
14.7511148382
30
0.0000000000
10
14.9800037946
20
14.6635345665
30
0.0000000000
10
14.8990089750
20
14.6118102314
30
0.0000000000
10
14.8577279768
20
14.5877594864
30
0.0000000000
11
15.7027975920
21
15.6194427267
31
0.0000000000
11
15.6419616937
21
15.4758164990
31
0.0000000000
11
15.5699826608
21
15.3334439225
31
0.0000000000
11
15.4896458162
21
15.1991448311
31
0.0000000000
11
15.4013808538
21
15.0734443334
31
0.0000000000
11
15.3056605112
21
14.9568152592
31
0.0000000000
11
15.2029631266
21
14.8496424153
31
0.0000000000
11
15.0937687605
21
14.7522443621
31
0.0000000000
11
14.9785410096
21
14.6648778592
31
0.0000000000
11
14.8577279768
21
14.5877594864
31
0.0000000000
0
SPLINE
5
314
100
AcDbEntity
8
0
100
AcDbSpline
62
7
6
CONTINUOUS
70
0
71
3
72
19
73
15
74
13
42
0.0000001000
43
0.0000001000
44
0.0000000001
12
0.0257295230
22
-1.3387141612
32
0.0000000000
13
-0.9489780633
23
-0.9445942247
33
0.0000000000
40
0.0000000000
40
0.0000000000
40
0.0000000000
40
0.0000000000
40
0.0919062912
40
0.1824044019
40
0.2713939210
40
0.3587957224
40
0.4445542001
40
0.5286394131
40
0.6110490711
40
0.6918102655
40
0.7709808214
40
0.8486501171
40
0.9249391980
40
1.0000000000
40
1.0000000000
40
1.0000000000
40
1.0000000000
10
6.5370916894
20
-12.2645816815
30
0.0000000000
10
6.5378799244
20
-12.3055937660
30
0.0000000000
10
6.5372711131
20
-12.3870499020
30
0.0000000000
10
6.5296601339
20
-12.5080003573
30
0.0000000000
10
6.5153893280
20
-12.6263290523
30
0.0000000000
10
6.4945175337
20
-12.7415270750
30
0.0000000000
10
6.4671313680
20
-12.8531043825
30
0.0000000000
10
6.4333446819
20
-12.9605845112
30
0.0000000000
10
6.3932981957
20
-13.0635082371
30
0.0000000000
10
6.3471587484
20
-13.1614350426
30
0.0000000000
10
6.2951195931
20
-13.2539440790
30
0.0000000000
10
6.2373968585
20
-13.3406386718
30
0.0000000000
10
6.1742399046
20
-13.4211372037
30
0.0000000000
10
6.1283381702
20
-13.4708184085
30
0.0000000000
10
6.1045944854
20
-13.4944524085
30
0.0000000000
11
6.5370916894
21
-12.2645816815
31
0.0000000000
11
6.5361223146
21
-12.3876368392
31
0.0000000000
11
6.5284576168
21
-12.5085676615
31
0.0000000000
11
6.5141305567
21
-12.6268567108
31
0.0000000000
11
6.4932025684
21
-12.7419978734
31
0.0000000000
11
6.4657632934
21
-12.8534985142
31
0.0000000000
11
6.4319301947
21
-12.9608815722
31
0.0000000000
11
6.3918480555
21
-13.0636875891
31
0.0000000000
11
6.3456883615
21
-13.1614766652
31
0.0000000000
11
6.2936485723
21
-13.2538303319
31
0.0000000000
11
6.2359512825
21
-13.3403533344
31
0.0000000000
11
6.1728432773
21
-13.4206753176
31
0.0000000000
11
6.1045944854
21
-13.4944524085
31
0.0000000000
0
SPLINE
5
315
100
AcDbEntity
8
0
100
AcDbSpline
62
7
6
CONTINUOUS
70
0
71
3
72
19
73
15
74
13
42
0.0000001000
43
0.0000001000
44
0.0000000001
12
-0.0297632052
22
1.5485877566
32
0.0000000000
13
-0.8936650545
23
1.2650583618
33
0.0000000000
40
0.0000000000
40
0.0000000000
40
0.0000000000
40
0.0000000000
40
0.0805632221
40
0.1621198410
40
0.2445396855
40
0.3276820963
40
0.4113978508
40
0.4955310655
40
0.5799210769
40
0.6644043094
40
0.7488161329
40
0.8329927170
40
0.9167728888
40
1.0000000000
40
1.0000000000
40
1.0000000000
40
1.0000000000
10
5.8965743928
20
21.0617095610
30
0.0000000000
10
5.8957751195
20
21.1032959675
30
0.0000000000
10
5.8919004243
20
21.1869539911
30
0.0000000000
10
5.8794593518
20
21.3126468583
30
0.0000000000
10
5.8604044977
20
21.4388572869
30
0.0000000000
10
5.8348179432
20
21.5650423672
30
0.0000000000
10
5.8028093192
20
21.6906654389
30
0.0000000000
10
5.7645155088
20
21.8151905067
30
0.0000000000
10
5.7201000645
20
21.9380866310
30
0.0000000000
10
5.6697524593
20
22.0588297209
30
0.0000000000
10
5.6136875745
20
22.1769045133
30
0.0000000000
10
5.5521437071
20
22.2918082558
30
0.0000000000
10
5.4853855662
20
22.4030471748
30
0.0000000000
10
5.4373996817
20
22.4747358678
30
0.0000000000
10
5.4126072947
20
22.5098315855
30
0.0000000000
11
5.8965743928
21
21.0617095610
31
0.0000000000
11
5.8908442171
21
21.1863601825
31
0.0000000000
11
5.8784391802
21
21.3120705097
31
0.0000000000
11
5.8594125271
21
21.4383025756
31
0.0000000000
11
5.8338458010
21
21.5645162172
31
0.0000000000
11
5.8018484912
21
21.6901713775
31
0.0000000000
11
5.7635575633
21
21.8147304043
31
0.0000000000
11
5.7191368740
21
21.9376603387
31
0.0000000000
11
5.6687764735
21
22.0584351829
31
0.0000000000
11
5.6126917965
21
22.1765381396
31
0.0000000000
11
5.5511227479
21
22.2914638120
31
0.0000000000
11
5.4843326841
21
22.4027203575
31
0.0000000000
11
5.4126072947
21
22.5098315855
31
0.0000000000
0
SPLINE
5
316
100
AcDbEntity
8
0
100
AcDbSpline
62
7
6
CONTINUOUS
70
0
71
3
72
26
73
22
74
20
42
0.0000001000
43
0.0000001000
44
0.0000000001
12
-3.1809560572
22
-1.2561825049
32
0.0000000000
13
-3.4105681618
23
0.2547347219
33
0.0000000000
40
0.0000000000
40
0.0000000000
40
0.0000000000
40
0.0000000000
40
0.0403126211
40
0.0829183579
40
0.1277100720
40
0.1745645958
40
0.2233449923
40
0.2739022771
40
0.3260769509
40
0.3797004474
40
0.4345963484
40
0.4905815099
40
0.5474672152
40
0.6050602440
40
0.6631638425
40
0.7215787572
40
0.7801042781
40
0.8385391536
40
0.8966825808
40
0.9543352597
40
1.0000000000
40
1.0000000000
40
1.0000000000
40
1.0000000000
10
9.1482575055
20
22.1560312934
30
0.0000000000
10
9.1055132802
20
22.1391512903
30
0.0000000000
10
9.0168298479
20
22.1063432970
30
0.0000000000
10
8.8784526315
20
22.0609946986
30
0.0000000000
10
8.7314574991
20
22.0182820109
30
0.0000000000
10
8.5764020978
20
21.9783694620
30
0.0000000000
10
8.4138712649
20
21.9414092571
30
0.0000000000
10
8.2444803997
20
21.9075428403
30
0.0000000000
10
8.0688712331
20
21.8768997092
30
0.0000000000
10
7.8877096740
20
21.8495970400
30
0.0000000000
10
7.7016830072
20
21.8257391810
30
0.0000000000
10
7.5114972410
20
21.8054172667
30
0.0000000000
10
7.3178743037
20
21.7887088654
30
0.0000000000
10
7.1215492363
20
21.7756776949
30
0.0000000000
10
6.9232673724
20
21.7663733888
30
0.0000000000
10
6.7237814473
20
21.7608313140
30
0.0000000000
10
6.5238487011
20
21.7590724456
30
0.0000000000
10
6.3242279909
20
21.7611032952
30
0.0000000000
10
6.1256768779
20
21.7669158895
30
0.0000000000
10
5.9418167138
20
21.7758617070
30
0.0000000000
10
5.8242884055
20
21.7836792523
30
0.0000000000
10
5.7723741691
20
21.7875567172
30
0.0000000000
11
9.1482575055
21
22.1560312934
31
0.0000000000
11
9.0190080299
21
22.1080458497
31
0.0000000000
11
8.8805845529
21
22.0625381025
31
0.0000000000
11
8.7335135231
21
22.0196810801
31
0.0000000000
11
8.5783544200
21
21.9796377399
31
0.0000000000
11
8.4156972904
21
21.9425602615
31
0.0000000000
11
8.2461607470
21
21.9085895444
31
0.0000000000
11
8.0703896617
21
21.8778546732
31
0.0000000000
11
7.8890524475
21
21.8504723785
31
0.0000000000
11
7.7028386196
21
21.8265466246
31
0.0000000000
11
7.5124562844
21
21.8061682289
31
0.0000000000
11
7.3186292608
21
21.7894144956
31
0.0000000000
11
7.1220942810
21
21.7763489296
31
0.0000000000
11
6.9235983813
21
21.7670210171
31
0.0000000000
11
6.7238959695
21
21.7614660300
31
0.0000000000
11
6.5237457865
21
21.7597048968
31
0.0000000000
11
6.3239082679
21
21.7617441374
31
0.0000000000
11
6.1251426330
21
21.7675758362
31
0.0000000000
11
5.9282037635
21
21.7771776848
31
0.0000000000
11
5.7723741691
21
21.7875567172
31
0.0000000000
0
SPLINE
5
317
100
AcDbEntity
8
0
100
AcDbSpline
62
7
6
CONTINUOUS
70
0
71
3
72
13
73
9
74
7
42
0.0000001000
43
0.0000001000
44
0.0000000001
12
0.3861333075
22
-0.1804072351
32
0.0000000000
13
0.3600496800
23
-0.2280355352
33
0.0000000000
40
0.0000000000
40
0.0000000000
40
0.0000000000
40
0.0000000000
40
0.0552947726
40
0.2258309698
40
0.4055901080
40
0.5946601657
40
0.7929245880
40
1.0000000000
40
1.0000000000
40
1.0000000000
40
1.0000000000
10
4.7296179032
20
23.0285141076
30
0.0000000000
10
4.7367349544
20
23.0251889152
30
0.0000000000
10
4.7657445045
20
23.0114854918
30
0.0000000000
10
4.8174294467
20
22.9860043579
30
0.0000000000
10
4.8853281323
20
22.9504789543
30
0.0000000000
10
4.9558141842
20
22.9114495519
30
0.0000000000
10
5.0287124035
20
22.8688140222
30
0.0000000000
10
5.0777237875
20
22.8385733262
30
0.0000000000
10
5.1025762661
20
22.8228331421
30
0.0000000000
11
4.7296179032
21
23.0285141076
31
0.0000000000
11
4.7509270629
21
23.0184493027
31
0.0000000000
11
4.8161258650
21
22.9863313686
31
0.0000000000
11
4.8840164741
21
22.9508330350
31
0.0000000000
11
4.9545187484
21
22.9118143343
31
0.0000000000
11
5.0274645077
21
22.8691668831
31
0.0000000000
11
5.1025762661
21
22.8228331421
31
0.0000000000
0
SPLINE
5
318
100
AcDbEntity
8
0
100
AcDbSpline
62
7
6
CONTINUOUS
70
0
71
3
72
11
73
7
74
5
42
0.0000001000
43
0.0000001000
44
0.0000000001
12
0.2663053518
22
0.1247794070
32
0.0000000000
13
0.2345708258
23
0.1773043955
33
0.0000000000
40
0.0000000000
40
0.0000000000
40
0.0000000000
40
0.0000000000
40
0.1396683395
40
0.4076305769
40
0.6941347683
40
1.0000000000
40
1.0000000000
40
1.0000000000
40
1.0000000000
10
5.5551914654
20
-13.9077910190
30
0.0000000000
10
5.5675896075
20
-13.9019817748
30
0.0000000000
10
5.6034744047
20
-13.8843859633
30
0.0000000000
10
5.6630735578
20
-13.8514868645
30
0.0000000000
10
5.7343972983
20
-13.8064185474
30
0.0000000000
10
5.7816626947
20
-13.7726374942
30
0.0000000000
10
5.8055783813
20
-13.7545604109
30
0.0000000000
11
5.5551914654
21
-13.9077910190
31
0.0000000000
11
5.5920764326
21
-13.8897214909
31
0.0000000000
11
5.6610984035
21
-13.8517195998
31
0.0000000000
11
5.7323609591
21
-13.8067895041
31
0.0000000000
11
5.8055783813
21
-13.7545604109
31
0.0000000000
0
SPLINE
5
319
100
AcDbEntity
8
0
100
AcDbSpline
62
7
6
CONTINUOUS
70
0
71
3
72
26
73
22
74
20
42
0.0000001000
43
0.0000001000
44
0.0000000001
12
2.9629998150
22
0.6685439735
32
0.0000000000
13
2.9862688806
23
-0.5548732367
33
0.0000000000
40
0.0000000000
40
0.0000000000
40
0.0000000000
40
0.0000000000
40
0.0119195580
40
0.0621180157
40
0.1138867988
40
0.1671001953
40
0.2215168878
40
0.2770048654
40
0.3333036051
40
0.3902751788
40
0.4476491299
40
0.5052815207
40
0.5629010543
40
0.6203576285
40
0.6773879470
40
0.7338358571
40
0.7894544910
40
0.8440824004
40
0.8974969602
40
0.9495332847
40
1.0000000000
40
1.0000000000
40
1.0000000000
40
1.0000000000
10
5.7009658962
20
21.9830806939
30
0.0000000000
10
5.7127384456
20
21.9857369434
30
0.0000000000
10
5.7741371783
20
21.9993721871
30
0.0000000000
10
5.8871253996
20
22.0224408870
30
0.0000000000
10
6.0418292712
20
22.0499474926
30
0.0000000000
10
6.2013692245
20
22.0743789112
30
0.0000000000
10
6.3651588022
20
22.0956446496
30
0.0000000000
10
6.5324801261
20
22.1136507585
30
0.0000000000
10
6.7027218601
20
22.1283310280
30
0.0000000000
10
6.8751352422
20
22.1396204666
30
0.0000000000
10
7.0490904667
20
22.1474776202
30
0.0000000000
10
7.2238238153
20
22.1518678402
30
0.0000000000
10
7.3986935806
20
22.1527749660
30
0.0000000000
10
7.5729371574
20
22.1501951366
30
0.0000000000
10
7.7459078216
20
22.1441380644
30
0.0000000000
10
7.9168598612
20
22.1346302045
30
0.0000000000
10
8.0851488952
20
22.1217077286
30
0.0000000000
10
8.2500610411
20
22.1054260692
30
0.0000000000
10
8.4109626079
20
22.0858483543
30
0.0000000000
10
8.5671840000
20
22.0630570186
30
0.0000000000
10
8.6694812866
20
22.0454924577
30
0.0000000000
10
8.7197170137
20
22.0361582478
30
0.0000000000
11
5.7009658962
21
21.9830806939
31
0.0000000000
11
5.7363099594
21
21.9909309979
31
0.0000000000
11
5.8856865242
21
22.0214975055
31
0.0000000000
11
6.0404901216
21
22.0490791794
31
0.0000000000
11
6.2002498854
21
22.0735919453
31
0.0000000000
11
6.3641534141
21
22.0949113629
31
0.0000000000
11
6.5317207633
21
22.1129749429
31
0.0000000000
11
6.7020872379
21
22.1276895689
31
0.0000000000
11
6.8747607739
21
22.1390127729
31
0.0000000000
11
7.0488494023
21
22.1468860639
31
0.0000000000
11
7.2238456376
21
22.1512866018
31
0.0000000000
11
7.3988557996
21
22.1521918264
31
0.0000000000
11
7.5733540738
21
22.1495992032
31
0.0000000000
11
7.7464702512
21
22.1435214877
31
0.0000000000
11
7.9176582817
21
22.1339781104
31
0.0000000000
11
8.0860951732
21
22.1210146874
31
0.0000000000
11
8.2512144949
21
22.1046751526
31
0.0000000000
11
8.4122615800
21
22.0850338245
31
0.0000000000
11
8.5686521712
21
22.0621623852
31
0.0000000000
11
8.7197170137
21
22.0361582478
31
0.0000000000
0
SPLINE
5
31A
100
AcDbEntity
8
0
100
AcDbSpline
62
7
6
CONTINUOUS
70
0
71
3
72
13
73
9
74
7
42
0.0000001000
43
0.0000001000
44
0.0000000001
12
-0.2873079546
22
0.0684323843
32
0.0000000000
13
-0.2953376530
23
0.0020646490
33
0.0000000000
40
0.0000000000
40
0.0000000000
40
0.0000000000
40
0.0000000000
40
0.1609482001
40
0.3398055136
40
0.5215229057
40
0.7117855769
40
0.9165926687
40
1.0000000000
40
1.0000000000
40
1.0000000000
40
1.0000000000
10
-7.4434721821
20
25.8443002514
30
0.0000000000
10
-7.4588860815
20
25.8479716078
30
0.0000000000
10
-7.4916620838
20
25.8547702103
30
0.0000000000
10
-7.5424189133
20
25.8626112676
30
0.0000000000
10
-7.5963412757
20
25.8684942617
30
0.0000000000
10
-7.6529948552
20
25.8724785430
30
0.0000000000
10
-7.7000775790
20
25.8741441053
30
0.0000000000
10
-7.7284498459
20
25.8745176504
30
0.0000000000
10
-7.7366609544
20
25.8745750527
30
0.0000000000
11
-7.4434721821
21
25.8443002514
31
0.0000000000
11
-7.4900009091
21
25.8540328359
31
0.0000000000
11
-7.5421908942
21
25.8621819089
31
0.0000000000
11
-7.5955341532
21
25.8680681179
31
0.0000000000
11
-7.6515826217
21
25.8720640844
31
0.0000000000
11
-7.7120293295
21
25.8742487094
31
0.0000000000
11
-7.7366609544
21
25.8745750527
31
0.0000000000
0
SPLINE
5
31B
100
AcDbEntity
8
0
100
AcDbSpline
62
7
6
CONTINUOUS
70
0
71
3
72
17
73
13
74
11
42
0.0000001000
43
0.0000001000
44
0.0000000001
12
-0.0149099978
22
0.7757333635
32
0.0000000000
13
0.2306913926
23
0.7407954780
33
0.0000000000
40
0.0000000000
40
0.0000000000
40
0.0000000000
40
0.0000000000
40
0.1090434233
40
0.2185992911
40
0.3281677509
40
0.4373754764
40
0.5459489284
40
0.6536913061
40
0.7604667924
40
0.8661839645
40
0.9707848677
40
1.0000000000
40
1.0000000000
40
1.0000000000
40
1.0000000000
10
6.5144372030
20
-11.0858625179
30
0.0000000000
10
6.5138952573
20
-11.0576663107
30
0.0000000000
10
6.5145948594
20
-11.0010968319
30
0.0000000000
10
6.5201784430
20
-10.9163763450
30
0.0000000000
10
6.5296675597
20
-10.8319661291
30
0.0000000000
10
6.5425008059
20
-10.7482635795
30
0.0000000000
10
6.5581817141
20
-10.6655326224
30
0.0000000000
10
6.5762691447
20
-10.5839422388
30
0.0000000000
10
6.5963696276
20
-10.5035884950
30
0.0000000000
10
6.6181303537
20
-10.4245130894
30
0.0000000000
10
6.6357669836
20
-10.3651235597
30
0.0000000000
10
6.6459817896
20
-10.3320566735
30
0.0000000000
10
6.6482283494
20
-10.3248425275
30
0.0000000000
11
6.5144372030
21
-11.0858625179
31
0.0000000000
11
6.5153446185
21
-11.0012631394
31
0.0000000000
11
6.5208293124
21
-10.9164384338
31
0.0000000000
11
6.5302433309
21
-10.8319496782
31
0.0000000000
11
6.5430167778
21
-10.7481862975
31
0.0000000000
11
6.5586474142
21
-10.6654095239
31
0.0000000000
11
6.5766904640
21
-10.5837851530
31
0.0000000000
11
6.5967503407
21
-10.5034058645
31
0.0000000000
11
6.6184728450
21
-10.4243110812
31
0.0000000000
11
6.6415387901
21
-10.3465005079
31
0.0000000000
11
6.6482283494
21
-10.3248425275
31
0.0000000000
0
SPLINE
5
31C
100
AcDbEntity
8
0
100
AcDbSpline
62
7
6
CONTINUOUS
70
0
71
3
72
10
73
6
74
4
42
0.0000001000
43
0.0000001000
44
0.0000000001
12
-0.1233555829
22
0.0841914876
32
0.0000000000
13
-0.1353577048
23
0.0631373073
33
0.0000000000
40
0.0000000000
40
0.0000000000
40
0.0000000000
40
0.0000000000
40
0.3959113864
40
0.8531364116
40
1.0000000000
40
1.0000000000
40
1.0000000000
40
1.0000000000
10
-0.8551782551
20
26.5440946509
30
0.0000000000
10
-0.8714575483
20
26.5552054404
30
0.0000000000
10
-0.9072108585
20
26.5781618379
30
0.0000000000
10
-0.9508382699
20
26.6022177884
30
0.0000000000
10
-0.9779204758
20
26.6153044120
30
0.0000000000
10
-0.9845468486
20
26.6183952692
30
0.0000000000
11
-0.8551782551
21
26.5440946509
31
0.0000000000
11
-0.9049572122
21
26.5759879483
31
0.0000000000
11
-0.9647952346
21
26.6088558525
31
0.0000000000
11
-0.9845468486
21
26.6183952692
31
0.0000000000
0
SPLINE
5
31D
100
AcDbEntity
8
0
100
AcDbSpline
62
7
6
CONTINUOUS
70
0
71
3
72
9
73
5
74
3
42
0.0000001000
43
0.0000001000
44
0.0000000001
12
-0.0940272881
22
0.0438588242
32
0.0000000000
13
-0.0993617270
23
0.0298894274
33
0.0000000000
40
0.0000000000
40
0.0000000000
40
0.0000000000
40
0.0000000000
40
0.4113245947
40
1.0000000000
40
1.0000000000
40
1.0000000000
40
1.0000000000
10
-0.9845468486
20
26.6183952692
30
0.0000000000
10
-0.9974387606
20
26.6244086735
30
0.0000000000
10
-1.0291700442
20
26.6381935374
30
0.0000000000
10
-1.0618146516
20
26.6497189638
30
0.0000000000
10
-1.0813119199
20
26.6555840207
30
0.0000000000
11
-0.9845468486
21
26.6183952692
31
0.0000000000
11
-1.0236969987
21
26.6353665111
31
0.0000000000
11
-1.0813119199
21
26.6555840207
31
0.0000000000
0
SPLINE
5
31E
100
AcDbEntity
8
0
100
AcDbSpline
62
7
6
CONTINUOUS
70
0
71
3
72
8
73
4
74
2
42
0.0000001000
43
0.0000001000
44
0.0000000001
12
-0.0348263500
22
0.0104762638
32
0.0000000000
13
-0.0353800386
23
0.0084210528
33
0.0000000000
40
0.0000000000
40
0.0000000000
40
0.0000000000
40
0.0000000000
40
1.0000000000
40
1.0000000000
40
1.0000000000
40
1.0000000000
10
-1.0813119199
20
26.6555840207
30
0.0000000000
10
-1.0929207033
20
26.6590761086
30
0.0000000000
10
-1.1046288165
20
26.6622421634
30
0.0000000000
10
-1.1164221627
20
26.6650491810
30
0.0000000000
11
-1.0813119199
21
26.6555840207
31
0.0000000000
11
-1.1164221627
21
26.6650491810
31
0.0000000000
0
SPLINE
5
31F
100
AcDbEntity
8
0
100
AcDbSpline
62
7
6
CONTINUOUS
70
0
71
3
72
13
73
9
74
7
42
0.0000001000
43
0.0000001000
44
0.0000000001
12
0.1945808135
22
0.0768413676
32
0.0000000000
13
0.2038210534
23
-0.0484819048
33
0.0000000000
40
0.0000000000
40
0.0000000000
40
0.0000000000
40
0.0000000000
40
0.2220002294
40
0.4264607453
40
0.6138634994
40
0.7856477646
40
0.9433687347
40
1.0000000000
40
1.0000000000
40
1.0000000000
40
1.0000000000
10
3.6796946044
20
25.4445497357
30
0.0000000000
10
3.6940935995
20
25.4502360027
30
0.0000000000
10
3.7221179095
20
25.4602779053
30
0.0000000000
10
3.7634747630
20
25.4715218581
30
0.0000000000
10
3.8022723368
20
25.4782417571
30
0.0000000000
10
3.8383522645
20
25.4803280999
30
0.0000000000
10
3.8652949034
20
25.4781452696
30
0.0000000000
10
3.8799780705
20
25.4751803474
30
0.0000000000
10
3.8838256186
20
25.4742651502
30
0.0000000000
11
3.6796946044
21
25.4445497357
31
0.0000000000
11
3.7234620844
21
25.4600864639
31
0.0000000000
11
3.7647798951
21
25.4711521290
31
0.0000000000
11
3.8034419028
21
25.4776569067
31
0.0000000000
11
3.8393316718
21
25.4795171167
31
0.0000000000
11
3.8722004944
21
25.4766246229
31
0.0000000000
11
3.8838256186
21
25.4742651502
31
0.0000000000
0
SPLINE
5
320
100
AcDbEntity
8
0
100
AcDbSpline
62
7
6
CONTINUOUS
70
0
71
3
72
19
73
15
74
13
42
0.0000001000
43
0.0000001000
44
0.0000000001
12
-0.4787678929
22
0.7750324433
32
0.0000000000
13
-0.8865546423
23
0.2110151310
33
0.0000000000
40
0.0000000000
40
0.0000000000
40
0.0000000000
40
0.0000000000
40
0.1055832908
40
0.2084933224
40
0.3082687932
40
0.4043691580
40
0.4964956200
40
0.5844126037
40
0.6679724126
40
0.7472212159
40
0.8221628276
40
0.8930671906
40
0.9600926588
40
1.0000000000
40
1.0000000000
40
1.0000000000
40
1.0000000000
10
8.1679293213
20
24.0394808361
30
0.0000000000
10
8.1510793581
20
24.0667576614
30
0.0000000000
10
8.1164374351
20
24.1197904610
30
0.0000000000
10
8.0612044542
20
24.1954200578
30
0.0000000000
10
8.0038106525
20
24.2657489194
30
0.0000000000
10
7.9447984759
20
24.3303570676
30
0.0000000000
10
7.8847073825
20
24.3889142136
30
0.0000000000
10
7.8240312078
20
24.4412042286
30
0.0000000000
10
7.7632176836
20
24.4871059962
30
0.0000000000
10
7.7026846441
20
24.5265620926
30
0.0000000000
10
7.6427701594
20
24.5595986592
30
0.0000000000
10
7.5838057160
20
24.5862642156
30
0.0000000000
10
7.5328174750
20
24.6042660010
30
0.0000000000
10
7.5014452663
20
24.6127495312
30
0.0000000000
10
7.4896519201
20
24.6155565488
30
0.0000000000
11
8.1679293213
21
24.0394808361
31
0.0000000000
11
8.1152972174
21
24.1199878529
31
0.0000000000
11
8.0599678241
21
24.1956689562
31
0.0000000000
11
8.0024535637
21
24.2660523664
31
0.0000000000
11
7.9433607906
21
24.3306460779
31
0.0000000000
11
7.8831987223
21
24.3891616510
31
0.0000000000
11
7.8224706808
21
24.4413793130
31
0.0000000000
11
7.7616549447
21
24.4871610409
31
0.0000000000
11
7.7011168706
21
24.5264953160
31
0.0000000000
11
7.6412788481
21
24.5593632203
31
0.0000000000
11
7.5823770841
21
24.5858738788
31
0.0000000000
11
7.5247621629
21
24.6060913885
31
0.0000000000
11
7.4896519201
21
24.6155565488
31
0.0000000000
0
SPLINE
5
321
100
AcDbEntity
8
0
100
AcDbSpline
62
7
6
CONTINUOUS
70
0
71
3
72
10
73
6
74
4
42
0.0000001000
43
0.0000001000
44
0.0000000001
12
-0.0040223477
22
0.2092838592
32
0.0000000000
13
-0.0376146941
23
0.2059151471
33
0.0000000000
40
0.0000000000
40
0.0000000000
40
0.0000000000
40
0.0000000000
40
0.3417607196
40
0.6754220402
40
1.0000000000
40
1.0000000000
40
1.0000000000
40
1.0000000000
10
8.1881452914
20
23.8313387663
30
0.0000000000
10
8.1876870646
20
23.8551804337
30
0.0000000000
10
8.1856162239
20
23.9022864946
30
0.0000000000
10
8.1789162620
20
23.9717682032
30
0.0000000000
10
8.1719989549
20
24.0172023300
30
0.0000000000
10
8.1679293213
20
24.0394808361
30
0.0000000000
11
8.1881452914
21
23.8313387663
31
0.0000000000
11
8.1849629711
21
23.9028061612
31
0.0000000000
11
8.1782112037
21
23.9723218705
31
0.0000000000
11
8.1679293213
21
24.0394808361
31
0.0000000000
0
SPLINE
5
322
100
AcDbEntity
8
0
100
AcDbSpline
62
7
6
CONTINUOUS
70
0
71
3
72
13
73
9
74
7
42
0.0000001000
43
0.0000001000
44
0.0000000001
12
0.1945808135
22
0.0768413676
32
0.0000000000
13
0.2038210534
23
-0.0484819048
33
0.0000000000
40
0.0000000000
40
0.0000000000
40
0.0000000000
40
0.0000000000
40
0.2220002294
40
0.4264607453
40
0.6138634994
40
0.7856477646
40
0.9433687347
40
1.0000000000
40
1.0000000000
40
1.0000000000
40
1.0000000000
10
12.2857686872
20
23.3950571034
30
0.0000000000
10
12.3001676823
20
23.4007433705
30
0.0000000000
10
12.3281919923
20
23.4107852730
30
0.0000000000
10
12.3695488457
20
23.4220292259
30
0.0000000000
10
12.4083464196
20
23.4287491249
30
0.0000000000
10
12.4444263473
20
23.4308354677
30
0.0000000000
10
12.4713689862
20
23.4286526373
30
0.0000000000
10
12.4860521533
20
23.4256877151
30
0.0000000000
10
12.4898997014
20
23.4247725179
30
0.0000000000
11
12.2857686872
21
23.3950571034
31
0.0000000000
11
12.3295361672
21
23.4105938317
31
0.0000000000
11
12.3708539779
21
23.4216594968
31
0.0000000000
11
12.4095159856
21
23.4281642744
31
0.0000000000
11
12.4454057546
21
23.4300244845
31
0.0000000000
11
12.4782745772
21
23.4271319907
31
0.0000000000
11
12.4898997014
21
23.4247725179
31
0.0000000000
0
SPLINE
5
323
100
AcDbEntity
8
0
100
AcDbSpline
62
9
6
CONTINUOUS
70
0
71
3
72
22
73
18
74
16
42
0.0000001000
43
0.0000001000
44
0.0000000001
12
0.3063589153
22
-0.4492792683
32
0.0000000000
13
0.5074108887
23
-0.1955551338
33
0.0000000000
40
0.0000000000
40
0.0000000000
40
0.0000000000
40
0.0000000000
40
0.0278803825
40
0.1829264274
40
0.3181115271
40
0.4369228432
40
0.5419697026
40
0.6329892333
40
0.7096959513
40
0.7740829331
40
0.8281020931
40
0.8735395371
40
0.9115466802
40
0.9425315508
40
0.9669951959
40
0.9857728885
40
1.0000000000
40
1.0000000000
40
1.0000000000
40
1.0000000000
10
14.2570593838
20
18.4268293875
30
0.0000000000
10
14.2599065183
20
18.4226540282
30
0.0000000000
10
14.2785849142
20
18.3952576581
30
0.0000000000
10
14.3110456332
20
18.3476005156
30
0.0000000000
10
14.3528176956
20
18.2863429414
30
0.0000000000
10
14.3896186849
20
18.2326652762
30
0.0000000000
10
14.4221341067
20
18.1857564338
30
0.0000000000
10
14.4506461016
20
18.1453604065
30
0.0000000000
10
14.4753366089
20
18.1112914515
30
0.0000000000
10
14.4965798805
20
18.0830125787
30
0.0000000000
10
14.5149568312
20
18.0596778991
30
0.0000000000
10
14.5309600380
20
18.0405728445
30
0.0000000000
10
14.5449140739
20
18.0252162857
30
0.0000000000
10
14.5569785105
20
18.0133092748
30
0.0000000000
10
14.5672386258
20
18.0045787303
30
0.0000000000
10
14.5758202441
20
17.9986394428
30
0.0000000000
10
14.5811821336
20
17.9959175609
30
0.0000000000
10
14.5835884641
20
17.9949901660
30
0.0000000000
11
14.2570593838
21
18.4268293875
31
0.0000000000
11
14.2655998985
21
18.4143027037
31
0.0000000000
11
14.3130788787
21
18.3446295845
31
0.0000000000
11
14.3545168499
21
18.2839092863
31
0.0000000000
11
14.3910778262
21
18.2306407039
31
0.0000000000
11
14.4236536896
21
18.1837162945
31
0.0000000000
11
14.4522333619
21
18.1433057963
31
0.0000000000
11
14.4767515211
21
18.1095599814
31
0.0000000000
11
14.4978237018
21
18.0815979825
31
0.0000000000
11
14.5160442444
21
18.0585565576
31
0.0000000000
11
14.5319617983
21
18.0396584627
31
0.0000000000
11
14.5459200686
21
18.0244161190
31
0.0000000000
11
14.5579785210
21
18.0126478805
31
0.0000000000
11
14.5681782056
21
18.0041074735
31
0.0000000000
11
14.5766400472
21
17.9983922082
31
0.0000000000
11
14.5835884641
21
17.9949901660
31
0.0000000000
0
SPLINE
5
324
100
AcDbEntity
8
0
100
AcDbSpline
62
9
6
CONTINUOUS
70
0
71
3
72
16
73
12
74
10
42
0.0000001000
43
0.0000001000
44
0.0000000001
12
0.0059612509
22
-0.3040301916
32
0.0000000000
13
-0.2781131433
23
-0.1211556934
33
0.0000000000
40
0.0000000000
40
0.0000000000
40
0.0000000000
40
0.0000000000
40
0.0071785351
40
0.0945186333
40
0.1870667236
40
0.2887600527
40
0.4023824830
40
0.5296703576
40
0.6715511280
40
0.8283603313
40
1.0000000000
40
1.0000000000
40
1.0000000000
40
1.0000000000
10
14.1406097937
20
18.9315181589
30
0.0000000000
10
14.1406240581
20
18.9307906618
30
0.0000000000
10
14.1407092016
20
18.9212100775
30
0.0000000000
10
14.1381787095
20
18.9022571056
30
0.0000000000
10
14.1276566639
20
18.8755429713
30
0.0000000000
10
14.1105145179
20
18.8493496521
30
0.0000000000
10
14.0869837303
20
18.8237579794
30
0.0000000000
10
14.0572447042
20
18.7988479600
30
0.0000000000
10
14.0214807889
20
18.7747289340
30
0.0000000000
10
13.9799105323
20
18.7515329498
30
0.0000000000
10
13.9498250087
20
18.7374021397
30
0.0000000000
10
13.9339132594
20
18.7304704320
30
0.0000000000
11
14.1406097937
21
18.9315181589
31
0.0000000000
11
14.1406291249
21
18.9293354271
31
0.0000000000
11
14.1372381869
21
18.9030580618
31
0.0000000000
11
14.1271908701
21
18.8768423300
31
0.0000000000
11
14.1105542932
21
18.8508632934
31
0.0000000000
11
14.0874395922
21
18.8252944334
31
0.0000000000
11
14.0580011780
21
18.8003064846
31
0.0000000000
11
14.0224357046
21
18.7760662914
31
0.0000000000
11
13.9809807562
21
18.7527356913
31
0.0000000000
11
13.9339132594
21
18.7304704320
31
0.0000000000
0
SPLINE
5
325
100
AcDbEntity
8
0
100
AcDbSpline
62
9
6
CONTINUOUS
70
0
71
3
72
17
73
13
74
11
42
0.0000001000
43
0.0000001000
44
0.0000000001
12
0.4243016143
22
0.4738085695
32
0.0000000000
13
-0.0086313766
23
0.6357444399
33
0.0000000000
40
0.0000000000
40
0.0000000000
40
0.0000000000
40
0.0000000000
40
0.0811524560
40
0.1744279888
40
0.2698092560
40
0.3673840652
40
0.4672358707
40
0.5695038795
40
0.6742107132
40
0.7811066389
40
0.8898397486
40
1.0000000000
40
1.0000000000
40
1.0000000000
40
1.0000000000
10
6.5991005394
20
-10.4948211523
30
0.0000000000
10
6.6105782454
20
-10.4820042426
30
0.0000000000
10
6.6341047766
20
-10.4534333484
30
0.0000000000
10
6.6666365807
20
-10.4063183865
30
0.0000000000
10
6.6967396531
20
-10.3535705240
30
0.0000000000
10
6.7230168089
20
-10.2972795799
30
0.0000000000
10
6.7453348537
20
-10.2377484849
30
0.0000000000
10
6.7635820360
20
-10.1752740842
30
0.0000000000
10
6.7776497194
20
-10.1102035872
30
0.0000000000
10
6.7874449129
20
-10.0429721596
30
0.0000000000
10
6.7929160501
20
-9.9740979605
30
0.0000000000
10
6.7936808988
20
-9.9276787114
30
0.0000000000
10
6.7933639539
20
-9.9043341223
30
0.0000000000
11
6.5991005394
21
-10.4948211523
31
0.0000000000
11
6.6319295427
21
-10.4550103483
31
0.0000000000
11
6.6656723412
21
-10.4062405756
31
0.0000000000
11
6.6957815338
21
-10.3535993872
31
0.0000000000
11
6.7220759459
21
-10.2974089794
31
0.0000000000
11
6.7444150523
21
-10.2379830023
31
0.0000000000
11
6.7626966774
21
-10.1755836196
31
0.0000000000
11
6.7768136954
21
-10.1105246942
31
0.0000000000
11
6.7866582647
21
-10.0432767041
31
0.0000000000
11
6.7921737591
21
-9.9743642308
31
0.0000000000
11
6.7933639539
21
-9.9043341223
31
0.0000000000
0
SPLINE
5
326
100
AcDbEntity
8
0
100
AcDbSpline
62
7
6
CONTINUOUS
70
0
71
3
72
13
73
9
74
7
42
0.0000001000
43
0.0000001000
44
0.0000000001
12
0.1322794796
22
0.4247754509
32
0.0000000000
13
0.1519548997
23
0.4181361506
33
0.0000000000
40
0.0000000000
40
0.0000000000
40
0.0000000000
40
0.0000000000
40
0.1294624260
40
0.3078269171
40
0.4841131610
40
0.6582820792
40
0.8302759617
40
1.0000000000
40
1.0000000000
40
1.0000000000
40
1.0000000000
10
6.6482283494
20
-10.3248425275
30
0.0000000000
10
6.6539367569
20
-10.3065117074
30
0.0000000000
10
6.6677620731
20
-10.2630045248
30
0.0000000000
10
6.6903278003
20
-10.1948486089
30
0.0000000000
10
6.7158080062
20
-10.1206797157
30
0.0000000000
10
6.7415974336
20
-10.0476195375
30
0.0000000000
10
6.7674763474
20
-9.9756247099
30
0.0000000000
10
6.7847671728
20
-9.9279900323
30
0.0000000000
10
6.7933639726
20
-9.9043341137
30
0.0000000000
11
6.6482283494
21
-10.3248425275
31
0.0000000000
11
6.6656583074
21
-10.2699461957
31
0.0000000000
11
6.6905655686
21
-10.1946036945
31
0.0000000000
11
6.7160146099
21
-10.1204192814
31
0.0000000000
11
6.7417750239
21
-10.0473404626
31
0.0000000000
11
6.7676279354
21
-9.9753216019
31
0.0000000000
11
6.7933639726
21
-9.9043341137
31
0.0000000000
0
SPLINE
5
327
100
AcDbEntity
8
0
100
AcDbSpline
62
9
6
CONTINUOUS
70
0
71
3
72
8
73
4
74
2
42
0.0000001000
43
0.0000001000
44
0.0000000001
12
0.0000457302
22
-0.0023322038
32
0.0000000000
13
-0.0000080020
23
-0.0023325361
33
0.0000000000
40
0.0000000000
40
0.0000000000
40
0.0000000000
40
0.0000000000
40
1.0000000000
40
1.0000000000
40
1.0000000000
40
1.0000000000
10
14.6231625538
20
-6.1758348017
30
0.0000000000
10
14.6231777972
20
-6.1766122029
30
0.0000000000
10
14.6231841259
20
-6.1773897556
30
0.0000000000
10
14.6231814585
20
-6.1781672676
30
0.0000000000
11
14.6231625538
21
-6.1758348017
31
0.0000000000
11
14.6231814585
21
-6.1781672676
31
0.0000000000
0
SPLINE
5
328
100
AcDbEntity
8
0
100
AcDbSpline
62
9
6
CONTINUOUS
70
0
71
3
72
15
73
11
74
9
42
0.0000001000
43
0.0000001000
44
0.0000000001
12
-0.0010348833
22
-0.3016631784
32
0.0000000000
13
-0.2759358604
23
-0.1201311019
33
0.0000000000
40
0.0000000000
40
0.0000000000
40
0.0000000000
40
0.0000000000
40
0.0874918883
40
0.1807364827
40
0.2832038774
40
0.3977006097
40
0.5259766247
40
0.6689662493
40
0.8270071308
40
1.0000000000
40
1.0000000000
40
1.0000000000
40
1.0000000000
10
14.6231814585
20
-6.1781672676
30
0.0000000000
10
14.6231512772
20
-6.1869649613
30
0.0000000000
10
14.6207124290
20
-6.2051281926
30
0.0000000000
10
14.6102082554
20
-6.2317812761
30
0.0000000000
10
14.5930655902
20
-6.2579603934
30
0.0000000000
10
14.5695344783
20
-6.2835378751
30
0.0000000000
10
14.5397952412
20
-6.3084338292
30
0.0000000000
10
14.5040311604
20
-6.3325389408
30
0.0000000000
10
14.4624607470
20
-6.3557211518
30
0.0000000000
10
14.4323755091
20
-6.3698430505
30
0.0000000000
10
14.4164638637
20
-6.3767703252
30
0.0000000000
11
14.6231814585
21
-6.1781672676
31
0.0000000000
11
14.6197906580
21
-6.2042797302
31
0.0000000000
11
14.6097430731
21
-6.2304814461
31
0.0000000000
11
14.5931062278
21
-6.2564464804
31
0.0000000000
11
14.5699912588
21
-6.2820013831
31
0.0000000000
11
14.5405525772
21
-6.3069754438
31
0.0000000000
11
14.5049868377
21
-6.3312018323
31
0.0000000000
11
14.4635316243
21
-6.3545187127
31
0.0000000000
11
14.4164638637
21
-6.3767703252
31
0.0000000000
0
SPLINE
5
329
100
AcDbEntity
8
0
100
AcDbSpline
62
9
6
CONTINUOUS
70
0
71
3
72
16
73
12
74
10
42
0.0000001000
43
0.0000001000
44
0.0000000001
12
0.0059599409
22
-0.3039524062
32
0.0000000000
13
-0.2780694651
23
-0.1210599879
33
0.0000000000
40
0.0000000000
40
0.0000000000
40
0.0000000000
40
0.0000000000
40
0.0071765414
40
0.0944935099
40
0.1870226449
40
0.2887038141
40
0.4023220200
40
0.5296137806
40
0.6715062537
40
0.8283344959
40
1.0000000000
40
1.0000000000
40
1.0000000000
40
1.0000000000
10
14.2458374719
20
13.4564930620
30
0.0000000000
10
14.2458517292
20
13.4557659530
30
0.0000000000
10
14.2459367790
20
13.4461903652
30
0.0000000000
10
14.2434058999
20
13.4272467451
30
0.0000000000
10
14.2328831713
20
13.4005465836
30
0.0000000000
10
14.2157405055
20
13.3743674671
30
0.0000000000
10
14.1922093934
20
13.3487899863
30
0.0000000000
10
14.1624701565
20
13.3238940331
30
0.0000000000
10
14.1267060763
20
13.2997889223
30
0.0000000000
10
14.0851356639
20
13.2766067118
30
0.0000000000
10
14.0550504268
20
13.2624848133
30
0.0000000000
10
14.0391387818
20
13.2555575387
30
0.0000000000
11
14.2458374719
21
13.4564930620
31
0.0000000000
11
14.2458567815
21
13.4543114947
31
0.0000000000
11
14.2424655749
21
13.4280481288
31
0.0000000000
11
14.2324179890
21
13.4018464135
31
0.0000000000
11
14.2157811432
21
13.3758813800
31
0.0000000000
11
14.1926661739
21
13.3503264782
31
0.0000000000
11
14.1632274926
21
13.3253524184
31
0.0000000000
11
14.1276617536
21
13.3011260307
31
0.0000000000
11
14.0862065412
21
13.2778091508
31
0.0000000000
11
14.0391387818
21
13.2555575387
31
0.0000000000
0
SPLINE
5
32A
100
AcDbEntity
8
0
100
AcDbSpline
62
7
6
CONTINUOUS
70
0
71
3
72
13
73
9
74
7
42
0.0000001000
43
0.0000001000
44
0.0000000001
12
-0.2707913840
22
0.0644529696
32
0.0000000000
13
-0.2589932497
23
-0.1017227062
33
0.0000000000
40
0.0000000000
40
0.0000000000
40
0.0000000000
40
0.0000000000
40
0.0775234979
40
0.2754240687
40
0.4649292015
40
0.6474691208
40
0.8252183657
40
1.0000000000
40
1.0000000000
40
1.0000000000
40
1.0000000000
10
-1.1164221627
20
26.6650491810
30
0.0000000000
10
-1.1234197277
20
26.6667147209
30
0.0000000000
10
-1.1483871589
20
26.6721829364
30
0.0000000000
10
-1.1911100170
20
26.6785733723
30
0.0000000000
10
-1.2440305348
20
26.6808215041
30
0.0000000000
10
-1.2950137189
20
26.6772316074
30
0.0000000000
10
-1.3438732492
20
26.6678968220
30
0.0000000000
10
-1.3750902483
20
26.6578407670
30
0.0000000000
10
-1.3901793361
20
26.6519143467
30
0.0000000000
11
-1.1164221627
21
26.6650491810
31
0.0000000000
11
-1.1375019352
21
26.6696596956
31
0.0000000000
11
-1.1919786114
21
26.6776979896
31
0.0000000000
11
-1.2446656373
21
26.6798379605
31
0.0000000000
11
-1.2953268934
21
26.6761907427
31
0.0000000000
11
-1.3438966031
21
26.6668520803
31
0.0000000000
11
-1.3901793361
21
26.6519143467
31
0.0000000000
0
SPLINE
5
32B
100
AcDbEntity
8
0
100
AcDbSpline
62
9
6
CONTINUOUS
70
0
71
3
72
12
73
8
74
6
42
0.0000001000
43
0.0000001000
44
0.0000000001
12
0.4663798407
22
-0.5983714490
32
0.0000000000
13
0.3456232616
23
-0.6752784215
33
0.0000000000
40
0.0000000000
40
0.0000000000
40
0.0000000000
40
0.0000000000
40
0.0579633078
40
0.2912495420
40
0.5262495839
40
0.7626188614
40
1.0000000000
40
1.0000000000
40
1.0000000000
40
1.0000000000
10
14.1771285509
20
18.6342360690
30
0.0000000000
10
14.1861395236
20
18.6226748728
30
0.0000000000
10
14.2310843288
20
18.5643236732
30
0.0000000000
10
14.3092657064
20
18.4565876830
30
0.0000000000
10
14.4073768530
20
18.3077790568
30
0.0000000000
10
14.4993349895
20
18.1538892491
30
0.0000000000
10
14.5562403163
20
18.0484229529
30
0.0000000000
10
14.5835884641
20
17.9949901660
30
0.0000000000
11
14.1771285509
21
18.6342360690
31
0.0000000000
11
14.2039626165
21
18.5993987486
31
0.0000000000
11
14.3079267381
21
18.4561883524
31
0.0000000000
11
14.4060748516
21
18.3073712228
31
0.0000000000
11
14.4980679968
21
18.1534613141
31
0.0000000000
11
14.5835884641
21
17.9949901660
31
0.0000000000
0
SPLINE
5
32C
100
AcDbEntity
8
0
100
AcDbSpline
62
7
6
CONTINUOUS
70
0
71
3
72
9
73
5
74
3
42
0.0000001000
43
0.0000001000
44
0.0000000001
12
-0.5384483906
22
-0.0870263357
32
0.0000000000
13
-0.5364366411
23
-0.0986710829
33
0.0000000000
40
0.0000000000
40
0.0000000000
40
0.0000000000
40
0.0000000000
40
0.4865918208
40
1.0000000000
40
1.0000000000
40
1.0000000000
40
1.0000000000
10
15.6011912475
20
17.8450877658
30
0.0000000000
10
15.5138563865
20
17.8309723314
30
0.0000000000
10
15.3345545973
20
17.8008368724
30
0.0000000000
10
15.1555886290
20
17.7687748515
30
0.0000000000
10
15.0637849760
20
17.7518886711
30
0.0000000000
11
15.6011912475
21
17.8450877658
31
0.0000000000
11
15.3394423312
21
17.8011888405
31
0.0000000000
11
15.0637849760
21
17.7518886711
31
0.0000000000
0
SPLINE
5
32D
100
AcDbEntity
8
0
100
AcDbSpline
62
7
6
CONTINUOUS
70
0
71
3
72
9
73
5
74
3
42
0.0000001000
43
0.0000001000
44
0.0000000001
12
0.5347239679
22
0.3685384751
32
0.0000000000
13
0.5290336627
23
0.3766612712
33
0.0000000000
40
0.0000000000
40
0.0000000000
40
0.0000000000
40
0.0000000000
40
0.5116018412
40
1.0000000000
40
1.0000000000
40
1.0000000000
40
1.0000000000
10
15.1129502976
20
15.1937974256
30
0.0000000000
10
15.2041388864
20
15.2566457464
30
0.0000000000
10
15.3819725976
20
15.3800847525
30
0.0000000000
10
15.5588643221
20
15.5048711349
30
0.0000000000
10
15.6449906777
20
15.5661913587
30
0.0000000000
11
15.1129502976
21
15.1937974256
31
0.0000000000
11
15.3858524423
21
15.3833016495
31
0.0000000000
11
15.6449906777
21
15.5661913587
31
0.0000000000
0
SPLINE
5
32E
100
AcDbEntity
8
0
100
AcDbSpline
62
9
6
CONTINUOUS
70
0
71
3
72
21
73
17
74
15
42
0.0000001000
43
0.0000001000
44
0.0000000001
12
2.1140593849
22
-1.2444364994
32
0.0000000000
13
0.8235094657
23
-2.3103773663
33
0.0000000000
40
0.0000000000
40
0.0000000000
40
0.0000000000
40
0.0000000000
40
0.0379579788
40
0.1066608739
40
0.1765807097
40
0.2476583002
40
0.3198185901
40
0.3929728144
40
0.4670196924
40
0.5418473918
40
0.6173349175
40
0.6933538095
40
0.7697697427
40
0.8464439383
40
0.9232349882
40
1.0000000000
40
1.0000000000
40
1.0000000000
40
1.0000000000
10
14.1251615851
20
19.7386431162
30
0.0000000000
10
14.1519100589
20
19.7228976847
30
0.0000000000
10
14.2263094999
20
19.6773565744
30
0.0000000000
10
14.3458385261
20
19.5962424342
30
0.0000000000
10
14.4819802719
20
19.4918804286
30
0.0000000000
10
14.6142239525
20
19.3782413336
30
0.0000000000
10
14.7420336502
20
19.2557885135
30
0.0000000000
10
14.8648910562
20
19.1250209602
30
0.0000000000
10
14.9822978314
20
18.9864711251
30
0.0000000000
10
15.0937774707
20
18.8407030121
30
0.0000000000
10
15.1988773672
20
18.6883098484
30
0.0000000000
10
15.2971706884
20
18.5299116164
30
0.0000000000
10
15.3882579188
20
18.3661531664
30
0.0000000000
10
15.4717693681
20
18.1976992748
30
0.0000000000
10
15.5473636096
20
18.0252404922
30
0.0000000000
10
15.5923167092
20
17.9079603468
30
0.0000000000
10
15.6133889471
20
17.8488416316
30
0.0000000000
11
14.1251615851
21
19.7386431162
31
0.0000000000
11
14.2045853233
21
19.6900462437
31
0.0000000000
11
14.3440719865
21
19.5954969296
31
0.0000000000
11
14.4802294482
21
19.4912274582
31
0.0000000000
11
14.6125024756
21
19.3776630294
31
0.0000000000
11
14.7403511361
21
19.2552672054
31
0.0000000000
11
14.8632539967
21
19.1245391830
31
0.0000000000
11
14.9807094611
21
18.9860124911
31
0.0000000000
11
15.0922383945
21
18.8402522241
31
0.0000000000
11
15.1973857106
21
18.6878531426
31
0.0000000000
11
15.2957223959
21
18.5294370578
31
0.0000000000
11
15.3868472763
21
18.3656502384
31
0.0000000000
11
15.4703884762
21
18.1971610946
31
0.0000000000
11
15.5460052479
21
18.0246568540
31
0.0000000000
11
15.6133889471
21
17.8488416316
31
0.0000000000
0
SPLINE
5
32F
100
AcDbEntity
8
0
100
AcDbSpline
62
9
6
CONTINUOUS
70
0
71
3
72
11
73
7
74
5
42
0.0000001000
43
0.0000001000
44
0.0000000001
12
-0.0474358643
22
0.0113080444
32
0.0000000000
13
-0.0452934452
23
-0.0178380458
33
0.0000000000
40
0.0000000000
40
0.0000000000
40
0.0000000000
40
0.0000000000
40
0.0551958044
40
0.3583036018
40
0.6709744182
40
1.0000000000
40
1.0000000000
40
1.0000000000
40
1.0000000000
10
-7.4434915369
20
25.8443044048
30
0.0000000000
10
-7.4443642904
20
25.8445124570
30
0.0000000000
10
-7.4500553935
20
25.8457549126
30
0.0000000000
10
-7.4609766836
20
25.8467454760
30
0.0000000000
10
-7.4763050522
20
25.8450332655
30
0.0000000000
10
-7.4863236062
20
25.8419787273
30
0.0000000000
10
-7.4912911735
20
25.8400223362
30
0.0000000000
11
-7.4434915369
21
25.8443044048
31
0.0000000000
11
-7.4461210359
21
25.8448783200
31
0.0000000000
11
-7.4608131354
21
25.8462407064
31
0.0000000000
11
-7.4759465903
21
25.8446137950
31
0.0000000000
11
-7.4912911735
21
25.8400223362
31
0.0000000000
0
SPLINE
5
330
100
AcDbEntity
8
0
100
AcDbSpline
62
7
6
CONTINUOUS
70
0
71
3
72
13
73
9
74
7
42
0.0000001000
43
0.0000001000
44
0.0000000001
12
-0.2707913840
22
0.0644529696
32
0.0000000000
13
-0.2589932497
23
-0.1017227062
33
0.0000000000
40
0.0000000000
40
0.0000000000
40
0.0000000000
40
0.0000000000
40
0.0775234979
40
0.2754240687
40
0.4649292015
40
0.6474691208
40
0.8252183657
40
1.0000000000
40
1.0000000000
40
1.0000000000
40
1.0000000000
10
7.4896519201
20
24.6155565488
30
0.0000000000
10
7.4826543550
20
24.6172220887
30
0.0000000000
10
7.4576869239
20
24.6226903042
30
0.0000000000
10
7.4149640657
20
24.6290807400
30
0.0000000000
10
7.3620435480
20
24.6313288719
30
0.0000000000
10
7.3110603639
20
24.6277389751
30
0.0000000000
10
7.2622008336
20
24.6184041897
30
0.0000000000
10
7.2309838345
20
24.6083481347
30
0.0000000000
10
7.2158947467
20
24.6024217145
30
0.0000000000
11
7.4896519201
21
24.6155565488
31
0.0000000000
11
7.4685721476
21
24.6201670634
31
0.0000000000
11
7.4140954714
21
24.6282053573
31
0.0000000000
11
7.3614084455
21
24.6303453282
31
0.0000000000
11
7.3107471894
21
24.6266981104
31
0.0000000000
11
7.2621774797
21
24.6173594480
31
0.0000000000
11
7.2158947467
21
24.6024217145
31
0.0000000000
0
SPLINE
5
331
100
AcDbEntity
8
0
100
AcDbSpline
62
9
6
CONTINUOUS
70
0
71
3
72
12
73
8
74
6
42
0.0000001000
43
0.0000001000
44
0.0000000001
12
-0.2371671538
22
0.0564639361
32
0.0000000000
13
-0.2266606985
23
-0.0892664146
33
0.0000000000
40
0.0000000000
40
0.0000000000
40
0.0000000000
40
0.0000000000
40
0.1608072811
40
0.3622606712
40
0.5679637375
40
0.7799707386
40
1.0000000000
40
1.0000000000
40
1.0000000000
40
1.0000000000
10
13.3081752995
20
23.2299043526
30
0.0000000000
10
13.2954625645
20
23.2329309567
30
0.0000000000
10
13.2664445560
20
23.2381593841
30
0.0000000000
10
13.2202525027
20
23.2406710508
30
0.0000000000
10
13.1699886193
20
23.2367152117
30
0.0000000000
10
13.1191615707
20
23.2261727325
30
0.0000000000
10
13.0858007416
20
23.2150395457
30
0.0000000000
10
13.0691767462
20
23.2084924713
30
0.0000000000
11
13.3081752995
21
23.2299043526
31
0.0000000000
11
13.2696128513
21
23.2368581726
31
0.0000000000
11
13.2206129689
21
23.2395746438
31
0.0000000000
11
13.1706504527
21
23.2357281087
31
0.0000000000
11
13.1200590592
21
23.2253442627
31
0.0000000000
11
13.0691767462
21
23.2084924713
31
0.0000000000
0
SPLINE
5
332
100
AcDbEntity
8
0
100
AcDbSpline
62
7
6
CONTINUOUS
70
0
71
3
72
33
73
29
74
27
42
0.0000001000
43
0.0000001000
44
0.0000000001
12
3.9171874151
22
1.0666120966
32
0.0000000000
13
3.7325498360
23
-1.5974931691
33
0.0000000000
40
0.0000000000
40
0.0000000000
40
0.0000000000
40
0.0000000000
40
0.0270809101
40
0.0637233503
40
0.1017114435
40
0.1408993018
40
0.1811698393
40
0.2223572575
40
0.2643389481
40
0.3069336181
40
0.3500163847
40
0.3933948298
40
0.4369445231
40
0.4804663875
40
0.5238388420
40
0.5668607581
40
0.6094156178
40
0.6513049995
40
0.6924196222
40
0.7325686942
40
0.7716524870
40
0.8094929953
40
0.8460027712
40
0.8810221891
40
0.9144796889
40
0.9462405469
40
0.9762544620
40
1.0000000000
40
1.0000000000
40
1.0000000000
40
1.0000000000
10
5.4830440316
20
22.4047446159
30
0.0000000000
10
5.5184043649
20
22.4143728913
30
0.0000000000
10
5.6018882543
20
22.4360047146
30
0.0000000000
10
5.7360020278
20
22.4670315597
30
0.0000000000
10
5.8869706371
20
22.4976321737
30
0.0000000000
10
6.0435064385
20
22.5252110998
30
0.0000000000
10
6.2049419603
20
22.5496496085
30
0.0000000000
10
6.3706455752
20
22.5708513089
30
0.0000000000
10
6.5399033313
20
22.5887241074
30
0.0000000000
10
6.7120589466
20
22.6031982440
30
0.0000000000
10
6.8863641527
20
22.6142103768
30
0.0000000000
10
7.0621486993
20
22.6217179494
30
0.0000000000
10
7.2386429312
20
22.6256879293
30
0.0000000000
10
7.4151731994
20
22.6261051630
30
0.0000000000
10
7.5909619264
20
22.6229679037
30
0.0000000000
10
7.7653424567
20
22.6162882481
30
0.0000000000
10
7.9375430393
20
22.6060961111
30
0.0000000000
10
8.1069141602
20
22.5924303478
30
0.0000000000
10
8.2727036693
20
22.5753522974
30
0.0000000000
10
8.4342890414
20
22.5549267506
30
0.0000000000
10
8.5909512793
20
22.5312456113
30
0.0000000000
10
8.7421043630
20
22.5043984441
30
0.0000000000
10
8.8870755681
20
22.4745062152
30
0.0000000000
10
9.0253245885
20
22.4416817111
30
0.0000000000
10
9.1562375278
20
22.4060727273
30
0.0000000000
10
9.2793288061
20
22.3678131353
30
0.0000000000
10
9.3884170330
20
22.3290764050
30
0.0000000000
10
9.4559229123
20
22.3019019323
30
0.0000000000
10
9.4854667137
20
22.2892574874
30
0.0000000000
11
5.4830440316
21
22.4047446159
31
0.0000000000
11
5.5894592094
21
22.4323628181
31
0.0000000000
11
5.7343685200
21
22.4659699278
31
0.0000000000
11
5.8854994562
21
22.4966732260
31
0.0000000000
11
6.0421652313
21
22.5243334321
31
0.0000000000
11
6.2038005152
21
22.5488505671
31
0.0000000000
11
6.3696497856
21
22.5701102453
31
0.0000000000
11
6.5391350076
21
22.5880382378
31
0.0000000000
11
6.7114443648
21
22.6025488584
31
0.0000000000
11
6.8859960895
21
22.6135930096
31
0.0000000000
11
7.0619364061
21
22.6211168352
31
0.0000000000
11
7.2386879536
21
22.6250955619
31
0.0000000000
11
7.4153708159
21
22.6255095239
31
0.0000000000
11
7.5914193937
21
22.6223573308
31
0.0000000000
11
7.7659444810
21
22.6156550237
31
0.0000000000
11
7.9383988899
21
22.6054235662
31
0.0000000000
11
8.1079015243
21
22.5917153300
31
0.0000000000
11
8.2739296546
21
22.5745725528
31
0.0000000000
11
8.4356277450
21
22.5540836444
31
0.0000000000
11
8.5925030852
21
22.5303110116
31
0.0000000000
11
8.7437427009
21
22.5033778987
31
0.0000000000
11
8.8888891014
21
22.4733657636
31
0.0000000000
11
9.0271879377
21
22.4404306013
31
0.0000000000
11
9.1582219005
21
22.4046717921
31
0.0000000000
11
9.2813099319
21
22.3662751756
31
0.0000000000
11
9.3960797386
21
22.3253569026
31
0.0000000000
11
9.4854667137
21
22.2892574874
31
0.0000000000
0
SPLINE
5
333
100
AcDbEntity
8
0
100
AcDbSpline
62
7
6
CONTINUOUS
70
0
71
3
72
9
73
5
74
3
42
0.0000001000
43
0.0000001000
44
0.0000000001
12
-0.0360738950
22
0.0101426878
32
0.0000000000
13
-0.0360123682
23
0.0103589311
33
0.0000000000
40
0.0000000000
40
0.0000000000
40
0.0000000000
40
0.0000000000
40
0.3009706897
40
1.0000000000
40
1.0000000000
40
1.0000000000
40
1.0000000000
10
8.7557600849
20
22.0259067611
30
0.0000000000
10
8.7521410233
20
22.0269243117
30
0.0000000000
10
8.7401194991
20
22.0303162610
30
0.0000000000
10
8.7281082474
20
22.0337445157
30
0.0000000000
10
8.7197170137
20
22.0361582478
30
0.0000000000
11
8.7557600849
21
22.0259067611
31
0.0000000000
11
8.7449057009
21
22.0289693550
31
0.0000000000
11
8.7197170137
21
22.0361582478
31
0.0000000000
0
SPLINE
5
334
100
AcDbEntity
8
0
100
AcDbSpline
62
7
6
CONTINUOUS
70
0
71
3
72
10
73
6
74
4
42
0.0000001000
43
0.0000001000
44
0.0000000001
12
-0.0126312720
22
-0.0067465890
32
0.0000000000
13
-0.0116654605
23
-0.0083055720
33
0.0000000000
40
0.0000000000
40
0.0000000000
40
0.0000000000
40
0.0000000000
40
0.3121048688
40
0.6447386677
40
1.0000000000
40
1.0000000000
40
1.0000000000
40
1.0000000000
10
15.6571143616
20
15.5737962823
30
0.0000000000
10
15.6558002678
20
15.5730944012
30
0.0000000000
10
15.6531228633
20
15.5715740113
30
0.0000000000
10
15.6490805660
20
15.5690329617
30
0.0000000000
10
15.6463721067
20
15.5671749082
30
0.0000000000
10
15.6449906777
20
15.5661913587
30
0.0000000000
11
15.6571143616
21
15.5737962823
31
0.0000000000
11
15.6532247933
21
15.5715947883
31
0.0000000000
11
15.6491889193
21
15.5690647206
31
0.0000000000
11
15.6449906777
21
15.5661913587
31
0.0000000000
0
SPLINE
5
335
100
AcDbEntity
8
0
100
AcDbSpline
62
7
6
CONTINUOUS
70
0
71
3
72
10
73
6
74
4
42
0.0000001000
43
0.0000001000
44
0.0000000001
12
-0.0115845232
22
-0.0054428507
32
0.0000000000
13
-0.0126354747
23
-0.0020421996
33
0.0000000000
40
0.0000000000
40
0.0000000000
40
0.0000000000
40
0.0000000000
40
0.3298747820
40
0.6618573106
40
1.0000000000
40
1.0000000000
40
1.0000000000
40
1.0000000000
10
15.6133889471
20
17.8488416316
30
0.0000000000
10
15.6121151331
20
17.8482431452
30
0.0000000000
10
15.6095018881
20
17.8471602853
30
0.0000000000
10
15.6054191853
20
17.8459021896
30
0.0000000000
10
15.6026154453
20
17.8453179507
30
0.0000000000
10
15.6011912475
20
17.8450877658
30
0.0000000000
11
15.6133889471
21
17.8488416316
31
0.0000000000
11
15.6094881211
21
17.8472258811
31
0.0000000000
11
15.6054276912
21
17.8459734662
31
0.0000000000
11
15.6011912475
21
17.8450877658
31
0.0000000000
0
SPLINE
5
336
100
AcDbEntity
8
0
100
AcDbSpline
62
7
6
CONTINUOUS
70
0
71
3
72
15
73
11
74
9
42
0.0000001000
43
0.0000001000
44
0.0000000001
12
-0.2312853665
22
0.3915806428
32
0.0000000000
13
-0.1702300071
23
0.4217492146
33
0.0000000000
40
0.0000000000
40
0.0000000000
40
0.0000000000
40
0.0000000000
40
0.1214216559
40
0.2447481701
40
0.3701597865
40
0.4978947438
40
0.6282414372
40
0.7615412490
40
0.8981827141
40
1.0000000000
40
1.0000000000
40
1.0000000000
40
1.0000000000
10
6.2385666798
20
18.9619217317
30
0.0000000000
10
6.2292056624
20
18.9777705217
30
0.0000000000
10
6.2103589980
20
19.0097299303
30
0.0000000000
10
6.1821378860
20
19.0582319086
30
0.0000000000
10
6.1539625687
20
19.1078652174
30
0.0000000000
10
6.1260479031
20
19.1588638944
30
0.0000000000
10
6.0986187051
20
19.2114798719
30
0.0000000000
10
6.0719165653
20
19.2659789368
30
0.0000000000
10
6.0486211672
20
19.3173058526
30
0.0000000000
10
6.0346454267
20
19.3506494954
30
0.0000000000
10
6.0288679743
20
19.3649632822
30
0.0000000000
11
6.2385666798
21
18.9619217317
31
0.0000000000
11
6.2105517000
21
19.0095082428
31
0.0000000000
11
6.1823824696
21
19.0580080895
31
0.0000000000
11
6.1542637960
21
19.1076301736
31
0.0000000000
11
6.1264091820
21
19.1586083721
31
0.0000000000
11
6.0990432101
21
19.2111932617
31
0.0000000000
11
6.0724057143
21
19.2656500622
31
0.0000000000
11
6.0467564169
21
19.3222520265
31
0.0000000000
11
6.0288679743
21
19.3649632822
31
0.0000000000
0
SPLINE
5
337
100
AcDbEntity
8
0
100
AcDbSpline
62
9
6
CONTINUOUS
70
0
71
3
72
20
73
16
74
14
42
0.0000001000
43
0.0000001000
44
0.0000000001
12
-0.0220480634
22
0.8858215842
32
0.0000000000
13
-0.5735536372
23
0.6755971982
33
0.0000000000
40
0.0000000000
40
0.0000000000
40
0.0000000000
40
0.0000000000
40
0.0799423744
40
0.1614019125
40
0.2440415632
40
0.3275012191
40
0.4114353637
40
0.4956657819
40
0.5800706718
40
0.6644365040
40
0.7485025437
40
0.8320434289
40
0.9148618631
40
0.9967724563
40
1.0000000000
40
1.0000000000
40
1.0000000000
40
1.0000000000
10
6.2385666611
20
18.9619217241
30
0.0000000000
10
6.2379791363
20
18.9855266176
30
0.0000000000
10
6.2353341244
20
19.0331594717
30
0.0000000000
10
6.2270952998
20
19.1048074878
30
0.0000000000
10
6.2145609688
20
19.1768864246
30
0.0000000000
10
6.1978069572
20
19.2488517007
30
0.0000000000
10
6.1769470069
20
19.3202247347
30
0.0000000000
10
6.1521067571
20
19.3906073656
30
0.0000000000
10
6.1234141819
20
19.4596473274
30
0.0000000000
10
6.0910198612
20
19.5269760062
30
0.0000000000
10
6.0551082299
20
19.5922054917
30
0.0000000000
10
6.0158857123
20
19.6549619132
30
0.0000000000
10
5.9735697721
20
19.7148990188
30
0.0000000000
10
5.9426680896
20
19.7537429306
30
0.0000000000
10
5.9264133700
20
19.7729349338
30
0.0000000000
10
5.9257963136
20
19.7736617736
30
0.0000000000
11
6.2385666611
21
18.9619217241
31
0.0000000000
11
6.2346711275
21
19.0326511415
31
0.0000000000
11
6.2264528977
21
19.1043627335
31
0.0000000000
11
6.2139292006
21
19.1765105018
31
0.0000000000
11
6.1971773724
21
19.2485414751
31
0.0000000000
11
6.1763243625
21
19.3199319493
31
0.0000000000
11
6.1514903722
21
19.3903154691
31
0.0000000000
11
6.1227886173
21
19.4593797683
31
0.0000000000
11
6.0903730023
21
19.5267423722
31
0.0000000000
11
6.0544387895
21
19.5919924926
31
0.0000000000
11
6.0151927975
21
19.6547578335
31
0.0000000000
11
5.9728511468
21
19.7146957530
31
0.0000000000
11
5.9276449378
21
19.7714790996
31
0.0000000000
11
5.9257963136
21
19.7736617736
31
0.0000000000
0
SPLINE
5
338
100
AcDbEntity
8
0
100
AcDbSpline
62
9
6
CONTINUOUS
70
0
71
3
72
16
73
12
74
10
42
0.0000001000
43
0.0000001000
44
0.0000000001
12
0.0059332589
22
-0.3039439972
32
0.0000000000
13
-0.2780613719
23
-0.1210564620
33
0.0000000000
40
0.0000000000
40
0.0000000000
40
0.0000000000
40
0.0000000000
40
0.0071407086
40
0.0944608301
40
0.1869930782
40
0.2886776223
40
0.4022996940
40
0.5295959598
40
0.6714936525
40
0.8283278619
40
1.0000000000
40
1.0000000000
40
1.0000000000
40
1.0000000000
10
14.0763241781
20
22.2763166007
30
0.0000000000
10
14.0763383007
20
22.2755931422
30
0.0000000000
10
14.0764229949
20
22.2660211478
30
0.0000000000
10
14.0738929556
20
22.2470810185
30
0.0000000000
10
14.0633705615
20
22.2203805555
30
0.0000000000
10
14.0462280786
20
22.1942011408
30
0.0000000000
10
14.0226970089
20
22.1686233697
30
0.0000000000
10
13.9929576795
20
22.1437271358
30
0.0000000000
10
13.9571933764
20
22.1196217562
30
0.0000000000
10
13.9156226232
20
22.0964392968
30
0.0000000000
10
13.8855371109
20
22.0823172597
30
0.0000000000
10
13.8696253141
20
22.0753899191
30
0.0000000000
11
14.0763241781
21
22.2763166007
31
0.0000000000
11
14.0763433180
21
22.2741459884
31
0.0000000000
11
14.0729525850
21
22.2478823744
31
0.0000000000
11
14.0629053390
21
22.2216803924
31
0.0000000000
11
14.0462686943
21
22.1957150805
31
0.0000000000
11
14.0231537854
21
22.1701598958
31
0.0000000000
11
13.9937150244
21
22.1451855548
31
0.0000000000
11
13.9581490710
21
22.1209588953
31
0.0000000000
11
13.9166935153
21
22.0976417583
31
0.0000000000
11
13.8696253141
21
22.0753899191
31
0.0000000000
0
SPLINE
5
339
100
AcDbEntity
8
0
100
AcDbSpline
62
9
6
CONTINUOUS
70
0
71
3
72
26
73
22
74
20
42
0.0000001000
43
0.0000001000
44
0.0000000001
12
-0.0118215549
22
1.4850166647
32
0.0000000000
13
-1.4474390087
23
0.3321664641
33
0.0000000000
40
0.0000000000
40
0.0000000000
40
0.0000000000
40
0.0000000000
40
0.0533616387
40
0.1074676021
40
0.1621830781
40
0.2173613488
40
0.2728468695
40
0.3284783416
40
0.3840917594
40
0.4395234506
40
0.4946131171
40
0.5492068886
40
0.6031603983
40
0.6563418874
40
0.7086353318
40
0.7599435938
40
0.8101914946
40
0.8593289225
40
0.9073332161
40
0.9542128116
40
1.0000000000
40
1.0000000000
40
1.0000000000
40
1.0000000000
10
13.8696253141
20
22.0753899191
30
0.0000000000
10
13.8694150416
20
22.1018042267
30
0.0000000000
10
13.8671483848
20
22.1550029465
30
0.0000000000
10
13.8583900560
20
22.2348629683
30
0.0000000000
10
13.8443078409
20
22.3148733210
30
0.0000000000
10
13.8249982556
20
22.3944856772
30
0.0000000000
10
13.8005930053
20
22.4731607497
30
0.0000000000
10
13.7712581967
20
22.5503637563
30
0.0000000000
10
13.7371932184
20
22.6255702961
30
0.0000000000
10
13.6986293946
20
22.6982693226
30
0.0000000000
10
13.6558283960
20
22.7679667840
30
0.0000000000
10
13.6090804308
20
22.8341889258
30
0.0000000000
10
13.5587022277
20
22.8964854897
30
0.0000000000
10
13.5050348409
20
22.9544327039
30
0.0000000000
10
13.4484412656
20
23.0076360694
30
0.0000000000
10
13.3893040407
20
23.0557328609
30
0.0000000000
10
13.3280223839
20
23.0983944676
30
0.0000000000
10
13.2650107861
20
23.1353280466
30
0.0000000000
10
13.2006924921
20
23.1662792876
30
0.0000000000
10
13.1355141013
20
23.1910294614
30
0.0000000000
10
13.0912681338
20
23.2034228152
30
0.0000000000
10
13.0691767462
20
23.2084924713
30
0.0000000000
11
13.8696253141
21
22.0753899191
31
0.0000000000
11
13.8662920679
21
22.1545652195
31
0.0000000000
11
13.8575657675
21
22.2344407681
31
0.0000000000
11
13.8435060013
21
22.3144711081
31
0.0000000000
11
13.8242087777
21
22.3941097483
31
0.0000000000
11
13.7998058708
21
22.4728128695
31
0.0000000000
11
13.7704639193
21
22.5500430431
31
0.0000000000
11
13.7363832895
21
22.6252728979
31
0.0000000000
11
13.6977967069
21
22.6979887222
31
0.0000000000
11
13.6549676673
21
22.7676939723
31
0.0000000000
11
13.6081886370
21
22.8339126638
31
0.0000000000
11
13.5577790540
21
22.8961926234
31
0.0000000000
11
13.5040831440
21
22.9541085790
31
0.0000000000
11
13.4474675673
21
23.0072650632
31
0.0000000000
11
13.3883188966
21
23.0552991242
31
0.0000000000
11
13.3270410258
21
23.0978827605
31
0.0000000000
11
13.2640523234
21
23.1347252225
31
0.0000000000
11
13.1997834071
21
23.1655746938
31
0.0000000000
11
13.1346727214
21
23.1902207833
31
0.0000000000
11
13.0691767462
21
23.2084924713
31
0.0000000000
0
SPLINE
5
33A
100
AcDbEntity
8
0
100
AcDbSpline
62
9
6
CONTINUOUS
70
0
71
3
72
46
73
42
74
40
42
0.0000001000
43
0.0000001000
44
0.0000000001
12
0.0422822052
22
-2.1885697576
32
0.0000000000
13
1.1748020728
23
1.8470152837
33
0.0000000000
40
0.0000000000
40
0.0000000000
40
0.0000000000
40
0.0000000000
40
0.0551672740
40
0.1104364074
40
0.1656344749
40
0.2206219714
40
0.2749898284
40
0.3281878637
40
0.3799897038
40
0.4298386292
40
0.4758843556
40
0.5163534233
40
0.5508580444
40
0.5804409632
40
0.6063971760
40
0.6295810696
40
0.6499804898
40
0.6679070214
40
0.6838854254
40
0.6984130020
40
0.7119510862
40
0.7246939712
40
0.7366361684
40
0.7477164574
40
0.7579185933
40
0.7673142810
40
0.7760614546
40
0.7844319864
40
0.7927691522
40
0.8014572177
40
0.8109124804
40
0.8215418639
40
0.8336361815
40
0.8473930593
40
0.8628969596
40
0.8801462233
40
0.8991017199
40
0.9199755505
40
0.9433128094
40
0.9697586254
40
1.0000000000
40
1.0000000000
40
1.0000000000
40
1.0000000000
10
13.9339132594
20
18.7304704320
30
0.0000000000
10
13.9346907907
20
18.6902246228
30
0.0000000000
10
13.9381259927
20
18.6096815716
30
0.0000000000
10
13.9490734874
20
18.4892753444
30
0.0000000000
10
13.9660040993
20
18.3696892344
30
0.0000000000
10
13.9890443689
20
18.2517939006
30
0.0000000000
10
14.0181963360
20
18.1367577633
30
0.0000000000
10
14.0533136633
20
18.0258293686
30
0.0000000000
10
14.0940756465
20
17.9203675410
30
0.0000000000
10
14.1396021815
20
17.8225913293
30
0.0000000000
10
14.1880024491
20
17.7355530479
30
0.0000000000
10
14.2366347594
20
17.6617458549
30
0.0000000000
10
14.2834172586
20
17.6013869223
30
0.0000000000
10
14.3276308777
20
17.5526971808
30
0.0000000000
10
14.3695827385
20
17.5133664857
30
0.0000000000
10
14.4094532405
20
17.4818788496
30
0.0000000000
10
14.4470653569
20
17.4572780356
30
0.0000000000
10
14.4821278285
20
17.4386996716
30
0.0000000000
10
14.5148105034
20
17.4251214268
30
0.0000000000
10
14.5455640323
20
17.4156298692
30
0.0000000000
10
14.5747649824
20
17.4095791432
30
0.0000000000
10
14.6025291194
20
17.4065289250
30
0.0000000000
10
14.6286574907
20
17.4060868770
30
0.0000000000
10
14.6528685370
20
17.4077915855
30
0.0000000000
10
14.6750228813
20
17.4111387582
30
0.0000000000
10
14.6952163000
20
17.4156794127
30
0.0000000000
10
14.7137955670
20
17.4211117263
30
0.0000000000
10
14.7313061573
20
17.4273314827
30
0.0000000000
10
14.7484253787
20
17.4344446977
30
0.0000000000
10
14.7658798120
20
17.4427500470
30
0.0000000000
10
14.7843702477
20
17.4527116538
30
0.0000000000
10
14.8044537952
20
17.4648952578
30
0.0000000000
10
14.8264637297
20
17.4798877106
30
0.0000000000
10
14.8504656454
20
17.4981997919
30
0.0000000000
10
14.8763135289
20
17.5202149373
30
0.0000000000
10
14.9037264105
20
17.5461634120
30
0.0000000000
10
14.9325126187
20
17.5762843865
30
0.0000000000
10
14.9627555248
20
17.6110860259
30
0.0000000000
10
14.9947996096
20
17.6514946779
30
0.0000000000
10
15.0290861231
20
17.6987795842
30
0.0000000000
10
15.0519424328
20
17.7332699108
30
0.0000000000
10
15.0637849760
20
17.7518886711
30
0.0000000000
11
13.9339132594
21
18.7304704320
31
0.0000000000
11
13.9390870469
21
18.6098213569
31
0.0000000000
11
13.9500801251
21
18.4893389078
31
0.0000000000
11
13.9670678193
21
18.3697116947
31
0.0000000000
11
13.9902183320
21
18.2515925560
31
0.0000000000
11
14.0195332383
21
18.1362494652
31
0.0000000000
11
14.0547771405
21
18.0252615581
31
0.0000000000
11
14.0957778327
21
17.9195405216
31
0.0000000000
11
14.1419844027
21
17.8206884282
31
0.0000000000
11
14.1911316732
21
17.7326896063
31
0.0000000000
11
14.2400273014
21
17.6588202614
31
0.0000000000
11
14.2864291303
21
17.5992247052
31
0.0000000000
11
14.3300716073
21
17.5513841287
31
0.0000000000
11
14.3716146413
21
17.5126231425
31
0.0000000000
11
14.4115199713
21
17.4812698436
31
0.0000000000
11
14.4489486530
21
17.4569169534
31
0.0000000000
11
14.4836618906
21
17.4386185809
31
0.0000000000
11
14.5159856736
21
17.4252574427
31
0.0000000000
11
14.5463851477
21
17.4159221965
31
0.0000000000
11
14.5754093800
21
17.4099387438
31
0.0000000000
11
14.6031382114
21
17.4069086613
31
0.0000000000
11
14.6292757500
21
17.4064706262
31
0.0000000000
11
14.6534706503
21
17.4081700618
31
0.0000000000
11
14.6755535376
21
17.4114980645
31
0.0000000000
11
14.6956215505
21
17.4160007848
31
0.0000000000
11
14.7140020929
21
17.4213652531
31
0.0000000000
11
14.7312711973
21
17.4274895580
31
0.0000000000
11
14.7481277838
21
17.4344833685
31
0.0000000000
11
14.7653054524
21
17.4426449542
31
0.0000000000
11
14.7835332868
21
17.4524493872
31
0.0000000000
11
14.8034361432
21
17.4645014539
31
0.0000000000
11
14.8253308126
21
17.4793845506
31
0.0000000000
11
14.8492923488
21
17.4976237382
31
0.0000000000
11
14.8751556165
21
17.5195977867
31
0.0000000000
11
14.9026097128
21
17.5455199566
31
0.0000000000
11
14.9313146988
21
17.5754817119
31
0.0000000000
11
14.9613271036
21
17.6099352639
31
0.0000000000
11
14.9931156025
21
17.6499245501
31
0.0000000000
11
15.0271483927
21
17.6967534069
31
0.0000000000
11
15.0637849760
21
17.7518886711
31
0.0000000000
0
SPLINE
5
33B
100
AcDbEntity
8
0
100
AcDbSpline
62
7
6
CONTINUOUS
70
0
71
3
72
24
73
20
74
18
42
0.0000001000
43
0.0000001000
44
0.0000000001
12
0.3535534638
22
-0.4414434084
32
0.0000000000
13
0.5562411383
23
0.1023138825
33
0.0000000000
40
0.0000000000
40
0.0000000000
40
0.0000000000
40
0.0000000000
40
0.0788408129
40
0.1526325441
40
0.2229622588
40
0.2907276599
40
0.3563504799
40
0.4199902616
40
0.4816793988
40
0.5414009104
40
0.5991372544
40
0.6548980193
40
0.7087339934
40
0.7607447291
40
0.8110735590
40
0.8599113999
40
0.9074873921
40
0.9540778500
40
1.0000000000
40
1.0000000000
40
1.0000000000
40
1.0000000000
10
14.5835884641
20
17.9949901660
30
0.0000000000
10
14.5928799449
20
17.9833889136
30
0.0000000000
10
14.6112565461
20
17.9612346606
30
0.0000000000
10
14.6394857844
20
17.9300716750
30
0.0000000000
10
14.6676685436
20
17.9017410901
30
0.0000000000
10
14.6960667718
20
17.8758611008
30
0.0000000000
10
14.7247821839
20
17.8522725723
30
0.0000000000
10
14.7538106980
20
17.8309508268
30
0.0000000000
10
14.7830834640
20
17.8119352539
30
0.0000000000
10
14.8124935718
20
17.7952859996
30
0.0000000000
10
14.8419128984
20
17.7810564680
30
0.0000000000
10
14.8712051304
20
17.7692769527
30
0.0000000000
10
14.9002367194
20
17.7599474360
30
0.0000000000
10
14.9288838830
20
17.7530296495
30
0.0000000000
10
14.9570438967
20
17.7484592400
30
0.0000000000
10
14.9846382535
20
17.7461363454
30
0.0000000000
10
15.0116243711
20
17.7459559354
30
0.0000000000
10
15.0379943205
20
17.7477991132
30
0.0000000000
10
15.0552707445
20
17.7503228299
30
0.0000000000
10
15.0637853409
20
17.7518889878
30
0.0000000000
11
14.5835884641
21
17.9949901660
31
0.0000000000
11
14.6121174353
21
17.9607208816
31
0.0000000000
11
14.6401658628
21
17.9298168233
31
0.0000000000
11
14.6682385385
21
17.9016370536
31
0.0000000000
11
14.6965838190
21
17.8758408004
31
0.0000000000
11
14.7252803264
21
17.8523037205
31
0.0000000000
11
14.7543065514
21
17.8310206709
31
0.0000000000
11
14.7835821405
21
17.8120409466
31
0.0000000000
11
14.8129916990
21
17.7954291018
31
0.0000000000
11
14.8424015726
21
17.7812393485
31
0.0000000000
11
14.8716722666
21
17.7695007943
31
0.0000000000
11
14.9006682966
21
17.7602099328
31
0.0000000000
11
14.9292675170
21
17.7533268694
31
0.0000000000
11
14.9573669532
21
17.7487820408
31
0.0000000000
11
14.9848919293
21
17.7464767649
31
0.0000000000
11
15.0117990333
21
17.7463012761
31
0.0000000000
11
15.0380851382
21
17.7481392692
31
0.0000000000
11
15.0637853409
21
17.7518889878
31
0.0000000000
0
SPLINE
5
33C
100
AcDbEntity
8
0
100
AcDbSpline
62
7
6
CONTINUOUS
70
0
71
3
72
24
73
20
74
18
42
0.0000001000
43
0.0000001000
44
0.0000000001
12
-0.5480228367
22
-0.3777042225
32
0.0000000000
13
-0.4103660333
23
-0.5240126219
33
0.0000000000
40
0.0000000000
40
0.0000000000
40
0.0000000000
40
0.0000000000
40
0.0468400803
40
0.0955699835
40
0.1463165270
40
0.1991355813
40
0.2539979902
40
0.3108037765
40
0.3693787468
40
0.4294912281
40
0.4908601432
40
0.5531751425
40
0.6161196705
40
0.6794020691
40
0.7427988307
40
0.8062148377
40
0.8697829024
40
0.9340209796
40
1.0000000000
40
1.0000000000
40
1.0000000000
40
1.0000000000
10
15.1129506716
20
15.1937972643
30
0.0000000000
10
15.1043941937
20
15.1879000323
30
0.0000000000
10
15.0871038973
20
15.1756223489
30
0.0000000000
10
15.0611383225
20
15.1561349396
30
0.0000000000
10
15.0346317106
20
15.1351762954
30
0.0000000000
10
15.0075930136
20
15.1127139419
30
0.0000000000
10
14.9800636101
20
15.0887539088
30
0.0000000000
10
14.9521202080
20
15.0633385192
30
0.0000000000
10
14.9238614631
20
15.0365514021
30
0.0000000000
10
14.8954067086
20
15.0085107953
30
0.0000000000
10
14.8668847567
20
14.9793661515
30
0.0000000000
10
14.8384274424
20
14.9492877390
30
0.0000000000
10
14.8101590200
20
14.9184536232
30
0.0000000000
10
14.7821838672
20
14.8870313988
30
0.0000000000
10
14.7545702160
20
14.8551527320
30
0.0000000000
10
14.7273246974
20
14.8228760636
30
0.0000000000
10
14.7003518428
20
14.7901291505
30
0.0000000000
10
14.6733958462
20
14.7566354247
30
0.0000000000
10
14.6555110282
20
14.7339468235
30
0.0000000000
10
14.6464858453
20
14.7224222104
30
0.0000000000
11
15.1129506716
21
15.1937972643
31
0.0000000000
11
15.0875251383
21
15.1757568044
31
0.0000000000
11
15.0615777046
21
15.1562977420
31
0.0000000000
11
15.0350764353
21
15.1353579597
31
0.0000000000
11
15.0080273437
21
15.1129030710
31
0.0000000000
11
14.9804758379
21
15.0889393166
31
0.0000000000
11
14.9524976745
21
15.0635089401
31
0.0000000000
11
14.9241955395
21
15.0366966633
31
0.0000000000
11
14.8956900450
21
15.0086220487
31
0.0000000000
11
14.8671138232
21
14.9794370917
31
0.0000000000
11
14.8386024662
21
14.9493156494
31
0.0000000000
11
14.8102850689
21
14.9184408138
31
0.0000000000
11
14.7822724238
21
14.8869874364
31
0.0000000000
11
14.7546412045
21
14.8550976773
31
0.0000000000
11
14.7274115576
21
14.8228475846
31
0.0000000000
11
14.7005080875
21
14.7901936553
31
0.0000000000
11
14.6736936729
21
14.7568920500
31
0.0000000000
11
14.6464858453
21
14.7224222104
31
0.0000000000
0
SPLINE
5
33D
100
AcDbEntity
8
0
100
AcDbSpline
62
9
6
CONTINUOUS
70
0
71
3
72
46
73
42
74
40
42
0.0000001000
43
0.0000001000
44
0.0000000001
12
-2.1185323978
22
1.3860349572
32
0.0000000000
13
0.0486526282
23
-2.5311865488
33
0.0000000000
40
0.0000000000
40
0.0000000000
40
0.0000000000
40
0.0000000000
40
0.0175113845
40
0.0329178363
40
0.0466939663
40
0.0592718898
40
0.0710192110
40
0.0820949018
40
0.0924740888
40
0.1021161253
40
0.1110051918
40
0.1191925271
40
0.1268105529
40
0.1341178685
40
0.1414291097
40
0.1490820101
40
0.1574276983
40
0.1667973619
40
0.1774443871
40
0.1895448557
40
0.2031627024
40
0.2182660211
40
0.2348353515
40
0.2530595764
40
0.2734514503
40
0.2965586246
40
0.3229309778
40
0.3527932281
40
0.3859123768
40
0.4231296372
40
0.4657295847
40
0.5145273648
40
0.5685009247
40
0.6251063361
40
0.6819875792
40
0.7384109604
40
0.7940511729
40
0.8483025596
40
0.9007759400
40
0.9513773409
40
1.0000000000
40
1.0000000000
40
1.0000000000
40
1.0000000000
10
15.1129502976
20
15.1937974256
30
0.0000000000
10
15.1005841524
20
15.2018878893
30
0.0000000000
10
15.0766810335
20
15.2161322492
30
0.0000000000
10
15.0410378071
20
15.2330629700
30
0.0000000000
10
15.0078741881
20
15.2451391862
30
0.0000000000
10
14.9767065298
20
15.2532331964
30
0.0000000000
10
14.9471632214
20
15.2579623827
30
0.0000000000
10
14.9191609115
20
15.2597586445
30
0.0000000000
10
14.8928938791
20
15.2590341881
30
0.0000000000
10
14.8686262933
20
15.2562710062
30
0.0000000000
10
14.8464705327
20
15.2519790156
30
0.0000000000
10
14.8263216242
20
15.2466022981
30
0.0000000000
10
14.8078106442
20
15.2404226878
30
0.0000000000
10
14.7903573436
20
15.2335065236
30
0.0000000000
10
14.7732530500
20
15.2256985311
30
0.0000000000
10
14.7557731233
20
15.2166600216
30
0.0000000000
10
14.7372517580
20
15.2059072296
30
0.0000000000
10
14.7171681300
20
15.1928689236
30
0.0000000000
10
14.6952109290
20
15.1769591488
30
0.0000000000
10
14.6713231670
20
15.1576718111
30
0.0000000000
10
14.6456744472
20
15.1346517580
30
0.0000000000
10
14.6185552113
20
15.1076976066
30
0.0000000000
10
14.5901571378
20
15.0765867401
30
0.0000000000
10
14.5603660550
20
15.0407717631
30
0.0000000000
10
14.5288349750
20
14.9992922904
30
0.0000000000
10
14.4951601174
20
14.9508702592
30
0.0000000000
10
14.4592141875
20
14.8943603899
30
0.0000000000
10
14.4213070977
20
14.8291546100
30
0.0000000000
10
14.3816430620
20
14.7544560251
30
0.0000000000
10
14.3401160799
20
14.6686494108
30
0.0000000000
10
14.2965175747
20
14.5692265698
30
0.0000000000
10
14.2516018705
20
14.4550342265
30
0.0000000000
10
14.2073679758
20
14.3279819397
30
0.0000000000
10
14.1663047491
20
14.1927219087
30
0.0000000000
10
14.1301824837
20
14.0539225074
30
0.0000000000
10
14.0998053499
20
13.9145874003
30
0.0000000000
10
14.0754395817
20
13.7763288114
30
0.0000000000
10
14.0571844744
20
13.6404939370
30
0.0000000000
10
14.0449993056
20
13.5082488389
30
0.0000000000
10
14.0387284603
20
13.3803490222
30
0.0000000000
10
14.0383502418
20
13.2965818789
30
0.0000000000
10
14.0391387818
20
13.2555575387
30
0.0000000000
11
15.1129502976
21
15.1937974256
31
0.0000000000
11
15.0748060826
21
15.2163897519
31
0.0000000000
11
15.0395427961
21
15.2330570119
31
0.0000000000
11
15.0067506744
21
15.2449330267
31
0.0000000000
11
14.9759196698
21
15.2528968646
31
0.0000000000
11
14.9465491955
21
15.2575714767
31
0.0000000000
11
14.9185660807
21
15.2593537965
31
0.0000000000
11
14.8922995926
21
15.2586280946
31
0.0000000000
11
14.8680453092
21
15.2558726389
31
0.0000000000
11
14.8459501848
21
15.2516021154
31
0.0000000000
11
14.8259208425
21
15.2462678179
31
0.0000000000
11
14.8076240488
21
15.2401698597
31
0.0000000000
11
14.7904221537
21
15.2333632574
31
0.0000000000
11
14.7735800853
21
15.2256855256
31
0.0000000000
11
14.7563651057
21
15.2167964537
31
0.0000000000
11
14.7380858278
21
15.2062003648
31
0.0000000000
11
14.7181798681
21
15.1932997208
31
0.0000000000
11
14.6963380284
21
15.1775046683
31
0.0000000000
11
14.6724825673
21
15.1582856352
31
0.0000000000
11
14.6467984401
21
15.1352878540
31
0.0000000000
11
14.6196465712
21
15.1083658062
31
0.0000000000
11
14.5913301863
21
15.0774174401
31
0.0000000000
11
14.5617855632
21
15.0419804819
31
0.0000000000
11
14.5304982589
21
15.0009163508
31
0.0000000000
11
14.4970456837
21
14.9529257081
31
0.0000000000
11
14.4611516784
21
14.8966293863
31
0.0000000000
11
14.4230906550
21
14.8313082352
31
0.0000000000
11
14.3837043302
21
14.7572885934
31
0.0000000000
11
14.3425936690
21
14.6725091522
31
0.0000000000
11
14.2992144569
21
14.5737695629
31
0.0000000000
11
14.2539292651
21
14.4588297503
31
0.0000000000
11
14.2089501741
21
14.3298025348
31
0.0000000000
11
14.1672932472
21
14.1926853750
31
0.0000000000
11
14.1310215197
21
14.0533246642
31
0.0000000000
11
14.1006105837
21
13.9137548914
31
0.0000000000
11
14.0761959574
21
13.7750250650
31
0.0000000000
11
14.0579492581
21
13.6388967742
31
0.0000000000
11
14.0458190320
21
13.5066072999
31
0.0000000000
11
14.0396150334
21
13.3786523711
31
0.0000000000
11
14.0391387818
21
13.2555575387
31
0.0000000000
0
SPLINE
5
33E
100
AcDbEntity
8
0
100
AcDbSpline
62
9
6
CONTINUOUS
70
0
71
3
72
16
73
12
74
10
42
0.0000001000
43
0.0000001000
44
0.0000000001
12
-0.1257734220
22
-0.1131226618
32
0.0000000000
13
-0.0976336530
23
-0.1381427292
33
0.0000000000
40
0.0000000000
40
0.0000000000
40
0.0000000000
40
0.0000000000
40
0.0553316430
40
0.1259538894
40
0.2145935368
40
0.3229797996
40
0.4518790387
40
0.6019553547
40
0.7763788687
40
0.9802074513
40
1.0000000000
40
1.0000000000
40
1.0000000000
40
1.0000000000
10
14.6464858453
20
14.7224222104
30
0.0000000000
10
14.6441660952
20
14.7203357895
30
0.0000000000
10
14.6390579012
20
14.7153944577
30
0.0000000000
10
14.6307993963
20
14.7065456514
30
0.0000000000
10
14.6209503178
20
14.6951061559
30
0.0000000000
10
14.6093964704
20
14.6808114195
30
0.0000000000
10
14.5960690722
20
14.6635044749
30
0.0000000000
10
14.5808245086
20
14.6429797207
30
0.0000000000
10
14.5633600996
20
14.6188441068
30
0.0000000000
10
14.5503563228
20
14.6005501012
30
0.0000000000
10
14.5430765296
20
14.5902544022
30
0.0000000000
10
14.5424323900
20
14.5893430033
30
0.0000000000
11
14.6464858453
21
14.7224222104
31
0.0000000000
11
14.6397283842
21
14.7159456178
31
0.0000000000
11
14.6315455785
21
14.7072414524
31
0.0000000000
11
14.6217307696
21
14.6959055521
31
0.0000000000
11
14.6101753213
21
14.6816704975
31
0.0000000000
11
14.5968442977
21
14.6644155301
31
0.0000000000
11
14.5816824756
21
14.6440531260
31
0.0000000000
11
14.5643632262
21
14.6201651617
31
0.0000000000
11
14.5443653898
21
14.5920767902
31
0.0000000000
11
14.5424323900
21
14.5893430033
31
0.0000000000
0
SPLINE
5
33F
100
AcDbEntity
8
0
100
AcDbSpline
62
9
6
CONTINUOUS
70
0
71
3
72
20
73
16
74
14
42
0.0000001000
43
0.0000001000
44
0.0000000001
12
0.0264267730
22
-0.8639266221
32
0.0000000000
13
-0.7848136528
23
-0.3631920702
33
0.0000000000
40
0.0000000000
40
0.0000000000
40
0.0000000000
40
0.0000000000
40
0.0892679035
40
0.1767586216
40
0.2623278186
40
0.3458934590
40
0.4274229049
40
0.5069394714
40
0.5845251805
40
0.6603229428
40
0.7345363705
40
0.8074268249
40
0.8793070269
40
0.9505310137
40
1.0000000000
40
1.0000000000
40
1.0000000000
40
1.0000000000
10
14.4164638637
20
-6.3767703252
30
0.0000000000
10
14.4172502179
20
-6.4024772980
30
0.0000000000
10
14.4170683667
20
-6.4534522679
30
0.0000000000
10
14.4113844085
20
-6.5288822397
30
0.0000000000
10
14.4003266310
20
-6.6020607878
30
0.0000000000
10
14.3839662807
20
-6.6724815113
30
0.0000000000
10
14.3624095117
20
-6.7396665015
30
0.0000000000
10
14.3357969800
20
-6.8031568787
30
0.0000000000
10
14.3043031381
20
-6.8625176025
30
0.0000000000
10
14.2681357394
20
-6.9173392183
30
0.0000000000
10
14.2275354077
20
-6.9672405224
30
0.0000000000
10
14.1827752436
20
-7.0118713136
30
0.0000000000
10
14.1341601878
20
-7.0509156471
30
0.0000000000
10
14.0872575455
20
-7.0807658529
30
0.0000000000
10
14.0562507843
20
-7.0966032797
30
0.0000000000
10
14.0433094724
20
-7.1025921943
30
0.0000000000
11
14.4164638637
21
-6.3767703252
31
0.0000000000
11
14.4161360953
21
-6.4539266197
31
0.0000000000
11
14.4103952665
21
-6.5293293097
31
0.0000000000
11
14.3992801466
21
-6.6024494047
31
0.0000000000
11
14.3828665092
21
-6.6727880640
31
0.0000000000
11
14.3612665192
21
-6.7398644117
31
0.0000000000
11
14.3346276604
21
-6.8032204937
31
0.0000000000
11
14.3031318376
21
-6.8624236865
31
0.0000000000
11
14.2669941033
21
-6.9170697486
31
0.0000000000
11
14.2264612148
21
-6.9667855300
31
0.0000000000
11
14.1818099445
21
-7.0112315403
31
0.0000000000
11
14.1333451911
21
-7.0501042704
31
0.0000000000
11
14.0813978959
21
-7.0831382683
31
0.0000000000
11
14.0433094724
21
-7.1025921943
31
0.0000000000
0
SPLINE
5
340
100
AcDbEntity
8
0
100
AcDbSpline
62
9
6
CONTINUOUS
70
0
71
3
72
26
73
22
74
20
42
0.0000001000
43
0.0000001000
44
0.0000000001
12
0.1946797836
22
-0.0054778938
32
0.0000000000
13
0.1894579060
23
-0.0451184162
33
0.0000000000
40
0.0000000000
40
0.0000000000
40
0.0000000000
40
0.0000000000
40
0.0109596357
40
0.0789749217
40
0.1453382859
40
0.2100539523
40
0.2731287830
40
0.3345763587
40
0.3944200445
40
0.4526879905
40
0.5094104441
40
0.5646221225
40
0.6183605192
40
0.6706639002
40
0.7215727928
40
0.7711292706
40
0.8193751191
40
0.8663498201
40
0.9120894180
40
0.9566281278
40
1.0000000000
40
1.0000000000
40
1.0000000000
40
1.0000000000
10
-7.6844620025
20
25.8621304477
30
0.0000000000
10
-7.6837507960
20
25.8621104358
30
0.0000000000
10
-7.6786259596
20
25.8619625392
30
0.0000000000
10
-7.6691961267
20
25.8616411404
30
0.0000000000
10
-7.6562831050
20
25.8610816692
30
0.0000000000
10
-7.6436961783
20
25.8604180359
30
0.0000000000
10
-7.6314346632
20
25.8596541874
30
0.0000000000
10
-7.6194966170
20
25.8587938872
30
0.0000000000
10
-7.6078787059
20
25.8578406607
30
0.0000000000
10
-7.5965765138
20
25.8567977703
30
0.0000000000
10
-7.5855848948
20
25.8556682143
30
0.0000000000
10
-7.5748981127
20
25.8544547139
30
0.0000000000
10
-7.5645099371
20
25.8531596978
30
0.0000000000
10
-7.5544137969
20
25.8517852982
30
0.0000000000
10
-7.5446028718
20
25.8503333417
30
0.0000000000
10
-7.5350701744
20
25.8488053400
30
0.0000000000
10
-7.5258088574
20
25.8472025160
30
0.0000000000
10
-7.5168125473
20
25.8455258710
30
0.0000000000
10
-7.5080754479
20
25.8437761901
30
0.0000000000
10
-7.4995922493
20
25.8419540934
30
0.0000000000
10
-7.4940302216
20
25.8406746262
30
0.0000000000
10
-7.4912911735
20
25.8400223362
30
0.0000000000
11
-7.6844620025
21
25.8621304477
31
0.0000000000
11
-7.6823284270
21
25.8620688724
31
0.0000000000
11
-7.6690897435
21
25.8616168768
31
0.0000000000
11
-7.6561772173
21
25.8610566110
31
0.0000000000
11
-7.6435909678
21
25.8603921616
31
0.0000000000
11
-7.6313305772
21
25.8596274967
31
0.0000000000
11
-7.6193943017
21
25.8587664038
31
0.0000000000
11
-7.6077784847
21
25.8578123951
31
0.0000000000
11
-7.5964785368
21
25.8567687241
31
0.0000000000
11
-7.5854894666
21
25.8556384082
31
0.0000000000
11
-7.5748054295
21
25.8544241625
31
0.0000000000
11
-7.5644200670
21
25.8531284035
31
0.0000000000
11
-7.5543269055
21
25.8517532773
31
0.0000000000
11
-7.5445190804
21
25.8503006066
31
0.0000000000
11
-7.5349894888
21
25.8487718850
31
0.0000000000
11
-7.5257311572
21
25.8471683133
31
0.0000000000
11
-7.5167376425
21
25.8454908692
31
0.0000000000
11
-7.5080032609
21
25.8437403613
31
0.0000000000
11
-7.4995227898
21
25.8419174064
31
0.0000000000
11
-7.4912911735
21
25.8400223362
31
0.0000000000
0
SPLINE
5
341
100
AcDbEntity
8
0
100
AcDbSpline
62
7
6
CONTINUOUS
70
0
71
3
72
14
73
10
74
8
42
0.0000001000
43
0.0000001000
44
0.0000000001
12
0.0608680248
22
0.0285981187
32
0.0000000000
13
-0.0016936043
23
0.0679907782
33
0.0000000000
40
0.0000000000
40
0.0000000000
40
0.0000000000
40
0.0000000000
40
0.2409255753
40
0.4497314937
40
0.6259236034
40
0.7700365394
40
0.8844252900
40
0.9750305168
40
1.0000000000
40
1.0000000000
40
1.0000000000
40
1.0000000000
10
15.6133889471
20
17.8488416316
30
0.0000000000
10
15.6182771684
20
17.8511383043
30
0.0000000000
10
15.6273078162
20
17.8556329640
30
0.0000000000
10
15.6394685263
20
17.8626562100
30
0.0000000000
10
15.6492266889
20
17.8694298123
30
0.0000000000
10
15.6565466939
20
17.8759153487
30
0.0000000000
10
15.6614217797
20
17.8821066251
30
0.0000000000
10
15.6633700933
20
17.8870213651
30
0.0000000000
10
15.6634932948
20
17.8896432887
30
0.0000000000
10
15.6634791986
20
17.8902091869
30
0.0000000000
11
15.6133889471
21
17.8488416316
31
0.0000000000
11
15.6278686742
21
17.8561122727
31
0.0000000000
11
15.6399905153
21
17.8632012282
31
0.0000000000
11
15.6496629390
21
17.8700457526
31
0.0000000000
11
15.6568162495
21
17.8765849763
31
0.0000000000
11
15.6614033374
21
17.8827605806
31
0.0000000000
11
15.6634001067
21
17.8885174644
31
0.0000000000
11
15.6634791986
21
17.8902091869
31
0.0000000000
0
SPLINE
5
342
100
AcDbEntity
8
0
100
AcDbSpline
62
7
6
CONTINUOUS
70
0
71
3
72
12
73
8
74
6
42
0.0000001000
43
0.0000001000
44
0.0000000001
12
0.0581126907
22
0.0310390307
32
0.0000000000
13
0.0237739983
23
0.0615755669
33
0.0000000000
40
0.0000000000
40
0.0000000000
40
0.0000000000
40
0.0000000000
40
0.2567803899
40
0.4915178977
40
0.7068999238
40
0.9070438274
40
1.0000000000
40
1.0000000000
40
1.0000000000
40
1.0000000000
10
15.6571143616
20
15.5737962823
30
0.0000000000
10
15.6620884280
20
15.5764530204
30
0.0000000000
10
15.6713616956
20
15.5820327943
30
0.0000000000
10
15.6835770657
20
15.5916910726
30
0.0000000000
10
15.6933558350
20
15.6021867810
30
0.0000000000
10
15.6994323790
20
15.6116363338
30
0.0000000000
10
15.7020599538
20
15.6175352123
30
0.0000000000
10
15.7027966005
20
15.6194431554
30
0.0000000000
11
15.6571143616
21
15.5737962823
31
0.0000000000
11
15.6715647579
21
15.5825930089
31
0.0000000000
11
15.6836370724
21
15.5922588501
31
0.0000000000
11
15.6932402650
21
15.6027054881
31
0.0000000000
11
15.7003052746
21
15.6138390332
31
0.0000000000
11
15.7027966005
21
15.6194431554
31
0.0000000000
0
SPLINE
5
343
100
AcDbEntity
8
0
100
AcDbSpline
62
9
6
CONTINUOUS
70
0
71
3
72
16
73
12
74
10
42
0.0000001000
43
0.0000001000
44
0.0000000001
12
-0.4626443774
22
-1.2083268389
32
0.0000000000
13
-1.1183002741
23
-0.6515509201
33
0.0000000000
40
0.0000000000
40
0.0000000000
40
0.0000000000
40
0.0000000000
40
0.1217799247
40
0.2411893866
40
0.3583265760
40
0.4733339704
40
0.5863974916
40
0.6977454275
40
0.8076452557
40
0.9163991291
40
1.0000000000
40
1.0000000000
40
1.0000000000
40
1.0000000000
10
15.6571143616
20
15.5737962823
30
0.0000000000
10
15.6383340958
20
15.5247462985
30
0.0000000000
10
15.5979502360
20
15.4287825314
30
0.0000000000
10
15.5283199490
20
15.2906798962
30
0.0000000000
10
15.4505056770
20
15.1603915720
30
0.0000000000
10
15.3648221608
20
15.0384612890
30
0.0000000000
10
15.2716129306
20
14.9253901501
30
0.0000000000
10
15.1712546328
20
14.8216475372
30
0.0000000000
10
15.0641547775
20
14.7276654187
30
0.0000000000
10
14.9592018945
20
14.6500838095
30
0.0000000000
10
14.8888914779
20
14.6059164416
30
0.0000000000
10
14.8577278523
20
14.5877597001
30
0.0000000000
11
15.6571143616
21
15.5737962823
31
0.0000000000
11
15.5959002533
21
15.4286059706
31
0.0000000000
11
15.5262495029
21
15.2906964483
31
0.0000000000
11
15.4484464031
21
15.1606306252
31
0.0000000000
11
15.3628082976
21
15.0389390084
31
0.0000000000
11
15.2696846699
21
14.9261182193
31
0.0000000000
11
15.1694554279
21
14.8226285170
31
0.0000000000
11
15.0625295177
21
14.7288921558
31
0.0000000000
11
14.9493432443
21
14.6452916167
31
0.0000000000
11
14.8577278523
21
14.5877597001
31
0.0000000000
0
SPLINE
5
344
100
AcDbEntity
8
0
100
AcDbSpline
62
9
6
CONTINUOUS
70
0
71
3
72
9
73
5
74
3
42
0.0000001000
43
0.0000001000
44
0.0000000001
12
-0.0896183602
22
-0.1433211610
32
0.0000000000
13
-0.1009973055
23
-0.1355925258
33
0.0000000000
40
0.0000000000
40
0.0000000000
40
0.0000000000
40
0.0000000000
40
0.8489581383
40
1.0000000000
40
1.0000000000
40
1.0000000000
40
1.0000000000
10
14.6464858453
20
14.7224222104
30
0.0000000000
10
14.6211250999
20
14.6818643217
30
0.0000000000
10
14.5896383544
20
14.6350754594
30
0.0000000000
10
14.5562582199
20
14.5896644653
30
0.0000000000
10
14.5511732795
20
14.5828377494
30
0.0000000000
11
14.6464858453
21
14.7224222104
31
0.0000000000
11
14.5662986201
21
14.6034138216
31
0.0000000000
11
14.5511732795
21
14.5828377494
31
0.0000000000
0
SPLINE
5
345
100
AcDbEntity
8
0
100
AcDbSpline
62
9
6
CONTINUOUS
70
0
71
3
72
8
73
4
74
2
42
0.0000001000
43
0.0000001000
44
0.0000000001
12
-0.0537627039
22
-0.0721783693
32
0.0000000000
13
-0.0569710084
23
-0.0696687962
33
0.0000000000
40
0.0000000000
40
0.0000000000
40
0.0000000000
40
0.0000000000
40
1.0000000000
40
1.0000000000
40
1.0000000000
40
1.0000000000
10
14.5511732795
20
14.5828377494
30
0.0000000000
10
14.5332523782
20
14.5587782930
30
0.0000000000
10
14.5147956122
20
14.5351193469
30
0.0000000000
10
14.4958052761
20
14.5118964148
30
0.0000000000
11
14.5511732795
21
14.5828377494
31
0.0000000000
11
14.4958052761
21
14.5118964148
31
0.0000000000
0
SPLINE
5
346
100
AcDbEntity
8
0
100
AcDbSpline
62
7
6
CONTINUOUS
70
0
71
3
72
10
73
6
74
4
42
0.0000001000
43
0.0000001000
44
0.0000000001
12
0.0090410857
22
-0.1488727175
32
0.0000000000
13
-0.1385921147
23
-0.0622345248
33
0.0000000000
40
0.0000000000
40
0.0000000000
40
0.0000000000
40
0.0000000000
40
0.0426095308
40
0.4281953634
40
1.0000000000
40
1.0000000000
40
1.0000000000
40
1.0000000000
10
3.1127891150
20
24.6787931748
30
0.0000000000
10
3.1129175271
20
24.6766787093
30
0.0000000000
10
3.1128797936
20
24.6554937546
30
0.0000000000
10
3.0787542473
20
24.6096180391
30
0.0000000000
10
3.0361368477
20
24.5877292160
30
0.0000000000
10
3.0097209764
20
24.5758672193
30
0.0000000000
11
3.1127891150
21
24.6787931748
31
0.0000000000
11
3.1127656969
21
24.6724777594
31
0.0000000000
11
3.0834957878
21
24.6217346824
31
0.0000000000
11
3.0097209764
21
24.5758672193
31
0.0000000000
0
SPLINE
5
347
100
AcDbEntity
8
0
100
AcDbSpline
62
7
6
CONTINUOUS
70
0
71
3
72
9
73
5
74
3
42
0.0000001000
43
0.0000001000
44
0.0000000001
12
-0.0036444815
22
0.2028190074
32
0.0000000000
13
-0.0688531744
23
0.1903833426
33
0.0000000000
40
0.0000000000
40
0.0000000000
40
0.0000000000
40
0.0000000000
40
0.4039160818
40
1.0000000000
40
1.0000000000
40
1.0000000000
40
1.0000000000
10
3.1049993396
20
25.0966964266
30
0.0000000000
10
3.1045086514
20
25.1240037129
30
0.0000000000
10
3.0964310174
20
25.1913598487
30
0.0000000000
10
3.0775167062
20
25.2564755135
30
0.0000000000
10
3.0638359496
20
25.2943036631
30
0.0000000000
11
3.1049993396
21
25.0966964266
31
0.0000000000
11
3.0962152944
21
25.1780506370
31
0.0000000000
11
3.0638359496
21
25.2943036631
31
0.0000000000
0
SPLINE
5
348
100
AcDbEntity
8
0
100
AcDbSpline
62
7
6
CONTINUOUS
70
0
71
3
72
8
73
4
74
2
42
0.0000001000
43
0.0000001000
44
0.0000000001
12
-0.0007952904
22
0.0387635095
32
0.0000000000
13
-0.0066194809
23
0.0382111261
33
0.0000000000
40
0.0000000000
40
0.0000000000
40
0.0000000000
40
0.0000000000
40
1.0000000000
40
1.0000000000
40
1.0000000000
40
1.0000000000
10
-1.7233817308
20
26.8559869603
30
0.0000000000
10
-1.7236468276
20
26.8689081301
30
0.0000000000
10
-1.7248626754
20
26.8818195277
30
0.0000000000
10
-1.7270691690
20
26.8945565697
30
0.0000000000
11
-1.7233817308
21
26.8559869603
31
0.0000000000
11
-1.7270691690
21
26.8945565697
31
0.0000000000
0
SPLINE
5
349
100
AcDbEntity
8
0
100
AcDbSpline
62
7
6
CONTINUOUS
70
0
71
3
72
11
73
7
74
5
42
0.0000001000
43
0.0000001000
44
0.0000000001
12
-0.0488600807
22
0.2820460913
32
0.0000000000
13
-0.2778164357
23
0.0679522738
33
0.0000000000
40
0.0000000000
40
0.0000000000
40
0.0000000000
40
0.0000000000
40
0.1235589048
40
0.5033935226
40
0.8532633355
40
1.0000000000
40
1.0000000000
40
1.0000000000
40
1.0000000000
10
-1.7270691690
20
26.8945565697
30
0.0000000000
10
-1.7290815350
20
26.9061730051
30
0.0000000000
10
-1.7406372226
20
26.9529088794
30
0.0000000000
10
-1.7842588481
20
27.0245342861
30
0.0000000000
10
-1.8555636153
20
27.0714366544
30
0.0000000000
10
-1.9007250293
20
27.0858278768
30
0.0000000000
10
-1.9143136483
20
27.0891515734
30
0.0000000000
11
-1.7270691690
21
26.8945565697
31
0.0000000000
11
-1.7356085302
21
26.9288459466
31
0.0000000000
11
-1.7917684740
21
27.0210334455
31
0.0000000000
11
-1.8744520424
21
27.0762594787
31
0.0000000000
11
-1.9143136483
21
27.0891515734
31
0.0000000000
0
SPLINE
5
34A
100
AcDbEntity
8
0
100
AcDbSpline
62
7
6
CONTINUOUS
70
0
71
3
72
11
73
7
74
5
42
0.0000001000
43
0.0000001000
44
0.0000000001
12
-0.2941753758
22
-0.1358779092
32
0.0000000000
13
0.0072860680
23
-0.3264892194
33
0.0000000000
40
0.0000000000
40
0.0000000000
40
0.0000000000
40
0.0000000000
40
0.1502185993
40
0.4980952734
40
0.8421385354
40
1.0000000000
40
1.0000000000
40
1.0000000000
40
1.0000000000
10
-13.5682308158
20
26.6273999184
30
0.0000000000
10
-13.5829610201
20
26.6205961220
30
0.0000000000
10
-13.6306203627
20
26.5954558520
30
0.0000000000
10
-13.7016768603
20
26.5357193841
30
0.0000000000
10
-13.7420626855
20
26.4498944507
30
0.0000000000
10
-13.7467522857
20
26.3950224076
30
0.0000000000
10
-13.7463688892
20
26.3778423855
30
0.0000000000
11
-13.5682308158
21
26.6273999184
31
0.0000000000
11
-13.6111955611
21
26.6045052295
31
0.0000000000
11
-13.6955549434
21
26.5301895196
31
0.0000000000
11
-13.7419065397
21
26.4291259887
31
0.0000000000
11
-13.7463688892
21
26.3778423855
31
0.0000000000
0
SPLINE
5
34B
100
AcDbEntity
8
0
100
AcDbSpline
62
7
6
CONTINUOUS
70
0
71
3
72
12
73
8
74
6
42
0.0000001000
43
0.0000001000
44
0.0000000001
12
0.7190203954
22
-0.1712310385
32
0.0000000000
13
0.0142031087
23
-0.7389916571
33
0.0000000000
40
0.0000000000
40
0.0000000000
40
0.0000000000
40
0.0000000000
40
0.1776387506
40
0.3745384683
40
0.5818455857
40
0.7946139615
40
1.0000000000
40
1.0000000000
40
1.0000000000
40
1.0000000000
10
-0.9143640181
20
22.9301916995
30
0.0000000000
10
-0.8717887233
20
22.9200526103
30
0.0000000000
10
-0.7857196037
20
22.8817383188
30
0.0000000000
10
-0.6760387864
20
22.7869700901
30
0.0000000000
10
-0.5881073374
20
22.6611944769
30
0.0000000000
10
-0.5303848147
20
22.5169487194
30
0.0000000000
10
-0.5148682275
20
22.4138880469
30
0.0000000000
10
-0.5138958541
20
22.3632951905
30
0.0000000000
11
-0.9143640181
21
22.9301916995
31
0.0000000000
11
-0.7936249979
21
22.8786048720
31
0.0000000000
11
-0.6824112653
21
22.7847342908
31
0.0000000000
11
-0.5940247471
21
22.6595696366
31
0.0000000000
11
-0.5356774931
21
22.5135310178
31
0.0000000000
11
-0.5138958541
21
22.3632951905
31
0.0000000000
0
SPLINE
5
34C
100
AcDbEntity
8
0
100
AcDbSpline
62
7
6
CONTINUOUS
70
0
71
3
72
9
73
5
74
3
42
0.0000001000
43
0.0000001000
44
0.0000000001
12
-0.1452399500
22
0.0345126611
32
0.0000000000
13
-0.1455988812
23
-0.0350245052
33
0.0000000000
40
0.0000000000
40
0.0000000000
40
0.0000000000
40
0.0000000000
40
0.5854977061
40
1.0000000000
40
1.0000000000
40
1.0000000000
40
1.0000000000
10
-8.2804268747
20
28.6052950909
30
0.0000000000
10
-8.3087727606
20
28.6120307855
30
0.0000000000
10
-8.3591048976
20
28.6166575506
30
0.0000000000
10
-8.4086907087
20
28.6094350212
30
0.0000000000
10
-8.4288077322
20
28.6045957753
30
0.0000000000
11
-8.2804268747
21
28.6052950909
31
0.0000000000
11
-8.3674556160
21
28.6133866784
31
0.0000000000
11
-8.4288077322
21
28.6045957753
31
0.0000000000
0
SPLINE
5
34D
100
AcDbEntity
8
0
100
AcDbSpline
62
7
6
CONTINUOUS
70
0
71
3
72
8
73
4
74
2
42
0.0000001000
43
0.0000001000
44
0.0000000001
12
-0.0309994174
22
-0.0074570577
32
0.0000000000
13
-0.0301832752
23
-0.0103011259
33
0.0000000000
40
0.0000000000
40
0.0000000000
40
0.0000000000
40
0.0000000000
40
1.0000000000
40
1.0000000000
40
1.0000000000
40
1.0000000000
10
-8.4288077322
20
28.6045957753
30
0.0000000000
10
-8.4391408713
20
28.6021100894
30
0.0000000000
10
-8.4493588692
20
28.5991374931
30
0.0000000000
10
-8.4594199609
20
28.5957037845
30
0.0000000000
11
-8.4288077322
21
28.6045957753
31
0.0000000000
11
-8.4594199609
21
28.5957037845
31
0.0000000000
0
SPLINE
5
34E
100
AcDbEntity
8
0
100
AcDbSpline
62
7
6
CONTINUOUS
70
0
71
3
72
8
73
4
74
2
42
0.0000001000
43
0.0000001000
44
0.0000000001
12
-0.0115363405
22
-0.0039371902
32
0.0000000000
13
-0.0113937140
23
-0.0043345996
33
0.0000000000
40
0.0000000000
40
0.0000000000
40
0.0000000000
40
0.0000000000
40
1.0000000000
40
1.0000000000
40
1.0000000000
40
1.0000000000
10
-8.4594199609
20
28.5957037845
30
0.0000000000
10
-8.4632654078
20
28.5943913878
30
0.0000000000
10
-8.4670879331
20
28.5930116297
30
0.0000000000
10
-8.4708858377
20
28.5915667632
30
0.0000000000
11
-8.4594199609
21
28.5957037845
31
0.0000000000
11
-8.4708858377
21
28.5915667632
31
0.0000000000
0
SPLINE
5
34F
100
AcDbEntity
8
0
100
AcDbSpline
62
7
6
CONTINUOUS
70
0
71
3
72
11
73
7
74
5
42
0.0000001000
43
0.0000001000
44
0.0000000001
12
0.0084223036
22
-0.4382147740
32
0.0000000000
13
-0.4054580866
23
-0.1751074223
33
0.0000000000
40
0.0000000000
40
0.0000000000
40
0.0000000000
40
0.0000000000
40
0.3242546823
40
0.6226649148
40
0.8943315537
40
1.0000000000
40
1.0000000000
40
1.0000000000
40
1.0000000000
10
0.2826260451
20
-19.0799584576
30
0.0000000000
10
0.2835363689
20
-19.1273228551
30
0.0000000000
10
0.2741126112
20
-19.2191247291
30
0.0000000000
10
0.2220413785
20
-19.3415451490
30
0.0000000000
10
0.1511901952
20
-19.4141944531
30
0.0000000000
10
0.1020768463
20
-19.4404875313
30
0.0000000000
10
0.0877954709
20
-19.4466553077
30
0.0000000000
11
0.2826260451
21
-19.0799584576
31
0.0000000000
11
0.2664455906
21
-19.2211538060
31
0.0000000000
11
0.2132011783
21
-19.3406174389
31
0.0000000000
11
0.1288351881
21
-19.4246419646
31
0.0000000000
11
0.0877954709
21
-19.4466553077
31
0.0000000000
0
SPLINE
5
350
100
AcDbEntity
8
0
100
AcDbSpline
62
7
6
CONTINUOUS
70
0
71
3
72
9
73
5
74
3
42
0.0000001000
43
0.0000001000
44
0.0000000001
12
0.1196102108
22
0.0454846470
32
0.0000000000
13
0.1269424523
23
-0.0192025755
33
0.0000000000
40
0.0000000000
40
0.0000000000
40
0.0000000000
40
0.0000000000
40
0.4944653780
40
1.0000000000
40
1.0000000000
40
1.0000000000
40
1.0000000000
10
-2.8642557285
20
25.2524695773
30
0.0000000000
10
-2.8445413592
20
25.2599664384
30
0.0000000000
10
-2.8025440249
20
25.2700956411
30
0.0000000000
10
-2.7594547651
20
25.2692277513
30
0.0000000000
10
-2.7380634969
20
25.2659918958
30
0.0000000000
11
-2.8642557285
21
25.2524695773
31
0.0000000000
11
-2.8027419322
21
25.2672947733
31
0.0000000000
11
-2.7380634969
21
25.2659918958
31
0.0000000000
0
SPLINE
5
351
100
AcDbEntity
8
0
100
AcDbSpline
62
7
6
CONTINUOUS
70
0
71
3
72
8
73
4
74
2
42
0.0000001000
43
0.0000001000
44
0.0000000001
12
0.0209029317
22
-0.0031619850
32
0.0000000000
13
0.0205674797
23
-0.0049168402
33
0.0000000000
40
0.0000000000
40
0.0000000000
40
0.0000000000
40
0.0000000000
40
1.0000000000
40
1.0000000000
40
1.0000000000
40
1.0000000000
10
-2.7380634969
20
25.2659918958
30
0.0000000000
10
-2.7310958530
20
25.2649379008
30
0.0000000000
10
-2.7241697822
20
25.2635871440
30
0.0000000000
10
-2.7173139557
20
25.2619481973
30
0.0000000000
11
-2.7380634969
21
25.2659918958
31
0.0000000000
11
-2.7173139557
21
25.2619481973
31
0.0000000000
0
SPLINE
5
352
100
AcDbEntity
8
0
100
AcDbSpline
62
7
6
CONTINUOUS
70
0
71
3
72
10
73
6
74
4
42
0.0000001000
43
0.0000001000
44
0.0000000001
12
0.2553813148
22
-0.0608177571
32
0.0000000000
13
0.0733930310
23
-0.2535000433
33
0.0000000000
40
0.0000000000
40
0.0000000000
40
0.0000000000
40
0.0000000000
40
0.3280271165
40
0.6574736980
40
1.0000000000
40
1.0000000000
40
1.0000000000
40
1.0000000000
10
-1.2515191645
20
24.9128829714
30
0.0000000000
10
-1.2235951657
20
24.9062330136
30
0.0000000000
10
-1.1694911897
20
24.8829537858
30
0.0000000000
10
-1.1044737991
20
24.8218785399
30
0.0000000000
10
-1.0776534307
20
24.7680698612
30
0.0000000000
10
-1.0692737496
20
24.7391263837
30
0.0000000000
11
-1.2515191645
21
24.9128829714
31
0.0000000000
11
-1.1724349402
21
24.8788032078
31
0.0000000000
11
-1.1093790150
21
24.8196084954
31
0.0000000000
11
-1.0692737496
21
24.7391263837
31
0.0000000000
0
SPLINE
5
353
100
AcDbEntity
8
0
100
AcDbSpline
62
7
6
CONTINUOUS
70
0
71
3
72
8
73
4
74
2
42
0.0000001000
43
0.0000001000
44
0.0000000001
12
0.0182147881
22
-0.0629140058
32
0.0000000000
13
0.0012841046
23
-0.0655297985
33
0.0000000000
40
0.0000000000
40
0.0000000000
40
0.0000000000
40
0.0000000000
40
1.0000000000
40
1.0000000000
40
1.0000000000
40
1.0000000000
10
-1.0692737496
20
24.7391263837
30
0.0000000000
10
-1.0632021535
20
24.7181550484
30
0.0000000000
10
-1.0599085548
20
24.6963881153
30
0.0000000000
10
-1.0594805199
20
24.6745448491
30
0.0000000000
11
-1.0692737496
21
24.7391263837
31
0.0000000000
11
-1.0594805199
21
24.6745448491
31
0.0000000000
0
SPLINE
5
354
100
AcDbEntity
8
0
100
AcDbSpline
62
7
6
CONTINUOUS
70
0
71
3
72
11
73
7
74
5
42
0.0000001000
43
0.0000001000
44
0.0000000001
12
-0.2608417827
22
-0.1207036560
32
0.0000000000
13
0.0057876194
23
-0.2896651613
33
0.0000000000
40
0.0000000000
40
0.0000000000
40
0.0000000000
40
0.0000000000
40
0.3216275318
40
0.6517662459
40
0.9912283696
40
1.0000000000
40
1.0000000000
40
1.0000000000
40
1.0000000000
10
-4.7270672324
20
24.4305065081
30
0.0000000000
10
-4.7550318653
20
24.4175659684
30
0.0000000000
10
-4.8072953431
20
24.3803758964
30
0.0000000000
10
-4.8600779722
20
24.2987229721
30
0.0000000000
10
-4.8725440790
20
24.2332620303
30
0.0000000000
10
-4.8720455315
20
24.1996368651
30
0.0000000000
10
-4.8720286092
20
24.1987899198
30
0.0000000000
11
-4.7270672324
21
24.4305065081
31
0.0000000000
11
-4.8023374629
21
24.3768437021
31
0.0000000000
11
-4.8539051553
21
24.2971924130
31
0.0000000000
11
-4.8720662707
21
24.2013308142
31
0.0000000000
11
-4.8720286092
21
24.1987899198
31
0.0000000000
0
SPLINE
5
355
100
AcDbEntity
8
0
100
AcDbSpline
62
7
6
CONTINUOUS
70
0
71
3
72
8
73
4
74
2
42
0.0000001000
43
0.0000001000
44
0.0000000001
12
0.0002396083
22
-0.0094882386
32
0.0000000000
13
0.0062458492
23
-0.0064025593
33
0.0000000000
40
0.0000000000
40
0.0000000000
40
0.0000000000
40
0.0000000000
40
1.0000000000
40
1.0000000000
40
1.0000000000
40
1.0000000000
10
-4.8616302155
20
23.6675201083
30
0.0000000000
10
-4.8615503461
20
23.6643573621
30
0.0000000000
10
-4.8607572314
20
23.6614242351
30
0.0000000000
10
-4.8586752817
20
23.6592900487
30
0.0000000000
11
-4.8616302155
21
23.6675201083
31
0.0000000000
11
-4.8586752817
21
23.6592900487
31
0.0000000000
0
SPLINE
5
356
100
AcDbEntity
8
0
100
AcDbSpline
62
7
6
CONTINUOUS
70
0
71
3
72
8
73
4
74
2
42
0.0000001000
43
0.0000001000
44
0.0000000001
12
0.0005405330
22
-0.0332554933
32
0.0000000000
13
-0.0053159070
23
-0.0326829049
33
0.0000000000
40
0.0000000000
40
0.0000000000
40
0.0000000000
40
0.0000000000
40
1.0000000000
40
1.0000000000
40
1.0000000000
40
1.0000000000
10
-1.0488744072
20
24.1183976294
30
0.0000000000
10
-1.0486942295
20
24.1073124649
30
0.0000000000
10
-1.0493725733
20
24.0962342395
30
0.0000000000
10
-1.0511445423
20
24.0853399379
30
0.0000000000
11
-1.0488744072
21
24.1183976294
31
0.0000000000
11
-1.0511445423
21
24.0853399379
31
0.0000000000
0
SPLINE
5
357
100
AcDbEntity
8
0
100
AcDbSpline
62
7
6
CONTINUOUS
70
0
71
3
72
11
73
7
74
5
42
0.0000001000
43
0.0000001000
44
0.0000000001
12
-0.2608417827
22
-0.1207036560
32
0.0000000000
13
0.0057876194
23
-0.2896651613
33
0.0000000000
40
0.0000000000
40
0.0000000000
40
0.0000000000
40
0.0000000000
40
0.3216275318
40
0.6517662459
40
0.9912283696
40
1.0000000000
40
1.0000000000
40
1.0000000000
40
1.0000000000
10
-19.5138672474
20
27.9519074853
30
0.0000000000
10
-19.5418318803
20
27.9389669457
30
0.0000000000
10
-19.5940953580
20
27.9017768736
30
0.0000000000
10
-19.6468779871
20
27.8201239493
30
0.0000000000
10
-19.6593440940
20
27.7546630075
30
0.0000000000
10
-19.6588455465
20
27.7210378423
30
0.0000000000
10
-19.6588286242
20
27.7201908970
30
0.0000000000
11
-19.5138672474
21
27.9519074853
31
0.0000000000
11
-19.5891374779
21
27.8982446793
31
0.0000000000
11
-19.6407051703
21
27.8185933902
31
0.0000000000
11
-19.6588662856
21
27.7227317914
31
0.0000000000
11
-19.6588286242
21
27.7201908970
31
0.0000000000
0
SPLINE
5
358
100
AcDbEntity
8
0
100
AcDbSpline
62
7
6
CONTINUOUS
70
0
71
3
72
10
73
6
74
4
42
0.0000001000
43
0.0000001000
44
0.0000000001
12
0.2380916853
22
-0.0565549566
32
0.0000000000
13
0.0858520079
23
-0.2299724826
33
0.0000000000
40
0.0000000000
40
0.0000000000
40
0.0000000000
40
0.0000000000
40
0.3187827032
40
0.7251510293
40
1.0000000000
40
1.0000000000
40
1.0000000000
40
1.0000000000
10
-16.0387087337
20
28.4343624738
30
0.0000000000
10
-16.0134088967
20
28.4283528932
30
0.0000000000
10
-15.9576111874
20
28.4055993354
30
0.0000000000
10
-15.8963756118
20
28.3490431530
30
0.0000000000
10
-15.8698595504
20
28.2995011231
30
0.0000000000
10
-15.8619941051
20
28.2784318897
30
0.0000000000
11
-16.0387087337
21
28.4343624738
31
0.0000000000
11
-15.9665522789
21
28.4048190628
31
0.0000000000
11
-15.8937304132
21
28.3376852270
31
0.0000000000
11
-15.8619941051
21
28.2784318897
31
0.0000000000
0
SPLINE
5
359
100
AcDbEntity
8
0
100
AcDbSpline
62
7
6
CONTINUOUS
70
0
71
3
72
9
73
5
74
3
42
0.0000001000
43
0.0000001000
44
0.0000000001
12
0.0293945642
22
-0.0787394620
32
0.0000000000
13
0.0017105939
23
-0.0841404939
33
0.0000000000
40
0.0000000000
40
0.0000000000
40
0.0000000000
40
0.0000000000
40
0.4040409305
40
1.0000000000
40
1.0000000000
40
1.0000000000
40
1.0000000000
10
-15.8619941051
20
28.2784318897
30
0.0000000000
10
-15.8580352361
20
28.2678272346
30
0.0000000000
10
-15.8500133006
20
28.2409031820
30
0.0000000000
10
-15.8466678272
20
28.2128586305
30
0.0000000000
10
-15.8463280125
20
28.1961438670
30
0.0000000000
11
-15.8619941051
21
28.2784318897
31
0.0000000000
11
-15.8523162836
21
28.2458874757
31
0.0000000000
11
-15.8463280125
21
28.1961438670
31
0.0000000000
0
SPLINE
5
35A
100
AcDbEntity
8
0
100
AcDbSpline
62
7
6
CONTINUOUS
70
0
71
3
72
9
73
5
74
3
42
0.0000001000
43
0.0000001000
44
0.0000000001
12
0.1196102108
22
0.0454846470
32
0.0000000000
13
0.1269424523
23
-0.0192025755
33
0.0000000000
40
0.0000000000
40
0.0000000000
40
0.0000000000
40
0.0000000000
40
0.4944653780
40
1.0000000000
40
1.0000000000
40
1.0000000000
40
1.0000000000
10
-17.6510557435
20
28.7738705546
30
0.0000000000
10
-17.6313413741
20
28.7813674156
30
0.0000000000
10
-17.5893440399
20
28.7914966183
30
0.0000000000
10
-17.5462547801
20
28.7906287286
30
0.0000000000
10
-17.5248635119
20
28.7873928730
30
0.0000000000
11
-17.6510557435
21
28.7738705546
31
0.0000000000
11
-17.5895419472
21
28.7886957505
31
0.0000000000
11
-17.5248635119
21
28.7873928730
31
0.0000000000
0
SPLINE
5
35B
100
AcDbEntity
8
0
100
AcDbSpline
62
7
6
CONTINUOUS
70
0
71
3
72
8
73
4
74
2
42
0.0000001000
43
0.0000001000
44
0.0000000001
12
0.0209029317
22
-0.0031619850
32
0.0000000000
13
0.0205674797
23
-0.0049168402
33
0.0000000000
40
0.0000000000
40
0.0000000000
40
0.0000000000
40
0.0000000000
40
1.0000000000
40
1.0000000000
40
1.0000000000
40
1.0000000000
10
-17.5248635119
20
28.7873928730
30
0.0000000000
10
-17.5178958680
20
28.7863388780
30
0.0000000000
10
-17.5109697972
20
28.7849881212
30
0.0000000000
10
-17.5041139706
20
28.7833491745
30
0.0000000000
11
-17.5248635119
21
28.7873928730
31
0.0000000000
11
-17.5041139706
21
28.7833491745
31
0.0000000000
0
SPLINE
5
35C
100
AcDbEntity
8
0
100
AcDbSpline
62
7
6
CONTINUOUS
70
0
71
3
72
8
73
4
74
2
42
0.0000001000
43
0.0000001000
44
0.0000000001
12
0.0005405343
22
-0.0332554710
32
0.0000000000
13
-0.0053159217
23
-0.0326828792
33
0.0000000000
40
0.0000000000
40
0.0000000000
40
0.0000000000
40
0.0000000000
40
1.0000000000
40
1.0000000000
40
1.0000000000
40
1.0000000000
10
-15.8356744176
20
27.6397985827
30
0.0000000000
10
-15.8354942395
20
27.6287134257
30
0.0000000000
10
-15.8361725833
20
27.6176352081
30
0.0000000000
10
-15.8379445572
20
27.6067409151
30
0.0000000000
11
-15.8356744176
21
27.6397985827
31
0.0000000000
11
-15.8379445572
21
27.6067409151
31
0.0000000000
0
SPLINE
5
35D
100
AcDbEntity
8
0
100
AcDbSpline
62
7
6
CONTINUOUS
70
0
71
3
72
8
73
4
74
2
42
0.0000001000
43
0.0000001000
44
0.0000000001
12
0.0002396090
22
-0.0094882409
32
0.0000000000
13
0.0062458438
23
-0.0064025685
33
0.0000000000
40
0.0000000000
40
0.0000000000
40
0.0000000000
40
0.0000000000
40
1.0000000000
40
1.0000000000
40
1.0000000000
40
1.0000000000
10
-19.6484302287
20
27.1889210913
30
0.0000000000
10
-19.6483503591
20
27.1857583443
30
0.0000000000
10
-19.6475572446
20
27.1828252154
30
0.0000000000
10
-19.6454752967
20
27.1806910259
30
0.0000000000
11
-19.6484302287
21
27.1889210913
31
0.0000000000
11
-19.6454752967
21
27.1806910259
31
0.0000000000
0
SPLINE
5
35E
100
AcDbEntity
8
0
100
AcDbSpline
62
7
6
CONTINUOUS
70
0
71
3
72
8
73
4
74
2
42
0.0000001000
43
0.0000001000
44
0.0000000001
12
0.0838938988
22
0.0388216190
32
0.0000000000
13
0.0645453113
23
0.0671101688
33
0.0000000000
40
0.0000000000
40
0.0000000000
40
0.0000000000
40
0.0000000000
40
1.0000000000
40
1.0000000000
40
1.0000000000
40
1.0000000000
10
-0.3222169834
20
-21.4597810713
30
0.0000000000
10
-0.2942523504
20
-21.4468405317
30
0.0000000000
10
-0.2684618566
20
-21.4284883216
30
0.0000000000
10
-0.2469467528
20
-21.4061182653
30
0.0000000000
11
-0.3222169834
21
-21.4597810713
31
0.0000000000
11
-0.2469467528
21
-21.4061182653
31
0.0000000000
0
SPLINE
5
35F
100
AcDbEntity
8
0
100
AcDbSpline
62
7
6
CONTINUOUS
70
0
71
3
72
9
73
5
74
3
42
0.0000001000
43
0.0000001000
44
0.0000000001
12
0.1116601832
22
0.1160972591
32
0.0000000000
13
0.0196368210
23
0.1597888091
33
0.0000000000
40
0.0000000000
40
0.0000000000
40
0.0000000000
40
0.0000000000
40
0.5933481619
40
1.0000000000
40
1.0000000000
40
1.0000000000
40
1.0000000000
10
-0.2469467528
20
-21.4061182653
30
0.0000000000
10
-0.2248622980
20
-21.3831562336
30
0.0000000000
10
-0.1952341743
20
-21.3373225382
30
0.0000000000
10
-0.1817291973
20
-21.2849599381
30
0.0000000000
10
-0.1790674142
20
-21.2633004671
30
0.0000000000
11
-0.2469467528
21
-21.4061182653
31
0.0000000000
11
-0.1953790605
21
-21.3264669762
31
0.0000000000
11
-0.1790674142
21
-21.2633004671
31
0.0000000000
0
SPLINE
5
360
100
AcDbEntity
8
0
100
AcDbSpline
62
7
6
CONTINUOUS
70
0
71
3
72
9
73
5
74
3
42
0.0000001000
43
0.0000001000
44
0.0000000001
12
0.0043047443
22
0.0350285804
32
0.0000000000
13
-0.0007059322
23
0.0353312739
33
0.0000000000
40
0.0000000000
40
0.0000000000
40
0.0000000000
40
0.0000000000
40
0.9280853630
40
1.0000000000
40
1.0000000000
40
1.0000000000
40
1.0000000000
10
-0.1790674142
20
-21.2633004671
30
0.0000000000
10
-0.1777356908
20
-21.2524639628
30
0.0000000000
10
-0.1770640624
20
-21.2406890227
30
0.0000000000
10
-0.1772386843
20
-21.2289114283
30
0.0000000000
10
-0.1772556066
20
-21.2280644831
30
0.0000000000
11
-0.1790674142
21
-21.2633004671
31
0.0000000000
11
-0.1772179451
21
-21.2306053774
31
0.0000000000
11
-0.1772556066
21
-21.2280644831
31
0.0000000000
0
SPLINE
5
361
100
AcDbEntity
8
0
100
AcDbSpline
62
7
6
CONTINUOUS
70
0
71
3
72
9
73
5
74
3
42
0.0000001000
43
0.0000001000
44
0.0000000001
12
-0.1080040705
22
0.0256546780
32
0.0000000000
13
-0.0866887632
23
0.0698381400
33
0.0000000000
40
0.0000000000
40
0.0000000000
40
0.0000000000
40
0.0000000000
40
0.7027467642
40
1.0000000000
40
1.0000000000
40
1.0000000000
40
1.0000000000
10
-3.7983285503
20
-21.8926484384
30
0.0000000000
10
-3.8236283873
20
-21.8866388577
30
0.0000000000
10
-3.8585330782
20
-21.8724051928
30
0.0000000000
10
-3.8889795612
20
-21.8510266764
30
0.0000000000
10
-3.8975690663
20
-21.8441068054
30
0.0000000000
11
-3.7983285503
21
-21.8926484384
31
0.0000000000
11
-3.8704850050
21
-21.8631050274
31
0.0000000000
11
-3.8975690663
21
-21.8441068054
31
0.0000000000
0
SPLINE
5
362
100
AcDbEntity
8
0
100
AcDbSpline
62
7
6
CONTINUOUS
70
0
71
3
72
10
73
6
74
4
42
0.0000001000
43
0.0000001000
44
0.0000000001
12
-0.1698449646
22
0.1368303801
32
0.0000000000
13
-0.0044403389
23
0.2184108711
33
0.0000000000
40
0.0000000000
40
0.0000000000
40
0.0000000000
40
0.0000000000
40
0.3055114706
40
0.7704130286
40
1.0000000000
40
1.0000000000
40
1.0000000000
40
1.0000000000
10
-3.8975690663
20
-21.8441068054
30
0.0000000000
10
-3.9148655946
20
-21.8301723885
30
0.0000000000
10
-3.9537705761
20
-21.7892560491
30
0.0000000000
10
-3.9843384217
20
-21.7217017669
30
0.0000000000
10
-3.9903694568
20
-21.6711445950
30
0.0000000000
10
-3.9907092715
20
-21.6544298315
30
0.0000000000
11
-3.8975690663
21
-21.8441068054
31
0.0000000000
11
-3.9433068708
21
-21.7959711916
31
0.0000000000
11
-3.9847210004
21
-21.7041734402
31
0.0000000000
11
-3.9907092715
21
-21.6544298315
31
0.0000000000
0
SPLINE
5
363
100
AcDbEntity
8
0
100
AcDbSpline
62
7
6
CONTINUOUS
70
0
71
3
72
10
73
6
74
4
42
0.0000001000
43
0.0000001000
44
0.0000000001
12
-0.1393057818
22
-0.0529743595
32
0.0000000000
13
-0.1454727486
23
0.0347765630
33
0.0000000000
40
0.0000000000
40
0.0000000000
40
0.0000000000
40
0.0000000000
40
0.4245560189
40
0.8586162708
40
1.0000000000
40
1.0000000000
40
1.0000000000
40
1.0000000000
10
-2.2269505174
20
-22.2223999663
30
0.0000000000
10
-2.2466648867
20
-22.2298968274
30
0.0000000000
10
-2.2886622209
20
-22.2400260301
30
0.0000000000
10
-2.3388467577
20
-22.2390152296
30
0.0000000000
10
-2.3670364636
20
-22.2335175330
30
0.0000000000
10
-2.3738922902
20
-22.2318785863
30
0.0000000000
11
-2.2269505174
21
-22.2223999663
31
0.0000000000
11
-2.2884643136
21
-22.2372251622
31
0.0000000000
11
-2.3531427489
21
-22.2359222847
31
0.0000000000
11
-2.3738922902
21
-22.2318785863
31
0.0000000000
0
SPLINE
5
364
100
AcDbEntity
8
0
100
AcDbSpline
62
7
6
CONTINUOUS
70
0
71
3
72
10
73
6
74
4
42
0.0000001000
43
0.0000001000
44
0.0000000001
12
-0.1124595942
22
-0.0259917048
32
0.0000000000
13
-0.1122907973
23
0.0268441205
33
0.0000000000
40
0.0000000000
40
0.0000000000
40
0.0000000000
40
0.0000000000
40
0.2545122161
40
0.8168373528
40
1.0000000000
40
1.0000000000
40
1.0000000000
40
1.0000000000
10
-17.0463149491
20
-18.7108964628
30
0.0000000000
10
-17.0558557293
20
-18.7131015316
30
0.0000000000
10
-17.0869091967
20
-18.7183944919
30
0.0000000000
10
-17.1256467727
20
-18.7176142524
30
0.0000000000
10
-17.1538364786
20
-18.7121165558
30
0.0000000000
10
-17.1606923052
20
-18.7104776091
30
0.0000000000
11
-17.0463149491
21
-18.7108964628
31
0.0000000000
11
-17.0752643286
21
-18.7158241850
31
0.0000000000
11
-17.1399427639
21
-18.7145213075
31
0.0000000000
11
-17.1606923052
21
-18.7104776091
31
0.0000000000
0
SPLINE
5
365
100
AcDbEntity
8
0
100
AcDbSpline
62
7
6
CONTINUOUS
70
0
71
3
72
9
73
5
74
3
42
0.0000001000
43
0.0000001000
44
0.0000000001
12
-0.1120469983
22
0.0266150122
32
0.0000000000
13
-0.0887075190
23
0.0739314120
33
0.0000000000
40
0.0000000000
40
0.0000000000
40
0.0000000000
40
0.0000000000
40
0.6773899545
40
1.0000000000
40
1.0000000000
40
1.0000000000
40
1.0000000000
10
-18.5851285653
20
-18.3712474611
30
0.0000000000
10
-18.6104284023
20
-18.3652378805
30
0.0000000000
10
-18.6466396841
20
-18.3504714053
30
0.0000000000
10
-18.6780527420
20
-18.3280151591
30
0.0000000000
10
-18.6875920542
20
-18.3200648203
30
0.0000000000
11
-18.5851285653
21
-18.3712474611
31
0.0000000000
11
-18.6572850200
21
-18.3417040501
31
0.0000000000
11
-18.6875920542
21
-18.3200648203
31
0.0000000000
0
SPLINE
5
366
100
AcDbEntity
8
0
100
AcDbSpline
62
7
6
CONTINUOUS
70
0
71
3
72
8
73
4
74
2
42
0.0000001000
43
0.0000001000
44
0.0000000001
12
0.0057231426
22
-0.0015175135
32
0.0000000000
13
0.0056682311
23
-0.0019773142
33
0.0000000000
40
0.0000000000
40
0.0000000000
40
0.0000000000
40
0.0000000000
40
1.0000000000
40
1.0000000000
40
1.0000000000
40
1.0000000000
10
-7.8438197164
20
28.5015049371
30
0.0000000000
10
-7.8419120022
20
28.5009990993
30
0.0000000000
10
-7.8400126257
20
28.5004208574
30
0.0000000000
10
-7.8381232154
20
28.4997617526
30
0.0000000000
11
-7.8438197164
21
28.5015049371
31
0.0000000000
11
-7.8381232154
21
28.4997617526
31
0.0000000000
0
SPLINE
5
367
100
AcDbEntity
8
0
100
AcDbSpline
62
7
6
CONTINUOUS
70
0
71
3
72
8
73
4
74
2
42
0.0000001000
43
0.0000001000
44
0.0000000001
12
0.0350173866
22
-0.0122155178
32
0.0000000000
13
0.0181648049
23
-0.0302140904
33
0.0000000000
40
0.0000000000
40
0.0000000000
40
0.0000000000
40
0.0000000000
40
1.0000000000
40
1.0000000000
40
1.0000000000
40
1.0000000000
10
-7.8381232154
20
28.4997617526
30
0.0000000000
10
-7.8264507532
20
28.4956899134
30
0.0000000000
10
-7.8151586515
20
28.4885318936
30
0.0000000000
10
-7.8091037165
20
28.4784605301
30
0.0000000000
11
-7.8381232154
21
28.4997617526
31
0.0000000000
11
-7.8091037165
21
28.4784605301
31
0.0000000000
0
SPLINE
5
368
100
AcDbEntity
8
0
100
AcDbSpline
62
7
6
CONTINUOUS
70
0
71
3
72
8
73
4
74
2
42
0.0000001000
43
0.0000001000
44
0.0000000001
12
0.0128258187
22
-0.0213335870
32
0.0000000000
13
0.0004573772
23
-0.0264416975
33
0.0000000000
40
0.0000000000
40
0.0000000000
40
0.0000000000
40
0.0000000000
40
1.0000000000
40
1.0000000000
40
1.0000000000
40
1.0000000000
10
-7.8091037165
20
28.4784605301
30
0.0000000000
10
-7.8048284436
20
28.4713493344
30
0.0000000000
10
-7.8031641602
20
28.4627856913
30
0.0000000000
10
-7.8030117011
20
28.4539717921
30
0.0000000000
11
-7.8091037165
21
28.4784605301
31
0.0000000000
11
-7.8030117011
21
28.4539717921
31
0.0000000000
0
SPLINE
5
369
100
AcDbEntity
8
0
100
AcDbSpline
62
7
6
CONTINUOUS
70
0
71
3
72
8
73
4
74
2
42
0.0000001000
43
0.0000001000
44
0.0000000001
12
-0.0586665223
22
0.0141484686
32
0.0000000000
13
-0.0597170230
23
-0.0033285493
33
0.0000000000
40
0.0000000000
40
0.0000000000
40
0.0000000000
40
0.0000000000
40
1.0000000000
40
1.0000000000
40
1.0000000000
40
1.0000000000
10
-2.3527092927
20
27.1936603635
30
0.0000000000
10
-2.3722648001
20
27.1983765197
30
0.0000000000
10
-2.3923042025
20
27.2010501792
30
0.0000000000
10
-2.4122098769
20
27.1999406627
30
0.0000000000
11
-2.3527092927
21
27.1936603635
31
0.0000000000
11
-2.4122098769
21
27.1999406627
31
0.0000000000
0
SPLINE
5
36A
100
AcDbEntity
8
0
100
AcDbSpline
62
7
6
CONTINUOUS
70
0
71
3
72
17
73
13
74
11
42
0.0000001000
43
0.0000001000
44
0.0000000001
12
4.6147114503
22
1.9286944340
32
0.0000000000
13
0.1351787424
23
-4.9809013667
33
0.0000000000
40
0.0000000000
40
0.0000000000
40
0.0000000000
40
0.0000000000
40
0.0510146591
40
0.1369679810
40
0.2293956078
40
0.3296379932
40
0.4370309367
40
0.5501028398
40
0.6668400473
40
0.7849141812
40
0.9019756244
40
1.0000000000
40
1.0000000000
40
1.0000000000
40
1.0000000000
10
-16.1184580030
20
-2.0934633863
30
0.0000000000
10
-16.0399853592
20
-2.0606661566
30
0.0000000000
10
-15.8209295777
20
-1.9927527383
30
0.0000000000
10
-15.4348715745
20
-1.9745277283
30
0.0000000000
10
-14.9795836291
20
-2.0811280590
30
0.0000000000
10
-14.5310032494
20
-2.3066751509
30
0.0000000000
10
-14.1104188678
20
-2.6382530140
30
0.0000000000
10
-13.7370092588
20
-3.0588867130
30
0.0000000000
10
-13.4269314504
20
-3.5489480471
30
0.0000000000
10
-13.1933611224
20
-4.0869433715
30
0.0000000000
10
-13.0531781754
20
-4.6241916218
30
0.0000000000
10
-13.0159023455
20
-4.9810450872
30
0.0000000000
10
-13.0114854082
20
-5.1437950027
30
0.0000000000
11
-16.1184580030
21
-2.0934633863
31
0.0000000000
11
-15.8752189819
21
-2.0179881802
31
0.0000000000
11
-15.4477915744
21
-1.9941785179
31
0.0000000000
11
-14.9985214070
21
-2.0945024596
31
0.0000000000
11
-14.5505747880
21
-2.3149588694
31
0.0000000000
11
-14.1285410146
21
-2.6435518897
31
0.0000000000
11
-13.7530878640
21
-3.0632867470
31
0.0000000000
11
-13.4413283884
21
-3.5540437928
31
0.0000000000
11
-13.2070981384
21
-4.0934505622
31
0.0000000000
11
-13.0609340314
21
-4.6578554628
31
0.0000000000
11
-13.0114854082
21
-5.1437950027
31
0.0000000000
0
SPLINE
5
36B
100
AcDbEntity
8
0
100
AcDbSpline
62
7
6
CONTINUOUS
70
0
71
3
72
10
73
6
74
4
42
0.0000001000
43
0.0000001000
44
0.0000000001
12
-0.0781432132
22
2.5339349682
32
0.0000000000
13
-0.0690470931
23
2.5341990590
33
0.0000000000
40
0.0000000000
40
0.0000000000
40
0.0000000000
40
0.0000000000
40
0.2854953292
40
0.6578046805
40
1.0000000000
40
1.0000000000
40
1.0000000000
40
1.0000000000
10
-12.9358017319
20
-7.7547098076
30
0.0000000000
10
-12.9432382394
20
-7.5135676083
30
0.0000000000
10
-12.9600872423
20
-6.9579473425
30
0.0000000000
10
-12.9847030689
20
-6.1132592278
30
0.0000000000
10
-13.0015177667
20
-5.5097035510
30
0.0000000000
10
-13.0093936307
20
-5.2206398654
30
0.0000000000
11
-12.9358017319
21
-7.7547098076
31
0.0000000000
11
-12.9577399078
21
-7.0312718591
31
0.0000000000
11
-12.9852343522
21
-6.0878162698
31
0.0000000000
11
-13.0093936307
21
-5.2206398654
31
0.0000000000
0
SPLINE
5
36C
100
AcDbEntity
8
0
100
AcDbSpline
62
7
6
CONTINUOUS
70
0
71
3
72
8
73
4
74
2
42
0.0000001000
43
0.0000001000
44
0.0000000001
12
-0.0020932927
22
0.0768290175
32
0.0000000000
13
-0.0020849507
23
0.0768292427
33
0.0000000000
40
0.0000000000
40
0.0000000000
40
0.0000000000
40
0.0000000000
40
1.0000000000
40
1.0000000000
40
1.0000000000
40
1.0000000000
10
-13.0093936307
20
-5.2206398654
30
0.0000000000
10
-13.0100913949
20
-5.1950301930
30
0.0000000000
10
-13.0107877687
20
-5.1694204828
30
0.0000000000
10
-13.0114827523
20
-5.1438107353
30
0.0000000000
11
-13.0093936307
21
-5.2206398654
31
0.0000000000
11
-13.0114827523
21
-5.1438107353
31
0.0000000000
0
SPLINE
5
36D
100
AcDbEntity
8
0
100
AcDbSpline
62
7
6
CONTINUOUS
70
0
71
3
72
10
73
6
74
4
42
0.0000001000
43
0.0000001000
44
0.0000000001
12
-0.1439980119
22
8.3781892661
32
0.0000000000
13
-0.0466652081
23
8.3792968040
33
0.0000000000
40
0.0000000000
40
0.0000000000
40
0.0000000000
40
0.0000000000
40
0.3246524783
40
0.6763099839
40
1.0000000000
40
1.0000000000
40
1.0000000000
40
1.0000000000
10
-19.3881856194
20
3.4184565409
30
0.0000000000
10
-19.4037687232
20
4.3251231773
30
0.0000000000
10
-19.4326452605
20
6.2139377948
30
0.0000000000
10
-19.4643456774
20
9.0069066031
30
0.0000000000
10
-19.4783733631
20
10.8932013602
30
0.0000000000
10
-19.4834083837
20
11.7972995993
30
0.0000000000
11
-19.3881856194
21
3.4184565409
31
0.0000000000
11
-19.4297784341
21
6.1385401113
31
0.0000000000
11
-19.4632309825
21
9.0850379609
31
0.0000000000
11
-19.4834083837
21
11.7972995993
31
0.0000000000
0
SPLINE
5
36E
100
AcDbEntity
8
0
100
AcDbSpline
62
7
6
CONTINUOUS
70
0
71
3
72
8
73
4
74
2
42
0.0000001000
43
0.0000001000
44
0.0000000001
12
-0.0000876622
22
0.0157408007
32
0.0000000000
13
-0.0000873210
23
0.0157408024
33
0.0000000000
40
0.0000000000
40
0.0000000000
40
0.0000000000
40
0.0000000000
40
1.0000000000
40
1.0000000000
40
1.0000000000
40
1.0000000000
10
-19.4834083837
20
11.7972995993
30
0.0000000000
10
-19.4834376045
20
11.8025465328
30
0.0000000000
10
-19.4834667683
20
11.8077934667
30
0.0000000000
10
-19.4834958753
20
11.8130404008
30
0.0000000000
11
-19.4834083837
21
11.7972995993
31
0.0000000000
11
-19.4834958753
21
11.8130404008
31
0.0000000000
0
SPLINE
5
36F
100
AcDbEntity
8
0
100
AcDbSpline
62
7
6
CONTINUOUS
70
0
71
3
72
10
73
6
74
4
42
0.0000001000
43
0.0000001000
44
0.0000000001
12
-0.1086248482
22
6.7627412449
32
0.0000000000
13
-0.0452108948
23
6.7634625283
33
0.0000000000
40
0.0000000000
40
0.0000000000
40
0.0000000000
40
0.0000000000
40
0.3227794754
40
0.6788074835
40
1.0000000000
40
1.0000000000
40
1.0000000000
40
1.0000000000
10
-9.4654844415
20
1.8584102415
30
0.0000000000
10
-9.4771717320
20
2.5860349318
30
0.0000000000
10
-9.4994218514
20
4.1162731391
30
0.0000000000
10
-9.5250121102
20
6.3706692010
30
0.0000000000
10
-9.5375046048
20
7.8974401260
30
0.0000000000
10
-9.5423450718
20
8.6215646426
30
0.0000000000
11
-9.4654844415
21
1.8584102415
31
0.0000000000
11
-9.4972287763
21
4.0413350288
31
0.0000000000
11
-9.5245664964
21
6.4492153631
31
0.0000000000
11
-9.5423450718
21
8.6215646426
31
0.0000000000
0
SPLINE
5
370
100
AcDbEntity
8
0
100
AcDbSpline
62
7
6
CONTINUOUS
70
0
71
3
72
8
73
4
74
2
42
0.0000001000
43
0.0000001000
44
0.0000000001
12
-0.0001044105
22
0.0156196136
32
0.0000000000
13
-0.0001040741
23
0.0156196157
33
0.0000000000
40
0.0000000000
40
0.0000000000
40
0.0000000000
40
0.0000000000
40
1.0000000000
40
1.0000000000
40
1.0000000000
40
1.0000000000
10
-9.5423450718
20
8.6215646426
30
0.0000000000
10
-9.5423798753
20
8.6267711805
30
0.0000000000
10
-9.5424146228
20
8.6319777187
30
0.0000000000
10
-9.5424493142
20
8.6371842573
30
0.0000000000
11
-9.5423450718
21
8.6215646426
31
0.0000000000
11
-9.5424493142
21
8.6371842573
31
0.0000000000
0
SPLINE
5
371
100
AcDbEntity
8
0
100
AcDbSpline
62
7
6
CONTINUOUS
70
0
71
3
72
10
73
6
74
4
42
0.0000001000
43
0.0000001000
44
0.0000000001
12
0.4873367521
22
-0.1168689326
32
0.0000000000
13
0.4756498455
23
0.1554516439
33
0.0000000000
40
0.0000000000
40
0.0000000000
40
0.0000000000
40
0.0000000000
40
0.1135914928
40
0.6312888731
40
1.0000000000
40
1.0000000000
40
1.0000000000
40
1.0000000000
10
-5.9450219429
20
-21.3543887197
30
0.0000000000
10
-5.9265695065
20
-21.3588138252
30
0.0000000000
10
-5.8232239265
20
-21.3800557736
30
0.0000000000
10
-5.6547097385
20
-21.3833260035
30
0.0000000000
10
-5.5096441838
20
-21.3502653994
30
0.0000000000
10
-5.4511850537
20
-21.3311598158
30
0.0000000000
11
-5.9450219429
21
-21.3543887197
31
0.0000000000
11
-5.8892800775
21
-21.3658372931
31
0.0000000000
11
-5.6310725174
21
-21.3715474165
31
0.0000000000
11
-5.4511850537
21
-21.3311598158
31
0.0000000000
0
SPLINE
5
372
100
AcDbEntity
8
0
100
AcDbSpline
62
7
6
CONTINUOUS
70
0
71
3
72
8
73
4
74
2
42
0.0000001000
43
0.0000001000
44
0.0000000001
12
-0.0226274282
22
-0.0098310396
32
0.0000000000
13
-0.0234203082
23
-0.0077480412
33
0.0000000000
40
0.0000000000
40
0.0000000000
40
0.0000000000
40
0.0000000000
40
1.0000000000
40
1.0000000000
40
1.0000000000
40
1.0000000000
10
-0.5498939736
20
-19.7225417393
30
0.0000000000
10
-0.5574364497
20
-19.7258187525
30
0.0000000000
10
-0.5651264587
20
-19.7287575015
30
0.0000000000
10
-0.5729332281
20
-19.7313401819
30
0.0000000000
11
-0.5498939736
21
-19.7225417393
31
0.0000000000
11
-0.5729332281
21
-19.7313401819
31
0.0000000000
0
SPLINE
5
373
100
AcDbEntity
8
0
100
AcDbSpline
62
7
6
CONTINUOUS
70
0
71
3
72
13
73
9
74
7
42
0.0000001000
43
0.0000001000
44
0.0000000001
12
0.0675234018
22
-1.4665299835
32
0.0000000000
13
1.4340588042
23
-0.3388699049
33
0.0000000000
40
0.0000000000
40
0.0000000000
40
0.0000000000
40
0.0000000000
40
0.1774294996
40
0.3980178815
40
0.6014582578
40
0.7849875493
40
0.9555129988
40
1.0000000000
40
1.0000000000
40
1.0000000000
40
1.0000000000
10
-23.1284739155
20
-16.3107466690
30
0.0000000000
10
-23.1244803677
20
-16.3974818961
30
0.0000000000
10
-23.1022557300
20
-16.5916832512
30
0.0000000000
10
-23.0169903547
20
-16.8755277712
30
0.0000000000
10
-22.8636385368
20
-17.1339635564
30
0.0000000000
10
-22.6624455966
20
-17.3234360162
30
0.0000000000
10
-22.4855393751
20
-17.4113493366
30
0.0000000000
10
-22.3837028098
20
-17.4396352023
30
0.0000000000
10
-22.3624371512
20
-17.4446603042
30
0.0000000000
11
-23.1284739155
21
-16.3107466690
31
0.0000000000
11
-23.0978693210
21
-16.5693600754
31
0.0000000000
11
-23.0018626524
21
-16.8782775056
31
0.0000000000
11
-22.8470104097
21
-17.1332880763
31
0.0000000000
11
-22.6498568076
21
-17.3165081906
31
0.0000000000
11
-22.4255698471
21
-17.4271107594
31
0.0000000000
11
-22.3624371512
21
-17.4446603042
31
0.0000000000
0
SPLINE
5
374
100
AcDbEntity
8
0
100
AcDbSpline
62
7
6
CONTINUOUS
70
0
71
3
72
10
73
6
74
4
42
0.0000001000
43
0.0000001000
44
0.0000000001
12
-0.2789570907
22
-38.9415932830
32
0.0000000000
13
1.7979179221
23
-38.9010676007
33
0.0000000000
40
0.0000000000
40
0.0000000000
40
0.0000000000
40
0.0000000000
40
0.3351186060
40
0.6699414266
40
1.0000000000
40
1.0000000000
40
1.0000000000
40
1.0000000000
10
-23.8767136057
20
22.6204289439
30
0.0000000000
10
-23.9078748429
20
18.2704114585
30
0.0000000000
10
-23.8948895213
20
9.5734714772
30
0.0000000000
10
-23.6462251891
20
-3.4056268712
30
0.0000000000
10
-23.3262687338
20
-12.0309894984
30
0.0000000000
10
-23.1284626590
20
-16.3108664568
30
0.0000000000
11
-23.8767136057
21
22.6204289439
31
0.0000000000
11
-23.8564485676
21
9.5700581532
31
0.0000000000
11
-23.6058284797
21
-3.4663978152
31
0.0000000000
11
-23.1284626590
21
-16.3108664568
31
0.0000000000
0
SPLINE
5
375
100
AcDbEntity
8
0
100
AcDbSpline
62
7
6
CONTINUOUS
70
0
71
3
72
13
73
9
74
7
42
0.0000001000
43
0.0000001000
44
0.0000000001
12
-1.6724364358
22
-0.8669996337
32
0.0000000000
13
-0.0133273667
23
-1.8811748325
33
0.0000000000
40
0.0000000000
40
0.0000000000
40
0.0000000000
40
0.0000000000
40
0.1149617175
40
0.2858414116
40
0.4696207324
40
0.6628320985
40
0.8579182655
40
1.0000000000
40
1.0000000000
40
1.0000000000
40
1.0000000000
10
-23.0475643664
20
24.2185181747
30
0.0000000000
10
-23.1116530880
20
24.1852942524
30
0.0000000000
10
-23.2629519407
20
24.0860361963
30
0.0000000000
10
-23.4696971943
20
23.8733038025
30
0.0000000000
10
-23.6539071938
20
23.5810657753
30
0.0000000000
10
-23.7883715154
20
23.2468941020
30
0.0000000000
10
-23.8605141391
20
22.9210673895
30
0.0000000000
10
-23.8760829338
20
22.7095038245
30
0.0000000000
10
-23.8767141256
20
22.6204102967
30
0.0000000000
11
-23.0475643664
21
24.2185181747
31
0.0000000000
11
-23.2292356405
21
24.1005646816
31
0.0000000000
11
-23.4554549350
21
23.8725260498
31
0.0000000000
11
-23.6416707918
21
23.5815519193
31
0.0000000000
11
-23.7784106544
21
23.2450867960
31
0.0000000000
11
-23.8575823115
21
22.8870215598
31
0.0000000000
11
-23.8767141256
21
22.6204102967
31
0.0000000000
0
SPLINE
5
376
100
AcDbEntity
8
0
100
AcDbSpline
62
7
6
CONTINUOUS
70
0
71
3
72
11
73
7
74
5
42
0.0000001000
43
0.0000001000
44
0.0000000001
12
-1.4842063820
22
-1.2517029054
32
0.0000000000
13
0.0371913120
23
-1.9350742019
33
0.0000000000
40
0.0000000000
40
0.0000000000
40
0.0000000000
40
0.0000000000
40
0.1883284650
40
0.4410426493
40
0.7117382692
40
1.0000000000
40
1.0000000000
40
1.0000000000
40
1.0000000000
10
-15.7028154061
20
-1.9930062350
30
0.0000000000
10
-15.7959881759
20
-2.0715833306
30
0.0000000000
10
-15.9925950185
20
-2.2812340658
30
0.0000000000
10
-16.2189974455
20
-2.6863588611
30
0.0000000000
10
-16.3620830536
20
-3.1942721407
30
0.0000000000
10
-16.3874199179
20
-3.5566180887
30
0.0000000000
10
-16.3838463072
20
-3.7425540349
30
0.0000000000
11
-15.7028154061
21
-1.9930062350
31
0.0000000000
11
-15.9536256338
21
-2.2581755260
31
0.0000000000
11
-16.1959741399
21
-2.6830246546
31
0.0000000000
11
-16.3418187842
21
-3.1862284033
31
0.0000000000
11
-16.3838463072
21
-3.7425540349
31
0.0000000000
0
SPLINE
5
377
100
AcDbEntity
8
0
100
AcDbSpline
62
7
6
CONTINUOUS
70
0
71
3
72
11
73
7
74
5
42
0.0000001000
43
0.0000001000
44
0.0000000001
12
0.2442159226
22
0.1264245210
32
0.0000000000
13
-0.0052843936
23
0.2749484525
33
0.0000000000
40
0.0000000000
40
0.0000000000
40
0.0000000000
40
0.0000000000
40
0.2089505587
40
0.4586999852
40
0.7309660162
40
1.0000000000
40
1.0000000000
40
1.0000000000
40
1.0000000000
10
-4.4418693596
20
22.6002867074
30
0.0000000000
10
-4.4248596751
20
22.6090921988
30
0.0000000000
10
-4.3925312396
20
22.6378774141
30
0.0000000000
10
-4.3575729144
20
22.6957153356
30
0.0000000000
10
-4.3348177426
20
22.7651623681
30
0.0000000000
10
-4.3296256532
20
22.8150043712
30
0.0000000000
10
-4.3300995470
20
22.8396611971
30
0.0000000000
11
-4.4418693596
21
22.6002867074
31
0.0000000000
11
-4.3975629065
21
22.6368754027
31
0.0000000000
11
-4.3609270993
21
22.6949691514
31
0.0000000000
11
-4.3373505581
21
22.7660332434
31
0.0000000000
11
-4.3300995470
21
22.8396611971
31
0.0000000000
0
SPLINE
5
378
100
AcDbEntity
8
0
100
AcDbSpline
62
7
6
CONTINUOUS
70
0
71
3
72
9
73
5
74
3
42
0.0000001000
43
0.0000001000
44
0.0000000001
12
0.0702537962
22
0.0363686245
32
0.0000000000
13
0.0454634455
23
0.0650475859
33
0.0000000000
40
0.0000000000
40
0.0000000000
40
0.0000000000
40
0.0000000000
40
0.7259761244
40
1.0000000000
40
1.0000000000
40
1.0000000000
40
1.0000000000
10
-19.2285954952
20
26.1214467219
30
0.0000000000
10
-19.2115946357
20
26.1302476395
30
0.0000000000
10
-19.1913205526
20
26.1483013008
30
0.0000000000
10
-19.1751374860
20
26.1693107779
30
0.0000000000
10
-19.1709847961
20
26.1752523085
30
0.0000000000
11
-19.2285954952
21
26.1214467219
31
0.0000000000
11
-19.1843137699
21
26.1580185307
31
0.0000000000
11
-19.1709847961
21
26.1752523085
31
0.0000000000
0
SPLINE
5
379
100
AcDbEntity
8
0
100
AcDbSpline
62
7
6
CONTINUOUS
70
0
71
3
72
9
73
5
74
3
42
0.0000001000
43
0.0000001000
44
0.0000000001
12
0.0410639284
22
0.0587529032
32
0.0000000000
13
0.0251176609
23
0.0670210348
33
0.0000000000
40
0.0000000000
40
0.0000000000
40
0.0000000000
40
0.0000000000
40
0.6574185054
40
1.0000000000
40
1.0000000000
40
1.0000000000
40
1.0000000000
10
-19.1709847961
20
26.1752523085
30
0.0000000000
10
-19.1619860673
20
26.1881273904
30
0.0000000000
10
-19.1503113051
20
26.2090290322
30
0.0000000000
10
-19.1411023965
20
26.2310511929
30
0.0000000000
10
-19.1382341146
20
26.2387045816
30
0.0000000000
11
-19.1709847961
21
26.1752523085
31
0.0000000000
11
-19.1477013976
21
26.2160939299
31
0.0000000000
11
-19.1382341146
21
26.2387045816
31
0.0000000000
0
SPLINE
5
37A
100
AcDbEntity
8
0
100
AcDbSpline
62
7
6
CONTINUOUS
70
0
71
3
72
9
73
5
74
3
42
0.0000001000
43
0.0000001000
44
0.0000000001
12
0.0437183256
22
0.1166528776
32
0.0000000000
13
-0.0023887564
23
0.1243453631
33
0.0000000000
40
0.0000000000
40
0.0000000000
40
0.0000000000
40
0.0000000000
40
0.4050585640
40
1.0000000000
40
1.0000000000
40
1.0000000000
40
1.0000000000
10
-19.1382341146
20
26.2387045816
30
0.0000000000
10
-19.1323312872
20
26.2544549973
30
0.0000000000
10
-19.1207543147
20
26.2944790179
30
0.0000000000
10
-19.1164204305
20
26.3361213893
30
0.0000000000
10
-19.1168941539
20
26.3607807923
30
0.0000000000
11
-19.1382341146
21
26.2387045816
31
0.0000000000
11
-19.1241409747
21
26.2871446687
31
0.0000000000
11
-19.1168941539
21
26.3607807923
31
0.0000000000
0
SPLINE
5
37B
100
AcDbEntity
8
0
100
AcDbSpline
62
7
6
CONTINUOUS
70
0
71
3
72
8
73
4
74
2
42
0.0000001000
43
0.0000001000
44
0.0000000001
12
-0.0029742348
22
-0.0169940355
32
0.0000000000
13
-0.0045393946
23
-0.0166772940
33
0.0000000000
40
0.0000000000
40
0.0000000000
40
0.0000000000
40
0.0000000000
40
1.0000000000
40
1.0000000000
40
1.0000000000
40
1.0000000000
10
-15.8379445572
20
27.6067409151
30
0.0000000000
10
-15.8389359688
20
27.6010762366
30
0.0000000000
10
-15.8402047650
20
27.5954578532
30
0.0000000000
10
-15.8417178965
20
27.5898987552
30
0.0000000000
11
-15.8379445572
21
27.6067409151
31
0.0000000000
11
-15.8417178965
21
27.5898987552
31
0.0000000000
0
SPLINE
5
37C
100
AcDbEntity
8
0
100
AcDbSpline
62
7
6
CONTINUOUS
70
0
71
3
72
9
73
5
74
3
42
0.0000001000
43
0.0000001000
44
0.0000000001
12
-0.0257036857
22
-0.0944328407
32
0.0000000000
13
-0.0579619211
23
-0.0786355570
33
0.0000000000
40
0.0000000000
40
0.0000000000
40
0.0000000000
40
0.0000000000
40
0.3722267098
40
1.0000000000
40
1.0000000000
40
1.0000000000
40
1.0000000000
10
-15.8417178965
20
27.5898987552
30
0.0000000000
10
-15.8449070960
20
27.5781819467
30
0.0000000000
10
-15.8563909996
20
27.5474118715
30
0.0000000000
10
-15.8734754885
20
27.5194204646
30
0.0000000000
10
-15.8856044704
20
27.5029653638
30
0.0000000000
11
-15.8417178965
21
27.5898987552
31
0.0000000000
11
-15.8542323037
21
27.5556600511
31
0.0000000000
11
-15.8856044704
21
27.5029653638
31
0.0000000000
0
SPLINE
5
37D
100
AcDbEntity
8
0
100
AcDbSpline
62
7
6
CONTINUOUS
70
0
71
3
72
9
73
5
74
3
42
0.0000001000
43
0.0000001000
44
0.0000000001
12
0.0312768746
22
-0.0305815496
32
0.0000000000
13
0.0392694085
23
-0.0190611658
33
0.0000000000
40
0.0000000000
40
0.0000000000
40
0.0000000000
40
0.0000000000
40
0.4836527425
40
1.0000000000
40
1.0000000000
40
1.0000000000
40
1.0000000000
10
-19.6454752967
20
27.1806910259
30
0.0000000000
10
-19.6404329146
20
27.1757607425
30
0.0000000000
10
-19.6275835403
20
27.1683862898
30
0.0000000000
10
-19.6146212874
20
27.1617458912
30
0.0000000000
10
-19.6078624036
20
27.1584651643
30
0.0000000000
11
-19.6454752967
21
27.1806910259
31
0.0000000000
11
-19.6279772398
21
27.1687991039
31
0.0000000000
11
-19.6078624036
21
27.1584651643
31
0.0000000000
0
SPLINE
5
37E
100
AcDbEntity
8
0
100
AcDbSpline
62
7
6
CONTINUOUS
70
0
71
3
72
8
73
4
74
2
42
0.0000001000
43
0.0000001000
44
0.0000000001
12
0.0124988377
22
-0.0060668706
32
0.0000000000
13
0.0126741162
23
-0.0057629086
33
0.0000000000
40
0.0000000000
40
0.0000000000
40
0.0000000000
40
0.0000000000
40
1.0000000000
40
1.0000000000
40
1.0000000000
40
1.0000000000
10
-19.6078624036
20
27.1584651643
30
0.0000000000
10
-19.6036961243
20
27.1564428741
30
0.0000000000
10
-19.5995048204
20
27.1544768285
30
0.0000000000
10
-19.5952801150
20
27.1525558590
30
0.0000000000
11
-19.6078624036
21
27.1584651643
31
0.0000000000
11
-19.5952801150
21
27.1525558590
31
0.0000000000
0
SPLINE
5
37F
100
AcDbEntity
8
0
100
AcDbSpline
62
7
6
CONTINUOUS
70
0
71
3
72
9
73
5
74
3
42
0.0000001000
43
0.0000001000
44
0.0000000001
12
0.0524942225
22
-0.0238690733
32
0.0000000000
13
0.0412318139
23
-0.0403151779
33
0.0000000000
40
0.0000000000
40
0.0000000000
40
0.0000000000
40
0.0000000000
40
0.6331195569
40
1.0000000000
40
1.0000000000
40
1.0000000000
40
1.0000000000
10
-0.2412806424
20
-20.6356356343
30
0.0000000000
10
-0.2302022694
20
-20.6406729600
30
0.0000000000
10
-0.2130669716
20
-20.6491188923
30
0.0000000000
10
-0.1961278427
20
-20.6588405178
30
0.0000000000
10
-0.1910854607
20
-20.6637708012
30
0.0000000000
11
-0.2412806424
21
-20.6356356343
31
0.0000000000
11
-0.2085835175
21
-20.6518788792
31
0.0000000000
11
-0.1910854607
21
-20.6637708012
31
0.0000000000
0
SPLINE
5
380
100
AcDbEntity
8
0
100
AcDbSpline
62
7
6
CONTINUOUS
70
0
71
3
72
9
73
5
74
3
42
0.0000001000
43
0.0000001000
44
0.0000000001
12
-0.0681982752
22
-0.0925229747
32
0.0000000000
13
-0.0198154227
23
-0.1132203807
33
0.0000000000
40
0.0000000000
40
0.0000000000
40
0.0000000000
40
0.0000000000
40
0.5335464248
40
1.0000000000
40
1.0000000000
40
1.0000000000
40
1.0000000000
10
-3.9509562869
20
-20.9860451391
30
0.0000000000
10
-3.9630852689
20
-21.0025002399
30
0.0000000000
10
-3.9831869607
20
-21.0354350639
30
0.0000000000
10
-3.9955352085
20
-21.0722166733
30
0.0000000000
10
-3.9986162001
20
-21.0898206904
30
0.0000000000
11
-3.9509562869
21
-20.9860451391
31
0.0000000000
11
-3.9823284537
21
-21.0387398264
31
0.0000000000
11
-3.9986162001
21
-21.0898206904
31
0.0000000000
0
SPLINE
5
381
100
AcDbEntity
8
0
100
AcDbSpline
62
7
6
CONTINUOUS
70
0
71
3
72
9
73
5
74
3
42
0.0000001000
43
0.0000001000
44
0.0000000001
12
0.0312768746
22
-0.0305815496
32
0.0000000000
13
0.0392694085
23
-0.0190611658
33
0.0000000000
40
0.0000000000
40
0.0000000000
40
0.0000000000
40
0.0000000000
40
0.4836527425
40
1.0000000000
40
1.0000000000
40
1.0000000000
40
1.0000000000
10
-4.8586752817
20
23.6592900487
30
0.0000000000
10
-4.8536328997
20
23.6543597653
30
0.0000000000
10
-4.8407835254
20
23.6469853126
30
0.0000000000
10
-4.8278212724
20
23.6403449139
30
0.0000000000
10
-4.8210623886
20
23.6370641870
30
0.0000000000
11
-4.8586752817
21
23.6592900487
31
0.0000000000
11
-4.8411772248
21
23.6473981266
31
0.0000000000
11
-4.8210623886
21
23.6370641870
31
0.0000000000
0
SPLINE
5
382
100
AcDbEntity
8
0
100
AcDbSpline
62
7
6
CONTINUOUS
70
0
71
3
72
8
73
4
74
2
42
0.0000001000
43
0.0000001000
44
0.0000000001
12
0.0124988377
22
-0.0060668706
32
0.0000000000
13
0.0126741162
23
-0.0057629086
33
0.0000000000
40
0.0000000000
40
0.0000000000
40
0.0000000000
40
0.0000000000
40
1.0000000000
40
1.0000000000
40
1.0000000000
40
1.0000000000
10
-4.8210623886
20
23.6370641870
30
0.0000000000
10
-4.8168961093
20
23.6350418968
30
0.0000000000
10
-4.8127048054
20
23.6330758513
30
0.0000000000
10
-4.8084801000
20
23.6311548817
30
0.0000000000
11
-4.8210623886
21
23.6370641870
31
0.0000000000
11
-4.8084801000
21
23.6311548817
31
0.0000000000
0
SPLINE
5
383
100
AcDbEntity
8
0
100
AcDbSpline
62
7
6
CONTINUOUS
70
0
71
3
72
8
73
4
74
2
42
0.0000001000
43
0.0000001000
44
0.0000000001
12
0.0032390752
22
-0.0033203445
32
0.0000000000
13
0.0014001787
23
-0.0043713438
33
0.0000000000
40
0.0000000000
40
0.0000000000
40
0.0000000000
40
0.0000000000
40
1.0000000000
40
1.0000000000
40
1.0000000000
40
1.0000000000
10
-0.1910854607
20
-20.6637708012
30
0.0000000000
10
-0.1900057689
20
-20.6648775827
30
0.0000000000
10
-0.1892726995
20
-20.6661992331
30
0.0000000000
10
-0.1888059732
20
-20.6676563477
30
0.0000000000
11
-0.1910854607
21
-20.6637708012
31
0.0000000000
11
-0.1888059732
21
-20.6676563477
31
0.0000000000
0
SPLINE
5
384
100
AcDbEntity
8
0
100
AcDbSpline
62
7
6
CONTINUOUS
70
0
71
3
72
8
73
4
74
2
42
0.0000001000
43
0.0000001000
44
0.0000000001
12
0.0012997601
22
-0.0040578382
32
0.0000000000
13
0.0001153483
23
-0.0045676718
33
0.0000000000
40
0.0000000000
40
0.0000000000
40
0.0000000000
40
0.0000000000
40
1.0000000000
40
1.0000000000
40
1.0000000000
40
1.0000000000
10
-0.1888059732
20
-20.6676563477
30
0.0000000000
10
-0.1883727199
20
-20.6690089604
30
0.0000000000
10
-0.1881689763
20
-20.6704783036
30
0.0000000000
10
-0.1881305269
20
-20.6720008608
30
0.0000000000
11
-0.1888059732
21
-20.6676563477
31
0.0000000000
11
-0.1881305269
21
-20.6720008608
31
0.0000000000
0
SPLINE
5
385
100
AcDbEntity
8
0
100
AcDbSpline
62
7
6
CONTINUOUS
70
0
71
3
72
8
73
4
74
2
42
0.0000001000
43
0.0000001000
44
0.0000000001
12
-0.0029742348
22
-0.0169940355
32
0.0000000000
13
-0.0045393946
23
-0.0166772940
33
0.0000000000
40
0.0000000000
40
0.0000000000
40
0.0000000000
40
0.0000000000
40
1.0000000000
40
1.0000000000
40
1.0000000000
40
1.0000000000
10
-1.0511445423
20
24.0853399379
30
0.0000000000
10
-1.0521359539
20
24.0796752594
30
0.0000000000
10
-1.0534047500
20
24.0740568760
30
0.0000000000
10
-1.0549178816
20
24.0684977780
30
0.0000000000
11
-1.0511445423
21
24.0853399379
31
0.0000000000
11
-1.0549178816
21
24.0684977780
31
0.0000000000
0
SPLINE
5
386
100
AcDbEntity
8
0
100
AcDbSpline
62
7
6
CONTINUOUS
70
0
71
3
72
9
73
5
74
3
42
0.0000001000
43
0.0000001000
44
0.0000000001
12
-0.0257036857
22
-0.0944328407
32
0.0000000000
13
-0.0579619211
23
-0.0786355570
33
0.0000000000
40
0.0000000000
40
0.0000000000
40
0.0000000000
40
0.0000000000
40
0.3722267098
40
1.0000000000
40
1.0000000000
40
1.0000000000
40
1.0000000000
10
-1.0549178816
20
24.0684977780
30
0.0000000000
10
-1.0581070810
20
24.0567809695
30
0.0000000000
10
-1.0695909847
20
24.0260108943
30
0.0000000000
10
-1.0866754735
20
23.9980194874
30
0.0000000000
10
-1.0988044555
20
23.9815643866
30
0.0000000000
11
-1.0549178816
21
24.0684977780
31
0.0000000000
11
-1.0674322887
21
24.0342590738
31
0.0000000000
11
-1.0988044555
21
23.9815643866
31
0.0000000000
0
SPLINE
5
387
100
AcDbEntity
8
0
100
AcDbSpline
62
7
6
CONTINUOUS
70
0
71
3
72
8
73
4
74
2
42
0.0000001000
43
0.0000001000
44
0.0000000001
12
-0.0053159070
22
-0.0326829049
32
0.0000000000
13
0.0005405330
23
-0.0332554933
33
0.0000000000
40
0.0000000000
40
0.0000000000
40
0.0000000000
40
0.0000000000
40
1.0000000000
40
1.0000000000
40
1.0000000000
40
1.0000000000
10
-3.9986162001
20
-21.0898206904
30
0.0000000000
10
-4.0003881691
20
-21.1007149920
30
0.0000000000
10
-4.0010665128
20
-21.1117932175
30
0.0000000000
10
-4.0008863352
20
-21.1228783819
30
0.0000000000
11
-3.9986162001
21
-21.0898206904
31
0.0000000000
11
-4.0008863352
21
-21.1228783819
31
0.0000000000
0
SPLINE
5
388
100
AcDbEntity
8
0
100
AcDbSpline
62
7
6
CONTINUOUS
70
0
71
3
72
9
73
5
74
3
42
0.0000001000
43
0.0000001000
44
0.0000000001
12
0.0644527392
22
0.0253836019
32
0.0000000000
13
0.0691637266
23
0.0038550963
33
0.0000000000
40
0.0000000000
40
0.0000000000
40
0.0000000000
40
0.0000000000
40
0.5193933932
40
1.0000000000
40
1.0000000000
40
1.0000000000
40
1.0000000000
10
-2.4795548149
20
27.1846813094
30
0.0000000000
10
-2.4683960393
20
27.1890760011
30
0.0000000000
10
-2.4462685450
20
27.1960310010
30
0.0000000000
10
-2.4232896334
20
27.1993009674
30
0.0000000000
10
-2.4122094521
20
27.1999185624
30
0.0000000000
11
-2.4795548149
21
27.1846813094
31
0.0000000000
11
-2.4451806042
21
27.1953066535
31
0.0000000000
11
-2.4122094521
21
27.1999185624
31
0.0000000000
0
SPLINE
5
389
100
AcDbEntity
8
0
100
AcDbSpline
62
7
6
CONTINUOUS
70
0
71
3
72
9
73
5
74
3
42
0.0000001000
43
0.0000001000
44
0.0000000001
12
0.2251963800
22
0.0886897180
32
0.0000000000
13
0.2374917482
23
-0.0564268260
33
0.0000000000
40
0.0000000000
40
0.0000000000
40
0.0000000000
40
0.0000000000
40
0.6645345035
40
1.0000000000
40
1.0000000000
40
1.0000000000
40
1.0000000000
10
-1.2826616774
20
26.5675017469
30
0.0000000000
10
-1.2327780892
20
26.5871475394
30
0.0000000000
10
-1.1516386416
20
26.6050118250
30
0.0000000000
10
-1.0703196859
20
26.5950502526
30
0.0000000000
10
-1.0437629235
20
26.5887405015
30
0.0000000000
11
-1.2826616774
21
26.5675017469
31
0.0000000000
11
-1.1248588923
21
26.5986023389
31
0.0000000000
11
-1.0437629235
21
26.5887405015
31
0.0000000000
0
SPLINE
5
38A
100
AcDbEntity
8
0
100
AcDbSpline
62
7
6
CONTINUOUS
70
0
71
3
72
12
73
8
74
6
42
0.0000001000
43
0.0000001000
44
0.0000000001
12
-0.0166493638
22
0.8662709827
32
0.0000000000
13
-0.8501792295
23
0.2019982412
33
0.0000000000
40
0.0000000000
40
0.0000000000
40
0.0000000000
40
0.0000000000
40
0.2681761209
40
0.5150523307
40
0.7272561228
40
0.9140936565
40
1.0000000000
40
1.0000000000
40
1.0000000000
40
1.0000000000
10
-5.3470040262
20
26.9958576981
30
0.0000000000
10
-5.3484923468
20
27.0732954287
30
0.0000000000
10
-5.3633032112
20
27.2222325716
30
0.0000000000
10
-5.4255641570
20
27.4246639566
30
0.0000000000
10
-5.5254237515
20
27.5853981072
30
0.0000000000
10
-5.6382750694
20
27.6745776664
30
0.0000000000
10
-5.7136398875
20
27.7008612635
30
0.0000000000
10
-5.7379851504
20
27.7066455736
30
0.0000000000
11
-5.3470040262
21
26.9958576981
31
0.0000000000
11
-5.3718545213
21
27.2268810906
31
0.0000000000
11
-5.4376917142
21
27.4303981273
31
0.0000000000
11
-5.5381595220
21
27.5843809048
31
0.0000000000
11
-5.6673445301
21
27.6819358063
31
0.0000000000
11
-5.7379851504
21
27.7066455736
31
0.0000000000
0
SPLINE
5
38B
100
AcDbEntity
8
0
100
AcDbSpline
62
7
6
CONTINUOUS
70
0
71
3
72
11
73
7
74
5
42
0.0000001000
43
0.0000001000
44
0.0000000001
12
-0.6608142263
22
0.6680166267
32
0.0000000000
13
-0.9157815762
23
0.2178223895
33
0.0000000000
40
0.0000000000
40
0.0000000000
40
0.0000000000
40
0.0000000000
40
0.3064594501
40
0.5780690046
40
0.8143935121
40
1.0000000000
40
1.0000000000
40
1.0000000000
40
1.0000000000
10
3.0638359496
20
25.2943036631
30
0.0000000000
10
2.9963316948
20
25.3625436658
30
0.0000000000
10
2.8624001830
20
25.4850045645
30
0.0000000000
10
2.6554875438
20
25.6351756589
30
0.0000000000
10
2.4639309761
20
25.7391841449
30
0.0000000000
10
2.3386631240
20
25.7834435164
30
0.0000000000
10
2.2820047900
20
25.7969199326
30
0.0000000000
11
3.0638359496
21
25.2943036631
31
0.0000000000
11
2.8506895671
21
25.4879278379
31
0.0000000000
11
2.6433083535
21
25.6366816880
31
0.0000000000
11
2.4471838493
21
25.7408244330
31
0.0000000000
11
2.2820047900
21
25.7969199326
31
0.0000000000
0
SPLINE
5
38C
100
AcDbEntity
8
0
100
AcDbSpline
62
7
6
CONTINUOUS
70
0
71
3
72
9
73
5
74
3
42
0.0000001000
43
0.0000001000
44
0.0000000001
12
0.0488405962
22
0.0699385795
32
0.0000000000
13
-0.0092299067
23
0.0807000542
33
0.0000000000
40
0.0000000000
40
0.0000000000
40
0.0000000000
40
0.0000000000
40
0.6795615089
40
1.0000000000
40
1.0000000000
40
1.0000000000
40
1.0000000000
10
3.8490654778
20
-15.5614048204
30
0.0000000000
10
3.8601288743
20
-15.5455622981
30
0.0000000000
10
3.8736449375
20
-15.5230028239
30
0.0000000000
10
3.8866530670
20
-15.4927015677
30
0.0000000000
10
3.8856671945
20
-15.4840817665
30
0.0000000000
11
3.8490654778
21
-15.5614048204
31
0.0000000000
11
3.8782643012
21
-15.5113260128
31
0.0000000000
11
3.8856671945
21
-15.4840817665
31
0.0000000000
0
SPLINE
5
38D
100
AcDbEntity
8
0
100
AcDbSpline
62
7
6
CONTINUOUS
70
0
71
3
72
13
73
9
74
7
42
0.0000001000
43
0.0000001000
44
0.0000000001
12
1.1770860493
22
0.5339885664
32
0.0000000000
13
0.9750159004
23
0.8485395397
33
0.0000000000
40
0.0000000000
40
0.0000000000
40
0.0000000000
40
0.0000000000
40
0.1094691432
40
0.2476351721
40
0.4110082105
40
0.5940543938
40
0.7917503481
40
1.0000000000
40
1.0000000000
40
1.0000000000
40
1.0000000000
10
2.7947482606
20
-16.3033945175
30
0.0000000000
10
2.8376997943
20
-16.2839094272
30
0.0000000000
10
2.9324528419
20
-16.2345593911
30
0.0000000000
10
3.0841707254
20
-16.1431196918
30
0.0000000000
10
3.2577361500
20
-16.0269523203
30
0.0000000000
10
3.4473814177
20
-15.8890536917
30
0.0000000000
10
3.6473301035
20
-15.7327154119
30
0.0000000000
10
3.7813832372
20
-15.6203075083
30
0.0000000000
10
3.8490654778
20
-15.5614048204
30
0.0000000000
11
2.7947482606
21
-16.3033945175
31
0.0000000000
11
2.9208194244
21
-16.2391559885
31
0.0000000000
11
3.0741718832
21
-16.1476356743
31
0.0000000000
11
3.2499474574
21
-16.0306120644
31
0.0000000000
11
3.4414778766
21
-15.8917107012
31
0.0000000000
11
3.6428566273
21
-15.7344123953
31
0.0000000000
11
3.8490654778
21
-15.5614048204
31
0.0000000000
0
SPLINE
5
38E
100
AcDbEntity
8
0
100
AcDbSpline
62
7
6
CONTINUOUS
70
0
71
3
72
10
73
6
74
4
42
0.0000001000
43
0.0000001000
44
0.0000000001
12
0.1736125652
22
0.0673868577
32
0.0000000000
13
0.1875638275
23
-0.0588587347
33
0.0000000000
40
0.0000000000
40
0.0000000000
40
0.0000000000
40
0.0000000000
40
0.5749661863
40
0.9756543588
40
1.0000000000
40
1.0000000000
40
1.0000000000
40
1.0000000000
10
-9.2452929071
20
28.4637617467
30
0.0000000000
10
-9.2120191222
20
28.4766768015
30
0.0000000000
10
-9.1544175612
20
28.4943847624
30
0.0000000000
10
-9.0921772501
20
28.5066421089
30
0.0000000000
10
-9.0654908645
20
28.4990308375
30
0.0000000000
10
-9.0639687440
20
28.4985531863
30
0.0000000000
11
-9.2452929071
21
28.4637617467
31
0.0000000000
11
-9.1430436281
21
28.4955512974
31
0.0000000000
11
-9.0685472581
21
28.4998607093
31
0.0000000000
11
-9.0639687440
21
28.4985531863
31
0.0000000000
0
SPLINE
5
38F
100
AcDbEntity
8
0
100
AcDbSpline
62
9
6
CONTINUOUS
70
0
71
3
72
10
73
6
74
4
42
0.0000001000
43
0.0000001000
44
0.0000000001
12
-0.0240924440
22
-0.2332940622
32
0.0000000000
13
0.2245260629
23
-0.0532721456
33
0.0000000000
40
0.0000000000
40
0.0000000000
40
0.0000000000
40
0.0000000000
40
0.0784305022
40
0.4268005398
40
1.0000000000
40
1.0000000000
40
1.0000000000
40
1.0000000000
10
-23.8740125978
20
22.6201324086
30
0.0000000000
10
-23.8746424586
20
22.6140332851
30
0.0000000000
10
-23.8731452990
20
22.5814595850
30
0.0000000000
10
-23.7936426104
20
22.5352913305
30
0.0000000000
10
-23.7309978409
20
22.5156959020
30
0.0000000000
10
-23.6880984349
20
22.5055173803
30
0.0000000000
11
-23.8740125978
21
22.6201324086
31
0.0000000000
11
-23.8729969213
21
22.6024961266
31
0.0000000000
11
-23.8130350830
21
22.5489510770
31
0.0000000000
11
-23.6880984349
21
22.5055173803
31
0.0000000000
0
SPLINE
5
390
100
AcDbEntity
8
0
100
AcDbSpline
62
9
6
CONTINUOUS
70
0
71
3
72
14
73
10
74
8
42
0.0000001000
43
0.0000001000
44
0.0000000001
12
-1.2131274431
22
-0.5889510557
32
0.0000000000
13
-0.0113685273
23
-1.3484851856
33
0.0000000000
40
0.0000000000
40
0.0000000000
40
0.0000000000
40
0.0000000000
40
0.1159644533
40
0.2452740670
40
0.3863907324
40
0.5364141656
40
0.6916875536
40
0.8478615452
40
1.0000000000
40
1.0000000000
40
1.0000000000
40
1.0000000000
10
-6.0033060163
20
19.7667245668
30
0.0000000000
10
-6.0501992366
20
19.7439587710
30
0.0000000000
10
-6.1430613224
20
19.6823757134
30
0.0000000000
10
-6.2658306910
20
19.5582603190
30
0.0000000000
10
-6.3748557360
20
19.4029197217
30
0.0000000000
10
-6.4653980457
20
19.2231386921
30
0.0000000000
10
-6.5336719338
20
19.0266417908
30
0.0000000000
10
-6.5767264560
20
18.8222110136
30
0.0000000000
10
-6.5876720253
20
18.6835638887
30
0.0000000000
10
-6.5882485554
20
18.6151784046
30
0.0000000000
11
-6.0033060163
21
19.7667245668
31
0.0000000000
11
-6.1346713336
21
19.6818808665
31
0.0000000000
11
-6.2584664807
21
19.5590698274
31
0.0000000000
11
-6.3686826562
21
19.4039354563
31
0.0000000000
11
-6.4602878915
21
19.2235512808
31
0.0000000000
11
-6.5292751659
21
19.0258508146
31
0.0000000000
11
-6.5725626591
21
18.8197416322
31
0.0000000000
11
-6.5882485554
21
18.6151784046
31
0.0000000000
0
SPLINE
5
391
100
AcDbEntity
8
0
100
AcDbSpline
62
9
6
CONTINUOUS
70
0
71
3
72
9
73
5
74
3
42
0.0000001000
43
0.0000001000
44
0.0000000001
12
0.1866568303
22
0.0961559895
32
0.0000000000
13
0.2033504863
23
-0.0463763125
33
0.0000000000
40
0.0000000000
40
0.0000000000
40
0.0000000000
40
0.0000000000
40
0.4182538080
40
1.0000000000
40
1.0000000000
40
1.0000000000
40
1.0000000000
10
-23.0474879527
20
24.2185443115
30
0.0000000000
10
-23.0214646427
20
24.2319501811
30
0.0000000000
10
-22.9538617554
20
24.2538464742
30
0.0000000000
10
-22.8824552011
20
24.2495232530
30
0.0000000000
10
-22.8430224108
20
24.2405301719
30
0.0000000000
11
-23.0474879527
21
24.2185443115
31
0.0000000000
11
-22.9642489134
21
24.2456798536
31
0.0000000000
11
-22.8430224108
21
24.2405301719
31
0.0000000000
0
SPLINE
5
392
100
AcDbEntity
8
0
100
AcDbSpline
62
9
6
CONTINUOUS
70
0
71
3
72
13
73
9
74
7
42
0.0000001000
43
0.0000001000
44
0.0000000001
12
-1.2092377252
22
0.2863280380
32
0.0000000000
13
-0.0574052029
23
1.2351153486
33
0.0000000000
40
0.0000000000
40
0.0000000000
40
0.0000000000
40
0.0000000000
40
0.0454150243
40
0.1993005229
40
0.3678453644
40
0.5573015807
40
0.7688028018
40
1.0000000000
40
1.0000000000
40
1.0000000000
40
1.0000000000
10
-22.3634009043
20
-17.4443994442
30
0.0000000000
10
-22.3817067579
20
-17.4400649126
30
0.0000000000
10
-22.4609698866
20
-17.4166947992
30
0.0000000000
10
-22.5944797053
20
-17.3384989852
30
0.0000000000
10
-22.7358069348
20
-17.1780989142
30
0.0000000000
10
-22.8433770238
20
-16.9673375677
30
0.0000000000
10
-22.9144513601
20
-16.7153121319
30
0.0000000000
10
-22.9352080155
20
-16.5332453064
30
0.0000000000
10
-22.9396319895
20
-16.4380602371
30
0.0000000000
11
-22.3634009043
21
-17.4443994442
31
0.0000000000
11
-22.4174707858
21
-17.4284276990
31
0.0000000000
11
-22.5827796895
21
-17.3342140219
31
0.0000000000
11
-22.7231136608
21
-17.1801500611
31
0.0000000000
11
-22.8323690483
21
-16.9729359832
31
0.0000000000
11
-22.9056138432
21
-16.7218923820
31
0.0000000000
11
-22.9396319895
21
-16.4380602371
31
0.0000000000
0
SPLINE
5
393
100
AcDbEntity
8
0
100
AcDbSpline
62
7
6
CONTINUOUS
70
0
71
3
72
11
73
7
74
5
42
0.0000001000
43
0.0000001000
44
0.0000000001
12
0.0053166875
22
-0.2767733525
32
0.0000000000
13
-0.2490582592
23
-0.1208376569
33
0.0000000000
40
0.0000000000
40
0.0000000000
40
0.0000000000
40
0.0000000000
40
0.2670982906
40
0.5378914805
40
0.7879745117
40
1.0000000000
40
1.0000000000
40
1.0000000000
40
1.0000000000
10
-2.4933742250
20
22.4019743390
30
0.0000000000
10
-2.4929008656
20
22.3773324426
30
0.0000000000
10
-2.4983712541
20
22.3274571462
30
0.0000000000
10
-2.5222637102
20
22.2581373898
30
0.0000000000
10
-2.5589794659
20
22.2005750582
30
0.0000000000
10
-2.5926468969
20
22.1724125470
30
0.0000000000
10
-2.6102491300
20
22.1638723259
30
0.0000000000
11
-2.4933742250
21
22.4019743390
31
0.0000000000
11
-2.5010063788
21
22.3284299688
31
0.0000000000
11
-2.5256756044
21
22.2576432778
31
0.0000000000
11
-2.5639662970
21
22.1999675503
31
0.0000000000
11
-2.6102491300
21
22.1638723259
31
0.0000000000
0
SPLINE
5
394
100
AcDbEntity
8
0
100
AcDbSpline
62
9
6
CONTINUOUS
70
0
71
3
72
10
73
6
74
4
42
0.0000001000
43
0.0000001000
44
0.0000000001
12
0.0052891765
22
-0.2751973117
32
0.0000000000
13
-0.2460840103
23
-0.1233052943
33
0.0000000000
40
0.0000000000
40
0.0000000000
40
0.0000000000
40
0.0000000000
40
0.3609621650
40
0.7108026350
40
1.0000000000
40
1.0000000000
40
1.0000000000
40
1.0000000000
10
-2.5093265105
20
22.4060533885
30
0.0000000000
10
-2.5086901130
20
22.3729414494
30
0.0000000000
10
-2.5185259068
20
22.3071972911
30
0.0000000000
10
-2.5568746838
20
22.2228884916
30
0.0000000000
10
-2.5999623624
20
22.1791818165
30
0.0000000000
10
-2.6236846449
20
22.1672952944
30
0.0000000000
11
-2.5093265105
21
22.4060533885
31
0.0000000000
11
-2.5231728280
21
22.3076687905
31
0.0000000000
11
-2.5647691087
21
22.2208236460
31
0.0000000000
11
-2.6236846449
21
22.1672952944
31
0.0000000000
0
SPLINE
5
395
100
AcDbEntity
8
0
100
AcDbSpline
62
7
6
CONTINUOUS
70
0
71
3
72
11
73
7
74
5
42
0.0000001000
43
0.0000001000
44
0.0000000001
12
0.0053208016
22
-0.2768427741
32
0.0000000000
13
-0.2491207457
23
-0.1208680544
33
0.0000000000
40
0.0000000000
40
0.0000000000
40
0.0000000000
40
0.0000000000
40
0.2670033508
40
0.5377935328
40
0.7879171529
40
1.0000000000
40
1.0000000000
40
1.0000000000
40
1.0000000000
10
-17.2801796480
20
25.9236566983
30
0.0000000000
10
-17.2797060908
20
25.8990173821
30
0.0000000000
10
-17.2851819441
20
25.8491386228
30
0.0000000000
10
-17.3090909749
20
25.7798104410
30
0.0000000000
10
-17.3458310246
20
25.7222333498
30
0.0000000000
10
-17.3795146919
20
25.6940596802
30
0.0000000000
10
-17.3971261042
20
25.6855149998
30
0.0000000000
11
-17.2801796480
21
25.9236566983
31
0.0000000000
11
-17.2878161637
21
25.8501205505
31
0.0000000000
11
-17.3125022450
21
25.7793206899
31
0.0000000000
11
-17.3508174336
21
25.7216268772
31
0.0000000000
11
-17.3971261042
21
25.6855149998
31
0.0000000000
0
SPLINE
5
396
100
AcDbEntity
8
0
100
AcDbSpline
62
9
6
CONTINUOUS
70
0
71
3
72
8
73
4
74
2
42
0.0000001000
43
0.0000001000
44
0.0000000001
12
0.0006250280
22
-0.0325203780
32
0.0000000000
13
-0.0028763815
23
-0.0325100807
33
0.0000000000
40
0.0000000000
40
0.0000000000
40
0.0000000000
40
0.0000000000
40
1.0000000000
40
1.0000000000
40
1.0000000000
40
1.0000000000
10
-19.1009526845
20
26.3572645068
30
0.0000000000
10
-19.1007443419
20
26.3464243808
30
0.0000000000
10
-19.1011395359
20
26.3355548371
30
0.0000000000
10
-19.1020983298
20
26.3247181436
30
0.0000000000
11
-19.1009526845
21
26.3572645068
31
0.0000000000
11
-19.1020983298
21
26.3247181436
31
0.0000000000
0
SPLINE
5
397
100
AcDbEntity
8
0
100
AcDbSpline
62
9
6
CONTINUOUS
70
0
71
3
72
8
73
4
74
2
42
0.0000001000
43
0.0000001000
44
0.0000000001
12
-0.0059097319
22
-0.0667942893
32
0.0000000000
13
-0.0191452475
23
-0.0643421516
33
0.0000000000
40
0.0000000000
40
0.0000000000
40
0.0000000000
40
0.0000000000
40
1.0000000000
40
1.0000000000
40
1.0000000000
40
1.0000000000
10
-19.1020983298
20
26.3247181436
30
0.0000000000
10
-19.1040682404
20
26.3024533805
30
0.0000000000
10
-19.1084172548
20
26.2803272863
30
0.0000000000
10
-19.1147990040
20
26.2588799024
30
0.0000000000
11
-19.1020983298
21
26.3247181436
31
0.0000000000
11
-19.1147990040
21
26.2588799024
31
0.0000000000
0
SPLINE
5
398
100
AcDbEntity
8
0
100
AcDbSpline
62
9
6
CONTINUOUS
70
0
71
3
72
8
73
4
74
2
42
0.0000001000
43
0.0000001000
44
0.0000000001
12
-0.0095299479
22
-0.0320276536
32
0.0000000000
13
-0.0127186960
23
-0.0308159659
33
0.0000000000
40
0.0000000000
40
0.0000000000
40
0.0000000000
40
0.0000000000
40
1.0000000000
40
1.0000000000
40
1.0000000000
40
1.0000000000
10
-19.1147990040
20
26.2588799024
30
0.0000000000
10
-19.1179756533
20
26.2482040179
30
0.0000000000
10
-19.1216559653
20
26.2376963014
30
0.0000000000
10
-19.1258955307
20
26.2274243128
30
0.0000000000
11
-19.1147990040
21
26.2588799024
31
0.0000000000
11
-19.1258955307
21
26.2274243128
31
0.0000000000
0
SPLINE
5
399
100
AcDbEntity
8
0
100
AcDbSpline
62
9
6
CONTINUOUS
70
0
71
3
72
9
73
5
74
3
42
0.0000001000
43
0.0000001000
44
0.0000000001
12
-0.0545335690
22
-0.1321286872
32
0.0000000000
13
-0.1275166684
23
-0.0638947662
33
0.0000000000
40
0.0000000000
40
0.0000000000
40
0.0000000000
40
0.0000000000
40
0.4419016460
40
1.0000000000
40
1.0000000000
40
1.0000000000
40
1.0000000000
10
-19.1258955307
20
26.2274243128
30
0.0000000000
10
-19.1339283553
20
26.2079616847
30
0.0000000000
10
-19.1566495684
20
26.1658338347
30
0.0000000000
10
-19.1915885380
20
26.1303929340
30
0.0000000000
10
-19.2153108189
20
26.1185064127
30
0.0000000000
11
-19.1258955307
21
26.2274243128
31
0.0000000000
11
-19.1563952859
21
26.1720347600
31
0.0000000000
11
-19.2153108189
21
26.1185064127
31
0.0000000000
0
SPLINE
5
39A
100
AcDbEntity
8
0
100
AcDbSpline
62
9
6
CONTINUOUS
70
0
71
3
72
9
73
5
74
3
42
0.0000001000
43
0.0000001000
44
0.0000000001
12
-0.0024051753
22
0.1251419335
32
0.0000000000
13
-0.0857204560
23
0.0940280024
33
0.0000000000
40
0.0000000000
40
0.0000000000
40
0.0000000000
40
0.0000000000
40
0.6951283459
40
1.0000000000
40
1.0000000000
40
1.0000000000
40
1.0000000000
10
-1.6899137726
20
-20.2282168985
30
0.0000000000
10
-1.6904710745
20
-20.1992203301
30
0.0000000000
10
-1.6968493650
20
-20.1573136510
30
0.0000000000
10
-1.7196824139
20
-20.1195553958
30
0.0000000000
10
-1.7283936596
20
-20.1099999050
30
0.0000000000
11
-1.6899137726
21
-20.2282168985
31
0.0000000000
11
-1.7072895311
21
-20.1429638217
31
0.0000000000
11
-1.7283936596
21
-20.1099999050
31
0.0000000000
0
SPLINE
5
39B
100
AcDbEntity
8
0
100
AcDbSpline
62
9
6
CONTINUOUS
70
0
71
3
72
9
73
5
74
3
42
0.0000001000
43
0.0000001000
44
0.0000000001
12
0.0825664072
22
0.0318261885
32
0.0000000000
13
0.0850085571
23
-0.0210012058
33
0.0000000000
40
0.0000000000
40
0.0000000000
40
0.0000000000
40
0.0000000000
40
0.1589489473
40
1.0000000000
40
1.0000000000
40
1.0000000000
40
1.0000000000
10
-2.8642384596
20
25.2524247768
30
0.0000000000
10
-2.8598638451
20
25.2541110232
30
0.0000000000
10
-2.8317983862
20
25.2632653166
30
0.0000000000
10
-2.8010606336
20
25.2625284028
30
0.0000000000
10
-2.7772284548
20
25.2566407073
30
0.0000000000
11
-2.8642384596
21
25.2524247768
31
0.0000000000
11
-2.8508743799
21
25.2567712547
31
0.0000000000
11
-2.7772284548
21
25.2566407073
31
0.0000000000
0
SPLINE
5
39C
100
AcDbEntity
8
0
100
AcDbSpline
62
7
6
CONTINUOUS
70
0
71
3
72
11
73
7
74
5
42
0.0000001000
43
0.0000001000
44
0.0000000001
12
0.2869740492
22
-0.0683414056
32
0.0000000000
13
0.0056687177
23
-0.2949449411
33
0.0000000000
40
0.0000000000
40
0.0000000000
40
0.0000000000
40
0.0000000000
40
0.2258744558
40
0.4768226579
40
0.7407831795
40
1.0000000000
40
1.0000000000
40
1.0000000000
40
1.0000000000
10
-6.6087956612
20
25.2123273863
30
0.0000000000
10
-6.5871889588
20
25.2071818603
30
0.0000000000
10
-6.5440086250
20
25.1853975920
30
0.0000000000
10
-6.4933124480
20
25.1315721034
30
0.0000000000
10
-6.4586704067
20
25.0626920898
30
0.0000000000
10
-6.4491957566
20
25.0111917724
30
0.0000000000
10
-6.4487059476
20
24.9857068758
30
0.0000000000
11
-6.6087956612
21
25.2123273863
31
0.0000000000
11
-6.5486463441
21
25.1836569506
31
0.0000000000
11
-6.4970998344
21
25.1305218882
31
0.0000000000
11
-6.4620059703
21
25.0610101839
31
0.0000000000
11
-6.4487059476
21
24.9857068758
31
0.0000000000
0
SPLINE
5
39D
100
AcDbEntity
8
0
100
AcDbSpline
62
9
6
CONTINUOUS
70
0
71
3
72
11
73
7
74
5
42
0.0000001000
43
0.0000001000
44
0.0000000001
12
0.2882083160
22
-0.0661396257
32
0.0000000000
13
0.0023538192
23
-0.2956906204
33
0.0000000000
40
0.0000000000
40
0.0000000000
40
0.0000000000
40
0.0000000000
40
0.2269661018
40
0.4776291359
40
0.7408860161
40
1.0000000000
40
1.0000000000
40
1.0000000000
40
1.0000000000
10
-2.0344133334
20
27.0786731368
30
0.0000000000
10
-2.0126088274
20
27.0736693191
30
0.0000000000
10
-1.9690382481
20
27.0521839982
30
0.0000000000
10
-1.9179955706
20
26.9983542372
30
0.0000000000
10
-1.8835267939
20
26.9292533242
30
0.0000000000
10
-1.8745269223
20
26.8775918179
30
0.0000000000
10
-1.8743236199
20
26.8520526264
30
0.0000000000
11
-2.0344133334
21
27.0786731368
31
0.0000000000
11
-1.9736081356
21
27.0502653919
31
0.0000000000
11
-1.9218347643
21
26.9972234365
31
0.0000000000
11
-1.8869719915
21
26.9276214257
31
0.0000000000
11
-1.8743236199
21
26.8520526264
31
0.0000000000
0
SPLINE
5
39E
100
AcDbEntity
8
0
100
AcDbSpline
62
9
6
CONTINUOUS
70
0
71
3
72
11
73
7
74
5
42
0.0000001000
43
0.0000001000
44
0.0000000001
12
0.2856320854
22
-0.0707774287
32
0.0000000000
13
0.0091447926
23
-0.2941283825
33
0.0000000000
40
0.0000000000
40
0.0000000000
40
0.0000000000
40
0.0000000000
40
0.2247951513
40
0.4760440483
40
0.7407020003
40
1.0000000000
40
1.0000000000
40
1.0000000000
40
1.0000000000
10
-6.9322875904
20
25.0723712365
30
0.0000000000
10
-6.9108846878
20
25.0670677622
30
0.0000000000
10
-6.8681165183
20
25.0449601849
30
0.0000000000
10
-6.8177805946
20
24.9911374231
30
0.0000000000
10
-6.7829585231
20
24.9224939088
30
0.0000000000
10
-6.7729882856
20
24.8711730264
30
0.0000000000
10
-6.7721978768
20
24.8457507260
30
0.0000000000
11
-6.9322875904
21
25.0723712365
31
0.0000000000
11
-6.8728161376
21
25.0434049454
31
0.0000000000
11
-6.8215106528
21
24.9901681885
31
0.0000000000
11
-6.7861789412
21
24.9207626769
31
0.0000000000
11
-6.7721978768
21
24.8457507260
31
0.0000000000
0
SPLINE
5
39F
100
AcDbEntity
8
0
100
AcDbSpline
62
9
6
CONTINUOUS
70
0
71
3
72
10
73
6
74
4
42
0.0000001000
43
0.0000001000
44
0.0000000001
12
-0.0077301011
22
-0.1182491862
32
0.0000000000
13
0.1142380697
23
-0.0272052134
33
0.0000000000
40
0.0000000000
40
0.0000000000
40
0.0000000000
40
0.0000000000
40
0.0773976764
40
0.4326165527
40
1.0000000000
40
1.0000000000
40
1.0000000000
40
1.0000000000
10
-4.8710028155
20
24.1987227382
30
0.0000000000
10
-4.8712022461
20
24.1956720008
30
0.0000000000
10
-4.8700117716
20
24.1789533252
30
0.0000000000
10
-4.8319328094
20
24.1533295087
30
0.0000000000
10
-4.7993192266
20
24.1433078527
30
0.0000000000
10
-4.7777136300
20
24.1381625901
30
0.0000000000
11
-4.8710028155
21
24.1987227382
31
0.0000000000
11
-4.8702871083
21
24.1898701694
31
0.0000000000
11
-4.8403851055
21
24.1607848347
31
0.0000000000
11
-4.7777136300
21
24.1381625901
31
0.0000000000
0
SPLINE
5
3A0
100
AcDbEntity
8
0
100
AcDbSpline
62
9
6
CONTINUOUS
70
0
71
3
72
9
73
5
74
3
42
0.0000001000
43
0.0000001000
44
0.0000000001
12
0.0906656065
22
0.0423571965
32
0.0000000000
13
0.0964218309
23
-0.0220576136
33
0.0000000000
40
0.0000000000
40
0.0000000000
40
0.0000000000
40
0.0000000000
40
0.2385945060
40
1.0000000000
40
1.0000000000
40
1.0000000000
40
1.0000000000
10
-4.7270270115
20
24.4304204151
30
0.0000000000
10
-4.7198162396
20
24.4337891466
30
0.0000000000
10
-4.6884233167
20
24.4453422625
30
0.0000000000
10
-4.6538143755
20
24.4447802812
30
0.0000000000
10
-4.6293423382
20
24.4391820185
30
0.0000000000
11
-4.7270270115
21
24.4304204151
31
0.0000000000
11
-4.7046528024
21
24.4386124863
31
0.0000000000
11
-4.6293423382
21
24.4391820185
31
0.0000000000
0
SPLINE
5
3A1
100
AcDbEntity
8
0
100
AcDbSpline
62
9
6
CONTINUOUS
70
0
71
3
72
11
73
7
74
5
42
0.0000001000
43
0.0000001000
44
0.0000000001
12
-0.2561810801
22
-0.1146061579
32
0.0000000000
13
0.0053929465
23
-0.2805962105
33
0.0000000000
40
0.0000000000
40
0.0000000000
40
0.0000000000
40
0.0000000000
40
0.2081269705
40
0.4567322186
40
0.7291165226
40
1.0000000000
40
1.0000000000
40
1.0000000000
40
1.0000000000
10
-7.3503740689
20
25.0462064682
30
0.0000000000
10
-7.3681467996
20
25.0382555907
30
0.0000000000
10
-7.4023562964
20
25.0103787285
30
0.0000000000
10
-7.4395231541
20
24.9524094333
30
0.0000000000
10
-7.4639242496
20
24.8817969079
30
0.0000000000
10
-7.4695580557
20
24.8307272179
30
0.0000000000
10
-7.4690711023
20
24.8053909255
30
0.0000000000
11
-7.3503740689
21
25.0462064682
31
0.0000000000
11
-7.3970553514
21
25.0110975585
31
0.0000000000
11
-7.4359193536
21
24.9531534282
31
0.0000000000
11
-7.4611784672
21
24.8810030267
31
0.0000000000
11
-7.4690711023
21
24.8053909255
31
0.0000000000
0
SPLINE
5
3A2
100
AcDbEntity
8
0
100
AcDbSpline
62
9
6
CONTINUOUS
70
0
71
3
72
11
73
7
74
5
42
0.0000001000
43
0.0000001000
44
0.0000000001
12
-0.2561810769
22
-0.1146061616
32
0.0000000000
13
0.0053929407
23
-0.2805962092
33
0.0000000000
40
0.0000000000
40
0.0000000000
40
0.0000000000
40
0.0000000000
40
0.2081271694
40
0.4567325043
40
0.7291167248
40
1.0000000000
40
1.0000000000
40
1.0000000000
40
1.0000000000
10
-13.4390874614
20
26.4962024963
30
0.0000000000
10
-13.4568602088
20
26.4882516110
30
0.0000000000
10
-13.4910697216
20
26.4603747217
30
0.0000000000
10
-13.5282365730
20
26.4024054012
30
0.0000000000
10
-13.5526376483
20
26.3317928895
30
0.0000000000
10
-13.5582714473
20
26.2807232270
30
0.0000000000
10
-13.5577844948
20
26.2553869536
30
0.0000000000
11
-13.4390874614
21
26.4962024963
31
0.0000000000
11
-13.4857687815
21
26.4610935442
31
0.0000000000
11
-13.5246327807
21
26.4031493829
31
0.0000000000
11
-13.5498918712
21
26.3309989986
31
0.0000000000
11
-13.5577844948
21
26.2553869536
31
0.0000000000
0
SPLINE
5
3A3
100
AcDbEntity
8
0
100
AcDbSpline
62
9
6
CONTINUOUS
70
0
71
3
72
9
73
5
74
3
42
0.0000001000
43
0.0000001000
44
0.0000000001
12
-0.0767939302
22
0.0175675045
32
0.0000000000
13
-0.0723135778
23
-0.0335057013
33
0.0000000000
40
0.0000000000
40
0.0000000000
40
0.0000000000
40
0.0000000000
40
0.7648108817
40
1.0000000000
40
1.0000000000
40
1.0000000000
40
1.0000000000
10
-13.4903517103
20
26.6341407456
30
0.0000000000
10
-13.5099293215
20
26.6386193518
30
0.0000000000
10
-13.5374931657
20
26.6390669407
30
0.0000000000
10
-13.5625070664
20
26.6299085876
30
0.0000000000
10
-13.5681761886
20
26.6272818622
30
0.0000000000
11
-13.4903517103
21
26.6341407456
31
0.0000000000
11
-13.5506000245
21
26.6336851353
31
0.0000000000
11
-13.5681761886
21
26.6272818622
31
0.0000000000
0
SPLINE
5
3A4
100
AcDbEntity
8
0
100
AcDbSpline
62
7
6
CONTINUOUS
70
0
71
3
72
9
73
5
74
3
42
0.0000001000
43
0.0000001000
44
0.0000000001
12
-0.0688931992
22
0.0164065639
32
0.0000000000
13
-0.0667917129
23
-0.0257536710
33
0.0000000000
40
0.0000000000
40
0.0000000000
40
0.0000000000
40
0.0000000000
40
0.8415090145
40
1.0000000000
40
1.0000000000
40
1.0000000000
40
1.0000000000
10
-13.1807544425
20
26.7774058381
30
0.0000000000
10
-13.2000791919
20
26.7820079285
30
0.0000000000
10
-13.2248985847
20
26.7825174244
30
0.0000000000
10
-13.2475984613
20
26.7750998699
30
0.0000000000
10
-13.2511270895
20
26.7737392950
30
0.0000000000
11
-13.1807544425
21
26.7774058381
31
0.0000000000
11
-13.2403497687
21
26.7772519782
31
0.0000000000
11
-13.2511270895
21
26.7737392950
31
0.0000000000
0
SPLINE
5
3A5
100
AcDbEntity
8
0
100
AcDbSpline
62
9
6
CONTINUOUS
70
0
71
3
72
9
73
5
74
3
42
0.0000001000
43
0.0000001000
44
0.0000000001
12
-0.0679873541
22
0.0167961506
32
0.0000000000
13
-0.0660388945
23
-0.0254410685
33
0.0000000000
40
0.0000000000
40
0.0000000000
40
0.0000000000
40
0.0000000000
40
0.8412921629
40
1.0000000000
40
1.0000000000
40
1.0000000000
40
1.0000000000
10
-8.4012888946
20
28.5949120661
30
0.0000000000
10
-8.4203546373
20
28.5996222228
30
0.0000000000
10
-8.4449377918
20
28.6002115848
30
0.0000000000
10
-8.4673843364
20
28.5928925162
30
0.0000000000
10
-8.4708779665
20
28.5915466172
30
0.0000000000
11
-8.4012888946
21
28.5949120661
31
0.0000000000
11
-8.4602056340
21
28.5950165044
31
0.0000000000
11
-8.4708779665
21
28.5915466172
31
0.0000000000
0
SPLINE
5
3A6
100
AcDbEntity
8
0
100
AcDbSpline
62
7
6
CONTINUOUS
70
0
71
3
72
10
73
6
74
4
42
0.0000001000
43
0.0000001000
44
0.0000000001
12
-0.2349184717
22
0.0559446354
32
0.0000000000
13
-0.0130670439
23
0.2391482381
33
0.0000000000
40
0.0000000000
40
0.0000000000
40
0.0000000000
40
0.0000000000
40
0.4561660264
40
0.7915759495
40
1.0000000000
40
1.0000000000
40
1.0000000000
40
1.0000000000
10
-13.5352452155
20
25.0826620496
30
0.0000000000
10
-13.5709658241
20
25.0911687303
30
0.0000000000
10
-13.6315135615
20
25.1109476144
30
0.0000000000
10
-13.7030995200
20
25.1526349610
30
0.0000000000
10
-13.7229258780
20
25.1966711494
30
0.0000000000
10
-13.7238337068
20
25.2132858976
30
0.0000000000
11
-13.5352452155
21
25.0826620496
31
0.0000000000
11
-13.6394610174
21
25.1183551314
31
0.0000000000
11
-13.7049229242
21
25.1660555848
31
0.0000000000
11
-13.7238337068
21
25.2132858976
31
0.0000000000
0
SPLINE
5
3A7
100
AcDbEntity
8
0
100
AcDbSpline
62
7
6
CONTINUOUS
70
0
71
3
72
12
73
8
74
6
42
0.0000001000
43
0.0000001000
44
0.0000000001
12
-0.6381772392
22
-0.3096299391
32
0.0000000000
13
-0.6900273143
23
0.1643264842
33
0.0000000000
40
0.0000000000
40
0.0000000000
40
0.0000000000
40
0.0000000000
40
0.1726809103
40
0.3776876236
40
0.5947562592
40
0.8091370838
40
1.0000000000
40
1.0000000000
40
1.0000000000
40
1.0000000000
10
-6.7500335464
20
23.6925345122
30
0.0000000000
10
-6.7867672219
20
23.6747121190
30
0.0000000000
10
-6.8716347350
20
23.6451548438
30
0.0000000000
10
-7.0097820559
20
23.6175004145
30
0.0000000000
10
-7.1600651774
20
23.6047926810
30
0.0000000000
10
-7.3074203269
20
23.6083326892
30
0.0000000000
10
-7.4026316146
20
23.6222114108
30
0.0000000000
10
-7.4465318231
20
23.6326660215
30
0.0000000000
11
-6.7500335464
21
23.6925345122
31
0.0000000000
11
-6.8649688945
21
23.6501922010
31
0.0000000000
11
-7.0073636602
21
23.6207030267
31
0.0000000000
11
-7.1607720915
21
23.6075407948
31
0.0000000000
11
-7.3127805694
21
23.6117054189
31
0.0000000000
11
-7.4465318231
21
23.6326660215
31
0.0000000000
0
SPLINE
5
3A8
100
AcDbEntity
8
0
100
AcDbSpline
62
9
6
CONTINUOUS
70
0
71
3
72
13
73
9
74
7
42
0.0000001000
43
0.0000001000
44
0.0000000001
12
0.6875855121
22
-0.1637588262
32
0.0000000000
13
0.6511789998
23
0.2748757900
33
0.0000000000
40
0.0000000000
40
0.0000000000
40
0.0000000000
40
0.0000000000
40
0.1396926499
40
0.3145122508
40
0.5087034506
40
0.7006984662
40
0.8685569346
40
1.0000000000
40
1.0000000000
40
1.0000000000
40
1.0000000000
10
-7.4690711023
20
24.8053909255
30
0.0000000000
10
-7.4370542216
20
24.7977656240
30
0.0000000000
10
-7.3639143562
20
24.7849642820
30
0.0000000000
10
-7.2442831255
20
24.7754646514
30
0.0000000000
10
-7.1119376649
20
24.7766773130
30
0.0000000000
10
-6.9818319681
20
24.7894901059
30
0.0000000000
10
-6.8681088051
20
24.8120210071
30
0.0000000000
10
-6.8007288647
20
24.8337072206
30
0.0000000000
10
-6.7721978768
20
24.8457507260
30
0.0000000000
11
-7.4690711023
21
24.8053909255
31
0.0000000000
11
-7.3719206508
21
24.7877607625
31
0.0000000000
11
-7.2487775542
21
24.7775520440
31
0.0000000000
11
-7.1115248895
21
24.7787291808
31
0.0000000000
11
-6.9765075083
21
24.7923770911
31
0.0000000000
11
-6.8602774777
21
24.8161947863
31
0.0000000000
11
-6.7721978768
21
24.8457507260
31
0.0000000000
0
SPLINE
5
3A9
100
AcDbEntity
8
0
100
AcDbSpline
62
9
6
CONTINUOUS
70
0
71
3
72
9
73
5
74
3
42
0.0000001000
43
0.0000001000
44
0.0000000001
12
-0.0030736860
22
0.1599247303
32
0.0000000000
13
0.0592127111
23
0.1489103962
33
0.0000000000
40
0.0000000000
40
0.0000000000
40
0.0000000000
40
0.0000000000
40
0.5966349217
40
1.0000000000
40
1.0000000000
40
1.0000000000
40
1.0000000000
10
-4.7777136300
20
24.1381625901
30
0.0000000000
10
-4.7783249195
20
24.1699681497
30
0.0000000000
10
-4.7723851082
20
24.2235481809
30
0.0000000000
10
-4.7566723818
20
24.2748039554
30
0.0000000000
10
-4.7487109352
20
24.2948257066
30
0.0000000000
11
-4.7777136300
21
24.1381625901
31
0.0000000000
11
-4.7677582256
21
24.2330762120
31
0.0000000000
11
-4.7487109352
21
24.2948257066
31
0.0000000000
0
SPLINE
5
3AA
100
AcDbEntity
8
0
100
AcDbSpline
62
9
6
CONTINUOUS
70
0
71
3
72
10
73
6
74
4
42
0.0000001000
43
0.0000001000
44
0.0000000001
12
0.0623949165
22
0.1569131281
32
0.0000000000
13
0.1422311938
23
0.0915604012
33
0.0000000000
40
0.0000000000
40
0.0000000000
40
0.0000000000
40
0.0000000000
40
0.1868777931
40
0.7061206517
40
1.0000000000
40
1.0000000000
40
1.0000000000
40
1.0000000000
10
-4.7487109352
20
24.2948257066
30
0.0000000000
10
-4.7448241938
20
24.3046002329
30
0.0000000000
10
-4.7286760521
20
24.3409453384
30
0.0000000000
10
-4.6979052257
20
24.3886232514
30
0.0000000000
10
-4.6628744189
20
24.4195428841
30
0.0000000000
10
-4.6489414820
20
24.4285121211
30
0.0000000000
11
-4.7487109352
21
24.2948257066
31
0.0000000000
11
-4.7358860292
21
24.3236503779
31
0.0000000000
11
-4.6868885449
21
24.3961676925
31
0.0000000000
11
-4.6489414820
21
24.4285121211
31
0.0000000000
0
SPLINE
5
3AB
100
AcDbEntity
8
0
100
AcDbSpline
62
9
6
CONTINUOUS
70
0
71
3
72
8
73
4
74
2
42
0.0000001000
43
0.0000001000
44
0.0000000001
12
0.0188280777
22
0.0121204519
32
0.0000000000
13
0.0203669624
23
0.0091114434
33
0.0000000000
40
0.0000000000
40
0.0000000000
40
0.0000000000
40
0.0000000000
40
1.0000000000
40
1.0000000000
40
1.0000000000
40
1.0000000000
10
-4.6489414820
20
24.4285121211
30
0.0000000000
10
-4.6426654561
20
24.4325522717
30
0.0000000000
10
-4.6361313257
20
24.4361448707
30
0.0000000000
10
-4.6293423382
20
24.4391820185
30
0.0000000000
11
-4.6489414820
21
24.4285121211
31
0.0000000000
11
-4.6293423382
21
24.4391820185
31
0.0000000000
0
SPLINE
5
3AC
100
AcDbEntity
8
0
100
AcDbSpline
62
9
6
CONTINUOUS
70
0
71
3
72
11
73
7
74
5
42
0.0000001000
43
0.0000001000
44
0.0000000001
12
-0.0067413086
22
0.3507521435
32
0.0000000000
13
0.3202326293
23
0.1432605129
33
0.0000000000
40
0.0000000000
40
0.0000000000
40
0.0000000000
40
0.0000000000
40
0.2720344856
40
0.5457336933
40
0.7952047040
40
1.0000000000
40
1.0000000000
40
1.0000000000
40
1.0000000000
10
-3.3527229786
20
23.7988083371
30
0.0000000000
10
-3.3533342681
20
23.8306138968
30
0.0000000000
10
-3.3462247834
20
23.8947449595
30
0.0000000000
10
-3.3154642589
20
23.9833403122
30
0.0000000000
10
-3.2688412378
20
24.0555804371
30
0.0000000000
10
-3.2262123989
20
24.0900480725
30
0.0000000000
10
-3.2043516868
20
24.0998277656
30
0.0000000000
11
-3.3527229786
21
23.7988083371
31
0.0000000000
11
-3.3427675742
21
23.8937219590
31
0.0000000000
11
-3.3108953778
21
23.9842961250
31
0.0000000000
11
-3.2618978935
21
24.0568134396
31
0.0000000000
11
-3.2043516868
21
24.0998277656
31
0.0000000000
0
SPLINE
5
3AD
100
AcDbEntity
8
0
100
AcDbSpline
62
7
6
CONTINUOUS
70
0
71
3
72
11
73
7
74
5
42
0.0000001000
43
0.0000001000
44
0.0000000001
12
-0.0070858971
22
0.3686811764
32
0.0000000000
13
-0.3587175615
23
0.0854267570
33
0.0000000000
40
0.0000000000
40
0.0000000000
40
0.0000000000
40
0.0000000000
40
0.2592168205
40
0.5231773421
40
0.7741255442
40
1.0000000000
40
1.0000000000
40
1.0000000000
40
1.0000000000
10
-1.5707213493
20
24.4367521053
30
0.0000000000
10
-1.5713336106
20
24.4686082260
30
0.0000000000
10
-1.5831769231
20
24.5329836227
30
0.0000000000
10
-1.6264794748
20
24.6190836397
30
0.0000000000
10
-1.6898496961
20
24.6863655005
30
0.0000000000
10
-1.7438251133
20
24.7135958359
30
0.0000000000
10
-1.7708334913
20
24.7200277433
30
0.0000000000
11
-1.5707213493
21
24.4367521053
31
0.0000000000
11
-1.5873463776
21
24.5308812404
31
0.0000000000
11
-1.6312137078
21
24.6177708707
31
0.0000000000
11
-1.6956468449
21
24.6841896987
31
0.0000000000
11
-1.7708334913
21
24.7200277433
31
0.0000000000
0
SPLINE
5
3AE
100
AcDbEntity
8
0
100
AcDbSpline
62
9
6
CONTINUOUS
70
0
71
3
72
11
73
7
74
5
42
0.0000001000
43
0.0000001000
44
0.0000000001
12
-0.0114309912
22
0.3676604780
32
0.0000000000
13
-0.3570401067
23
0.0884717858
33
0.0000000000
40
0.0000000000
40
0.0000000000
40
0.0000000000
40
0.0000000000
40
0.2592979996
40
0.5239559516
40
0.7752048487
40
1.0000000000
40
1.0000000000
40
1.0000000000
40
1.0000000000
10
-3.0042395448
20
23.8165521275
30
0.0000000000
10
-3.0052275559
20
23.8483300030
30
0.0000000000
10
-3.0176903528
20
23.9124811059
30
0.0000000000
10
-3.0612179422
20
23.9982854988
30
0.0000000000
10
-3.1241378467
20
24.0655639510
30
0.0000000000
10
-3.1775980586
20
24.0931984227
30
0.0000000000
10
-3.2043516868
20
24.0998277656
30
0.0000000000
11
-3.0042395448
21
23.8165521275
31
0.0000000000
11
-3.0217158754
21
23.9103170661
31
0.0000000000
11
-3.0658805149
21
23.9970739556
31
0.0000000000
11
-3.1300123708
21
24.0636199018
31
0.0000000000
11
-3.2043516868
21
24.0998277656
31
0.0000000000
0
SPLINE
5
3AF
100
AcDbEntity
8
0
100
AcDbSpline
62
9
6
CONTINUOUS
70
0
71
3
72
8
73
4
74
2
42
0.0000001000
43
0.0000001000
44
0.0000000001
12
-0.0003269866
22
0.0410758631
32
0.0000000000
13
-0.0059855750
23
0.0408090256
33
0.0000000000
40
0.0000000000
40
0.0000000000
40
0.0000000000
40
0.0000000000
40
1.0000000000
40
1.0000000000
40
1.0000000000
40
1.0000000000
10
-1.1111566845
20
24.6242542635
30
0.0000000000
10
-1.1112656801
20
24.6379462179
30
0.0000000000
10
-1.1123544844
20
24.6516582072
30
0.0000000000
10
-1.1143496761
20
24.6652612157
30
0.0000000000
11
-1.1111566845
21
24.6242542635
31
0.0000000000
11
-1.1143496761
21
24.6652612157
31
0.0000000000
0
SPLINE
5
3B0
100
AcDbEntity
8
0
100
AcDbSpline
62
9
6
CONTINUOUS
70
0
71
3
72
9
73
5
74
3
42
0.0000001000
43
0.0000001000
44
0.0000000001
12
-0.0175624025
22
0.1197386272
32
0.0000000000
13
-0.0597306989
23
0.1051228934
33
0.0000000000
40
0.0000000000
40
0.0000000000
40
0.0000000000
40
0.0000000000
40
0.4573230426
40
1.0000000000
40
1.0000000000
40
1.0000000000
40
1.0000000000
10
-1.1143496761
20
24.6652612157
30
0.0000000000
10
-1.1170269065
20
24.6835142935
30
0.0000000000
10
-1.1264496007
20
24.7229980984
30
0.0000000000
10
-1.1428272786
20
24.7600532912
30
0.0000000000
10
-1.1536321033
20
24.7790692152
30
0.0000000000
11
-1.1143496761
21
24.6652612157
31
0.0000000000
11
-1.1270999325
21
24.7191200705
31
0.0000000000
11
-1.1536321033
21
24.7790692152
31
0.0000000000
0
SPLINE
5
3B1
100
AcDbEntity
8
0
100
AcDbSpline
62
9
6
CONTINUOUS
70
0
71
3
72
8
73
4
74
2
42
0.0000001000
43
0.0000001000
44
0.0000000001
12
-0.0160471948
22
0.0282422202
32
0.0000000000
13
-0.0188184840
23
0.0264972902
33
0.0000000000
40
0.0000000000
40
0.0000000000
40
0.0000000000
40
0.0000000000
40
1.0000000000
40
1.0000000000
40
1.0000000000
40
1.0000000000
10
-1.1536321033
20
24.7790692152
30
0.0000000000
10
-1.1589811682
20
24.7884832886
30
0.0000000000
10
-1.1648000738
20
24.7976294634
30
0.0000000000
10
-1.1710729018
20
24.8064618935
30
0.0000000000
11
-1.1536321033
21
24.7790692152
31
0.0000000000
11
-1.1710729018
21
24.8064618935
31
0.0000000000
0
SPLINE
5
3B2
100
AcDbEntity
8
0
100
AcDbSpline
62
9
6
CONTINUOUS
70
0
71
3
72
9
73
5
74
3
42
0.0000001000
43
0.0000001000
44
0.0000000001
12
-0.0866952005
22
0.1220708258
32
0.0000000000
13
-0.1398913900
23
0.0537923688
33
0.0000000000
40
0.0000000000
40
0.0000000000
40
0.0000000000
40
0.0000000000
40
0.6236533324
40
1.0000000000
40
1.0000000000
40
1.0000000000
40
1.0000000000
10
-1.1710729018
20
24.8064618935
30
0.0000000000
10
-1.1890954854
20
24.8318385192
30
0.0000000000
10
-1.2240021037
20
24.8683759984
30
0.0000000000
10
-1.2683788853
20
24.8930039946
30
0.0000000000
10
-1.2859281048
20
24.8997521875
30
0.0000000000
11
-1.1710729018
21
24.8064618935
31
0.0000000000
11
-1.2363181013
21
24.8727798448
31
0.0000000000
11
-1.2859281048
21
24.8997521875
31
0.0000000000
0
SPLINE
5
3B3
100
AcDbEntity
8
0
100
AcDbSpline
62
9
6
CONTINUOUS
70
0
71
3
72
8
73
4
74
2
42
0.0000001000
43
0.0000001000
44
0.0000000001
12
-0.0248266143
22
0.0095465660
32
0.0000000000
13
-0.0258031159
23
0.0059214445
33
0.0000000000
40
0.0000000000
40
0.0000000000
40
0.0000000000
40
0.0000000000
40
1.0000000000
40
1.0000000000
40
1.0000000000
40
1.0000000000
10
-1.2859281048
20
24.8997521875
30
0.0000000000
10
-1.2942036429
20
24.9029343762
30
0.0000000000
10
-1.3026677878
20
24.9055560868
30
0.0000000000
10
-1.3112688265
20
24.9075299016
30
0.0000000000
11
-1.2859281048
21
24.8997521875
31
0.0000000000
11
-1.3112688265
21
24.9075299016
31
0.0000000000
0
SPLINE
5
3B4
100
AcDbEntity
8
0
100
AcDbSpline
62
9
6
CONTINUOUS
70
0
71
3
72
9
73
5
74
3
42
0.0000001000
43
0.0000001000
44
0.0000000001
12
0.0558635143
22
0.0220008835
32
0.0000000000
13
0.0588126705
23
-0.0141721106
33
0.0000000000
40
0.0000000000
40
0.0000000000
40
0.0000000000
40
0.0000000000
40
0.9750377215
40
1.0000000000
40
1.0000000000
40
1.0000000000
40
1.0000000000
10
-2.7772284548
20
25.2566407073
30
0.0000000000
10
-2.7590721102
20
25.2637912711
30
0.0000000000
10
-2.7376331106
20
25.2666539327
30
0.0000000000
10
-2.7179828097
20
25.2621120300
30
0.0000000000
10
-2.7174934436
20
25.2619941073
30
0.0000000000
11
-2.7772284548
21
25.2566407073
31
0.0000000000
11
-2.7189649568
21
25.2623341686
31
0.0000000000
11
-2.7174934436
21
25.2619941073
31
0.0000000000
0
SPLINE
5
3B5
100
AcDbEntity
8
0
100
AcDbSpline
62
9
6
CONTINUOUS
70
0
71
3
72
9
73
5
74
3
42
0.0000001000
43
0.0000001000
44
0.0000000001
12
0.0660639980
22
0.0269756178
32
0.0000000000
13
0.0694079865
23
-0.0165730869
33
0.0000000000
40
0.0000000000
40
0.0000000000
40
0.0000000000
40
0.0000000000
40
0.5136709110
40
1.0000000000
40
1.0000000000
40
1.0000000000
40
1.0000000000
10
-1.8743236199
20
26.8520526264
30
0.0000000000
10
-1.8630119018
20
26.8566714898
30
0.0000000000
10
-1.8396886913
20
26.8629672061
30
0.0000000000
10
-1.8154233661
20
26.8615315279
30
0.0000000000
10
-1.8041716585
20
26.8588448698
30
0.0000000000
11
-1.8743236199
21
26.8520526264
31
0.0000000000
11
-1.8388024079
21
26.8610993536
31
0.0000000000
11
-1.8041716585
21
26.8588448698
31
0.0000000000
0
SPLINE
5
3B6
100
AcDbEntity
8
0
100
AcDbSpline
62
9
6
CONTINUOUS
70
0
71
3
72
9
73
5
74
3
42
0.0000001000
43
0.0000001000
44
0.0000000001
12
0.0558436155
22
0.0219930467
32
0.0000000000
13
0.0588215635
23
-0.0140860007
33
0.0000000000
40
0.0000000000
40
0.0000000000
40
0.0000000000
40
0.0000000000
40
0.9887873788
40
1.0000000000
40
1.0000000000
40
1.0000000000
40
1.0000000000
10
-1.3112688265
20
24.9075299016
30
0.0000000000
10
-1.2928630058
20
24.9147787173
30
0.0000000000
10
-1.2713675498
20
24.9175481469
30
0.0000000000
10
-1.2517391508
20
24.9129350409
30
0.0000000000
10
-1.2515193028
20
24.9128823939
30
0.0000000000
11
-1.3112688265
21
24.9075299016
31
0.0000000000
11
-1.2521795571
21
24.9130375627
31
0.0000000000
11
-1.2515193028
21
24.9128823939
31
0.0000000000
0
SPLINE
5
3B7
100
AcDbEntity
8
0
100
AcDbSpline
62
9
6
CONTINUOUS
70
0
71
3
72
9
73
5
74
3
42
0.0000001000
43
0.0000001000
44
0.0000000001
12
0.0676876989
22
0.0294684346
32
0.0000000000
13
0.0046306607
23
0.0747675690
33
0.0000000000
40
0.0000000000
40
0.0000000000
40
0.0000000000
40
0.0000000000
40
0.6993058994
40
1.0000000000
40
1.0000000000
40
1.0000000000
40
1.0000000000
10
-1.1111566845
20
24.6242542635
30
0.0000000000
10
-1.0953785488
20
24.6311234136
30
0.0000000000
10
-1.0706090817
20
24.6410156239
30
0.0000000000
10
-1.0610623093
20
24.6670623353
30
0.0000000000
10
-1.0605981719
20
24.6745563909
30
0.0000000000
11
-1.1111566845
21
24.6242542635
31
0.0000000000
11
-1.0681800151
21
24.6528587909
31
0.0000000000
11
-1.0605981719
21
24.6745563909
31
0.0000000000
0
SPLINE
5
3B8
100
AcDbEntity
8
0
100
AcDbSpline
62
9
6
CONTINUOUS
70
0
71
3
72
11
73
7
74
5
42
0.0000001000
43
0.0000001000
44
0.0000000001
12
-0.3269602109
22
-0.1328912868
32
0.0000000000
13
-0.3433334634
23
0.0817631125
33
0.0000000000
40
0.0000000000
40
0.0000000000
40
0.0000000000
40
0.0000000000
40
0.2158561035
40
0.4798414158
40
0.7535306805
40
1.0000000000
40
1.0000000000
40
1.0000000000
40
1.0000000000
10
-3.0042395448
20
23.8165521275
30
0.0000000000
10
-3.0277649972
20
23.8069903291
30
0.0000000000
10
-3.0828637210
20
23.7928623117
30
0.0000000000
10
-3.1711302311
20
23.7830174648
30
0.0000000000
10
-3.2635800746
20
23.7838635207
30
0.0000000000
10
-3.3245159236
20
23.7920909709
30
0.0000000000
10
-3.3527229786
20
23.7988083371
30
0.0000000000
11
-3.0042395448
21
23.8165521275
31
0.0000000000
11
-3.0775615275
21
23.7958697448
31
0.0000000000
11
-3.1700922782
21
23.7849774455
31
0.0000000000
11
-3.2666812075
21
23.7860152808
31
0.0000000000
11
-3.3527229786
21
23.7988083371
31
0.0000000000
0
SPLINE
5
3B9
100
AcDbEntity
8
0
100
AcDbSpline
62
9
6
CONTINUOUS
70
0
71
3
72
9
73
5
74
3
42
0.0000001000
43
0.0000001000
44
0.0000000001
12
-0.0159148536
22
0.0037901449
32
0.0000000000
13
-0.0160330343
23
0.0032541626
33
0.0000000000
40
0.0000000000
40
0.0000000000
40
0.0000000000
40
0.0000000000
40
0.4969075698
40
1.0000000000
40
1.0000000000
40
1.0000000000
40
1.0000000000
10
-19.1009526845
20
26.3572645068
30
0.0000000000
10
-19.1035887549
20
26.3578922907
30
0.0000000000
10
-19.1089196092
20
26.3590422972
30
0.0000000000
10
-19.1142082980
20
26.3603830262
30
0.0000000000
10
-19.1168969974
20
26.3609287411
30
0.0000000000
11
-19.1009526845
21
26.3572645068
31
0.0000000000
11
-19.1088762273
21
26.3590822773
31
0.0000000000
11
-19.1168969974
21
26.3609287411
31
0.0000000000
0
SPLINE
5
3BA
100
AcDbEntity
8
0
100
AcDbSpline
62
7
6
CONTINUOUS
70
0
71
3
72
9
73
5
74
3
42
0.0000001000
43
0.0000001000
44
0.0000000001
12
0.0360079495
22
0.0138827200
32
0.0000000000
13
0.0385078353
23
0.0032596591
33
0.0000000000
40
0.0000000000
40
0.0000000000
40
0.0000000000
40
0.0000000000
40
0.3673787214
40
1.0000000000
40
1.0000000000
40
1.0000000000
40
1.0000000000
10
-3.3453586287
20
25.0694635511
30
0.0000000000
10
-3.3409491105
20
25.0711636230
30
0.0000000000
10
-3.3287115136
20
25.0751622370
30
0.0000000000
10
-3.3159811196
20
25.0773177758
30
0.0000000000
10
-3.3078608276
20
25.0780051524
30
0.0000000000
11
-3.3453586287
21
25.0694635511
31
0.0000000000
11
-3.3318909337
21
25.0738528799
31
0.0000000000
11
-3.3078608276
21
25.0780051524
31
0.0000000000
0
SPLINE
5
3BB
100
AcDbEntity
8
0
100
AcDbSpline
62
7
6
CONTINUOUS
70
0
71
3
72
8
73
4
74
2
42
0.0000001000
43
0.0000001000
44
0.0000000001
12
0.0507749675
22
0.0042980625
32
0.0000000000
13
0.0489719758
23
-0.0116624262
33
0.0000000000
40
0.0000000000
40
0.0000000000
40
0.0000000000
40
0.0000000000
40
1.0000000000
40
1.0000000000
40
1.0000000000
40
1.0000000000
10
-3.3078608276
20
25.0780051524
30
0.0000000000
10
-3.2909358385
20
25.0794378399
30
0.0000000000
10
-3.2737207678
20
25.0779326801
30
0.0000000000
10
-3.2573967759
20
25.0740452047
30
0.0000000000
11
-3.3078608276
21
25.0780051524
31
0.0000000000
11
-3.2573967759
21
25.0740452047
31
0.0000000000
0
SPLINE
5
3BC
100
AcDbEntity
8
0
100
AcDbSpline
62
7
6
CONTINUOUS
70
0
71
3
72
9
73
5
74
3
42
0.0000001000
43
0.0000001000
44
0.0000000001
12
-0.1007577527
22
0.0448929487
32
0.0000000000
13
-0.1037263382
23
0.0375279674
33
0.0000000000
40
0.0000000000
40
0.0000000000
40
0.0000000000
40
0.0000000000
40
0.4629847272
40
1.0000000000
40
1.0000000000
40
1.0000000000
40
1.0000000000
10
-17.7791638574
20
26.7200570385
30
0.0000000000
10
-17.7947136243
20
26.7269852884
30
0.0000000000
10
-17.8287175220
20
26.7410082961
30
0.0000000000
10
-17.8631407944
20
26.7539412265
30
0.0000000000
10
-17.8817083370
20
26.7606589237
30
0.0000000000
11
-17.7791638574
21
26.7200570385
31
0.0000000000
11
-17.8262900899
21
26.7397365018
31
0.0000000000
11
-17.8817083370
21
26.7606589237
31
0.0000000000
0
SPLINE
5
3BD
100
AcDbEntity
8
0
100
AcDbSpline
62
9
6
CONTINUOUS
70
0
71
3
72
9
73
5
74
3
42
0.0000001000
43
0.0000001000
44
0.0000000001
12
-0.0907658903
22
-0.0406053812
32
0.0000000000
13
-0.0599609358
23
-0.0797568524
33
0.0000000000
40
0.0000000000
40
0.0000000000
40
0.0000000000
40
0.0000000000
40
0.7225416496
40
1.0000000000
40
1.0000000000
40
1.0000000000
40
1.0000000000
10
-19.4161423532
20
27.9605829957
30
0.0000000000
10
-19.4380030652
20
27.9508033027
30
0.0000000000
10
-19.4646011318
20
27.9292973812
30
0.0000000000
10
-19.4859298936
20
27.9036602135
30
0.0000000000
10
-19.4914754477
20
27.8962838120
30
0.0000000000
11
-19.4161423532
21
27.9605829957
31
0.0000000000
11
-19.4736885599
21
27.9175686697
31
0.0000000000
11
-19.4914754477
21
27.8962838120
31
0.0000000000
0
SPLINE
5
3BE
100
AcDbEntity
8
0
100
AcDbSpline
62
9
6
CONTINUOUS
70
0
71
3
72
9
73
5
74
3
42
0.0000001000
43
0.0000001000
44
0.0000000001
12
-0.0551328143
22
-0.0733347416
32
0.0000000000
13
-0.0338453106
23
-0.0851154847
33
0.0000000000
40
0.0000000000
40
0.0000000000
40
0.0000000000
40
0.0000000000
40
0.6554847898
40
1.0000000000
40
1.0000000000
40
1.0000000000
40
1.0000000000
10
-19.4914754477
20
27.8962838120
30
0.0000000000
10
-19.5035216881
20
27.8802605427
30
0.0000000000
10
-19.5192193183
20
27.8539212682
30
0.0000000000
10
-19.5316242087
20
27.8260012101
30
0.0000000000
10
-19.5355109502
20
27.8162266838
30
0.0000000000
11
-19.4914754477
21
27.8962838120
31
0.0000000000
11
-19.5226860442
21
27.8450513551
31
0.0000000000
11
-19.5355109502
21
27.8162266838
31
0.0000000000
0
SPLINE
5
3BF
100
AcDbEntity
8
0
100
AcDbSpline
62
9
6
CONTINUOUS
70
0
71
3
72
9
73
5
74
3
42
0.0000001000
43
0.0000001000
44
0.0000000001
12
-0.0592127111
22
-0.1489103962
32
0.0000000000
13
0.0030736860
23
-0.1599247303
33
0.0000000000
40
0.0000000000
40
0.0000000000
40
0.0000000000
40
0.0000000000
40
0.4033650783
40
1.0000000000
40
1.0000000000
40
1.0000000000
40
1.0000000000
10
-19.5355109502
20
27.8162266838
30
0.0000000000
10
-19.5434723968
20
27.7962049326
30
0.0000000000
10
-19.5591851232
20
27.7449491581
30
0.0000000000
10
-19.5651249345
20
27.6913691270
30
0.0000000000
10
-19.5645136450
20
27.6595635673
30
0.0000000000
11
-19.5355109502
21
27.8162266838
31
0.0000000000
11
-19.5545582406
21
27.7544771892
31
0.0000000000
11
-19.5645136450
21
27.6595635673
31
0.0000000000
0
SPLINE
5
3C0
100
AcDbEntity
8
0
100
AcDbSpline
62
9
6
CONTINUOUS
70
0
71
3
72
11
73
7
74
5
42
0.0000001000
43
0.0000001000
44
0.0000000001
12
-0.3202326293
22
-0.1432605129
32
0.0000000000
13
0.0067413086
23
-0.3507521435
33
0.0000000000
40
0.0000000000
40
0.0000000000
40
0.0000000000
40
0.0000000000
40
0.2047952960
40
0.4542663067
40
0.7279655144
40
1.0000000000
40
1.0000000000
40
1.0000000000
40
1.0000000000
10
-17.9911517018
20
27.6212287428
30
0.0000000000
10
-18.0130124138
20
27.6114490497
30
0.0000000000
10
-18.0556412528
20
27.5769814143
30
0.0000000000
10
-18.1022642739
20
27.5047412894
30
0.0000000000
10
-18.1330247984
20
27.4161459367
30
0.0000000000
10
-18.1401342831
20
27.3520148740
30
0.0000000000
10
-18.1395229936
20
27.3202093144
30
0.0000000000
11
-17.9911517018
21
27.6212287428
31
0.0000000000
11
-18.0486979084
21
27.5782144168
31
0.0000000000
11
-18.0976953927
21
27.5056971022
31
0.0000000000
11
-18.1295675892
21
27.4151229362
31
0.0000000000
11
-18.1395229936
21
27.3202093144
31
0.0000000000
0
SPLINE
5
3C1
100
AcDbEntity
8
0
100
AcDbSpline
62
7
6
CONTINUOUS
70
0
71
3
72
11
73
7
74
5
42
0.0000001000
43
0.0000001000
44
0.0000000001
12
-0.0070858971
22
0.3686811764
32
0.0000000000
13
-0.3587175615
23
0.0854267570
33
0.0000000000
40
0.0000000000
40
0.0000000000
40
0.0000000000
40
0.0000000000
40
0.2592168205
40
0.5231773421
40
0.7741255442
40
1.0000000000
40
1.0000000000
40
1.0000000000
40
1.0000000000
10
-16.3575213643
20
27.9581530825
30
0.0000000000
10
-16.3581336255
20
27.9900092033
30
0.0000000000
10
-16.3699769381
20
28.0543846000
30
0.0000000000
10
-16.4132794897
20
28.1404846169
30
0.0000000000
10
-16.4766497110
20
28.2077664777
30
0.0000000000
10
-16.5306251283
20
28.2349968131
30
0.0000000000
10
-16.5576335063
20
28.2414287205
30
0.0000000000
11
-16.3575213643
21
27.9581530825
31
0.0000000000
11
-16.3741463926
21
28.0522822176
31
0.0000000000
11
-16.4180137228
21
28.1391718480
31
0.0000000000
11
-16.4824468599
21
28.2055906759
31
0.0000000000
11
-16.5576335063
21
28.2414287205
31
0.0000000000
0
SPLINE
5
3C2
100
AcDbEntity
8
0
100
AcDbSpline
62
9
6
CONTINUOUS
70
0
71
3
72
11
73
7
74
5
42
0.0000001000
43
0.0000001000
44
0.0000000001
12
-0.0114309912
22
0.3676604780
32
0.0000000000
13
-0.3570401067
23
0.0884717858
33
0.0000000000
40
0.0000000000
40
0.0000000000
40
0.0000000000
40
0.0000000000
40
0.2592979996
40
0.5239559516
40
0.7752048487
40
1.0000000000
40
1.0000000000
40
1.0000000000
40
1.0000000000
10
-17.7910395598
20
27.3379531047
30
0.0000000000
10
-17.7920275709
20
27.3697309802
30
0.0000000000
10
-17.8044903678
20
27.4338820831
30
0.0000000000
10
-17.8480179571
20
27.5196864761
30
0.0000000000
10
-17.9109378617
20
27.5869649283
30
0.0000000000
10
-17.9643980735
20
27.6145994000
30
0.0000000000
10
-17.9911517018
20
27.6212287428
30
0.0000000000
11
-17.7910395598
21
27.3379531047
31
0.0000000000
11
-17.8085158904
21
27.4317180433
31
0.0000000000
11
-17.8526805298
21
27.5184749328
31
0.0000000000
11
-17.9168123858
21
27.5850208790
31
0.0000000000
11
-17.9911517018
21
27.6212287428
31
0.0000000000
0
SPLINE
5
3C3
100
AcDbEntity
8
0
100
AcDbSpline
62
9
6
CONTINUOUS
70
0
71
3
72
8
73
4
74
2
42
0.0000001000
43
0.0000001000
44
0.0000000001
12
-0.0003272705
22
0.0411115254
32
0.0000000000
13
-0.0059951473
23
0.0408431089
33
0.0000000000
40
0.0000000000
40
0.0000000000
40
0.0000000000
40
0.0000000000
40
1.0000000000
40
1.0000000000
40
1.0000000000
40
1.0000000000
10
-15.8979566995
20
28.1456552408
30
0.0000000000
10
-15.8980657897
20
28.1593590826
30
0.0000000000
10
-15.8991563252
20
28.1730828954
30
0.0000000000
10
-15.9011547077
20
28.1866972651
30
0.0000000000
11
-15.8979566995
21
28.1456552408
31
0.0000000000
11
-15.9011547077
21
28.1866972651
31
0.0000000000
0
SPLINE
5
3C4
100
AcDbEntity
8
0
100
AcDbSpline
62
9
6
CONTINUOUS
70
0
71
3
72
9
73
5
74
3
42
0.0000001000
43
0.0000001000
44
0.0000000001
12
-0.0174618733
22
0.1189624133
32
0.0000000000
13
-0.0591014078
23
0.1045777228
33
0.0000000000
40
0.0000000000
40
0.0000000000
40
0.0000000000
40
0.0000000000
40
0.4565115952
40
1.0000000000
40
1.0000000000
40
1.0000000000
40
1.0000000000
10
-15.9011547077
20
28.1866972651
30
0.0000000000
10
-15.9038118902
20
28.2047998388
30
0.0000000000
10
-15.9131484943
20
28.2440301163
30
0.0000000000
10
-15.9293567172
20
28.2808720721
30
0.0000000000
10
-15.9400636938
20
28.2998176654
30
0.0000000000
11
-15.9011547077
21
28.1866972651
31
0.0000000000
11
-15.9137684911
21
28.2401202589
31
0.0000000000
11
-15.9400636938
21
28.2998176654
31
0.0000000000
0
SPLINE
5
3C5
100
AcDbEntity
8
0
100
AcDbSpline
62
9
6
CONTINUOUS
70
0
71
3
72
8
73
4
74
2
42
0.0000001000
43
0.0000001000
44
0.0000000001
12
-0.0159048834
22
0.0281430942
32
0.0000000000
13
-0.0186490036
23
0.0264223560
33
0.0000000000
40
0.0000000000
40
0.0000000000
40
0.0000000000
40
0.0000000000
40
1.0000000000
40
1.0000000000
40
1.0000000000
40
1.0000000000
10
-15.9400636938
20
28.2998176654
30
0.0000000000
10
-15.9453653216
20
28.3091986968
30
0.0000000000
10
-15.9511322996
20
28.3183155267
30
0.0000000000
10
-15.9573486341
20
28.3271229787
30
0.0000000000
11
-15.9400636938
21
28.2998176654
31
0.0000000000
11
-15.9573486341
21
28.3271229787
31
0.0000000000
0
SPLINE
5
3C6
100
AcDbEntity
8
0
100
AcDbSpline
62
9
6
CONTINUOUS
70
0
71
3
72
9
73
5
74
3
42
0.0000001000
43
0.0000001000
44
0.0000000001
12
-0.0865067441
22
0.1225648319
32
0.0000000000
13
-0.1400469494
23
0.0543275206
33
0.0000000000
40
0.0000000000
40
0.0000000000
40
0.0000000000
40
0.0000000000
40
0.6197938990
40
1.0000000000
40
1.0000000000
40
1.0000000000
40
1.0000000000
10
-15.9573486341
20
28.3271229787
30
0.0000000000
10
-15.9752207515
20
28.3524446237
30
0.0000000000
10
-16.0100490949
20
28.3891736057
30
0.0000000000
10
-16.0544348983
20
28.4140572346
30
0.0000000000
10
-16.0721837998
20
28.4209424528
30
0.0000000000
11
-15.9573486341
21
28.3271229787
31
0.0000000000
11
-16.0220649865
21
28.3934230946
31
0.0000000000
11
-16.0721837998
21
28.4209424528
31
0.0000000000
0
SPLINE
5
3C7
100
AcDbEntity
8
0
100
AcDbSpline
62
9
6
CONTINUOUS
70
0
71
3
72
8
73
4
74
2
42
0.0000001000
43
0.0000001000
44
0.0000000001
12
-0.0253463378
22
0.0098324433
32
0.0000000000
13
-0.0263689036
23
0.0060512847
33
0.0000000000
40
0.0000000000
40
0.0000000000
40
0.0000000000
40
0.0000000000
40
1.0000000000
40
1.0000000000
40
1.0000000000
40
1.0000000000
10
-16.0721837998
20
28.4209424528
30
0.0000000000
10
-16.0806325791
20
28.4242199339
30
0.0000000000
10
-16.0892792069
20
28.4269137839
30
0.0000000000
10
-16.0980688415
20
28.4289308788
30
0.0000000000
11
-16.0721837998
21
28.4209424528
31
0.0000000000
11
-16.0980688415
21
28.4289308788
31
0.0000000000
0
SPLINE
5
3C8
100
AcDbEntity
8
0
100
AcDbSpline
62
9
6
CONTINUOUS
70
0
71
3
72
9
73
5
74
3
42
0.0000001000
43
0.0000001000
44
0.0000000001
12
0.0676636494
22
0.0294579645
32
0.0000000000
13
0.0049538504
23
0.0743248550
33
0.0000000000
40
0.0000000000
40
0.0000000000
40
0.0000000000
40
0.0000000000
40
0.6896968375
40
1.0000000000
40
1.0000000000
40
1.0000000000
40
1.0000000000
10
-15.8979566995
20
28.1456552408
30
0.0000000000
10
-15.8824008978
20
28.1524275957
30
0.0000000000
10
-15.8579054653
20
28.1622681815
30
0.0000000000
10
-15.8478249745
20
28.1882519306
30
0.0000000000
10
-15.8473125760
20
28.1959396764
30
0.0000000000
11
-15.8979566995
21
28.1456552408
31
0.0000000000
11
-15.8554689775
21
28.1736806453
31
0.0000000000
11
-15.8473125760
21
28.1959396764
31
0.0000000000
0
SPLINE
5
3C9
100
AcDbEntity
8
0
100
AcDbSpline
62
9
6
CONTINUOUS
70
0
71
3
72
11
73
7
74
5
42
0.0000001000
43
0.0000001000
44
0.0000000001
12
-0.3269602109
22
-0.1328912868
32
0.0000000000
13
-0.3433334634
23
0.0817631125
33
0.0000000000
40
0.0000000000
40
0.0000000000
40
0.0000000000
40
0.0000000000
40
0.2158561035
40
0.4798414158
40
0.7535306805
40
1.0000000000
40
1.0000000000
40
1.0000000000
40
1.0000000000
10
-17.7910395598
20
27.3379531047
30
0.0000000000
10
-17.8145650122
20
27.3283913063
30
0.0000000000
10
-17.8696637360
20
27.3142632889
30
0.0000000000
10
-17.9579302461
20
27.3044184420
30
0.0000000000
10
-18.0503800896
20
27.3052644979
30
0.0000000000
10
-18.1113159386
20
27.3134919481
30
0.0000000000
10
-18.1395229936
20
27.3202093144
30
0.0000000000
11
-17.7910395598
21
27.3379531047
31
0.0000000000
11
-17.8643615424
21
27.3172707220
31
0.0000000000
11
-17.9568922931
21
27.3063784227
31
0.0000000000
11
-18.0534812225
21
27.3074162581
31
0.0000000000
11
-18.1395229936
21
27.3202093144
31
0.0000000000
0
SPLINE
5
3CA
100
AcDbEntity
8
0
100
AcDbSpline
62
7
6
CONTINUOUS
70
0
71
3
72
10
73
6
74
4
42
0.0000001000
43
0.0000001000
44
0.0000000001
12
0.0041320604
22
-0.2149922396
32
0.0000000000
13
-0.1970672840
23
-0.0920830330
33
0.0000000000
40
0.0000000000
40
0.0000000000
40
0.0000000000
40
0.0000000000
40
0.4093658224
40
0.7732584836
40
1.0000000000
40
1.0000000000
40
1.0000000000
40
1.0000000000
10
-0.6880137794
20
-21.4907657174
30
0.0000000000
10
-0.6874499379
20
-21.5201025424
30
0.0000000000
10
-0.6947565036
20
-21.5763293806
30
0.0000000000
10
-0.7317555710
20
-21.6405986090
30
0.0000000000
10
-0.7674188111
20
-21.6656272182
30
0.0000000000
10
-0.7823132560
20
-21.6725869003
30
0.0000000000
11
-0.6880137794
21
-21.4907657174
31
0.0000000000
11
-0.7011568127
21
-21.5778057406
31
0.0000000000
11
-0.7420722330
21
-21.6445047914
31
0.0000000000
11
-0.7823132560
21
-21.6725869003
31
0.0000000000
0
SPLINE
5
3CB
100
AcDbEntity
8
0
100
AcDbSpline
62
9
6
CONTINUOUS
70
0
71
3
72
10
73
6
74
4
42
0.0000001000
43
0.0000001000
44
0.0000000001
12
0.0016781052
22
-0.2249291243
32
0.0000000000
13
-0.2120968018
23
-0.0817551960
33
0.0000000000
40
0.0000000000
40
0.0000000000
40
0.0000000000
40
0.0000000000
40
0.3933595729
40
0.7423430396
40
1.0000000000
40
1.0000000000
40
1.0000000000
40
1.0000000000
10
-2.1229643269
20
-22.0364400258
30
0.0000000000
10
-2.1227442940
20
-22.0659327005
30
0.0000000000
10
-2.1306185244
20
-22.1222746498
30
0.0000000000
10
-2.1693885005
20
-22.1893637454
30
0.0000000000
10
-2.2087517138
20
-22.2153335674
30
0.0000000000
10
-2.2269677862
20
-22.2223551658
30
0.0000000000
11
-2.1229643269
21
-22.0364400258
31
0.0000000000
11
-2.1369593842
21
-22.1238066949
31
0.0000000000
11
-2.1781725398
21
-22.1906163232
31
0.0000000000
11
-2.2269677862
21
-22.2223551658
31
0.0000000000
0
SPLINE
5
3CC
100
AcDbEntity
8
0
100
AcDbSpline
62
9
6
CONTINUOUS
70
0
71
3
72
8
73
4
74
2
42
0.0000001000
43
0.0000001000
44
0.0000000001
12
0.0026765019
22
-0.0874984329
32
0.0000000000
13
-0.0289308445
23
-0.0835110337
33
0.0000000000
40
0.0000000000
40
0.0000000000
40
0.0000000000
40
0.0000000000
40
1.0000000000
40
1.0000000000
40
1.0000000000
40
1.0000000000
10
-0.2289284133
20
-21.2783255112
30
0.0000000000
10
-0.2280362460
20
-21.3074916555
30
0.0000000000
10
-0.2316153168
20
-21.3371550895
30
0.0000000000
10
-0.2412589317
20
-21.3649921008
30
0.0000000000
11
-0.2289284133
21
-21.2783255112
31
0.0000000000
11
-0.2412589317
21
-21.3649921008
31
0.0000000000
0
SPLINE
5
3CD
100
AcDbEntity
8
0
100
AcDbSpline
62
9
6
CONTINUOUS
70
0
71
3
72
9
73
5
74
3
42
0.0000001000
43
0.0000001000
44
0.0000000001
12
-0.0419347874
22
-0.1210478818
32
0.0000000000
13
-0.1163074496
23
-0.0543365637
33
0.0000000000
40
0.0000000000
40
0.0000000000
40
0.0000000000
40
0.0000000000
40
0.6145908021
40
1.0000000000
40
1.0000000000
40
1.0000000000
40
1.0000000000
10
-0.2412589317
20
-21.3649921008
30
0.0000000000
10
-0.2498498432
20
-21.3897904057
30
0.0000000000
10
-0.2716589913
20
-21.4277813182
30
0.0000000000
10
-0.3073152174
20
-21.4527143745
30
0.0000000000
10
-0.3222572043
20
-21.4596949783
30
0.0000000000
11
-0.2412589317
21
-21.3649921008
31
0.0000000000
11
-0.2818875908
21
-21.4315558988
31
0.0000000000
11
-0.3222572043
21
-21.4596949783
31
0.0000000000
0
SPLINE
5
3CE
100
AcDbEntity
8
0
100
AcDbSpline
62
9
6
CONTINUOUS
70
0
71
3
72
9
73
5
74
3
42
0.0000001000
43
0.0000001000
44
0.0000000001
12
0.0676636494
22
0.0294579645
32
0.0000000000
13
0.0049538504
23
0.0743248550
33
0.0000000000
40
0.0000000000
40
0.0000000000
40
0.0000000000
40
0.0000000000
40
0.6896968375
40
1.0000000000
40
1.0000000000
40
1.0000000000
40
1.0000000000
10
-0.2289284133
20
-21.2783255112
30
0.0000000000
10
-0.2133726117
20
-21.2715531562
30
0.0000000000
10
-0.1888771791
20
-21.2617125704
30
0.0000000000
10
-0.1787966883
20
-21.2357288214
30
0.0000000000
10
-0.1782842898
20
-21.2280410755
30
0.0000000000
11
-0.2289284133
21
-21.2783255112
31
0.0000000000
11
-0.1864406913
21
-21.2503001066
31
0.0000000000
11
-0.1782842898
21
-21.2280410755
31
0.0000000000
0
SPLINE
5
3CF
100
AcDbEntity
8
0
100
AcDbSpline
62
9
6
CONTINUOUS
70
0
71
3
72
11
73
7
74
5
42
0.0000001000
43
0.0000001000
44
0.0000000001
12
-0.3269602109
22
-0.1328912868
32
0.0000000000
13
-0.3433334634
23
0.0817631125
33
0.0000000000
40
0.0000000000
40
0.0000000000
40
0.0000000000
40
0.0000000000
40
0.2158561035
40
0.4798414158
40
0.7535306805
40
1.0000000000
40
1.0000000000
40
1.0000000000
40
1.0000000000
10
-2.1229643269
20
-22.0364400258
30
0.0000000000
10
-2.1464897793
20
-22.0460018242
30
0.0000000000
10
-2.2015885031
20
-22.0601298416
30
0.0000000000
10
-2.2898550131
20
-22.0699746885
30
0.0000000000
10
-2.3823048567
20
-22.0691286326
30
0.0000000000
10
-2.4432407056
20
-22.0609011824
30
0.0000000000
10
-2.4714477607
20
-22.0541838161
30
0.0000000000
11
-2.1229643269
21
-22.0364400258
31
0.0000000000
11
-2.1962863095
21
-22.0571224085
31
0.0000000000
11
-2.2888170602
21
-22.0680147078
31
0.0000000000
11
-2.3854059896
21
-22.0669768724
31
0.0000000000
11
-2.4714477607
21
-22.0541838161
31
0.0000000000
0
SPLINE
5
3D0
100
AcDbEntity
8
0
100
AcDbSpline
62
9
6
CONTINUOUS
70
0
71
3
72
9
73
5
74
3
42
0.0000001000
43
0.0000001000
44
0.0000000001
12
0.0432481140
22
-0.0569978963
32
0.0000000000
13
0.0695827163
23
-0.0169356023
33
0.0000000000
40
0.0000000000
40
0.0000000000
40
0.0000000000
40
0.0000000000
40
0.1880991061
40
1.0000000000
40
1.0000000000
40
1.0000000000
40
1.0000000000
10
-17.2187257247
20
-18.6700900005
30
0.0000000000
10
-17.2160140808
20
-18.6736637516
30
0.0000000000
10
-17.2006102792
20
-18.6919646562
30
0.0000000000
10
-17.1795242658
20
-18.7058965771
30
0.0000000000
10
-17.1606928426
20
-18.7104799207
30
0.0000000000
11
-17.2187257247
21
-18.6700900005
31
0.0000000000
11
-17.2100181543
21
-18.6803939390
31
0.0000000000
11
-17.1606928426
21
-18.7104799207
31
0.0000000000
0
SPLINE
5
3D1
100
AcDbEntity
8
0
100
AcDbSpline
62
9
6
CONTINUOUS
70
0
71
3
72
9
73
5
74
3
42
0.0000001000
43
0.0000001000
44
0.0000000001
12
0.0433599738
22
-0.0571453193
32
0.0000000000
13
0.0698030143
23
-0.0168204577
33
0.0000000000
40
0.0000000000
40
0.0000000000
40
0.0000000000
40
0.0000000000
40
0.1876138494
40
1.0000000000
40
1.0000000000
40
1.0000000000
40
1.0000000000
10
-18.6437163761
20
-18.3307357476
30
0.0000000000
10
-18.6410047322
20
-18.3343094987
30
0.0000000000
10
-18.6255610893
20
-18.3526577379
30
0.0000000000
10
-18.6044058027
20
-18.3666143638
30
0.0000000000
10
-18.5855034687
20
-18.3711692661
30
0.0000000000
11
-18.6437163761
21
-18.3307357476
31
0.0000000000
11
-18.6350088057
21
-18.3410396861
31
0.0000000000
11
-18.5855034687
21
-18.3711692661
31
0.0000000000
0
SPLINE
5
3D2
100
AcDbEntity
8
0
100
AcDbSpline
62
9
6
CONTINUOUS
70
0
71
3
72
9
73
5
74
3
42
0.0000001000
43
0.0000001000
44
0.0000000001
12
0.0159148590
22
-0.0037901222
32
0.0000000000
13
0.0160330215
23
-0.0032542260
33
0.0000000000
40
0.0000000000
40
0.0000000000
40
0.0000000000
40
0.0000000000
40
0.4969075698
40
1.0000000000
40
1.0000000000
40
1.0000000000
40
1.0000000000
10
-1.6899137726
20
-20.2282168985
30
0.0000000000
10
-1.6872777013
20
-20.2288446787
30
0.0000000000
10
-1.6819468495
20
-20.2299946961
30
0.0000000000
10
-1.6766581570
20
-20.2313354073
30
0.0000000000
10
-1.6739694597
20
-20.2318811328
30
0.0000000000
11
-1.6899137726
21
-20.2282168985
31
0.0000000000
11
-1.6819902299
21
-20.2300346690
31
0.0000000000
11
-1.6739694597
21
-20.2318811328
31
0.0000000000
0
SPLINE
5
3D3
100
AcDbEntity
8
0
100
AcDbSpline
62
7
6
CONTINUOUS
70
0
71
3
72
9
73
5
74
3
42
0.0000001000
43
0.0000001000
44
0.0000000001
12
0.1134491705
22
0.0747613130
32
0.0000000000
13
0.0833601961
23
0.1072895425
33
0.0000000000
40
0.0000000000
40
0.0000000000
40
0.0000000000
40
0.0000000000
40
0.5049452963
40
1.0000000000
40
1.0000000000
40
1.0000000000
40
1.0000000000
10
-2.2348492404
20
-21.5098527926
30
0.0000000000
10
-2.2157540321
20
-21.4972693348
30
0.0000000000
10
-2.1797715985
20
-21.4694496377
30
0.0000000000
10
-2.1485959817
20
-21.4362486904
30
0.0000000000
10
-2.1348400293
20
-21.4185439596
30
0.0000000000
11
-2.2348492404
21
-21.5098527926
31
0.0000000000
11
-2.1806413038
21
-21.4678024284
31
0.0000000000
11
-2.1348400293
21
-21.4185439596
31
0.0000000000
0
SPLINE
5
3D4
100
AcDbEntity
8
0
100
AcDbSpline
62
7
6
CONTINUOUS
70
0
71
3
72
9
73
5
74
3
42
0.0000001000
43
0.0000001000
44
0.0000000001
12
-0.1007577527
22
0.0448929487
32
0.0000000000
13
-0.1037263382
23
0.0375279674
33
0.0000000000
40
0.0000000000
40
0.0000000000
40
0.0000000000
40
0.0000000000
40
0.4629847272
40
1.0000000000
40
1.0000000000
40
1.0000000000
40
1.0000000000
10
-2.9923638424
20
23.1986560613
30
0.0000000000
10
-3.0079136093
20
23.2055843112
30
0.0000000000
10
-3.0419175071
20
23.2196073188
30
0.0000000000
10
-3.0763407794
20
23.2325402493
30
0.0000000000
10
-3.0949083220
20
23.2392579465
30
0.0000000000
11
-2.9923638424
21
23.1986560613
31
0.0000000000
11
-3.0394900749
21
23.2183355246
31
0.0000000000
11
-3.0949083220
21
23.2392579465
31
0.0000000000
0
SPLINE
5
3D5
100
AcDbEntity
8
0
100
AcDbSpline
62
9
6
CONTINUOUS
70
0
71
3
72
10
73
6
74
4
42
0.0000001000
43
0.0000001000
44
0.0000000001
12
-0.0077301011
22
-0.1182491862
32
0.0000000000
13
0.1142380697
23
-0.0272052134
33
0.0000000000
40
0.0000000000
40
0.0000000000
40
0.0000000000
40
0.0000000000
40
0.0773976764
40
0.4326165527
40
1.0000000000
40
1.0000000000
40
1.0000000000
40
1.0000000000
10
-19.6578028305
20
27.7201237155
30
0.0000000000
10
-19.6580022611
20
27.7170729780
30
0.0000000000
10
-19.6568117865
20
27.7003543025
30
0.0000000000
10
-19.6187328244
20
27.6747304859
30
0.0000000000
10
-19.5861192416
20
27.6647088299
30
0.0000000000
10
-19.5645136450
20
27.6595635673
30
0.0000000000
11
-19.6578028305
21
27.7201237155
31
0.0000000000
11
-19.6570871233
21
27.7112711467
31
0.0000000000
11
-19.6271851204
21
27.6821858119
31
0.0000000000
11
-19.5645136450
21
27.6595635673
31
0.0000000000
0
SPLINE
5
3D6
100
AcDbEntity
8
0
100
AcDbSpline
62
9
6
CONTINUOUS
70
0
71
3
72
9
73
5
74
3
42
0.0000001000
43
0.0000001000
44
0.0000000001
12
-0.0158429551
22
0.0043295300
32
0.0000000000
13
-0.0159770880
23
0.0038048279
33
0.0000000000
40
0.0000000000
40
0.0000000000
40
0.0000000000
40
0.0000000000
40
0.5029436317
40
1.0000000000
40
1.0000000000
40
1.0000000000
40
1.0000000000
10
-2.4933772831
20
22.4021334505
30
0.0000000000
10
-2.4960333209
20
22.4028592870
30
0.0000000000
10
-2.5013827267
20
22.4040372432
30
0.0000000000
10
-2.5066793394
20
22.4054229839
30
0.0000000000
10
-2.5093265105
20
22.4060533885
30
0.0000000000
11
-2.4933772831
21
22.4021334505
31
0.0000000000
11
-2.5014008659
21
22.4040967377
31
0.0000000000
11
-2.5093265105
21
22.4060533885
31
0.0000000000
0
SPLINE
5
3D7
100
AcDbEntity
8
0
100
AcDbSpline
62
9
6
CONTINUOUS
70
0
71
3
72
9
73
5
74
3
42
0.0000001000
43
0.0000001000
44
0.0000000001
12
-0.0585098771
22
0.0138066431
32
0.0000000000
13
-0.0555100166
23
-0.0218616646
33
0.0000000000
40
0.0000000000
40
0.0000000000
40
0.0000000000
40
0.0000000000
40
0.0187530638
40
1.0000000000
40
1.0000000000
40
1.0000000000
40
1.0000000000
10
-16.0387062111
20
28.4343730806
30
0.0000000000
10
-16.0390719575
20
28.4344593863
30
0.0000000000
10
-16.0586091607
20
28.4389259896
30
0.0000000000
10
-16.0799124969
20
28.4360814426
30
0.0000000000
10
-16.0980688415
20
28.4289308788
30
0.0000000000
11
-16.0387062111
21
28.4343730806
31
0.0000000000
11
-16.0398053435
21
28.4346243401
31
0.0000000000
11
-16.0980688415
21
28.4289308788
31
0.0000000000
0
SPLINE
5
3D8
100
AcDbEntity
8
0
100
AcDbSpline
62
9
6
CONTINUOUS
70
0
71
3
72
9
73
5
74
3
42
0.0000001000
43
0.0000001000
44
0.0000000001
12
0.0825664072
22
0.0318261885
32
0.0000000000
13
0.0850085571
23
-0.0210012058
33
0.0000000000
40
0.0000000000
40
0.0000000000
40
0.0000000000
40
0.0000000000
40
0.1589489473
40
1.0000000000
40
1.0000000000
40
1.0000000000
40
1.0000000000
10
-17.6510384746
20
28.7738257540
30
0.0000000000
10
-17.6466638601
20
28.7755120004
30
0.0000000000
10
-17.6185984012
20
28.7846662939
30
0.0000000000
10
-17.5878606486
20
28.7839293800
30
0.0000000000
10
-17.5640284698
20
28.7780416846
30
0.0000000000
11
-17.6510384746
21
28.7738257540
31
0.0000000000
11
-17.6376743949
21
28.7781722320
31
0.0000000000
11
-17.5640284698
21
28.7780416846
31
0.0000000000
0
SPLINE
5
3D9
100
AcDbEntity
8
0
100
AcDbSpline
62
7
6
CONTINUOUS
70
0
71
3
72
11
73
7
74
5
42
0.0000001000
43
0.0000001000
44
0.0000000001
12
0.2251804346
22
0.2184414041
32
0.0000000000
13
0.2630543915
23
0.1709539770
33
0.0000000000
40
0.0000000000
40
0.0000000000
40
0.0000000000
40
0.0000000000
40
0.2552278131
40
0.5145940135
40
0.7661167579
40
1.0000000000
40
1.0000000000
40
1.0000000000
40
1.0000000000
10
-2.4781153856
20
-21.7072654529
30
0.0000000000
10
-2.4589579490
20
-21.6886813456
30
0.0000000000
10
-2.4198876852
20
-21.6516428630
30
0.0000000000
10
-2.3585165896
20
-21.6000757321
30
0.0000000000
10
-2.2968142639
20
-21.5525337752
30
0.0000000000
10
-2.2553572450
20
-21.5231805494
30
0.0000000000
10
-2.2348492404
20
-21.5098527926
30
0.0000000000
11
-2.4781153856
21
-21.7072654529
31
0.0000000000
11
-2.4196724662
21
-21.6525314328
31
0.0000000000
11
-2.3575274189
21
-21.6000054279
31
0.0000000000
11
-2.2950192768
21
-21.5518460411
31
0.0000000000
11
-2.2348492404
21
-21.5098527926
31
0.0000000000
0
SPLINE
5
3DA
100
AcDbEntity
8
0
100
AcDbSpline
62
7
6
CONTINUOUS
70
0
71
3
72
11
73
7
74
5
42
0.0000001000
43
0.0000001000
44
0.0000000001
12
-0.3135412509
22
0.1130526467
32
0.0000000000
13
-0.1944154313
23
0.2707243192
33
0.0000000000
40
0.0000000000
40
0.0000000000
40
0.0000000000
40
0.0000000000
40
0.2053860573
40
0.4428787170
40
0.7093984107
40
1.0000000000
40
1.0000000000
40
1.0000000000
40
1.0000000000
10
-17.8817083370
20
26.7606589237
30
0.0000000000
10
-17.9031740041
20
26.7683987362
30
0.0000000000
10
-17.9474097565
20
26.7908026099
30
0.0000000000
10
-18.0112526797
20
26.8373874861
30
0.0000000000
10
-18.0752473194
20
26.8985886479
30
0.0000000000
10
-18.1140228908
20
26.9470666454
30
0.0000000000
10
-18.1328553686
20
26.9732909512
30
0.0000000000
11
-17.8817083370
21
26.7606589237
31
0.0000000000
11
-17.9432612071
21
26.7906148952
31
0.0000000000
11
-18.0075816821
21
26.8367516921
31
0.0000000000
11
-18.0719135823
21
26.8980082401
31
0.0000000000
11
-18.1328553686
21
26.9732909512
31
0.0000000000
0
SPLINE
5
3DB
100
AcDbEntity
8
0
100
AcDbSpline
62
7
6
CONTINUOUS
70
0
71
3
72
11
73
7
74
5
42
0.0000001000
43
0.0000001000
44
0.0000000001
12
-0.1110328062
22
-0.1077099000
32
0.0000000000
13
0.0041439790
23
-0.1640967715
33
0.0000000000
40
0.0000000000
40
0.0000000000
40
0.0000000000
40
0.0000000000
40
0.4398846576
40
0.7560091081
40
0.9547789627
40
1.0000000000
40
1.0000000000
40
1.0000000000
40
1.0000000000
10
-19.5578460200
20
27.3126452041
30
0.0000000000
10
-19.5741265627
20
27.2968518933
30
0.0000000000
10
-19.6009197740
20
27.2686056983
30
0.0000000000
10
-19.6310918117
20
27.2290610346
30
0.0000000000
10
-19.6464758606
20
27.2054984627
30
0.0000000000
10
-19.6484926938
20
27.1913946333
30
0.0000000000
10
-19.6484302287
20
27.1889210913
30
0.0000000000
11
-19.5578460200
21
27.3126452041
31
0.0000000000
11
-19.6043232287
21
27.2629437786
31
0.0000000000
11
-19.6339977487
21
27.2240743799
31
0.0000000000
11
-19.6475841798
21
27.1964907152
31
0.0000000000
11
-19.6484302287
21
27.1889210913
31
0.0000000000
0
SPLINE
5
3DC
100
AcDbEntity
8
0
100
AcDbSpline
62
7
6
CONTINUOUS
70
0
71
3
72
11
73
7
74
5
42
0.0000001000
43
0.0000001000
44
0.0000000001
12
-0.3135412452
22
0.1130526626
32
0.0000000000
13
-0.1944155269
23
0.2707242505
33
0.0000000000
40
0.0000000000
40
0.0000000000
40
0.0000000000
40
0.0000000000
40
0.2053861453
40
0.4428797392
40
0.7094015230
40
1.0000000000
40
1.0000000000
40
1.0000000000
40
1.0000000000
10
-3.0949083220
20
23.2392579465
30
0.0000000000
10
-3.1163739979
20
23.2469977634
30
0.0000000000
10
-3.1606098523
20
23.2694016892
30
0.0000000000
10
-3.2244530374
20
23.3159867972
30
0.0000000000
10
-3.2884476163
20
23.3771880162
30
0.0000000000
10
-3.3272230683
20
23.4256659557
30
0.0000000000
10
-3.3460553536
20
23.4518899740
30
0.0000000000
11
-3.0949083220
21
23.2392579465
31
0.0000000000
11
-3.1564612174
21
23.2692139332
31
0.0000000000
11
-3.2207819299
21
23.3153509332
31
0.0000000000
11
-3.2851142730
21
23.3766080263
31
0.0000000000
11
-3.3460553536
21
23.4518899740
31
0.0000000000
0
SPLINE
5
3DD
100
AcDbEntity
8
0
100
AcDbSpline
62
7
6
CONTINUOUS
70
0
71
3
72
11
73
7
74
5
42
0.0000001000
43
0.0000001000
44
0.0000000001
12
-0.1110328703
22
-0.1077098360
32
0.0000000000
13
0.0041439666
23
-0.1640967849
33
0.0000000000
40
0.0000000000
40
0.0000000000
40
0.0000000000
40
0.0000000000
40
0.4398804507
40
0.7560080631
40
0.9547788912
40
1.0000000000
40
1.0000000000
40
1.0000000000
40
1.0000000000
10
-4.7710460050
20
23.7912442269
30
0.0000000000
10
-4.7873264014
20
23.7754510765
30
0.0000000000
10
-4.8141195660
20
23.7472049136
30
0.0000000000
10
-4.8442916468
20
23.7076602798
30
0.0000000000
10
-4.8596758308
20
23.6840975507
30
0.0000000000
10
-4.8616926804
20
23.6699936545
30
0.0000000000
10
-4.8616302155
20
23.6675201083
30
0.0000000000
11
-4.7710460050
21
23.7912442269
31
0.0000000000
11
-4.8175227908
21
23.7415432960
31
0.0000000000
11
-4.8471976464
21
23.7026735377
31
0.0000000000
11
-4.8607841625
21
23.6750897466
31
0.0000000000
11
-4.8616302155
21
23.6675201083
31
0.0000000000
0
SPLINE
5
3DE
100
AcDbEntity
8
0
100
AcDbSpline
62
9
6
CONTINUOUS
70
0
71
3
72
14
73
10
74
8
42
0.0000001000
43
0.0000001000
44
0.0000000001
12
0.0503190583
22
-1.0583551152
32
0.0000000000
13
1.0068544662
23
0.3299873353
33
0.0000000000
40
0.0000000000
40
0.0000000000
40
0.0000000000
40
0.0000000000
40
0.1795628612
40
0.3451675753
40
0.4944847484
40
0.6285240751
40
0.7521177991
40
0.8731674788
40
1.0000000000
40
1.0000000000
40
1.0000000000
40
1.0000000000
10
-5.8405179438
20
-20.2894511210
30
0.0000000000
10
-5.8375061325
20
-20.3527982119
30
0.0000000000
10
-5.8232387793
20
-20.4744311931
30
0.0000000000
10
-5.7741795082
20
-20.6430158725
30
0.0000000000
10
-5.6996388632
20
-20.7844809924
30
0.0000000000
10
-5.6016731850
20
-20.8922521709
30
0.0000000000
10
-5.4832255289
20
-20.9598036699
30
0.0000000000
10
-5.3510678427
20
-20.9813669657
30
0.0000000000
10
-5.2632892900
20
-20.9652885964
30
0.0000000000
10
-5.2207219932
20
-20.9513375545
30
0.0000000000
11
-5.8405179438
21
-20.2894511210
31
0.0000000000
11
-5.8172552891
21
-20.4782795439
31
0.0000000000
11
-5.7667448932
21
-20.6463188870
31
0.0000000000
11
-5.6912244279
21
-20.7853396791
31
0.0000000000
11
-5.5941335461
21
-20.8889903143
31
0.0000000000
11
-5.4797464339
21
-20.9527436569
31
0.0000000000
11
-5.3532226939
21
-20.9737656906
31
0.0000000000
11
-5.2207219932
21
-20.9513375545
31
0.0000000000
0
SPLINE
5
3DF
100
AcDbEntity
8
0
100
AcDbSpline
62
9
6
CONTINUOUS
70
0
71
3
72
9
73
5
74
3
42
0.0000001000
43
0.0000001000
44
0.0000000001
12
-0.1058612532
22
6.6268486690
32
0.0000000000
13
-0.0449446383
23
6.6275418903
33
0.0000000000
40
0.0000000000
40
0.0000000000
40
0.0000000000
40
0.0000000000
40
0.5012847262
40
1.0000000000
40
1.0000000000
40
1.0000000000
40
1.0000000000
10
-11.1224544973
20
2.3918548912
30
0.0000000000
10
-11.1401433738
20
3.4991675647
30
0.0000000000
10
-11.1703158370
20
5.7082017569
30
0.0000000000
10
-11.1903323556
20
7.9173511538
30
0.0000000000
10
-11.1978038815
20
9.0191032766
30
0.0000000000
11
-11.1224544973
21
2.3918548912
31
0.0000000000
11
-11.1678413132
21
5.7139067144
31
0.0000000000
11
-11.1978038815
21
9.0191032766
31
0.0000000000
0
SPLINE
5
3E0
100
AcDbEntity
8
0
100
AcDbSpline
62
7
6
CONTINUOUS
70
0
71
3
72
8
73
4
74
2
42
0.0000001000
43
0.0000001000
44
0.0000000001
12
0.0449732270
22
0.0025067493
32
0.0000000000
13
0.0442402024
23
-0.0117304614
33
0.0000000000
40
0.0000000000
40
0.0000000000
40
0.0000000000
40
0.0000000000
40
1.0000000000
40
1.0000000000
40
1.0000000000
40
1.0000000000
10
-7.8888024750
20
28.5041632469
30
0.0000000000
10
-7.8738113993
20
28.5049988300
30
0.0000000000
10
-7.8585664505
20
28.5054150909
30
0.0000000000
10
-7.8438197164
20
28.5015049371
30
0.0000000000
11
-7.8888024750
21
28.5041632469
31
0.0000000000
11
-7.8438197164
21
28.5015049371
31
0.0000000000
0
SPLINE
5
3E1
100
AcDbEntity
8
0
100
AcDbSpline
62
9
6
CONTINUOUS
70
0
71
3
72
10
73
6
74
4
42
0.0000001000
43
0.0000001000
44
0.0000000001
12
0.0833944474
22
0.0087551008
32
0.0000000000
13
-0.0132760113
23
-0.0610948188
33
0.0000000000
40
0.0000000000
40
0.0000000000
40
0.0000000000
40
0.0000000000
40
0.6639787204
40
0.9619413159
40
1.0000000000
40
1.0000000000
40
1.0000000000
40
1.0000000000
10
-1.8041716585
20
26.8588448698
30
0.0000000000
10
-1.7857142790
20
26.8607826033
30
0.0000000000
10
-1.7661699862
20
26.8635298791
30
0.0000000000
10
-1.7238690936
20
26.8631725014
30
0.0000000000
10
-1.7240012982
20
26.8568693329
30
0.0000000000
10
-1.7241697207
20
26.8560942701
30
0.0000000000
11
-1.8041716585
21
26.8588448698
31
0.0000000000
11
-1.7486582402
21
26.8631024994
31
0.0000000000
11
-1.7241553900
21
26.8582178416
31
0.0000000000
11
-1.7241697207
21
26.8560942701
31
0.0000000000
0
SPLINE
5
3E2
100
AcDbEntity
8
0
100
AcDbSpline
62
9
6
CONTINUOUS
70
0
71
3
72
9
73
5
74
3
42
0.0000001000
43
0.0000001000
44
0.0000000001
12
0.1112376437
22
0.0447640998
32
0.0000000000
13
0.1166399015
23
-0.0278016196
33
0.0000000000
40
0.0000000000
40
0.0000000000
40
0.0000000000
40
0.0000000000
40
0.5162835015
40
1.0000000000
40
1.0000000000
40
1.0000000000
40
1.0000000000
10
-2.0344133334
20
27.0786731368
30
0.0000000000
10
-2.0152699467
20
27.0863767922
30
0.0000000000
10
-1.9760225706
20
27.0967490015
30
0.0000000000
10
-1.9352837759
20
27.0942341756
30
0.0000000000
10
-1.9164768943
20
27.0897514749
30
0.0000000000
11
-2.0344133334
21
27.0786731368
31
0.0000000000
11
-1.9743468655
21
27.0936517714
31
0.0000000000
11
-1.9164768943
21
27.0897514749
31
0.0000000000
0
SPLINE
5
3E3
100
AcDbEntity
8
0
100
AcDbSpline
62
7
6
CONTINUOUS
70
0
71
3
72
13
73
9
74
7
42
0.0000001000
43
0.0000001000
44
0.0000000001
12
0.3682259559
22
0.3697258671
32
0.0000000000
13
0.4810006924
23
0.2023015210
33
0.0000000000
40
0.0000000000
40
0.0000000000
40
0.0000000000
40
0.0000000000
40
0.1436422639
40
0.3062382851
40
0.4811562311
40
0.6619179422
40
0.8394644901
40
1.0000000000
40
1.0000000000
40
1.0000000000
40
1.0000000000
10
-17.5100036926
20
-6.9305537854
30
0.0000000000
10
-17.4923727560
20
-6.9128510319
30
0.0000000000
10
-17.4537959425
20
-6.8760901952
30
0.0000000000
10
-17.3908700311
20
-6.8208787614
30
0.0000000000
10
-17.3207924372
20
-6.7641479534
30
0.0000000000
10
-17.2463324688
20
-6.7087398917
30
0.0000000000
10
-17.1710694145
20
-6.6590335528
30
0.0000000000
10
-17.1198553600
20
-6.6295614781
30
0.0000000000
10
-17.0941161295
20
-6.6187359522
30
0.0000000000
11
-17.5100036926
21
-6.9305537854
31
0.0000000000
11
-17.4558594204
21
-6.8787219953
31
0.0000000000
11
-17.3921343143
21
-6.8227067803
31
0.0000000000
11
-17.3212017258
21
-6.7652650117
31
0.0000000000
11
-17.2453893609
21
-6.7091452626
31
0.0000000000
11
-17.1680027485
21
-6.6582083160
31
0.0000000000
11
-17.0941161295
21
-6.6187359522
31
0.0000000000
0
SPLINE
5
3E4
100
AcDbEntity
8
0
100
AcDbSpline
62
9
6
CONTINUOUS
70
0
71
3
72
11
73
7
74
5
42
0.0000001000
43
0.0000001000
44
0.0000000001
12
0.4158218784
22
-0.0990258656
32
0.0000000000
13
0.3914175420
23
0.1717738759
33
0.0000000000
40
0.0000000000
40
0.0000000000
40
0.0000000000
40
0.0000000000
40
0.2459522346
40
0.5187692744
40
0.7816693529
40
1.0000000000
40
1.0000000000
40
1.0000000000
40
1.0000000000
10
-17.5925013732
20
-4.0996946972
30
0.0000000000
10
-17.5584105998
20
-4.1078132415
30
0.0000000000
10
-17.4847491618
20
-4.1175016649
30
0.0000000000
10
-17.3731083184
20
-4.1176800391
30
0.0000000000
10
-17.2662794683
20
-4.1045010955
30
0.0000000000
10
-17.1995904216
20
-4.0861638426
30
0.0000000000
10
-17.1711042732
20
-4.0736626755
30
0.0000000000
11
-17.5925013732
21
-4.0996946972
31
0.0000000000
11
-17.4884668735
21
-4.1148488124
31
0.0000000000
11
-17.3718516833
21
-4.1152223714
31
0.0000000000
11
-17.2604094699
21
-4.1007595447
31
0.0000000000
11
-17.1711042732
21
-4.0736626755
31
0.0000000000
0
SPLINE
5
3E5
100
AcDbEntity
8
0
100
AcDbSpline
62
7
6
CONTINUOUS
70
0
71
3
72
11
73
7
74
5
42
0.0000001000
43
0.0000001000
44
0.0000000001
12
-0.1875318338
22
0.2607654244
32
0.0000000000
13
-0.0097916714
23
0.3223073301
33
0.0000000000
40
0.0000000000
40
0.0000000000
40
0.0000000000
40
0.0000000000
40
0.2823377129
40
0.5606093659
40
0.8224083666
40
1.0000000000
40
1.0000000000
40
1.0000000000
40
1.0000000000
10
-12.8157814657
20
-8.0484588575
30
0.0000000000
10
-12.8334305687
20
-8.0239175530
30
0.0000000000
10
-12.8659857998
20
-7.9733215540
30
0.0000000000
10
-12.9048395187
20
-7.8940820716
30
0.0000000000
10
-12.9286661750
20
-7.8205923112
30
0.0000000000
10
-12.9351985589
20
-7.7738257822
30
0.0000000000
10
-12.9357781985
20
-7.7547460872
30
0.0000000000
11
-12.8157814657
21
-8.0484588575
31
0.0000000000
11
-12.8646823538
21
-7.9720873882
31
0.0000000000
11
-12.9036042052
21
-7.8916273241
31
0.0000000000
11
-12.9286021313
21
-7.8113401928
31
0.0000000000
11
-12.9357781985
21
-7.7547460872
31
0.0000000000
0
SPLINE
5
3E6
100
AcDbEntity
8
0
100
AcDbSpline
62
9
6
CONTINUOUS
70
0
71
3
72
10
73
6
74
4
42
0.0000001000
43
0.0000001000
44
0.0000000001
12
-0.1377660750
22
0.0328082882
32
0.0000000000
13
0.0082592516
23
0.1418091858
33
0.0000000000
40
0.0000000000
40
0.0000000000
40
0.0000000000
40
0.0000000000
40
0.5684170009
40
0.9257730715
40
1.0000000000
40
1.0000000000
40
1.0000000000
40
1.0000000000
10
-12.8982791463
20
-5.2175997694
30
0.0000000000
10
-12.9243820060
20
-5.2113835064
30
0.0000000000
10
-12.9640637724
20
-5.1993209690
30
0.0000000000
10
-13.0091564102
20
-5.1673869570
30
0.0000000000
10
-13.0105933202
20
-5.1473831263
30
0.0000000000
10
-13.0103889673
20
-5.1438744395
30
0.0000000000
11
-12.8982791463
21
-5.2175997694
31
0.0000000000
11
-12.9738885751
21
-5.1899732393
31
0.0000000000
11
-13.0095659045
21
-5.1540799134
31
0.0000000000
11
-13.0103889673
21
-5.1438744395
31
0.0000000000
0
SPLINE
5
3E7
100
AcDbEntity
8
0
100
AcDbSpline
62
9
6
CONTINUOUS
70
0
71
3
72
9
73
5
74
3
42
0.0000001000
43
0.0000001000
44
0.0000000001
12
-0.1409326749
22
8.2419528105
32
0.0000000000
13
-0.0467000865
23
8.2430255600
33
0.0000000000
40
0.0000000000
40
0.0000000000
40
0.0000000000
40
0.0000000000
40
0.5008531466
40
1.0000000000
40
1.0000000000
40
1.0000000000
40
1.0000000000
10
-21.0452297768
20
3.9522725416
30
0.0000000000
10
-21.0687586347
20
5.3282752080
30
0.0000000000
10
-21.1078233951
20
8.0757337477
30
0.0000000000
10
-21.1311765854
20
10.8233704361
30
0.0000000000
10
-21.1389466524
20
12.1948638597
30
0.0000000000
11
-21.0452297768
21
3.9522725416
31
0.0000000000
11
-21.1039487428
21
8.0804664068
31
0.0000000000
11
-21.1389466524
21
12.1948638597
31
0.0000000000
0
SPLINE
5
3E8
100
AcDbEntity
8
0
100
AcDbSpline
62
7
6
CONTINUOUS
70
0
71
3
72
11
73
7
74
5
42
0.0000001000
43
0.0000001000
44
0.0000000001
12
-0.1845199408
22
0.2619537152
32
0.0000000000
13
-0.0053822506
23
0.3217000501
33
0.0000000000
40
0.0000000000
40
0.0000000000
40
0.0000000000
40
0.0000000000
40
0.2792006873
40
0.5557277887
40
0.8163088546
40
1.0000000000
40
1.0000000000
40
1.0000000000
40
1.0000000000
10
-19.2711673595
20
3.1243510988
30
0.0000000000
10
-19.2883400576
20
3.1487303179
30
0.0000000000
10
-19.3200985627
20
3.1990326443
30
0.0000000000
10
-19.3580600603
20
3.2777415601
30
0.0000000000
10
-19.3815567410
20
3.3514708630
30
0.0000000000
10
-19.3878400436
20
3.3987235062
30
0.0000000000
10
-19.3881696009
20
3.4184213231
30
0.0000000000
11
-19.2711673595
21
3.1243510988
31
0.0000000000
11
-19.3187583320
21
3.2001028664
31
0.0000000000
11
-19.3568218724
21
3.2801144664
31
0.0000000000
11
-19.3812425191
21
3.3599580724
31
0.0000000000
11
-19.3881696009
21
3.4184213231
31
0.0000000000
0
SPLINE
5
3E9
100
AcDbEntity
8
0
100
AcDbSpline
62
7
6
CONTINUOUS
70
0
71
3
72
13
73
9
74
7
42
0.0000001000
43
0.0000001000
44
0.0000000001
12
0.3676944680
22
0.3656862724
32
0.0000000000
13
0.4780220426
23
0.2010487465
33
0.0000000000
40
0.0000000000
40
0.0000000000
40
0.0000000000
40
0.0000000000
40
0.1443502184
40
0.3081854014
40
0.4846336646
40
0.6666038745
40
0.8443416418
40
1.0000000000
40
1.0000000000
40
1.0000000000
40
1.0000000000
10
-21.4618043987
20
3.6460401325
30
0.0000000000
10
-21.4441121398
20
3.6636357635
30
0.0000000000
10
-21.4053354881
20
3.7001976579
30
0.0000000000
10
-21.3419728743
20
3.7550344346
30
0.0000000000
10
-21.2713211646
20
3.8112694292
30
0.0000000000
10
-21.1963031327
20
3.8657783602
30
0.0000000000
10
-21.1214603439
20
3.9141122917
30
0.0000000000
10
-21.0705782195
20
3.9416113750
30
0.0000000000
10
-21.0457755108
20
3.9520430142
30
0.0000000000
11
-21.4618043987
21
3.6460401325
31
0.0000000000
11
-21.4074544277
21
3.6975151845
31
0.0000000000
11
-21.3432639049
21
3.7531755010
31
0.0000000000
11
-21.2716654927
21
3.8101526581
31
0.0000000000
11
-21.1952226485
21
3.8654832070
31
0.0000000000
11
-21.1175531974
21
3.9151119318
31
0.0000000000
11
-21.0457755108
21
3.9520430142
31
0.0000000000
0
SPLINE
5
3EA
100
AcDbEntity
8
0
100
AcDbSpline
62
7
6
CONTINUOUS
70
0
71
3
72
13
73
9
74
7
42
0.0000001000
43
0.0000001000
44
0.0000000001
12
0.3676505049
22
0.3653483460
32
0.0000000000
13
0.4777736899
23
0.2009442932
33
0.0000000000
40
0.0000000000
40
0.0000000000
40
0.0000000000
40
0.0000000000
40
0.1444078218
40
0.3083458920
40
0.4849214424
40
0.6669924908
40
0.8447475535
40
1.0000000000
40
1.0000000000
40
1.0000000000
40
1.0000000000
10
-11.5393522562
20
2.0859737202
30
0.0000000000
10
-11.5216550534
20
2.1035601064
30
0.0000000000
10
-11.4828620627
20
2.1401049139
30
0.0000000000
10
-11.4194636582
20
2.1949098035
30
0.0000000000
10
-11.3487647715
20
2.2511031245
30
0.0000000000
10
-11.2737006588
20
2.3055365394
30
0.0000000000
10
-11.1988942881
20
2.3537587460
30
0.0000000000
10
-11.1480403554
20
2.3810938713
30
0.0000000000
10
-11.1233151773
20
2.3914929023
30
0.0000000000
11
-11.5393522562
21
2.0859737202
31
0.0000000000
11
-11.4849857740
21
2.1374181889
31
0.0000000000
11
-11.4207569631
21
2.1930483512
31
0.0000000000
11
-11.3491037177
21
2.2499861726
31
0.0000000000
11
-11.2726090656
21
2.3052506049
31
0.0000000000
11
-11.1949166169
21
2.3547709422
31
0.0000000000
11
-11.1233151773
21
2.3914929023
31
0.0000000000
0
SPLINE
5
3EB
100
AcDbEntity
8
0
100
AcDbSpline
62
7
6
CONTINUOUS
70
0
71
3
72
11
73
7
74
5
42
0.0000001000
43
0.0000001000
44
0.0000000001
12
-0.1842670024
22
0.2620435622
32
0.0000000000
13
-0.0050330764
23
0.3216379810
33
0.0000000000
40
0.0000000000
40
0.0000000000
40
0.0000000000
40
0.0000000000
40
0.2797343900
40
0.5559687269
40
0.8158571367
40
1.0000000000
40
1.0000000000
40
1.0000000000
40
1.0000000000
10
-9.3487152170
20
1.5642846865
30
0.0000000000
10
-9.3658971562
20
1.5887188852
30
0.0000000000
10
-9.3976199072
20
1.6390587823
30
0.0000000000
10
-9.4354839827
20
1.7177391350
30
0.0000000000
10
-9.4589096433
20
1.7914095965
30
0.0000000000
10
-9.4651593285
20
1.8386323862
30
0.0000000000
10
-9.4654682635
20
1.8583748325
30
0.0000000000
11
-9.3487152170
21
1.5642846865
31
0.0000000000
11
-9.3963208858
21
1.6402053174
31
0.0000000000
11
-9.4342661537
21
1.7201472085
31
0.0000000000
11
-9.4585669065
21
1.7997757844
31
0.0000000000
11
-9.4654682635
21
1.8583748325
31
0.0000000000
0
SPLINE
5
3EC
100
AcDbEntity
8
0
100
AcDbSpline
62
9
6
CONTINUOUS
70
0
71
3
72
9
73
5
74
3
42
0.0000001000
43
0.0000001000
44
0.0000000001
12
-0.0133729713
22
0.0036839927
32
0.0000000000
13
-0.0135060396
23
0.0031614961
33
0.0000000000
40
0.0000000000
40
0.0000000000
40
0.0000000000
40
0.0000000000
40
0.5057234098
40
1.0000000000
40
1.0000000000
40
1.0000000000
40
1.0000000000
10
-2.6102422730
20
22.1638756528
30
0.0000000000
10
-2.6124966146
20
22.1644966799
30
0.0000000000
10
-2.6169681939
20
22.1656742847
30
0.0000000000
10
-2.6214594052
20
22.1667744099
30
0.0000000000
10
-2.6236846449
20
22.1672952944
30
0.0000000000
11
-2.6102422730
21
22.1638756528
31
0.0000000000
11
-2.6170244003
21
22.1656679487
31
0.0000000000
11
-2.6236846449
21
22.1672952944
31
0.0000000000
0
SPLINE
5
3ED
100
AcDbEntity
8
0
100
AcDbSpline
62
9
6
CONTINUOUS
70
0
71
3
72
13
73
9
74
7
42
0.0000001000
43
0.0000001000
44
0.0000000001
12
-0.0663860350
22
2.3754475168
32
0.0000000000
13
2.1978257858
23
0.9232849196
33
0.0000000000
40
0.0000000000
40
0.0000000000
40
0.0000000000
40
0.0000000000
40
0.2207073433
40
0.4276394690
40
0.6206984556
40
0.8023236378
40
0.9772508708
40
1.0000000000
40
1.0000000000
40
1.0000000000
40
1.0000000000
10
-17.1711042733
20
-4.0736626725
30
0.0000000000
10
-17.1759882351
20
-3.8989031023
30
0.0000000000
10
-17.1567202427
20
-3.5584919757
30
0.0000000000
10
-17.0344857653
20
-3.0788332435
30
0.0000000000
10
-16.8248737887
20
-2.6638620777
30
0.0000000000
10
-16.5358374143
20
-2.3316211388
30
0.0000000000
10
-16.2810554668
20
-2.1648578797
30
0.0000000000
10
-16.1373798760
20
-2.1013168063
30
0.0000000000
10
-16.1207136684
20
-2.0943154970
30
0.0000000000
11
-17.1711042733
21
-4.0736626725
31
0.0000000000
11
-17.1387998630
21
-3.5501750708
31
0.0000000000
11
-17.0142540224
21
-3.0744600844
31
0.0000000000
11
-16.8042902920
21
-2.6665448732
31
0.0000000000
11
-16.5188238511
21
-2.3428232276
31
0.0000000000
11
-16.1703047486
21
-2.1162512634
31
0.0000000000
11
-16.1207136684
21
-2.0943154970
31
0.0000000000
0
SPLINE
5
3EE
100
AcDbEntity
8
0
100
AcDbSpline
62
9
6
CONTINUOUS
70
0
71
3
72
12
73
8
74
6
42
0.0000001000
43
0.0000001000
44
0.0000000001
12
-0.0406346484
22
0.7360234479
32
0.0000000000
13
-0.7153848123
23
0.1777814972
33
0.0000000000
40
0.0000000000
40
0.0000000000
40
0.0000000000
40
0.0000000000
40
0.2048466837
40
0.4167344139
40
0.6255378178
40
0.8219160541
40
1.0000000000
40
1.0000000000
40
1.0000000000
40
1.0000000000
10
-6.0033060163
20
19.7667245668
30
0.0000000000
10
-6.0060806407
20
19.8169818876
30
0.0000000000
10
-6.0251273058
20
19.9187694314
30
0.0000000000
10
-6.0866546094
20
20.0608654680
30
0.0000000000
10
-6.1764947561
20
20.1846673791
30
0.0000000000
10
-6.2864865875
20
20.2787136223
30
0.0000000000
10
-6.3719113627
20
20.3175788786
30
0.0000000000
10
-6.4143775462
20
20.3281322221
30
0.0000000000
11
-6.0033060163
21
19.7667245668
31
0.0000000000
11
-6.0301074262
21
19.9153285907
31
0.0000000000
11
-6.0919986723
21
20.0587348700
31
0.0000000000
11
-6.1829293706
21
20.1829219513
31
0.0000000000
11
-6.2940093306
21
20.2757467200
31
0.0000000000
11
-6.4143775462
21
20.3281322221
31
0.0000000000
0
SPLINE
5
3EF
100
AcDbEntity
8
0
100
AcDbSpline
62
9
6
CONTINUOUS
70
0
71
3
72
9
73
5
74
3
42
0.0000001000
43
0.0000001000
44
0.0000000001
12
-0.0782959392
22
2.5463213680
32
0.0000000000
13
-0.0691079184
23
2.5465872966
33
0.0000000000
40
0.0000000000
40
0.0000000000
40
0.0000000000
40
0.0000000000
40
0.4997992156
40
1.0000000000
40
1.0000000000
40
1.0000000000
40
1.0000000000
10
-17.0974075361
20
-6.6201202674
30
0.0000000000
10
-17.1104516191
20
-6.1959037932
30
0.0000000000
10
-17.1357804117
20
-5.3471061619
30
0.0000000000
10
-17.1595816616
20
-4.4982643269
30
0.0000000000
10
-17.1711042733
20
-4.0736626725
30
0.0000000000
11
-17.0974075361
21
-6.6201202674
31
0.0000000000
11
-17.1353886615
21
-5.3474359705
31
0.0000000000
11
-17.1711042733
21
-4.0736626725
31
0.0000000000
0
SPLINE
5
3F0
100
AcDbEntity
8
0
100
AcDbSpline
62
9
6
CONTINUOUS
70
0
71
3
72
11
73
7
74
5
42
0.0000001000
43
0.0000001000
44
0.0000000001
12
-0.6654222708
22
-0.2294082147
32
0.0000000000
13
-0.6845730297
23
0.1636297480
33
0.0000000000
40
0.0000000000
40
0.0000000000
40
0.0000000000
40
0.0000000000
40
0.2175316425
40
0.4804076043
40
0.7535855328
40
1.0000000000
40
1.0000000000
40
1.0000000000
40
1.0000000000
10
-6.5882485554
20
18.6151784046
30
0.0000000000
10
-6.6364986886
20
18.5985438893
30
0.0000000000
10
-6.7476438175
20
18.5756599453
30
0.0000000000
10
-6.9241773443
20
18.5621876937
30
0.0000000000
10
-7.1079979414
20
18.5681694548
30
0.0000000000
10
-7.2290967582
20
18.5858331204
30
0.0000000000
10
-7.2853263243
20
18.5992733661
30
0.0000000000
11
-6.5882485554
21
18.6151784046
31
0.0000000000
11
-6.7374390105
21
18.5807509425
31
0.0000000000
11
-6.9218498656
21
18.5656619936
31
0.0000000000
11
-7.1140183269
21
18.5721586312
31
0.0000000000
11
-7.2853263243
21
18.5992733661
31
0.0000000000
0
SPLINE
5
3F1
100
AcDbEntity
8
0
100
AcDbSpline
62
9
6
CONTINUOUS
70
0
71
3
72
11
73
7
74
5
42
0.0000001000
43
0.0000001000
44
0.0000000001
12
-0.6411586605
22
-0.3002295252
32
0.0000000000
13
-0.6888418382
23
0.1634598351
33
0.0000000000
40
0.0000000000
40
0.0000000000
40
0.0000000000
40
0.0000000000
40
0.2215005601
40
0.4845478653
40
0.7557632866
40
1.0000000000
40
1.0000000000
40
1.0000000000
40
1.0000000000
10
-5.8405179439
20
-20.2894511210
30
0.0000000000
10
-5.8878569447
20
-20.3116181237
30
0.0000000000
10
-5.9982564671
20
-20.3450766689
30
0.0000000000
10
-6.1751819350
20
-20.3705205396
30
0.0000000000
10
-6.3593650476
20
-20.3727990256
30
0.0000000000
10
-6.4807583567
20
-20.3576031412
30
0.0000000000
10
-6.5368385123
20
-20.3442955103
30
0.0000000000
11
-5.8405179439
21
-20.2894511210
31
0.0000000000
11
-5.9894244394
21
-20.3386249824
31
0.0000000000
11
-6.1735916880
21
-20.3662643636
31
0.0000000000
11
-6.3655938981
21
-20.3682532669
31
0.0000000000
11
-6.5368385123
21
-20.3442955103
31
0.0000000000
0
SPLINE
5
3F2
100
AcDbEntity
8
0
100
AcDbSpline
62
9
6
CONTINUOUS
70
0
71
3
72
11
73
7
74
5
42
0.0000001000
43
0.0000001000
44
0.0000000001
12
-0.0074215423
22
-0.4710910728
32
0.0000000000
13
-0.4509769754
23
-0.1484530068
33
0.0000000000
40
0.0000000000
40
0.0000000000
40
0.0000000000
40
0.0000000000
40
0.3077806535
40
0.5897804780
40
0.8477999559
40
1.0000000000
40
1.0000000000
40
1.0000000000
40
1.0000000000
10
-5.2207219932
20
-20.9513375545
30
0.0000000000
10
-5.2214833956
20
-20.9996684606
30
0.0000000000
10
-5.2342252530
20
-21.0927169512
30
0.0000000000
10
-5.2901691123
20
-21.2159555781
30
0.0000000000
10
-5.3686912911
20
-21.2951817968
30
0.0000000000
10
-5.4277483985
20
-21.3234147926
30
0.0000000000
10
-5.4506279704
20
-21.3309463107
30
0.0000000000
11
-5.2207219932
21
-20.9513375545
31
0.0000000000
11
-5.2419108593
21
-21.0947918605
31
0.0000000000
11
-5.2987388005
21
-21.2148895291
31
0.0000000000
11
-5.3856495165
21
-21.2998881192
31
0.0000000000
11
-5.4506279704
21
-21.3309463107
31
0.0000000000
0
SPLINE
5
3F3
100
AcDbEntity
8
0
100
AcDbSpline
62
7
6
CONTINUOUS
70
0
71
3
72
11
73
7
74
5
42
0.0000001000
43
0.0000001000
44
0.0000000001
12
0.0029783651
22
-0.4393674911
32
0.0000000000
13
-0.4062292203
23
-0.1764962199
33
0.0000000000
40
0.0000000000
40
0.0000000000
40
0.0000000000
40
0.0000000000
40
0.3111146857
40
0.5969924880
40
0.8625917710
40
1.0000000000
40
1.0000000000
40
1.0000000000
40
1.0000000000
10
-0.3532566881
20
-19.3550679457
30
0.0000000000
10
-0.3529478171
20
-19.4006325054
30
0.0000000000
10
-0.3623727532
20
-19.4886729921
30
0.0000000000
10
-0.4105630897
20
-19.6075236186
30
0.0000000000
10
-0.4793496352
20
-19.6847105069
30
0.0000000000
10
-0.5312875611
20
-19.7144577283
30
0.0000000000
10
-0.5498939736
20
-19.7225417393
30
0.0000000000
11
-0.3532566881
21
-19.3550679457
31
0.0000000000
11
-0.3692694055
21
-19.4908236577
31
0.0000000000
11
-0.4182143494
21
-19.6065035486
31
0.0000000000
11
-0.4972301401
21
-19.6923814549
31
0.0000000000
11
-0.5498939736
21
-19.7225417393
31
0.0000000000
0
SPLINE
5
3F4
100
AcDbEntity
8
0
100
AcDbSpline
62
7
6
CONTINUOUS
70
0
71
3
72
12
73
8
74
6
42
0.0000001000
43
0.0000001000
44
0.0000000001
12
0.6955551292
22
-0.2006150203
32
0.0000000000
13
0.0229989023
23
-0.7235429321
33
0.0000000000
40
0.0000000000
40
0.0000000000
40
0.0000000000
40
0.0000000000
40
0.1853924301
40
0.3877396682
40
0.5943278615
40
0.8004474574
40
1.0000000000
40
1.0000000000
40
1.0000000000
40
1.0000000000
10
-1.5377779578
20
22.6846907986
30
0.0000000000
10
-1.4947944060
20
22.6722932966
30
0.0000000000
10
-1.4095036165
20
22.6293671653
30
0.0000000000
10
-1.3035230632
20
22.5306129423
30
0.0000000000
10
-1.2208865313
20
22.4058099236
30
0.0000000000
10
-1.1670502527
20
22.2671055356
30
0.0000000000
10
-1.1519437825
20
22.1693722182
30
0.0000000000
10
-1.1504139527
20
22.1212439409
30
0.0000000000
11
-1.5377779578
21
22.6846907986
31
0.0000000000
11
-1.4169250562
21
22.6263287366
31
0.0000000000
11
-1.3086811477
21
22.5276378139
31
0.0000000000
11
-1.2256245439
21
22.4032711031
31
0.0000000000
11
-1.1717817138
21
22.2641126283
31
0.0000000000
11
-1.1504139527
21
22.1212439409
31
0.0000000000
0
SPLINE
5
3F5
100
AcDbEntity
8
0
100
AcDbSpline
62
9
6
CONTINUOUS
70
0
71
3
72
9
73
5
74
3
42
0.0000001000
43
0.0000001000
44
0.0000000001
12
-0.0132191725
22
0.0032024418
32
0.0000000000
13
-0.0133364486
23
0.0026723201
33
0.0000000000
40
0.0000000000
40
0.0000000000
40
0.0000000000
40
0.0000000000
40
0.4971463088
40
1.0000000000
40
1.0000000000
40
1.0000000000
40
1.0000000000
10
-19.2153108189
20
26.1185064127
30
0.0000000000
10
-19.2175014399
20
26.1190371067
30
0.0000000000
10
-19.2219188216
20
26.1200594147
30
0.0000000000
10
-19.2263539812
20
26.1210019440
30
0.0000000000
10
-19.2285894087
20
26.1214498727
30
0.0000000000
11
-19.2153108189
21
26.1185064127
31
0.0000000000
11
-19.2218980038
21
26.1200338624
31
0.0000000000
11
-19.2285894087
21
26.1214498727
31
0.0000000000
0
SPLINE
5
3F6
100
AcDbEntity
8
0
100
AcDbSpline
62
9
6
CONTINUOUS
70
0
71
3
72
14
73
10
74
8
42
0.0000001000
43
0.0000001000
44
0.0000000001
12
-1.8138501414
22
-0.8897711913
32
0.0000000000
13
-0.0165461893
23
-2.0202651638
33
0.0000000000
40
0.0000000000
40
0.0000000000
40
0.0000000000
40
0.0000000000
40
0.1159892578
40
0.2449619943
40
0.3858001292
40
0.5356468588
40
0.6908751425
40
0.8471053155
40
1.0000000000
40
1.0000000000
40
1.0000000000
40
1.0000000000
10
-6.4143775479
20
20.3281322213
30
0.0000000000
10
-6.4845065918
20
20.2937309212
30
0.0000000000
10
-6.6229820332
20
20.2008477736
30
0.0000000000
10
-6.8056894602
20
20.0142859507
30
0.0000000000
10
-6.9677289073
20
19.7813179738
30
0.0000000000
10
-7.1023375132
20
19.5118490705
30
0.0000000000
10
-7.2039201545
20
19.2173509840
30
0.0000000000
10
-7.2681261172
20
18.9105021599
30
0.0000000000
10
-7.2844830538
20
18.7022359662
30
0.0000000000
10
-7.2853263286
20
18.5992733646
30
0.0000000000
11
-6.4143775479
21
20.3281322213
31
0.0000000000
11
-6.6106056023
21
20.2000371751
31
0.0000000000
11
-6.7946784406
21
20.0156115732
31
0.0000000000
11
-6.9585014576
21
19.7829638022
31
0.0000000000
11
-7.0947023063
21
19.5125918244
31
0.0000000000
11
-7.1973604924
21
19.2162570600
31
0.0000000000
11
-7.2618477791
21
18.9072779647
31
0.0000000000
11
-7.2853263286
21
18.5992733646
31
0.0000000000
0
SPLINE
5
3F7
100
AcDbEntity
8
0
100
AcDbSpline
62
9
6
CONTINUOUS
70
0
71
3
72
13
73
9
74
7
42
0.0000001000
43
0.0000001000
44
0.0000000001
12
0.0131762102
22
1.7802756950
32
0.0000000000
13
1.3583188378
23
1.1586393976
33
0.0000000000
40
0.0000000000
40
0.0000000000
40
0.0000000000
40
0.0000000000
40
0.1735835736
40
0.3509118031
40
0.5268975783
40
0.6964217871
40
0.8552372221
40
1.0000000000
40
1.0000000000
40
1.0000000000
40
1.0000000000
10
-23.6881110801
20
22.5055128616
30
0.0000000000
10
-23.6873486889
20
22.6085217340
30
0.0000000000
10
-23.6715747854
20
22.8168582274
30
0.0000000000
10
-23.6094165126
20
23.1240484662
30
0.0000000000
10
-23.5109749702
20
23.4191515802
30
0.0000000000
10
-23.3804759963
20
23.6894619173
30
0.0000000000
10
-23.2233501691
20
23.9234843955
30
0.0000000000
10
-23.0991125379
20
24.0551725584
30
0.0000000000
10
-23.0335678685
20
24.1110818443
30
0.0000000000
11
-23.6881110801
21
22.5055128616
31
0.0000000000
11
-23.6654732804
21
22.8137176820
31
0.0000000000
11
-23.6030002441
21
23.1231764608
31
0.0000000000
11
-23.5034409628
21
23.4202492136
31
0.0000000000
11
-23.3712841758
21
23.6915842640
31
0.0000000000
11
-23.2122751109
21
23.9253784531
31
0.0000000000
11
-23.0335678685
21
24.1110818443
31
0.0000000000
0
SPLINE
5
3F8
100
AcDbEntity
8
0
100
AcDbSpline
62
9
6
CONTINUOUS
70
0
71
3
72
8
73
4
74
2
42
0.0000001000
43
0.0000001000
44
0.0000000001
12
0.1757536541
22
0.1499170167
32
0.0000000000
13
0.2050266811
23
0.1050166702
33
0.0000000000
40
0.0000000000
40
0.0000000000
40
0.0000000000
40
0.0000000000
40
1.0000000000
40
1.0000000000
40
1.0000000000
40
1.0000000000
10
-23.0335678685
20
24.1110818443
30
0.0000000000
10
-22.9749833172
20
24.1610541832
30
0.0000000000
10
-22.9113646378
20
24.2055246152
30
0.0000000000
10
-22.8430224108
20
24.2405301719
30
0.0000000000
11
-23.0335678685
21
24.1110818443
31
0.0000000000
11
-22.8430224108
21
24.2405301719
31
0.0000000000
0
SPLINE
5
3F9
100
AcDbEntity
8
0
100
AcDbSpline
62
9
6
CONTINUOUS
70
0
71
3
72
13
73
9
74
7
42
0.0000001000
43
0.0000001000
44
0.0000000001
12
0.0589773955
22
-1.2475210211
32
0.0000000000
13
1.2205711133
23
-0.2911318559
33
0.0000000000
40
0.0000000000
40
0.0000000000
40
0.0000000000
40
0.0000000000
40
0.2291297821
40
0.4393452815
40
0.6286004493
40
0.7982240299
40
0.9543806216
40
1.0000000000
40
1.0000000000
40
1.0000000000
40
1.0000000000
10
-6.5368472379
20
-20.3442997341
30
0.0000000000
10
-6.5323427454
20
-20.4395811407
30
0.0000000000
10
-6.5110161443
20
-20.6220760315
30
0.0000000000
10
-6.4378426474
20
-20.8747641982
30
0.0000000000
10
-6.3269764889
20
-21.0863771314
30
0.0000000000
10
-6.1813460919
20
-21.2475996853
30
0.0000000000
10
-6.0446149204
20
-21.3260934762
30
0.0000000000
10
-5.9635745515
20
-21.3499373285
30
0.0000000000
10
-5.9450139864
20
-21.3543644133
30
0.0000000000
11
-6.5368472379
21
-20.3442997341
31
0.0000000000
11
-6.5019883180
21
-20.6283321050
31
0.0000000000
11
-6.4267293843
21
-20.8798553631
31
0.0000000000
11
-6.3143746224
21
-21.0878075412
31
0.0000000000
11
-6.1699964705
21
-21.2428346029
31
0.0000000000
11
-5.9998739064
21
-21.3381946287
31
0.0000000000
11
-5.9450139864
21
-21.3543644133
31
0.0000000000
0
SPLINE
5
3FA
100
AcDbEntity
8
0
100
AcDbSpline
62
9
6
CONTINUOUS
70
0
71
3
72
9
73
5
74
3
42
0.0000001000
43
0.0000001000
44
0.0000000001
12
-0.0588126705
22
0.0141721106
32
0.0000000000
13
-0.0558635143
23
-0.0220008835
33
0.0000000000
40
0.0000000000
40
0.0000000000
40
0.0000000000
40
0.0000000000
40
0.0249622785
40
1.0000000000
40
1.0000000000
40
1.0000000000
40
1.0000000000
10
-17.5042934586
20
28.7833950845
30
0.0000000000
10
-17.5047828246
20
28.7835130073
30
0.0000000000
10
-17.5244331256
20
28.7880549099
30
0.0000000000
10
-17.5458721252
20
28.7851922484
30
0.0000000000
10
-17.5640284698
20
28.7780416846
30
0.0000000000
11
-17.5042934586
21
28.7833950845
31
0.0000000000
11
-17.5057649718
21
28.7837351458
31
0.0000000000
11
-17.5640284698
21
28.7780416846
31
0.0000000000
0
SPLINE
5
3FB
100
AcDbEntity
8
0
100
AcDbSpline
62
7
6
CONTINUOUS
70
0
71
3
72
8
73
4
74
2
42
0.0000001000
43
0.0000001000
44
0.0000000001
12
0.0089509982
22
-0.0078566693
32
0.0000000000
13
0.0079095469
23
-0.0088180201
33
0.0000000000
40
0.0000000000
40
0.0000000000
40
0.0000000000
40
0.0000000000
40
1.0000000000
40
1.0000000000
40
1.0000000000
40
1.0000000000
10
-1.7197184789
20
-20.1073324878
30
0.0000000000
10
-1.7167348128
20
-20.1099513776
30
0.0000000000
10
-1.7139144144
20
-20.1127541980
30
0.0000000000
10
-1.7112778988
20
-20.1156935381
30
0.0000000000
11
-1.7197184789
21
-20.1073324878
31
0.0000000000
11
-1.7112778988
21
-20.1156935381
31
0.0000000000
0
SPLINE
5
3FC
100
AcDbEntity
8
0
100
AcDbSpline
62
7
6
CONTINUOUS
70
0
71
3
72
9
73
5
74
3
42
0.0000001000
43
0.0000001000
44
0.0000000001
12
0.0836298443
22
-0.0932353853
32
0.0000000000
13
0.0023778200
23
-0.1236587004
33
0.0000000000
40
0.0000000000
40
0.0000000000
40
0.0000000000
40
0.0000000000
40
0.4579056417
40
1.0000000000
40
1.0000000000
40
1.0000000000
40
1.0000000000
10
-1.7112778988
20
-20.1156935381
30
0.0000000000
10
-1.6985130396
20
-20.1299245411
30
0.0000000000
10
-1.6800496059
20
-20.1679916038
30
0.0000000000
10
-1.6744019709
20
-20.2093882894
30
0.0000000000
10
-1.6739723033
20
-20.2317331840
30
0.0000000000
11
-1.7112778988
21
-20.1156935381
31
0.0000000000
11
-1.6842912043
21
-20.1654849339
31
0.0000000000
11
-1.6739723033
21
-20.2317331840
31
0.0000000000
0
SPLINE
5
3FD
100
AcDbEntity
8
0
100
AcDbSpline
62
7
6
CONTINUOUS
70
0
71
3
72
9
73
5
74
3
42
0.0000001000
43
0.0000001000
44
0.0000000001
12
0.0360205309
22
0.0138888623
32
0.0000000000
13
0.0385219927
23
0.0032582880
33
0.0000000000
40
0.0000000000
40
0.0000000000
40
0.0000000000
40
0.0000000000
40
0.3673559267
40
1.0000000000
40
1.0000000000
40
1.0000000000
40
1.0000000000
10
-18.1321625996
20
28.5908630030
30
0.0000000000
10
-18.1277518145
20
28.5925637216
30
0.0000000000
10
-18.1155098525
20
28.5965639822
30
0.0000000000
10
-18.1027747374
20
28.5987198361
30
0.0000000000
10
-18.0946511673
20
28.5994069483
30
0.0000000000
11
-18.1321625996
21
28.5908630030
31
0.0000000000
11
-18.1186909487
21
28.5952538571
31
0.0000000000
11
-18.0946511673
21
28.5994069483
31
0.0000000000
0
SPLINE
5
3FE
100
AcDbEntity
8
0
100
AcDbSpline
62
7
6
CONTINUOUS
70
0
71
3
72
8
73
4
74
2
42
0.0000001000
43
0.0000001000
44
0.0000000001
12
0.0507656237
22
0.0042938854
32
0.0000000000
13
0.0489626441
23
-0.0116602039
33
0.0000000000
40
0.0000000000
40
0.0000000000
40
0.0000000000
40
0.0000000000
40
1.0000000000
40
1.0000000000
40
1.0000000000
40
1.0000000000
10
-18.0946511673
20
28.5994069483
30
0.0000000000
10
-18.0777292927
20
28.6008382434
30
0.0000000000
10
-18.0605176723
20
28.5993329165
30
0.0000000000
10
-18.0441967909
20
28.5954461819
30
0.0000000000
11
-18.0946511673
21
28.5994069483
31
0.0000000000
11
-18.0441967909
21
28.5954461819
31
0.0000000000
0
SPLINE
5
3FF
100
AcDbEntity
8
0
100
AcDbSpline
62
7
6
CONTINUOUS
70
0
71
3
72
9
73
5
74
3
42
0.0000001000
43
0.0000001000
44
0.0000000001
12
-0.2374917482
22
0.0564268260
32
0.0000000000
13
-0.2251963800
23
-0.0886897180
33
0.0000000000
40
0.0000000000
40
0.0000000000
40
0.0000000000
40
0.0000000000
40
0.3354654965
40
1.0000000000
40
1.0000000000
40
1.0000000000
40
1.0000000000
10
-5.7379851504
20
27.7066455736
30
0.0000000000
10
-5.7645419129
20
27.7129553247
30
0.0000000000
10
-5.8458608686
20
27.7229168971
30
0.0000000000
10
-5.9270003162
20
27.7050526116
30
0.0000000000
10
-5.9768839044
20
27.6854068190
30
0.0000000000
11
-5.7379851504
21
27.7066455736
31
0.0000000000
11
-5.8190811193
21
27.7165074110
31
0.0000000000
11
-5.9768839044
21
27.6854068190
31
0.0000000000
0
SPLINE
5
400
100
AcDbEntity
8
0
100
AcDbSpline
62
9
6
CONTINUOUS
70
0
71
3
72
9
73
5
74
3
42
0.0000001000
43
0.0000001000
44
0.0000000001
12
0.0906656065
22
0.0423571965
32
0.0000000000
13
0.0964218309
23
-0.0220576136
33
0.0000000000
40
0.0000000000
40
0.0000000000
40
0.0000000000
40
0.0000000000
40
0.2385945060
40
1.0000000000
40
1.0000000000
40
1.0000000000
40
1.0000000000
10
-19.5138270264
20
27.9518213923
30
0.0000000000
10
-19.5066162546
20
27.9551901238
30
0.0000000000
10
-19.4752233317
20
27.9667432397
30
0.0000000000
10
-19.4406143905
20
27.9661812584
30
0.0000000000
10
-19.4161423532
20
27.9605829957
30
0.0000000000
11
-19.5138270264
21
27.9518213923
31
0.0000000000
11
-19.4914528174
21
27.9600134635
31
0.0000000000
11
-19.4161423532
21
27.9605829957
31
0.0000000000
0
SPLINE
5
401
100
AcDbEntity
8
0
100
AcDbSpline
62
9
6
CONTINUOUS
70
0
71
3
72
10
73
6
74
4
42
0.0000001000
43
0.0000001000
44
0.0000000001
12
-0.3245274439
22
-38.9149316800
32
0.0000000000
13
1.8427609870
23
-38.8726312161
33
0.0000000000
40
0.0000000000
40
0.0000000000
40
0.0000000000
40
0.0000000000
40
0.3356871178
40
0.6690663760
40
1.0000000000
40
1.0000000000
40
1.0000000000
40
1.0000000000
10
-6.5882485554
20
18.6151784046
30
0.0000000000
10
-6.6245617828
20
14.2607646532
30
0.0000000000
10
-6.6182849870
20
5.5809931034
30
0.0000000000
10
-6.3698584916
20
-7.3893927611
30
0.0000000000
10
-6.0437951344
20
-16.0013642136
30
0.0000000000
10
-5.8405179438
20
-20.2894511210
30
0.0000000000
11
-6.5882485554
21
18.6151784046
31
0.0000000000
11
-6.5780027642
21
5.5514869301
31
0.0000000000
11
-6.3286963639
21
-7.4199996835
31
0.0000000000
11
-5.8405179438
21
-20.2894511210
31
0.0000000000
0
SPLINE
5
402
100
AcDbEntity
8
0
100
AcDbSpline
62
7
6
CONTINUOUS
70
0
71
3
72
10
73
6
74
4
42
0.0000001000
43
0.0000001000
44
0.0000000001
12
-0.2923198777
22
0.0695294772
32
0.0000000000
13
-0.2785189240
23
-0.1113030637
33
0.0000000000
40
0.0000000000
40
0.0000000000
40
0.0000000000
40
0.0000000000
40
0.0475893118
40
0.5689518814
40
1.0000000000
40
1.0000000000
40
1.0000000000
40
1.0000000000
10
2.2820047900
20
25.7969199326
30
0.0000000000
10
2.2773676894
20
25.7980228860
30
0.0000000000
10
2.2218046517
20
25.8107292527
30
0.0000000000
10
2.1215509894
20
25.8226585141
30
0.0000000000
10
2.0257656780
20
25.8051391446
30
0.0000000000
10
1.9857473252
20
25.7891468192
30
0.0000000000
11
2.2820047900
21
25.7969199326
31
0.0000000000
11
2.2680623495
21
25.8001070918
31
0.0000000000
11
2.1124059417
21
25.8150813928
31
0.0000000000
11
1.9857473252
21
25.7891468192
31
0.0000000000
0
SPLINE
5
403
100
AcDbEntity
8
0
100
AcDbSpline
62
9
6
CONTINUOUS
70
0
71
3
72
10
73
6
74
4
42
0.0000001000
43
0.0000001000
44
0.0000000001
12
-1.7985073649
22
38.9133290573
32
0.0000000000
13
0.2790678311
23
38.9538692328
33
0.0000000000
40
0.0000000000
40
0.0000000000
40
0.0000000000
40
0.0000000000
40
0.3308643471
40
0.6642461287
40
1.0000000000
40
1.0000000000
40
1.0000000000
40
1.0000000000
10
-22.9396319895
20
-16.4380602371
30
0.0000000000
10
-23.1379859778
20
-12.1463825000
30
0.0000000000
10
-23.4575477148
20
-3.5265347136
30
0.0000000000
10
-23.7062325518
20
9.4566548741
30
0.0000000000
10
-23.7193437817
20
18.1458753953
30
0.0000000000
10
-23.6881110801
20
22.5055128616
30
0.0000000000
11
-22.9396319895
21
-16.4380602371
31
0.0000000000
11
-23.4180351319
21
-3.5581646876
31
0.0000000000
11
-23.6675907139
21
9.4262809352
31
0.0000000000
11
-23.6881110801
21
22.5055128616
31
0.0000000000
0
SPLINE
5
404
100
AcDbEntity
8
0
100
AcDbSpline
62
9
6
CONTINUOUS
70
0
71
3
72
10
73
6
74
4
42
0.0000001000
43
0.0000001000
44
0.0000000001
12
-0.3248302605
22
-38.9538855593
32
0.0000000000
13
1.8445833424
23
-38.9115436235
33
0.0000000000
40
0.0000000000
40
0.0000000000
40
0.0000000000
40
0.0000000000
40
0.3356876473
40
0.6690662535
40
1.0000000000
40
1.0000000000
40
1.0000000000
40
1.0000000000
10
-7.2853263286
20
18.5992733646
30
0.0000000000
10
-7.3216734972
20
14.2404939658
30
0.0000000000
10
-7.3153867404
20
5.5520356131
30
0.0000000000
10
-7.0667114606
20
-7.4313335197
30
0.0000000000
10
-6.7403255300
20
-16.0519187627
30
0.0000000000
10
-6.5368472379
20
-20.3442997341
30
0.0000000000
11
-7.2853263286
21
18.5992733646
31
0.0000000000
11
-7.2750649445
21
5.5224845624
31
0.0000000000
11
-7.0255093623
21
-7.4619610605
31
0.0000000000
11
-6.5368472379
21
-20.3442997341
31
0.0000000000
0
SPLINE
5
405
100
AcDbEntity
8
0
100
AcDbSpline
62
9
6
CONTINUOUS
70
0
71
3
72
10
73
6
74
4
42
0.0000001000
43
0.0000001000
44
0.0000000001
12
-0.0069444490
22
-0.1179144503
32
0.0000000000
13
0.1140248627
23
-0.0271544393
33
0.0000000000
40
0.0000000000
40
0.0000000000
40
0.0000000000
40
0.0000000000
40
0.0756725678
40
0.4315556426
40
1.0000000000
40
1.0000000000
40
1.0000000000
40
1.0000000000
10
-3.9897413041
20
-21.6544900024
30
0.0000000000
10
-3.9899164722
20
-21.6574642988
30
0.0000000000
10
-3.9886654853
20
-21.6740866508
30
0.0000000000
10
-3.9506575914
20
-21.6996626446
30
0.0000000000
10
-3.9180440087
20
-21.7096843006
30
0.0000000000
10
-3.8964384121
20
-21.7148295632
30
0.0000000000
11
-3.9897413041
21
-21.6544900024
31
0.0000000000
11
-3.9890118904
21
-21.6631219838
31
0.0000000000
11
-3.9591098875
21
-21.6922073186
31
0.0000000000
11
-3.8964384121
21
-21.7148295632
31
0.0000000000
0
SPLINE
5
406
100
AcDbEntity
8
0
100
AcDbSpline
62
9
6
CONTINUOUS
70
0
71
3
72
10
73
6
74
4
42
0.0000001000
43
0.0000001000
44
0.0000000001
12
-0.2108831518
22
0.0513264412
32
0.0000000000
13
-0.0041392768
23
0.2153677122
33
0.0000000000
40
0.0000000000
40
0.0000000000
40
0.0000000000
40
0.0000000000
40
0.2678937084
40
0.6001277525
40
1.0000000000
40
1.0000000000
40
1.0000000000
40
1.0000000000
10
-2.3738928276
20
-22.2318808979
30
0.0000000000
10
-2.3927242508
20
-22.2272975544
30
0.0000000000
10
-2.4310754277
20
-22.2019582192
30
0.0000000000
10
-2.4636589784
20
-22.1356522856
30
0.0000000000
10
-2.4708960333
20
-22.0828903398
30
0.0000000000
10
-2.4714477607
20
-22.0541838161
30
0.0000000000
11
-2.3738928276
21
-22.2318808979
31
0.0000000000
11
-2.4232181393
21
-22.2017949162
31
0.0000000000
11
-2.4580328694
21
-22.1392682497
31
0.0000000000
11
-2.4714477607
21
-22.0541838161
31
0.0000000000
0
SPLINE
5
407
100
AcDbEntity
8
0
100
AcDbSpline
62
9
6
CONTINUOUS
70
0
71
3
72
10
73
6
74
4
42
0.0000001000
43
0.0000001000
44
0.0000000001
12
-0.2111851251
22
0.0508893564
32
0.0000000000
13
-0.0041428094
23
0.2155515127
33
0.0000000000
40
0.0000000000
40
0.0000000000
40
0.0000000000
40
0.0000000000
40
0.2685179746
40
0.6004687232
40
1.0000000000
40
1.0000000000
40
1.0000000000
40
1.0000000000
10
-3.7987034537
20
-21.8925702434
30
0.0000000000
10
-3.8176057877
20
-21.8880153410
30
0.0000000000
10
-3.8560382714
20
-21.8626605535
30
0.0000000000
10
-3.8886496298
20
-21.7962980327
30
0.0000000000
10
-3.8958866848
20
-21.7435360869
30
0.0000000000
10
-3.8964384121
20
-21.7148295632
30
0.0000000000
11
-3.7987034537
21
-21.8925702434
31
0.0000000000
11
-3.8482087907
21
-21.8624406633
31
0.0000000000
11
-3.8830235208
21
-21.7999139968
31
0.0000000000
11
-3.8964384121
21
-21.7148295632
31
0.0000000000
0
SPLINE
5
408
100
AcDbEntity
8
0
100
AcDbSpline
62
9
6
CONTINUOUS
70
0
71
3
72
9
73
5
74
3
42
0.0000001000
43
0.0000001000
44
0.0000000001
12
0.0459199849
22
-7.2252522359
32
0.0000000000
13
0.1182746096
23
-7.2244300560
33
0.0000000000
40
0.0000000000
40
0.0000000000
40
0.0000000000
40
0.0000000000
40
0.5004872028
40
1.0000000000
40
1.0000000000
40
1.0000000000
40
1.0000000000
10
-9.4307427830
20
8.7891945654
30
0.0000000000
10
-9.4230819948
20
7.5838124719
30
0.0000000000
10
-9.4017746300
20
5.1754294092
30
0.0000000000
10
-9.3684084440
20
2.7671831084
30
0.0000000000
10
-9.3487152170
20
1.5642846865
30
0.0000000000
11
-9.4307427830
21
8.7891945654
31
0.0000000000
11
-9.3987332847
21
5.1731169246
31
0.0000000000
11
-9.3487152170
21
1.5642846865
31
0.0000000000
0
SPLINE
5
409
100
AcDbEntity
8
0
100
AcDbSpline
62
9
6
CONTINUOUS
70
0
71
3
72
9
73
5
74
3
42
0.0000001000
43
0.0000001000
44
0.0000000001
12
-0.1182746096
22
7.2244300560
32
0.0000000000
13
-0.0459199849
23
7.2252522359
33
0.0000000000
40
0.0000000000
40
0.0000000000
40
0.0000000000
40
0.0000000000
40
0.4995127972
40
1.0000000000
40
1.0000000000
40
1.0000000000
40
1.0000000000
10
-11.5393522562
20
2.0859737202
30
0.0000000000
10
-11.5590454833
20
3.2888721421
30
0.0000000000
10
-11.5924116692
20
5.6971184428
30
0.0000000000
10
-11.6137190340
20
8.1055015055
30
0.0000000000
10
-11.6213798223
20
9.3108835991
30
0.0000000000
11
-11.5393522562
21
2.0859737202
31
0.0000000000
11
-11.5893703240
21
5.6948059583
31
0.0000000000
11
-11.6213798223
21
9.3108835991
31
0.0000000000
0
SPLINE
5
40A
100
AcDbEntity
8
0
100
AcDbSpline
62
9
6
CONTINUOUS
70
0
71
3
72
9
73
5
74
3
42
0.0000001000
43
0.0000001000
44
0.0000000001
12
0.0463299774
22
-8.8414984434
32
0.0000000000
13
0.1546752592
23
-8.8402667808
33
0.0000000000
40
0.0000000000
40
0.0000000000
40
0.0000000000
40
0.0000000000
40
0.5005961845
40
1.0000000000
40
1.0000000000
40
1.0000000000
40
1.0000000000
10
-19.3715422043
20
11.9653596576
30
0.0000000000
10
-19.3638113343
20
10.4900195289
30
0.0000000000
10
-19.3393920389
20
7.5428934692
30
0.0000000000
10
-19.2969158310
20
4.5959720856
30
0.0000000000
10
-19.2711673595
20
3.1243510988
30
0.0000000000
11
-19.3715422043
21
11.9653596576
31
0.0000000000
11
-19.3348379223
21
7.5394306986
31
0.0000000000
11
-19.2711673595
21
3.1243510988
31
0.0000000000
0
SPLINE
5
40B
100
AcDbEntity
8
0
100
AcDbSpline
62
9
6
CONTINUOUS
70
0
71
3
72
9
73
5
74
3
42
0.0000001000
43
0.0000001000
44
0.0000000001
12
-0.1546752592
22
8.8402667808
32
0.0000000000
13
-0.0463299774
23
8.8414984434
33
0.0000000000
40
0.0000000000
40
0.0000000000
40
0.0000000000
40
0.0000000000
40
0.4994038155
40
1.0000000000
40
1.0000000000
40
1.0000000000
40
1.0000000000
10
-21.4618043987
20
3.6460401325
30
0.0000000000
10
-21.4875528703
20
5.1176611193
30
0.0000000000
10
-21.5300290781
20
8.0645825029
30
0.0000000000
10
-21.5544483736
20
11.0117085626
30
0.0000000000
10
-21.5621792436
20
12.4870486912
30
0.0000000000
11
-21.4618043987
21
3.6460401325
31
0.0000000000
11
-21.5254749616
21
8.0611197323
31
0.0000000000
11
-21.5621792436
21
12.4870486912
31
0.0000000000
0
SPLINE
5
40C
100
AcDbEntity
8
0
100
AcDbSpline
62
9
6
CONTINUOUS
70
0
71
3
72
9
73
5
74
3
42
0.0000001000
43
0.0000001000
44
0.0000000001
12
0.0768267029
22
-2.8310200921
32
0.0000000000
13
0.0881777181
23
-2.8306892790
33
0.0000000000
40
0.0000000000
40
0.0000000000
40
0.0000000000
40
0.0000000000
40
0.5002050128
40
1.0000000000
40
1.0000000000
40
1.0000000000
40
1.0000000000
10
-12.8982791463
20
-5.2175997694
30
0.0000000000
10
-12.8854694456
20
-5.6896299165
30
0.0000000000
10
-12.8589165004
20
-6.6332778991
30
0.0000000000
10
-12.8304717261
20
-7.5768707535
30
0.0000000000
10
-12.8157814657
20
-8.0484588575
30
0.0000000000
11
-12.8982791463
21
-5.2175997694
31
0.0000000000
11
-12.8584322678
21
-6.6336510255
31
0.0000000000
11
-12.8157814657
21
-8.0484588575
31
0.0000000000
0
SPLINE
5
40D
100
AcDbEntity
8
0
100
AcDbSpline
62
9
6
CONTINUOUS
70
0
71
3
72
15
73
11
74
9
42
0.0000001000
43
0.0000001000
44
0.0000000001
12
-0.0993708080
22
3.6825971550
32
0.0000000000
13
3.6233271494
23
-0.7097256647
33
0.0000000000
40
0.0000000000
40
0.0000000000
40
0.0000000000
40
0.0000000000
40
0.1579160678
40
0.3064680885
40
0.4450574265
40
0.5754131697
40
0.7009214068
40
0.8260995157
40
0.9553991699
40
1.0000000000
40
1.0000000000
40
1.0000000000
40
1.0000000000
10
-17.5925013732
20
-4.0996946972
30
0.0000000000
10
-17.5977321223
20
-3.9058476098
30
0.0000000000
10
-17.5761491485
20
-3.5276935642
30
0.0000000000
10
-17.4402812936
20
-2.9945316707
30
0.0000000000
10
-17.2072278758
20
-2.5326704925
30
0.0000000000
10
-16.8859019789
20
-2.1628109792
30
0.0000000000
10
-16.4893365554
20
-1.9027726772
30
0.0000000000
10
-16.0363557309
20
-1.7665548561
30
0.0000000000
10
-15.6647147800
20
-1.7618946018
30
0.0000000000
10
-15.4530448403
20
-1.7946107573
30
0.0000000000
10
-15.3991770408
20
-1.8051622085
30
0.0000000000
11
-17.5925013732
21
-4.0996946972
31
0.0000000000
11
-17.5563792572
21
-3.5190642821
31
0.0000000000
11
-17.4178011062
21
-2.9896441859
31
0.0000000000
11
-17.1843210235
21
-2.5356035231
31
0.0000000000
11
-16.8669353457
21
-2.1752149690
31
0.0000000000
11
-16.4794820337
21
-1.9229038982
31
0.0000000000
11
-16.0381581726
21
-1.7891464878
31
0.0000000000
11
-15.5619111016
21
-1.7801593800
31
0.0000000000
11
-15.3991770408
21
-1.8051622085
31
0.0000000000
0
SPLINE
5
40E
100
AcDbEntity
8
0
100
AcDbSpline
62
9
6
CONTINUOUS
70
0
71
3
72
15
73
11
74
9
42
0.0000001000
43
0.0000001000
44
0.0000000001
12
4.3724852094
22
-0.8564683352
32
0.0000000000
13
0.2227432273
23
-4.4418882711
33
0.0000000000
40
0.0000000000
40
0.0000000000
40
0.0000000000
40
0.0000000000
40
0.0764145009
40
0.1972272679
40
0.3254522671
40
0.4599518481
40
0.5989551951
40
0.7401348207
40
0.8808583050
40
1.0000000000
40
1.0000000000
40
1.0000000000
40
1.0000000000
10
-15.3991770408
20
-1.8051622085
30
0.0000000000
10
-15.2878032825
20
-1.8269777420
30
0.0000000000
10
-15.0049781789
20
-1.9071225539
30
0.0000000000
10
-14.5705412501
20
-2.1244211626
30
0.0000000000
10
-14.1184900456
20
-2.4741384407
30
0.0000000000
10
-13.7157849318
20
-2.9162748309
30
0.0000000000
10
-13.3782012515
20
-3.4327118886
30
0.0000000000
10
-13.1194869635
20
-4.0029439019
30
0.0000000000
10
-12.9583793242
20
-4.5773160550
30
0.0000000000
10
-12.9102255537
20
-4.9611485558
30
0.0000000000
10
-12.9013795518
20
-5.1375532551
30
0.0000000000
11
-15.3991770408
21
-1.8051622085
31
0.0000000000
11
-15.0715805770
21
-1.8968178321
31
0.0000000000
11
-14.5895923044
21
-2.1337807466
31
0.0000000000
11
-14.1369125935
21
-2.4802303712
31
0.0000000000
11
-13.7327579091
21
-2.9208949769
31
0.0000000000
11
-13.3937251093
21
-3.4375454747
31
0.0000000000
11
-13.1342623100
21
-4.0090356428
31
0.0000000000
11
-12.9662016031
21
-4.6116434753
31
0.0000000000
11
-12.9013795518
21
-5.1375532551
31
0.0000000000
0
SPLINE
5
40F
100
AcDbEntity
8
0
100
AcDbSpline
62
9
6
CONTINUOUS
70
0
71
3
72
8
73
4
74
2
42
0.0000001000
43
0.0000001000
44
0.0000000001
12
0.0040128995
22
-0.0800242128
32
0.0000000000
13
0.0021830368
23
-0.0800618209
33
0.0000000000
40
0.0000000000
40
0.0000000000
40
0.0000000000
40
0.0000000000
40
1.0000000000
40
1.0000000000
40
1.0000000000
40
1.0000000000
10
-12.9013795518
20
-5.1375532551
30
0.0000000000
10
-12.9000419186
20
-5.1642279927
30
0.0000000000
10
-12.8990068252
20
-5.1909124957
30
0.0000000000
10
-12.8982791463
20
-5.2175997694
30
0.0000000000
11
-12.9013795518
21
-5.1375532551
31
0.0000000000
11
-12.8982791463
21
-5.2175997694
31
0.0000000000
0
SPLINE
5
410
100
AcDbEntity
8
0
100
AcDbSpline
62
9
6
CONTINUOUS
70
0
71
3
72
9
73
5
74
3
42
0.0000001000
43
0.0000001000
44
0.0000000001
12
-0.0881777181
22
2.8306892790
32
0.0000000000
13
-0.0768267029
23
2.8310200921
33
0.0000000000
40
0.0000000000
40
0.0000000000
40
0.0000000000
40
0.0000000000
40
0.4997949872
40
1.0000000000
40
1.0000000000
40
1.0000000000
40
1.0000000000
10
-17.5100036926
20
-6.9305537854
30
0.0000000000
10
-17.5246939531
20
-6.4589656814
30
0.0000000000
10
-17.5531387274
20
-5.5153728270
30
0.0000000000
10
-17.5796916726
20
-4.5717248443
30
0.0000000000
10
-17.5925013732
20
-4.0996946972
30
0.0000000000
11
-17.5100036926
21
-6.9305537854
31
0.0000000000
11
-17.5526544948
21
-5.5157459534
31
0.0000000000
11
-17.5925013732
21
-4.0996946972
31
0.0000000000
0
SPLINE
5
411
100
AcDbEntity
8
0
100
AcDbSpline
62
7
6
CONTINUOUS
70
0
71
3
72
8
73
4
74
2
42
0.0000001000
43
0.0000001000
44
0.0000000001
12
0.0003761390
22
-0.0231413958
32
0.0000000000
13
0.0026328117
23
-0.0229826457
33
0.0000000000
40
0.0000000000
40
0.0000000000
40
0.0000000000
40
0.0000000000
40
1.0000000000
40
1.0000000000
40
1.0000000000
40
1.0000000000
10
-4.0008863352
20
-21.1228783819
30
0.0000000000
10
-4.0007609555
20
-21.1305921805
30
0.0000000000
10
-4.0002198534
20
-21.1383093392
30
0.0000000000
10
-3.9993422495
20
-21.1459702211
30
0.0000000000
11
-4.0008863352
21
-21.1228783819
31
0.0000000000
11
-3.9993422495
21
-21.1459702211
31
0.0000000000
0
SPLINE
5
412
100
AcDbEntity
8
0
100
AcDbSpline
62
7
6
CONTINUOUS
70
0
71
3
72
10
73
6
74
4
42
0.0000001000
43
0.0000001000
44
0.0000000001
12
0.0278736066
22
-0.2433175206
32
0.0000000000
13
0.1422936005
23
-0.1981444470
33
0.0000000000
40
0.0000000000
40
0.0000000000
40
0.0000000000
40
0.0000000000
40
0.2806654018
40
0.6143779015
40
1.0000000000
40
1.0000000000
40
1.0000000000
40
1.0000000000
10
-3.9993422495
20
-21.1459702211
30
0.0000000000
10
-3.9967345305
20
-21.1687338243
30
0.0000000000
10
-3.9845225497
20
-21.2174757822
30
0.0000000000
10
-3.9519054934
20
-21.2922523336
30
0.0000000000
10
-3.9213965560
20
-21.3424415742
30
0.0000000000
10
-3.9031060371
20
-21.3679112000
30
0.0000000000
11
-3.9993422495
21
-21.1459702211
31
0.0000000000
11
-3.9839434854
21
-21.2126827400
31
0.0000000000
11
-3.9520821126
21
-21.2875958943
31
0.0000000000
11
-3.9031060371
21
-21.3679112000
31
0.0000000000
0
SPLINE
5
413
100
AcDbEntity
8
0
100
AcDbSpline
62
9
6
CONTINUOUS
70
0
71
3
72
11
73
7
74
5
42
0.0000001000
43
0.0000001000
44
0.0000000001
12
0.2715557461
22
-0.0697914389
32
0.0000000000
13
-0.0633400964
23
-0.2728723817
33
0.0000000000
40
0.0000000000
40
0.0000000000
40
0.0000000000
40
0.0000000000
40
0.2197949556
40
0.4623681070
40
0.7245923406
40
1.0000000000
40
1.0000000000
40
1.0000000000
40
1.0000000000
10
-1.9143049657
20
27.0891871231
30
0.0000000000
10
-1.8944094379
20
27.0840738543
30
0.0000000000
10
-1.8546559465
20
27.0629558575
30
0.0000000000
10
-1.8135096972
20
27.0068600610
30
0.0000000000
10
-1.7946886717
20
26.9349850419
30
0.0000000000
10
-1.7984379715
20
26.8839138235
30
0.0000000000
10
-1.8042527541
20
26.8588634422
30
0.0000000000
11
-1.9143049657
21
27.0891871231
31
0.0000000000
11
-1.8596645184
21
27.0606795495
31
0.0000000000
11
-1.8184328622
21
27.0066671607
31
0.0000000000
11
-1.7989839016
21
26.9358325198
31
0.0000000000
11
-1.8042527541
21
26.8588634422
31
0.0000000000
0
SPLINE
5
414
100
AcDbEntity
8
0
100
AcDbSpline
62
7
6
CONTINUOUS
70
0
71
3
72
9
73
5
74
3
42
0.0000001000
43
0.0000001000
44
0.0000000001
12
-0.0024741806
22
-0.1100226443
32
0.0000000000
13
-0.1079801542
23
-0.0425261251
33
0.0000000000
40
0.0000000000
40
0.0000000000
40
0.0000000000
40
0.0000000000
40
0.3694781500
40
1.0000000000
40
1.0000000000
40
1.0000000000
40
1.0000000000
10
-7.7801765053
20
27.2645215116
30
0.0000000000
10
-7.7804812239
20
27.2509711905
30
0.0000000000
10
-7.8047901111
20
27.2126972859
30
0.0000000000
10
-7.8408425304
20
27.1985391062
30
0.0000000000
10
-7.8635371460
20
27.1896012226
30
0.0000000000
11
-7.7801765053
21
27.2645215116
31
0.0000000000
11
-7.8000475870
21
27.2259805841
31
0.0000000000
11
-7.8635371460
21
27.1896012226
31
0.0000000000
0
SPLINE
5
415
100
AcDbEntity
8
0
100
AcDbSpline
62
9
6
CONTINUOUS
70
0
71
3
72
11
73
7
74
5
42
0.0000001000
43
0.0000001000
44
0.0000000001
12
0.0019185930
22
-0.2417098150
32
0.0000000000
13
0.2298949549
23
-0.0547543050
33
0.0000000000
40
0.0000000000
40
0.0000000000
40
0.0000000000
40
0.0000000000
40
0.0705038018
40
0.3048038467
40
0.6254311364
40
1.0000000000
40
1.0000000000
40
1.0000000000
40
1.0000000000
10
-13.7457200878
20
26.3778418367
30
0.0000000000
10
-13.7456749984
20
26.3721613497
30
0.0000000000
10
-13.7423144580
20
26.3478785849
30
0.0000000000
10
-13.7046094752
20
26.3101716513
30
0.0000000000
10
-13.6394442639
20
26.2779792436
30
0.0000000000
10
-13.5864883255
20
26.2622233729
30
0.0000000000
10
-13.5577844948
20
26.2553869536
30
0.0000000000
11
-13.7457200878
21
26.3778418367
31
0.0000000000
11
-13.7433169957
21
26.3612437257
31
0.0000000000
11
-13.7088422141
21
26.3179142388
31
0.0000000000
11
-13.6423289982
21
26.2816175781
31
0.0000000000
11
-13.5577844948
21
26.2553869536
31
0.0000000000
0
SPLINE
5
416
100
AcDbEntity
8
0
100
AcDbSpline
62
7
6
CONTINUOUS
70
0
71
3
72
9
73
5
74
3
42
0.0000001000
43
0.0000001000
44
0.0000000001
12
-0.0046855638
22
-0.1068486242
32
0.0000000000
13
-0.1031956882
23
-0.0421037903
33
0.0000000000
40
0.0000000000
40
0.0000000000
40
0.0000000000
40
0.0000000000
40
0.3575737560
40
1.0000000000
40
1.0000000000
40
1.0000000000
40
1.0000000000
10
-1.7036950390
20
25.8174361582
30
0.0000000000
10
-1.7042535172
20
25.8047007369
30
0.0000000000
10
-1.7256204342
20
25.7671355863
30
0.0000000000
10
-1.7606487053
20
25.7531429205
30
0.0000000000
10
-1.7827472448
20
25.7441267272
30
0.0000000000
11
-1.7036950390
21
25.8174361582
31
0.0000000000
11
-1.7212807417
21
25.7808500671
31
0.0000000000
11
-1.7827472448
21
25.7441267272
31
0.0000000000
0
SPLINE
5
417
100
AcDbEntity
8
0
100
AcDbSpline
62
7
6
CONTINUOUS
70
0
71
3
72
8
73
4
74
2
42
0.0000001000
43
0.0000001000
44
0.0000000001
12
-0.0108475913
22
-0.0006046307
32
0.0000000000
13
-0.0108076427
23
-0.0012034749
33
0.0000000000
40
0.0000000000
40
0.0000000000
40
0.0000000000
40
0.0000000000
40
1.0000000000
40
1.0000000000
40
1.0000000000
40
1.0000000000
10
-7.8888020503
20
28.5041411465
30
0.0000000000
10
-7.8924179140
20
28.5039396030
30
0.0000000000
10
-7.8960299051
20
28.5036364658
30
0.0000000000
10
-7.8996324527
20
28.5032353075
30
0.0000000000
11
-7.8888020503
21
28.5041411465
31
0.0000000000
11
-7.8996324527
21
28.5032353075
31
0.0000000000
0
SPLINE
5
418
100
AcDbEntity
8
0
100
AcDbSpline
62
7
6
CONTINUOUS
70
0
71
3
72
9
73
5
74
3
42
0.0000001000
43
0.0000001000
44
0.0000000001
12
-0.0458169970
22
-0.0051019086
32
0.0000000000
13
-0.0436875867
23
-0.0147191480
33
0.0000000000
40
0.0000000000
40
0.0000000000
40
0.0000000000
40
0.0000000000
40
0.4869477978
40
1.0000000000
40
1.0000000000
40
1.0000000000
40
1.0000000000
10
-7.8996324527
20
28.5032353075
30
0.0000000000
10
-7.9070692813
20
28.5024071865
30
0.0000000000
10
-7.9222589701
20
28.4998487354
30
0.0000000000
10
-7.9370722642
20
28.4956612037
30
0.0000000000
10
-7.9445436017
20
28.4931439733
30
0.0000000000
11
-7.8996324527
21
28.5032353075
31
0.0000000000
11
-7.9217732023
21
28.4995292377
31
0.0000000000
11
-7.9445436017
21
28.4931439733
31
0.0000000000
0
SPLINE
5
419
100
AcDbEntity
8
0
100
AcDbSpline
62
7
6
CONTINUOUS
70
0
71
3
72
8
73
4
74
2
42
0.0000001000
43
0.0000001000
44
0.0000000001
12
-0.0117134426
22
-0.0039464733
32
0.0000000000
13
-0.0114899582
23
-0.0045251223
33
0.0000000000
40
0.0000000000
40
0.0000000000
40
0.0000000000
40
0.0000000000
40
1.0000000000
40
1.0000000000
40
1.0000000000
40
1.0000000000
10
-7.9445436017
20
28.4931439733
30
0.0000000000
10
-7.9484480826
20
28.4918284821
30
0.0000000000
10
-7.9523174270
20
28.4904122677
30
0.0000000000
10
-7.9561474131
20
28.4889038936
30
0.0000000000
11
-7.9445436017
21
28.4931439733
31
0.0000000000
11
-7.9561474131
21
28.4889038936
31
0.0000000000
0
SPLINE
5
41A
100
AcDbEntity
8
0
100
AcDbSpline
62
9
6
CONTINUOUS
70
0
71
3
72
13
73
9
74
7
42
0.0000001000
43
0.0000001000
44
0.0000000001
12
0.4127828011
22
-0.0983196180
32
0.0000000000
13
0.3894567085
23
0.1684632315
33
0.0000000000
40
0.0000000000
40
0.0000000000
40
0.0000000000
40
0.0000000000
40
0.1396541768
40
0.3144113072
40
0.5085206294
40
0.7004571208
40
0.8683584059
40
1.0000000000
40
1.0000000000
40
1.0000000000
40
1.0000000000
10
-7.3503740689
20
25.0462064682
30
0.0000000000
10
-7.3311584548
20
25.0416295531
30
0.0000000000
10
-7.2872532141
20
25.0339897382
30
0.0000000000
10
-7.2154423211
20
25.0284712628
30
0.0000000000
10
-7.1360189122
20
25.0295154694
30
0.0000000000
10
-7.0579640445
20
25.0376256309
30
0.0000000000
10
-6.9897557239
20
25.0516180880
30
0.0000000000
10
-6.9493771577
20
25.0649789804
30
0.0000000000
10
-6.9322875904
20
25.0723712365
30
0.0000000000
11
-7.3503740689
21
25.0462064682
31
0.0000000000
11
-7.2920575342
21
25.0356768161
31
0.0000000000
11
-7.2181412713
21
25.0297339207
31
0.0000000000
11
-7.1357812376
21
25.0307667275
31
0.0000000000
11
-7.0547948830
21
25.0393933546
31
0.0000000000
11
-6.9850982105
21
25.0541688396
31
0.0000000000
11
-6.9322875904
21
25.0723712365
31
0.0000000000
0
SPLINE
5
41B
100
AcDbEntity
8
0
100
AcDbSpline
62
9
6
CONTINUOUS
70
0
71
3
72
10
73
6
74
4
42
0.0000001000
43
0.0000001000
44
0.0000000001
12
-0.0766340852
22
-0.0354565403
32
0.0000000000
13
-0.0162825894
23
-0.0854336331
33
0.0000000000
40
0.0000000000
40
0.0000000000
40
0.0000000000
40
0.0000000000
40
0.4855261734
40
0.8890632563
40
1.0000000000
40
1.0000000000
40
1.0000000000
40
1.0000000000
10
-13.4903517103
20
26.6341407456
30
0.0000000000
10
-13.5027543283
20
26.6284023861
30
0.0000000000
10
-13.5244637720
20
26.6162123824
30
0.0000000000
10
-13.5461127414
20
26.5962366679
30
0.0000000000
10
-13.5505146599
20
26.5819113072
30
0.0000000000
10
-13.5511167724
20
26.5787520642
30
0.0000000000
11
-13.4903517103
21
26.6341407456
31
0.0000000000
11
-13.5257315103
21
26.6134271489
31
0.0000000000
11
-13.5483030765
21
26.5879010670
31
0.0000000000
11
-13.5511167724
21
26.5787520642
31
0.0000000000
0
SPLINE
5
41C
100
AcDbEntity
8
0
100
AcDbSpline
62
9
6
CONTINUOUS
70
0
71
3
72
10
73
6
74
4
42
0.0000001000
43
0.0000001000
44
0.0000000001
12
-0.0126375262
22
-0.0663082359
32
0.0000000000
13
0.0560767761
23
-0.0346549866
33
0.0000000000
40
0.0000000000
40
0.0000000000
40
0.0000000000
40
0.0000000000
40
0.2798360732
40
0.7908913723
40
1.0000000000
40
1.0000000000
40
1.0000000000
40
1.0000000000
10
-13.5511167724
20
26.5787520642
30
0.0000000000
10
-13.5522955843
20
26.5725669187
30
0.0000000000
10
-13.5518673232
20
26.5543250923
30
0.0000000000
10
-13.5353219631
20
26.5374835297
30
0.0000000000
10
-13.5221632916
20
26.5284372835
30
0.0000000000
10
-13.5182545790
20
26.5260217313
30
0.0000000000
11
-13.5511167724
21
26.5787520642
31
0.0000000000
11
-13.5504079415
21
26.5602743279
31
0.0000000000
11
-13.5297000391
21
26.5339505473
31
0.0000000000
11
-13.5182545790
21
26.5260217313
31
0.0000000000
0
SPLINE
5
41D
100
AcDbEntity
8
0
100
AcDbSpline
62
9
6
CONTINUOUS
70
0
71
3
72
9
73
5
74
3
42
0.0000001000
43
0.0000001000
44
0.0000000001
12
0.0726904528
22
-0.0449221023
32
0.0000000000
13
0.0826404973
23
-0.0196843883
33
0.0000000000
40
0.0000000000
40
0.0000000000
40
0.0000000000
40
0.0000000000
40
0.3748805131
40
1.0000000000
40
1.0000000000
40
1.0000000000
40
1.0000000000
10
-13.5182545790
20
26.5260217313
30
0.0000000000
10
-13.5091711676
20
26.5204082577
30
0.0000000000
10
-13.4836743533
20
26.5084758487
30
0.0000000000
10
-13.4563075231
20
26.5003041946
30
0.0000000000
10
-13.4390874614
20
26.4962024963
30
0.0000000000
11
-13.5182545790
21
26.5260217313
31
0.0000000000
11
-13.4897918465
21
26.5119903216
31
0.0000000000
11
-13.4390874614
21
26.4962024963
31
0.0000000000
0
SPLINE
5
41E
100
AcDbEntity
8
0
100
AcDbSpline
62
7
6
CONTINUOUS
70
0
71
3
72
10
73
6
74
4
42
0.0000001000
43
0.0000001000
44
0.0000000001
12
-0.0094742035
22
0.1140881239
32
0.0000000000
13
0.0832585150
23
0.0928516709
33
0.0000000000
40
0.0000000000
40
0.0000000000
40
0.0000000000
40
0.0000000000
40
0.1769982571
40
0.5328648030
40
1.0000000000
40
1.0000000000
40
1.0000000000
40
1.0000000000
10
-19.4841986662
20
11.8130459664
30
0.0000000000
10
-19.4847576387
20
11.8197770994
30
0.0000000000
10
-19.4738503238
20
11.8439573517
30
0.0000000000
10
-19.4531281711
20
11.8760327002
30
0.0000000000
10
-19.4307538433
20
11.9026411823
30
0.0000000000
10
-19.4177895157
20
11.9170992768
30
0.0000000000
11
-19.4841986662
21
11.8130459664
31
0.0000000000
11
-19.4774967423
21
11.8350586108
31
0.0000000000
11
-19.4544392221
21
11.8725030607
31
0.0000000000
11
-19.4177895157
21
11.9170992768
31
0.0000000000
0
SPLINE
5
41F
100
AcDbEntity
8
0
100
AcDbSpline
62
7
6
CONTINUOUS
70
0
71
3
72
8
73
4
74
2
42
0.0000001000
43
0.0000001000
44
0.0000000001
12
0.0450368374
22
0.0502260413
32
0.0000000000
13
0.0476035579
23
0.0469231226
33
0.0000000000
40
0.0000000000
40
0.0000000000
40
0.0000000000
40
0.0000000000
40
1.0000000000
40
1.0000000000
40
1.0000000000
40
1.0000000000
10
-19.4177895157
20
11.9170992768
30
0.0000000000
10
-19.4027772365
20
11.9338412905
30
0.0000000000
10
-19.3874100570
20
11.9497186167
30
0.0000000000
10
-19.3715422043
20
11.9653596576
30
0.0000000000
11
-19.4177895157
21
11.9170992768
31
0.0000000000
11
-19.3715422043
21
11.9653596576
31
0.0000000000
0
SPLINE
5
420
100
AcDbEntity
8
0
100
AcDbSpline
62
7
6
CONTINUOUS
70
0
71
3
72
12
73
8
74
6
42
0.0000001000
43
0.0000001000
44
0.0000000001
12
-0.4288683557
22
0.1011951366
32
0.0000000000
13
-0.2489230055
23
0.3600617575
33
0.0000000000
40
0.0000000000
40
0.0000000000
40
0.0000000000
40
0.0000000000
40
0.1503015003
40
0.3570332006
40
0.5732628527
40
0.7907935213
40
1.0000000000
40
1.0000000000
40
1.0000000000
40
1.0000000000
10
-21.2283377869
20
12.2160657047
30
0.0000000000
10
-21.2498243060
20
12.2211356316
30
0.0000000000
10
-21.2985300856
20
12.2402070158
30
0.0000000000
10
-21.3702062832
20
12.2842062925
30
0.0000000000
10
-21.4420631564
20
12.3443226602
30
0.0000000000
10
-21.5067603791
20
12.4125052522
30
0.0000000000
10
-21.5448204751
20
12.4619396071
30
0.0000000000
10
-21.5621792436
20
12.4870486912
30
0.0000000000
11
-21.2283377869
21
12.2160657047
31
0.0000000000
11
-21.2901115563
21
12.2386692673
31
0.0000000000
11
-21.3677211317
21
12.2852059047
31
0.0000000000
11
-21.4406703653
21
12.3455138731
31
0.0000000000
11
-21.5063300640
21
12.4144745520
31
0.0000000000
11
-21.5621792436
21
12.4870486912
31
0.0000000000
0
SPLINE
5
421
100
AcDbEntity
8
0
100
AcDbSpline
62
7
6
CONTINUOUS
70
0
71
3
72
10
73
6
74
4
42
0.0000001000
43
0.0000001000
44
0.0000000001
12
-0.0094173436
22
0.1137030025
32
0.0000000000
13
0.0830019858
23
0.0926316757
33
0.0000000000
40
0.0000000000
40
0.0000000000
40
0.0000000000
40
0.0000000000
40
0.1763693297
40
0.5323280596
40
1.0000000000
40
1.0000000000
40
1.0000000000
40
1.0000000000
10
-9.5431495275
20
8.6371901437
30
0.0000000000
10
-9.5437031710
20
8.6438747178
30
0.0000000000
10
-9.5328485140
20
8.6680099803
30
0.0000000000
10
-9.5121836110
20
8.6999628725
30
0.0000000000
10
-9.4898602381
20
8.7265323406
30
0.0000000000
10
-9.4769210049
20
8.7409727525
30
0.0000000000
11
-9.5431495275
21
8.6371901437
31
0.0000000000
11
-9.5364944963
21
8.6590853525
31
0.0000000000
11
-9.5135016271
21
8.6964403974
31
0.0000000000
11
-9.4769210049
21
8.7409727525
31
0.0000000000
0
SPLINE
5
422
100
AcDbEntity
8
0
100
AcDbSpline
62
7
6
CONTINUOUS
70
0
71
3
72
8
73
4
74
2
42
0.0000001000
43
0.0000001000
44
0.0000000001
12
0.0449714028
22
0.0501888763
32
0.0000000000
13
0.0475303345
23
0.0468896440
33
0.0000000000
40
0.0000000000
40
0.0000000000
40
0.0000000000
40
0.0000000000
40
1.0000000000
40
1.0000000000
40
1.0000000000
40
1.0000000000
10
-9.4769210049
20
8.7409727525
30
0.0000000000
10
-9.4619305372
20
8.7577023779
30
0.0000000000
10
-9.4465862279
20
8.7735646841
30
0.0000000000
10
-9.4307427830
20
8.7891945654
30
0.0000000000
11
-9.4769210049
21
8.7409727525
31
0.0000000000
11
-9.4307427830
21
8.7891945654
31
0.0000000000
0
SPLINE
5
423
100
AcDbEntity
8
0
100
AcDbSpline
62
7
6
CONTINUOUS
70
0
71
3
72
12
73
8
74
6
42
0.0000001000
43
0.0000001000
44
0.0000000001
12
-0.4283070845
22
0.1011161712
32
0.0000000000
13
-0.2489360225
23
0.3594662057
33
0.0000000000
40
0.0000000000
40
0.0000000000
40
0.0000000000
40
0.0000000000
40
0.1493763958
40
0.3563102858
40
0.5727622887
40
0.7905362017
40
1.0000000000
40
1.0000000000
40
1.0000000000
40
1.0000000000
10
-11.2877077801
20
9.0404236671
30
0.0000000000
10
-11.3090341029
20
9.0454584568
30
0.0000000000
10
-11.3576098501
20
9.0644143908
30
0.0000000000
10
-11.4292058863
20
9.1082278531
30
0.0000000000
10
-11.5011282452
20
9.1682585930
30
0.0000000000
10
-11.5658939094
20
9.2363795017
30
0.0000000000
10
-11.6039987940
20
9.2857852135
30
0.0000000000
10
-11.6213798223
20
9.3108835991
30
0.0000000000
11
-11.2877077801
21
9.0404236671
31
0.0000000000
11
-11.3490536090
21
9.0628110654
31
0.0000000000
11
-11.4267188857
21
9.1092326463
31
0.0000000000
11
-11.4997327702
21
9.1694512099
31
0.0000000000
11
-11.5654615532
21
9.2383480278
31
0.0000000000
11
-11.6213798223
21
9.3108835991
31
0.0000000000
0
SPLINE
5
424
100
AcDbEntity
8
0
100
AcDbSpline
62
9
6
CONTINUOUS
70
0
71
3
72
9
73
5
74
3
42
0.0000001000
43
0.0000001000
44
0.0000000001
12
-0.1194614865
22
0.0283737709
32
0.0000000000
13
-0.1145531755
23
-0.0441896147
33
0.0000000000
40
0.0000000000
40
0.0000000000
40
0.0000000000
40
0.0000000000
40
0.4838960648
40
1.0000000000
40
1.0000000000
40
1.0000000000
40
1.0000000000
10
-8.2803612330
20
28.6052780312
30
0.0000000000
10
-8.2996302141
20
28.6098546832
30
0.0000000000
10
-8.3412855161
20
28.6126066725
30
0.0000000000
10
-8.3815817797
20
28.6025142108
30
0.0000000000
10
-8.4012888946
20
28.5949120661
30
0.0000000000
11
-8.2803612330
21
28.6052780312
31
0.0000000000
11
-8.3396256613
21
28.6095104392
31
0.0000000000
11
-8.4012888946
21
28.5949120661
31
0.0000000000
0
SPLINE
5
425
100
AcDbEntity
8
0
100
AcDbSpline
62
7
6
CONTINUOUS
70
0
71
3
72
15
73
11
74
9
42
0.0000001000
43
0.0000001000
44
0.0000000001
12
-1.3841003627
22
0.3296164393
32
0.0000000000
13
-1.3238400404
23
-0.5213716127
33
0.0000000000
40
0.0000000000
40
0.0000000000
40
0.0000000000
40
0.0000000000
40
0.1178139387
40
0.2467355531
40
0.3824291641
40
0.5202092637
40
0.6552868545
40
0.7830113637
40
0.8991162417
40
1.0000000000
40
1.0000000000
40
1.0000000000
40
1.0000000000
10
-7.3923936449
20
26.3310702336
30
0.0000000000
10
-7.4467490833
20
26.3440147039
30
0.0000000000
10
-7.5619218437
20
26.3656098211
30
0.0000000000
10
-7.7422742977
20
26.3859597205
30
0.0000000000
10
-7.9330185316
20
26.3952057742
30
0.0000000000
10
-8.1268835434
20
26.3929684783
30
0.0000000000
10
-8.3164966722
20
26.3793354846
30
0.0000000000
10
-8.4946797393
20
26.3548606109
30
0.0000000000
10
-8.6546784549
20
26.3205419995
30
0.0000000000
10
-8.7531111885
20
26.2896156668
30
0.0000000000
10
-8.7976291747
20
26.2720830242
30
0.0000000000
11
-7.3923936449
21
26.3310702336
31
0.0000000000
11
-7.5570075644
21
26.3627074659
31
0.0000000000
11
-7.7392329596
21
26.3837002937
31
0.0000000000
11
-7.9320628966
21
26.3932420676
31
0.0000000000
11
-8.1280842348
21
26.3909669160
31
0.0000000000
11
-8.3197627832
21
26.3769634743
31
0.0000000000
11
-8.4997354672
21
26.3517707956
31
0.0000000000
11
-8.6610898226
21
26.3163572514
31
0.0000000000
11
-8.7976291747
21
26.2720830242
31
0.0000000000
0
SPLINE
5
426
100
AcDbEntity
8
0
100
AcDbSpline
62
7
6
CONTINUOUS
70
0
71
3
72
11
73
7
74
5
42
0.0000001000
43
0.0000001000
44
0.0000000001
12
-0.0129211681
22
0.1129739441
32
0.0000000000
13
-0.1090353844
23
-0.0487060774
33
0.0000000000
40
0.0000000000
40
0.0000000000
40
0.0000000000
40
0.0000000000
40
0.0479233487
40
0.2276242080
40
0.5298075865
40
1.0000000000
40
1.0000000000
40
1.0000000000
40
1.0000000000
10
3.8856671945
20
-15.4840817665
30
0.0000000000
10
3.8854607860
20
-15.4822770700
30
0.0000000000
10
3.8834072849
20
-15.4739321187
30
0.0000000000
10
3.8643053756
20
-15.4579257411
30
0.0000000000
10
3.8248469787
20
-15.4697939437
30
0.0000000000
10
3.7968030106
20
-15.4794379518
30
0.0000000000
10
3.7797138071
20
-15.4870716945
30
0.0000000000
11
3.8856671945
21
-15.4840817665
31
0.0000000000
11
3.8843233564
21
-15.4788282979
31
0.0000000000
11
3.8683602051
21
-15.4644860665
31
0.0000000000
11
3.8324172293
21
-15.4677020423
31
0.0000000000
11
3.7797138071
21
-15.4870716945
31
0.0000000000
0
SPLINE
5
427
100
AcDbEntity
8
0
100
AcDbSpline
62
9
6
CONTINUOUS
70
0
71
3
72
10
73
6
74
4
42
0.0000001000
43
0.0000001000
44
0.0000000001
12
-0.0056345544
22
-0.2407283082
32
0.0000000000
13
0.2322160809
23
-0.0554981439
33
0.0000000000
40
0.0000000000
40
0.0000000000
40
0.0000000000
40
0.0000000000
40
0.0794462313
40
0.4412716330
40
1.0000000000
40
1.0000000000
40
1.0000000000
40
1.0000000000
10
-23.1268330071
20
-16.3109046008
30
0.0000000000
10
-23.1269822218
20
-16.3172795864
30
0.0000000000
10
-23.1233745641
20
-16.3519837641
30
0.0000000000
10
-23.0502315791
20
-16.4068497764
30
0.0000000000
10
-22.9828805573
20
-16.4277241066
30
0.0000000000
10
-22.9396319867
20
-16.4380602357
30
0.0000000000
11
-23.1268330071
21
-16.3109046008
31
0.0000000000
11
-23.1247539241
21
-16.3294356840
31
0.0000000000
11
-23.0646307189
21
-16.3914685332
31
0.0000000000
11
-22.9396319867
21
-16.4380602357
31
0.0000000000
0
SPLINE
5
428
100
AcDbEntity
8
0
100
AcDbSpline
62
7
6
CONTINUOUS
70
0
71
3
72
11
73
7
74
5
42
0.0000001000
43
0.0000001000
44
0.0000000001
12
0.2169319657
22
0.0919840869
32
0.0000000000
13
-0.0042417182
23
0.2360558182
33
0.0000000000
40
0.0000000000
40
0.0000000000
40
0.0000000000
40
0.0000000000
40
0.2719699829
40
0.5654448738
40
0.9174290332
40
1.0000000000
40
1.0000000000
40
1.0000000000
40
1.0000000000
10
3.0035140194
20
24.8988168998
30
0.0000000000
10
3.0231803471
20
24.9071558700
30
0.0000000000
10
3.0610289073
20
24.9335590864
30
0.0000000000
10
3.0966415482
20
24.9985402553
30
0.0000000000
10
3.1049046691
20
25.0559761111
30
0.0000000000
10
3.1051160872
20
25.0901993076
30
0.0000000000
10
3.1049993396
20
25.0966964266
30
0.0000000000
11
3.0035140194
21
24.8988168998
31
0.0000000000
11
3.0559112469
21
24.9357121076
31
0.0000000000
11
3.0907051351
21
24.9954718947
31
0.0000000000
11
3.1048653005
21
25.0771914689
31
0.0000000000
11
3.1049993396
21
25.0966964266
31
0.0000000000
0
ENDSEC
0
SECTION
2
OBJECTS
0
DICTIONARY
5
429
100
AcDbDictionary
3
ACAD_GROUP
350
42A
3
ACAD_MLINESTYLE
350
42B
0
DICTIONARY
5
42A
102
{ACAD_REACTORS
330
429
102
}
100
AcDbDictionary
0
DICTIONARY
5
42B
102
{ACAD_REACTORS
330
429
102
}
100
AcDbDictionary
3
STANDARD
350
42C
0
MLINESTYLE
5
42C
102
{ACAD_REACTORS
330
42B
102
}
100
AcDbMlineStyle
2
STANDARD
70
0
3

62
256
51
90.0
52
90.0
71
2
49
0.5
62
256
6
BYLAYER
49
-0.5
62
256
6
BYLAYER
0
ENDSEC
0
EOF
