0
SECTION
2
HEADER
9
$ACADVER
1
AC1014
9
$HANDSEED
5
       436
9
$EXTMAX
10
297.0000000000
20
210.0000000000
9
$EXTMIN
10
0.0000000000
20
0.0000000000
9
$LIMMIN
10
0.0000000000
20
0.0000000000
9
$LIMMAX
10
297.0000000000
20
210.0000000000
9
$VIEWCTR
10
148.5000000000
20
105.0000000000
9
$VIEWSIZE
40
210.0000000000
9
$CLAYER
8
0
9
$LTSCALE
40
16.3350000000
9
$CELTYPE
6
BYLAYER
9
$DIMSCALE
40
1
9
$DIMASZ
40
3.0000000000
9
$DIMEXO
40
1.8562500000
9
$DIMDLI
40
11.2860000000
9
$DIMEXE
40
5.3460000000
9
$DIMCEN
40
2.6730000000
9
$DIMLFAC
40
1.0000000000
9
$DIMTXT
40
3.0000000000
9
$DIMTOL
70
1
9
$DIMLIM
70
0
9
$DIMTFAC
40
1.0000000000
9
$DIMTP
40
0.0100000000
9
$DIMTM
40
0.0100000000
9
$MEASUREMENT
70
1
0
ENDSEC
0
SECTION
2
CLASSES
0
ENDSEC
0
SECTION
2
TABLES
0
TABLE
2
VPORT
5
8
100
AcDbSymbolTable
70
2
0
VPORT
5
1F4
100
AcDbSymbolTableRecord
100
AcDbViewportTableRecord
2
*ACTIVE
70
0
10
0.0
20
0.0
11
1.0
21
1.0
12
148.5000000000
22
105.0000000000
13
0.0
23
0.0
14
1.0
24
1.0
15
0.0
25
0.0
16
0.0
26
0.0
36
1.0
17
0.0
27
0.0
37
0.0
40
210.0000000000
41
1.4142857143
42
50.0
43
0.0
44
0.0
50
0.0
51
0.0
71
0
72
100
73
1
74
1
75
0
76
0
77
0
78
0
0
ENDTAB
0
TABLE
2
LTYPE
5
5
100
AcDbSymbolTable
70
6
0
LTYPE
5
14
100
AcDbSymbolTableRecord
100
AcDbLinetypeTableRecord
2
BYBLOCK
70
0
3

72
65
73
0
40
0.0
0
LTYPE
5
15
100
AcDbSymbolTableRecord
100
AcDbLinetypeTableRecord
2
BYLAYER
70
0
3

72
65
73
0
40
0.0
0
LTYPE
5
16
100
AcDbSymbolTableRecord
100
AcDbLinetypeTableRecord
2
CONTINUOUS
70
64
3
Solid line
72
65
73
0
40
0
0
LTYPE
5
1F5
100
AcDbSymbolTableRecord
100
AcDbLinetypeTableRecord
2
CENTER
70
64
3
____ _ ____ _ ____ _ ____ _ ____ _ ____ _ ____
72
65
73
4
40
0.6
49
0.375
74
0
49
-0.075
74
0
49
0.075
74
0
49
-0.075
74
0
0
LTYPE
5
1F6
100
AcDbSymbolTableRecord
100
AcDbLinetypeTableRecord
2
HIDDEN
70
64
3
- - - - - - - - - - - - - - - - - - - -
72
65
73
2
40
0.2
49
0.1
74
0
49
-0.1
74
0
0
LTYPE
5
1F7
100
AcDbSymbolTableRecord
100
AcDbLinetypeTableRecord
2
PHANTOM
70
64
3
_____ _ _ _____ _ _ _____ _ _ _____
72
65
73
6
40
0.8
49
0.45
74
0
49
-0.05
74
0
49
0.1
74
0
49
-0.05
74
0
49
0.1
74
0
49
-0.05
74
0
0
LTYPE
5
1F8
100
AcDbSymbolTableRecord
100
AcDbLinetypeTableRecord
2
DOT
70
64
3
. . . . . . . . . . . . . . . . . . . .
72
65
73
2
40
0.2
49
0.1
74
0
49
-0.1
74
0
0
LTYPE
5
1F9
100
AcDbSymbolTableRecord
100
AcDbLinetypeTableRecord
2
DASHED
70
64
3
- - - - - - - - - - - - - - - - - - - -
72
65
73
2
40
0.2
49
0.1
74
0
49
-0.1
74
0
0
ENDTAB
0
TABLE
2
LAYER
5
2
100
AcDbSymbolTable
70
36
0
LAYER
5
10
100
AcDbSymbolTableRecord
100
AcDbLayerTableRecord
2
0
70
0
62
7
6
CONTINUOUS
0
LAYER
5
1FA
100
AcDbSymbolTableRecord
100
AcDbLayerTableRecord
2
DEFAULT_1
70
0
62
7
6
CENTER
0
LAYER
5
1FB
100
AcDbSymbolTableRecord
100
AcDbLayerTableRecord
2
DEFAULT_2
70
0
62
8
6
HIDDEN
0
LAYER
5
1FC
100
AcDbSymbolTableRecord
100
AcDbLayerTableRecord
2
DEFAULT_3
70
0
62
7
6
PHANTOM
0
LAYER
5
1FD
100
AcDbSymbolTableRecord
100
AcDbLayerTableRecord
2
ASSI
70
0
62
7
6
CONTINUOUS
0
LAYER
5
1FE
100
AcDbSymbolTableRecord
100
AcDbLayerTableRecord
2
COORDINATE
70
0
62
7
6
CONTINUOUS
0
LAYER
5
1FF
100
AcDbSymbolTableRecord
100
AcDbLayerTableRecord
2
COORD_ORIGINE
70
0
62
7
6
CONTINUOUS
0
LAYER
5
200
100
AcDbSymbolTableRecord
100
AcDbLayerTableRecord
2
CURVE
70
0
62
7
6
CONTINUOUS
0
LAYER
5
201
100
AcDbSymbolTableRecord
100
AcDbLayerTableRecord
2
DRAFT
70
0
62
7
6
CONTINUOUS
0
LAYER
5
202
100
AcDbSymbolTableRecord
100
AcDbLayerTableRecord
2
IMPORT
70
0
62
7
6
CONTINUOUS
0
LAYER
5
203
100
AcDbSymbolTableRecord
100
AcDbLayerTableRecord
2
LAY0001
70
0
62
7
6
CONTINUOUS
0
LAYER
5
204
100
AcDbSymbolTableRecord
100
AcDbLayerTableRecord
2
NOTE
70
0
62
7
6
CONTINUOUS
0
LAYER
5
205
100
AcDbSymbolTableRecord
100
AcDbLayerTableRecord
2
PIANI
70
0
62
7
6
CONTINUOUS
0
LAYER
5
206
100
AcDbSymbolTableRecord
100
AcDbLayerTableRecord
2
PIANI_ORIGINE
70
0
62
7
6
CONTINUOUS
0
LAYER
5
207
100
AcDbSymbolTableRecord
100
AcDbLayerTableRecord
2
PIANI_RIFERIMENTO
70
0
62
7
6
CONTINUOUS
0
LAYER
5
208
100
AcDbSymbolTableRecord
100
AcDbLayerTableRecord
2
PUNTI
70
0
62
7
6
CONTINUOUS
0
LAYER
5
209
100
AcDbSymbolTableRecord
100
AcDbLayerTableRecord
2
RACCORDO
70
0
62
7
6
CONTINUOUS
0
LAYER
5
20A
100
AcDbSymbolTableRecord
100
AcDbLayerTableRecord
2
SMUSSO
70
0
62
7
6
CONTINUOUS
0
LAYER
5
20B
100
AcDbSymbolTableRecord
100
AcDbLayerTableRecord
2
SUPERFICI
70
0
62
7
6
CONTINUOUS
0
LAYER
5
20C
100
AcDbSymbolTableRecord
100
AcDbLayerTableRecord
2
TRASH
70
0
62
7
6
CONTINUOUS
0
LAYER
5
20D
100
AcDbSymbolTableRecord
100
AcDbLayerTableRecord
2
XSEC_DATUMS
70
0
62
7
6
CONTINUOUS
0
ENDTAB
0
TABLE
2
STYLE
5
3
100
AcDbSymbolTable
70
1
0
STYLE
5
11
100
AcDbSymbolTableRecord
100
AcDbTextStyleTableRecord
2
STANDARD
70
0
40
0.0
41
0.8000000000
50
0.0
71
0
42
0.2
3
txt
4

0
ENDTAB
0
TABLE
2
VIEW
5
6
100
AcDbSymbolTable
70
0
0
ENDTAB
0
TABLE
2
UCS
5
7
100
AcDbSymbolTable
70
0
0
ENDTAB
0
TABLE
2
APPID
5
9
100
AcDbSymbolTable
70
1
0
APPID
5
20E
100
AcDbSymbolTableRecord
100
AcDbRegAppTableRecord
2
ACAD
70
0
0
ENDTAB
0
TABLE
2
DIMSTYLE
5
A
100
AcDbSymbolTable
70
1
0
DIMSTYLE
105
20F
100
AcDbSymbolTableRecord
100
AcDbDimStyleTableRecord
2
STANDARD
70
0
3

4

5

6

7

40
1.0
41
3.0000000000
42
0.0625
43
0.38
44
0.18
45
0.0
46
0.0
47
0.0100000000
48
0.0100000000
140
3.0000000000
141
0.09
142
0.0
143
25.4
144
1.0000000000
145
0.0
146
1.0000000000
147
0.09
71
1
72
0
73
0
74
0
75
0
76
0
77
1
78
8
170
0
171
2
172
0
173
0
174
0
175
0
176
0
177
0
178
0
270
2
271
2
272
2
273
2
274
2
340
11
275
0
280
0
281
0
282
0
283
1
284
8
285
0
286
0
287
3
288
0
0
ENDTAB
0
TABLE
2
BLOCK_RECORD
5
1
100
AcDbSymbolTable
70
0
0
BLOCK_RECORD
5
1B
100
AcDbSymbolTableRecord
100
AcDbBlockTableRecord
2
*MODEL_SPACE
0
BLOCK_RECORD
5
1C
100
AcDbSymbolTableRecord
100
AcDbBlockTableRecord
2
*PAPER_SPACE
0
ENDTAB
0
ENDSEC
0
SECTION
2
BLOCKS
0
BLOCK
5
1E
100
AcDbEntity
8
0
100
AcDbBlockBegin
2
*MODEL_SPACE
70
0
10
0.0
20
0.0
30
0.0
3
*MODEL_SPACE
1

0
ENDBLK
5
1F
100
AcDbEntity
8
0
100
AcDbBlockEnd
0
BLOCK
5
20
100
AcDbEntity
8
0
100
AcDbBlockBegin
2
*PAPER_SPACE
70
0
10
0.0
20
0.0
30
0.0
3
*PAPER_SPACE
1

0
ENDBLK
5
21
100
AcDbEntity
8
0
100
AcDbBlockEnd
0
ENDSEC
0
SECTION
2
ENTITIES
0
LINE
5
210
100
AcDbEntity
8
0
100
AcDbLine
62
7
6
CONTINUOUS
10
-6.7116003838
20
25.3256427849
11
-8.3435749527
21
24.7155417048
0
LINE
5
211
100
AcDbEntity
8
0
100
AcDbLine
62
9
6
CONTINUOUS
10
-6.6282577064
20
25.3227250062
11
-8.2598550959
21
24.7127649316
0
LINE
5
212
100
AcDbEntity
8
0
100
AcDbLine
62
7
6
CONTINUOUS
10
-6.7096826116
20
25.3263375619
11
-6.7115968222
21
25.3256441164
0
LINE
5
213
100
AcDbEntity
8
0
100
AcDbLine
62
7
6
CONTINUOUS
10
-6.1586510215
20
25.5196212511
11
-6.7096789227
21
25.3263388562
0
LINE
5
214
100
AcDbEntity
8
0
100
AcDbLine
62
9
6
CONTINUOUS
10
-6.0776057300
20
25.5158755390
11
-6.6282577064
21
25.3227250062
0
LINE
5
215
100
AcDbEntity
8
0
100
AcDbLine
62
7
6
CONTINUOUS
10
-12.4262266965
20
21.0100561130
11
-7.7613796359
21
23.0761313712
0
LINE
5
216
100
AcDbEntity
8
0
100
AcDbLine
62
9
6
CONTINUOUS
10
-7.7604316273
20
22.9966172081
11
-12.2483348210
21
21.0089109384
0
LINE
5
217
100
AcDbEntity
8
0
100
AcDbLine
62
7
6
CONTINUOUS
10
-11.5641226762
20
20.7431205092
11
-9.6295772527
21
21.5735385063
0
LINE
5
218
100
AcDbEntity
8
0
100
AcDbLine
62
7
6
CONTINUOUS
10
-11.4386756898
20
20.6323960616
11
-9.5114515791
21
21.4596713309
0
LINE
5
219
100
AcDbEntity
8
0
100
AcDbLine
62
9
6
CONTINUOUS
10
-11.3523571271
20
20.6306777727
11
-9.4237452718
21
21.4585487417
0
LINE
5
21A
100
AcDbEntity
8
0
100
AcDbLine
62
7
6
CONTINUOUS
10
-5.1329200293
20
22.8038883253
11
-6.0491573547
21
22.4146631293
0
LINE
5
21B
100
AcDbEntity
8
0
100
AcDbLine
62
9
6
CONTINUOUS
10
-5.3273069041
20
24.8173550346
11
-6.9768416943
21
24.2143629588
0
LINE
5
21C
100
AcDbEntity
8
0
100
AcDbLine
62
9
6
CONTINUOUS
10
-5.1533694447
20
24.5190819389
11
-6.8029042349
21
23.9160898632
0
LINE
5
21D
100
AcDbEntity
8
0
100
AcDbLine
62
9
6
CONTINUOUS
10
-4.7826417863
20
25.0128312346
11
-5.3273069041
21
24.8173550346
0
LINE
5
21E
100
AcDbEntity
8
0
100
AcDbLine
62
9
6
CONTINUOUS
10
-4.6087043269
20
24.7145581390
11
-5.1533694447
21
24.5190819389
0
LINE
5
21F
100
AcDbEntity
8
0
100
AcDbLine
62
9
6
CONTINUOUS
10
-5.1440896419
20
23.7407389790
11
-4.6042685291
21
24.3425058392
0
LINE
5
220
100
AcDbEntity
8
0
100
AcDbLine
62
7
6
CONTINUOUS
10
-5.1427214762
20
23.6259841586
11
-4.5904071824
21
24.2416778218
0
LINE
5
221
100
AcDbEntity
8
0
100
AcDbLine
62
7
6
CONTINUOUS
10
-2.8767208031
20
22.9415879355
11
-2.5122698151
21
23.0778351208
0
LINE
5
222
100
AcDbEntity
8
0
100
AcDbLine
62
7
6
CONTINUOUS
10
2.7866446827
20
25.1222303336
11
-3.7253572507
21
22.7961124908
0
LINE
5
223
100
AcDbEntity
8
0
100
AcDbLine
62
7
6
CONTINUOUS
10
3.5720728627
20
24.7785753421
11
-1.1672346268
21
23.0970334439
0
LINE
5
224
100
AcDbEntity
8
0
100
AcDbLine
62
7
6
CONTINUOUS
10
-2.5122698151
20
23.0778351208
11
2.9857236961
21
25.0063497215
0
LINE
5
225
100
AcDbEntity
8
0
100
AcDbLine
62
7
6
CONTINUOUS
10
2.7661588231
20
-25.3787874830
11
8.4406632507
21
-23.7654967007
0
LINE
5
226
100
AcDbEntity
8
0
100
AcDbLine
62
9
6
CONTINUOUS
10
2.9653676708
20
-25.0331216649
11
8.6297591907
21
-23.4227060342
0
LINE
5
227
100
AcDbEntity
8
0
100
AcDbLine
62
7
6
CONTINUOUS
10
-12.2590390622
20
-19.7732442498
11
2.1079135915
21
-25.3542596437
0
LINE
5
228
100
AcDbEntity
8
0
100
AcDbLine
62
9
6
CONTINUOUS
10
-12.8015270385
20
-18.8301328300
11
1.5537153159
21
-24.4065992175
0
LINE
5
229
100
AcDbEntity
8
0
100
AcDbLine
62
7
6
CONTINUOUS
10
5.1302379128
20
-25.7202467435
11
6.4132513144
21
-26.2186487162
0
LINE
5
22A
100
AcDbEntity
8
0
100
AcDbLine
62
9
6
CONTINUOUS
10
5.0385796210
20
-25.5532062172
11
6.3215930226
21
-26.0516081899
0
LINE
5
22B
100
AcDbEntity
8
0
100
AcDbLine
62
9
6
CONTINUOUS
10
6.3172536878
20
-25.6876467131
11
5.0342402861
21
-25.1892447404
0
LINE
5
22C
100
AcDbEntity
8
0
100
AcDbLine
62
7
6
CONTINUOUS
10
-4.3780059908
20
20.1884712229
11
-5.1789759077
21
19.8446489347
0
LINE
5
22D
100
AcDbEntity
8
0
100
AcDbLine
62
7
6
CONTINUOUS
10
5.0840798100
20
23.1545434598
11
1.7726374780
21
21.9550047988
0
LINE
5
22E
100
AcDbEntity
8
0
100
AcDbLine
62
7
6
CONTINUOUS
10
0.5988623608
20
22.4109718474
11
3.6381669032
21
23.4780453277
0
LINE
5
22F
100
AcDbEntity
8
0
100
AcDbLine
62
7
6
CONTINUOUS
10
5.7564589517
20
23.9685702950
11
0.9412163104
21
22.2779803419
0
LINE
5
230
100
AcDbEntity
8
0
100
AcDbLine
62
9
6
CONTINUOUS
10
8.8638476850
20
-24.8981535958
11
8.3144352120
21
-24.6954456487
0
LINE
5
231
100
AcDbEntity
8
0
100
AcDbLine
62
9
6
CONTINUOUS
10
8.7803122349
20
-24.5983163521
11
8.3112136887
21
-24.4252405521
0
LINE
5
232
100
AcDbEntity
8
0
100
AcDbLine
62
9
6
CONTINUOUS
10
8.7821357875
20
-24.5990069551
11
8.7803122349
21
-24.5983163521
0
LINE
5
233
100
AcDbEntity
8
0
100
AcDbLine
62
9
6
CONTINUOUS
10
6.4059522100
20
-25.4539201603
11
5.1229388084
21
-24.9555181875
0
LINE
5
234
100
AcDbEntity
8
0
100
AcDbLine
62
7
6
CONTINUOUS
10
6.1605988742
20
-24.4137307251
11
7.0414957029
21
-24.7559256832
0
LINE
5
235
100
AcDbEntity
8
0
100
AcDbLine
62
7
6
CONTINUOUS
10
8.3111038632
20
-24.4160289441
11
8.7821388635
21
-24.5990081499
0
LINE
5
236
100
AcDbEntity
8
0
100
AcDbLine
62
7
6
CONTINUOUS
10
-0.2697585954
20
18.5925731568
11
-1.0707285122
21
18.2487508686
0
LINE
5
237
100
AcDbEntity
8
0
100
AcDbLine
62
7
6
CONTINUOUS
10
6.2293789119
20
20.2985638766
11
4.5974043430
21
19.6884627965
0
LINE
5
238
100
AcDbEntity
8
0
100
AcDbLine
62
9
6
CONTINUOUS
10
6.3127215893
20
20.2956460979
11
4.6811241997
21
19.6856860233
0
LINE
5
239
100
AcDbEntity
8
0
100
AcDbLine
62
7
6
CONTINUOUS
10
3.1447020212
20
20.6024938850
11
3.5131596982
21
20.7371846238
0
LINE
5
23A
100
AcDbEntity
8
0
100
AcDbLine
62
7
6
CONTINUOUS
10
-12.5153962355
20
14.3473488225
11
-12.6603847330
21
14.2948281108
0
LINE
5
23B
100
AcDbEntity
8
0
100
AcDbLine
62
7
6
CONTINUOUS
10
6.2312966840
20
20.2992586536
11
6.2293824734
21
20.2985652081
0
LINE
5
23C
100
AcDbEntity
8
0
100
AcDbLine
62
7
6
CONTINUOUS
10
3.5131596982
20
20.7371846238
11
8.9513773240
21
22.6889198855
0
LINE
5
23D
100
AcDbEntity
8
0
100
AcDbLine
62
7
6
CONTINUOUS
10
3.5286348961
20
19.4392032359
11
9.0190007533
21
21.3891377937
0
LINE
5
23E
100
AcDbEntity
8
0
100
AcDbLine
62
7
6
CONTINUOUS
10
8.3650281574
20
22.9166942649
11
3.6257206679
21
21.2351523668
0
LINE
5
23F
100
AcDbEntity
8
0
100
AcDbLine
62
7
6
CONTINUOUS
10
9.8647063472
20
22.3726722289
11
9.1447938604
21
22.1199171949
0
LINE
5
240
100
AcDbEntity
8
0
100
AcDbLine
62
7
6
CONTINUOUS
10
6.7823282742
20
20.4925423428
11
6.2313003729
21
20.2992599479
0
LINE
5
241
100
AcDbEntity
8
0
100
AcDbLine
62
9
6
CONTINUOUS
10
6.8633735657
20
20.4887966307
11
6.3127215893
21
20.2956460979
0
LINE
5
242
100
AcDbEntity
8
0
100
AcDbLine
62
7
6
CONTINUOUS
10
3.5286348961
20
19.4392032359
11
3.1604362131
21
19.2827893892
0
LINE
5
243
100
AcDbEntity
8
0
100
AcDbLine
62
9
6
CONTINUOUS
10
7.6136723915
20
19.7902761263
11
5.9641376014
21
19.1872840505
0
LINE
5
244
100
AcDbEntity
8
0
100
AcDbLine
62
9
6
CONTINUOUS
10
7.7876098509
20
19.4920030306
11
6.1380750607
21
18.8890109549
0
LINE
5
245
100
AcDbEntity
8
0
100
AcDbLine
62
9
6
CONTINUOUS
10
8.1583375094
20
19.9857523263
11
7.6136723915
21
19.7902761263
0
LINE
5
246
100
AcDbEntity
8
0
100
AcDbLine
62
9
6
CONTINUOUS
10
8.3322749688
20
19.6874792307
11
7.7876098509
21
19.4920030306
0
LINE
5
247
100
AcDbEntity
8
0
100
AcDbLine
62
7
6
CONTINUOUS
10
12.8345206162
20
21.2190121903
11
8.4107873247
21
19.6924819470
0
LINE
5
248
100
AcDbEntity
8
0
100
AcDbLine
62
7
6
CONTINUOUS
10
13.5157249183
20
-17.3418870164
11
13.5157592512
21
-17.3418823101
0
LINE
5
249
100
AcDbEntity
8
0
100
AcDbLine
62
9
6
CONTINUOUS
10
3.1748800742
20
16.5644613389
11
1.2462682189
21
15.7365903699
0
LINE
5
24A
100
AcDbEntity
8
0
100
AcDbLine
62
7
6
CONTINUOUS
10
1.4453274094
20
15.6894432998
11
3.3798728328
21
16.5198612969
0
LINE
5
24B
100
AcDbEntity
8
0
100
AcDbLine
62
9
6
CONTINUOUS
10
2.1295395542
20
15.4236528705
11
6.7783203877
21
17.3577896108
0
LINE
5
24C
100
AcDbEntity
8
0
100
AcDbLine
62
9
6
CONTINUOUS
10
8.1456090966
20
17.1853569263
11
2.4900710541
21
14.8323563642
0
LINE
5
24D
100
AcDbEntity
8
0
100
AcDbLine
62
7
6
CONTINUOUS
10
13.7183983543
20
20.4601275814
11
8.0685346507
21
18.2146334644
0
LINE
5
24E
100
AcDbEntity
8
0
100
AcDbLine
62
7
6
CONTINUOUS
10
13.7247461387
20
19.9277075121
11
8.6455313989
21
17.9666350339
0
LINE
5
24F
100
AcDbEntity
8
0
100
AcDbLine
62
9
6
CONTINUOUS
10
8.5367852028
20
18.0327359109
11
7.8079551015
21
17.7855462350
0
LINE
5
250
100
AcDbEntity
8
0
100
AcDbLine
62
9
6
CONTINUOUS
10
8.8847713593
20
17.4360508531
11
8.1456090966
21
17.1853569263
0
LINE
5
251
100
AcDbEntity
8
0
100
AcDbLine
62
7
6
CONTINUOUS
10
-9.4394157025
20
1.9527072912
11
-9.3600977229
21
-4.7000839620
0
LINE
5
252
100
AcDbEntity
8
0
100
AcDbLine
62
7
6
CONTINUOUS
10
-9.6295772527
20
21.5735385063
11
-9.6276251140
21
21.4098029778
0
LINE
5
253
100
AcDbEntity
8
0
100
AcDbLine
62
7
6
CONTINUOUS
10
-9.1312971479
20
1.8330149363
11
-9.0575060246
21
-4.3562115356
0
LINE
5
254
100
AcDbEntity
8
0
100
AcDbLine
62
7
6
CONTINUOUS
10
-8.5060140538
20
24.4783899841
11
-8.5016747189
21
24.1144285073
0
LINE
5
255
100
AcDbEntity
8
0
100
AcDbLine
62
9
6
CONTINUOUS
10
-8.4382152628
20
24.4153761713
11
-8.4338759279
21
24.0514146945
0
LINE
5
256
100
AcDbEntity
8
0
100
AcDbLine
62
7
6
CONTINUOUS
10
-7.4429156050
20
-5.4448363929
11
-7.4252296645
21
-6.9282436933
0
LINE
5
257
100
AcDbEntity
8
0
100
AcDbLine
62
7
6
CONTINUOUS
10
-7.7683581223
20
23.6614515445
11
-7.7601290856
21
22.9712415363
0
LINE
5
258
100
AcDbEntity
8
0
100
AcDbLine
62
9
6
CONTINUOUS
10
-7.7009986426
20
23.6352849452
11
-7.6922914280
21
22.9049677940
0
LINE
5
259
100
AcDbEntity
8
0
100
AcDbLine
62
7
6
CONTINUOUS
10
13.8879513985
20
-18.6146826334
11
14.2045721562
21
-18.7376777713
0
LINE
5
25A
100
AcDbEntity
8
0
100
AcDbLine
62
9
6
CONTINUOUS
10
9.2864619512
20
-16.2557258276
11
12.4562123559
21
-17.4870534605
0
LINE
5
25B
100
AcDbEntity
8
0
100
AcDbLine
62
7
6
CONTINUOUS
10
9.2855921882
20
-16.1827744999
11
12.5943987561
21
-17.4681201703
0
LINE
5
25C
100
AcDbEntity
8
0
100
AcDbLine
62
9
6
CONTINUOUS
10
-8.0794532560
20
-9.2293449858
11
-3.9712058605
21
-10.8252430520
0
LINE
5
25D
100
AcDbEntity
8
0
100
AcDbLine
62
7
6
CONTINUOUS
10
-7.0872972000
20
-6.6903833737
11
-7.1060885118
21
-5.1142631170
0
LINE
5
25E
100
AcDbEntity
8
0
100
AcDbLine
62
9
6
CONTINUOUS
10
-7.1508625263
20
23.5530127218
11
-7.1552018611
21
23.9169741986
0
LINE
5
25F
100
AcDbEntity
8
0
100
AcDbLine
62
7
6
CONTINUOUS
10
-6.6378155804
20
-7.2341241560
11
-6.6228930681
21
-8.4857490657
0
LINE
5
260
100
AcDbEntity
8
0
100
AcDbLine
62
9
6
CONTINUOUS
10
-6.7985649000
20
23.5521283864
11
-6.8029042349
21
23.9160898632
0
LINE
5
261
100
AcDbEntity
8
0
100
AcDbLine
62
7
6
CONTINUOUS
10
-6.3341185109
20
-6.9829646858
11
-6.3191959986
21
-8.2345895956
0
LINE
5
262
100
AcDbEntity
8
0
100
AcDbLine
62
9
6
CONTINUOUS
10
-6.4101679117
20
23.1463440647
11
-6.4013109984
21
22.4034709335
0
LINE
5
263
100
AcDbEntity
8
0
100
AcDbLine
62
9
6
CONTINUOUS
10
-6.0594657515
20
23.2792793549
11
-6.0491573547
21
22.4146631293
0
LINE
5
264
100
AcDbEntity
8
0
100
AcDbLine
62
9
6
CONTINUOUS
10
7.7968896537
20
18.7136600707
11
8.3367107666
21
19.3154269309
0
LINE
5
265
100
AcDbEntity
8
0
100
AcDbLine
62
7
6
CONTINUOUS
10
7.7982578194
20
18.5989052503
11
8.3505721133
21
19.2145989135
0
LINE
5
266
100
AcDbEntity
8
0
100
AcDbLine
62
7
6
CONTINUOUS
10
0.3506205044
20
9.3628043920
11
0.2550395369
21
9.3281860648
0
LINE
5
267
100
AcDbEntity
8
0
100
AcDbLine
62
9
6
CONTINUOUS
10
-7.3783933955
20
-8.7594219128
11
-4.1229694043
21
-10.0240304799
0
LINE
5
268
100
AcDbEntity
8
0
100
AcDbLine
62
9
6
CONTINUOUS
10
-8.8961491488
20
-7.6757828440
11
-8.1087350647
21
-7.9816633067
0
LINE
5
269
100
AcDbEntity
8
0
100
AcDbLine
62
9
6
CONTINUOUS
10
-4.0004876692
20
-9.5775613728
11
-3.2130735851
21
-9.8834418355
0
LINE
5
26A
100
AcDbEntity
8
0
100
AcDbLine
62
7
6
CONTINUOUS
10
-6.6228930681
20
-8.4857490657
11
-4.1360672642
21
-9.4517864314
0
LINE
5
26B
100
AcDbEntity
8
0
100
AcDbLine
62
7
6
CONTINUOUS
10
-6.3191959986
20
-8.2345895956
11
-4.1412093043
21
-9.0806546980
0
LINE
5
26C
100
AcDbEntity
8
0
100
AcDbLine
62
9
6
CONTINUOUS
10
-8.1950600065
20
-7.2071074527
11
-7.4076459224
21
-7.5129879153
0
LINE
5
26D
100
AcDbEntity
8
0
100
AcDbLine
62
9
6
CONTINUOUS
10
-3.9841064262
20
-8.8429029705
11
-3.3633520072
21
-9.0840424836
0
LINE
5
26E
100
AcDbEntity
8
0
100
AcDbLine
62
7
6
CONTINUOUS
10
-7.4252296645
20
-6.9282436933
11
-6.6378155804
21
-7.2341241560
0
LINE
5
26F
100
AcDbEntity
8
0
100
AcDbLine
62
9
6
CONTINUOUS
10
-10.8445882319
20
-5.4510477829
11
-8.9274061140
21
-6.1958002137
0
LINE
5
270
100
AcDbEntity
8
0
100
AcDbLine
62
9
6
CONTINUOUS
10
-3.2443305503
20
-8.4034592052
11
-1.3271484325
21
-9.1482116361
0
LINE
5
271
100
AcDbEntity
8
0
100
AcDbLine
62
7
6
CONTINUOUS
10
-4.8766509700
20
-6.4550108557
11
-4.8617284578
21
-7.7066357654
0
LINE
5
272
100
AcDbEntity
8
0
100
AcDbLine
62
7
6
CONTINUOUS
10
-5.1789759077
20
19.8446489347
11
-5.1785562966
21
19.8094540733
0
LINE
5
273
100
AcDbEntity
8
0
100
AcDbLine
62
7
6
CONTINUOUS
10
-5.1329200293
20
22.8038883253
11
-5.1533694447
21
24.5190819389
0
LINE
5
274
100
AcDbEntity
8
0
100
AcDbLine
62
9
6
CONTINUOUS
10
-4.6087043269
20
24.7145581390
11
-4.6042685291
21
24.3425058392
0
LINE
5
275
100
AcDbEntity
8
0
100
AcDbLine
62
7
6
CONTINUOUS
10
-4.5309560655
20
24.7836492457
11
-4.5265202677
21
24.4115969459
0
LINE
5
276
100
AcDbEntity
8
0
100
AcDbLine
62
7
6
CONTINUOUS
10
-4.3780059908
20
20.1884712229
11
-4.3697411735
21
19.4952601199
0
LINE
5
277
100
AcDbEntity
8
0
100
AcDbLine
62
7
6
CONTINUOUS
10
-3.5196487567
20
-8.6746575731
11
-3.5268161240
21
-8.0734950310
0
LINE
5
278
100
AcDbEntity
8
0
100
AcDbLine
62
7
6
CONTINUOUS
10
12.3826954319
20
11.6440861600
11
8.9707093903
21
10.2280031460
0
LINE
5
279
100
AcDbEntity
8
0
100
AcDbLine
62
7
6
CONTINUOUS
10
-7.0872972000
20
-6.6903833737
11
-6.3341185109
21
-6.9829646858
0
LINE
5
27A
100
AcDbEntity
8
0
100
AcDbLine
62
7
6
CONTINUOUS
10
-3.5268161240
20
-8.0734950310
11
-3.3828343736
21
-8.1294264721
0
LINE
5
27B
100
AcDbEntity
8
0
100
AcDbLine
62
9
6
CONTINUOUS
10
-10.1434678326
20
-4.9838523742
11
-8.2262857148
21
-5.7286048050
0
LINE
5
27C
100
AcDbEntity
8
0
100
AcDbLine
62
9
6
CONTINUOUS
10
-3.2279180503
20
-7.6702807855
11
-1.4756039910
21
-8.3509882380
0
LINE
5
27D
100
AcDbEntity
8
0
100
AcDbLine
62
7
6
CONTINUOUS
10
-4.8766509700
20
-6.4550108557
11
-5.6298296592
21
-6.1624295436
0
LINE
5
27E
100
AcDbEntity
8
0
100
AcDbLine
62
7
6
CONTINUOUS
10
-9.3600977229
20
-4.7000839620
11
-7.4429156050
21
-5.4448363929
0
LINE
5
27F
100
AcDbEntity
8
0
100
AcDbLine
62
7
6
CONTINUOUS
10
-2.4445479405
20
-7.3865123733
11
-1.4862811714
21
-7.7587626145
0
LINE
5
280
100
AcDbEntity
8
0
100
AcDbLine
62
7
6
CONTINUOUS
10
-9.0575060246
20
-4.3562115356
11
-7.1060885118
21
-5.1142631170
0
LINE
5
281
100
AcDbEntity
8
0
100
AcDbLine
62
7
6
CONTINUOUS
10
-2.7924287466
20
-6.7899560864
11
-1.4944073125
21
-7.2941881097
0
LINE
5
282
100
AcDbEntity
8
0
100
AcDbLine
62
7
6
CONTINUOUS
10
-2.7838509100
20
-7.5094216645
11
-2.7924287466
21
-6.7899560864
0
LINE
5
283
100
AcDbEntity
8
0
100
AcDbLine
62
7
6
CONTINUOUS
10
-3.0320680485
20
22.7908851001
11
-3.0162732631
21
21.4660983294
0
LINE
5
284
100
AcDbEntity
8
0
100
AcDbLine
62
7
6
CONTINUOUS
10
-2.6446488449
20
-2.0332146830
11
-2.6568079290
21
-1.0133721640
0
LINE
5
285
100
AcDbEntity
8
0
100
AcDbLine
62
9
6
CONTINUOUS
10
-2.8943898582
20
22.4903465714
11
-2.8805975867
21
21.3335205382
0
LINE
5
286
100
AcDbEntity
8
0
100
AcDbLine
62
7
6
CONTINUOUS
10
8.9817631031
20
9.3008735832
11
11.3043822168
21
10.2648345827
0
LINE
5
287
100
AcDbEntity
8
0
100
AcDbLine
62
7
6
CONTINUOUS
10
8.9823068830
20
9.2552640757
11
10.5632793290
21
9.7221728510
0
LINE
5
288
100
AcDbEntity
8
0
100
AcDbLine
62
7
6
CONTINUOUS
10
-1.0707285122
20
18.2487508686
11
-1.0703089011
21
18.2135560072
0
LINE
5
289
100
AcDbEntity
8
0
100
AcDbLine
62
7
6
CONTINUOUS
10
11.3264896424
20
8.4105754572
11
9.0038705287
21
7.4466144577
0
LINE
5
28A
100
AcDbEntity
8
0
100
AcDbLine
62
7
6
CONTINUOUS
10
10.9008313258
20
6.7431661520
11
12.4335425107
21
7.3792901712
0
LINE
5
28B
100
AcDbEntity
8
0
100
AcDbLine
62
7
6
CONTINUOUS
10
10.3152243939
20
7.2716391411
11
9.0115868459
21
6.7994087708
0
LINE
5
28C
100
AcDbEntity
8
0
100
AcDbLine
62
7
6
CONTINUOUS
10
9.0167735122
20
6.3643774165
11
10.8972261083
21
7.0455535818
0
LINE
5
28D
100
AcDbEntity
8
0
100
AcDbLine
62
7
6
CONTINUOUS
10
9.1738015918
20
-6.8063442667
11
10.1825918029
21
-7.1982209460
0
LINE
5
28E
100
AcDbEntity
8
0
100
AcDbLine
62
7
6
CONTINUOUS
10
-2.6446488449
20
-2.0332146830
11
-1.5560916778
21
-2.4560777949
0
LINE
5
28F
100
AcDbEntity
8
0
100
AcDbLine
62
9
6
CONTINUOUS
10
2.4561289258
20
19.2604049975
11
2.4423366542
21
20.4172310307
0
LINE
5
290
100
AcDbEntity
8
0
100
AcDbLine
62
7
6
CONTINUOUS
10
10.9124712646
20
5.7668669186
11
17.6368730851
21
8.2027178703
0
LINE
5
291
100
AcDbEntity
8
0
100
AcDbLine
62
7
6
CONTINUOUS
10
9.0344594527
20
4.8809701161
11
9.9675581472
21
5.2189762917
0
LINE
5
292
100
AcDbEntity
8
0
100
AcDbLine
62
7
6
CONTINUOUS
10
19.6675371660
20
8.3985941559
11
18.3558163793
21
7.9234357088
0
LINE
5
293
100
AcDbEntity
8
0
100
AcDbLine
62
7
6
CONTINUOUS
10
20.4181959420
20
8.1880471539
11
20.1800660512
21
8.1017868535
0
LINE
5
294
100
AcDbEntity
8
0
100
AcDbLine
62
7
6
CONTINUOUS
10
-2.2154960384
20
-0.8535111061
11
-2.6568079290
21
-1.0133721640
0
LINE
5
295
100
AcDbEntity
8
0
100
AcDbLine
62
7
6
CONTINUOUS
10
10.8102680317
20
-6.7473463557
11
9.1654804488
21
-6.1084088551
0
LINE
5
296
100
AcDbEntity
8
0
100
AcDbLine
62
7
6
CONTINUOUS
10
-2.6568079290
20
-1.0133721640
11
-1.5640291780
21
-1.4378752008
0
LINE
5
297
100
AcDbEntity
8
0
100
AcDbLine
62
7
6
CONTINUOUS
10
-1.5662944210
20
-1.1057012753
11
-10.4713434261
21
2.3535720153
0
LINE
5
298
100
AcDbEntity
8
0
100
AcDbLine
62
9
6
CONTINUOUS
10
-1.4327738345
20
-0.8910884294
11
-10.9502136340
21
2.8060754238
0
LINE
5
299
100
AcDbEntity
8
0
100
AcDbLine
62
7
6
CONTINUOUS
10
9.3040468176
20
-4.9651265786
11
9.1511414805
21
-4.9057286631
0
LINE
5
29A
100
AcDbEntity
8
0
100
AcDbLine
62
9
6
CONTINUOUS
10
3.1604362131
20
19.2827893892
11
3.1447020212
21
20.6024938850
0
LINE
5
29B
100
AcDbEntity
8
0
100
AcDbLine
62
7
6
CONTINUOUS
10
3.5131596982
20
20.7371846238
11
3.5286348961
21
19.4392032359
0
LINE
5
29C
100
AcDbEntity
8
0
100
AcDbLine
62
9
6
CONTINUOUS
10
3.6381669032
20
23.4780453277
11
3.6225013339
21
24.7919941073
0
LINE
5
29D
100
AcDbEntity
8
0
100
AcDbLine
62
7
6
CONTINUOUS
10
3.7731021741
20
23.5944531779
11
3.7593598139
21
24.7470928909
0
LINE
5
29E
100
AcDbEntity
8
0
100
AcDbLine
62
7
6
CONTINUOUS
10
4.4349652419
20
19.4513110758
11
4.4393045767
21
19.0873495990
0
LINE
5
29F
100
AcDbEntity
8
0
100
AcDbLine
62
7
6
CONTINUOUS
10
4.9664414951
20
-25.1262309276
11
4.9707808300
21
-25.4901924044
0
LINE
5
2A0
100
AcDbEntity
8
0
100
AcDbLine
62
9
6
CONTINUOUS
10
4.5027640329
20
19.3882972630
11
4.5071033677
21
19.0243357862
0
LINE
5
2A1
100
AcDbEntity
8
0
100
AcDbLine
62
9
6
CONTINUOUS
10
5.0342402861
20
-25.1892447404
11
5.0385796210
21
-25.5532062172
0
LINE
5
2A2
100
AcDbEntity
8
0
100
AcDbLine
62
7
6
CONTINUOUS
10
5.1808500204
20
17.9441785361
11
5.1726211733
21
18.6343726362
0
LINE
5
2A3
100
AcDbEntity
8
0
100
AcDbLine
62
7
6
CONTINUOUS
10
9.0634642396
20
2.4481951807
11
9.6572599647
21
2.6632920652
0
LINE
5
2A4
100
AcDbEntity
8
0
100
AcDbLine
62
7
6
CONTINUOUS
10
-9.0575060246
20
-4.3562115356
11
-2.6446488449
21
-2.0332146830
0
LINE
5
2A5
100
AcDbEntity
8
0
100
AcDbLine
62
7
6
CONTINUOUS
10
9.0665152198
20
2.1922943840
11
9.9996139143
21
2.5303005597
0
LINE
5
2A6
100
AcDbEntity
8
0
100
AcDbLine
62
7
6
CONTINUOUS
10
-9.3600977229
20
-4.7000839620
11
-10.1434678326
21
-4.9838523742
0
LINE
5
2A7
100
AcDbEntity
8
0
100
AcDbLine
62
7
6
CONTINUOUS
10
17.1647677758
20
4.2161225787
11
14.1113732777
21
3.1100593046
0
LINE
5
2A8
100
AcDbEntity
8
0
100
AcDbLine
62
7
6
CONTINUOUS
10
10.9622129722
20
1.5947838862
11
11.5652511211
21
1.8132287513
0
LINE
5
2A9
100
AcDbEntity
8
0
100
AcDbLine
62
7
6
CONTINUOUS
10
9.2686749367
20
-1.9983119777
11
9.1157695996
21
-1.9389140622
0
LINE
5
2AA
100
AcDbEntity
8
0
100
AcDbLine
62
9
6
CONTINUOUS
10
5.2486878676
20
17.8778888857
11
5.2399806530
21
18.6082060369
0
LINE
5
2AB
100
AcDbEntity
8
0
100
AcDbLine
62
9
6
CONTINUOUS
10
6.3215930226
20
-26.0516081899
11
6.3172536878
21
-25.6876467131
0
LINE
5
2AC
100
AcDbEntity
8
0
100
AcDbLine
62
9
6
CONTINUOUS
10
5.7901167694
20
18.5259338135
11
5.7857774345
21
18.8898952903
0
LINE
5
2AD
100
AcDbEntity
8
0
100
AcDbLine
62
9
6
CONTINUOUS
10
6.6738906489
20
-26.0524925253
11
6.6695513140
21
-25.6885310485
0
LINE
5
2AE
100
AcDbEntity
8
0
100
AcDbLine
62
9
6
CONTINUOUS
10
6.1424143956
20
18.5250494781
11
6.1380750607
21
18.8890109549
0
LINE
5
2AF
100
AcDbEntity
8
0
100
AcDbLine
62
9
6
CONTINUOUS
10
7.0419936421
20
-24.7561191137
11
7.0349477922
21
-24.1651488325
0
LINE
5
2B0
100
AcDbEntity
8
0
100
AcDbLine
62
9
6
CONTINUOUS
10
6.5396682973
20
17.3763920251
11
6.5308113839
21
18.1192651564
0
LINE
5
2B1
100
AcDbEntity
8
0
100
AcDbLine
62
7
6
CONTINUOUS
10
6.4898866929
20
23.3031493456
11
6.4933431143
21
23.0132421953
0
LINE
5
2B2
100
AcDbEntity
8
0
100
AcDbLine
62
9
6
CONTINUOUS
10
7.3958867344
20
-24.8908230747
11
7.3860447856
21
-24.0653301522
0
LINE
5
2B3
100
AcDbEntity
8
0
100
AcDbLine
62
9
6
CONTINUOUS
10
6.8918330288
20
17.3866542258
11
6.8815135441
21
18.2522004466
0
LINE
5
2B4
100
AcDbEntity
8
0
100
AcDbLine
62
7
6
CONTINUOUS
10
-1.5500808016
20
-3.1016518796
11
-7.1060885118
21
-5.1142631170
0
LINE
5
2B5
100
AcDbEntity
8
0
100
AcDbLine
62
7
6
CONTINUOUS
10
19.7128328338
20
4.5994224739
11
21.1703003746
21
5.1273763041
0
LINE
5
2B6
100
AcDbEntity
8
0
100
AcDbLine
62
7
6
CONTINUOUS
10
9.0842011602
20
0.7088870836
11
10.9646537563
21
1.3900632489
0
LINE
5
2B7
100
AcDbEntity
8
0
100
AcDbLine
62
7
6
CONTINUOUS
10
-7.4429156050
20
-5.4448363929
11
-8.2262857148
21
-5.7286048050
0
LINE
5
2B8
100
AcDbEntity
8
0
100
AcDbLine
62
7
6
CONTINUOUS
10
-7.0872972000
20
-6.6903833737
11
-5.6298296592
21
-6.1624295436
0
LINE
5
2B9
100
AcDbEntity
8
0
100
AcDbLine
62
7
6
CONTINUOUS
10
-7.4252296645
20
-6.9282436933
11
-8.1950600065
21
-7.2071074527
0
LINE
5
2BA
100
AcDbEntity
8
0
100
AcDbLine
62
7
6
CONTINUOUS
10
-6.3341185109
20
-6.9829646858
11
-4.8766509700
21
-6.4550108557
0
LINE
5
2BB
100
AcDbEntity
8
0
100
AcDbLine
62
7
6
CONTINUOUS
10
11.6006230020
20
-1.1535858495
11
9.0948009434
21
-0.1801691605
0
LINE
5
2BC
100
AcDbEntity
8
0
100
AcDbLine
62
7
6
CONTINUOUS
10
11.5950961456
20
-0.6900210681
11
9.0892740870
21
0.2833956209
0
LINE
5
2BD
100
AcDbEntity
8
0
100
AcDbLine
62
7
6
CONTINUOUS
10
8.3038117612
20
-23.8044042827
11
8.3237150149
21
-25.4737886087
0
LINE
5
2BE
100
AcDbEntity
8
0
100
AcDbLine
62
7
6
CONTINUOUS
10
7.8080626933
20
17.7765219772
11
7.7876098509
21
19.4920030306
0
LINE
5
2BF
100
AcDbEntity
8
0
100
AcDbLine
62
9
6
CONTINUOUS
10
8.3322749688
20
19.6874792307
11
8.3367107666
21
19.3154269309
0
LINE
5
2C0
100
AcDbEntity
8
0
100
AcDbLine
62
9
6
CONTINUOUS
10
8.8638476850
20
-24.8981535958
11
8.8682834827
21
-25.2702058956
0
LINE
5
2C1
100
AcDbEntity
8
0
100
AcDbLine
62
7
6
CONTINUOUS
10
8.4100232301
20
19.7565703374
11
8.4144590279
21
19.3845180376
0
LINE
5
2C2
100
AcDbEntity
8
0
100
AcDbLine
62
7
6
CONTINUOUS
10
8.9415959463
20
-24.8290624890
11
8.9460317441
21
-25.2011147888
0
LINE
5
2C3
100
AcDbEntity
8
0
100
AcDbLine
62
7
6
CONTINUOUS
10
8.8847713593
20
17.4360508531
11
9.3687289466
21
-23.1558656120
0
LINE
5
2C4
100
AcDbEntity
8
0
100
AcDbLine
62
7
6
CONTINUOUS
10
9.3040468176
20
-4.9651265786
11
9.2686749367
21
-1.9983119777
0
LINE
5
2C5
100
AcDbEntity
8
0
100
AcDbLine
62
9
6
CONTINUOUS
10
9.0190007533
20
21.3891377937
11
9.0033390211
21
22.7027647319
0
LINE
5
2C6
100
AcDbEntity
8
0
100
AcDbLine
62
7
6
CONTINUOUS
10
9.1521263314
20
21.5049065869
11
9.1383837191
21
22.6575674516
0
LINE
5
2C7
100
AcDbEntity
8
0
100
AcDbLine
62
7
6
CONTINUOUS
10
-6.6378155804
20
-7.2341241560
11
-7.4076459224
21
-7.5129879153
0
LINE
5
2C8
100
AcDbEntity
8
0
100
AcDbLine
62
7
6
CONTINUOUS
10
13.0525636865
20
-0.1620672380
11
11.5950961456
21
-0.6900210681
0
LINE
5
2C9
100
AcDbEntity
8
0
100
AcDbLine
62
7
6
CONTINUOUS
10
9.2686749367
20
-1.9983119777
11
11.6006230020
21
-1.1535858495
0
LINE
5
2CA
100
AcDbEntity
8
0
100
AcDbLine
62
7
6
CONTINUOUS
10
-4.8684406141
20
-7.1436540128
11
-1.5157647969
21
-5.9291789118
0
LINE
5
2CB
100
AcDbEntity
8
0
100
AcDbLine
62
7
6
CONTINUOUS
10
18.8748295615
20
1.2231226187
11
19.7493100860
21
1.5398949168
0
LINE
5
2CC
100
AcDbEntity
8
0
100
AcDbLine
62
7
6
CONTINUOUS
10
-1.5099960668
20
-6.3254069790
11
-2.7924287466
21
-6.7899560864
0
LINE
5
2CD
100
AcDbEntity
8
0
100
AcDbLine
62
7
6
CONTINUOUS
10
-6.3191959986
20
-8.2345895956
11
-4.8617284578
21
-7.7066357654
0
LINE
5
2CE
100
AcDbEntity
8
0
100
AcDbLine
62
7
6
CONTINUOUS
10
-6.6228930681
20
-8.4857490657
11
-7.3783933955
21
-8.7594219128
0
LINE
5
2CF
100
AcDbEntity
8
0
100
AcDbLine
62
7
6
CONTINUOUS
10
-2.4445479405
20
-7.3865123733
11
-3.2279180503
21
-7.6702807855
0
LINE
5
2D0
100
AcDbEntity
8
0
100
AcDbLine
62
7
6
CONTINUOUS
10
-3.5268161240
20
-8.0734950310
11
-3.3849370043
21
-8.0221006620
0
LINE
5
2D1
100
AcDbEntity
8
0
100
AcDbLine
62
7
6
CONTINUOUS
10
15.9163035768
20
-0.5602279495
11
17.9704272745
21
-1.3581769825
0
LINE
5
2D2
100
AcDbEntity
8
0
100
AcDbLine
62
7
6
CONTINUOUS
10
9.9996139143
20
2.5303005597
11
9.6572599647
21
2.6632920652
0
LINE
5
2D3
100
AcDbEntity
8
0
100
AcDbLine
62
7
6
CONTINUOUS
10
11.6006230020
20
-1.1535858495
11
13.0801979685
21
-2.4798911449
0
LINE
5
2D4
100
AcDbEntity
8
0
100
AcDbLine
62
7
6
CONTINUOUS
10
9.6572599647
20
2.6632920652
11
9.6282551777
21
5.0960670006
0
LINE
5
2D5
100
AcDbEntity
8
0
100
AcDbLine
62
7
6
CONTINUOUS
10
9.9996139143
20
2.5303005597
11
9.9675581472
21
5.2189762917
0
LINE
5
2D6
100
AcDbEntity
8
0
100
AcDbLine
62
7
6
CONTINUOUS
10
10.1986196864
20
-8.5425588121
11
10.1825918029
21
-7.1982209460
0
LINE
5
2D7
100
AcDbEntity
8
0
100
AcDbLine
62
7
6
CONTINUOUS
10
10.5604903806
20
9.9560957483
11
10.5632793290
21
9.7221728510
0
LINE
5
2D8
100
AcDbEntity
8
0
100
AcDbLine
62
7
6
CONTINUOUS
10
10.8972261083
20
7.0455535818
11
10.9646537563
21
1.3900632489
0
LINE
5
2D9
100
AcDbEntity
8
0
100
AcDbLine
62
7
6
CONTINUOUS
10
11.3043822168
20
10.2648345827
11
11.3264896424
21
8.4105754572
0
LINE
5
2DA
100
AcDbEntity
8
0
100
AcDbLine
62
7
6
CONTINUOUS
10
11.5950961456
20
-0.6900210681
11
11.5652511211
21
1.8132287513
0
LINE
5
2DB
100
AcDbEntity
8
0
100
AcDbLine
62
7
6
CONTINUOUS
10
10.3916206169
20
-4.1055964246
11
10.0327805880
21
-4.7011496635
0
LINE
5
2DC
100
AcDbEntity
8
0
100
AcDbLine
62
7
6
CONTINUOUS
10
-3.3729861151
20
-8.6215304185
11
-3.9841064262
21
-8.8429029705
0
LINE
5
2DD
100
AcDbEntity
8
0
100
AcDbLine
62
7
6
CONTINUOUS
10
20.5209954710
20
-0.4342577798
11
17.9704272745
21
-1.3581769825
0
LINE
5
2DE
100
AcDbEntity
8
0
100
AcDbLine
62
7
6
CONTINUOUS
10
9.3040468176
20
-4.9651265786
11
10.0327805880
21
-4.7011496635
0
LINE
5
2DF
100
AcDbEntity
8
0
100
AcDbLine
62
7
6
CONTINUOUS
10
21.2399387652
20
-0.7135399414
11
23.7905069617
21
0.2103792613
0
LINE
5
2E0
100
AcDbEntity
8
0
100
AcDbLine
62
7
6
CONTINUOUS
10
20.5209954710
20
-0.4342577798
11
21.2399387652
21
-0.7135399414
0
LINE
5
2E1
100
AcDbEntity
8
0
100
AcDbLine
62
7
6
CONTINUOUS
10
18.1558862673
20
1.5024047803
11
18.8748295615
21
1.2231226187
0
LINE
5
2E2
100
AcDbEntity
8
0
100
AcDbLine
62
7
6
CONTINUOUS
10
10.8102680317
20
-6.7473463557
11
10.3916206169
21
-4.1055964246
0
LINE
5
2E3
100
AcDbEntity
8
0
100
AcDbLine
62
7
6
CONTINUOUS
10
12.4335425107
20
7.3792901712
11
12.3826954319
21
11.6440861600
0
LINE
5
2E4
100
AcDbEntity
8
0
100
AcDbLine
62
7
6
CONTINUOUS
10
13.0801979685
20
-2.4798911449
11
13.0525636865
21
-0.1620672380
0
LINE
5
2E5
100
AcDbEntity
8
0
100
AcDbLine
62
9
6
CONTINUOUS
10
13.8150247597
20
-17.7701426066
11
13.8260850579
21
-18.6978245164
0
LINE
5
2E6
100
AcDbEntity
8
0
100
AcDbLine
62
9
6
CONTINUOUS
10
13.3730163082
20
19.3032923678
11
13.3672175061
21
19.7896665752
0
LINE
5
2E7
100
AcDbEntity
8
0
100
AcDbLine
62
7
6
CONTINUOUS
10
13.8772233688
20
-17.7148697212
11
13.8882976292
21
-18.6437227156
0
LINE
5
2E8
100
AcDbEntity
8
0
100
AcDbLine
62
7
6
CONTINUOUS
10
13.4352149172
20
19.3585652533
11
13.4297870832
21
19.8138245370
0
LINE
5
2E9
100
AcDbEntity
8
0
100
AcDbLine
62
7
6
CONTINUOUS
10
15.9163035768
20
-0.5602279495
11
14.1780628672
21
-2.4835264030
0
LINE
5
2EA
100
AcDbEntity
8
0
100
AcDbLine
62
7
6
CONTINUOUS
10
14.2141973614
20
-5.5143051546
11
10.8102680317
21
-6.7473463557
0
LINE
5
2EB
100
AcDbEntity
8
0
100
AcDbLine
62
7
6
CONTINUOUS
10
10.1825918029
20
-7.1982209460
11
9.1827916996
21
-7.5603890761
0
LINE
5
2EC
100
AcDbEntity
8
0
100
AcDbLine
62
7
6
CONTINUOUS
10
0.3490653526
20
9.2411509014
11
-12.6603847330
21
14.2948281108
0
LINE
5
2ED
100
AcDbEntity
8
0
100
AcDbLine
62
7
6
CONTINUOUS
10
0.2449541391
20
9.3283349146
11
-12.4664255640
21
14.2662231023
0
LINE
5
2EE
100
AcDbEntity
8
0
100
AcDbLine
62
9
6
CONTINUOUS
10
0.1519146411
20
9.4199575970
11
-12.4467107049
21
14.3140449998
0
LINE
5
2EF
100
AcDbEntity
8
0
100
AcDbLine
62
7
6
CONTINUOUS
10
17.1647677758
20
4.2161225787
11
17.8837110700
21
3.9368404171
0
LINE
5
2F0
100
AcDbEntity
8
0
100
AcDbLine
62
9
6
CONTINUOUS
10
13.7183983543
20
20.4601275814
11
13.7247461387
21
19.9277075121
0
LINE
5
2F1
100
AcDbEntity
8
0
100
AcDbLine
62
9
6
CONTINUOUS
10
14.1888187670
20
-18.9963590975
11
14.1951665514
21
-19.5287791668
0
LINE
5
2F2
100
AcDbEntity
8
0
100
AcDbLine
62
7
6
CONTINUOUS
10
13.8679358193
20
20.7448890213
11
13.8760153378
21
20.0672198404
0
LINE
5
2F3
100
AcDbEntity
8
0
100
AcDbLine
62
7
6
CONTINUOUS
10
14.3401567295
20
-18.8626142935
11
14.3482362481
21
-19.5402834745
0
LINE
5
2F4
100
AcDbEntity
8
0
100
AcDbLine
62
7
6
CONTINUOUS
10
14.2141973614
20
-5.5143051546
11
14.1113732777
21
3.1100593046
0
LINE
5
2F5
100
AcDbEntity
8
0
100
AcDbLine
62
7
6
CONTINUOUS
10
10.1986196864
20
-8.5425588121
11
9.1988195831
21
-8.9047269421
0
LINE
5
2F6
100
AcDbEntity
8
0
100
AcDbLine
62
7
6
CONTINUOUS
10
10.8972261083
20
7.0455535818
11
10.3152243939
21
7.2716391411
0
LINE
5
2F7
100
AcDbEntity
8
0
100
AcDbLine
62
7
6
CONTINUOUS
10
9.0787358112
20
9.2837424423
11
11.3264896424
21
8.4105754572
0
LINE
5
2F8
100
AcDbEntity
8
0
100
AcDbLine
62
7
6
CONTINUOUS
10
15.9163035768
20
-0.5602279495
11
15.3224282218
21
3.5487525024
0
LINE
5
2F9
100
AcDbEntity
8
0
100
AcDbLine
62
7
6
CONTINUOUS
10
17.6368730851
20
8.2027178703
11
17.1647677758
21
4.2161225787
0
LINE
5
2FA
100
AcDbEntity
8
0
100
AcDbLine
62
7
6
CONTINUOUS
10
18.3558163793
20
7.9234357088
11
17.8837110700
21
3.9368404171
0
LINE
5
2FB
100
AcDbEntity
8
0
100
AcDbLine
62
9
6
CONTINUOUS
10
0.2271746166
20
14.0299810397
11
-12.3714507294
21
18.9240684425
0
LINE
5
2FC
100
AcDbEntity
8
0
100
AcDbLine
62
9
6
CONTINUOUS
10
-13.2561102768
20
19.2980117049
11
-12.5832141424
21
19.0366171159
0
LINE
5
2FD
100
AcDbEntity
8
0
100
AcDbLine
62
9
6
CONTINUOUS
10
0.4262359432
20
13.9829399065
11
1.0991320776
21
13.7215453175
0
LINE
5
2FE
100
AcDbEntity
8
0
100
AcDbLine
62
7
6
CONTINUOUS
10
17.6368730851
20
8.2027178703
11
18.3558163793
21
7.9234357088
0
LINE
5
2FF
100
AcDbEntity
8
0
100
AcDbLine
62
7
6
CONTINUOUS
10
17.1647677758
20
4.2161225787
11
18.1558862673
21
1.5024047803
0
LINE
5
300
100
AcDbEntity
8
0
100
AcDbLine
62
7
6
CONTINUOUS
10
17.9704272745
20
-1.3581769825
11
17.1647677758
21
4.2161225787
0
LINE
5
301
100
AcDbEntity
8
0
100
AcDbLine
62
7
6
CONTINUOUS
10
19.7493100860
20
1.5398949168
11
19.7128328338
21
4.5994224739
0
LINE
5
302
100
AcDbEntity
8
0
100
AcDbLine
62
7
6
CONTINUOUS
10
12.3876735754
20
11.2265446437
11
19.6675371660
21
8.3985941559
0
LINE
5
303
100
AcDbEntity
8
0
100
AcDbLine
62
7
6
CONTINUOUS
10
20.4181959420
20
8.1880471539
11
12.3867026946
21
11.3079772136
0
LINE
5
304
100
AcDbEntity
8
0
100
AcDbLine
62
9
6
CONTINUOUS
10
1.2462682189
20
15.7365903699
11
-11.3523571271
21
20.6306777727
0
LINE
5
305
100
AcDbEntity
8
0
100
AcDbLine
62
9
6
CONTINUOUS
10
-12.2483348210
20
21.0089109384
11
-11.5641226762
21
20.7431205092
0
LINE
5
306
100
AcDbEntity
8
0
100
AcDbLine
62
9
6
CONTINUOUS
10
1.4453274094
20
15.6894432998
11
2.1295395542
21
15.4236528705
0
LINE
5
307
100
AcDbEntity
8
0
100
AcDbLine
62
7
6
CONTINUOUS
10
8.9378716199
20
12.9822693633
11
12.3826954319
21
11.6440861600
0
LINE
5
308
100
AcDbEntity
8
0
100
AcDbLine
62
7
6
CONTINUOUS
10
-9.4237452718
20
21.4585487417
11
3.1748800742
21
16.5644613389
0
LINE
5
309
100
AcDbEntity
8
0
100
AcDbLine
62
7
6
CONTINUOUS
10
3.3798728328
20
16.5198612969
11
-1.0707285122
21
18.2487508686
0
LINE
5
30A
100
AcDbEntity
8
0
100
AcDbLine
62
7
6
CONTINUOUS
10
-5.1789759077
20
19.8446489347
11
-9.6295772527
21
21.5735385063
0
LINE
5
30B
100
AcDbEntity
8
0
100
AcDbLine
62
7
6
CONTINUOUS
10
23.7208685711
20
6.0512955068
11
19.6675371660
21
8.3985941559
0
LINE
5
30C
100
AcDbEntity
8
0
100
AcDbLine
62
7
6
CONTINUOUS
10
17.8837110700
20
3.9368404171
11
18.8748295615
21
1.2231226187
0
LINE
5
30D
100
AcDbEntity
8
0
100
AcDbLine
62
7
6
CONTINUOUS
10
20.4577641388
20
4.8692667927
11
20.5209954710
21
-0.4342577798
0
LINE
5
30E
100
AcDbEntity
8
0
100
AcDbLine
62
7
6
CONTINUOUS
10
20.4208870988
20
7.9623265274
11
20.4181959420
21
8.1880471539
0
LINE
5
30F
100
AcDbEntity
8
0
100
AcDbLine
62
7
6
CONTINUOUS
10
21.1703003746
20
5.1273763041
11
21.2399387652
21
-0.7135399414
0
LINE
5
310
100
AcDbEntity
8
0
100
AcDbLine
62
7
6
CONTINUOUS
10
5.0303284097
20
-24.9563118035
11
5.2967383262
21
-24.6593307201
0
LINE
5
311
100
AcDbEntity
8
0
100
AcDbLine
62
9
6
CONTINUOUS
10
5.1229388084
20
-24.9555181875
11
5.4200984171
21
-24.6242588121
0
LINE
5
312
100
AcDbEntity
8
0
100
AcDbLine
62
7
6
CONTINUOUS
10
-4.3780059908
20
20.1884712229
11
-0.2697585954
21
18.5925731568
0
LINE
5
313
100
AcDbEntity
8
0
100
AcDbLine
62
7
6
CONTINUOUS
10
-7.6922914280
20
22.9049677940
11
-6.4013109984
21
22.4034709335
0
LINE
5
314
100
AcDbEntity
8
0
100
AcDbLine
62
7
6
CONTINUOUS
10
5.2486878676
20
17.8778888857
11
6.5396682973
21
17.3763920251
0
LINE
5
315
100
AcDbEntity
8
0
100
AcDbLine
62
7
6
CONTINUOUS
10
23.7905069617
20
0.2103792613
11
23.7208685711
21
6.0512955068
0
LINE
5
316
100
AcDbEntity
8
0
100
AcDbLine
62
9
6
CONTINUOUS
10
7.0414957029
20
-24.7559256832
11
6.4059522100
21
-25.4539201603
0
LINE
5
317
100
AcDbEntity
8
0
100
AcDbLine
62
9
6
CONTINUOUS
10
7.3958867344
20
-24.8908230747
11
6.6695513140
21
-25.6885310485
0
LINE
5
318
100
AcDbEntity
8
0
100
AcDbLine
62
7
6
CONTINUOUS
10
5.8857204069
20
18.3573988600
11
6.5325259086
21
18.1186213494
0
LINE
5
319
100
AcDbEntity
8
0
100
AcDbLine
62
7
6
CONTINUOUS
10
-7.0552588888
20
23.3844777683
11
-6.4084533870
21
23.1457002577
0
LINE
5
31A
100
AcDbEntity
8
0
100
AcDbLine
62
9
6
CONTINUOUS
10
6.1424143956
20
18.5250494781
11
6.8815135441
21
18.2522004466
0
LINE
5
31B
100
AcDbEntity
8
0
100
AcDbLine
62
9
6
CONTINUOUS
10
-6.7985649000
20
23.5521283864
11
-6.0594657515
21
23.2792793549
0
LINE
5
31C
100
AcDbEntity
8
0
100
AcDbLine
62
7
6
CONTINUOUS
10
2.4561289258
20
19.2604049975
11
-2.8805975867
21
21.3335205382
0
LINE
5
31D
100
AcDbEntity
8
0
100
AcDbLine
62
7
6
CONTINUOUS
10
-8.3422176361
20
23.8843741682
11
-7.0592042345
21
23.3859721955
0
LINE
5
31E
100
AcDbEntity
8
0
100
AcDbLine
62
7
6
CONTINUOUS
10
4.5987616596
20
18.8572952599
11
5.8817750612
21
18.3588932872
0
LINE
5
31F
100
AcDbEntity
8
0
100
AcDbLine
62
9
6
CONTINUOUS
10
-8.4338759279
20
24.0514146945
11
-7.1508625263
21
23.5530127218
0
LINE
5
320
100
AcDbEntity
8
0
100
AcDbLine
62
9
6
CONTINUOUS
10
4.5071033677
20
19.0243357862
11
5.7901167694
21
18.5259338135
0
LINE
5
321
100
AcDbEntity
8
0
100
AcDbLine
62
7
6
CONTINUOUS
10
4.4393673153
20
19.0854182841
11
3.5286348961
21
19.4392032359
0
LINE
5
322
100
AcDbEntity
8
0
100
AcDbLine
62
7
6
CONTINUOUS
10
-3.0224485516
20
21.9840503201
11
-5.1329200293
21
22.8038883253
0
LINE
5
323
100
AcDbEntity
8
0
100
AcDbLine
62
9
6
CONTINUOUS
10
5.7857774345
20
18.8898952903
11
4.5027640329
21
19.3882972630
0
LINE
5
324
100
AcDbEntity
8
0
100
AcDbLine
62
9
6
CONTINUOUS
10
-7.1552018611
20
23.9169741986
11
-8.4382152628
21
24.4153761713
0
LINE
5
325
100
AcDbEntity
8
0
100
AcDbLine
62
7
6
CONTINUOUS
10
-5.1393762701
20
23.3454051700
11
-3.7253572507
21
22.7961124908
0
LINE
5
326
100
AcDbEntity
8
0
100
AcDbLine
62
7
6
CONTINUOUS
10
7.8016030256
20
18.3183262617
11
8.5367852028
21
18.0327359109
0
LINE
5
327
100
AcDbEntity
8
0
100
AcDbLine
62
9
6
CONTINUOUS
10
2.4423366542
20
20.4172310307
11
-2.8943898582
21
22.4903465714
0
LINE
5
328
100
AcDbEntity
8
0
100
AcDbLine
62
9
6
CONTINUOUS
10
5.9641376014
20
19.1872840505
11
4.6811241997
21
19.6856860233
0
LINE
5
329
100
AcDbEntity
8
0
100
AcDbLine
62
9
6
CONTINUOUS
10
-6.9768416943
20
24.2143629588
11
-8.2598550959
21
24.7127649316
0
LINE
5
32A
100
AcDbEntity
8
0
100
AcDbLine
62
9
6
CONTINUOUS
10
2.8583086159
20
20.5489816520
11
-3.0249855530
21
22.8344179665
0
LINE
5
32B
100
AcDbEntity
8
0
100
AcDbLine
62
7
6
CONTINUOUS
10
-2.5122698151
20
23.0778351208
11
3.5131596982
21
20.7371846238
0
LINE
5
32C
100
AcDbEntity
8
0
100
AcDbLine
62
7
6
CONTINUOUS
10
13.3277959799
20
-20.1544322677
11
9.3503571354
21
-21.6149309422
0
LINE
5
32D
100
AcDbEntity
8
0
100
AcDbLine
62
7
6
CONTINUOUS
10
14.1888187670
20
-18.9963590975
11
9.3401459524
21
-20.7584685254
0
LINE
5
32E
100
AcDbEntity
8
0
100
AcDbLine
62
7
6
CONTINUOUS
10
13.8260850579
20
-18.6978245164
11
9.3345964245
21
-20.2930021657
0
LINE
5
32F
100
AcDbEntity
8
0
100
AcDbLine
62
7
6
CONTINUOUS
10
14.1951665514
20
-19.5287791668
11
9.3458411925
21
-21.2361564797
0
LINE
5
330
100
AcDbEntity
8
0
100
AcDbLine
62
7
6
CONTINUOUS
10
3.6257206679
20
21.2351523668
11
-1.1672346268
21
23.0970334439
0
LINE
5
331
100
AcDbEntity
8
0
100
AcDbLine
62
7
6
CONTINUOUS
10
-6.6282577064
20
25.3227250062
11
-5.3273069041
21
24.8173550346
0
LINE
5
332
100
AcDbEntity
8
0
100
AcDbLine
62
7
6
CONTINUOUS
10
6.3127215893
20
20.2956460979
11
7.6136723915
21
19.7902761263
0
LINE
5
333
100
AcDbEntity
8
0
100
AcDbLine
62
9
6
CONTINUOUS
10
-6.0776057300
20
25.5158755390
11
-4.7826417863
21
25.0128312346
0
LINE
5
334
100
AcDbEntity
8
0
100
AcDbLine
62
9
6
CONTINUOUS
10
6.8633735657
20
20.4887966307
11
8.1583375094
21
19.9857523263
0
LINE
5
335
100
AcDbEntity
8
0
100
AcDbLine
62
7
6
CONTINUOUS
10
-5.9853770921
20
25.5167478892
11
-4.6904131484
21
25.0137035848
0
LINE
5
336
100
AcDbEntity
8
0
100
AcDbLine
62
7
6
CONTINUOUS
10
6.9556022036
20
20.4896689809
11
8.2505661473
21
19.9866246765
0
LINE
5
337
100
AcDbEntity
8
0
100
AcDbLine
62
9
6
CONTINUOUS
10
8.6297591907
20
-23.4227060342
11
9.3687289466
21
-23.1558656120
0
LINE
5
338
100
AcDbEntity
8
0
100
AcDbLine
62
7
6
CONTINUOUS
10
8.4537475514
20
-23.7612798884
11
9.1964297417
21
-23.4930989140
0
LINE
5
339
100
AcDbEntity
8
0
100
AcDbLine
62
7
6
CONTINUOUS
10
6.4933431143
20
23.0132421953
11
5.0840798100
21
23.1545434598
0
LINE
5
33A
100
AcDbEntity
8
0
100
AcDbLine
62
7
6
CONTINUOUS
10
6.9702789097
20
22.4218267547
11
5.0840798100
21
23.1545434598
0
LINE
5
33B
100
AcDbEntity
8
0
100
AcDbLine
62
7
6
CONTINUOUS
10
7.5167078760
20
22.6157038567
11
6.4933431143
21
23.0132421953
0
LINE
5
33C
100
AcDbEntity
8
0
100
AcDbLine
62
9
6
CONTINUOUS
10
8.9513773240
20
22.6889198855
11
8.3650281574
21
22.9166942649
0
LINE
5
33D
100
AcDbEntity
8
0
100
AcDbLine
62
9
6
CONTINUOUS
10
3.5720728627
20
24.7785753421
11
2.9857236961
21
25.0063497215
0
LINE
5
33E
100
AcDbEntity
8
0
100
AcDbLine
62
9
6
CONTINUOUS
10
2.7866446827
20
25.1222303336
11
3.0468343998
21
25.0211565115
0
LINE
5
33F
100
AcDbEntity
8
0
100
AcDbLine
62
9
6
CONTINUOUS
10
3.7593924592
20
24.7443547711
11
5.7564589517
21
23.9685702950
0
LINE
5
340
100
AcDbEntity
8
0
100
AcDbLine
62
9
6
CONTINUOUS
10
9.8647063472
20
22.3726722289
11
12.8345206162
21
21.2190121903
0
LINE
5
341
100
AcDbEntity
8
0
100
AcDbLine
62
7
6
CONTINUOUS
10
9.1069075372
20
22.7019016509
11
8.5781293236
21
22.9073119018
0
LINE
5
342
100
AcDbEntity
8
0
100
AcDbLine
62
7
6
CONTINUOUS
10
3.7278855062
20
24.7914473941
11
3.1991075729
21
24.9968575361
0
LINE
5
343
100
AcDbEntity
8
0
100
AcDbLine
62
7
6
CONTINUOUS
10
3.0570371830
20
25.1624200333
11
6.1232535257
21
23.9713114509
0
LINE
5
344
100
AcDbEntity
8
0
100
AcDbLine
62
7
6
CONTINUOUS
10
10.2315009211
20
22.3754133847
11
13.2977172638
21
21.1843048022
0
LINE
5
345
100
AcDbEntity
8
0
100
AcDbLine
62
9
6
CONTINUOUS
10
8.8682834827
20
-25.2702058956
11
8.3237150149
21
-25.4737886087
0
LINE
5
346
100
AcDbEntity
8
0
100
AcDbLine
62
7
6
CONTINUOUS
10
8.7835926430
20
-25.4382665095
11
8.2386469957
21
-25.6419902282
0
LINE
5
347
100
AcDbEntity
8
0
100
AcDbLine
62
7
6
CONTINUOUS
10
8.2367291930
20
-25.6426850162
11
8.2386434224
21
-25.6419915640
0
LINE
5
348
100
AcDbEntity
8
0
100
AcDbLine
62
9
6
CONTINUOUS
10
8.3237150149
20
-25.4737886087
11
6.6738906489
21
-26.0524925253
0
LINE
5
349
100
AcDbEntity
8
0
100
AcDbLine
62
7
6
CONTINUOUS
10
8.2367255347
20
-25.6426862995
11
6.5865252438
21
-26.2215220781
0
SPLINE
5
34A
100
AcDbEntity
8
0
100
AcDbSpline
62
7
6
CONTINUOUS
70
0
71
3
72
8
73
4
74
2
42
0.0000001000
43
0.0000001000
44
0.0000000001
12
-0.0007873168
22
-0.0606842890
32
0.0000000000
13
0.0176415403
23
-0.0575206549
33
0.0000000000
40
0.0000000000
40
0.0000000000
40
0.0000000000
40
0.0000000000
40
1.0000000000
40
1.0000000000
40
1.0000000000
40
1.0000000000
10
-12.5148917087
20
14.3455369151
30
0.0000000000
10
-12.5151541477
20
14.3253088188
30
0.0000000000
10
-12.5130832081
20
14.3050059645
30
0.0000000000
10
-12.5072026947
20
14.2858324129
30
0.0000000000
11
-12.5148917087
21
14.3455369151
31
0.0000000000
11
-12.5072026947
21
14.2858324129
31
0.0000000000
0
SPLINE
5
34B
100
AcDbEntity
8
0
100
AcDbSpline
62
7
6
CONTINUOUS
70
0
71
3
72
10
73
6
74
4
42
0.0000001000
43
0.0000001000
44
0.0000000001
12
-0.0934173352
22
-4.6396333243
32
0.0000000000
13
-0.0578000782
23
-4.6402138240
33
0.0000000000
40
0.0000000000
40
0.0000000000
40
0.0000000000
40
0.0000000000
40
0.3362665343
40
0.6722445660
40
1.0000000000
40
1.0000000000
40
1.0000000000
40
1.0000000000
10
-12.4392567499
20
18.9855251024
30
0.0000000000
10
-12.4497277911
20
18.4654739630
30
0.0000000000
10
-12.4693242282
20
17.4257904339
30
0.0000000000
10
-12.4944895200
20
15.8791357095
30
0.0000000000
10
-12.5085739143
20
14.8525296398
30
0.0000000000
10
-12.5148886776
20
14.3455778745
30
0.0000000000
11
-12.4392567499
21
18.9855251024
31
0.0000000000
11
-12.4686622616
21
17.4253325539
31
0.0000000000
11
-12.4940254601
21
15.8664080510
31
0.0000000000
11
-12.5148886776
21
14.3455778745
31
0.0000000000
0
SPLINE
5
34C
100
AcDbEntity
8
0
100
AcDbSpline
62
7
6
CONTINUOUS
70
0
71
3
72
14
73
10
74
8
42
0.0000001000
43
0.0000001000
44
0.0000000001
12
0.0407322710
22
2.0229948765
32
0.0000000000
13
1.8593404223
23
0.7981356916
33
0.0000000000
40
0.0000000000
40
0.0000000000
40
0.0000000000
40
0.0000000000
40
0.1453752134
40
0.2939874569
40
0.4430726614
40
0.5903911943
40
0.7337092118
40
0.8709052870
40
1.0000000000
40
1.0000000000
40
1.0000000000
40
1.0000000000
10
-12.4392567499
20
18.9855251025
30
0.0000000000
10
-12.4372829290
20
19.0835562064
30
0.0000000000
10
-12.4168205807
20
19.2817510818
30
0.0000000000
10
-12.3418868061
20
19.5720698757
30
0.0000000000
10
-12.2256225091
20
19.8499240484
30
0.0000000000
10
-12.0723053601
20
20.1050513535
30
0.0000000000
10
-11.8869063171
20
20.3278082292
30
0.0000000000
10
-11.6760784620
20
20.5084592804
30
0.0000000000
10
-11.5186860292
20
20.5980510290
30
0.0000000000
10
-11.4386756898
20
20.6323960616
30
0.0000000000
11
-12.4392567499
21
18.9855251025
31
0.0000000000
11
-12.4098916526
21
19.2782086020
31
0.0000000000
11
-12.3351314244
21
19.5694697342
31
0.0000000000
11
-12.2186063566
21
19.8477151352
31
0.0000000000
11
-12.0645874633
21
20.1029265621
31
0.0000000000
11
-11.8782959480
21
20.3251649276
31
0.0000000000
11
-11.6665118930
21
20.5046393175
31
0.0000000000
11
-11.4386756898
21
20.6323960616
31
0.0000000000
0
SPLINE
5
34D
100
AcDbEntity
8
0
100
AcDbSpline
62
7
6
CONTINUOUS
70
0
71
3
72
10
73
6
74
4
42
0.0000001000
43
0.0000001000
44
0.0000000001
12
0.0827826432
22
0.0354653400
32
0.0000000000
13
0.0836096856
23
-0.0324791870
33
0.0000000000
40
0.0000000000
40
0.0000000000
40
0.0000000000
40
0.0000000000
40
0.2595695663
40
0.6161056340
40
1.0000000000
40
1.0000000000
40
1.0000000000
40
1.0000000000
10
-9.5114372000
20
21.4596708347
30
0.0000000000
10
-9.5042745817
20
21.4627394090
30
0.0000000000
10
-9.4864168982
20
21.4680513315
30
0.0000000000
10
-9.4560941405
20
21.4684953503
30
0.0000000000
10
-9.4344443676
20
21.4627049340
30
0.0000000000
10
-9.4237452718
20
21.4585487417
30
0.0000000000
11
-9.5114372000
21
21.4596708347
31
0.0000000000
11
-9.4890811308
21
21.4663210019
31
0.0000000000
11
-9.4571097044
21
21.4670643682
31
0.0000000000
11
-9.4237452718
21
21.4585487417
31
0.0000000000
0
SPLINE
5
34E
100
AcDbEntity
8
0
100
AcDbSpline
62
7
6
CONTINUOUS
70
0
71
3
72
8
73
4
74
2
42
0.0000001000
43
0.0000001000
44
0.0000000001
12
-0.0094966722
22
-0.0032011443
32
0.0000000000
13
-0.0095758857
23
0.0033706212
33
0.0000000000
40
0.0000000000
40
0.0000000000
40
0.0000000000
40
0.0000000000
40
1.0000000000
40
1.0000000000
40
1.0000000000
40
1.0000000000
10
0.2550395369
20
9.3281860648
30
0.0000000000
10
0.2518739795
20
9.3271190167
30
0.0000000000
10
0.2481888473
20
9.3272126532
30
0.0000000000
10
0.2449968854
20
9.3283361936
30
0.0000000000
11
0.2550395369
21
9.3281860648
31
0.0000000000
11
0.2449968854
21
9.3283361936
31
0.0000000000
0
SPLINE
5
34F
100
AcDbEntity
8
0
100
AcDbSpline
62
7
6
CONTINUOUS
70
0
71
3
72
11
73
7
74
5
42
0.0000001000
43
0.0000001000
44
0.0000000001
12
0.1286900273
22
-0.0499911874
32
0.0000000000
13
0.0801409067
23
-0.1125428301
33
0.0000000000
40
0.0000000000
40
0.0000000000
40
0.0000000000
40
0.0000000000
40
0.2734039061
40
0.5723407351
40
0.8945202843
40
1.0000000000
40
1.0000000000
40
1.0000000000
40
1.0000000000
10
3.1748800742
20
16.5644613389
30
0.0000000000
10
3.1866081929
20
16.5599054102
30
0.0000000000
10
3.2100517344
20
16.5473974785
30
0.0000000000
10
3.2422091796
20
16.5213984394
30
0.0000000000
10
3.2646193353
20
16.4964100450
30
0.0000000000
10
3.2763891992
20
16.4806121887
30
0.0000000000
10
3.2792069459
20
16.4766551934
30
0.0000000000
11
3.1748800742
21
16.5644613389
31
0.0000000000
11
3.2083513740
21
16.5470137207
31
0.0000000000
11
3.2406388887
21
16.5213076683
31
0.0000000000
11
3.2704968590
21
16.4883387696
31
0.0000000000
11
3.2792069459
21
16.4766551934
31
0.0000000000
0
SPLINE
5
350
100
AcDbEntity
8
0
100
AcDbSpline
62
7
6
CONTINUOUS
70
0
71
3
72
8
73
4
74
2
42
0.0000001000
43
0.0000001000
44
0.0000000001
12
0.0390208740
22
-0.0229102446
32
0.0000000000
13
0.0422455788
23
-0.0164004234
33
0.0000000000
40
0.0000000000
40
0.0000000000
40
0.0000000000
40
0.0000000000
40
1.0000000000
40
1.0000000000
40
1.0000000000
40
1.0000000000
10
-12.5072026947
20
14.2858324129
30
0.0000000000
10
-12.4941957367
20
14.2781956647
30
0.0000000000
10
-12.4805015543
20
14.2716877291
30
0.0000000000
10
-12.4664196947
20
14.2662209213
30
0.0000000000
11
-12.5072026947
21
14.2858324129
31
0.0000000000
11
-12.4664196947
21
14.2662209213
31
0.0000000000
0
SPLINE
5
351
100
AcDbEntity
8
0
100
AcDbSpline
62
9
6
CONTINUOUS
70
0
71
3
72
9
73
5
74
3
42
0.0000001000
43
0.0000001000
44
0.0000000001
12
0.0815803664
22
0.0345523806
32
0.0000000000
13
0.0818273563
23
-0.0317868198
33
0.0000000000
40
0.0000000000
40
0.0000000000
40
0.0000000000
40
0.0000000000
40
0.3947568080
40
1.0000000000
40
1.0000000000
40
1.0000000000
40
1.0000000000
10
-11.4386510026
20
20.6323377737
30
0.0000000000
10
-11.4279162009
20
20.6368843695
30
0.0000000000
10
-11.3984880349
20
20.6434762660
30
0.0000000000
10
-11.3688656106
20
20.6370906915
30
0.0000000000
10
-11.3523571271
20
20.6306777727
30
0.0000000000
11
-11.4386510026
21
20.6323377737
31
0.0000000000
11
-11.4046519913
21
20.6400664441
31
0.0000000000
11
-11.3523571271
21
20.6306777727
31
0.0000000000
0
SPLINE
5
352
100
AcDbEntity
8
0
100
AcDbSpline
62
9
6
CONTINUOUS
70
0
71
3
72
10
73
6
74
4
42
0.0000001000
43
0.0000001000
44
0.0000000001
12
-0.2030090085
22
-0.0014063100
32
0.0000000000
13
-0.1891402234
23
0.0734737935
33
0.0000000000
40
0.0000000000
40
0.0000000000
40
0.0000000000
40
0.0000000000
40
0.3166507871
40
0.6830141046
40
1.0000000000
40
1.0000000000
40
1.0000000000
40
1.0000000000
10
0.4267913778
20
13.9992108003
30
0.0000000000
10
0.4053637237
20
13.9990623639
30
0.0000000000
10
0.3591258637
20
14.0008228497
30
0.0000000000
10
0.2920077777
20
14.0100564973
30
0.0000000000
10
0.2471595443
20
14.0222176543
30
0.0000000000
10
0.2271746166
20
14.0299810397
30
0.0000000000
11
0.4267913778
21
13.9992108003
31
0.0000000000
11
0.3625761965
21
14.0016718454
31
0.0000000000
11
0.2889859394
21
14.0121943100
31
0.0000000000
11
0.2271746166
21
14.0299810397
31
0.0000000000
0
SPLINE
5
353
100
AcDbEntity
8
0
100
AcDbSpline
62
9
6
CONTINUOUS
70
0
71
3
72
15
73
11
74
9
42
0.0000001000
43
0.0000001000
44
0.0000000001
12
0.0404699264
22
2.0099654855
32
0.0000000000
13
1.7929938897
23
0.9143750919
33
0.0000000000
40
0.0000000000
40
0.0000000000
40
0.0000000000
40
0.0000000000
40
0.1273786009
40
0.2624162050
40
0.4018468802
40
0.5417086328
40
0.6781910349
40
0.8078999967
40
0.9280939946
40
1.0000000000
40
1.0000000000
40
1.0000000000
40
1.0000000000
10
-12.3714507294
20
18.9240684425
30
0.0000000000
10
-12.3697323952
20
19.0094106396
30
0.0000000000
10
-12.3538573175
20
19.1851536543
30
0.0000000000
10
-12.2952461828
20
19.4486877187
30
0.0000000000
10
-12.2011323064
20
19.7107005560
30
0.0000000000
10
-12.0741877417
20
19.9595863241
30
0.0000000000
10
-11.9194313594
20
20.1844023530
30
0.0000000000
10
-11.7436712637
20
20.3758170357
30
0.0000000000
10
-11.5746788881
20
20.5111775363
30
0.0000000000
10
-11.4633353046
20
20.5768352525
30
0.0000000000
10
-11.4203596285
20
20.5987516059
30
0.0000000000
11
-12.3714507294
21
18.9240684425
31
0.0000000000
11
-12.3490428957
21
19.1791646567
31
0.0000000000
11
-12.2904859960
21
19.4442500639
31
0.0000000000
11
-12.1957887554
21
19.7080772975
31
0.0000000000
11
-12.0677901603
21
19.9584277145
31
0.0000000000
11
-11.9116883319
21
20.1840754220
31
0.0000000000
11
-11.7346135941
21
20.3754966232
31
0.0000000000
11
-11.5452242005
21
20.5255599801
31
0.0000000000
11
-11.4203596285
21
20.5987516059
31
0.0000000000
0
SPLINE
5
354
100
AcDbEntity
8
0
100
AcDbSpline
62
9
6
CONTINUOUS
70
0
71
3
72
8
73
4
74
2
42
0.0000001000
43
0.0000001000
44
0.0000000001
12
0.0669752175
22
0.0341554263
32
0.0000000000
13
0.0690061903
23
0.0296214199
33
0.0000000000
40
0.0000000000
40
0.0000000000
40
0.0000000000
40
0.0000000000
40
1.0000000000
40
1.0000000000
40
1.0000000000
40
1.0000000000
10
-11.4203596285
20
20.5987516059
30
0.0000000000
10
-11.3980345560
20
20.6101367480
30
0.0000000000
10
-11.3753591905
20
20.6208039661
30
0.0000000000
10
-11.3523571271
20
20.6306777727
30
0.0000000000
11
-11.4203596285
21
20.5987516059
31
0.0000000000
11
-11.3523571271
21
20.6306777727
31
0.0000000000
0
SPLINE
5
355
100
AcDbEntity
8
0
100
AcDbSpline
62
9
6
CONTINUOUS
70
0
71
3
72
10
73
6
74
4
42
0.0000001000
43
0.0000001000
44
0.0000000001
12
-0.0928149074
22
-4.6097133503
32
0.0000000000
13
-0.0576594866
23
-4.6102871019
33
0.0000000000
40
0.0000000000
40
0.0000000000
40
0.0000000000
40
0.0000000000
40
0.3336155909
40
0.6669485702
40
1.0000000000
40
1.0000000000
40
1.0000000000
40
1.0000000000
10
0.2271746166
20
14.0299810397
30
0.0000000000
10
0.2168531165
20
13.5173569586
30
0.0000000000
10
0.1975175082
20
12.4925164044
30
0.0000000000
10
0.1724291006
20
10.9558371517
30
0.0000000000
10
0.1583158326
20
9.9317785007
30
0.0000000000
10
0.1519146411
20
9.4199575970
30
0.0000000000
11
0.2271746166
21
14.0299810397
31
0.0000000000
11
0.1981605992
21
12.4920707615
31
0.0000000000
11
0.1730739014
21
10.9553946032
31
0.0000000000
11
0.1519146411
21
9.4199575970
31
0.0000000000
0
SPLINE
5
356
100
AcDbEntity
8
0
100
AcDbSpline
62
7
6
CONTINUOUS
70
0
71
3
72
9
73
5
74
3
42
0.0000001000
43
0.0000001000
44
0.0000000001
12
-0.0542288901
22
0.0318397732
32
0.0000000000
13
-0.0474911834
23
0.0412744778
33
0.0000000000
40
0.0000000000
40
0.0000000000
40
0.0000000000
40
0.0000000000
40
0.7522397478
40
1.0000000000
40
1.0000000000
40
1.0000000000
40
1.0000000000
10
0.2550395369
20
9.3281860648
30
0.0000000000
10
0.2414418280
20
9.3361697792
30
0.0000000000
10
0.2241840554
20
9.3482192702
30
0.0000000000
10
0.2080703234
20
9.3616549968
30
0.0000000000
10
0.2041481809
20
9.3650637218
30
0.0000000000
11
0.2550395369
21
9.3281860648
31
0.0000000000
11
0.2161252351
21
9.3550824130
31
0.0000000000
11
0.2041481809
21
9.3650637218
31
0.0000000000
0
SPLINE
5
357
100
AcDbEntity
8
0
100
AcDbSpline
62
7
6
CONTINUOUS
70
0
71
3
72
9
73
5
74
3
42
0.0000001000
43
0.0000001000
44
0.0000000001
12
-0.0572783346
22
0.0497804683
32
0.0000000000
13
-0.0470168164
23
0.0595134146
33
0.0000000000
40
0.0000000000
40
0.0000000000
40
0.0000000000
40
0.0000000000
40
0.4060005333
40
1.0000000000
40
1.0000000000
40
1.0000000000
40
1.0000000000
10
0.2041481809
20
9.3650637218
30
0.0000000000
10
0.1963965028
20
9.3718006873
30
0.0000000000
10
0.1779791135
20
9.3891627564
30
0.0000000000
10
0.1612239624
20
9.4081739515
30
0.0000000000
10
0.1519146411
20
9.4199575970
30
0.0000000000
11
0.2041481809
21
9.3650637218
31
0.0000000000
11
0.1817155604
21
9.3861705420
31
0.0000000000
11
0.1519146411
21
9.4199575970
31
0.0000000000
0
SPLINE
5
358
100
AcDbEntity
8
0
100
AcDbSpline
62
9
6
CONTINUOUS
70
0
71
3
72
10
73
6
74
4
42
0.0000001000
43
0.0000001000
44
0.0000000001
12
-0.0847281197
22
0.1158728689
32
0.0000000000
13
-0.1335936261
23
0.0518960521
33
0.0000000000
40
0.0000000000
40
0.0000000000
40
0.0000000000
40
0.0000000000
40
0.0707301528
40
0.5660792123
40
1.0000000000
40
1.0000000000
40
1.0000000000
40
1.0000000000
10
1.3553386940
20
15.6458470930
30
0.0000000000
10
1.3533410831
20
15.6485789949
30
0.0000000000
10
1.3370496382
20
15.6702221974
30
0.0000000000
10
1.3039687557
20
15.7051665142
30
0.0000000000
10
1.2655912363
20
15.7290841114
30
0.0000000000
10
1.2462682192
20
15.7365903701
30
0.0000000000
11
1.3553386940
21
15.6458470930
31
0.0000000000
11
1.3492319200
21
15.6539584522
31
0.0000000000
11
1.2997667995
21
15.7048821993
31
0.0000000000
11
1.2462682192
21
15.7365903701
31
0.0000000000
0
SPLINE
5
359
100
AcDbEntity
8
0
100
AcDbSpline
62
9
6
CONTINUOUS
70
0
71
3
72
15
73
11
74
9
42
0.0000001000
43
0.0000001000
44
0.0000000001
12
-1.9163712619
22
-0.8226166030
32
0.0000000000
13
-0.0419816338
23
-2.0850454267
33
0.0000000000
40
0.0000000000
40
0.0000000000
40
0.0000000000
40
0.0000000000
40
0.1053255375
40
0.2211914962
40
0.3462297966
40
0.4777976339
40
0.6126231355
40
0.7470330822
40
0.8772081471
40
1.0000000000
40
1.0000000000
40
1.0000000000
40
1.0000000000
10
1.2462682189
20
15.7365903699
30
0.0000000000
10
1.1789872745
20
15.7077095247
30
0.0000000000
10
1.0435621798
20
15.6328020491
30
0.0000000000
10
0.8549540823
20
15.4817296329
30
0.0000000000
10
0.6791939866
20
15.2903149502
30
0.0000000000
10
0.5244376043
20
15.0654989213
30
0.0000000000
10
0.3974930396
20
14.8166131532
30
0.0000000000
10
0.3033791632
20
14.5546003159
30
0.0000000000
10
0.2447680285
20
14.2910662515
30
0.0000000000
10
0.2288929508
20
14.1153232369
30
0.0000000000
10
0.2271746166
20
14.0299810397
30
0.0000000000
11
1.2462682189
21
15.7365903699
31
0.0000000000
11
1.0534011455
21
15.6314725773
31
0.0000000000
11
0.8640117519
21
15.4814092204
31
0.0000000000
11
0.6869370141
21
15.2899880192
31
0.0000000000
11
0.5308351857
21
15.0643403117
31
0.0000000000
11
0.4028365906
21
14.8139898947
31
0.0000000000
11
0.3081393500
21
14.5501626611
31
0.0000000000
11
0.2495824503
21
14.2850772540
31
0.0000000000
11
0.2271746166
21
14.0299810397
31
0.0000000000
0
SPLINE
5
35A
100
AcDbEntity
8
0
100
AcDbSpline
62
9
6
CONTINUOUS
70
0
71
3
72
10
73
6
74
4
42
0.0000001000
43
0.0000001000
44
0.0000000001
12
-0.0038152225
22
-0.0984195174
32
0.0000000000
13
0.0892056850
23
-0.0346530235
33
0.0000000000
40
0.0000000000
40
0.0000000000
40
0.0000000000
40
0.0000000000
40
0.1205702294
40
0.4798619005
40
1.0000000000
40
1.0000000000
40
1.0000000000
40
1.0000000000
10
-12.4386628063
20
18.9855020783
30
0.0000000000
10
-12.4388161404
20
18.9815465903
30
0.0000000000
10
-12.4370591418
20
18.9658522389
30
0.0000000000
10
-12.4118292935
20
18.9420586730
30
0.0000000000
10
-12.3869171546
20
18.9300765616
30
0.0000000000
10
-12.3714507294
20
18.9240684424
30
0.0000000000
11
-12.4386628063
21
18.9855020783
31
0.0000000000
11
-12.4372798090
21
18.9739298535
31
0.0000000000
11
-12.4154327083
21
18.9473784353
31
0.0000000000
11
-12.3714507294
21
18.9240684424
31
0.0000000000
0
SPLINE
5
35B
100
AcDbEntity
8
0
100
AcDbSpline
62
7
6
CONTINUOUS
70
0
71
3
72
9
73
5
74
3
42
0.0000001000
43
0.0000001000
44
0.0000000001
12
-0.0866709481
22
-0.0652915674
32
0.0000000000
13
-0.1018783692
23
-0.0369326032
33
0.0000000000
40
0.0000000000
40
0.0000000000
40
0.0000000000
40
0.0000000000
40
0.2424368372
40
1.0000000000
40
1.0000000000
40
1.0000000000
40
1.0000000000
10
0.3509306094
20
9.3818708841
30
0.0000000000
10
0.3439265326
20
9.3765945237
30
0.0000000000
10
0.3144346148
20
9.3555918370
30
0.0000000000
10
0.2823435695
20
9.3380786438
30
0.0000000000
10
0.2566171363
20
9.3287523839
30
0.0000000000
11
0.3509306094
21
9.3818708841
31
0.0000000000
11
0.3294739127
21
9.3666159710
31
0.0000000000
11
0.2566171363
21
9.3287523839
31
0.0000000000
0
SPLINE
5
35C
100
AcDbEntity
8
0
100
AcDbSpline
62
7
6
CONTINUOUS
70
0
71
3
72
10
73
6
74
4
42
0.0000001000
43
0.0000001000
44
0.0000000001
12
0.0632611214
22
0.0213315317
32
0.0000000000
13
0.0604174131
23
0.0284031675
33
0.0000000000
40
0.0000000000
40
0.0000000000
40
0.0000000000
40
0.0000000000
40
0.2360108238
40
0.5748638955
40
1.0000000000
40
1.0000000000
40
1.0000000000
40
1.0000000000
10
-12.5072026947
20
14.2858324129
30
0.0000000000
10
-12.5022259249
20
14.2875105703
30
0.0000000000
10
-12.4905880288
20
14.2929123653
30
0.0000000000
10
-12.4705845397
20
14.3026158229
30
0.0000000000
10
-12.4552725794
20
14.3100199292
30
0.0000000000
10
-12.4467107049
20
14.3140449998
30
0.0000000000
11
-12.5072026947
21
14.2858324129
31
0.0000000000
11
-12.4926933935
21
14.2919757206
31
0.0000000000
11
-12.4723046960
21
14.3017767633
31
0.0000000000
11
-12.4467107049
21
14.3140449998
31
0.0000000000
0
SPLINE
5
35D
100
AcDbEntity
8
0
100
AcDbSpline
62
9
6
CONTINUOUS
70
0
71
3
72
10
73
6
74
4
42
0.0000001000
43
0.0000001000
44
0.0000000001
12
0.0576594866
22
4.6102871019
32
0.0000000000
13
0.0928149074
23
4.6097133503
33
0.0000000000
40
0.0000000000
40
0.0000000000
40
0.0000000000
40
0.0000000000
40
0.3330514298
40
0.6663844091
40
1.0000000000
40
1.0000000000
40
1.0000000000
40
1.0000000000
10
-12.4467107049
20
14.3140449998
30
0.0000000000
10
-12.4403095134
20
14.8258659035
30
0.0000000000
10
-12.4261962455
20
15.8499245544
30
0.0000000000
10
-12.4011078378
20
17.3866038072
30
0.0000000000
10
-12.3817722295
20
18.4114443614
30
0.0000000000
10
-12.3714507294
20
18.9240684425
30
0.0000000000
11
-12.4467107049
21
14.3140449998
31
0.0000000000
11
-12.4255514447
21
15.8494820060
31
0.0000000000
11
-12.4004647468
21
17.3861581643
31
0.0000000000
11
-12.3714507294
21
18.9240684425
31
0.0000000000
0
SPLINE
5
35E
100
AcDbEntity
8
0
100
AcDbSpline
62
7
6
CONTINUOUS
70
0
71
3
72
9
73
5
74
3
42
0.0000001000
43
0.0000001000
44
0.0000000001
12
0.0295925721
22
0.0015243612
32
0.0000000000
13
0.0295679868
23
-0.0019875637
33
0.0000000000
40
0.0000000000
40
0.0000000000
40
0.0000000000
40
0.0000000000
40
0.4997076957
40
1.0000000000
40
1.0000000000
40
1.0000000000
40
1.0000000000
10
6.8522197133
20
20.5063032714
30
0.0000000000
10
6.8571489253
20
20.5065571831
30
0.0000000000
10
6.8670279474
20
20.5067733028
30
0.0000000000
10
6.8769032947
20
20.5064026943
30
0.0000000000
10
6.8818341734
20
20.5060712400
30
0.0000000000
11
6.8522197133
21
20.5063032714
31
0.0000000000
11
6.8670212544
21
20.5066266659
31
0.0000000000
11
6.8818341734
21
20.5060712400
31
0.0000000000
0
SPLINE
5
35F
100
AcDbEntity
8
0
100
AcDbSpline
62
7
6
CONTINUOUS
70
0
71
3
72
11
73
7
74
5
42
0.0000001000
43
0.0000001000
44
0.0000000001
12
-0.0009056121
22
0.0569426703
32
0.0000000000
13
-0.0531019833
23
0.0205249286
33
0.0000000000
40
0.0000000000
40
0.0000000000
40
0.0000000000
40
0.0000000000
40
0.1337621232
40
0.4877567200
40
0.8286722339
40
1.0000000000
40
1.0000000000
40
1.0000000000
40
1.0000000000
10
9.1384094764
20
22.6583048402
30
0.0000000000
10
9.1383690975
20
22.6608437643
30
0.0000000000
10
9.1376496606
20
22.6700901713
30
0.0000000000
10
9.1321586761
20
22.6854706090
30
0.0000000000
10
9.1191956418
20
22.6964464708
30
0.0000000000
10
9.1103778932
20
22.7005821468
30
0.0000000000
10
9.1073452785
20
22.7017543102
30
0.0000000000
11
9.1384094764
21
22.6583048402
31
0.0000000000
11
9.1377855390
21
22.6659006721
31
0.0000000000
11
9.1305683395
21
22.6846512952
31
0.0000000000
11
9.1161474722
21
22.6975522369
31
0.0000000000
11
9.1073452785
21
22.7017543102
31
0.0000000000
0
SPLINE
5
360
100
AcDbEntity
8
0
100
AcDbSpline
62
7
6
CONTINUOUS
70
0
71
3
72
11
73
7
74
5
42
0.0000001000
43
0.0000001000
44
0.0000000001
12
-0.0008890896
22
0.0569388480
32
0.0000000000
13
-0.0530785600
23
0.0205402638
33
0.0000000000
40
0.0000000000
40
0.0000000000
40
0.0000000000
40
0.0000000000
40
0.1414809030
40
0.4957564052
40
0.8386622477
40
1.0000000000
40
1.0000000000
40
1.0000000000
40
1.0000000000
10
3.7593865128
20
24.7478564410
30
0.0000000000
10
3.7593445831
20
24.7505416942
30
0.0000000000
10
3.7585822414
20
24.7599358283
30
0.0000000000
10
3.7528467616
20
24.7754435192
30
0.0000000000
10
3.7398697445
20
24.7861571684
30
0.0000000000
10
3.7311774663
20
24.7901957282
30
0.0000000000
10
3.7283229411
20
24.7913003682
30
0.0000000000
11
3.7593865128
21
24.7478564410
31
0.0000000000
11
3.7586954234
21
24.7558850669
31
0.0000000000
11
3.7512789736
21
24.7745714784
31
0.0000000000
11
3.7366302524
21
24.7873806209
31
0.0000000000
11
3.7283229411
21
24.7913003682
31
0.0000000000
0
SPLINE
5
361
100
AcDbEntity
8
0
100
AcDbSpline
62
9
6
CONTINUOUS
70
0
71
3
72
13
73
9
74
7
42
0.0000001000
43
0.0000001000
44
0.0000000001
12
0.0083853475
22
-0.1974633549
32
0.0000000000
13
0.1833212140
23
-0.0713862081
33
0.0000000000
40
0.0000000000
40
0.0000000000
40
0.0000000000
40
0.0000000000
40
0.0316730066
40
0.1792072284
40
0.3432263255
40
0.5324869295
40
0.7511457968
40
1.0000000000
40
1.0000000000
40
1.0000000000
40
1.0000000000
10
-12.9371974684
20
-18.7013058631
30
0.0000000000
10
-12.9371089387
20
-18.7033906158
30
0.0000000000
10
-12.9361495508
20
-18.7151618149
30
0.0000000000
10
-12.9292193028
20
-18.7370447288
30
0.0000000000
10
-12.9099848482
20
-18.7641512805
30
0.0000000000
10
-12.8816453198
20
-18.7890870190
30
0.0000000000
10
-12.8448007246
20
-18.8116828950
30
0.0000000000
10
-12.8167337899
20
-18.8242112439
30
0.0000000000
10
-12.8015270384
20
-18.8301328299
30
0.0000000000
11
-12.9371974684
21
-18.7013058631
31
0.0000000000
11
-12.9366867540
21
-18.7075406944
31
0.0000000000
11
-12.9282795914
21
-18.7353208148
31
0.0000000000
11
-12.9101057006
21
-18.7619835009
31
0.0000000000
11
-12.8825268944
21
-18.7869979420
31
0.0000000000
11
-12.8460922219
21
-18.8098661412
31
0.0000000000
11
-12.8015270384
21
-18.8301328299
31
0.0000000000
0
SPLINE
5
362
100
AcDbEntity
8
0
100
AcDbSpline
62
7
6
CONTINUOUS
70
0
71
3
72
18
73
14
74
12
42
0.0000001000
43
0.0000001000
44
0.0000000001
12
-0.0016444668
22
0.2383485663
32
0.0000000000
13
0.1701492141
23
0.1662176256
33
0.0000000000
40
0.0000000000
40
0.0000000000
40
0.0000000000
40
0.0000000000
40
0.0403751966
40
0.1000501819
40
0.1685091710
40
0.2458784865
40
0.3319391939
40
0.4262738743
40
0.5283488183
40
0.6375288483
40
0.7530894925
40
0.8742158238
40
1.0000000000
40
1.0000000000
40
1.0000000000
40
1.0000000000
10
-1.5664508394
20
-1.0830465162
30
0.0000000000
10
-1.5664729713
20
-1.0798387261
30
0.0000000000
10
-1.5657200233
20
-1.0718947013
30
0.0000000000
10
-1.5622617441
20
-1.0589354219
30
0.0000000000
10
-1.5560325783
20
-1.0438438651
30
0.0000000000
10
-1.5474180939
20
-1.0275774492
30
0.0000000000
10
-1.5365606502
20
-1.0102461031
30
0.0000000000
10
-1.5236021311
20
-0.9919674000
30
0.0000000000
10
-1.5086874130
20
-0.9728633865
30
0.0000000000
10
-1.4919673163
20
-0.9530600698
30
0.0000000000
10
-1.4736021814
20
-0.9326891754
30
0.0000000000
10
-1.4537650341
20
-0.9118893753
30
0.0000000000
10
-1.4399078608
20
-0.8980576118
30
0.0000000000
10
-1.4327738345
20
-0.8910884294
30
0.0000000000
11
-1.5664508394
21
-1.0830465162
31
0.0000000000
11
-1.5656535011
21
-1.0734677630
31
0.0000000000
11
-1.5621699612
21
-1.0597073546
31
0.0000000000
11
-1.5560829250
21
-1.0446039357
31
0.0000000000
11
-1.5475588474
21
-1.0282937260
31
0.0000000000
11
-1.5367550294
21
-1.0109061676
31
0.0000000000
11
-1.5238244363
21
-0.9925677224
31
0.0000000000
11
-1.5089180709
21
-0.9734022827
31
0.0000000000
11
-1.4921909506
21
-0.9535366955
31
0.0000000000
11
-1.4738058198
21
-0.9331024471
31
0.0000000000
11
-1.4539370706
21
-0.9122377069
31
0.0000000000
11
-1.4327738345
21
-0.8910884294
31
0.0000000000
0
SPLINE
5
363
100
AcDbEntity
8
0
100
AcDbSpline
62
7
6
CONTINUOUS
70
0
71
3
72
13
73
9
74
7
42
0.0000001000
43
0.0000001000
44
0.0000000001
12
-0.1865930419
22
0.0724843093
32
0.0000000000
13
-0.0021082936
23
0.2010999445
33
0.0000000000
40
0.0000000000
40
0.0000000000
40
0.0000000000
40
0.0000000000
40
0.2460478199
40
0.4625302528
40
0.6498114392
40
0.8131432944
40
0.9605904138
40
1.0000000000
40
1.0000000000
40
1.0000000000
40
1.0000000000
10
-2.8805975867
20
21.3335205382
30
0.0000000000
10
-2.8959011904
20
21.3394654070
30
0.0000000000
10
-2.9241543354
20
21.3520896049
30
0.0000000000
10
-2.9611699757
20
21.3749791651
30
0.0000000000
10
-2.9895698460
20
21.4003695641
30
0.0000000000
10
-3.0086898767
20
21.4280607973
30
0.0000000000
10
-3.0155103257
20
21.4508947449
30
0.0000000000
10
-3.0162342691
20
21.4634080319
30
0.0000000000
10
-3.0162619648
20
21.4660497871
30
0.0000000000
11
-2.8805975867
21
21.3335205382
31
0.0000000000
11
-2.9254210177
21
21.3539346460
31
0.0000000000
11
-2.9620343468
21
21.3771159829
31
0.0000000000
11
-2.9895997333
21
21.4025247863
31
0.0000000000
11
-3.0076762256
21
21.4297685868
31
0.0000000000
11
-3.0157992159
21
21.4581443757
31
0.0000000000
11
-3.0162619648
21
21.4660497871
31
0.0000000000
0
SPLINE
5
364
100
AcDbEntity
8
0
100
AcDbSpline
62
7
6
CONTINUOUS
70
0
71
3
72
20
73
16
74
14
42
0.0000001000
43
0.0000001000
44
0.0000000001
12
-0.0069618658
22
0.5837958720
32
0.0000000000
13
-0.5786836195
23
-0.0793998449
33
0.0000000000
40
0.0000000000
40
0.0000000000
40
0.0000000000
40
0.0000000000
40
0.0623895140
40
0.1520243685
40
0.2432100004
40
0.3347567556
40
0.4254283680
40
0.5142167068
40
0.6003978484
40
0.6837558850
40
0.7640252762
40
0.8409504289
40
0.9153349829
40
0.9880319783
40
1.0000000000
40
1.0000000000
40
1.0000000000
40
1.0000000000
10
13.8772234440
20
-17.7148718352
30
0.0000000000
10
13.8770786616
20
-17.7027309216
30
0.0000000000
10
13.8753278032
20
-17.6731465611
30
0.0000000000
10
13.8673757623
20
-17.6263949388
30
0.0000000000
10
13.8520702819
20
-17.5755339046
30
0.0000000000
10
13.8305307614
20
-17.5267620852
30
0.0000000000
10
13.8032558177
20
-17.4814836079
30
0.0000000000
10
13.7709082783
20
-17.4409900508
30
0.0000000000
10
13.7342717252
20
-17.4063508896
30
0.0000000000
10
13.6942868777
20
-17.3784169661
30
0.0000000000
10
13.6520846594
20
-17.3577674477
30
0.0000000000
10
13.6088137636
20
-17.3445763339
30
0.0000000000
10
13.5654501641
20
-17.3386968645
30
0.0000000000
10
13.5343877736
20
-17.3395513584
30
0.0000000000
10
13.5180260853
20
-17.3415715608
30
0.0000000000
10
13.5157175192
20
-17.3418883138
30
0.0000000000
11
13.8772234440
21
-17.7148718352
31
0.0000000000
11
13.8750993108
21
-17.6785093985
31
0.0000000000
11
13.8663823750
21
-17.6269369964
31
0.0000000000
11
13.8510627379
21
-17.5759812694
31
0.0000000000
11
13.8294563897
21
-17.5271262575
31
0.0000000000
11
13.8020983480
21
-17.4818395504
31
0.0000000000
11
13.7696874062
21
-17.4414192539
31
0.0000000000
11
13.7330722935
21
-17.4069478919
31
0.0000000000
11
13.6931395203
21
-17.3791748203
31
0.0000000000
11
13.6510301554
21
-17.3586641380
31
0.0000000000
11
13.6080758405
21
-17.3456328216
31
0.0000000000
11
13.5650588410
21
-17.3398420598
31
0.0000000000
11
13.5226552395
21
-17.3410316984
31
0.0000000000
11
13.5157175192
21
-17.3418883138
31
0.0000000000
0
SPLINE
5
365
100
AcDbEntity
8
0
100
AcDbSpline
62
7
6
CONTINUOUS
70
0
71
3
72
15
73
11
74
9
42
0.0000001000
43
0.0000001000
44
0.0000000001
12
0.2726335908
22
0.1607989641
32
0.0000000000
13
-0.0037691312
23
0.3163914957
33
0.0000000000
40
0.0000000000
40
0.0000000000
40
0.0000000000
40
0.0000000000
40
0.0295696129
40
0.1613644486
40
0.2963718830
40
0.4359369713
40
0.5803404783
40
0.7295362907
40
0.8841734679
40
1.0000000000
40
1.0000000000
40
1.0000000000
40
1.0000000000
10
13.2967719077
20
19.0901927794
30
0.0000000000
10
13.2994591310
20
19.0917777005
30
0.0000000000
10
13.3139671700
20
19.1006918119
30
0.0000000000
10
13.3389551693
20
19.1196621270
30
0.0000000000
10
13.3686542765
20
19.1507761534
30
0.0000000000
10
13.3938312618
20
19.1872813755
30
0.0000000000
10
13.4136852015
20
19.2285959627
30
0.0000000000
10
13.4275717645
20
19.2739366903
30
0.0000000000
10
13.4343446691
20
19.3177903297
30
0.0000000000
10
13.4353605591
20
19.3463470671
30
0.0000000000
10
13.4352150373
20
19.3585625770
30
0.0000000000
11
13.2967719077
21
19.0901927794
31
0.0000000000
11
13.3047459316
21
19.0950921768
31
0.0000000000
11
13.3379532789
21
19.1202740537
31
0.0000000000
11
13.3674586877
21
19.1511284211
31
0.0000000000
11
13.3925625708
21
19.1874256284
31
0.0000000000
11
13.4124105536
21
19.2285490421
31
0.0000000000
11
13.4263158797
21
19.2736313055
31
0.0000000000
11
13.4338762161
21
19.3219420064
31
0.0000000000
11
13.4352150373
21
19.3585625770
31
0.0000000000
0
SPLINE
5
366
100
AcDbEntity
8
0
100
AcDbSpline
62
7
6
CONTINUOUS
70
0
71
3
72
10
73
6
74
4
42
0.0000001000
43
0.0000001000
44
0.0000000001
12
-0.0323506933
22
1.4803625897
32
0.0000000000
13
-0.0285839440
23
1.4804400741
33
0.0000000000
40
0.0000000000
40
0.0000000000
40
0.0000000000
40
0.0000000000
40
0.2253526015
40
0.6627263376
40
1.0000000000
40
1.0000000000
40
1.0000000000
40
1.0000000000
10
-3.3556243491
20
-9.4429213972
30
0.0000000000
10
-3.3580544534
20
-9.3317202103
30
0.0000000000
10
-3.3651071230
20
-9.0046930607
30
0.0000000000
10
-3.3753326705
20
-8.5112269237
30
0.0000000000
10
-3.3828773025
20
-8.1289570501
30
0.0000000000
10
-3.3860908396
20
-7.9625192348
30
0.0000000000
11
-3.3556243491
21
-9.4429213972
31
0.0000000000
11
-3.3628189098
21
-9.1093157604
31
0.0000000000
11
-3.3762362065
21
-8.4618284997
31
0.0000000000
11
-3.3860908396
21
-7.9625192348
31
0.0000000000
0
SPLINE
5
367
100
AcDbEntity
8
0
100
AcDbSpline
62
7
6
CONTINUOUS
70
0
71
3
72
10
73
6
74
4
42
0.0000001000
43
0.0000001000
44
0.0000000001
12
-0.0299583251
22
1.2480113025
32
0.0000000000
13
-0.0272744131
23
1.2480728178
33
0.0000000000
40
0.0000000000
40
0.0000000000
40
0.0000000000
40
0.0000000000
40
0.2056293879
40
0.6622811387
40
1.0000000000
40
1.0000000000
40
1.0000000000
40
1.0000000000
10
-4.1144225633
20
-10.3850834932
30
0.0000000000
10
-4.1164760006
20
-10.2995408931
30
0.0000000000
10
-4.1230286260
20
-10.0240279779
30
0.0000000000
10
-4.1326262042
20
-9.6080150261
30
0.0000000000
10
-4.1399680720
20
-9.2775401781
30
0.0000000000
10
-4.1430384333
20
-9.1370409345
30
0.0000000000
11
-4.1144225633
21
-10.3850834932
31
0.0000000000
11
-4.1205260781
21
-10.1284543374
31
0.0000000000
11
-4.1336744262
21
-9.5585352937
31
0.0000000000
11
-4.1430384333
21
-9.1370409345
31
0.0000000000
0
SPLINE
5
368
100
AcDbEntity
8
0
100
AcDbSpline
62
7
6
CONTINUOUS
70
0
71
3
72
10
73
6
74
4
42
0.0000001000
43
0.0000001000
44
0.0000000001
12
-0.1471920365
22
7.6234748851
32
0.0000000000
13
-0.0481100928
23
7.6247439568
33
0.0000000000
40
0.0000000000
40
0.0000000000
40
0.0000000000
40
0.0000000000
40
0.3191399176
40
0.6800924930
40
1.0000000000
40
1.0000000000
40
1.0000000000
40
1.0000000000
10
-1.4689087219
20
-8.7072716679
30
0.0000000000
10
-1.4845670067
20
-7.8962866190
30
0.0000000000
10
-1.5143267073
20
-6.1679921214
30
0.0000000000
10
-1.5468270423
20
-3.6265605139
30
0.0000000000
10
-1.5613186392
20
-1.8961196594
30
0.0000000000
10
-1.5664488992
20
-1.0830487160
30
0.0000000000
11
-1.4689087219
21
-8.7072716679
31
0.0000000000
11
-1.5108110671
21
-6.2742240024
31
0.0000000000
11
-1.5460147541
21
-3.5222243681
31
0.0000000000
11
-1.5664488992
21
-1.0830487160
31
0.0000000000
0
SPLINE
5
369
100
AcDbEntity
8
0
100
AcDbSpline
62
7
6
CONTINUOUS
70
0
71
3
72
8
73
4
74
2
42
0.0000001000
43
0.0000001000
44
0.0000000001
12
4.4007812016
22
2.5957995171
32
0.0000000000
13
4.4007812016
23
2.5957995171
33
0.0000000000
40
0.0000000000
40
0.0000000000
40
0.0000000000
40
0.0000000000
40
1.0000000000
40
1.0000000000
40
1.0000000000
40
1.0000000000
10
8.8959982344
20
16.4943973094
30
0.0000000000
10
10.3629253016
20
17.3596638151
30
0.0000000000
10
11.8298523688
20
18.2249303208
30
0.0000000000
10
13.2967794360
20
19.0901968265
30
0.0000000000
11
8.8959982344
21
16.4943973094
31
0.0000000000
11
13.2967794360
21
19.0901968265
31
0.0000000000
0
SPLINE
5
36A
100
AcDbEntity
8
0
100
AcDbSpline
62
7
6
CONTINUOUS
70
0
71
3
72
8
73
4
74
2
42
0.0000001000
43
0.0000001000
44
0.0000000001
12
-4.2094716686
22
-0.5767510298
32
0.0000000000
13
-4.2094716686
23
-0.5767510298
33
0.0000000000
40
0.0000000000
40
0.0000000000
40
0.0000000000
40
0.0000000000
40
1.0000000000
40
1.0000000000
40
1.0000000000
40
1.0000000000
10
13.5157596504
20
-17.3418820373
30
0.0000000000
10
12.1126024275
20
-17.5341323805
30
0.0000000000
10
10.7094452047
20
-17.7263827238
30
0.0000000000
10
9.3062879818
20
-17.9186330670
30
0.0000000000
11
13.5157596504
21
-17.3418820373
31
0.0000000000
11
9.3062879818
21
-17.9186330670
31
0.0000000000
0
SPLINE
5
36B
100
AcDbEntity
8
0
100
AcDbSpline
62
7
6
CONTINUOUS
70
0
71
3
72
14
73
10
74
8
42
0.0000001000
43
0.0000001000
44
0.0000000001
12
-0.0033939450
22
0.2846669508
32
0.0000000000
13
-0.2603754580
23
0.1158936896
33
0.0000000000
40
0.0000000000
40
0.0000000000
40
0.0000000000
40
0.0000000000
40
0.1489794039
40
0.2988021679
40
0.4490412615
40
0.5995035640
40
0.7499445907
40
0.9001518516
40
1.0000000000
40
1.0000000000
40
1.0000000000
40
1.0000000000
10
8.9415959463
20
-24.8290624890
30
0.0000000000
10
8.9414274036
20
-24.8149259848
30
0.0000000000
10
8.9386720688
20
-24.7865430793
30
0.0000000000
10
8.9273670952
20
-24.7452524961
30
0.0000000000
10
8.9091359111
20
-24.7063472922
30
0.0000000000
10
8.8845025933
20
-24.6710770382
30
0.0000000000
10
8.8542090481
20
-24.6405294734
30
0.0000000000
10
8.8230943430
20
-24.6183978581
30
0.0000000000
10
8.8019229968
20
-24.6074966254
30
0.0000000000
10
8.7932569943
20
-24.6036393686
30
0.0000000000
11
8.9415959463
21
-24.8290624890
31
0.0000000000
11
8.9374947516
21
-24.7868487161
31
0.0000000000
11
8.9262337105
21
-24.7457095013
31
0.0000000000
11
8.9080838809
21
-24.7069802557
31
0.0000000000
11
8.8835571259
21
-24.6718626125
31
0.0000000000
11
8.8534001287
21
-24.6414513113
31
0.0000000000
11
8.8185524646
21
-24.6166675274
31
0.0000000000
11
8.7932569943
21
-24.6036393686
31
0.0000000000
0
SPLINE
5
36C
100
AcDbEntity
8
0
100
AcDbSpline
62
7
6
CONTINUOUS
70
0
71
3
72
8
73
4
74
2
42
0.0000001000
43
0.0000001000
44
0.0000000001
12
-0.0110120208
22
0.0049014747
32
0.0000000000
13
-0.0112254120
23
0.0043609507
33
0.0000000000
40
0.0000000000
40
0.0000000000
40
0.0000000000
40
0.0000000000
40
1.0000000000
40
1.0000000000
40
1.0000000000
40
1.0000000000
10
8.7932569943
20
-24.6036393686
30
0.0000000000
10
8.7895863207
20
-24.6020055437
30
0.0000000000
10
8.7858775762
20
-24.6004606449
30
0.0000000000
10
8.7821357722
20
-24.5990069946
30
0.0000000000
11
8.7932569943
21
-24.6036393686
31
0.0000000000
11
8.7821357722
21
-24.5990069946
31
0.0000000000
0
SPLINE
5
36D
100
AcDbEntity
8
0
100
AcDbSpline
62
7
6
CONTINUOUS
70
0
71
3
72
16
73
12
74
10
42
0.0000001000
43
0.0000001000
44
0.0000000001
12
0.2869944491
22
0.1072325954
32
0.0000000000
13
-0.0036552203
23
0.3062467464
33
0.0000000000
40
0.0000000000
40
0.0000000000
40
0.0000000000
40
0.0000000000
40
0.0249192236
40
0.1530155921
40
0.2816591229
40
0.4108305063
40
0.5407813269
40
0.6716225338
40
0.8032773545
40
0.9355488664
40
1.0000000000
40
1.0000000000
40
1.0000000000
40
1.0000000000
10
8.7835667352
20
-25.4382756812
30
0.0000000000
10
8.7859506281
20
-25.4373849635
30
0.0000000000
10
8.8005052357
20
-25.4316922053
30
0.0000000000
10
8.8262582606
20
-25.4187175989
30
0.0000000000
10
8.8583344686
20
-25.3956295748
30
0.0000000000
10
8.8865137808
20
-25.3676506310
30
0.0000000000
10
8.9100511997
20
-25.3353857904
30
0.0000000000
10
8.9282727401
20
-25.2995587704
30
0.0000000000
10
8.9405966596
20
-25.2610488627
30
0.0000000000
10
8.9455574431
20
-25.2277793279
30
0.0000000000
10
8.9461102098
20
-25.2076896825
30
0.0000000000
10
8.9460316821
20
-25.2011103658
30
0.0000000000
11
8.7835667352
21
-25.4382756812
31
0.0000000000
11
8.7906762294
21
-25.4354948247
31
0.0000000000
11
8.8256767921
21
-25.4178632283
31
0.0000000000
11
8.8576199932
21
-25.3948698863
31
0.0000000000
11
8.8856642899
21
-25.3670253598
31
0.0000000000
11
8.9090956073
21
-25.3349056044
31
0.0000000000
11
8.9272428421
21
-25.2992248185
31
0.0000000000
11
8.9395193263
21
-25.2608618216
31
0.0000000000
11
8.9454883479
21
-25.2208363622
31
0.0000000000
11
8.9460316821
21
-25.2011103658
31
0.0000000000
0
SPLINE
5
36E
100
AcDbEntity
8
0
100
AcDbSpline
62
7
6
CONTINUOUS
70
0
71
3
72
13
73
9
74
7
42
0.0000001000
43
0.0000001000
44
0.0000000001
12
0.1649564257
22
-0.0640863081
32
0.0000000000
13
0.1669997224
23
0.0585853988
33
0.0000000000
40
0.0000000000
40
0.0000000000
40
0.0000000000
40
0.0000000000
40
0.0660834764
40
0.2852767604
40
0.5057820654
40
0.7276351606
40
0.9508779064
40
1.0000000000
40
1.0000000000
40
1.0000000000
40
1.0000000000
10
6.4132508930
20
-26.2186481486
30
0.0000000000
10
6.4168845243
20
-26.2200598307
30
0.0000000000
10
6.4327131001
20
-26.2257873123
30
0.0000000000
10
6.4617359282
20
-26.2330794301
30
0.0000000000
10
6.5007191212
20
-26.2366188654
30
0.0000000000
10
6.5400184048
20
-26.2340202325
30
0.0000000000
10
6.5685357432
20
-26.2275366673
30
0.0000000000
10
6.5837897886
20
-26.2224814000
30
0.0000000000
10
6.5865242473
20
-26.2215221208
30
0.0000000000
11
6.4132508930
21
-26.2186481486
31
0.0000000000
11
6.4242468462
21
-26.2226267028
31
0.0000000000
11
6.4618294438
21
-26.2320697328
31
0.0000000000
11
6.5006524931
21
-26.2355944420
31
0.0000000000
11
6.5397880292
21
-26.2330067001
31
0.0000000000
11
6.5782725061
21
-26.2242566646
31
0.0000000000
11
6.5865242473
21
-26.2215221208
31
0.0000000000
0
SPLINE
5
36F
100
AcDbEntity
8
0
100
AcDbSpline
62
7
6
CONTINUOUS
70
0
71
3
72
14
73
10
74
8
42
0.0000001000
43
0.0000001000
44
0.0000000001
12
0.0035373545
22
-0.2966954209
32
0.0000000000
13
0.2769041955
23
-0.1075863878
33
0.0000000000
40
0.0000000000
40
0.0000000000
40
0.0000000000
40
0.0000000000
40
0.1442396813
40
0.2896285008
40
0.4355172923
40
0.5815600093
40
0.7275981628
40
0.8734524607
40
1.0000000000
40
1.0000000000
40
1.0000000000
40
1.0000000000
10
4.9707808300
20
-25.4901924044
30
0.0000000000
10
4.9709509056
20
-25.5044574887
30
0.0000000000
10
4.9737568983
20
-25.5331322194
30
0.0000000000
10
4.9852914163
20
-25.5748469744
30
0.0000000000
10
5.0039165877
20
-25.6141282444
30
0.0000000000
10
5.0290788286
20
-25.6496550843
30
0.0000000000
10
5.0599957698
20
-25.6803017681
30
0.0000000000
10
5.0941450676
20
-25.7040465879
30
0.0000000000
10
5.1185562919
20
-25.7157077696
30
0.0000000000
10
5.1302368068
20
-25.7202460338
30
0.0000000000
11
4.9707808300
21
-25.4901924044
31
0.0000000000
11
4.9749523120
21
-25.5327869199
31
0.0000000000
11
4.9864468848
21
-25.5743666118
31
0.0000000000
11
5.0049936116
21
-25.6134797341
31
0.0000000000
11
5.0300389756
21
-25.6488421905
31
0.0000000000
11
5.0608134813
21
-25.6793476986
31
0.0000000000
11
5.0963457735
21
-25.7040537231
31
0.0000000000
11
5.1302368068
21
-25.7202460338
31
0.0000000000
0
SPLINE
5
370
100
AcDbEntity
8
0
100
AcDbSpline
62
7
6
CONTINUOUS
70
0
71
3
72
12
73
8
74
6
42
0.0000001000
43
0.0000001000
44
0.0000000001
12
-0.0022126289
22
0.1855841299
32
0.0000000000
13
0.1240519685
23
0.1382940433
33
0.0000000000
40
0.0000000000
40
0.0000000000
40
0.0000000000
40
0.0000000000
40
0.2036354298
40
0.4076171315
40
0.6122594197
40
0.8174504455
40
1.0000000000
40
1.0000000000
40
1.0000000000
40
1.0000000000
10
4.9664414951
20
-25.1262309276
30
0.0000000000
10
4.9662913052
20
-25.1136337596
30
0.0000000000
10
4.9679034735
20
-25.0883536501
30
0.0000000000
10
4.9760226999
20
-25.0512144707
30
0.0000000000
10
4.9897014746
20
-25.0156304956
30
0.0000000000
10
5.0079593439
20
-24.9836904110
30
0.0000000000
10
5.0227788831
20
-24.9647281175
30
0.0000000000
10
5.0303274269
20
-24.9563129455
30
0.0000000000
11
4.9664414951
21
-25.1262309276
31
0.0000000000
11
4.9688488131
21
-25.0885134832
31
0.0000000000
11
4.9769327929
21
-25.0515281883
31
0.0000000000
11
4.9905615117
21
-25.0160765459
31
0.0000000000
11
5.0094606285
21
-24.9830140144
31
0.0000000000
11
5.0303274269
21
-24.9563129455
31
0.0000000000
0
SPLINE
5
371
100
AcDbEntity
8
0
100
AcDbSpline
62
7
6
CONTINUOUS
70
0
71
3
72
10
73
6
74
4
42
0.0000001000
43
0.0000001000
44
0.0000000001
12
-0.0039578564
22
0.0014610993
32
0.0000000000
13
-0.0039326374
23
0.0015276802
33
0.0000000000
40
0.0000000000
40
0.0000000000
40
0.0000000000
40
0.0000000000
40
0.3384289833
40
0.6751494034
40
1.0000000000
40
1.0000000000
40
1.0000000000
40
1.0000000000
10
5.8857204069
20
18.3573988600
30
0.0000000000
10
5.8852739224
20
18.3575636861
30
0.0000000000
10
5.8843841444
20
18.3578950506
30
0.0000000000
10
5.8830690661
20
18.3583933513
30
0.0000000000
10
5.8822009011
20
18.3587278645
30
0.0000000000
10
5.8817750613
20
18.3588932871
30
0.0000000000
11
5.8857204069
21
18.3573988600
31
0.0000000000
11
5.8843823711
21
18.3578971613
31
0.0000000000
11
5.8830539363
21
18.3584005229
31
0.0000000000
11
5.8817750613
21
18.3588932871
31
0.0000000000
0
SPLINE
5
372
100
AcDbEntity
8
0
100
AcDbSpline
62
7
6
CONTINUOUS
70
0
71
3
72
16
73
12
74
10
42
0.0000001000
43
0.0000001000
44
0.0000000001
12
0.2770541805
22
-0.1075690048
32
0.0000000000
13
0.0035439286
23
-0.2970733227
33
0.0000000000
40
0.0000000000
40
0.0000000000
40
0.0000000000
40
0.0000000000
40
0.0176657555
40
0.1508170278
40
0.2847176575
40
0.4192509761
40
0.5548525525
40
0.6915762776
40
0.8293725898
40
0.9680486540
40
1.0000000000
40
1.0000000000
40
1.0000000000
40
1.0000000000
10
8.2505417270
20
19.9866338136
30
0.0000000000
10
8.2521731841
20
19.9860003843
30
0.0000000000
10
8.2660441993
20
19.9804464859
30
0.0000000000
10
8.2912493943
20
19.9676246733
30
0.0000000000
10
8.3235074821
20
19.9441446524
30
0.0000000000
10
8.3517967713
20
19.9156663861
30
0.0000000000
10
8.3753364723
20
19.8828022396
30
0.0000000000
10
8.3934185643
20
19.8462815140
30
0.0000000000
10
8.4054198287
20
19.8070148318
30
0.0000000000
10
8.4094630951
20
19.7766304679
30
0.0000000000
10
8.4099854711
20
19.7597381016
30
0.0000000000
10
8.4100232155
20
19.7565741374
30
0.0000000000
11
8.2505417270
21
19.9866338136
31
0.0000000000
11
8.2554155810
21
19.9846823026
31
0.0000000000
11
8.2906386608
21
19.9667664916
31
0.0000000000
11
8.3227680264
21
19.9433790511
31
0.0000000000
11
8.3509072718
21
19.9150521923
31
0.0000000000
11
8.3743419392
21
19.8823342648
31
0.0000000000
11
8.3923468142
21
19.8459696111
31
0.0000000000
11
8.4042998429
21
19.8068591990
31
0.0000000000
11
8.4097297146
21
19.7660616521
31
0.0000000000
11
8.4100232155
21
19.7565741374
31
0.0000000000
0
SPLINE
5
373
100
AcDbEntity
8
0
100
AcDbSpline
62
7
6
CONTINUOUS
70
0
71
3
72
12
73
8
74
6
42
0.0000001000
43
0.0000001000
44
0.0000000001
12
0.0022126289
22
-0.1855841299
32
0.0000000000
13
-0.1240519685
23
-0.1382940433
33
0.0000000000
40
0.0000000000
40
0.0000000000
40
0.0000000000
40
0.0000000000
40
0.2036354298
40
0.4076171315
40
0.6122594197
40
0.8174504455
40
1.0000000000
40
1.0000000000
40
1.0000000000
40
1.0000000000
10
8.4144590279
20
19.3845180376
30
0.0000000000
10
8.4146092178
20
19.3719208696
30
0.0000000000
10
8.4129970495
20
19.3466407601
30
0.0000000000
10
8.4048778231
20
19.3095015807
30
0.0000000000
10
8.3911990484
20
19.2739176056
30
0.0000000000
10
8.3729411791
20
19.2419775210
30
0.0000000000
10
8.3581216399
20
19.2230152275
30
0.0000000000
10
8.3505730961
20
19.2146000555
30
0.0000000000
11
8.4144590279
21
19.3845180376
31
0.0000000000
11
8.4120517099
21
19.3468005932
31
0.0000000000
11
8.4039677301
21
19.3098152983
31
0.0000000000
11
8.3903390113
21
19.2743636558
31
0.0000000000
11
8.3714398945
21
19.2413011244
31
0.0000000000
11
8.3505730961
21
19.2146000555
31
0.0000000000
0
SPLINE
5
374
100
AcDbEntity
8
0
100
AcDbSpline
62
7
6
CONTINUOUS
70
0
71
3
72
9
73
5
74
3
42
0.0000001000
43
0.0000001000
44
0.0000000001
12
0.0673633663
22
0.0236288448
32
0.0000000000
13
0.0713796387
23
0.0036768806
33
0.0000000000
40
0.0000000000
40
0.0000000000
40
0.0000000000
40
0.0000000000
40
0.5897103960
40
1.0000000000
40
1.0000000000
40
1.0000000000
40
1.0000000000
10
6.7823282742
20
20.4925423428
30
0.0000000000
10
6.7955699000
20
20.4971870679
30
0.0000000000
10
6.8187352427
20
20.5031798873
30
0.0000000000
10
6.8424576054
20
20.5058004095
30
0.0000000000
10
6.8522197133
20
20.5063032714
30
0.0000000000
11
6.7823282742
21
20.4925423428
31
0.0000000000
11
6.8230852952
21
20.5030823792
31
0.0000000000
11
6.8522197133
21
20.5063032714
31
0.0000000000
0
SPLINE
5
375
100
AcDbEntity
8
0
100
AcDbSpline
62
7
6
CONTINUOUS
70
0
71
3
72
9
73
5
74
3
42
0.0000001000
43
0.0000001000
44
0.0000000001
12
0.0295925721
22
0.0015243612
32
0.0000000000
13
0.0295679868
23
-0.0019875637
33
0.0000000000
40
0.0000000000
40
0.0000000000
40
0.0000000000
40
0.0000000000
40
0.4997076957
40
1.0000000000
40
1.0000000000
40
1.0000000000
40
1.0000000000
10
6.8522197133
20
20.5063032714
30
0.0000000000
10
6.8571489253
20
20.5065571831
30
0.0000000000
10
6.8670279474
20
20.5067733028
30
0.0000000000
10
6.8769032947
20
20.5064026943
30
0.0000000000
10
6.8818341734
20
20.5060712400
30
0.0000000000
11
6.8522197133
21
20.5063032714
31
0.0000000000
11
6.8670212544
21
20.5066266659
31
0.0000000000
11
6.8818341734
21
20.5060712400
31
0.0000000000
0
SPLINE
5
376
100
AcDbEntity
8
0
100
AcDbSpline
62
7
6
CONTINUOUS
70
0
71
3
72
10
73
6
74
4
42
0.0000001000
43
0.0000001000
44
0.0000000001
12
0.0756945163
22
-0.0050881948
32
0.0000000000
13
0.0707127918
23
-0.0274721738
33
0.0000000000
40
0.0000000000
40
0.0000000000
40
0.0000000000
40
0.0000000000
40
0.3909133896
40
0.9724616880
40
1.0000000000
40
1.0000000000
40
1.0000000000
40
1.0000000000
10
6.8818341734
20
20.5060712400
30
0.0000000000
10
6.8916975067
20
20.5054082255
30
0.0000000000
10
6.9161378111
20
20.5023051917
30
0.0000000000
10
6.9405774300
20
20.4954369777
30
0.0000000000
10
6.9549575193
20
20.4899194235
30
0.0000000000
10
6.9556066229
20
20.4896672444
30
0.0000000000
11
6.8818341734
21
20.5060712400
31
0.0000000000
11
6.9112378313
21
20.5023356351
31
0.0000000000
11
6.9536561666
21
20.4904156207
31
0.0000000000
11
6.9556066229
21
20.4896672444
31
0.0000000000
0
SPLINE
5
377
100
AcDbEntity
8
0
100
AcDbSpline
62
7
6
CONTINUOUS
70
0
71
3
72
9
73
5
74
3
42
0.0000001000
43
0.0000001000
44
0.0000000001
12
0.0512581578
22
0.0179796694
32
0.0000000000
13
0.0535774981
23
0.0089509194
33
0.0000000000
40
0.0000000000
40
0.0000000000
40
0.0000000000
40
0.0000000000
40
0.5077193860
40
1.0000000000
40
1.0000000000
40
1.0000000000
40
1.0000000000
10
2.9857236961
20
25.0063497215
30
0.0000000000
10
2.9943986163
20
25.0093925971
30
0.0000000000
10
3.0117338674
20
25.0147020736
30
0.0000000000
10
3.0294641985
20
25.0185041520
30
0.0000000000
10
3.0382559198
20
25.0199729401
30
0.0000000000
11
2.9857236961
21
25.0063497215
31
0.0000000000
11
3.0121033457
21
25.0143954699
31
0.0000000000
11
3.0382559198
21
25.0199729401
31
0.0000000000
0
SPLINE
5
378
100
AcDbEntity
8
0
100
AcDbSpline
62
7
6
CONTINUOUS
70
0
71
3
72
15
73
11
74
9
42
0.0000001000
43
0.0000001000
44
0.0000000001
12
-0.0036470807
22
0.3058986962
32
0.0000000000
13
0.2868393866
23
0.1072475691
33
0.0000000000
40
0.0000000000
40
0.0000000000
40
0.0000000000
40
0.0000000000
40
0.1278811351
40
0.2562368618
40
0.3848679629
40
0.5136324916
40
0.6434028417
40
0.7731905296
40
0.9027326158
40
1.0000000000
40
1.0000000000
40
1.0000000000
40
1.0000000000
10
4.4349652419
20
19.4513110758
30
0.0000000000
10
4.4348097776
20
19.4643506333
30
0.0000000000
10
4.4365503700
20
19.4905486761
30
0.0000000000
10
4.4452788309
20
19.5289704637
30
0.0000000000
10
4.4599569968
20
19.5656436415
30
0.0000000000
10
4.4802846499
20
19.5996794342
30
0.0000000000
10
4.5058029369
20
19.6301778647
30
0.0000000000
10
4.5358877679
20
19.6563038100
30
0.0000000000
10
4.5668984075
20
19.6755847668
30
0.0000000000
10
4.5881031446
20
19.6849847251
30
0.0000000000
10
4.5974031836
20
19.6884619553
30
0.0000000000
11
4.4349652419
21
19.4513110758
31
0.0000000000
11
4.4375610375
21
19.4903463150
31
0.0000000000
11
4.4462580541
21
19.5286377098
31
0.0000000000
11
4.4608809822
21
19.5651707351
31
0.0000000000
11
4.4810790491
21
19.5989900223
31
0.0000000000
11
4.5065547298
21
19.6294372262
31
0.0000000000
11
4.5365331651
21
19.6554709949
31
0.0000000000
11
4.5701881496
21
19.6763957401
31
0.0000000000
11
4.5974031836
21
19.6884619553
31
0.0000000000
0
SPLINE
5
379
100
AcDbEntity
8
0
100
AcDbSpline
62
7
6
CONTINUOUS
70
0
71
3
72
15
73
11
74
9
42
0.0000001000
43
0.0000001000
44
0.0000000001
12
-0.2766130140
22
0.1074529593
32
0.0000000000
13
-0.0035382166
23
0.2970979228
33
0.0000000000
40
0.0000000000
40
0.0000000000
40
0.0000000000
40
0.0000000000
40
0.1357744000
40
0.2695492054
40
0.4041897411
40
0.5409069179
40
0.6798027575
40
0.8212569248
40
0.9653539925
40
1.0000000000
40
1.0000000000
40
1.0000000000
40
1.0000000000
10
4.5987623328
20
18.8572949984
30
0.0000000000
10
4.5862433441
20
18.8621581188
30
0.0000000000
10
4.5621241572
20
18.8738425731
30
0.0000000000
10
4.5292546759
20
18.8968836825
30
0.0000000000
10
4.5003823800
20
18.9249240756
30
0.0000000000
10
4.4760817543
20
18.9576470671
30
0.0000000000
10
4.4571280387
20
18.9945014884
30
0.0000000000
10
4.4443228449
20
19.0346938708
30
0.0000000000
10
4.4399209262
20
19.0662161369
30
0.0000000000
10
4.4393457528
20
19.0839130450
30
0.0000000000
10
4.4393048911
20
19.0873441306
30
0.0000000000
11
4.5987623328
21
18.8572949984
31
0.0000000000
11
4.5625031532
21
18.8748633023
31
0.0000000000
11
4.5299955029
21
18.8976482064
31
0.0000000000
11
4.5013342476
21
18.9254851359
31
0.0000000000
11
4.4771458780
21
18.9580567190
31
0.0000000000
11
4.4582955158
21
18.9947108650
31
0.0000000000
11
4.4455532807
21
19.0347065798
31
0.0000000000
11
4.4396394377
21
19.0770563828
31
0.0000000000
11
4.4393048911
21
19.0873441306
31
0.0000000000
0
SPLINE
5
37A
100
AcDbEntity
8
0
100
AcDbSpline
62
7
6
CONTINUOUS
70
0
71
3
72
14
73
10
74
8
42
0.0000001000
43
0.0000001000
44
0.0000000001
12
0.2765766259
22
-0.1074395137
32
0.0000000000
13
0.0035612099
23
-0.2971006154
33
0.0000000000
40
0.0000000000
40
0.0000000000
40
0.0000000000
40
0.0000000000
40
0.1419000235
40
0.2838805760
40
0.4247254214
40
0.5705339852
40
0.7175643055
40
0.8659421121
40
1.0000000000
40
1.0000000000
40
1.0000000000
40
1.0000000000
10
-4.6904131484
20
25.0137035848
30
0.0000000000
10
-4.6773310718
20
25.0086216949
30
0.0000000000
10
-4.6519662158
20
24.9962200702
30
0.0000000000
10
-4.6177095123
20
24.9715797741
30
0.0000000000
10
-4.5877758599
20
24.9412791515
30
0.0000000000
10
-4.5631169075
20
24.9059196627
30
0.0000000000
10
-4.5446348831
20
24.8661431173
30
0.0000000000
10
-4.5336815064
20
24.8248761339
30
0.0000000000
10
-4.5311153795
20
24.7969323237
30
0.0000000000
10
-4.5309562434
20
24.7836560967
30
0.0000000000
11
-4.6904131484
21
25.0137035848
31
0.0000000000
11
-4.6525900988
21
24.9952072633
31
0.0000000000
11
-4.6183891895
21
24.9706103653
31
0.0000000000
11
-4.5890204584
21
24.9408797607
31
0.0000000000
11
-4.5642732378
21
24.9053935314
31
0.0000000000
11
-4.5458903153
21
24.8658301196
31
0.0000000000
11
-4.5345961447
21
24.8232780183
31
0.0000000000
11
-4.5309562434
21
24.7836560967
31
0.0000000000
0
SPLINE
5
37B
100
AcDbEntity
8
0
100
AcDbSpline
62
7
6
CONTINUOUS
70
0
71
3
72
12
73
8
74
6
42
0.0000001000
43
0.0000001000
44
0.0000000001
12
0.0022217630
22
-0.1858057712
32
0.0000000000
13
-0.1240878733
23
-0.1383189675
33
0.0000000000
40
0.0000000000
40
0.0000000000
40
0.0000000000
40
0.0000000000
40
0.1991010811
40
0.3997129718
40
0.6010117703
40
0.8029879852
40
1.0000000000
40
1.0000000000
40
1.0000000000
40
1.0000000000
10
-4.5265202619
20
24.4115969396
30
0.0000000000
10
-4.5263728101
20
24.3992655630
30
0.0000000000
10
-4.5279126603
20
24.3744975943
30
0.0000000000
10
-4.5357132405
20
24.3379985529
30
0.0000000000
10
-4.5489200529
20
24.3029009236
30
0.0000000000
10
-4.5671114531
20
24.2703603504
30
0.0000000000
10
-4.5822582481
20
24.2507612685
30
0.0000000000
10
-4.5904071820
20
24.2416777690
30
0.0000000000
11
-4.5265202619
21
24.4115969396
31
0.0000000000
11
-4.5288119729
21
24.3747136966
31
0.0000000000
11
-4.5365945807
21
24.3383015982
31
0.0000000000
11
-4.5497527720
21
24.3033332918
31
0.0000000000
11
-4.5680449319
21
24.2706113063
31
0.0000000000
11
-4.5904071820
21
24.2416777690
31
0.0000000000
0
SPLINE
5
37C
100
AcDbEntity
8
0
100
AcDbSpline
62
7
6
CONTINUOUS
70
0
71
3
72
9
73
5
74
3
42
0.0000001000
43
0.0000001000
44
0.0000000001
12
-0.0806543685
22
0.0313311586
32
0.0000000000
13
-0.0866100959
23
0.0020751317
33
0.0000000000
40
0.0000000000
40
0.0000000000
40
0.0000000000
40
0.0000000000
40
0.4881131612
40
1.0000000000
40
1.0000000000
40
1.0000000000
40
1.0000000000
10
-5.9853770921
20
25.5167478892
30
0.0000000000
10
-5.9984999117
20
25.5218456062
30
0.0000000000
10
-6.0263247776
20
25.5300289460
30
0.0000000000
10
-6.0551291510
20
25.5332871686
30
0.0000000000
10
-6.0699073404
20
25.5336412461
30
0.0000000000
11
-5.9853770921
21
25.5167478892
31
0.0000000000
11
-6.0258966502
21
25.5286609668
31
0.0000000000
11
-6.0699073404
21
25.5336412461
31
0.0000000000
0
SPLINE
5
37D
100
AcDbEntity
8
0
100
AcDbSpline
62
7
6
CONTINUOUS
70
0
71
3
72
8
73
4
74
2
42
0.0000001000
43
0.0000001000
44
0.0000000001
12
-0.0149387512
22
0.0003579245
32
0.0000000000
13
-0.0149346636
23
-0.0005354016
33
0.0000000000
40
0.0000000000
40
0.0000000000
40
0.0000000000
40
0.0000000000
40
1.0000000000
40
1.0000000000
40
1.0000000000
40
1.0000000000
10
-6.0699073404
20
25.5336412461
30
0.0000000000
10
-6.0748869242
20
25.5337605543
30
0.0000000000
10
-6.0798703239
20
25.5337306995
30
0.0000000000
10
-6.0848485451
20
25.5335522323
30
0.0000000000
11
-6.0699073404
21
25.5336412461
31
0.0000000000
11
-6.0848485451
21
25.5335522323
31
0.0000000000
0
SPLINE
5
37E
100
AcDbEntity
8
0
100
AcDbSpline
62
7
6
CONTINUOUS
70
0
71
3
72
10
73
6
74
4
42
0.0000001000
43
0.0000001000
44
0.0000000001
12
-0.0753445023
22
-0.0027010697
32
0.0000000000
13
-0.0711408373
23
-0.0249551044
33
0.0000000000
40
0.0000000000
40
0.0000000000
40
0.0000000000
40
0.0000000000
40
0.3973605881
40
0.9907321896
40
1.0000000000
40
1.0000000000
40
1.0000000000
40
1.0000000000
10
-6.0848485451
20
25.5335522323
30
0.0000000000
10
-6.0948281903
20
25.5331944661
30
0.0000000000
10
-6.1196583781
20
25.5308134066
30
0.0000000000
10
-6.1441356012
20
25.5246905543
30
0.0000000000
10
-6.1584333816
20
25.5196975934
30
0.0000000000
10
-6.1586531549
20
25.5196205003
30
0.0000000000
11
-6.0848485451
21
25.5335522323
31
0.0000000000
11
-6.1146525886
21
25.5306916974
31
0.0000000000
11
-6.1579935119
21
25.5198508557
31
0.0000000000
11
-6.1586531549
21
25.5196205003
31
0.0000000000
0
SPLINE
5
37F
100
AcDbEntity
8
0
100
AcDbSpline
62
7
6
CONTINUOUS
70
0
71
3
72
9
73
5
74
3
42
0.0000001000
43
0.0000001000
44
0.0000000001
12
0.0492218826
22
0.0174642937
32
0.0000000000
13
0.0514320916
23
0.0090848905
33
0.0000000000
40
0.0000000000
40
0.0000000000
40
0.0000000000
40
0.0000000000
40
0.5075796461
40
1.0000000000
40
1.0000000000
40
1.0000000000
40
1.0000000000
10
8.3650281574
20
22.9166942649
30
0.0000000000
10
8.3733561660
20
22.9196491049
30
0.0000000000
10
8.3899974277
20
22.9248348329
30
0.0000000000
10
8.4070145590
20
22.9286218351
30
0.0000000000
10
8.4154566286
20
22.9301130301
30
0.0000000000
11
8.3650281574
21
22.9166942649
31
0.0000000000
11
8.3903465354
21
22.9245530812
31
0.0000000000
11
8.4154566286
21
22.9301130301
31
0.0000000000
0
SPLINE
5
380
100
AcDbEntity
8
0
100
AcDbSpline
62
7
6
CONTINUOUS
70
0
71
3
72
15
73
11
74
9
42
0.0000001000
43
0.0000001000
44
0.0000000001
12
-0.2865012013
22
-0.1071062599
32
0.0000000000
13
0.0036753698
23
-0.3062645373
33
0.0000000000
40
0.0000000000
40
0.0000000000
40
0.0000000000
40
0.0000000000
40
0.1383727985
40
0.2759121058
40
0.4127756328
40
0.5535612698
40
0.6966441976
40
0.8399312420
40
0.9856589588
40
1.0000000000
40
1.0000000000
40
1.0000000000
40
1.0000000000
10
-8.3435749527
20
24.7155417048
30
0.0000000000
10
-8.3567896103
20
24.7106015072
30
0.0000000000
10
-8.3823560765
20
24.6984893099
30
0.0000000000
10
-8.4169690717
20
24.6742175229
30
0.0000000000
10
-8.4472193106
20
24.6443208798
30
0.0000000000
10
-8.4723091604
20
24.6092653560
30
0.0000000000
10
-8.4912444160
20
24.5697974592
30
0.0000000000
10
-8.5031372998
20
24.5271432996
30
0.0000000000
10
-8.5060837426
20
24.4961898491
30
0.0000000000
10
-8.5060313914
20
24.4798470587
30
0.0000000000
10
-8.5060138218
20
24.4783830079
30
0.0000000000
11
-8.3435749527
21
24.7155417048
31
0.0000000000
11
-8.3818221180
21
24.6974185451
31
0.0000000000
11
-8.4162677400
21
24.6732673776
31
0.0000000000
11
-8.4460413059
21
24.6438400752
31
0.0000000000
11
-8.4711035151
21
24.6088230032
31
0.0000000000
11
-8.4900339628
21
24.5693647024
31
0.0000000000
11
-8.5018048731
21
24.5271481942
31
0.0000000000
11
-8.5060278722
21
24.4827753788
31
0.0000000000
11
-8.5060138218
21
24.4783830079
31
0.0000000000
0
SPLINE
5
381
100
AcDbEntity
8
0
100
AcDbSpline
62
7
6
CONTINUOUS
70
0
71
3
72
15
73
11
74
9
42
0.0000001000
43
0.0000001000
44
0.0000000001
12
-0.2766130140
22
0.1074529593
32
0.0000000000
13
-0.0035382166
23
0.2970979228
33
0.0000000000
40
0.0000000000
40
0.0000000000
40
0.0000000000
40
0.0000000000
40
0.1357744000
40
0.2695492054
40
0.4041897411
40
0.5409069179
40
0.6798027575
40
0.8212569248
40
0.9653539925
40
1.0000000000
40
1.0000000000
40
1.0000000000
40
1.0000000000
10
-8.3422169629
20
23.8843739067
30
0.0000000000
10
-8.3547359515
20
23.8892370271
30
0.0000000000
10
-8.3788551384
20
23.9009214814
30
0.0000000000
10
-8.4117246197
20
23.9239625908
30
0.0000000000
10
-8.4405969157
20
23.9520029839
30
0.0000000000
10
-8.4648975414
20
23.9847259754
30
0.0000000000
10
-8.4838512569
20
24.0215803967
30
0.0000000000
10
-8.4966564507
20
24.0617727791
30
0.0000000000
10
-8.5010583694
20
24.0932950452
30
0.0000000000
10
-8.5016335429
20
24.1109919533
30
0.0000000000
10
-8.5016744046
20
24.1144230389
30
0.0000000000
11
-8.3422169629
21
23.8843739067
31
0.0000000000
11
-8.3784761424
21
23.9019422106
31
0.0000000000
11
-8.4109837927
21
23.9247271147
31
0.0000000000
11
-8.4396450480
21
23.9525640442
31
0.0000000000
11
-8.4638334176
21
23.9851356273
31
0.0000000000
11
-8.4826837798
21
24.0217897733
31
0.0000000000
11
-8.4954260149
21
24.0617854881
31
0.0000000000
11
-8.5013398580
21
24.1041352911
31
0.0000000000
11
-8.5016744046
21
24.1144230389
31
0.0000000000
0
SPLINE
5
382
100
AcDbEntity
8
0
100
AcDbSpline
62
7
6
CONTINUOUS
70
0
71
3
72
10
73
6
74
4
42
0.0000001000
43
0.0000001000
44
0.0000000001
12
-0.0039578564
22
0.0014610993
32
0.0000000000
13
-0.0039326374
23
0.0015276802
33
0.0000000000
40
0.0000000000
40
0.0000000000
40
0.0000000000
40
0.0000000000
40
0.3384289833
40
0.6751494034
40
1.0000000000
40
1.0000000000
40
1.0000000000
40
1.0000000000
10
-7.0552588888
20
23.3844777683
30
0.0000000000
10
-7.0557053732
20
23.3846425944
30
0.0000000000
10
-7.0565951512
20
23.3849739589
30
0.0000000000
10
-7.0579102295
20
23.3854722596
30
0.0000000000
10
-7.0587783945
20
23.3858067728
30
0.0000000000
10
-7.0592042344
20
23.3859721954
30
0.0000000000
11
-7.0552588888
21
23.3844777683
31
0.0000000000
11
-7.0565969246
21
23.3849760696
31
0.0000000000
11
-7.0579253593
21
23.3854794312
31
0.0000000000
11
-7.0592042344
21
23.3859721954
31
0.0000000000
0
SPLINE
5
383
100
AcDbEntity
8
0
100
AcDbSpline
62
7
6
CONTINUOUS
70
0
71
3
72
13
73
9
74
7
42
0.0000001000
43
0.0000001000
44
0.0000000001
12
-0.0019274148
22
0.1951639340
32
0.0000000000
13
-0.1808470555
23
0.0702522118
33
0.0000000000
40
0.0000000000
40
0.0000000000
40
0.0000000000
40
0.0000000000
40
0.0415387430
40
0.1811740898
40
0.3409207240
40
0.5285099321
40
0.7483374062
40
1.0000000000
40
1.0000000000
40
1.0000000000
40
1.0000000000
10
14.3401376618
20
-18.8626101337
30
0.0000000000
10
14.3401109743
20
-18.8599078456
30
0.0000000000
10
14.3393065703
20
-18.8481369260
30
0.0000000000
10
14.3319755364
20
-18.8268294046
30
0.0000000000
10
14.3127379892
20
-18.8014284895
30
0.0000000000
10
14.2844667321
20
-18.7777266029
30
0.0000000000
10
14.2477063864
20
-18.7558928458
30
0.0000000000
10
14.2197429692
20
-18.7435710559
30
0.0000000000
10
14.2045721562
20
-18.7376777713
30
0.0000000000
11
14.3401376618
21
-18.8626101337
31
0.0000000000
11
14.3395796031
21
-18.8545338100
31
0.0000000000
11
14.3312356496
21
-18.8287597069
31
0.0000000000
11
14.3130780420
21
-18.8036427353
31
0.0000000000
11
14.2855616413
21
-18.7798220576
31
0.0000000000
11
14.2491198636
21
-18.7576642946
31
0.0000000000
11
14.2045721562
21
-18.7376777713
31
0.0000000000
0
SPLINE
5
384
100
AcDbEntity
8
0
100
AcDbSpline
62
7
6
CONTINUOUS
70
0
71
3
72
11
73
7
74
5
42
0.0000001000
43
0.0000001000
44
0.0000000001
12
0.1612175416
22
0.0269337927
32
0.0000000000
13
0.1524789497
23
-0.0591386314
33
0.0000000000
40
0.0000000000
40
0.0000000000
40
0.0000000000
40
0.0000000000
40
0.2410578652
40
0.5131559368
40
0.8197672840
40
1.0000000000
40
1.0000000000
40
1.0000000000
40
1.0000000000
10
3.0382559198
20
25.0199729401
30
0.0000000000
10
3.0512101719
20
25.0221371409
30
0.0000000000
10
3.0792794988
20
25.0240265628
30
0.0000000000
10
3.1238901376
20
25.0195789646
30
0.0000000000
10
3.1641361508
20
25.0095404018
30
0.0000000000
10
3.1891767950
20
25.0007114786
30
0.0000000000
10
3.1983373601
20
24.9971585732
30
0.0000000000
11
3.0382559198
21
25.0199729401
31
0.0000000000
11
3.0775498264
21
25.0228809671
31
0.0000000000
11
3.1218341964
21
25.0187681135
31
0.0000000000
11
3.1705300011
21
25.0069210481
31
0.0000000000
11
3.1983373601
21
24.9971585732
31
0.0000000000
0
SPLINE
5
385
100
AcDbEntity
8
0
100
AcDbSpline
62
7
6
CONTINUOUS
70
0
71
3
72
13
73
9
74
7
42
0.0000001000
43
0.0000001000
44
0.0000000001
12
0.0022079441
22
-0.2181473431
32
0.0000000000
13
-0.2023831431
23
-0.0781396402
33
0.0000000000
40
0.0000000000
40
0.0000000000
40
0.0000000000
40
0.0000000000
40
0.0858813082
40
0.2194092198
40
0.3738885600
40
0.5542851587
40
0.7633679231
40
1.0000000000
40
1.0000000000
40
1.0000000000
40
1.0000000000
10
13.8759983181
20
20.0672366875
30
0.0000000000
10
13.8760615251
20
20.0609917611
30
0.0000000000
10
13.8741889097
20
20.0449931664
30
0.0000000000
10
13.8627872068
20
20.0199619703
30
0.0000000000
10
13.8406711780
20
19.9939092164
30
0.0000000000
10
13.8096545305
20
19.9694176243
30
0.0000000000
10
13.7703165273
20
19.9467655125
30
0.0000000000
10
13.7407095865
20
19.9338709605
30
0.0000000000
10
13.7247461387
20
19.9277075121
30
0.0000000000
11
13.8759983181
21
20.0672366875
31
0.0000000000
11
13.8738573592
21
20.0486680317
31
0.0000000000
11
13.8623909819
21
20.0220659164
31
0.0000000000
11
13.8411961940
21
19.9961058000
31
0.0000000000
11
13.8108048638
21
19.9714483120
31
0.0000000000
11
13.7716946646
21
19.9484731997
31
0.0000000000
11
13.7247461387
21
19.9277075121
31
0.0000000000
0
SPLINE
5
386
100
AcDbEntity
8
0
100
AcDbSpline
62
7
6
CONTINUOUS
70
0
71
3
72
8
73
4
74
2
42
0.0000001000
43
0.0000001000
44
0.0000000001
12
-0.0005435645
22
0.0486178933
32
0.0000000000
13
-0.0044814735
23
0.0483779717
33
0.0000000000
40
0.0000000000
40
0.0000000000
40
0.0000000000
40
0.0000000000
40
1.0000000000
40
1.0000000000
40
1.0000000000
40
1.0000000000
10
13.8679477900
20
20.7439579385
30
0.0000000000
10
13.8677666018
20
20.7601639029
30
0.0000000000
10
13.8668730016
20
20.7763610115
30
0.0000000000
10
13.8653791771
20
20.7924870020
30
0.0000000000
11
13.8679477900
21
20.7439579385
31
0.0000000000
11
13.8653791771
21
20.7924870020
31
0.0000000000
0
SPLINE
5
387
100
AcDbEntity
8
0
100
AcDbSpline
62
7
6
CONTINUOUS
70
0
71
3
72
11
73
7
74
5
42
0.0000001000
43
0.0000001000
44
0.0000000001
12
0.1627826412
22
0.0287536911
32
0.0000000000
13
0.1542065476
23
-0.0598131449
33
0.0000000000
40
0.0000000000
40
0.0000000000
40
0.0000000000
40
0.0000000000
40
0.2384884724
40
0.5077893647
40
0.8113609223
40
1.0000000000
40
1.0000000000
40
1.0000000000
40
1.0000000000
10
8.4154566286
20
22.9301130301
30
0.0000000000
10
8.4283972231
20
22.9323988381
30
0.0000000000
10
8.4564749558
20
22.9345206927
30
0.0000000000
10
8.5011590354
20
22.9303488774
30
0.0000000000
10
8.5420485374
20
22.9203534773
30
0.0000000000
10
8.5676697049
20
22.9113712283
30
0.0000000000
10
8.5773661652
20
22.9076101962
30
0.0000000000
11
8.4154566286
21
22.9301130301
31
0.0000000000
11
8.4547464521
21
22.9333479793
31
0.0000000000
11
8.4990972222
21
22.9295143532
31
0.0000000000
11
8.5479124433
21
22.9178857239
31
0.0000000000
11
8.5773661652
21
22.9076101962
31
0.0000000000
0
SPLINE
5
388
100
AcDbEntity
8
0
100
AcDbSpline
62
7
6
CONTINUOUS
70
0
71
3
72
18
73
14
74
12
42
0.0000001000
43
0.0000001000
44
0.0000000001
12
0.6769470467
22
-0.2629682146
32
0.0000000000
13
0.0086578666
23
-0.7261780961
33
0.0000000000
40
0.0000000000
40
0.0000000000
40
0.0000000000
40
0.0000000000
40
0.0746465415
40
0.1545182921
40
0.2392401523
40
0.3287251399
40
0.4217085865
40
0.5178338176
40
0.6153661334
40
0.7137579898
40
0.8112510240
40
0.9071241842
40
1.0000000000
40
1.0000000000
40
1.0000000000
40
1.0000000000
10
8.5367852028
20
18.0327359109
30
0.0000000000
10
8.5536291214
20
18.0261926883
30
0.0000000000
10
8.5873665380
20
18.0096206051
30
0.0000000000
10
8.6352320749
20
17.9767251427
30
0.0000000000
10
8.6811931981
20
17.9356244322
30
0.0000000000
10
8.7242744949
20
17.8872104867
30
0.0000000000
10
8.7637154066
20
17.8323671196
30
0.0000000000
10
8.7986551002
20
17.7722975462
30
0.0000000000
10
8.8284683212
20
17.7080858733
30
0.0000000000
10
8.8525011131
20
17.6411442216
30
0.0000000000
10
8.8703126341
20
17.5726970619
30
0.0000000000
10
8.8815216052
20
17.5042190865
30
0.0000000000
10
8.8845033238
20
17.4585323142
30
0.0000000000
10
8.8847713593
20
17.4360508531
30
0.0000000000
11
8.5367852028
21
18.0327359109
31
0.0000000000
11
8.5855669719
21
18.0090901671
31
0.0000000000
11
8.6335183049
21
17.9764515809
31
0.0000000000
11
8.6795217379
21
17.9355942524
31
0.0000000000
11
8.7228473391
21
17.8871570996
31
0.0000000000
11
8.7623709597
21
17.8324047005
31
0.0000000000
11
8.7975383466
21
17.7721008768
31
0.0000000000
11
8.8274009753
21
17.7078728857
31
0.0000000000
11
8.8515439148
21
17.6406200180
31
0.0000000000
11
8.8693355316
21
17.5720895185
31
0.0000000000
11
8.8805013098
21
17.5033647304
31
0.0000000000
11
8.8847713593
21
17.4360508531
31
0.0000000000
0
SPLINE
5
389
100
AcDbEntity
8
0
100
AcDbSpline
62
7
6
CONTINUOUS
70
0
71
3
72
15
73
11
74
9
42
0.0000001000
43
0.0000001000
44
0.0000000001
12
0.0048028272
22
-0.4028368759
32
0.0000000000
13
-0.3797506593
23
-0.1371186008
33
0.0000000000
40
0.0000000000
40
0.0000000000
40
0.0000000000
40
0.0000000000
40
0.1605092393
40
0.3129366476
40
0.4560081417
40
0.5901906273
40
0.7153325328
40
0.8337527695
40
0.9470777689
40
1.0000000000
40
1.0000000000
40
1.0000000000
40
1.0000000000
10
9.3687289466
20
-23.1558656120
30
0.0000000000
10
9.3689859126
20
-23.1774186255
30
0.0000000000
10
9.3673395539
20
-23.2195080578
30
0.0000000000
10
9.3579320061
20
-23.2801641642
30
0.0000000000
10
9.3417962002
20
-23.3357518602
30
0.0000000000
10
9.3192210506
20
-23.3850918168
30
0.0000000000
10
9.2905348282
20
-23.4272582647
30
0.0000000000
10
9.2562732921
20
-23.4612437226
30
0.0000000000
10
9.2237719976
20
-23.4819573091
30
0.0000000000
10
9.2031320682
20
-23.4906740127
30
0.0000000000
10
9.1964329841
20
-23.4930928868
30
0.0000000000
11
9.3687289466
21
-23.1558656120
31
0.0000000000
11
9.3660317295
21
-23.2204729709
31
0.0000000000
11
9.3564084120
21
-23.2811219849
31
0.0000000000
11
9.3400929414
21
-23.3364031766
31
0.0000000000
11
9.3173364361
21
-23.3854373914
31
0.0000000000
11
9.2887345501
21
-23.4269541392
31
0.0000000000
11
9.2546845329
21
-23.4603696305
31
0.0000000000
11
9.2161047530
21
-23.4847818253
31
0.0000000000
11
9.1964329841
21
-23.4930928868
31
0.0000000000
0
SPLINE
5
38A
100
AcDbEntity
8
0
100
AcDbSpline
62
7
6
CONTINUOUS
70
0
71
3
72
20
73
16
74
14
42
0.0000001000
43
0.0000001000
44
0.0000000001
12
-1.7870210595
22
-0.7915291250
32
0.0000000000
13
-0.0384268839
23
-1.9539771900
33
0.0000000000
40
0.0000000000
40
0.0000000000
40
0.0000000000
40
0.0000000000
40
0.0634596603
40
0.1368734924
40
0.2124875392
40
0.2898440268
40
0.3683748328
40
0.4477022393
40
0.5276743346
40
0.6080889289
40
0.6886982913
40
0.7692325468
40
0.8494359566
40
0.9290867001
40
1.0000000000
40
1.0000000000
40
1.0000000000
40
1.0000000000
10
-12.4262319458
20
21.0100535948
30
0.0000000000
10
-12.4640331956
20
20.9933102050
30
0.0000000000
10
-12.5437758888
20
20.9530156425
30
0.0000000000
10
-12.6604804622
20
20.8781481199
30
0.0000000000
10
-12.7759831917
20
20.7860691628
30
0.0000000000
10
-12.8843900921
20
20.6809260730
30
0.0000000000
10
-12.9842838160
20
20.5644839506
30
0.0000000000
10
-13.0746878484
20
20.4384490154
30
0.0000000000
10
-13.1549497329
20
20.3043068939
30
0.0000000000
10
-13.2245358453
20
20.1634053228
30
0.0000000000
10
-13.2829133784
20
20.0171116476
30
0.0000000000
10
-13.3295630005
20
19.8668110492
30
0.0000000000
10
-13.3639855850
20
19.7138795954
30
0.0000000000
10
-13.3849735961
20
19.5648686984
30
0.0000000000
10
-13.3908193441
20
19.4668395596
30
0.0000000000
10
-13.3917276698
20
19.4206519028
30
0.0000000000
11
-12.4262319458
21
21.0100535948
31
0.0000000000
11
-12.5369947166
21
20.9542411853
31
0.0000000000
11
-12.6578607391
21
20.8769560067
31
0.0000000000
11
-12.7735270461
21
20.7850046712
31
0.0000000000
11
-12.8821670560
21
20.6798906703
31
0.0000000000
11
-12.9822042094
21
20.5635152369
31
0.0000000000
11
-13.0726534328
21
20.4376191634
31
0.0000000000
11
-13.1529641164
21
20.3035547777
31
0.0000000000
11
-13.2225892135
21
20.1626774096
31
0.0000000000
11
-13.2809805959
21
20.0163753285
31
0.0000000000
11
-13.3276057010
21
19.8660632084
31
0.0000000000
11
-13.3619622892
21
19.7131443439
31
0.0000000000
11
-13.3835719713
21
19.5590008943
31
0.0000000000
11
-13.3917276698
21
19.4206519028
31
0.0000000000
0
SPLINE
5
38B
100
AcDbEntity
8
0
100
AcDbSpline
62
7
6
CONTINUOUS
70
0
71
3
72
14
73
10
74
8
42
0.0000001000
43
0.0000001000
44
0.0000000001
12
-0.7496786502
22
-38.1236537090
32
0.0000000000
13
1.6864801993
23
-38.0937105958
33
0.0000000000
40
0.0000000000
40
0.0000000000
40
0.0000000000
40
0.0000000000
40
0.1439927173
40
0.2878981237
40
0.4313447432
40
0.5743247651
40
0.7168301230
40
0.8588533735
40
1.0000000000
40
1.0000000000
40
1.0000000000
40
1.0000000000
10
-13.3917277057
20
19.4206547313
30
0.0000000000
10
-13.4277104610
20
17.5908119010
30
0.0000000000
10
-13.4833820611
20
13.9318944288
30
0.0000000000
10
-13.5175854259
20
8.4493916912
30
0.0000000000
10
-13.5022407266
20
2.9796700905
30
0.0000000000
10
-13.4373204928
20
-2.4718905764
30
0.0000000000
10
-13.3228329130
20
-7.9045424649
30
0.0000000000
10
-13.1589423729
20
-13.3126104364
30
0.0000000000
10
-13.0165534108
20
-16.9090399963
30
0.0000000000
10
-12.9372064139
20
-18.7013062430
30
0.0000000000
11
-13.3917277057
21
19.4206547313
31
0.0000000000
11
-13.4751832647
21
13.9306992864
31
0.0000000000
11
-13.5093374534
21
8.4435452394
31
0.0000000000
11
-13.4939125143
21
2.9738006597
31
0.0000000000
11
-13.4289098984
21
-2.4777863049
31
0.0000000000
11
-13.3143380337
21
-7.9104533711
31
0.0000000000
11
-13.1502119238
21
-13.3234575441
31
0.0000000000
11
-12.9372064139
21
-18.7013062430
31
0.0000000000
0
SPLINE
5
38C
100
AcDbEntity
8
0
100
AcDbSpline
62
7
6
CONTINUOUS
70
0
71
3
72
18
73
14
74
12
42
0.0000001000
43
0.0000001000
44
0.0000000001
12
0.0594000964
22
-1.3416743927
32
0.0000000000
13
1.2525499730
23
-0.4864321303
33
0.0000000000
40
0.0000000000
40
0.0000000000
40
0.0000000000
40
0.0000000000
40
0.0985143162
40
0.2053063835
40
0.3092386669
40
0.4099577187
40
0.5071562019
40
0.6007023230
40
0.6912470543
40
0.7794425520
40
0.8658691586
40
0.9510442087
40
1.0000000000
40
1.0000000000
40
1.0000000000
40
1.0000000000
10
-12.9372064783
20
-18.7013039381
30
0.0000000000
10
-12.9352558916
20
-18.7453619832
30
0.0000000000
10
-12.9275125761
20
-18.8370631710
30
0.0000000000
10
-12.9035939808
20
-18.9736080848
30
0.0000000000
10
-12.8660160142
20
-19.1081052208
30
0.0000000000
10
-12.8162185390
20
-19.2339801457
30
0.0000000000
10
-12.7551975330
20
-19.3495950951
30
0.0000000000
10
-12.6841367239
20
-19.4538634169
30
0.0000000000
10
-12.6041819658
20
-19.5462152518
30
0.0000000000
10
-12.5162990904
20
-19.6264024065
30
0.0000000000
10
-12.4214557046
20
-19.6941747302
30
0.0000000000
10
-12.3346357411
20
-19.7416459043
30
0.0000000000
10
-12.2793734033
20
-19.7653453020
30
0.0000000000
10
-12.2589335449
20
-19.7732831919
30
0.0000000000
11
-12.9372064783
21
-18.7013039381
31
0.0000000000
11
-12.9259513845
21
-18.8331246239
31
0.0000000000
11
-12.9010287794
21
-18.9743458081
31
0.0000000000
11
-12.8632891768
21
-19.1087096140
31
0.0000000000
11
-12.8133627034
21
-19.2344056513
31
0.0000000000
11
-12.7522899786
21
-19.3497565865
31
0.0000000000
11
-12.6814287341
21
-19.4534782081
31
0.0000000000
11
-12.6017591398
21
-19.5453255434
31
0.0000000000
11
-12.5142142612
21
-19.6250871100
31
0.0000000000
11
-12.4197551198
21
-19.6925148577
31
0.0000000000
11
-12.3193851516
21
-19.7473567257
31
0.0000000000
11
-12.2589335449
21
-19.7732831919
31
0.0000000000
0
SPLINE
5
38D
100
AcDbEntity
8
0
100
AcDbSpline
62
7
6
CONTINUOUS
70
0
71
3
72
13
73
9
74
7
42
0.0000001000
43
0.0000001000
44
0.0000000001
12
0.6250934845
22
-0.2429151213
32
0.0000000000
13
0.6447915147
23
0.1832882719
33
0.0000000000
40
0.0000000000
40
0.0000000000
40
0.0000000000
40
0.0000000000
40
0.1003855992
40
0.2776730645
40
0.4574748484
40
0.6407513364
40
0.8285473443
40
1.0000000000
40
1.0000000000
40
1.0000000000
40
1.0000000000
10
2.1077735515
20
-25.3542034434
30
0.0000000000
10
2.1286903461
20
-25.3623318367
30
0.0000000000
10
2.1873380566
20
-25.3828283311
30
0.0000000000
10
2.2868187351
20
-25.4072619484
30
0.0000000000
10
2.4069612212
20
-25.4217413226
30
0.0000000000
10
2.5303190809
20
-25.4217374677
30
0.0000000000
10
2.6509348692
20
-25.4074065052
30
0.0000000000
10
2.7292932073
20
-25.3892665469
30
0.0000000000
10
2.7661436132
20
-25.3787914599
30
0.0000000000
11
2.1077735515
21
-25.3542034434
31
0.0000000000
11
2.1713221386
21
-25.3764112523
31
0.0000000000
11
2.2867014674
21
-25.4047850849
31
0.0000000000
11
2.4063307404
21
-25.4192617069
31
0.0000000000
11
2.5291614501
21
-25.4193469640
31
0.0000000000
11
2.6541555017
21
-25.4046109757
31
0.0000000000
11
2.7661436132
21
-25.3787914599
31
0.0000000000
0
SPLINE
5
38E
100
AcDbEntity
8
0
100
AcDbSpline
62
7
6
CONTINUOUS
70
0
71
3
72
8
73
4
74
2
42
0.0000001000
43
0.0000001000
44
0.0000000001
12
-0.0128839744
22
-0.0046509782
32
0.0000000000
13
-0.0131742885
23
-0.0037493882
33
0.0000000000
40
0.0000000000
40
0.0000000000
40
0.0000000000
40
0.0000000000
40
1.0000000000
40
1.0000000000
40
1.0000000000
40
1.0000000000
10
8.4537295514
20
-23.7612838432
30
0.0000000000
10
8.4494348933
20
-23.7628341693
30
0.0000000000
10
8.4450865727
20
-23.7642361363
30
0.0000000000
10
8.4406951432
20
-23.7654859324
30
0.0000000000
11
8.4537295514
21
-23.7612838432
31
0.0000000000
11
8.4406951432
21
-23.7654859324
31
0.0000000000
0
SPLINE
5
38F
100
AcDbEntity
8
0
100
AcDbSpline
62
7
6
CONTINUOUS
70
0
71
3
72
11
73
7
74
5
42
0.0000001000
43
0.0000001000
44
0.0000000001
12
-0.0009056121
22
0.0569426703
32
0.0000000000
13
-0.0531019833
23
0.0205249286
33
0.0000000000
40
0.0000000000
40
0.0000000000
40
0.0000000000
40
0.0000000000
40
0.1337621232
40
0.4877567200
40
0.8286722339
40
1.0000000000
40
1.0000000000
40
1.0000000000
40
1.0000000000
10
9.1384094764
20
22.6583048402
30
0.0000000000
10
9.1383690975
20
22.6608437643
30
0.0000000000
10
9.1376496606
20
22.6700901713
30
0.0000000000
10
9.1321586761
20
22.6854706090
30
0.0000000000
10
9.1191956418
20
22.6964464708
30
0.0000000000
10
9.1103778932
20
22.7005821468
30
0.0000000000
10
9.1073452785
20
22.7017543102
30
0.0000000000
11
9.1384094764
21
22.6583048402
31
0.0000000000
11
9.1377855390
21
22.6659006721
31
0.0000000000
11
9.1305683395
21
22.6846512952
31
0.0000000000
11
9.1161474722
21
22.6975522369
31
0.0000000000
11
9.1073452785
21
22.7017543102
31
0.0000000000
0
SPLINE
5
390
100
AcDbEntity
8
0
100
AcDbSpline
62
7
6
CONTINUOUS
70
0
71
3
72
11
73
7
74
5
42
0.0000001000
43
0.0000001000
44
0.0000000001
12
-0.0008890896
22
0.0569388480
32
0.0000000000
13
-0.0530785600
23
0.0205402638
33
0.0000000000
40
0.0000000000
40
0.0000000000
40
0.0000000000
40
0.0000000000
40
0.1414809030
40
0.4957564052
40
0.8386622477
40
1.0000000000
40
1.0000000000
40
1.0000000000
40
1.0000000000
10
3.7593865128
20
24.7478564410
30
0.0000000000
10
3.7593445831
20
24.7505416942
30
0.0000000000
10
3.7585822414
20
24.7599358283
30
0.0000000000
10
3.7528467616
20
24.7754435192
30
0.0000000000
10
3.7398697445
20
24.7861571684
30
0.0000000000
10
3.7311774663
20
24.7901957282
30
0.0000000000
10
3.7283229411
20
24.7913003682
30
0.0000000000
11
3.7593865128
21
24.7478564410
31
0.0000000000
11
3.7586954234
21
24.7558850669
31
0.0000000000
11
3.7512789736
21
24.7745714784
31
0.0000000000
11
3.7366302524
21
24.7873806209
31
0.0000000000
11
3.7283229411
21
24.7913003682
31
0.0000000000
0
SPLINE
5
391
100
AcDbEntity
8
0
100
AcDbSpline
62
7
6
CONTINUOUS
70
0
71
3
72
8
73
4
74
2
42
0.0000001000
43
0.0000001000
44
0.0000000001
12
0.0034313098
22
0.0145674550
32
0.0000000000
13
-0.0002525823
23
0.0150533504
33
0.0000000000
40
0.0000000000
40
0.0000000000
40
0.0000000000
40
0.0000000000
40
1.0000000000
40
1.0000000000
40
1.0000000000
40
1.0000000000
10
14.3464172265
20
-19.5545533806
30
0.0000000000
10
14.3475609964
20
-19.5496975623
30
0.0000000000
10
14.3483556500
20
-19.5446649793
30
0.0000000000
10
14.3482714559
20
-19.5396471959
30
0.0000000000
11
14.3464172265
21
-19.5545533806
31
0.0000000000
11
14.3482714559
21
-19.5396471959
31
0.0000000000
0
SPLINE
5
392
100
AcDbEntity
8
0
100
AcDbSpline
62
7
6
CONTINUOUS
70
0
71
3
72
12
73
8
74
6
42
0.0000001000
43
0.0000001000
44
0.0000000001
12
-0.4875660832
22
0.4885286455
32
0.0000000000
13
-0.6425267477
23
0.2528228919
33
0.0000000000
40
0.0000000000
40
0.0000000000
40
0.0000000000
40
0.0000000000
40
0.2532437970
40
0.4855435863
40
0.6960102417
40
0.8850878265
40
1.0000000000
40
1.0000000000
40
1.0000000000
40
1.0000000000
10
13.8653791771
20
20.7924870020
30
0.0000000000
10
13.8242214817
20
20.8337259517
30
0.0000000000
10
13.7422653949
20
20.9098396803
30
0.0000000000
10
13.6163564860
20
21.0090590485
30
0.0000000000
10
13.4948122393
20
21.0891387807
30
0.0000000000
10
13.3903695057
20
21.1451854863
30
0.0000000000
10
13.3261714059
20
21.1731179309
30
0.0000000000
10
13.3015600242
20
21.1828020735
30
0.0000000000
11
13.8653791771
21
20.7924870020
31
0.0000000000
11
13.7371308682
21
20.9112465619
31
0.0000000000
11
13.6110097258
21
21.0102439996
31
0.0000000000
11
13.4895168592
21
21.0898766201
31
0.0000000000
11
13.3743520142
21
21.1512593141
31
0.0000000000
11
13.3015600242
21
21.1828020735
31
0.0000000000
0
SPLINE
5
393
100
AcDbEntity
8
0
100
AcDbSpline
62
7
6
CONTINUOUS
70
0
71
3
72
8
73
4
74
2
42
0.0000001000
43
0.0000001000
44
0.0000000001
12
-0.0050460923
22
0.0019855479
32
0.0000000000
13
-0.0050557123
23
0.0019609065
33
0.0000000000
40
0.0000000000
40
0.0000000000
40
0.0000000000
40
0.0000000000
40
1.0000000000
40
1.0000000000
40
1.0000000000
40
1.0000000000
10
13.3015600242
20
21.1828020735
30
0.0000000000
10
13.2998779934
20
21.1834639228
30
0.0000000000
10
13.2981943576
20
21.1841216866
30
0.0000000000
10
13.2965091201
20
21.1847753221
30
0.0000000000
11
13.3015600242
21
21.1828020735
31
0.0000000000
11
13.2965091201
21
21.1847753221
31
0.0000000000
0
SPLINE
5
394
100
AcDbEntity
8
0
100
AcDbSpline
62
7
6
CONTINUOUS
70
0
71
3
72
12
73
8
74
6
42
0.0000001000
43
0.0000001000
44
0.0000000001
12
0.3531676743
22
0.1239941092
32
0.0000000000
13
0.3493528750
23
-0.1357334325
33
0.0000000000
40
0.0000000000
40
0.0000000000
40
0.0000000000
40
0.0000000000
40
0.2420847203
40
0.4741123576
40
0.6979648750
40
0.9172718479
40
1.0000000000
40
1.0000000000
40
1.0000000000
40
1.0000000000
10
9.8647063472
20
22.3726722289
30
0.0000000000
10
9.8932051797
20
22.3826779219
30
0.0000000000
10
9.9504269084
20
22.3985782293
30
0.0000000000
10
10.0372118812
20
22.4091415923
30
0.0000000000
10
10.1217796731
20
22.4056435927
30
0.0000000000
10
10.1862286299
20
22.3916407386
30
0.0000000000
10
10.2218590625
20
22.3791562577
30
0.0000000000
10
10.2314928351
20
22.3754132656
30
0.0000000000
11
9.8647063472
21
22.3726722289
31
0.0000000000
11
9.9520916122
21
22.3966407834
31
0.0000000000
11
10.0383359439
21
22.4068661981
31
0.0000000000
11
10.1220439115
21
22.4031950181
31
0.0000000000
11
10.2022366485
21
22.3856620542
31
0.0000000000
11
10.2314928351
21
22.3754132656
31
0.0000000000
0
SPLINE
5
395
100
AcDbEntity
8
0
100
AcDbSpline
62
7
6
CONTINUOUS
70
0
71
3
72
16
73
12
74
10
42
0.0000001000
43
0.0000001000
44
0.0000000001
12
-0.0096327485
22
0.8079462569
32
0.0000000000
13
-0.7541462513
23
0.2930070614
33
0.0000000000
40
0.0000000000
40
0.0000000000
40
0.0000000000
40
0.0000000000
40
0.1354166070
40
0.2657146679
40
0.3902580566
40
0.5092681377
40
0.6225479048
40
0.7311457220
40
0.8355529793
40
0.9375696386
40
1.0000000000
40
1.0000000000
40
1.0000000000
40
1.0000000000
10
6.4898866929
20
23.3031493456
30
0.0000000000
10
6.4894518816
20
23.3396191258
30
0.0000000000
10
6.4852695392
20
23.4111973207
30
0.0000000000
10
6.4684935743
20
23.5151510106
30
0.0000000000
10
6.4415324839
20
23.6123993800
30
0.0000000000
10
6.4047528399
20
23.7014707952
30
0.0000000000
10
6.3585853378
20
23.7811770655
30
0.0000000000
10
6.3036854505
20
23.8502395506
30
0.0000000000
10
6.2407152541
20
23.9076791194
30
0.0000000000
10
6.1794011380
20
23.9468913306
30
0.0000000000
10
6.1389393140
20
23.9652138195
30
0.0000000000
10
6.1232454397
20
23.9713113318
30
0.0000000000
11
6.4898866929
21
23.3031493456
31
0.0000000000
11
6.4833085960
21
23.4123685473
31
0.0000000000
11
6.4663055361
21
23.5162677808
31
0.0000000000
11
6.4391620075
21
23.6131694366
31
0.0000000000
11
6.4021890677
21
23.7019380093
31
0.0000000000
11
6.3560528470
21
23.7809903705
31
0.0000000000
11
6.3012288699
21
23.8495027344
31
0.0000000000
11
6.2387500261
21
23.9061882525
31
0.0000000000
11
6.1692346203
21
23.9504859524
31
0.0000000000
11
6.1232454397
21
23.9713113318
31
0.0000000000
0
SPLINE
5
396
100
AcDbEntity
8
0
100
AcDbSpline
62
7
6
CONTINUOUS
70
0
71
3
72
13
73
9
74
7
42
0.0000001000
43
0.0000001000
44
0.0000000001
12
0.2617767289
22
0.0935078838
32
0.0000000000
13
0.2621375029
23
-0.1002626828
33
0.0000000000
40
0.0000000000
40
0.0000000000
40
0.0000000000
40
0.0000000000
40
0.2484379563
40
0.4694849909
40
0.6625084086
40
0.8279639134
40
0.9655453884
40
1.0000000000
40
1.0000000000
40
1.0000000000
40
1.0000000000
10
2.7866446827
20
25.1222303336
30
0.0000000000
10
2.8083231079
20
25.1299739694
30
0.0000000000
10
2.8496351744
20
25.1436773693
30
0.0000000000
10
2.9090186120
20
25.1594296462
30
0.0000000000
10
2.9619358721
20
25.1689666405
30
0.0000000000
10
3.0079750700
20
25.1718846271
30
0.0000000000
10
3.0392393518
20
25.1683524744
30
0.0000000000
10
3.0545900176
20
25.1633774772
30
0.0000000000
10
3.0576006328
20
25.1622259733
30
0.0000000000
11
2.7866446827
21
25.1222303336
31
0.0000000000
11
2.8522610020
21
25.1437654390
31
0.0000000000
11
2.9117283849
21
25.1592321489
31
0.0000000000
11
2.9646088655
21
25.1683212950
31
0.0000000000
11
3.0105464711
21
25.1705717381
31
0.0000000000
11
3.0484177775
21
25.1652428878
31
0.0000000000
11
3.0576006328
21
25.1622259733
31
0.0000000000
0
SPLINE
5
397
100
AcDbEntity
8
0
100
AcDbSpline
62
7
6
CONTINUOUS
70
0
71
3
72
17
73
13
74
11
42
0.0000001000
43
0.0000001000
44
0.0000000001
12
1.1131451608
22
0.4087421819
32
0.0000000000
13
0.9421042917
23
0.7201401419
33
0.0000000000
40
0.0000000000
40
0.0000000000
40
0.0000000000
40
0.0000000000
40
0.0659896185
40
0.1388306199
40
0.2187141296
40
0.3064833945
40
0.4023010703
40
0.5067043086
40
0.6196234535
40
0.7405052529
40
0.8680098422
40
1.0000000000
40
1.0000000000
40
1.0000000000
40
1.0000000000
10
13.3277959799
20
-20.1544322677
30
0.0000000000
10
13.3522813214
20
-20.1454413542
30
0.0000000000
10
13.4033342130
20
-20.1252627349
30
0.0000000000
10
13.4824573081
20
-20.0903871405
30
0.0000000000
10
13.5681227954
20
-20.0491437233
30
0.0000000000
10
13.6605704994
20
-20.0011640360
30
0.0000000000
10
13.7601281734
20
-19.9459399359
30
0.0000000000
10
13.8667631115
20
-19.8830685511
30
0.0000000000
10
13.9801551774
20
-19.8122364211
30
0.0000000000
10
14.0993158960
20
-19.7334886152
30
0.0000000000
10
14.2225477859
20
-19.6473212619
30
0.0000000000
10
14.3049677284
20
-19.5862371843
30
0.0000000000
10
14.3464172265
20
-19.5545533806
30
0.0000000000
11
13.3277959799
21
-20.1544322677
31
0.0000000000
11
13.4006274548
21
-20.1258159694
31
0.0000000000
11
13.4797164770
21
-20.0910919322
31
0.0000000000
11
13.5651112597
21
-20.0500921721
31
0.0000000000
11
13.6575288127
21
-20.0022247677
31
0.0000000000
11
13.7569233754
21
-19.9471726547
31
0.0000000000
11
13.8635994637
21
-19.8843440599
31
0.0000000000
11
13.9771871133
21
-19.8134395710
31
0.0000000000
11
14.0967885358
21
-19.7344274244
31
0.0000000000
11
14.2206963494
21
-19.6477820232
31
0.0000000000
11
14.3464172265
21
-19.5545533806
31
0.0000000000
0
SPLINE
5
398
100
AcDbEntity
8
0
100
AcDbSpline
62
7
6
CONTINUOUS
70
0
71
3
72
10
73
6
74
4
42
0.0000001000
43
0.0000001000
44
0.0000000001
12
0.0034578592
22
0.0012946003
32
0.0000000000
13
0.0034715148
23
0.0012575234
33
0.0000000000
40
0.0000000000
40
0.0000000000
40
0.0000000000
40
0.0000000000
40
0.3337503634
40
0.6670833994
40
1.0000000000
40
1.0000000000
40
1.0000000000
40
1.0000000000
10
-3.2313827595
20
-7.6715568950
30
0.0000000000
10
-3.2309980722
20
-7.6714128705
30
0.0000000000
10
-3.2302286668
20
-7.6711263668
30
0.0000000000
10
-3.2290737576
20
-7.6707009918
30
0.0000000000
10
-3.2283032920
20
-7.6704203356
30
0.0000000000
10
-3.2279180503
20
-7.6702807855
30
0.0000000000
11
-3.2313827595
21
-7.6715568950
31
0.0000000000
11
-3.2302279313
21
-7.6711268742
31
0.0000000000
11
-3.2290730244
21
-7.6707015030
31
0.0000000000
11
-3.2279180503
21
-7.6702807855
31
0.0000000000
0
SPLINE
5
399
100
AcDbEntity
8
0
100
AcDbSpline
62
7
6
CONTINUOUS
70
0
71
3
72
17
73
13
74
11
42
0.0000001000
43
0.0000001000
44
0.0000000001
12
-0.3298460243
22
-0.1234922314
32
0.0000000000
13
0.0067960653
23
-0.3522113983
33
0.0000000000
40
0.0000000000
40
0.0000000000
40
0.0000000000
40
0.0000000000
40
0.1112018423
40
0.2176181301
40
0.3215515005
40
0.4248716634
40
0.5289464300
40
0.6346890453
40
0.7426465955
40
0.8531201587
40
0.9662185855
40
1.0000000000
40
1.0000000000
40
1.0000000000
40
1.0000000000
10
-3.2313827595
20
-7.6715568950
30
0.0000000000
10
-3.2436092547
20
-7.6761344162
30
0.0000000000
10
-3.2668040586
20
-7.6872479372
30
0.0000000000
10
-3.2974320969
20
-7.7096555206
30
0.0000000000
10
-3.3229880810
20
-7.7364190991
30
0.0000000000
10
-3.3437084123
20
-7.7667018681
30
0.0000000000
10
-3.3599382639
20
-7.7998127397
30
0.0000000000
10
-3.3720343326
20
-7.8351956399
30
0.0000000000
10
-3.3803323756
20
-7.8724068029
30
0.0000000000
10
-3.3851315964
20
-7.9110844789
30
0.0000000000
10
-3.3863172272
20
-7.9413064478
30
0.0000000000
10
-3.3861674876
20
-7.9585542810
30
0.0000000000
10
-3.3860909607
20
-7.9625203474
30
0.0000000000
11
-3.2313827595
21
-7.6715568950
31
0.0000000000
11
-3.2666700826
21
-7.6885502110
31
0.0000000000
11
-3.2969269145
21
-7.7106704469
31
0.0000000000
11
-3.3222604278
21
-7.7370940262
31
0.0000000000
11
-3.3429002724
21
-7.7670644112
31
0.0000000000
11
-3.3591412245
21
-7.7999258229
31
0.0000000000
11
-3.3712976870
21
-7.8351291095
31
0.0000000000
11
-3.3796745607
21
-7.8722181266
31
0.0000000000
11
-3.3845548681
21
-7.9108202501
31
0.0000000000
11
-3.3861926509
21
-7.9506204576
31
0.0000000000
11
-3.3860909607
21
-7.9625203474
31
0.0000000000
0
SPLINE
5
39A
100
AcDbEntity
8
0
100
AcDbSpline
62
7
6
CONTINUOUS
70
0
71
3
72
10
73
6
74
4
42
0.0000001000
43
0.0000001000
44
0.0000000001
12
0.0046193536
22
0.0017483727
32
0.0000000000
13
0.0046438620
23
0.0016821951
33
0.0000000000
40
0.0000000000
40
0.0000000000
40
0.0000000000
40
0.0000000000
40
0.3338911501
40
0.6672239585
40
1.0000000000
40
1.0000000000
40
1.0000000000
40
1.0000000000
10
-3.9887380864
20
-8.8446183682
30
0.0000000000
10
-3.9882239660
20
-8.8444237794
30
0.0000000000
10
-3.9871956625
20
-8.8440373590
30
0.0000000000
10
-3.9856517611
20
-8.8434655473
30
0.0000000000
10
-3.9846215482
20
-8.8430895685
30
0.0000000000
10
-3.9841064262
20
-8.8429029705
30
0.0000000000
11
-3.9887380864
21
-8.8446183682
31
0.0000000000
11
-3.9871943451
21
-8.8440382612
31
0.0000000000
11
-3.9856504491
21
-8.8434664585
31
0.0000000000
11
-3.9841064262
21
-8.8429029705
31
0.0000000000
0
SPLINE
5
39B
100
AcDbEntity
8
0
100
AcDbSpline
62
7
6
CONTINUOUS
70
0
71
3
72
17
73
13
74
11
42
0.0000001000
43
0.0000001000
44
0.0000000001
12
-0.3304491486
22
-0.1250712377
32
0.0000000000
13
0.0077168847
23
-0.3533135027
33
0.0000000000
40
0.0000000000
40
0.0000000000
40
0.0000000000
40
0.0000000000
40
0.1110087247
40
0.2172714767
40
0.3210741660
40
0.4242713445
40
0.5282190655
40
0.6338225284
40
0.7416239021
40
0.8519215967
40
0.9648233317
40
1.0000000000
40
1.0000000000
40
1.0000000000
40
1.0000000000
10
-3.9887380864
20
-8.8446183682
30
0.0000000000
10
-4.0009656659
20
-8.8492463677
30
0.0000000000
10
-4.0241572925
20
-8.8604596728
30
0.0000000000
10
-4.0547624033
20
-8.8830059251
30
0.0000000000
10
-4.0802860723
20
-8.9098953270
30
0.0000000000
10
-4.1009665353
20
-8.9402914210
30
0.0000000000
10
-4.1171501445
20
-8.9735038171
30
0.0000000000
10
-4.1291944242
20
-9.0089770616
30
0.0000000000
10
-4.1374358189
20
-9.0462679149
30
0.0000000000
10
-4.1421741582
20
-9.0850150894
30
0.0000000000
10
-4.1433173405
20
-9.1154556038
30
0.0000000000
10
-4.1431290435
20
-9.1328992147
30
0.0000000000
10
-4.1430385587
20
-9.1370420120
30
0.0000000000
11
-3.9887380864
21
-8.8446183682
31
0.0000000000
11
-4.0240162123
21
-8.8617602047
31
0.0000000000
11
-4.0542527291
21
-8.8840180519
31
0.0000000000
11
-4.0795562220
21
-8.9105675935
31
0.0000000000
11
-4.1001577081
21
-8.9406520782
31
0.0000000000
11
-4.1163532000
21
-8.9736158828
31
0.0000000000
11
-4.1284581718
21
-9.0089102259
31
0.0000000000
11
-4.1367784376
21
-9.0460794266
31
0.0000000000
11
-4.1415977840
21
-9.0847513602
31
0.0000000000
11
-4.1431709064
21
-9.1246114789
31
0.0000000000
11
-4.1430385587
21
-9.1370420120
31
0.0000000000
0
SPLINE
5
39C
100
AcDbEntity
8
0
100
AcDbSpline
62
7
6
CONTINUOUS
70
0
71
3
72
15
73
11
74
9
42
0.0000001000
43
0.0000001000
44
0.0000000001
12
0.0769260653
22
0.1705563193
32
0.0000000000
13
0.1752554755
23
0.0655179051
33
0.0000000000
40
0.0000000000
40
0.0000000000
40
0.0000000000
40
0.0000000000
40
0.0914082731
40
0.1908798582
40
0.2997372023
40
0.4187809028
40
0.5483942683
40
0.6886345211
40
0.8393034508
40
1.0000000000
40
1.0000000000
40
1.0000000000
40
1.0000000000
10
-3.0249855530
20
22.8344179665
30
0.0000000000
10
-3.0226416601
20
22.8396147194
30
0.0000000000
10
-3.0167313722
20
22.8500242886
30
0.0000000000
10
-3.0051012116
20
22.8647304237
30
0.0000000000
10
-2.9904741620
20
22.8790424772
30
0.0000000000
10
-2.9729486144
20
22.8928827012
30
0.0000000000
10
-2.9526313808
20
22.9061792584
30
0.0000000000
10
-2.9296465301
20
22.9188546549
30
0.0000000000
10
-2.9041364268
20
22.9308321737
30
0.0000000000
10
-2.8861084531
20
22.9380784351
30
0.0000000000
10
-2.8767208031
20
22.9415879355
30
0.0000000000
11
-3.0249855530
21
22.8344179665
31
0.0000000000
11
-3.0166379521
21
22.8493450636
31
0.0000000000
11
-3.0051861700
21
22.8640160413
31
0.0000000000
11
-2.9907036061
21
22.8783368813
31
0.0000000000
11
-2.9732830807
21
22.8922158109
31
0.0000000000
11
-2.9530362402
21
22.9055638898
31
0.0000000000
11
-2.9300928380
21
22.9182955821
31
0.0000000000
11
-2.9045999040
21
22.9303293018
31
0.0000000000
11
-2.8767208031
21
22.9415879355
31
0.0000000000
0
SPLINE
5
39D
100
AcDbEntity
8
0
100
AcDbSpline
62
7
6
CONTINUOUS
70
0
71
3
72
9
73
5
74
3
42
0.0000001000
43
0.0000001000
44
0.0000000001
12
-0.0180331646
22
-0.0399821592
32
0.0000000000
13
0.0005754346
23
-0.0438744847
33
0.0000000000
40
0.0000000000
40
0.0000000000
40
0.0000000000
40
0.0000000000
40
0.5468575366
40
1.0000000000
40
1.0000000000
40
1.0000000000
40
1.0000000000
10
-3.0249855530
20
22.8344179665
30
0.0000000000
10
-3.0282727437
20
22.8271297848
30
0.0000000000
10
-3.0315238652
20
22.8126068555
30
0.0000000000
10
-3.0321671002
20
22.7979685464
30
0.0000000000
10
-3.0320801823
20
22.7913414157
30
0.0000000000
11
-3.0249855530
21
22.8344179665
31
0.0000000000
11
-3.0310486476
21
22.8112113334
31
0.0000000000
11
-3.0320801823
21
22.7913414157
31
0.0000000000
0
SPLINE
5
39E
100
AcDbEntity
8
0
100
AcDbSpline
62
7
6
CONTINUOUS
70
0
71
3
72
21
73
17
74
15
42
0.0000001000
43
0.0000001000
44
0.0000000001
12
-1.9173678103
22
-0.8230443791
32
0.0000000000
13
-0.0421248640
23
-2.0861272410
33
0.0000000000
40
0.0000000000
40
0.0000000000
40
0.0000000000
40
0.0000000000
40
0.0612705826
40
0.1251082534
40
0.1914547935
40
0.2601529488
40
0.3309616751
40
0.4035710096
40
0.4776162433
40
0.5526913716
40
0.6283619429
40
0.7041774757
40
0.7796836304
40
0.8544343223
40
0.9280039603
40
1.0000000000
40
1.0000000000
40
1.0000000000
40
1.0000000000
10
1.4453274094
20
15.6894432998
30
0.0000000000
10
1.4061679951
20
15.6726338303
30
0.0000000000
10
1.3281563603
20
15.6336198528
30
0.0000000000
10
1.2157812365
20
15.5617890809
30
0.0000000000
10
1.1068191634
20
15.4762438198
30
0.0000000000
10
1.0024740054
20
15.3779459214
30
0.0000000000
10
0.9038754050
20
15.2679807934
30
0.0000000000
10
0.8121023851
20
15.1475632399
30
0.0000000000
10
0.7281601882
20
15.0180214942
30
0.0000000000
10
0.6529710709
20
14.8807845704
30
0.0000000000
10
0.5873624651
20
14.7373665702
30
0.0000000000
10
0.5320574276
20
14.5893495597
30
0.0000000000
10
0.4876662557
20
14.4383674344
30
0.0000000000
10
0.4546795291
20
14.2860813958
30
0.0000000000
10
0.4334633801
20
14.1341834169
30
0.0000000000
10
0.4272468843
20
14.0330042064
30
0.0000000000
10
0.4262359432
20
13.9829399065
30
0.0000000000
11
1.4453274094
21
15.6894432998
31
0.0000000000
11
1.3308552979
21
15.6325196877
31
0.0000000000
11
1.2184772340
21
15.5610103562
31
0.0000000000
11
1.1094433609
21
15.4757108068
31
0.0000000000
11
1.0049666197
21
15.3775699494
31
0.0000000000
11
0.9062092558
21
15.2676795464
31
0.0000000000
11
0.8142698900
21
15.1472620671
31
0.0000000000
11
0.7301712964
21
15.0176570889
31
0.0000000000
11
0.6548490249
21
14.8803063950
31
0.0000000000
11
0.5891409938
21
14.7367379351
31
0.0000000000
11
0.5337781684
21
14.5885488285
31
0.0000000000
11
0.4893764291
21
14.4373875963
31
0.0000000000
11
0.4564297207
21
14.2849358228
31
0.0000000000
11
0.4353045568
21
14.1328894492
31
0.0000000000
11
0.4262359432
21
13.9829399065
31
0.0000000000
0
SPLINE
5
39F
100
AcDbEntity
8
0
100
AcDbSpline
62
7
6
CONTINUOUS
70
0
71
3
72
10
73
6
74
4
42
0.0000001000
43
0.0000001000
44
0.0000000001
12
0.0585479629
22
4.7420663127
32
0.0000000000
13
0.0957436356
23
4.7414611603
33
0.0000000000
40
0.0000000000
40
0.0000000000
40
0.0000000000
40
0.0000000000
40
0.3330417591
40
0.6663756398
40
1.0000000000
40
1.0000000000
40
1.0000000000
40
1.0000000000
10
0.3490653526
20
9.2411509014
30
0.0000000000
10
0.3555649915
20
9.7675862703
30
0.0000000000
10
0.3699513033
20
10.8209022465
30
0.0000000000
10
0.3956767231
20
12.4015037752
30
0.0000000000
10
0.4155884734
20
13.4556509245
30
0.0000000000
10
0.4262359432
20
13.9829399065
30
0.0000000000
11
0.3490653526
21
9.2411509014
31
0.0000000000
11
0.3706335130
21
10.8204301043
31
0.0000000000
11
0.3963571432
21
12.4010326368
31
0.0000000000
11
0.4262359432
21
13.9829399065
31
0.0000000000
0
SPLINE
5
3A0
100
AcDbEntity
8
0
100
AcDbSpline
62
9
6
CONTINUOUS
70
0
71
3
72
11
73
7
74
5
42
0.0000001000
43
0.0000001000
44
0.0000000001
12
0.1669613390
22
0.0738890758
32
0.0000000000
13
0.1706756361
23
-0.0637643651
33
0.0000000000
40
0.0000000000
40
0.0000000000
40
0.0000000000
40
0.0000000000
40
0.2044110127
40
0.4550634410
40
0.7186813433
40
1.0000000000
40
1.0000000000
40
1.0000000000
40
1.0000000000
10
-12.4262261405
20
21.0100548566
30
0.0000000000
10
-12.4148498951
20
21.0150894369
30
0.0000000000
10
-12.3884393326
20
21.0238594770
30
0.0000000000
10
-12.3447173528
20
21.0287781140
30
0.0000000000
10
-12.2963238148
20
21.0241034099
30
0.0000000000
10
-12.2643395679
20
21.0148903070
30
0.0000000000
10
-12.2483348210
20
21.0089109384
30
0.0000000000
11
-12.4262261405
21
21.0100548566
31
0.0000000000
11
-12.3908660197
21
21.0218271554
31
0.0000000000
11
-12.3455072349
21
21.0271354502
31
0.0000000000
11
-12.2976726205
21
21.0228006640
31
0.0000000000
11
-12.2483348210
21
21.0089109384
31
0.0000000000
0
SPLINE
5
3A1
100
AcDbEntity
8
0
100
AcDbSpline
62
9
6
CONTINUOUS
70
0
71
3
72
12
73
8
74
6
42
0.0000001000
43
0.0000001000
44
0.0000000001
12
0.0657265039
22
0.0727347041
32
0.0000000000
13
0.0910864950
23
-0.0347597011
33
0.0000000000
40
0.0000000000
40
0.0000000000
40
0.0000000000
40
0.0000000000
40
0.1228859050
40
0.2881952443
40
0.4862251009
40
0.7232609857
40
1.0000000000
40
1.0000000000
40
1.0000000000
40
1.0000000000
10
5.0303332618
20
-24.9563161962
30
0.0000000000
10
5.0330255487
20
-24.9533368395
30
0.0000000000
10
5.0406492160
20
-24.9474875502
30
0.0000000000
10
5.0561206753
20
-24.9430150736
30
0.0000000000
10
5.0757867665
20
-24.9428976383
30
0.0000000000
10
5.0986293139
20
-24.9470980576
30
0.0000000000
10
5.1145364128
20
-24.9523117324
30
0.0000000000
10
5.1229388084
20
-24.9555181875
30
0.0000000000
11
5.0303332618
21
-24.9563161962
31
0.0000000000
11
5.0398081739
21
-24.9489300994
31
0.0000000000
11
5.0551499814
21
-24.9439931576
31
0.0000000000
11
5.0744491020
21
-24.9434548093
31
0.0000000000
11
5.0972316448
21
-24.9473281814
31
0.0000000000
11
5.1229388084
21
-24.9555181875
31
0.0000000000
0
SPLINE
5
3A2
100
AcDbEntity
8
0
100
AcDbSpline
62
7
6
CONTINUOUS
70
0
71
3
72
19
73
15
74
13
42
0.0000001000
43
0.0000001000
44
0.0000000001
12
0.6481082672
22
-0.2936951178
32
0.0000000000
13
0.0210938084
23
-0.7112356849
33
0.0000000000
40
0.0000000000
40
0.0000000000
40
0.0000000000
40
0.0000000000
40
0.0691456140
40
0.1433572359
40
0.2216458526
40
0.3033306001
40
0.3886519731
40
0.4773048183
40
0.5675908891
40
0.6578495503
40
0.7467487657
40
0.8337067302
40
0.9183218170
40
1.0000000000
40
1.0000000000
40
1.0000000000
40
1.0000000000
10
7.8079542575
20
17.7764842857
30
0.0000000000
10
7.8228922055
20
17.7697150427
30
0.0000000000
10
7.8528418448
20
17.7533606344
30
0.0000000000
10
7.8955717672
20
17.7225402463
30
0.0000000000
10
7.9367403631
20
17.6850914894
30
0.0000000000
10
7.9756944440
20
17.6417601003
30
0.0000000000
10
8.0119712913
20
17.5930709013
30
0.0000000000
10
8.0449950908
20
17.5397113902
30
0.0000000000
10
8.0740577239
20
17.4827821896
30
0.0000000000
10
8.0985374229
20
17.4236779570
30
0.0000000000
10
8.1181071382
20
17.3636040930
30
0.0000000000
10
8.1326401302
20
17.3034922233
30
0.0000000000
10
8.1420895646
20
17.2441105790
30
0.0000000000
10
8.1450347953
20
17.2047210724
30
0.0000000000
10
8.1456090966
20
17.1853569263
30
0.0000000000
11
7.8079542575
21
17.7764842857
31
0.0000000000
11
7.8512454725
21
17.7531057661
31
0.0000000000
11
7.8941722305
21
17.7223538785
31
0.0000000000
11
7.9354923969
21
17.6849932305
31
0.0000000000
11
7.9744413338
21
17.6418513359
31
0.0000000000
11
8.0107902173
21
17.5932252348
31
0.0000000000
11
8.0440440257
21
17.5396214057
31
0.0000000000
11
8.0732882780
21
17.4824206603
31
0.0000000000
11
8.0978736191
21
17.4230893273
31
0.0000000000
11
8.1174524942
21
17.3629395035
31
0.0000000000
11
8.1319562863
21
17.3027886005
31
0.0000000000
11
8.1413552135
21
17.2433190197
31
0.0000000000
11
8.1456090966
21
17.1853569263
31
0.0000000000
0
SPLINE
5
3A3
100
AcDbEntity
8
0
100
AcDbSpline
62
9
6
CONTINUOUS
70
0
71
3
72
13
73
9
74
7
42
0.0000001000
43
0.0000001000
44
0.0000000001
12
-0.0041552525
22
-0.1939730389
32
0.0000000000
13
0.1796194715
23
-0.0695974752
33
0.0000000000
40
0.0000000000
40
0.0000000000
40
0.0000000000
40
0.0000000000
40
0.0496424120
40
0.1840986232
40
0.3403974560
40
0.5269482350
40
0.7468851349
40
1.0000000000
40
1.0000000000
40
1.0000000000
40
1.0000000000
10
-13.3916991539
20
19.4206512921
30
0.0000000000
10
-13.3917679128
20
19.4174415289
30
0.0000000000
10
-13.3911062941
20
19.4055276741
30
0.0000000000
10
-13.3833952776
20
19.3845221956
30
0.0000000000
10
-13.3641210005
20
19.3602505780
30
0.0000000000
10
-13.3358870842
20
19.3373834301
30
0.0000000000
10
-13.2991573015
20
19.3160584277
30
0.0000000000
10
-13.2712648624
20
19.3038838189
30
0.0000000000
10
-13.2561100763
20
19.2980117670
30
0.0000000000
11
-13.3916991539
21
19.4206512921
31
0.0000000000
11
-13.3911559719
21
19.4110565954
31
0.0000000000
11
-13.3827877661
21
19.3865451623
31
0.0000000000
11
-13.3646452789
21
19.3625170907
31
0.0000000000
11
-13.3370896975
21
19.3394507402
31
0.0000000000
11
-13.3006696085
21
19.3178053240
31
0.0000000000
11
-13.2561100763
21
19.2980117670
31
0.0000000000
0
SPLINE
5
3A4
100
AcDbEntity
8
0
100
AcDbSpline
62
7
6
CONTINUOUS
70
0
71
3
72
16
73
12
74
10
42
0.0000001000
43
0.0000001000
44
0.0000000001
12
-0.0022671312
22
-0.4051138003
32
0.0000000000
13
-0.3817303779
23
-0.1378006191
33
0.0000000000
40
0.0000000000
40
0.0000000000
40
0.0000000000
40
0.0000000000
40
0.1398662432
40
0.2744666840
40
0.4031859658
40
0.5260610082
40
0.6432905890
40
0.7547384556
40
0.8606841537
40
0.9620392283
40
1.0000000000
40
1.0000000000
40
1.0000000000
40
1.0000000000
10
8.6297591907
20
-23.4227060342
30
0.0000000000
10
8.6296534923
20
-23.4415932827
30
0.0000000000
10
8.6278330851
20
-23.4786743387
30
0.0000000000
10
8.6199144563
20
-23.5326323183
30
0.0000000000
10
8.6068579792
20
-23.5832384995
30
0.0000000000
10
8.5886685259
20
-23.6297503688
30
0.0000000000
10
8.5653995587
20
-23.6713270686
30
0.0000000000
10
8.5372775184
20
-23.7069699688
30
0.0000000000
10
8.5048414551
20
-23.7356525052
30
0.0000000000
10
8.4760377154
20
-23.7524521479
30
0.0000000000
10
8.4585598113
20
-23.7595401706
30
0.0000000000
10
8.4537295514
20
-23.7612838432
30
0.0000000000
11
8.6297591907
21
-23.4227060342
31
0.0000000000
11
8.6268710440
21
-23.4792950132
31
0.0000000000
11
8.6188241525
21
-23.5332273555
31
0.0000000000
11
8.6056390289
21
-23.5836796949
31
0.0000000000
11
8.5873291773
21
-23.6299691494
31
0.0000000000
11
8.5639440388
21
-23.6713047454
31
0.0000000000
11
8.5358027084
21
-23.7066115121
31
0.0000000000
11
8.5035252872
21
-23.7349021060
31
0.0000000000
11
8.4680016707
21
-23.7554952348
31
0.0000000000
11
8.4537295514
21
-23.7612838432
31
0.0000000000
0
SPLINE
5
3A5
100
AcDbEntity
8
0
100
AcDbSpline
62
9
6
CONTINUOUS
70
0
71
3
72
13
73
9
74
7
42
0.0000001000
43
0.0000001000
44
0.0000000001
12
0.0083853475
22
-0.1974633549
32
0.0000000000
13
0.1833212140
23
-0.0713862081
33
0.0000000000
40
0.0000000000
40
0.0000000000
40
0.0000000000
40
0.0000000000
40
0.0316730066
40
0.1792072284
40
0.3432263255
40
0.5324869295
40
0.7511457968
40
1.0000000000
40
1.0000000000
40
1.0000000000
40
1.0000000000
10
-12.9371974684
20
-18.7013058631
30
0.0000000000
10
-12.9371089387
20
-18.7033906158
30
0.0000000000
10
-12.9361495508
20
-18.7151618149
30
0.0000000000
10
-12.9292193028
20
-18.7370447288
30
0.0000000000
10
-12.9099848482
20
-18.7641512805
30
0.0000000000
10
-12.8816453198
20
-18.7890870190
30
0.0000000000
10
-12.8448007246
20
-18.8116828950
30
0.0000000000
10
-12.8167337899
20
-18.8242112439
30
0.0000000000
10
-12.8015270384
20
-18.8301328299
30
0.0000000000
11
-12.9371974684
21
-18.7013058631
31
0.0000000000
11
-12.9366867540
21
-18.7075406944
31
0.0000000000
11
-12.9282795914
21
-18.7353208148
31
0.0000000000
11
-12.9101057006
21
-18.7619835009
31
0.0000000000
11
-12.8825268944
21
-18.7869979420
31
0.0000000000
11
-12.8460922219
21
-18.8098661412
31
0.0000000000
11
-12.8015270384
21
-18.8301328299
31
0.0000000000
0
SPLINE
5
3A6
100
AcDbEntity
8
0
100
AcDbSpline
62
9
6
CONTINUOUS
70
0
71
3
72
15
73
11
74
9
42
0.0000001000
43
0.0000001000
44
0.0000000001
12
-0.0125490522
22
-0.4253762390
32
0.0000000000
13
-0.4101448715
23
-0.1167293406
33
0.0000000000
40
0.0000000000
40
0.0000000000
40
0.0000000000
40
0.0000000000
40
0.1542778116
40
0.3012262111
40
0.4399258306
40
0.5700164483
40
0.6918320327
40
0.8065171195
40
0.9160658675
40
1.0000000000
40
1.0000000000
40
1.0000000000
40
1.0000000000
10
2.9653676708
20
-25.0331216649
30
0.0000000000
10
2.9647223240
20
-25.0549970367
30
0.0000000000
10
2.9613092691
20
-25.0976865008
30
0.0000000000
10
2.9493934878
20
-25.1590846732
30
0.0000000000
10
2.9310027822
20
-25.2152997065
30
0.0000000000
10
2.9064582019
20
-25.2652080282
30
0.0000000000
10
2.8761773336
20
-25.3077996348
30
0.0000000000
10
2.8406792820
20
-25.3421540323
30
0.0000000000
10
2.8034285956
20
-25.3656695904
30
0.0000000000
10
2.7776333489
20
-25.3755197777
30
0.0000000000
10
2.7661582975
20
-25.3787856363
30
0.0000000000
11
2.9653676708
21
-25.0331216649
31
0.0000000000
11
2.9599813007
21
-25.0985550071
31
0.0000000000
11
2.9478735667
21
-25.1599072533
31
0.0000000000
11
2.9292906611
21
-25.2159308981
31
0.0000000000
11
2.9046104393
21
-25.2654867855
31
0.0000000000
11
2.8743347363
21
-25.3075672715
31
0.0000000000
11
2.8390791627
21
-25.3413167128
31
0.0000000000
11
2.7995605874
21
-25.3660488657
31
0.0000000000
11
2.7661582975
21
-25.3787856363
31
0.0000000000
0
SPLINE
5
3A7
100
AcDbEntity
8
0
100
AcDbSpline
62
9
6
CONTINUOUS
70
0
71
3
72
21
73
17
74
15
42
0.0000001000
43
0.0000001000
44
0.0000000001
12
0.0508209367
22
-1.1208373217
32
0.0000000000
13
1.0792272154
23
0.3068023580
33
0.0000000000
40
0.0000000000
40
0.0000000000
40
0.0000000000
40
0.0000000000
40
0.0847902442
40
0.1667387426
40
0.2456572915
40
0.3215039039
40
0.3943849480
40
0.4645584179
40
0.5324374821
40
0.5985871224
40
0.6636965736
40
0.7285331918
40
0.7938879619
40
0.8605121013
40
0.9290542925
40
1.0000000000
40
1.0000000000
40
1.0000000000
40
1.0000000000
10
2.2534893879
20
-24.3909331148
30
0.0000000000
10
2.2549257612
20
-24.4226118049
30
0.0000000000
10
2.2604015460
20
-24.4848279475
30
0.0000000000
10
2.2768722551
20
-24.5753507252
30
0.0000000000
10
2.3013048598
20
-24.6606068408
30
0.0000000000
10
2.3334501146
20
-24.7396344710
30
0.0000000000
10
2.3729800929
20
-24.8115548300
30
0.0000000000
10
2.4194891387
20
-24.8755530144
30
0.0000000000
10
2.4724894596
20
-24.9308847347
30
0.0000000000
10
2.5314055829
20
-24.9768852662
30
0.0000000000
10
2.5955700239
20
-25.0129869194
30
0.0000000000
10
2.6642282612
20
-25.0387424894
30
0.0000000000
10
2.7365564704
20
-25.0538477615
30
0.0000000000
10
2.8116943425
20
-25.0581468675
30
0.0000000000
10
2.8887373210
20
-25.0516364983
30
0.0000000000
10
2.9398454914
20
-25.0403771017
30
0.0000000000
10
2.9653676708
20
-25.0331216649
30
0.0000000000
11
2.2534893879
21
-24.3909331148
31
0.0000000000
11
2.2619697964
21
-24.4856880927
31
0.0000000000
11
2.2785852900
21
-24.5761196383
31
0.0000000000
11
2.3031507938
21
-24.6611895108
31
0.0000000000
11
2.3353919418
21
-24.7399445601
31
0.0000000000
11
2.3749508192
21
-24.8115106813
31
0.0000000000
11
2.4213881879
21
-24.8750920503
31
0.0000000000
11
2.4741864801
21
-24.9299793741
31
0.0000000000
11
2.5327585844
21
-24.9755621836
31
0.0000000000
11
2.5964533873
21
-25.0113333817
31
0.0000000000
11
2.6645608352
21
-25.0368941131
31
0.0000000000
11
2.7363236695
21
-25.0519603786
31
0.0000000000
11
2.8109453686
21
-25.0563643978
31
0.0000000000
11
2.8875899010
21
-25.0500575907
31
0.0000000000
11
2.9653676708
21
-25.0331216649
31
0.0000000000
0
SPLINE
5
3A8
100
AcDbEntity
8
0
100
AcDbSpline
62
9
6
CONTINUOUS
70
0
71
3
72
17
73
13
74
11
42
0.0000001000
43
0.0000001000
44
0.0000000001
12
0.0523538789
22
-1.1593561835
32
0.0000000000
13
1.0827928302
23
-0.4208229228
33
0.0000000000
40
0.0000000000
40
0.0000000000
40
0.0000000000
40
0.0000000000
40
0.1229830383
40
0.2417521644
40
0.3560820491
40
0.4659036045
40
0.5713642840
40
0.6728339129
40
0.7709113009
40
0.8664197360
40
0.9603676622
40
1.0000000000
40
1.0000000000
40
1.0000000000
40
1.0000000000
10
1.5537153159
20
-24.4065992175
30
0.0000000000
10
1.5558615289
20
-24.4541262661
30
0.0000000000
10
1.5640381640
20
-24.5474336471
30
0.0000000000
10
1.5886229187
20
-24.6831733551
30
0.0000000000
10
1.6250796771
20
-24.8109672953
30
0.0000000000
10
1.6730394289
20
-24.9293966268
30
0.0000000000
10
1.7320139493
20
-25.0371454193
30
0.0000000000
10
1.8013991920
20
-25.1329939964
30
0.0000000000
10
1.8804694979
20
-25.2158281547
30
0.0000000000
10
1.9683685003
20
-25.2846520348
30
0.0000000000
10
2.0458726258
20
-25.3283389074
30
0.0000000000
10
2.0934758257
20
-25.3486454963
30
0.0000000000
10
2.1077803628
20
-25.3542048950
30
0.0000000000
11
1.5537153159
21
-24.4065992175
31
0.0000000000
11
1.5663841702
21
-24.5487622906
31
0.0000000000
11
1.5911848371
21
-24.6843488027
31
0.0000000000
11
1.6278443837
21
-24.8118680490
31
0.0000000000
11
1.6759530624
21
-24.9298916936
31
0.0000000000
11
1.7349768766
21
-25.0371100159
31
0.0000000000
11
1.8042604540
21
-25.1323310482
31
0.0000000000
11
1.8830319860
21
-25.2144931322
31
0.0000000000
11
1.9704158872
21
-25.2826826582
31
0.0000000000
11
2.0654409801
21
-25.3361410166
31
0.0000000000
11
2.1077803628
21
-25.3542048950
31
0.0000000000
0
SPLINE
5
3A9
100
AcDbEntity
8
0
100
AcDbSpline
62
9
6
CONTINUOUS
70
0
71
3
72
18
73
14
74
12
42
0.0000001000
43
0.0000001000
44
0.0000000001
12
-0.6616176321
22
-0.2659108444
32
0.0000000000
13
-0.6648771843
23
0.2576524752
33
0.0000000000
40
0.0000000000
40
0.0000000000
40
0.0000000000
40
0.0000000000
40
0.0823773795
40
0.1709528713
40
0.2644051807
40
0.3612496009
40
0.4598953931
40
0.5586976328
40
0.6560067525
40
0.7502179037
40
0.8398221700
40
0.9234625587
40
1.0000000000
40
1.0000000000
40
1.0000000000
40
1.0000000000
10
2.2534893879
20
-24.3909331148
30
0.0000000000
10
2.2353219457
20
-24.3982347943
30
0.0000000000
10
2.1969145537
20
-24.4116619518
30
0.0000000000
10
2.1361678410
20
-24.4279453459
30
0.0000000000
10
2.0711108089
20
-24.4408697610
30
0.0000000000
10
2.0030276093
20
-24.4501740826
30
0.0000000000
10
1.9332578476
20
-24.4556722985
30
0.0000000000
10
1.8631795315
20
-24.4572545265
30
0.0000000000
10
1.7941760091
20
-24.4548903162
30
0.0000000000
10
1.7276088803
20
-24.4486293268
30
0.0000000000
10
1.6647835702
20
-24.4385987488
30
0.0000000000
10
1.6069364185
20
-24.4250038589
30
0.0000000000
10
1.5706781020
20
-24.4131725214
30
0.0000000000
10
1.5537154358
20
-24.4065991677
30
0.0000000000
11
2.2534893879
21
-24.3909331148
31
0.0000000000
11
2.1981053296
21
-24.4105019784
31
0.0000000000
11
2.1371358082
21
-24.4269881572
31
0.0000000000
11
2.0717946273
21
-24.4400634383
31
0.0000000000
11
2.0033826233
21
-24.4494675143
31
0.0000000000
11
1.9332617673
21
-24.4550131652
31
0.0000000000
11
1.8628280513
21
-24.4565899863
31
0.0000000000
11
1.7934836956
21
-24.4541665856
31
0.0000000000
11
1.7266092330
21
-24.4477912091
31
0.0000000000
11
1.6635360250
21
-24.4375907800
31
0.0000000000
11
1.6055197562
21
-24.4237683724
31
0.0000000000
11
1.5537154358
21
-24.4065991677
31
0.0000000000
0
SPLINE
5
3AA
100
AcDbEntity
8
0
100
AcDbSpline
62
9
6
CONTINUOUS
70
0
71
3
72
14
73
10
74
8
42
0.0000001000
43
0.0000001000
44
0.0000000001
12
-0.7893097303
22
-38.0913202044
32
0.0000000000
13
1.7251629634
23
-38.0604190402
33
0.0000000000
40
0.0000000000
40
0.0000000000
40
0.0000000000
40
0.0000000000
40
0.1441996433
40
0.2879638373
40
0.4312851518
40
0.5741563694
40
0.7165704558
40
0.8585205608
40
1.0000000000
40
1.0000000000
40
1.0000000000
40
1.0000000000
10
1.7993607329
20
13.6990832756
30
0.0000000000
10
1.7614213390
20
11.8681650135
30
0.0000000000
10
1.7024998778
20
8.2114855172
30
0.0000000000
10
1.6650917393
20
2.7342888160
30
0.0000000000
10
1.6787944646
20
-2.7261533122
30
0.0000000000
10
1.7436063373
20
-8.1690797260
30
0.0000000000
10
1.8595185113
20
-13.5937421542
30
0.0000000000
10
2.0265147265
20
-18.9993840698
30
0.0000000000
10
2.1721310251
20
-22.5960108672
30
0.0000000000
10
2.2534893879
20
-24.3909331148
30
0.0000000000
11
1.7993607329
21
13.6990832756
31
0.0000000000
11
1.7109225888
21
8.2058612325
31
0.0000000000
11
1.6735921582
21
2.7286449444
31
0.0000000000
11
1.6873746205
21
-2.7318076817
31
0.0000000000
11
1.7522680699
21
-8.1747423967
31
0.0000000000
11
1.8682635435
21
-13.5994074596
31
0.0000000000
11
2.0353450214
21
-19.0050535621
31
0.0000000000
11
2.2534893879
21
-24.3909331148
31
0.0000000000
0
SPLINE
5
3AB
100
AcDbEntity
8
0
100
AcDbSpline
62
9
6
CONTINUOUS
70
0
71
3
72
14
73
10
74
8
42
0.0000001000
43
0.0000001000
44
0.0000000001
12
-0.7900798348
22
-38.1294498515
32
0.0000000000
13
1.7268699610
23
-38.0985182424
33
0.0000000000
40
0.0000000000
40
0.0000000000
40
0.0000000000
40
0.0000000000
40
0.1441996961
40
0.2879638984
40
0.4312852133
40
0.5741564227
40
0.7165704923
40
0.8585205711
40
1.0000000000
40
1.0000000000
40
1.0000000000
40
1.0000000000
10
1.0991320776
20
13.7215453175
30
0.0000000000
10
1.0611556535
20
11.8887936235
30
0.0000000000
10
1.0021768728
20
8.2284530058
30
0.0000000000
10
0.9647329418
20
2.7457728661
30
0.0000000000
10
0.9784502145
20
-2.7201351413
30
0.0000000000
10
1.0433269614
20
-8.1685095820
30
0.0000000000
10
1.1593543279
20
-13.5986014364
30
0.0000000000
10
1.3265160551
20
-19.0096537440
30
0.0000000000
10
1.4722764573
20
-22.6098803495
30
0.0000000000
10
1.5537153159
20
-24.4065992175
30
0.0000000000
11
1.0991320776
21
13.7215453175
31
0.0000000000
11
1.0106078709
21
8.2228225305
31
0.0000000000
11
0.9732417336
21
2.7401232453
31
0.0000000000
11
0.9870388220
21
-2.7257952782
31
0.0000000000
11
1.0519972276
21
-8.1741780361
31
0.0000000000
11
1.1681079789
21
-13.6042725353
31
0.0000000000
11
1.3353550400
21
-19.0153287185
31
0.0000000000
11
1.5537153159
21
-24.4065992175
31
0.0000000000
0
SPLINE
5
3AC
100
AcDbEntity
8
0
100
AcDbSpline
62
9
6
CONTINUOUS
70
0
71
3
72
18
73
14
74
12
42
0.0000001000
43
0.0000001000
44
0.0000000001
12
-0.6809047081
22
-0.2031872797
32
0.0000000000
13
-0.6621327709
23
0.2578691254
33
0.0000000000
40
0.0000000000
40
0.0000000000
40
0.0000000000
40
0.0000000000
40
0.0805515320
40
0.1678837528
40
0.2606144497
40
0.3571945809
40
0.4559639700
40
0.5552015954
40
0.6531736195
40
0.7481810012
40
0.8386082882
40
0.9229758728
40
1.0000000000
40
1.0000000000
40
1.0000000000
40
1.0000000000
10
1.7993607329
20
13.6990832756
30
0.0000000000
10
1.7810780937
20
13.6936275934
30
0.0000000000
10
1.7424802982
20
13.6838814631
30
0.0000000000
10
1.6817096587
20
13.6728416105
30
0.0000000000
10
1.6166263890
20
13.6649463329
30
0.0000000000
10
1.5485165712
20
13.6603586731
30
0.0000000000
10
1.4787227456
20
13.6591730655
30
0.0000000000
10
1.4086255433
20
13.6614147465
30
0.0000000000
10
1.3396111178
20
13.6670388819
30
0.0000000000
10
1.2730438731
20
13.6759313931
30
0.0000000000
10
1.2102333700
20
13.6879121365
30
0.0000000000
10
1.1524181886
20
13.7027362925
30
0.0000000000
10
1.1161321440
20
13.7149246027
30
0.0000000000
10
1.0991320777
20
13.7215453175
30
0.0000000000
11
1.7993607329
21
13.6990832756
31
0.0000000000
11
1.7439126837
21
13.6848815820
31
0.0000000000
11
1.6828804413
21
13.6736557218
31
0.0000000000
11
1.6174790585
21
13.6656291836
31
0.0000000000
11
1.5490105705
21
13.6609617628
31
0.0000000000
11
1.4788380736
21
13.6597463801
31
0.0000000000
11
1.4083585882
21
13.6620072318
31
0.0000000000
11
1.3389752463
21
13.6676993081
31
0.0000000000
11
1.2720693574
21
13.6767092889
31
0.0000000000
11
1.2089729092
21
13.6888578001
31
0.0000000000
11
1.1509420492
21
13.7039029847
31
0.0000000000
11
1.0991320777
21
13.7215453175
31
0.0000000000
0
SPLINE
5
3AD
100
AcDbEntity
8
0
100
AcDbSpline
62
9
6
CONTINUOUS
70
0
71
3
72
21
73
17
74
15
42
0.0000001000
43
0.0000001000
44
0.0000000001
12
-1.2878061915
22
-0.5358245204
32
0.0000000000
13
-0.0289189843
23
-1.3945308874
33
0.0000000000
40
0.0000000000
40
0.0000000000
40
0.0000000000
40
0.0000000000
40
0.0617377242
40
0.1259713793
40
0.1926206308
40
0.2615246448
40
0.3324482628
40
0.4050889833
40
0.4790888893
40
0.5540526487
40
0.6295581303
40
0.7051662405
40
0.7804374785
40
0.8549426840
40
0.9282665719
40
1.0000000000
40
1.0000000000
40
1.0000000000
40
1.0000000000
10
2.4900710541
20
14.8323563642
30
0.0000000000
10
2.4635689796
20
14.8213295021
30
0.0000000000
10
2.4107576810
20
14.7956854385
30
0.0000000000
10
2.3346044956
20
14.7482863752
30
0.0000000000
10
2.2607504614
20
14.6917206332
30
0.0000000000
10
2.1900222532
20
14.6266291728
30
0.0000000000
10
2.1231871249
20
14.5537326532
30
0.0000000000
10
2.0609769141
20
14.4738367047
30
0.0000000000
10
2.0040734986
20
14.3878234993
30
0.0000000000
10
1.9531023028
20
14.2966427397
30
0.0000000000
10
1.9086242686
20
14.2013010341
30
0.0000000000
10
1.8711294580
20
14.1028504256
30
0.0000000000
10
1.8410310325
20
14.0023773158
30
0.0000000000
10
1.8186623549
20
13.9009881631
30
0.0000000000
10
1.8042725689
20
13.7998266162
30
0.0000000000
10
1.8000522188
20
13.7324281027
30
0.0000000000
10
1.7993607329
20
13.6990832756
30
0.0000000000
11
2.4900710541
21
14.8323563642
31
0.0000000000
11
2.4125265783
21
14.7949074784
31
0.0000000000
11
2.3363693378
21
14.7477126471
31
0.0000000000
11
2.2624725716
21
14.6913065140
31
0.0000000000
11
2.1916642009
21
14.6263203765
31
0.0000000000
11
2.1247302397
21
14.5534761220
31
0.0000000000
11
2.0624148517
21
14.4735834420
31
0.0000000000
11
2.0054129642
21
14.3875334313
31
0.0000000000
11
1.9543582808
21
14.2962833374
31
0.0000000000
11
1.9098182970
21
14.2008478247
31
0.0000000000
11
1.8722891893
21
14.1022908055
31
0.0000000000
11
1.8421876418
21
14.0017078541
31
0.0000000000
11
1.8198478246
21
13.9002152656
31
0.0000000000
11
1.8055190931
21
13.7989495632
31
0.0000000000
11
1.7993607329
21
13.6990832756
31
0.0000000000
0
SPLINE
5
3AE
100
AcDbEntity
8
0
100
AcDbSpline
62
9
6
CONTINUOUS
70
0
71
3
72
21
73
17
74
15
42
0.0000001000
43
0.0000001000
44
0.0000000001
12
-1.9269601766
22
-0.8101277829
32
0.0000000000
13
-0.0429525267
23
-2.0898893816
33
0.0000000000
40
0.0000000000
40
0.0000000000
40
0.0000000000
40
0.0000000000
40
0.0615996431
40
0.1256985240
40
0.1922447517
40
0.2610770231
40
0.3319587998
40
0.4045853863
40
0.4785963351
40
0.5535930821
40
0.6291496541
40
0.7048227050
40
0.7801681230
40
0.8547518434
40
0.9281533439
40
1.0000000000
40
1.0000000000
40
1.0000000000
40
1.0000000000
10
2.1295395542
20
15.4236528705
30
0.0000000000
10
2.0899728678
20
15.4070183431
30
0.0000000000
10
2.0111487180
20
15.3683634945
30
0.0000000000
10
1.8975309152
20
15.2970131817
30
0.0000000000
10
1.7873618893
20
15.2119330087
30
0.0000000000
10
1.6818574616
20
15.1140776649
30
0.0000000000
10
1.5821617655
20
15.0045298765
30
0.0000000000
10
1.4893658460
20
14.8844999794
30
0.0000000000
10
1.4044863932
20
14.7553126624
30
0.0000000000
10
1.3284559986
20
14.6183937293
30
0.0000000000
10
1.2621113025
20
14.4752543038
30
0.0000000000
10
1.2061831831
20
14.3274736034
30
0.0000000000
10
1.1612881429
20
14.1766820873
30
0.0000000000
10
1.1279227650
20
14.0245403232
30
0.0000000000
10
1.1064560286
20
13.8727350117
30
0.0000000000
10
1.1001607427
20
13.7715958387
30
0.0000000000
10
1.0991320776
20
13.7215453175
30
0.0000000000
11
2.1295395542
21
15.4236528705
31
0.0000000000
11
2.0138052124
21
15.3672114519
31
0.0000000000
11
1.9001949471
21
15.2961800907
31
0.0000000000
11
1.7899583171
21
15.2113408086
31
0.0000000000
11
1.6843301752
21
15.1136433854
31
0.0000000000
11
1.5844828373
21
15.0041729414
31
0.0000000000
11
1.4915261532
21
14.8841461961
31
0.0000000000
11
1.4064961806
21
14.7549011920
31
0.0000000000
11
1.3303379603
21
14.6178751625
31
0.0000000000
11
1.2638979820
21
14.4745914860
31
0.0000000000
11
1.2079163580
21
14.3266472090
31
0.0000000000
11
1.1630146954
21
14.1756866313
31
0.0000000000
11
1.1296913502
21
14.0233849170
31
0.0000000000
11
1.1083187186
21
13.8714473558
31
0.0000000000
11
1.0991320776
21
13.7215453175
31
0.0000000000
0
SPLINE
5
3AF
100
AcDbEntity
8
0
100
AcDbSpline
62
9
6
CONTINUOUS
70
0
71
3
72
18
73
14
74
12
42
0.0000001000
43
0.0000001000
44
0.0000000001
12
-0.0394698189
22
0.7231783596
32
0.0000000000
13
-0.6715501647
23
0.2712290226
33
0.0000000000
40
0.0000000000
40
0.0000000000
40
0.0000000000
40
0.0000000000
40
0.0919818284
40
0.1872796680
40
0.2847518201
40
0.3831599809
40
0.4812256668
40
0.5776850016
40
0.6713440922
40
0.7611373270
40
0.8461913767
40
0.9258982011
40
1.0000000000
40
1.0000000000
40
1.0000000000
40
1.0000000000
10
2.4900710541
20
14.8323563642
30
0.0000000000
10
2.4888608854
20
14.8545294535
30
0.0000000000
10
2.4840395489
20
14.8995711191
30
0.0000000000
10
2.4703410355
20
14.9670268503
30
0.0000000000
10
2.4502958688
20
15.0344979063
30
0.0000000000
10
2.4243068602
20
15.1006234295
30
0.0000000000
10
2.3928948519
20
15.1640806751
30
0.0000000000
10
2.3566891265
20
15.2235971066
30
0.0000000000
10
2.3164120913
20
15.2779820833
30
0.0000000000
10
2.2728649946
20
15.3261490989
30
0.0000000000
10
2.2268973810
20
15.3671405582
30
0.0000000000
10
2.1794193490
20
15.4001292351
30
0.0000000000
10
2.1461272459
20
15.4169533510
30
0.0000000000
10
2.1295395542
20
15.4236528705
30
0.0000000000
11
2.4900710541
21
14.8323563642
31
0.0000000000
11
2.4831146412
21
14.8986104349
31
0.0000000000
11
2.4694687908
21
14.9662679394
31
0.0000000000
11
2.4494109696
21
15.0339531655
31
0.0000000000
11
2.4233490222
21
15.1002898366
31
0.0000000000
11
2.3918128780
21
15.1639290966
31
0.0000000000
11
2.3554437762
21
15.2235769368
31
0.0000000000
11
2.3149812271
21
15.2780205077
31
0.0000000000
11
2.2712479754
21
15.3261527805
31
0.0000000000
11
2.2251332710
21
15.3669950570
31
0.0000000000
11
2.1775747871
21
15.3997168701
31
0.0000000000
11
2.1295395542
21
15.4236528705
31
0.0000000000
0
SPLINE
5
3B0
100
AcDbEntity
8
0
100
AcDbSpline
62
7
6
CONTINUOUS
70
0
71
3
72
10
73
6
74
4
42
0.0000001000
43
0.0000001000
44
0.0000000001
12
0.9161578593
22
0.3900527828
32
0.0000000000
13
0.9163009346
23
0.3897165557
33
0.0000000000
40
0.0000000000
40
0.0000000000
40
0.0000000000
40
0.0000000000
40
0.3330099583
40
0.6663122566
40
1.0000000000
40
1.0000000000
40
1.0000000000
40
1.0000000000
10
6.8918330288
20
17.3866542258
30
0.0000000000
10
6.9935295923
20
17.4299513794
30
0.0000000000
10
7.1970173017
20
17.5165712344
30
0.0000000000
10
7.5024271235
20
17.6465327532
30
0.0000000000
10
7.7061430294
20
17.7331908874
30
0.0000000000
10
7.8080624932
20
17.7765387667
30
0.0000000000
11
6.8918330288
21
17.3866542258
31
0.0000000000
11
7.1969306700
21
17.5165270104
31
0.0000000000
11
7.5023120507
21
17.6464764412
31
0.0000000000
11
7.8080624932
21
17.7765387667
31
0.0000000000
0
SPLINE
5
3B1
100
AcDbEntity
8
0
100
AcDbSpline
62
9
6
CONTINUOUS
70
0
71
3
72
8
73
4
74
2
42
0.0000001000
43
0.0000001000
44
0.0000000001
12
-0.0117604434
22
0.0045680270
32
0.0000000000
13
-0.0116732617
23
0.0047862224
33
0.0000000000
40
0.0000000000
40
0.0000000000
40
0.0000000000
40
0.0000000000
40
1.0000000000
40
1.0000000000
40
1.0000000000
40
1.0000000000
10
-12.2590296734
20
-19.7732446787
30
0.0000000000
10
-12.2629498212
20
-19.7717220030
30
0.0000000000
10
-12.2668557864
20
-19.7701628337
30
0.0000000000
10
-12.2707468736
20
-19.7685674262
30
0.0000000000
11
-12.2590296734
21
-19.7732446787
31
0.0000000000
11
-12.2707468736
21
-19.7685674262
31
0.0000000000
0
SPLINE
5
3B2
100
AcDbEntity
8
0
100
AcDbSpline
62
9
6
CONTINUOUS
70
0
71
3
72
17
73
13
74
11
42
0.0000001000
43
0.0000001000
44
0.0000000001
12
-1.0534935076
22
0.4319490407
32
0.0000000000
13
-0.0505134060
23
1.1363076086
33
0.0000000000
40
0.0000000000
40
0.0000000000
40
0.0000000000
40
0.0000000000
40
0.0286171915
40
0.1225758327
40
0.2183416698
40
0.3169812263
40
0.4193503601
40
0.5260567091
40
0.6374595435
40
0.7536812293
40
0.8746171538
40
1.0000000000
40
1.0000000000
40
1.0000000000
40
1.0000000000
10
-12.2707468736
20
-19.7685674262
30
0.0000000000
10
-12.2807962154
20
-19.7644470368
30
0.0000000000
10
-12.3234154324
20
-19.7457628721
30
0.0000000000
10
-12.3956975274
20
-19.7047257012
30
0.0000000000
10
-12.4817281199
20
-19.6365941369
30
0.0000000000
10
-12.5591051907
20
-19.5543886469
30
0.0000000000
10
-12.6269984745
20
-19.4591014814
30
0.0000000000
10
-12.6847051737
20
-19.3518395730
30
0.0000000000
10
-12.7316390465
20
-19.2338139596
30
0.0000000000
10
-12.7673245549
20
-19.1063328102
30
0.0000000000
10
-12.7914011082
20
-18.9708082377
30
0.0000000000
10
-12.7994158669
20
-18.8776239907
30
0.0000000000
10
-12.8015270385
20
-18.8301328300
30
0.0000000000
11
-12.2707468736
21
-19.7685674262
31
0.0000000000
11
-12.3005852073
21
-19.7554855196
31
0.0000000000
11
-12.3935771910
21
-19.7028169469
31
0.0000000000
11
-12.4790963558
21
-19.6353518002
31
0.0000000000
11
-12.5561922500
21
-19.5538406378
31
0.0000000000
11
-12.6240079150
21
-19.4591898337
31
0.0000000000
11
-12.6817878916
21
-19.3524546951
31
0.0000000000
11
-12.7288906253
21
-19.2348218219
31
0.0000000000
11
-12.7647932717
21
-19.1075966025
31
0.0000000000
11
-12.7890945608
21
-18.9722040798
31
0.0000000000
11
-12.8015270385
21
-18.8301328300
31
0.0000000000
0
SPLINE
5
3B3
100
AcDbEntity
8
0
100
AcDbSpline
62
9
6
CONTINUOUS
70
0
71
3
72
14
73
10
74
8
42
0.0000001000
43
0.0000001000
44
0.0000000001
12
-1.6867739152
22
38.0998877575
32
0.0000000000
13
0.7498205083
23
38.1298363828
33
0.0000000000
40
0.0000000000
40
0.0000000000
40
0.0000000000
40
0.0000000000
40
0.1414254703
40
0.2833409090
40
0.4257388568
40
0.5686116633
40
0.7119514956
40
0.8557503379
40
1.0000000000
40
1.0000000000
40
1.0000000000
40
1.0000000000
10
-12.8015270385
20
-18.8301328300
30
0.0000000000
10
-12.8810446366
20
-17.0340346481
30
0.0000000000
10
-13.0235106135
20
-13.4348477256
30
0.0000000000
10
-13.1873728681
20
-8.0250917659
30
0.0000000000
10
-13.3017500827
20
-2.5956559434
30
0.0000000000
10
-13.3666262425
20
2.8527033102
30
0.0000000000
10
-13.3819924817
20
8.3192367671
30
0.0000000000
10
-13.3478468222
20
13.8031833315
30
0.0000000000
10
-13.2921640618
20
17.4646063666
30
0.0000000000
10
-13.2561102768
20
19.2980117049
30
0.0000000000
11
-12.8015270385
21
-18.8301328300
31
0.0000000000
11
-13.0149403310
21
-13.4407840462
31
0.0000000000
11
-13.1788890237
21
-8.0310091538
31
0.0000000000
11
-13.2933504768
21
-2.6015553442
31
0.0000000000
11
-13.3583088824
21
2.8468274136
31
0.0000000000
11
-13.3737552689
21
8.3133866268
31
0.0000000000
11
-13.3396875001
21
13.7973672029
31
0.0000000000
11
-13.2561102768
21
19.2980117049
31
0.0000000000
0
SPLINE
5
3B4
100
AcDbEntity
8
0
100
AcDbSpline
62
7
6
CONTINUOUS
70
0
71
3
72
13
73
9
74
7
42
0.0000001000
43
0.0000001000
44
0.0000000001
12
0.0023650373
22
-0.1875965471
32
0.0000000000
13
-0.1754896482
23
-0.0623261434
33
0.0000000000
40
0.0000000000
40
0.0000000000
40
0.0000000000
40
0.0000000000
40
0.0580761624
40
0.1921149990
40
0.3481758881
40
0.5334692596
40
0.7510819083
40
1.0000000000
40
1.0000000000
40
1.0000000000
40
1.0000000000
10
9.1520973289
20
21.5048973024
30
0.0000000000
10
9.1521431130
20
21.5012656733
30
0.0000000000
10
9.1512132962
20
21.4892434138
30
0.0000000000
10
9.1429240718
20
21.4687462546
30
0.0000000000
10
9.1237356087
20
21.4458994523
30
0.0000000000
10
9.0960711015
20
21.4246468369
30
0.0000000000
10
9.0604637239
20
21.4051882492
30
0.0000000000
10
9.0335616027
20
21.3943091619
30
0.0000000000
10
9.0190007533
20
21.3891377937
30
0.0000000000
11
9.1520973289
21
21.5048973024
31
0.0000000000
11
9.1512479442
21
21.4940621452
31
0.0000000000
11
9.1424230334
21
21.4707122637
31
0.0000000000
11
9.1242642034
21
21.4480204877
31
0.0000000000
11
9.0972330690
21
21.4265717540
31
0.0000000000
11
9.0618655922
21
21.4067859680
31
0.0000000000
11
9.0190007533
21
21.3891377937
31
0.0000000000
0
SPLINE
5
3B5
100
AcDbEntity
8
0
100
AcDbSpline
62
9
6
CONTINUOUS
70
0
71
3
72
21
73
17
74
15
42
0.0000001000
43
0.0000001000
44
0.0000000001
12
0.0413307721
22
2.0824346269
32
0.0000000000
13
1.9076433128
23
0.8361454413
33
0.0000000000
40
0.0000000000
40
0.0000000000
40
0.0000000000
40
0.0000000000
40
0.0721420351
40
0.1458666061
40
0.2207796095
40
0.2964397263
40
0.3723930786
40
0.4481768642
40
0.5233303572
40
0.5974117423
40
0.6700084040
40
0.7407479770
40
0.8093164402
40
0.8754711042
40
0.9390486308
40
1.0000000000
40
1.0000000000
40
1.0000000000
40
1.0000000000
10
-13.2561102768
20
19.2980117049
30
0.0000000000
10
-13.2551163815
20
19.3480887289
30
0.0000000000
10
-13.2489803715
20
19.4492990827
30
0.0000000000
10
-13.2280170653
20
19.6012787292
30
0.0000000000
10
-13.1954142096
20
19.7536957212
30
0.0000000000
10
-13.1515320209
20
19.9048607136
30
0.0000000000
10
-13.0968557267
20
20.0531086584
30
0.0000000000
10
-13.0319879475
20
20.1968038544
30
0.0000000000
10
-12.9576432928
20
20.3343609307
30
0.0000000000
10
-12.8746398460
20
20.4642618775
30
0.0000000000
10
-12.7838894919
20
20.5850733699
30
0.0000000000
10
-12.6863862092
20
20.6954627367
30
0.0000000000
10
-12.5831963768
20
20.7942111062
30
0.0000000000
10
-12.4754376188
20
20.8802272098
30
0.0000000000
10
-12.3642973779
20
20.9525462858
30
0.0000000000
10
-12.2870926449
20
20.9919228686
30
0.0000000000
10
-12.2483348210
20
21.0089109384
30
0.0000000000
11
-13.2561102768
21
19.2980117049
31
0.0000000000
11
-13.2471600091
21
19.4480055653
31
0.0000000000
11
-13.2262867572
21
19.6001371165
31
0.0000000000
11
-13.1937203078
21
19.7527328562
31
0.0000000000
11
-13.1498245881
21
19.9040842044
31
0.0000000000
11
-13.0950867989
21
20.0525116641
31
0.0000000000
11
-13.0301147304
21
20.1963655677
31
0.0000000000
11
-12.9556321451
21
20.3340425178
31
0.0000000000
11
-12.8724669079
21
20.4640119007
31
0.0000000000
11
-12.7815433324
21
20.5848284316
31
0.0000000000
11
-12.6838748210
21
20.6951452668
31
0.0000000000
11
-12.5805469869
21
20.7937362723
31
0.0000000000
11
-12.4727066645
21
20.8795064288
31
0.0000000000
11
-12.3615617455
21
20.9514954835
31
0.0000000000
11
-12.2483348210
21
21.0089109384
31
0.0000000000
0
SPLINE
5
3B6
100
AcDbEntity
8
0
100
AcDbSpline
62
7
6
CONTINUOUS
70
0
71
3
72
13
73
9
74
7
42
0.0000001000
43
0.0000001000
44
0.0000000001
12
0.0022723880
22
-0.1895414136
32
0.0000000000
13
-0.1775239062
23
-0.0623271047
33
0.0000000000
40
0.0000000000
40
0.0000000000
40
0.0000000000
40
0.0000000000
40
0.0624085746
40
0.1956956836
40
0.3511993402
40
0.5358182409
40
0.7524532419
40
1.0000000000
40
1.0000000000
40
1.0000000000
40
1.0000000000
10
3.7730726356
20
23.5944461442
30
0.0000000000
10
3.7731199078
20
23.5905031411
30
0.0000000000
10
3.7720610564
20
23.5781254241
30
0.0000000000
10
3.7633173653
20
23.5573714209
30
0.0000000000
10
3.7437894413
20
23.5345878635
30
0.0000000000
10
3.7158045291
20
23.5133999109
30
0.0000000000
10
3.6798997634
20
23.4940170348
30
0.0000000000
10
3.6528153924
20
23.4831882853
30
0.0000000000
10
3.6381669032
20
23.4780453277
30
0.0000000000
11
3.7730726356
21
23.5944461442
31
0.0000000000
11
3.7720567402
21
23.5826911769
31
0.0000000000
11
3.7628645091
21
23.5593590237
31
0.0000000000
11
3.7443495309
21
23.5367050548
31
0.0000000000
11
3.7169826029
21
23.5153132460
31
0.0000000000
11
3.6813062626
21
23.4956023747
31
0.0000000000
11
3.6381669032
21
23.4780453277
31
0.0000000000
0
SPLINE
5
3B7
100
AcDbEntity
8
0
100
AcDbSpline
62
7
6
CONTINUOUS
70
0
71
3
72
15
73
11
74
9
42
0.0000001000
43
0.0000001000
44
0.0000000001
12
0.3174706462
22
0.1261762240
32
0.0000000000
13
-0.0038220677
23
0.3418561995
33
0.0000000000
40
0.0000000000
40
0.0000000000
40
0.0000000000
40
0.0000000000
40
0.1121537069
40
0.2251427136
40
0.3420233174
40
0.4678989452
40
0.6067332857
40
0.7629495921
40
0.9403357279
40
1.0000000000
40
1.0000000000
40
1.0000000000
40
1.0000000000
10
13.7183983543
20
20.4601275814
30
0.0000000000
10
13.7302668576
20
20.4648446252
30
0.0000000000
10
13.7533123670
20
20.4764589598
30
0.0000000000
10
13.7843850830
20
20.5003088369
30
0.0000000000
10
13.8115017261
20
20.5307173979
30
0.0000000000
10
13.8342255165
20
20.5680163902
30
0.0000000000
10
13.8520022498
20
20.6127548156
30
0.0000000000
10
13.8640016351
20
20.6653962427
30
0.0000000000
10
13.8678276373
20
20.7101404948
30
0.0000000000
10
13.8680238036
20
20.7371590714
30
0.0000000000
10
13.8679477900
20
20.7439579385
30
0.0000000000
11
13.7183983543
21
20.4601275814
31
0.0000000000
11
13.7525838239
21
20.4774296193
31
0.0000000000
11
13.7832192990
21
20.5009120132
31
0.0000000000
11
13.8098777144
21
20.5306388762
31
0.0000000000
11
13.8324172374
21
20.5672608761
31
0.0000000000
11
13.8501684744
21
20.6112431253
31
0.0000000000
11
13.8623176485
21
20.6632093306
31
0.0000000000
11
13.8677913842
21
20.7235612586
31
0.0000000000
11
13.8679477900
21
20.7439579385
31
0.0000000000
0
SPLINE
5
3B8
100
AcDbEntity
8
0
100
AcDbSpline
62
7
6
CONTINUOUS
70
0
71
3
72
13
73
9
74
7
42
0.0000001000
43
0.0000001000
44
0.0000000001
12
0.2003485501
22
0.0728108665
32
0.0000000000
13
-0.0021177184
23
0.2144334718
33
0.0000000000
40
0.0000000000
40
0.0000000000
40
0.0000000000
40
0.0000000000
40
0.2387738642
40
0.4490183012
40
0.6295566355
40
0.7832143253
40
0.9152383342
40
1.0000000000
40
1.0000000000
40
1.0000000000
40
1.0000000000
10
14.1888187670
20
-18.9963590975
30
0.0000000000
10
14.2047647662
20
-18.9905639869
30
0.0000000000
10
14.2343273921
20
-18.9784071402
30
0.0000000000
10
14.2736697479
20
-18.9568783886
30
0.0000000000
10
14.3046999798
20
-18.9334727932
30
0.0000000000
10
14.3268564250
20
-18.9084398846
30
0.0000000000
10
14.3383225716
20
-18.8842091691
30
0.0000000000
10
14.3401974956
20
-18.8686687132
30
0.0000000000
10
14.3401376618
20
-18.8626101337
30
0.0000000000
11
14.1888187670
21
-18.9963590975
31
0.0000000000
11
14.2357808485
21
-18.9767303767
31
0.0000000000
11
14.2749043127
21
-18.9548678770
31
0.0000000000
11
14.3053083157
21
-18.9312733125
31
0.0000000000
11
14.3265149874
21
-18.9063099516
31
0.0000000000
11
14.3379921582
21
-18.8806131434
31
0.0000000000
11
14.3401376618
21
-18.8626101337
31
0.0000000000
0
SPLINE
5
3B9
100
AcDbEntity
8
0
100
AcDbSpline
62
7
6
CONTINUOUS
70
0
71
3
72
8
73
4
74
2
42
0.0000001000
43
0.0000001000
44
0.0000000001
12
0.0000316774
22
-0.0016417077
32
0.0000000000
13
0.0000364723
23
-0.0016416075
33
0.0000000000
40
0.0000000000
40
0.0000000000
40
0.0000000000
40
0.0000000000
40
1.0000000000
40
1.0000000000
40
1.0000000000
40
1.0000000000
10
-3.3860909607
20
-7.9625203474
30
0.0000000000
10
-3.3860804015
20
-7.9630675833
30
0.0000000000
10
-3.3860690411
20
-7.9636148036
30
0.0000000000
10
-3.3860568837
20
-7.9641620061
30
0.0000000000
11
-3.3860909607
21
-7.9625203474
31
0.0000000000
11
-3.3860568837
21
-7.9641620061
31
0.0000000000
0
SPLINE
5
3BA
100
AcDbEntity
8
0
100
AcDbSpline
62
7
6
CONTINUOUS
70
0
71
3
72
18
73
14
74
12
42
0.0000001000
43
0.0000001000
44
0.0000000001
12
0.0103601807
22
-0.4663087409
32
0.0000000000
13
0.2370753154
23
-0.4015699713
33
0.0000000000
40
0.0000000000
40
0.0000000000
40
0.0000000000
40
0.0000000000
40
0.0583499990
40
0.1476110065
40
0.2386089421
40
0.3311628054
40
0.4250543346
40
0.5200283391
40
0.6158060079
40
0.7120685244
40
0.8084591736
40
0.9045814460
40
1.0000000000
40
1.0000000000
40
1.0000000000
40
1.0000000000
10
-3.3860568837
20
-7.9641620061
30
0.0000000000
10
-3.3858553782
20
-7.9732317109
30
0.0000000000
10
-3.3847917212
20
-7.9961634869
30
0.0000000000
10
-3.3810086663
20
-8.0330850361
30
0.0000000000
10
-3.3741492597
20
-8.0749571099
30
0.0000000000
10
-3.3648440786
20
-8.1170883801
30
0.0000000000
10
-3.3532540125
20
-8.1592877685
30
0.0000000000
10
-3.3395349457
20
-8.2013690599
30
0.0000000000
10
-3.3238421137
20
-8.2431470461
30
0.0000000000
10
-3.3063341655
20
-8.2844352899
30
0.0000000000
10
-3.2871777500
20
-8.3250432219
30
0.0000000000
10
-3.2665516742
20
-8.3647753313
30
0.0000000000
10
-3.2518710116
20
-8.3906867966
30
0.0000000000
10
-3.2443305503
20
-8.4034592052
30
0.0000000000
11
-3.3860568837
21
-7.9641620061
31
0.0000000000
11
-3.3848149708
21
-7.9913471661
31
0.0000000000
11
-3.3806256421
21
-8.0327608488
31
0.0000000000
11
-3.3738096205
21
-8.0746448847
31
0.0000000000
11
-3.3645376807
21
-8.1167977942
31
0.0000000000
11
-3.3529712453
21
-8.1590268112
31
0.0000000000
11
-3.3392673206
21
-8.2011425258
31
0.0000000000
11
-3.3235808441
21
-8.2429612128
31
0.0000000000
11
-3.3060708540
21
-8.2842954170
31
0.0000000000
11
-3.2869042210
21
-8.3249540504
31
0.0000000000
11
-3.2662596057
21
-8.3647415950
31
0.0000000000
11
-3.2443305503
21
-8.4034592052
31
0.0000000000
0
SPLINE
5
3BB
100
AcDbEntity
8
0
100
AcDbSpline
62
7
6
CONTINUOUS
70
0
71
3
72
18
73
14
74
12
42
0.0000001000
43
0.0000001000
44
0.0000000001
12
0.0102170739
22
-0.4677833462
32
0.0000000000
13
0.2385385674
23
-0.4024132551
33
0.0000000000
40
0.0000000000
40
0.0000000000
40
0.0000000000
40
0.0000000000
40
0.0606539423
40
0.1497375924
40
0.2405434318
40
0.3328913351
40
0.4265640682
40
0.5213075992
40
0.6168443663
40
0.7128569305
40
0.8089900821
40
0.9048489566
40
1.0000000000
40
1.0000000000
40
1.0000000000
40
1.0000000000
10
-3.3556244746
20
-9.4429224747
30
0.0000000000
10
-3.3554179060
20
-9.4523801094
30
0.0000000000
10
-3.3543192670
20
-9.4757153873
30
0.0000000000
10
-3.3504346507
20
-9.5130475700
30
0.0000000000
10
-3.3435027649
20
-9.5549523478
30
0.0000000000
10
-3.3341233446
20
-9.5971079839
30
0.0000000000
10
-3.3224576856
20
-9.6393237049
30
0.0000000000
10
-3.3086620667
20
-9.6814135931
30
0.0000000000
10
-3.2928921152
20
-9.7231927396
30
0.0000000000
10
-3.2753068742
20
-9.7644750181
30
0.0000000000
10
-3.2560733973
20
-9.8050701941
30
0.0000000000
10
-3.2353709107
20
-9.8447831264
30
0.0000000000
10
-3.2206393163
20
-9.8706784884
30
0.0000000000
10
-3.2130735851
20
-9.8834418355
30
0.0000000000
11
-3.3556244746
21
-9.4429224747
31
0.0000000000
11
-3.3543113507
21
-9.4712691007
31
0.0000000000
11
-3.3500516022
21
-9.5127241724
31
0.0000000000
11
-3.3431629877
21
-9.5546408991
31
0.0000000000
11
-3.3338167048
21
-9.5968181344
31
0.0000000000
11
-3.3221745796
21
-9.6390634247
31
0.0000000000
11
-3.3083940138
21
-9.6811876609
31
0.0000000000
11
-3.2926303301
21
-9.7230074194
31
0.0000000000
11
-3.2750429602
21
-9.7643355557
31
0.0000000000
11
-3.2557991783
21
-9.8049813160
31
0.0000000000
11
-3.2350780624
21
-9.8447495517
31
0.0000000000
11
-3.2130735851
21
-9.8834418355
31
0.0000000000
0
SPLINE
5
3BC
100
AcDbEntity
8
0
100
AcDbSpline
62
7
6
CONTINUOUS
70
0
71
3
72
18
73
14
74
12
42
0.0000001000
43
0.0000001000
44
0.0000000001
12
0.0102170739
22
-0.4677833462
32
0.0000000000
13
0.2385385674
23
-0.4024132552
33
0.0000000000
40
0.0000000000
40
0.0000000000
40
0.0000000000
40
0.0000000000
40
0.0606539424
40
0.1497375925
40
0.2405434319
40
0.3328913352
40
0.4265640683
40
0.5213075993
40
0.6168443664
40
0.7128569306
40
0.8089900821
40
0.9048489566
40
1.0000000000
40
1.0000000000
40
1.0000000000
40
1.0000000000
10
-4.1430385587
20
-9.1370420120
30
0.0000000000
10
-4.1428319901
20
-9.1464996467
30
0.0000000000
10
-4.1417333511
20
-9.1698349246
30
0.0000000000
10
-4.1378487348
20
-9.2071671073
30
0.0000000000
10
-4.1309168490
20
-9.2490718851
30
0.0000000000
10
-4.1215374287
20
-9.2912275212
30
0.0000000000
10
-4.1098717698
20
-9.3334432422
30
0.0000000000
10
-4.0960761509
20
-9.3755331304
30
0.0000000000
10
-4.0803061993
20
-9.4173122769
30
0.0000000000
10
-4.0627209583
20
-9.4585945554
30
0.0000000000
10
-4.0434874814
20
-9.4991897314
30
0.0000000000
10
-4.0227849949
20
-9.5389026637
30
0.0000000000
10
-4.0080534004
20
-9.5647980258
30
0.0000000000
10
-4.0004876692
20
-9.5775613728
30
0.0000000000
11
-4.1430385587
21
-9.1370420120
31
0.0000000000
11
-4.1417254348
21
-9.1653886380
31
0.0000000000
11
-4.1374656863
21
-9.2068437098
31
0.0000000000
11
-4.1305770718
21
-9.2487604364
31
0.0000000000
11
-4.1212307890
21
-9.2909376717
31
0.0000000000
11
-4.1095886637
21
-9.3331829620
31
0.0000000000
11
-4.0958080979
21
-9.3753071982
31
0.0000000000
11
-4.0800444142
21
-9.4171269567
31
0.0000000000
11
-4.0624570443
21
-9.4584550930
31
0.0000000000
11
-4.0432132625
21
-9.4991008533
31
0.0000000000
11
-4.0224921465
21
-9.5388690890
31
0.0000000000
11
-4.0004876692
21
-9.5775613728
31
0.0000000000
0
SPLINE
5
3BD
100
AcDbEntity
8
0
100
AcDbSpline
62
9
6
CONTINUOUS
70
0
71
3
72
17
73
13
74
11
42
0.0000001000
43
0.0000001000
44
0.0000000001
12
-0.0060003128
22
0.3626119128
32
0.0000000000
13
-0.3375101105
23
0.1327039123
33
0.0000000000
40
0.0000000000
40
0.0000000000
40
0.0000000000
40
0.0000000000
40
0.1023742939
40
0.2081904401
40
0.3159610701
40
0.4240910133
40
0.5309658401
40
0.6350386486
40
0.7349261388
40
0.8294922342
40
0.9179872046
40
1.0000000000
40
1.0000000000
40
1.0000000000
40
1.0000000000
10
-6.8029042349
20
23.9160898632
30
0.0000000000
10
-6.8031089941
20
23.9284639094
30
0.0000000000
10
-6.8049946879
20
23.9536211208
30
0.0000000000
10
-6.8118424088
20
23.9912611312
30
0.0000000000
10
-6.8226012258
20
24.0287014979
30
0.0000000000
10
-6.8370100740
20
24.0650297986
30
0.0000000000
10
-6.8547203532
20
24.0993686790
30
0.0000000000
10
-6.8753057123
20
24.1308878340
30
0.0000000000
10
-6.8982718408
20
24.1588260542
30
0.0000000000
10
-6.9230801508
20
24.1825123323
30
0.0000000000
10
-6.9491254051
20
24.2013579091
30
0.0000000000
10
-6.9676149784
20
24.2107351526
30
0.0000000000
10
-6.9768416943
20
24.2143629588
30
0.0000000000
11
-6.8029042349
21
23.9160898632
31
0.0000000000
11
-6.8055985703
21
23.9531191903
31
0.0000000000
11
-6.8124170387
21
23.9908840351
31
0.0000000000
11
-6.8231916445
21
24.0284538045
31
0.0000000000
11
-6.8376569013
21
24.0649029349
31
0.0000000000
11
-6.8554564098
21
24.0993335589
31
0.0000000000
11
-6.8761514056
21
24.1308972531
31
0.0000000000
11
-6.8992326153
21
24.1588173877
31
0.0000000000
11
-6.9241292396
21
24.1824042175
31
0.0000000000
11
-6.9502299640
21
24.2010793153
31
0.0000000000
11
-6.9768416943
21
24.2143629588
31
0.0000000000
0
SPLINE
5
3BE
100
AcDbEntity
8
0
100
AcDbSpline
62
7
6
CONTINUOUS
70
0
71
3
72
18
73
14
74
12
42
0.0000001000
43
0.0000001000
44
0.0000000001
12
-0.0043278433
22
0.3629976198
32
0.0000000000
13
-0.3383882934
23
0.1314509987
33
0.0000000000
40
0.0000000000
40
0.0000000000
40
0.0000000000
40
0.0000000000
40
0.0929141498
40
0.1887225921
40
0.2863393677
40
0.3845942641
40
0.4822881374
40
0.5782471978
40
0.6713782223
40
0.7607267550
40
0.8455405779
40
0.9253406372
40
1.0000000000
40
1.0000000000
40
1.0000000000
40
1.0000000000
10
-5.1533694447
20
24.5190819389
30
0.0000000000
10
-5.1535034840
20
24.5303244773
30
0.0000000000
10
-5.1549938438
20
24.5531589373
30
0.0000000000
10
-5.1605975830
20
24.5874010211
30
0.0000000000
10
-5.1694981246
20
24.6216071777
30
0.0000000000
10
-5.1815164223
20
24.6550866795
30
0.0000000000
10
-5.1964114685
20
24.6871694219
30
0.0000000000
10
-5.2138850975
20
24.7172116244
30
0.0000000000
10
-5.2335892663
20
24.7446117564
30
0.0000000000
10
-5.2551329282
20
24.7688214948
30
0.0000000000
10
-5.2780971885
20
24.7893576917
30
0.0000000000
10
-5.3020276596
20
24.8058026131
30
0.0000000000
10
-5.3188856193
20
24.8140836853
30
0.0000000000
10
-5.3273069041
20
24.8173550346
30
0.0000000000
11
-5.1533694447
21
24.5190819389
31
0.0000000000
11
-5.1555049722
21
24.5527442807
31
0.0000000000
11
-5.1610815779
21
24.5870750123
31
0.0000000000
11
-5.1699857894
21
24.6213752809
31
0.0000000000
11
-5.1820363810
21
24.6549468248
31
0.0000000000
11
-5.1969880572
21
24.6871061970
31
0.0000000000
11
-5.2145364451
21
24.7171986913
31
0.0000000000
11
-5.2343242940
21
24.7446116832
31
0.0000000000
11
-5.2559487549
21
24.7687871144
31
0.0000000000
11
-5.2789695905
21
24.7892328602
31
0.0000000000
11
-5.3029181473
21
24.8055327499
31
0.0000000000
11
-5.3273069041
21
24.8173550346
31
0.0000000000
0
SPLINE
5
3BF
100
AcDbEntity
8
0
100
AcDbSpline
62
9
6
CONTINUOUS
70
0
71
3
72
17
73
13
74
11
42
0.0000001000
43
0.0000001000
44
0.0000000001
12
0.3338659462
22
-0.1296942386
32
0.0000000000
13
0.3371967395
23
0.1207701305
33
0.0000000000
40
0.0000000000
40
0.0000000000
40
0.0000000000
40
0.0000000000
40
0.0848475714
40
0.1785176409
40
0.2791714575
40
0.3848380289
40
0.4933406014
40
0.6024121644
40
0.7097617324
40
0.8131601308
40
0.9105224501
40
1.0000000000
40
1.0000000000
40
1.0000000000
40
1.0000000000
10
-7.1552018611
20
23.9169741986
30
0.0000000000
10
-7.1457592896
20
23.9133061182
30
0.0000000000
10
-7.1254512004
20
23.9067076340
30
0.0000000000
10
-7.0929596018
20
23.8991429248
30
0.0000000000
10
-7.0575510747
20
23.8935676476
30
0.0000000000
10
-7.0200981692
20
23.8901269213
30
0.0000000000
10
-6.9815031910
20
23.8889071358
30
0.0000000000
10
-6.9427020955
20
23.8899395500
30
0.0000000000
10
-6.9046351807
20
23.8931986038
30
0.0000000000
10
-6.8682221459
20
23.8986032649
30
0.0000000000
10
-6.8343449826
20
23.9060176982
30
0.0000000000
10
-6.8129614142
20
23.9124877914
30
0.0000000000
10
-6.8029042349
20
23.9160898632
30
0.0000000000
11
-7.1552018611
21
23.9169741986
31
0.0000000000
11
-7.1263489346
21
23.9074315903
31
0.0000000000
11
-7.0936980747
21
23.8997165028
31
0.0000000000
11
-7.0580969368
21
23.8940367389
31
0.0000000000
11
-7.0204128684
21
23.8905309571
31
0.0000000000
11
-6.9815702680
21
23.8892853985
31
0.0000000000
11
-6.9425178880
21
23.8903305177
31
0.0000000000
11
-6.9042110614
21
23.8936408297
31
0.0000000000
11
-6.8675865369
21
23.8991354248
31
0.0000000000
11
-6.8335399927
21
23.9066799566
31
0.0000000000
11
-6.8029042349
21
23.9160898632
31
0.0000000000
0
SPLINE
5
3C0
100
AcDbEntity
8
0
100
AcDbSpline
62
9
6
CONTINUOUS
70
0
71
3
72
17
73
13
74
11
42
0.0000001000
43
0.0000001000
44
0.0000000001
12
0.3338659353
22
-0.1296942344
32
0.0000000000
13
0.3371967286
23
0.1207701265
33
0.0000000000
40
0.0000000000
40
0.0000000000
40
0.0000000000
40
0.0000000000
40
0.0850102413
40
0.1786921599
40
0.2793557191
40
0.3850199248
40
0.4935167664
40
0.6025761183
40
0.7099097198
40
0.8132819524
40
0.9106177967
40
1.0000000000
40
1.0000000000
40
1.0000000000
40
1.0000000000
10
-7.1508625263
20
23.5530127218
30
0.0000000000
10
-7.1414018517
20
23.5493376091
30
0.0000000000
10
-7.1210730898
20
23.5427347463
30
0.0000000000
10
-7.0885590459
20
23.5351696119
30
0.0000000000
10
-7.0531475737
20
23.5295982752
30
0.0000000000
10
-7.0156941195
20
23.5261615438
30
0.0000000000
10
-6.9771014534
20
23.5249455792
30
0.0000000000
10
-6.9383045071
20
23.5259814090
30
0.0000000000
10
-6.9002443464
20
23.5292432348
30
0.0000000000
10
-6.8638398872
20
23.5346497773
30
0.0000000000
10
-6.8299805891
20
23.5420631925
30
0.0000000000
10
-6.8086113622
20
23.5485301531
30
0.0000000000
10
-6.7985649000
20
23.5521283864
30
0.0000000000
11
-7.1508625263
21
23.5530127218
31
0.0000000000
11
-7.1219534445
21
23.5434543566
31
0.0000000000
11
-7.0892973480
21
23.5357429817
31
0.0000000000
11
-7.0536920663
21
23.5300670516
31
0.0000000000
11
-7.0160084620
21
23.5265654435
31
0.0000000000
11
-6.9771677924
21
23.5253237622
31
0.0000000000
11
-6.9381198819
21
23.5263723468
31
0.0000000000
11
-6.8998190462
21
23.5296855455
31
0.0000000000
11
-6.8632042597
21
23.5351818729
31
0.0000000000
11
-6.8291675941
21
23.5427271479
31
0.0000000000
11
-6.7985649000
21
23.5521283864
31
0.0000000000
0
SPLINE
5
3C1
100
AcDbEntity
8
0
100
AcDbSpline
62
9
6
CONTINUOUS
70
0
71
3
72
14
73
10
74
8
42
0.0000001000
43
0.0000001000
44
0.0000000001
12
0.0024070758
22
-0.2018933552
32
0.0000000000
13
0.1882848150
23
-0.0731853228
33
0.0000000000
40
0.0000000000
40
0.0000000000
40
0.0000000000
40
0.0000000000
40
0.1679220986
40
0.3276010357
40
0.4784513909
40
0.6206274731
40
0.7551545643
40
0.8839911619
40
1.0000000000
40
1.0000000000
40
1.0000000000
40
1.0000000000
10
-7.1508625263
20
23.5530127218
30
0.0000000000
10
-7.1507277925
20
23.5417119365
30
0.0000000000
10
-7.1491944974
20
23.5196517800
30
0.0000000000
10
-7.1428351770
20
23.4879879783
30
0.0000000000
10
-7.1325844962
20
23.4591699729
30
0.0000000000
10
-7.1186324666
20
23.4338424513
30
0.0000000000
10
-7.1012365419
20
23.4125887094
30
0.0000000000
10
-7.0812824200
20
23.3963708432
30
0.0000000000
10
-7.0664850576
20
23.3888024433
30
0.0000000000
10
-7.0592041567
20
23.3859723952
30
0.0000000000
11
-7.1508625263
21
23.5530127218
31
0.0000000000
11
-7.1484147277
21
23.5191964329
31
0.0000000000
11
-7.1419499704
21
23.4876108223
31
0.0000000000
11
-7.1316123519
21
23.4589609672
31
0.0000000000
11
-7.1176330826
21
23.4338882711
31
0.0000000000
11
-7.1003257548
21
23.4129542391
31
0.0000000000
11
-7.0800763577
21
23.3966250208
31
0.0000000000
11
-7.0592041567
21
23.3859723952
31
0.0000000000
0
SPLINE
5
3C2
100
AcDbEntity
8
0
100
AcDbSpline
62
9
6
CONTINUOUS
70
0
71
3
72
14
73
10
74
8
42
0.0000001000
43
0.0000001000
44
0.0000000001
12
0.0024070844
22
-0.2018940769
32
0.0000000000
13
0.1882859181
23
-0.0731843798
33
0.0000000000
40
0.0000000000
40
0.0000000000
40
0.0000000000
40
0.0000000000
40
0.1679214983
40
0.3275998646
40
0.4784496806
40
0.6206252546
40
0.7551518649
40
0.8839880019
40
1.0000000000
40
1.0000000000
40
1.0000000000
40
1.0000000000
10
-8.4338759279
20
24.0514146945
30
0.0000000000
10
-8.4337411942
20
24.0401139092
30
0.0000000000
10
-8.4322078990
20
24.0180537527
30
0.0000000000
10
-8.4258485786
20
23.9863899511
30
0.0000000000
10
-8.4155978978
20
23.9575719457
30
0.0000000000
10
-8.4016458682
20
23.9322444241
30
0.0000000000
10
-8.3842499435
20
23.9109906822
30
0.0000000000
10
-8.3642956337
20
23.8947726631
30
0.0000000000
10
-8.3494980272
20
23.8872041950
30
0.0000000000
10
-8.3422168853
20
23.8843741063
30
0.0000000000
11
-8.4338759279
21
24.0514146945
31
0.0000000000
11
-8.4314281294
21
24.0175984056
31
0.0000000000
11
-8.4249633721
21
23.9860127951
31
0.0000000000
11
-8.4146257535
21
23.9573629399
31
0.0000000000
11
-8.4006464842
21
23.9322902438
31
0.0000000000
11
-8.3833391564
21
23.9113562119
31
0.0000000000
11
-8.3630897593
21
23.8950269935
31
0.0000000000
11
-8.3422168853
21
23.8843741063
31
0.0000000000
0
SPLINE
5
3C3
100
AcDbEntity
8
0
100
AcDbSpline
62
9
6
CONTINUOUS
70
0
71
3
72
12
73
8
74
6
42
0.0000001000
43
0.0000001000
44
0.0000000001
12
-0.0907785426
22
0.0352640157
32
0.0000000000
13
-0.0015169151
23
0.0979447248
33
0.0000000000
40
0.0000000000
40
0.0000000000
40
0.0000000000
40
0.0000000000
40
0.2760754389
40
0.5131489817
40
0.7122858598
40
0.8801507592
40
1.0000000000
40
1.0000000000
40
1.0000000000
40
1.0000000000
10
-8.4338759279
20
24.0514146945
30
0.0000000000
10
-8.4422298366
20
24.0546598707
30
0.0000000000
10
-8.4574821229
20
24.0614715635
30
0.0000000000
10
-8.4771662346
20
24.0737900908
30
0.0000000000
10
-8.4916115110
20
24.0872944993
30
0.0000000000
10
-8.4998910390
20
24.1011120715
30
0.0000000000
10
-8.5016055560
20
24.1105103006
30
0.0000000000
10
-8.5016661564
20
24.1144231676
30
0.0000000000
11
-8.4338759279
21
24.0514146945
31
0.0000000000
11
-8.4583312750
21
24.0625863830
31
0.0000000000
11
-8.4777350436
21
24.0750982883
31
0.0000000000
11
-8.4916130266
21
24.0886447269
31
0.0000000000
11
-8.4996256493
21
24.1028943673
31
0.0000000000
11
-8.5016661564
21
24.1144231676
31
0.0000000000
0
SPLINE
5
3C4
100
AcDbEntity
8
0
100
AcDbSpline
62
7
6
CONTINUOUS
70
0
71
3
72
18
73
14
74
12
42
0.0000001000
43
0.0000001000
44
0.0000000001
12
0.0112196586
22
-0.4676103167
32
0.0000000000
13
0.2390658337
23
-0.4019259262
33
0.0000000000
40
0.0000000000
40
0.0000000000
40
0.0000000000
40
0.0000000000
40
0.0598017082
40
0.1490007103
40
0.2399146342
40
0.3323635569
40
0.4261304642
40
0.5209615450
40
0.6165794641
40
0.7126669983
40
0.8088691492
40
0.9047912626
40
1.0000000000
40
1.0000000000
40
1.0000000000
40
1.0000000000
10
-4.1144226924
20
-10.3850845376
30
0.0000000000
10
-4.1141990409
20
-10.3944058362
30
0.0000000000
10
-4.1130664481
20
-10.4176167131
30
0.0000000000
10
-4.1091436810
20
-10.4548341759
30
0.0000000000
10
-4.1021505260
20
-10.4967662796
30
0.0000000000
10
-4.0927083667
20
-10.5389422056
30
0.0000000000
10
-4.0809788413
20
-10.5811714388
30
0.0000000000
10
-4.0671185612
20
-10.6232683138
30
0.0000000000
10
-4.0512834838
20
-10.6650481753
30
0.0000000000
10
-4.0336329846
20
-10.7063251607
30
0.0000000000
10
-4.0143344579
20
-10.7469093191
30
0.0000000000
10
-3.9935674838
20
-10.7866058222
30
0.0000000000
10
-3.9787929126
20
-10.8124874320
30
0.0000000000
10
-3.9712058605
20
-10.8252430520
30
0.0000000000
11
-4.1144226924
21
-10.3850845376
31
0.0000000000
11
-4.1130799050
21
-10.4130217148
31
0.0000000000
11
-4.1087606100
21
-10.4545114418
31
0.0000000000
11
-4.1018106309
21
-10.4964554826
31
0.0000000000
11
-4.0924015217
21
-10.5386529736
31
0.0000000000
11
-4.0806954486
21
-10.5809117258
31
0.0000000000
11
-4.0668501467
21
-10.6230428851
31
0.0000000000
11
-4.0510212635
21
-10.6648632835
31
0.0000000000
11
-4.0333685622
21
-10.7061860399
31
0.0000000000
11
-4.0140596574
21
-10.7468206834
31
0.0000000000
11
-3.9932739782
21
-10.7865723786
31
0.0000000000
11
-3.9712058605
21
-10.8252430520
31
0.0000000000
0
SPLINE
5
3C5
100
AcDbEntity
8
0
100
AcDbSpline
62
9
6
CONTINUOUS
70
0
71
3
72
12
73
8
74
6
42
0.0000001000
43
0.0000001000
44
0.0000000001
12
-0.0907770864
22
0.0352634500
32
0.0000000000
13
-0.0015213305
23
0.0979438640
33
0.0000000000
40
0.0000000000
40
0.0000000000
40
0.0000000000
40
0.0000000000
40
0.2761116573
40
0.5132125616
40
0.7123643264
40
0.8802395473
40
1.0000000000
40
1.0000000000
40
1.0000000000
40
1.0000000000
10
-8.4382152628
20
24.4153761713
30
0.0000000000
10
-8.4465701333
20
24.4186217212
30
0.0000000000
10
-8.4618240393
20
24.4254342345
30
0.0000000000
10
-8.4815096992
20
24.4377544774
30
0.0000000000
10
-8.4959551569
20
24.4512608501
30
0.0000000000
10
-8.5042316653
20
24.4650776782
30
0.0000000000
10
-8.5059446960
20
24.4744732050
30
0.0000000000
10
-8.5060054278
20
24.4783831388
30
0.0000000000
11
-8.4382152628
21
24.4153761713
31
0.0000000000
11
-8.4626733400
21
24.4265493340
31
0.0000000000
11
-8.4820786384
21
24.4390631005
31
0.0000000000
11
-8.4959564277
21
24.4526113675
31
0.0000000000
11
-8.5039673844
21
24.4668627969
31
0.0000000000
11
-8.5060054278
21
24.4783831388
31
0.0000000000
0
SPLINE
5
3C6
100
AcDbEntity
8
0
100
AcDbSpline
62
9
6
CONTINUOUS
70
0
71
3
72
17
73
13
74
11
42
0.0000001000
43
0.0000001000
44
0.0000000001
12
-0.0043673426
22
0.3663106227
32
0.0000000000
13
0.3436095146
23
0.1270238067
33
0.0000000000
40
0.0000000000
40
0.0000000000
40
0.0000000000
40
0.0000000000
40
0.1009564627
40
0.2051212761
40
0.3112429828
40
0.4179521861
40
0.5238450619
40
0.6275649251
40
0.7278915934
40
0.8238149277
40
0.9146587859
40
1.0000000000
40
1.0000000000
40
1.0000000000
40
1.0000000000
10
-8.4382152628
20
24.4153761713
30
0.0000000000
10
-8.4383622332
20
24.4277033129
30
0.0000000000
10
-8.4370872851
20
24.4527887618
30
0.0000000000
10
-8.4308395594
20
24.4903523704
30
0.0000000000
10
-8.4203738167
20
24.5276977046
30
0.0000000000
10
-8.4059426089
20
24.5639211474
30
0.0000000000
10
-8.3878924976
20
24.5981550887
30
0.0000000000
10
-8.3666544198
20
24.6295773464
30
0.0000000000
10
-8.3427344246
20
24.6574329521
30
0.0000000000
10
-8.3166915171
20
24.6810542143
30
0.0000000000
10
-8.2891610820
20
24.6998536902
30
0.0000000000
10
-8.2696297803
20
24.7091514763
30
0.0000000000
10
-8.2598550959
20
24.7127649316
30
0.0000000000
11
-8.4382152628
21
24.4153761713
31
0.0000000000
11
-8.4364186467
21
24.4523165604
31
0.0000000000
11
-8.4302110662
21
24.4899676554
31
0.0000000000
11
-8.4197443402
21
24.5274084368
31
0.0000000000
11
-8.4052744826
21
24.5637232826
31
0.0000000000
11
-8.3871553981
21
24.5980241913
31
0.0000000000
11
-8.3658304673
21
24.6294721296
31
0.0000000000
11
-8.3418206147
21
24.6572989997
31
0.0000000000
11
-8.3157153084
21
24.6808223710
31
0.0000000000
11
-8.2881508340
21
24.6994696380
31
0.0000000000
11
-8.2598550959
21
24.7127649316
31
0.0000000000
0
SPLINE
5
3C7
100
AcDbEntity
8
0
100
AcDbSpline
62
9
6
CONTINUOUS
70
0
71
3
72
17
73
13
74
11
42
0.0000001000
43
0.0000001000
44
0.0000000001
12
-0.0043673420
22
0.3663105710
32
0.0000000000
13
0.3436094661
23
0.1270237887
33
0.0000000000
40
0.0000000000
40
0.0000000000
40
0.0000000000
40
0.0000000000
40
0.1009336660
40
0.2050737744
40
0.3111707281
40
0.4178564048
40
0.5237280247
40
0.6274308499
40
0.7277425019
40
0.8236616391
40
0.9145032081
40
1.0000000000
40
1.0000000000
40
1.0000000000
40
1.0000000000
10
-7.1552018611
20
23.9169741986
30
0.0000000000
10
-7.1553487984
20
23.9292985548
30
0.0000000000
10
-7.1540744997
20
23.9543781790
30
0.0000000000
10
-7.1478296554
20
23.9919332687
30
0.0000000000
10
-7.1373685943
20
24.0292706025
30
0.0000000000
10
-7.1229435652
20
24.0654873094
30
0.0000000000
10
-7.1049006882
20
24.0997164665
30
0.0000000000
10
-7.0836705298
20
24.1311361500
30
0.0000000000
10
-7.0597581531
20
24.1589923573
30
0.0000000000
10
-7.0337220689
20
24.1826171722
30
0.0000000000
10
-7.0061813512
20
24.2014336699
30
0.0000000000
10
-6.9866341966
20
24.2107429167
30
0.0000000000
10
-6.9768416943
20
24.2143629588
30
0.0000000000
11
-7.1552018611
21
23.9169741986
31
0.0000000000
11
-7.1534061381
21
23.9539062647
31
0.0000000000
11
-7.1472014446
21
23.9915486577
31
0.0000000000
11
-7.1367394334
21
24.0289813357
31
0.0000000000
11
-7.1222758132
21
24.0652893831
31
0.0000000000
11
-7.1041640985
21
24.0995853719
31
0.0000000000
11
-7.0828469692
21
24.1310310521
31
0.0000000000
11
-7.0588454506
21
24.1588578400
31
0.0000000000
11
-7.0327461793
21
24.1823856032
31
0.0000000000
11
-7.0051870639
21
24.2010392850
31
0.0000000000
11
-6.9768416943
21
24.2143629588
31
0.0000000000
0
SPLINE
5
3C8
100
AcDbEntity
8
0
100
AcDbSpline
62
9
6
CONTINUOUS
70
0
71
3
72
11
73
7
74
5
42
0.0000001000
43
0.0000001000
44
0.0000000001
12
-0.0798074651
22
0.0306298781
32
0.0000000000
13
-0.0802620012
23
-0.0300407662
33
0.0000000000
40
0.0000000000
40
0.0000000000
40
0.0000000000
40
0.0000000000
40
0.3266082375
40
0.6329695569
40
0.9267367348
40
1.0000000000
40
1.0000000000
40
1.0000000000
40
1.0000000000
10
-8.2598550959
20
24.7127649316
30
0.0000000000
10
-8.2685436877
20
24.7160995884
30
0.0000000000
10
-8.2860130493
20
24.7211000962
30
0.0000000000
10
-8.3125739654
20
24.7229042222
30
0.0000000000
10
-8.3316806551
20
24.7196420711
30
0.0000000000
10
-8.3416142066
20
24.7162735680
30
0.0000000000
10
-8.3435742921
20
24.7155399398
30
0.0000000000
11
-8.2598550959
21
24.7127649316
31
0.0000000000
11
-8.2867507604
21
24.7202567479
31
0.0000000000
11
-8.3128900551
21
24.7218666424
31
0.0000000000
11
-8.3376293716
21
24.7175549759
31
0.0000000000
11
-8.3435742921
21
24.7155399398
31
0.0000000000
0
SPLINE
5
3C9
100
AcDbEntity
8
0
100
AcDbSpline
62
7
6
CONTINUOUS
70
0
71
3
72
11
73
7
74
5
42
0.0000001000
43
0.0000001000
44
0.0000000001
12
-0.0774791856
22
0.0300977206
32
0.0000000000
13
-0.0786052423
23
-0.0275738291
33
0.0000000000
40
0.0000000000
40
0.0000000000
40
0.0000000000
40
0.0000000000
40
0.3049616711
40
0.5923339438
40
0.8678536559
40
1.0000000000
40
1.0000000000
40
1.0000000000
40
1.0000000000
10
-6.6282577064
20
25.3227250062
30
0.0000000000
10
-6.6361337670
20
25.3257845566
30
0.0000000000
10
-6.6519574444
20
25.3305061441
30
0.0000000000
10
-6.6760416971
20
25.3329065394
30
0.0000000000
10
-6.6953325675
20
25.3307119447
30
0.0000000000
10
-6.7062194011
20
25.3275500306
30
0.0000000000
10
-6.7096818662
20
25.3263354370
30
0.0000000000
11
-6.6282577064
21
25.3227250062
31
0.0000000000
11
-6.6525902102
21
25.3298290806
31
0.0000000000
11
-6.6763711523
21
25.3320702883
31
0.0000000000
11
-6.6991164217
21
25.3294029360
31
0.0000000000
11
-6.7096818662
21
25.3263354370
31
0.0000000000
0
SPLINE
5
3CA
100
AcDbEntity
8
0
100
AcDbSpline
62
9
6
CONTINUOUS
70
0
71
3
72
10
73
6
74
4
42
0.0000001000
43
0.0000001000
44
0.0000000001
12
-0.0723284335
22
0.0284318155
32
0.0000000000
13
-0.0747236395
23
-0.0220275189
33
0.0000000000
40
0.0000000000
40
0.0000000000
40
0.0000000000
40
0.0000000000
40
0.3552539538
40
0.6892238169
40
1.0000000000
40
1.0000000000
40
1.0000000000
40
1.0000000000
10
-6.0776057300
20
25.5158755390
30
0.0000000000
10
-6.0861707173
20
25.5192423773
30
0.0000000000
10
-6.1034315880
20
25.5243160808
30
0.0000000000
10
-6.1294858423
20
25.5262002852
30
0.0000000000
10
-6.1461274637
20
25.5234459613
30
0.0000000000
10
-6.1538682395
20
25.5211640852
30
0.0000000000
11
-6.0776057300
21
25.5158755390
31
0.0000000000
11
-6.1041496286
21
25.5234698075
31
0.0000000000
11
-6.1300480771
21
25.5251790215
31
0.0000000000
11
-6.1538682395
21
25.5211640852
31
0.0000000000
0
SPLINE
5
3CB
100
AcDbEntity
8
0
100
AcDbSpline
62
9
6
CONTINUOUS
70
0
71
3
72
9
73
5
74
3
42
0.0000001000
43
0.0000001000
44
0.0000000001
12
-0.0048205909
22
-0.0014210450
32
0.0000000000
13
-0.0047421734
23
-0.0016654586
33
0.0000000000
40
0.0000000000
40
0.0000000000
40
0.0000000000
40
0.0000000000
40
0.1546698440
40
1.0000000000
40
1.0000000000
40
1.0000000000
40
1.0000000000
10
-6.1538682395
20
25.5211640852
30
0.0000000000
10
-6.1541167728
20
25.5210908210
30
0.0000000000
10
-6.1557217656
20
25.5206107793
30
0.0000000000
10
-6.1573143243
20
25.5200895731
30
0.0000000000
10
-6.1586505584
20
25.5196202857
30
0.0000000000
11
-6.1538682395
21
25.5211640852
31
0.0000000000
11
-6.1546129633
21
25.5209413402
31
0.0000000000
11
-6.1586505584
21
25.5196202857
31
0.0000000000
0
SPLINE
5
3CC
100
AcDbEntity
8
0
100
AcDbSpline
62
9
6
CONTINUOUS
70
0
71
3
72
11
73
7
74
5
42
0.0000001000
43
0.0000001000
44
0.0000000001
12
-0.0878761265
22
0.0341536394
32
0.0000000000
13
-0.0886528498
23
-0.0314546971
33
0.0000000000
40
0.0000000000
40
0.0000000000
40
0.0000000000
40
0.0000000000
40
0.1081093955
40
0.3931995455
40
0.6887874472
40
1.0000000000
40
1.0000000000
40
1.0000000000
40
1.0000000000
10
6.9556012225
20
20.4896668710
30
0.0000000000
10
6.9524344775
20
20.4908976475
30
0.0000000000
10
6.9407201976
20
20.4948666348
30
0.0000000000
10
6.9192310034
20
20.4984515348
30
0.0000000000
10
6.8911072562
20
20.4968968516
30
0.0000000000
10
6.8725701922
20
20.4920596629
30
0.0000000000
10
6.8633735657
20
20.4887966307
30
0.0000000000
11
6.9556012225
21
20.4896668710
31
0.0000000000
11
6.9459510398
21
20.4929348416
31
0.0000000000
11
6.9195117486
21
20.4974244294
31
0.0000000000
11
6.8917416098
21
20.4960272562
31
0.0000000000
11
6.8633735657
21
20.4887966307
31
0.0000000000
0
SPLINE
5
3CD
100
AcDbEntity
8
0
100
AcDbSpline
62
7
6
CONTINUOUS
70
0
71
3
72
22
73
18
74
16
42
0.0000001000
43
0.0000001000
44
0.0000000001
12
-0.6249982703
22
0.2430269836
32
0.0000000000
13
-0.3351206589
23
0.5806241580
33
0.0000000000
40
0.0000000000
40
0.0000000000
40
0.0000000000
40
0.0000000000
40
0.0255235190
40
0.0929172562
40
0.1613414024
40
0.2306412734
40
0.3006559990
40
0.3712206421
40
0.4421659844
40
0.5133163211
40
0.5844864183
40
0.6554779958
40
0.7260874604
40
0.7960925557
40
0.8652539419
40
0.9333143264
40
1.0000000000
40
1.0000000000
40
1.0000000000
40
1.0000000000
10
-10.4712520191
20
2.3535361960
30
0.0000000000
10
-10.4765694042
20
2.3556038306
30
0.0000000000
10
-10.4958099701
20
2.3634326831
30
0.0000000000
10
-10.5284621662
20
2.3787940743
30
0.0000000000
10
-10.5685500710
20
2.4010835051
30
0.0000000000
10
-10.6077026875
20
2.4260733542
30
0.0000000000
10
-10.6458076226
20
2.4534543073
30
0.0000000000
10
-10.6827671708
20
2.4829509237
30
0.0000000000
10
-10.7184927601
20
2.5143131189
30
0.0000000000
10
-10.7529009240
20
2.5473085419
30
0.0000000000
10
-10.7859104151
20
2.5817156495
30
0.0000000000
10
-10.8174420369
20
2.6173193000
30
0.0000000000
10
-10.8474175487
20
2.6539056278
30
0.0000000000
10
-10.8757599855
20
2.6912581413
30
0.0000000000
10
-10.9023936912
20
2.7291530282
30
0.0000000000
10
-10.9272461258
20
2.7673560945
30
0.0000000000
10
-10.9427643850
20
2.7931689861
30
0.0000000000
10
-10.9502136340
20
2.8060754238
30
0.0000000000
11
-10.4712520191
21
2.3535361960
31
0.0000000000
11
-10.4871069190
21
2.3599816602
31
0.0000000000
11
-10.5280215160
21
2.3791459550
31
0.0000000000
11
-10.5681420457
21
2.4013836346
31
0.0000000000
11
-10.6073296187
21
2.4263378017
31
0.0000000000
11
-10.6454697123
21
2.4536959488
31
0.0000000000
11
-10.6824636452
21
2.4831803179
31
0.0000000000
11
-10.7182226165
21
2.5145393212
31
0.0000000000
11
-10.7526632603
21
2.5475396932
31
0.0000000000
11
-10.7857045788
21
2.5819594218
31
0.0000000000
11
-10.8172659695
21
2.6175813127
31
0.0000000000
11
-10.8472709587
21
2.6541931078
31
0.0000000000
11
-10.8756421324
21
2.6915776692
31
0.0000000000
11
-10.9023036192
21
2.7295108174
31
0.0000000000
11
-10.9271828584
21
2.7677584514
31
0.0000000000
11
-10.9502136340
21
2.8060754238
31
0.0000000000
0
SPLINE
5
3CE
100
AcDbEntity
8
0
100
AcDbSpline
62
9
6
CONTINUOUS
70
0
71
3
72
13
73
9
74
7
42
0.0000001000
43
0.0000001000
44
0.0000000001
12
0.0520872686
22
-0.0938517364
32
0.0000000000
13
-0.0723614166
23
-0.0800781777
33
0.0000000000
40
0.0000000000
40
0.0000000000
40
0.0000000000
40
0.0000000000
40
0.2629479630
40
0.4903870783
40
0.6817452773
40
0.8407496584
40
0.9779668245
40
1.0000000000
40
1.0000000000
40
1.0000000000
40
1.0000000000
10
-4.6042685291
20
24.3425058392
30
0.0000000000
10
-4.5997031153
20
24.3342797982
30
0.0000000000
10
-4.5918627499
20
24.3185407227
30
0.0000000000
10
-4.5837025849
20
24.2954701523
30
0.0000000000
10
-4.5801265199
20
24.2749763244
30
0.0000000000
10
-4.5813294322
20
24.2573233949
30
0.0000000000
10
-4.5861966621
20
24.2466578203
30
0.0000000000
10
-4.5898805524
20
24.2422703027
30
0.0000000000
10
-4.5904120030
20
24.2416821772
30
0.0000000000
11
-4.6042685291
21
24.3425058392
31
0.0000000000
11
-4.5918616279
21
24.3171549895
31
0.0000000000
11
-4.5839846950
21
24.2940480519
31
0.0000000000
11
-4.5808309771
21
24.2737517942
31
0.0000000000
11
-4.5824779115
21
24.2567643893
31
0.0000000000
11
-4.5888850758
21
24.2435025514
31
0.0000000000
11
-4.5904120030
21
24.2416821772
31
0.0000000000
0
SPLINE
5
3CF
100
AcDbEntity
8
0
100
AcDbSpline
62
9
6
CONTINUOUS
70
0
71
3
72
17
73
13
74
11
42
0.0000001000
43
0.0000001000
44
0.0000000001
12
-0.0026747991
22
0.3632994656
32
0.0000000000
13
-0.3391757620
23
0.1302054482
33
0.0000000000
40
0.0000000000
40
0.0000000000
40
0.0000000000
40
0.0000000000
40
0.1024382028
40
0.2081890383
40
0.3158047401
40
0.4237326491
40
0.5304030411
40
0.6343153390
40
0.7341335121
40
0.8287685926
40
0.9175155674
40
1.0000000000
40
1.0000000000
40
1.0000000000
40
1.0000000000
10
-4.6087043269
20
24.7145581390
30
0.0000000000
10
-4.6087956607
20
24.7269633871
30
0.0000000000
10
-4.6104717048
20
24.7521821980
30
0.0000000000
10
-4.6170745851
20
24.7899183279
30
0.0000000000
10
-4.6276552054
20
24.8274310601
30
0.0000000000
10
-4.6419568256
20
24.8638062324
30
0.0000000000
10
-4.6596335727
20
24.8981655856
30
0.0000000000
10
-4.6802602596
20
24.9296783599
30
0.0000000000
10
-4.7033420721
20
24.9575832813
30
0.0000000000
10
-4.7283381078
20
24.9812093394
30
0.0000000000
10
-4.7546383676
20
24.9999678021
30
0.0000000000
10
-4.7733162128
20
25.0092512604
30
0.0000000000
10
-4.7826417863
20
25.0128312346
30
0.0000000000
11
-4.6087043269
21
24.7145581390
31
0.0000000000
11
-4.6110931083
21
24.7516981501
31
0.0000000000
11
-4.6176657652
21
24.7895520378
31
0.0000000000
11
-4.6282603595
21
24.8271870147
31
0.0000000000
11
-4.6426158389
21
24.8636759109
31
0.0000000000
11
-4.6603785073
21
24.8981198799
31
0.0000000000
11
-4.6811105054
21
24.9296701703
31
0.0000000000
11
-4.7043016482
21
24.9575504827
31
0.0000000000
11
-4.7293784110
21
24.9810720590
31
0.0000000000
11
-4.7557250493
21
24.9996580768
31
0.0000000000
11
-4.7826417863
21
25.0128312346
31
0.0000000000
0
SPLINE
5
3D0
100
AcDbEntity
8
0
100
AcDbSpline
62
7
6
CONTINUOUS
70
0
71
3
72
13
73
9
74
7
42
0.0000001000
43
0.0000001000
44
0.0000000001
12
-0.0932784280
22
0.0362351262
32
0.0000000000
13
-0.0012005174
23
0.1004403934
33
0.0000000000
40
0.0000000000
40
0.0000000000
40
0.0000000000
40
0.0000000000
40
0.2573982650
40
0.4824200866
40
0.6753034383
40
0.8432082526
40
0.9960734303
40
1.0000000000
40
1.0000000000
40
1.0000000000
40
1.0000000000
10
-7.6922914280
20
22.9049677940
30
0.0000000000
10
-7.7002946632
20
22.9080767469
30
0.0000000000
10
-7.7150156752
20
22.9146928247
30
0.0000000000
10
-7.7341329811
20
22.9267876814
30
0.0000000000
10
-7.7484977875
20
22.9402614612
30
0.0000000000
10
-7.7577054083
20
22.9550219722
30
0.0000000000
10
-7.7600389390
20
22.9658564616
30
0.0000000000
10
-7.7601275270
20
22.9711056326
30
0.0000000000
10
-7.7601290983
20
22.9712370946
30
0.0000000000
11
-7.6922914280
21
22.9049677940
31
0.0000000000
11
-7.7157007148
21
22.9157130973
31
0.0000000000
11
-7.7345838365
21
22.9279800116
31
0.0000000000
11
-7.7484301715
21
22.9414274699
31
0.0000000000
11
-7.7570311742
21
22.9558612312
31
0.0000000000
11
-7.7601224388
21
22.9708427312
31
0.0000000000
11
-7.7601290983
21
22.9712370946
31
0.0000000000
0
SPLINE
5
3D1
100
AcDbEntity
8
0
100
AcDbSpline
62
7
6
CONTINUOUS
70
0
71
3
72
18
73
14
74
12
42
0.0000001000
43
0.0000001000
44
0.0000000001
12
-0.2639761913
22
-0.2899205253
32
0.0000000000
13
-0.3679755084
23
0.1356984935
33
0.0000000000
40
0.0000000000
40
0.0000000000
40
0.0000000000
40
0.0000000000
40
0.0910891643
40
0.1854244985
40
0.2820568377
40
0.3799288111
40
0.4779033089
40
0.5747918255
40
0.6693942308
40
0.7605595067
40
0.8472848458
40
0.9288822298
40
1.0000000000
40
1.0000000000
40
1.0000000000
40
1.0000000000
10
-6.0594657515
20
23.2792793549
30
0.0000000000
10
-6.0674808751
20
23.2704764822
30
0.0000000000
10
-6.0845528608
20
23.2532322905
30
0.0000000000
10
-6.1124960343
20
23.2291334810
30
0.0000000000
10
-6.1429402099
20
23.2067462570
30
0.0000000000
10
-6.1754482233
20
23.1865584246
30
0.0000000000
10
-6.2095176988
20
23.1690519407
30
0.0000000000
10
-6.2445772171
20
23.1547005419
30
0.0000000000
10
-6.2799882276
20
23.1439618168
30
0.0000000000
10
-6.3150440654
20
23.1372671912
30
0.0000000000
10
-6.3489872293
20
23.1350173190
30
0.0000000000
10
-6.3803034197
20
23.1375049085
30
0.0000000000
10
-6.3997774598
20
23.1425010014
30
0.0000000000
10
-6.4085006590
20
23.1457178595
30
0.0000000000
11
-6.0594657515
21
23.2792793549
31
0.0000000000
11
-6.0845671977
21
23.2538724194
31
0.0000000000
11
-6.1125635612
21
23.2296993746
31
0.0000000000
11
-6.1430853533
21
23.2072496502
31
0.0000000000
11
-6.1756929609
21
23.1870164571
31
0.0000000000
11
-6.2098773272
21
23.1694906426
31
0.0000000000
11
-6.2450581037
21
23.1551552138
31
0.0000000000
11
-6.2805811418
21
23.1444779582
31
0.0000000000
11
-6.3157161565
21
23.1379008532
31
0.0000000000
11
-6.3496571505
21
23.1358245114
31
0.0000000000
11
-6.3815314577
21
23.1385871575
31
0.0000000000
11
-6.4085006590
21
23.1457178595
31
0.0000000000
0
SPLINE
5
3D2
100
AcDbEntity
8
0
100
AcDbSpline
62
9
6
CONTINUOUS
70
0
71
3
72
17
73
13
74
11
42
0.0000001000
43
0.0000001000
44
0.0000000001
12
-0.1179179401
22
-0.3087406208
32
0.0000000000
13
-0.3163889498
23
0.0974882659
33
0.0000000000
40
0.0000000000
40
0.0000000000
40
0.0000000000
40
0.0000000000
40
0.1182391787
40
0.2350132620
40
0.3490850066
40
0.4594021520
40
0.5651891160
40
0.6660398429
40
0.7620050151
40
0.8536565041
40
0.9420976916
40
1.0000000000
40
1.0000000000
40
1.0000000000
40
1.0000000000
10
-6.7985649000
20
23.5521283864
30
0.0000000000
10
-6.8032124068
20
23.5399599739
30
0.0000000000
10
-6.8138399982
20
23.5162779707
30
0.0000000000
10
-6.8335732671
20
23.4831718703
30
0.0000000000
10
-6.8565973500
20
23.4533445227
30
0.0000000000
10
-6.8823639080
20
23.4275229294
30
0.0000000000
10
-6.9102668462
20
23.4063338923
30
0.0000000000
10
-6.9396534786
20
23.3903039942
30
0.0000000000
10
-6.9698340038
20
23.3798506043
30
0.0000000000
10
-7.0000921371
20
23.3752799318
30
0.0000000000
10
-7.0264561667
20
23.3766004447
30
0.0000000000
10
-7.0422491848
20
23.3802617968
30
0.0000000000
10
-7.0483557350
20
23.3821433954
30
0.0000000000
11
-6.7985649000
21
23.5521283864
31
0.0000000000
11
-6.8145789024
21
23.5164832190
31
0.0000000000
11
-6.8343733510
21
23.4833532040
31
0.0000000000
11
-6.8574626405
21
23.4535511000
31
0.0000000000
11
-6.8832803356
21
23.4278080240
31
0.0000000000
11
-6.9111930663
21
23.4067555151
31
0.0000000000
11
-6.9405160665
21
23.3909100419
31
0.0000000000
11
-6.9705299730
21
23.3806603316
31
0.0000000000
11
-7.0004984727
21
23.3762578343
31
0.0000000000
11
-7.0296863666
21
23.3778105536
31
0.0000000000
11
-7.0483557350
21
23.3821433954
31
0.0000000000
0
SPLINE
5
3D3
100
AcDbEntity
8
0
100
AcDbSpline
62
9
6
CONTINUOUS
70
0
71
3
72
8
73
4
74
2
42
0.0000001000
43
0.0000001000
44
0.0000000001
12
-0.0069689964
22
0.0021473423
32
0.0000000000
13
-0.0068329399
23
0.0025210937
33
0.0000000000
40
0.0000000000
40
0.0000000000
40
0.0000000000
40
0.0000000000
40
1.0000000000
40
1.0000000000
40
1.0000000000
40
1.0000000000
10
-7.0483557350
20
23.3821433954
30
0.0000000000
10
-7.0506787338
20
23.3828591761
30
0.0000000000
10
-7.0529811661
20
23.3836376097
30
0.0000000000
10
-7.0552588127
20
23.3844779743
30
0.0000000000
11
-7.0483557350
21
23.3821433954
31
0.0000000000
11
-7.0552588127
21
23.3844779743
31
0.0000000000
0
SPLINE
5
3D4
100
AcDbEntity
8
0
100
AcDbSpline
62
7
6
CONTINUOUS
70
0
71
3
72
17
73
13
74
11
42
0.0000001000
43
0.0000001000
44
0.0000000001
12
-0.3306693631
22
-0.1404710811
32
0.0000000000
13
-0.3348888326
23
0.1300915911
33
0.0000000000
40
0.0000000000
40
0.0000000000
40
0.0000000000
40
0.0000000000
40
0.0908113305
40
0.1893283429
40
0.2929049054
40
0.4006223009
40
0.5093965781
40
0.6173580212
40
0.7226332822
40
0.8222850773
40
0.9155307715
40
1.0000000000
40
1.0000000000
40
1.0000000000
40
1.0000000000
10
-6.0491573547
20
22.4146631293
30
0.0000000000
10
-6.0591668630
20
22.4104110074
30
0.0000000000
10
-6.0805043331
20
22.4026317367
30
0.0000000000
10
-6.1143732001
20
22.3933829255
30
0.0000000000
10
-6.1508100854
20
22.3862304715
30
0.0000000000
10
-6.1888575987
20
22.3813672418
30
0.0000000000
10
-6.2276607556
20
22.3789044237
30
0.0000000000
10
-6.2662500999
20
22.3789006167
30
0.0000000000
10
-6.3036686097
20
22.3813543544
30
0.0000000000
10
-6.3390800072
20
22.3862052215
30
0.0000000000
10
-6.3715632409
20
22.3933176830
30
0.0000000000
10
-6.3918817312
20
22.3998080213
30
0.0000000000
10
-6.4013109984
20
22.4034709335
30
0.0000000000
11
-6.0491573547
21
22.4146631293
31
0.0000000000
11
-6.0797635223
21
22.4033627013
31
0.0000000000
11
-6.1138832076
21
22.3939504044
31
0.0000000000
11
-6.1503872124
21
22.3867267802
31
0.0000000000
11
-6.1887706838
21
22.3817908254
31
0.0000000000
11
-6.2277712338
21
22.3793119917
31
0.0000000000
11
-6.2665584501
21
22.3793298921
31
0.0000000000
11
-6.3042962778
21
22.3818541739
31
0.0000000000
11
-6.3397559437
21
22.3867920277
31
0.0000000000
11
-6.3724550166
21
22.3940749585
31
0.0000000000
11
-6.4013109984
21
22.4034709335
31
0.0000000000
0
SPLINE
5
3D5
100
AcDbEntity
8
0
100
AcDbSpline
62
7
6
CONTINUOUS
70
0
71
3
72
12
73
8
74
6
42
0.0000001000
43
0.0000001000
44
0.0000000001
12
-0.0932605634
22
0.0362281865
32
0.0000000000
13
-0.0014443208
23
0.1005866605
33
0.0000000000
40
0.0000000000
40
0.0000000000
40
0.0000000000
40
0.0000000000
40
0.2689472486
40
0.5025748533
40
0.7009195714
40
0.8734409739
40
1.0000000000
40
1.0000000000
40
1.0000000000
40
1.0000000000
10
5.2486878676
20
17.8778888857
30
0.0000000000
10
5.2403271436
20
17.8811367094
30
0.0000000000
10
5.2250044462
20
17.8880634726
30
0.0000000000
10
5.2052890505
20
17.9008336838
30
0.0000000000
10
5.1908052268
20
17.9151242860
30
0.0000000000
10
5.1825938149
20
17.9298959271
30
0.0000000000
10
5.1809182709
20
17.9399238099
30
0.0000000000
10
5.1808573403
20
17.9441671932
30
0.0000000000
11
5.2486878676
21
17.8778888857
31
0.0000000000
11
5.2242673383
21
17.8891888116
31
0.0000000000
11
5.2048232198
21
17.9021615301
31
0.0000000000
11
5.1909770293
21
17.9163771287
31
0.0000000000
11
5.1829203615
21
17.9316422689
31
0.0000000000
11
5.1808573403
21
17.9441671932
31
0.0000000000
0
SPLINE
5
3D6
100
AcDbEntity
8
0
100
AcDbSpline
62
9
6
CONTINUOUS
70
0
71
3
72
12
73
8
74
6
42
0.0000001000
43
0.0000001000
44
0.0000000001
12
-0.0907785426
22
0.0352640157
32
0.0000000000
13
-0.0015169151
23
0.0979447248
33
0.0000000000
40
0.0000000000
40
0.0000000000
40
0.0000000000
40
0.0000000000
40
0.2760754389
40
0.5131489817
40
0.7122858598
40
0.8801507592
40
1.0000000000
40
1.0000000000
40
1.0000000000
40
1.0000000000
10
4.5071033677
20
19.0243357862
30
0.0000000000
10
4.4987494591
20
19.0275809624
30
0.0000000000
10
4.4834971727
20
19.0343926552
30
0.0000000000
10
4.4638130610
20
19.0467111825
30
0.0000000000
10
4.4493677846
20
19.0602155910
30
0.0000000000
10
4.4410882567
20
19.0740331632
30
0.0000000000
10
4.4393737396
20
19.0834313923
30
0.0000000000
10
4.4393131392
20
19.0873442593
30
0.0000000000
11
4.5071033677
21
19.0243357862
31
0.0000000000
11
4.4826480206
21
19.0355074747
31
0.0000000000
11
4.4632442520
21
19.0480193800
31
0.0000000000
11
4.4493662691
21
19.0615658186
31
0.0000000000
11
4.4413536464
21
19.0758154590
31
0.0000000000
11
4.4393131392
21
19.0873442593
31
0.0000000000
0
SPLINE
5
3D7
100
AcDbEntity
8
0
100
AcDbSpline
62
9
6
CONTINUOUS
70
0
71
3
72
12
73
8
74
6
42
0.0000001000
43
0.0000001000
44
0.0000000001
12
-0.0907836711
22
0.0352660079
32
0.0000000000
13
-0.0015015069
23
0.0979495654
33
0.0000000000
40
0.0000000000
40
0.0000000000
40
0.0000000000
40
0.0000000000
40
0.2760346439
40
0.5130772934
40
0.7121897099
40
0.8800356176
40
1.0000000000
40
1.0000000000
40
1.0000000000
40
1.0000000000
10
4.5027640329
20
19.3882972630
30
0.0000000000
10
4.4944108868
20
19.3915421430
30
0.0000000000
10
4.4791598501
20
19.3983532009
30
0.0000000000
10
4.4594770432
20
19.4106703267
30
0.0000000000
10
4.4450320605
20
19.4241730315
30
0.0000000000
10
4.4367493175
20
19.4379923181
30
0.0000000000
10
4.4350337255
20
19.4473943855
30
0.0000000000
10
4.4349736830
20
19.4513112052
30
0.0000000000
11
4.5027640329
21
19.3882972630
31
0.0000000000
11
4.4783108500
21
19.3994677828
31
0.0000000000
11
4.4589082038
21
19.4119782835
31
0.0000000000
11
4.4450303266
21
19.4255229882
31
0.0000000000
11
4.4370164164
21
19.4397708421
31
0.0000000000
11
4.4349736830
21
19.4513112052
31
0.0000000000
0
SPLINE
5
3D8
100
AcDbEntity
8
0
100
AcDbSpline
62
9
6
CONTINUOUS
70
0
71
3
72
11
73
7
74
5
42
0.0000001000
43
0.0000001000
44
0.0000000001
12
-0.0798074035
22
0.0306298544
32
0.0000000000
13
-0.0802619587
23
-0.0300408182
33
0.0000000000
40
0.0000000000
40
0.0000000000
40
0.0000000000
40
0.0000000000
40
0.3266781325
40
0.6331036573
40
0.9269327218
40
1.0000000000
40
1.0000000000
40
1.0000000000
40
1.0000000000
10
4.6811241997
20
19.6856860233
30
0.0000000000
10
4.6724337552
20
19.6890213912
30
0.0000000000
10
4.6549605526
20
19.6940226485
30
0.0000000000
10
4.6283937918
20
19.6958252356
30
0.0000000000
10
4.6092894457
20
19.6925607877
30
0.0000000000
10
4.5993598307
20
19.6891926994
30
0.0000000000
10
4.5974049897
20
19.6884610325
30
0.0000000000
11
4.6811241997
21
19.6856860233
31
0.0000000000
11
4.6542226372
21
19.6931788516
31
0.0000000000
11
4.6280777640
21
19.6947871241
31
0.0000000000
11
4.6033338438
21
19.6904711751
31
0.0000000000
11
4.5974049897
21
19.6884610325
31
0.0000000000
0
SPLINE
5
3D9
100
AcDbEntity
8
0
100
AcDbSpline
62
7
6
CONTINUOUS
70
0
71
3
72
11
73
7
74
5
42
0.0000001000
43
0.0000001000
44
0.0000000001
12
-0.0774791856
22
0.0300977206
32
0.0000000000
13
-0.0786052423
23
-0.0275738291
33
0.0000000000
40
0.0000000000
40
0.0000000000
40
0.0000000000
40
0.0000000000
40
0.3049616711
40
0.5923339438
40
0.8678536559
40
1.0000000000
40
1.0000000000
40
1.0000000000
40
1.0000000000
10
6.3127215893
20
20.2956460979
30
0.0000000000
10
6.3048455286
20
20.2987056483
30
0.0000000000
10
6.2890218513
20
20.3034272358
30
0.0000000000
10
6.2649375985
20
20.3058276311
30
0.0000000000
10
6.2456467281
20
20.3036330364
30
0.0000000000
10
6.2347598946
20
20.3004711223
30
0.0000000000
10
6.2312974294
20
20.2992565287
30
0.0000000000
11
6.3127215893
21
20.2956460979
31
0.0000000000
11
6.2883890854
21
20.3027501723
31
0.0000000000
11
6.2646081433
21
20.3049913800
31
0.0000000000
11
6.2418628739
21
20.3023240277
31
0.0000000000
11
6.2312974294
21
20.2992565287
31
0.0000000000
0
SPLINE
5
3DA
100
AcDbEntity
8
0
100
AcDbSpline
62
9
6
CONTINUOUS
70
0
71
3
72
10
73
6
74
4
42
0.0000001000
43
0.0000001000
44
0.0000000001
12
-0.0726398909
22
0.0285542473
32
0.0000000000
13
-0.0749695871
23
-0.0223784608
33
0.0000000000
40
0.0000000000
40
0.0000000000
40
0.0000000000
40
0.0000000000
40
0.3543296629
40
0.6867958759
40
1.0000000000
40
1.0000000000
40
1.0000000000
40
1.0000000000
10
6.8633735657
20
20.4887966307
30
0.0000000000
10
6.8547940763
20
20.4921691697
30
0.0000000000
10
6.8375185996
20
20.4972443409
30
0.0000000000
10
6.8113514488
20
20.4991264868
30
0.0000000000
10
6.7946162425
20
20.4963260737
30
0.0000000000
10
6.7867893145
20
20.4939897316
30
0.0000000000
11
6.8633735657
21
20.4887966307
31
0.0000000000
11
6.8367833939
21
20.4963991088
31
0.0000000000
11
6.8108898759
21
20.4980980337
31
0.0000000000
11
6.7867893145
21
20.4939897316
31
0.0000000000
0
SPLINE
5
3DB
100
AcDbEntity
8
0
100
AcDbSpline
62
9
6
CONTINUOUS
70
0
71
3
72
9
73
5
74
3
42
0.0000001000
43
0.0000001000
44
0.0000000001
12
-0.0044942600
22
-0.0013415389
32
0.0000000000
13
-0.0044256145
23
-0.0015542809
33
0.0000000000
40
0.0000000000
40
0.0000000000
40
0.0000000000
40
0.0000000000
40
0.1021484003
40
1.0000000000
40
1.0000000000
40
1.0000000000
40
1.0000000000
10
6.7867893145
20
20.4939897316
30
0.0000000000
10
6.7866362874
20
20.4939440529
30
0.0000000000
10
6.7851392899
20
20.4934932138
30
0.0000000000
10
6.7836531362
20
20.4930065258
30
0.0000000000
10
6.7823286212
20
20.4925413546
30
0.0000000000
11
6.7867893145
21
20.4939897316
31
0.0000000000
11
6.7863305687
21
20.4938515739
31
0.0000000000
11
6.7823286212
21
20.4925413546
31
0.0000000000
0
SPLINE
5
3DC
100
AcDbEntity
8
0
100
AcDbSpline
62
7
6
CONTINUOUS
70
0
71
3
72
18
73
14
74
12
42
0.0000001000
43
0.0000001000
44
0.0000000001
12
-0.0016444668
22
0.2383485663
32
0.0000000000
13
0.1701492141
23
0.1662176256
33
0.0000000000
40
0.0000000000
40
0.0000000000
40
0.0000000000
40
0.0000000000
40
0.0403751966
40
0.1000501819
40
0.1685091710
40
0.2458784865
40
0.3319391939
40
0.4262738743
40
0.5283488183
40
0.6375288483
40
0.7530894925
40
0.8742158238
40
1.0000000000
40
1.0000000000
40
1.0000000000
40
1.0000000000
10
-1.5664508394
20
-1.0830465162
30
0.0000000000
10
-1.5664729713
20
-1.0798387261
30
0.0000000000
10
-1.5657200233
20
-1.0718947013
30
0.0000000000
10
-1.5622617441
20
-1.0589354219
30
0.0000000000
10
-1.5560325783
20
-1.0438438651
30
0.0000000000
10
-1.5474180939
20
-1.0275774492
30
0.0000000000
10
-1.5365606502
20
-1.0102461031
30
0.0000000000
10
-1.5236021311
20
-0.9919674000
30
0.0000000000
10
-1.5086874130
20
-0.9728633865
30
0.0000000000
10
-1.4919673163
20
-0.9530600698
30
0.0000000000
10
-1.4736021814
20
-0.9326891754
30
0.0000000000
10
-1.4537650341
20
-0.9118893753
30
0.0000000000
10
-1.4399078608
20
-0.8980576118
30
0.0000000000
10
-1.4327738345
20
-0.8910884294
30
0.0000000000
11
-1.5664508394
21
-1.0830465162
31
0.0000000000
11
-1.5656535011
21
-1.0734677630
31
0.0000000000
11
-1.5621699612
21
-1.0597073546
31
0.0000000000
11
-1.5560829250
21
-1.0446039357
31
0.0000000000
11
-1.5475588474
21
-1.0282937260
31
0.0000000000
11
-1.5367550294
21
-1.0109061676
31
0.0000000000
11
-1.5238244363
21
-0.9925677224
31
0.0000000000
11
-1.5089180709
21
-0.9734022827
31
0.0000000000
11
-1.4921909506
21
-0.9535366955
31
0.0000000000
11
-1.4738058198
21
-0.9331024471
31
0.0000000000
11
-1.4539370706
21
-0.9122377069
31
0.0000000000
11
-1.4327738345
21
-0.8910884294
31
0.0000000000
0
SPLINE
5
3DD
100
AcDbEntity
8
0
100
AcDbSpline
62
9
6
CONTINUOUS
70
0
71
3
72
11
73
7
74
5
42
0.0000001000
43
0.0000001000
44
0.0000000001
12
-0.0878595936
22
0.0341245626
32
0.0000000000
13
-0.0886284758
23
-0.0314460490
33
0.0000000000
40
0.0000000000
40
0.0000000000
40
0.0000000000
40
0.0000000000
40
0.1078641137
40
0.3930326673
40
0.6887018596
40
1.0000000000
40
1.0000000000
40
1.0000000000
40
1.0000000000
10
8.2505410047
20
19.9866319540
30
0.0000000000
10
8.2473820390
20
19.9878588926
30
0.0000000000
10
8.2356755636
20
19.9918237613
30
0.0000000000
10
8.2141949471
20
19.9954072304
30
0.0000000000
10
8.1860712000
20
19.9938525472
30
0.0000000000
10
8.1675341359
20
19.9890153585
30
0.0000000000
10
8.1583375094
20
19.9857523263
30
0.0000000000
11
8.2505410047
21
19.9866319540
31
0.0000000000
11
8.2409149835
21
19.9898905371
31
0.0000000000
11
8.2144756924
21
19.9943801250
31
0.0000000000
11
8.1867055535
21
19.9929829518
31
0.0000000000
11
8.1583375094
21
19.9857523263
31
0.0000000000
0
SPLINE
5
3DE
100
AcDbEntity
8
0
100
AcDbSpline
62
9
6
CONTINUOUS
70
0
71
3
72
13
73
9
74
7
42
0.0000001000
43
0.0000001000
44
0.0000000001
12
0.0520865500
22
-0.0938504416
32
0.0000000000
13
-0.0723578772
23
-0.0800805430
33
0.0000000000
40
0.0000000000
40
0.0000000000
40
0.0000000000
40
0.0000000000
40
0.2627474275
40
0.4902196799
40
0.6816082680
40
0.8406486703
40
0.9778872539
40
1.0000000000
40
1.0000000000
40
1.0000000000
40
1.0000000000
10
8.3367107666
20
19.3154269309
30
0.0000000000
10
8.3412726356
20
19.3072072768
30
0.0000000000
10
8.3491106772
20
19.2914741205
30
0.0000000000
10
8.3572717800
20
19.2684094901
30
0.0000000000
10
8.3608517870
20
19.2479130906
30
0.0000000000
10
8.3596529315
20
19.2302570864
30
0.0000000000
10
8.3547870999
20
19.2195855688
30
0.0000000000
10
8.3511016107
20
19.2151946860
30
0.0000000000
10
8.3505682669
20
19.2146044191
30
0.0000000000
11
8.3367107666
21
19.3154269309
31
0.0000000000
11
8.3491091905
21
19.2900963301
31
0.0000000000
11
8.3569899832
21
19.2669873065
31
0.0000000000
11
8.3601476797
21
19.2466886530
31
0.0000000000
11
8.3585045122
21
19.2296972356
31
0.0000000000
11
8.3521003869
21
19.2164316027
31
0.0000000000
11
8.3505682669
21
19.2146044191
31
0.0000000000
0
SPLINE
5
3DF
100
AcDbEntity
8
0
100
AcDbSpline
62
9
6
CONTINUOUS
70
0
71
3
72
17
73
13
74
11
42
0.0000001000
43
0.0000001000
44
0.0000000001
12
-0.0026747987
22
0.3632994049
32
0.0000000000
13
-0.3391757053
23
0.1302054265
33
0.0000000000
40
0.0000000000
40
0.0000000000
40
0.0000000000
40
0.0000000000
40
0.1024151404
40
0.2081410846
40
0.3157319803
40
0.4236365557
40
0.5302862081
40
0.6341823517
40
0.7339867842
40
0.8286191274
40
0.9173654561
40
1.0000000000
40
1.0000000000
40
1.0000000000
40
1.0000000000
10
8.3322749688
20
19.6874792307
30
0.0000000000
10
8.3321836555
20
19.6998816838
30
0.0000000000
10
8.3305083316
20
19.7250946775
30
0.0000000000
10
8.3239083130
20
19.7628223139
30
0.0000000000
10
8.3133322273
20
19.8003270839
30
0.0000000000
10
8.2990365172
20
19.8366955638
30
0.0000000000
10
8.2813666269
20
19.8710501818
30
0.0000000000
10
8.2607473892
20
19.9025604374
30
0.0000000000
10
8.2376726841
20
19.9304660059
30
0.0000000000
10
8.2126829553
20
19.9540956577
30
0.0000000000
10
8.1863729959
20
19.9728708986
30
0.0000000000
10
8.1676800526
20
19.9821658376
30
0.0000000000
10
8.1583375094
20
19.9857523263
30
0.0000000000
11
8.3322749688
21
19.6874792307
31
0.0000000000
11
8.3298871837
21
19.7246109035
31
0.0000000000
11
8.3233174016
21
19.7624561053
31
0.0000000000
11
8.3127273854
21
19.8000830016
31
0.0000000000
11
8.2983778853
21
19.8365651332
31
0.0000000000
11
8.2806222184
21
19.8710042275
31
0.0000000000
11
8.2598975693
21
19.9025523163
31
0.0000000000
11
8.2367142257
21
19.9304326143
31
0.0000000000
11
8.2116430139
21
19.9539586456
31
0.0000000000
11
8.1853012438
21
19.9725511460
31
0.0000000000
11
8.1583375094
21
19.9857523263
31
0.0000000000
0
SPLINE
5
3E0
100
AcDbEntity
8
0
100
AcDbSpline
62
9
6
CONTINUOUS
70
0
71
3
72
17
73
13
74
11
42
0.0000001000
43
0.0000001000
44
0.0000000001
12
-0.0060003117
22
0.3626118518
32
0.0000000000
13
-0.3375100538
23
0.1327038900
33
0.0000000000
40
0.0000000000
40
0.0000000000
40
0.0000000000
40
0.0000000000
40
0.1023512293
40
0.2081424326
40
0.3158881832
40
0.4239947288
40
0.5308487931
40
0.6349054973
40
0.7347793945
40
0.8293430145
40
0.9178377148
40
1.0000000000
40
1.0000000000
40
1.0000000000
40
1.0000000000
10
6.1380750607
20
18.8890109549
30
0.0000000000
10
6.1378703477
20
18.9013822112
30
0.0000000000
10
6.1359854182
20
18.9265336163
30
0.0000000000
10
6.1291405921
20
18.9641651503
30
0.0000000000
10
6.1183863100
20
19.0015975603
30
0.0000000000
10
6.1039833372
20
19.0379191617
30
0.0000000000
10
6.0862798459
20
19.0722532874
30
0.0000000000
10
6.0657018355
20
19.1037698928
30
0.0000000000
10
6.0427426893
20
19.1317087173
30
0.0000000000
10
6.0179405475
20
19.1553985382
30
0.0000000000
10
5.9918856579
20
19.1742608369
30
0.0000000000
10
5.9733811338
20
19.1836496323
30
0.0000000000
10
5.9641376014
20
19.1872840505
30
0.0000000000
11
6.1380750607
21
18.8890109549
31
0.0000000000
11
6.1353817829
21
18.9260319659
31
0.0000000000
11
6.1285662241
21
18.9637881374
31
0.0000000000
11
6.1177961986
21
19.0013498270
31
0.0000000000
11
6.1033368889
21
19.0377921811
31
0.0000000000
11
6.0855443159
21
19.0722179066
31
0.0000000000
11
6.0648565729
21
19.1037793643
31
0.0000000000
11
6.0417830388
21
19.1316994397
31
0.0000000000
11
6.0168918364
21
19.1552906777
31
0.0000000000
11
5.9907958431
21
19.1739722084
31
0.0000000000
11
5.9641376014
21
19.1872840505
31
0.0000000000
0
SPLINE
5
3E1
100
AcDbEntity
8
0
100
AcDbSpline
62
7
6
CONTINUOUS
70
0
71
3
72
18
73
14
74
12
42
0.0000001000
43
0.0000001000
44
0.0000000001
12
-0.0043278433
22
0.3629976198
32
0.0000000000
13
-0.3383882934
23
0.1314509987
33
0.0000000000
40
0.0000000000
40
0.0000000000
40
0.0000000000
40
0.0000000000
40
0.0929141498
40
0.1887225921
40
0.2863393677
40
0.3845942641
40
0.4822881374
40
0.5782471978
40
0.6713782223
40
0.7607267550
40
0.8455405779
40
0.9253406372
40
1.0000000000
40
1.0000000000
40
1.0000000000
40
1.0000000000
10
7.7876098509
20
19.4920030306
30
0.0000000000
10
7.7874758116
20
19.5032455690
30
0.0000000000
10
7.7859854519
20
19.5260800290
30
0.0000000000
10
7.7803817127
20
19.5603221128
30
0.0000000000
10
7.7714811710
20
19.5945282694
30
0.0000000000
10
7.7594628733
20
19.6280077712
30
0.0000000000
10
7.7445678272
20
19.6600905136
30
0.0000000000
10
7.7270941981
20
19.6901327161
30
0.0000000000
10
7.7073900294
20
19.7175328481
30
0.0000000000
10
7.6858463674
20
19.7417425865
30
0.0000000000
10
7.6628821072
20
19.7622787834
30
0.0000000000
10
7.6389516360
20
19.7787237048
30
0.0000000000
10
7.6220936763
20
19.7870047770
30
0.0000000000
10
7.6136723915
20
19.7902761263
30
0.0000000000
11
7.7876098509
21
19.4920030306
31
0.0000000000
11
7.7854743235
21
19.5256653724
31
0.0000000000
11
7.7798977178
21
19.5599961040
31
0.0000000000
11
7.7709935062
21
19.5942963726
31
0.0000000000
11
7.7589429146
21
19.6278679165
31
0.0000000000
11
7.7439912385
21
19.6600272887
31
0.0000000000
11
7.7264428505
21
19.6901197829
31
0.0000000000
11
7.7066550016
21
19.7175327749
31
0.0000000000
11
7.6850305408
21
19.7417082061
31
0.0000000000
11
7.6620097051
21
19.7621539519
31
0.0000000000
11
7.6380611483
21
19.7784538416
31
0.0000000000
11
7.6136723915
21
19.7902761263
31
0.0000000000
0
SPLINE
5
3E2
100
AcDbEntity
8
0
100
AcDbSpline
62
9
6
CONTINUOUS
70
0
71
3
72
17
73
13
74
11
42
0.0000001000
43
0.0000001000
44
0.0000000001
12
0.3338659401
22
-0.1296942362
32
0.0000000000
13
0.3371967334
23
0.1207701283
33
0.0000000000
40
0.0000000000
40
0.0000000000
40
0.0000000000
40
0.0000000000
40
0.0850213412
40
0.1787169965
40
0.2793939992
40
0.3850714698
40
0.4935804455
40
0.6026495553
40
0.7099919191
40
0.8133696182
40
0.9107082070
40
1.0000000000
40
1.0000000000
40
1.0000000000
40
1.0000000000
10
5.7857774345
20
18.8898952903
30
0.0000000000
10
5.7952393445
20
18.8862196976
30
0.0000000000
10
5.8155709877
20
18.8796160593
30
0.0000000000
10
5.8480896111
20
18.8720503951
30
0.0000000000
10
5.8835059828
20
18.8664790739
30
0.0000000000
10
5.9209641531
20
18.8630429110
30
0.0000000000
10
5.9595610595
20
18.8618280220
30
0.0000000000
10
5.9983616329
20
18.8628653693
30
0.0000000000
10
6.0364245154
20
18.8661290928
30
0.0000000000
10
6.0728306980
20
18.8715378605
30
0.0000000000
10
6.1066799448
20
18.8789514088
30
0.0000000000
10
6.1280387604
20
18.8854163611
30
0.0000000000
10
6.1380750607
20
18.8890109549
30
0.0000000000
11
5.7857774345
21
18.8898952903
31
0.0000000000
11
5.8146903486
21
18.8803358501
31
0.0000000000
11
5.8473513503
21
18.8726238367
31
0.0000000000
11
5.8829615097
21
18.8669479153
31
0.0000000000
11
5.9206499384
21
18.8634468693
31
0.0000000000
11
5.9594949916
21
18.8622062745
31
0.0000000000
11
5.9985463576
21
18.8632563977
31
0.0000000000
11
6.0368501745
21
18.8665715556
31
0.0000000000
11
6.0734666016
21
18.8720701463
31
0.0000000000
11
6.1075037166
21
18.8796179378
31
0.0000000000
11
6.1380750607
21
18.8890109549
31
0.0000000000
0
SPLINE
5
3E3
100
AcDbEntity
8
0
100
AcDbSpline
62
9
6
CONTINUOUS
70
0
71
3
72
17
73
13
74
11
42
0.0000001000
43
0.0000001000
44
0.0000000001
12
0.3338659353
22
-0.1296942344
32
0.0000000000
13
0.3371967286
23
0.1207701265
33
0.0000000000
40
0.0000000000
40
0.0000000000
40
0.0000000000
40
0.0000000000
40
0.0850102413
40
0.1786921599
40
0.2793557191
40
0.3850199248
40
0.4935167664
40
0.6025761183
40
0.7099097198
40
0.8132819524
40
0.9106177967
40
1.0000000000
40
1.0000000000
40
1.0000000000
40
1.0000000000
10
5.7901167694
20
18.5259338135
30
0.0000000000
10
5.7995774439
20
18.5222587008
30
0.0000000000
10
5.8199062058
20
18.5156558380
30
0.0000000000
10
5.8524202497
20
18.5080907036
30
0.0000000000
10
5.8878317220
20
18.5025193669
30
0.0000000000
10
5.9252851761
20
18.4990826355
30
0.0000000000
10
5.9638778422
20
18.4978666709
30
0.0000000000
10
6.0026747886
20
18.4989025007
30
0.0000000000
10
6.0407349493
20
18.5021643265
30
0.0000000000
10
6.0771394084
20
18.5075708690
30
0.0000000000
10
6.1109987066
20
18.5149842842
30
0.0000000000
10
6.1323679334
20
18.5214512448
30
0.0000000000
10
6.1424143956
20
18.5250494781
30
0.0000000000
11
5.7901167694
21
18.5259338135
31
0.0000000000
11
5.8190258511
21
18.5163754483
31
0.0000000000
11
5.8516819476
21
18.5086640734
31
0.0000000000
11
5.8872872293
21
18.5029881433
31
0.0000000000
11
5.9249708336
21
18.4994865352
31
0.0000000000
11
5.9638115032
21
18.4982448538
31
0.0000000000
11
6.0028594137
21
18.4992934385
31
0.0000000000
11
6.0411602495
21
18.5026066372
31
0.0000000000
11
6.0777750360
21
18.5081029646
31
0.0000000000
11
6.1118117016
21
18.5156482396
31
0.0000000000
11
6.1424143956
21
18.5250494781
31
0.0000000000
0
SPLINE
5
3E4
100
AcDbEntity
8
0
100
AcDbSpline
62
9
6
CONTINUOUS
70
0
71
3
72
14
73
10
74
8
42
0.0000001000
43
0.0000001000
44
0.0000000001
12
0.0024070758
22
-0.2018933552
32
0.0000000000
13
0.1882848150
23
-0.0731853228
33
0.0000000000
40
0.0000000000
40
0.0000000000
40
0.0000000000
40
0.0000000000
40
0.1679220986
40
0.3276010357
40
0.4784513909
40
0.6206274731
40
0.7551545643
40
0.8839911619
40
1.0000000000
40
1.0000000000
40
1.0000000000
40
1.0000000000
10
5.7901167694
20
18.5259338135
30
0.0000000000
10
5.7902515031
20
18.5146330282
30
0.0000000000
10
5.7917847983
20
18.4925728716
30
0.0000000000
10
5.7981441187
20
18.4609090700
30
0.0000000000
10
5.8083947994
20
18.4320910646
30
0.0000000000
10
5.8223468291
20
18.4067635430
30
0.0000000000
10
5.8397427537
20
18.3855098011
30
0.0000000000
10
5.8596968756
20
18.3692919348
30
0.0000000000
10
5.8744942380
20
18.3617235350
30
0.0000000000
10
5.8817751389
20
18.3588934869
30
0.0000000000
11
5.7901167694
21
18.5259338135
31
0.0000000000
11
5.7925645679
21
18.4921175246
31
0.0000000000
11
5.7990293252
21
18.4605319140
31
0.0000000000
11
5.8093669437
21
18.4318820589
31
0.0000000000
11
5.8233462130
21
18.4068093628
31
0.0000000000
11
5.8406535409
21
18.3858753308
31
0.0000000000
11
5.8609029380
21
18.3695461125
31
0.0000000000
11
5.8817751389
21
18.3588934869
31
0.0000000000
0
SPLINE
5
3E5
100
AcDbEntity
8
0
100
AcDbSpline
62
7
6
CONTINUOUS
70
0
71
3
72
18
73
14
74
12
42
0.0000001000
43
0.0000001000
44
0.0000000001
12
0.0090298497
22
-0.4679789239
32
0.0000000000
13
0.2379099214
23
-0.4029836685
33
0.0000000000
40
0.0000000000
40
0.0000000000
40
0.0000000000
40
0.0000000000
40
0.0616533785
40
0.1506012516
40
0.2412799596
40
0.3335091369
40
0.4270712876
40
0.5217121161
40
0.6171537895
40
0.7130786099
40
0.8091311133
40
0.9049161815
40
1.0000000000
40
1.0000000000
40
1.0000000000
40
1.0000000000
10
-1.4689088428
20
-8.7072727805
30
0.0000000000
10
-1.4687232692
20
-8.7168902744
30
0.0000000000
10
-1.4676654184
20
-8.7403711789
30
0.0000000000
10
-1.4638265484
20
-8.7778374670
30
0.0000000000
10
-1.4569671419
20
-8.8197095407
30
0.0000000000
10
-1.4476619607
20
-8.8618408109
30
0.0000000000
10
-1.4360718947
20
-8.9040401994
30
0.0000000000
10
-1.4223528278
20
-8.9461214907
30
0.0000000000
10
-1.4066599958
20
-8.9878994770
30
0.0000000000
10
-1.3891520476
20
-9.0291877208
30
0.0000000000
10
-1.3699956322
20
-9.0697956527
30
0.0000000000
10
-1.3493695564
20
-9.1095277622
30
0.0000000000
10
-1.3346888937
20
-9.1354392274
30
0.0000000000
10
-1.3271484325
20
-9.1482116361
30
0.0000000000
11
-1.4689088428
21
-8.7072727805
31
0.0000000000
11
-1.4676328530
21
-8.7360995969
31
0.0000000000
11
-1.4634435242
21
-8.7775132797
31
0.0000000000
11
-1.4566275026
21
-8.8193973156
31
0.0000000000
11
-1.4473555628
21
-8.8615502250
31
0.0000000000
11
-1.4357891274
21
-8.9037792421
31
0.0000000000
11
-1.4220852027
21
-8.9458949566
31
0.0000000000
11
-1.4063987262
21
-8.9877136437
31
0.0000000000
11
-1.3888887361
21
-9.0290478478
31
0.0000000000
11
-1.3697221031
21
-9.0697064812
31
0.0000000000
11
-1.3490774878
21
-9.1094940258
31
0.0000000000
11
-1.3271484325
21
-9.1482116361
31
0.0000000000
0
SPLINE
5
3E6
100
AcDbEntity
8
0
100
AcDbSpline
62
9
6
CONTINUOUS
70
0
71
3
72
14
73
10
74
8
42
0.0000001000
43
0.0000001000
44
0.0000000001
12
0.0024070844
22
-0.2018940769
32
0.0000000000
13
0.1882859181
23
-0.0731843798
33
0.0000000000
40
0.0000000000
40
0.0000000000
40
0.0000000000
40
0.0000000000
40
0.1679214983
40
0.3275998646
40
0.4784496806
40
0.6206252546
40
0.7551518649
40
0.8839880019
40
1.0000000000
40
1.0000000000
40
1.0000000000
40
1.0000000000
10
4.5071033677
20
19.0243357862
30
0.0000000000
10
4.5072381015
20
19.0130350009
30
0.0000000000
10
4.5087713967
20
18.9909748444
30
0.0000000000
10
4.5151307170
20
18.9593110428
30
0.0000000000
10
4.5253813978
20
18.9304930373
30
0.0000000000
10
4.5393334274
20
18.9051655158
30
0.0000000000
10
4.5567293521
20
18.8839117739
30
0.0000000000
10
4.5766836620
20
18.8676937548
30
0.0000000000
10
4.5914812685
20
18.8601252867
30
0.0000000000
10
4.5987624103
20
18.8572951980
30
0.0000000000
11
4.5071033677
21
19.0243357862
31
0.0000000000
11
4.5095511663
21
18.9905194973
31
0.0000000000
11
4.5160159236
21
18.9589338868
31
0.0000000000
11
4.5263535421
21
18.9302840316
31
0.0000000000
11
4.5403328114
21
18.9052113355
31
0.0000000000
11
4.5576401393
21
18.8842773036
31
0.0000000000
11
4.5778895363
21
18.8679480852
31
0.0000000000
11
4.5987624103
21
18.8572951980
31
0.0000000000
0
SPLINE
5
3E7
100
AcDbEntity
8
0
100
AcDbSpline
62
7
6
CONTINUOUS
70
0
71
3
72
18
73
14
74
12
42
0.0000001000
43
0.0000001000
44
0.0000000001
12
-0.2639761913
22
-0.2899205253
32
0.0000000000
13
-0.3679755084
23
0.1356984935
33
0.0000000000
40
0.0000000000
40
0.0000000000
40
0.0000000000
40
0.0000000000
40
0.0910891643
40
0.1854244985
40
0.2820568377
40
0.3799288111
40
0.4779033089
40
0.5747918255
40
0.6693942308
40
0.7605595067
40
0.8472848458
40
0.9288822298
40
1.0000000000
40
1.0000000000
40
1.0000000000
40
1.0000000000
10
6.8815135441
20
18.2522004466
30
0.0000000000
10
6.8734984206
20
18.2433975739
30
0.0000000000
10
6.8564264349
20
18.2261533822
30
0.0000000000
10
6.8284832613
20
18.2020545727
30
0.0000000000
10
6.7980390857
20
18.1796673487
30
0.0000000000
10
6.7655310723
20
18.1594795163
30
0.0000000000
10
6.7314615969
20
18.1419730324
30
0.0000000000
10
6.6964020785
20
18.1276216336
30
0.0000000000
10
6.6609910680
20
18.1168829085
30
0.0000000000
10
6.6259352303
20
18.1101882829
30
0.0000000000
10
6.5919920664
20
18.1079384107
30
0.0000000000
10
6.5606758760
20
18.1104260002
30
0.0000000000
10
6.5412018359
20
18.1154220931
30
0.0000000000
10
6.5324786367
20
18.1186389512
30
0.0000000000
11
6.8815135441
21
18.2522004466
31
0.0000000000
11
6.8564120979
21
18.2267935111
31
0.0000000000
11
6.8284157344
21
18.2026204663
31
0.0000000000
11
6.7978939423
21
18.1801707419
31
0.0000000000
11
6.7652863347
21
18.1599375488
31
0.0000000000
11
6.7311019684
21
18.1424117343
31
0.0000000000
11
6.6959211920
21
18.1280763055
31
0.0000000000
11
6.6603981539
21
18.1173990499
31
0.0000000000
11
6.6252631391
21
18.1108219449
31
0.0000000000
11
6.5913221452
21
18.1087456031
31
0.0000000000
11
6.5594478380
21
18.1115082492
31
0.0000000000
11
6.5324786367
21
18.1186389512
31
0.0000000000
0
SPLINE
5
3E8
100
AcDbEntity
8
0
100
AcDbSpline
62
9
6
CONTINUOUS
70
0
71
3
72
13
73
9
74
7
42
0.0000001000
43
0.0000001000
44
0.0000000001
12
0.0016919888
22
-0.1103448536
32
0.0000000000
13
-0.1030199064
23
-0.0377430630
33
0.0000000000
40
0.0000000000
40
0.0000000000
40
0.0000000000
40
0.0000000000
40
0.0279406075
40
0.1663418635
40
0.3258634035
40
0.5163762871
40
0.7414398078
40
1.0000000000
40
1.0000000000
40
1.0000000000
40
1.0000000000
10
8.4100147121
20
19.7565701880
30
0.0000000000
10
8.4100304705
20
19.7555424873
30
0.0000000000
10
8.4098558837
20
19.7494250410
30
0.0000000000
10
8.4062553625
20
19.7377228686
30
0.0000000000
10
8.3953464775
20
19.7232721272
30
0.0000000000
10
8.3789772617
20
19.7098563369
30
0.0000000000
10
8.3575059773
20
19.6975762722
30
0.0000000000
10
8.3411539177
20
19.6907321819
30
0.0000000000
10
8.3322749688
20
19.6874792307
30
0.0000000000
11
8.4100147121
21
19.7565701880
31
0.0000000000
11
8.4099248892
21
19.7534914402
31
0.0000000000
11
8.4057631463
21
19.7388880236
31
0.0000000000
11
8.3955930754
21
19.7246439741
31
0.0000000000
11
8.3796649050
21
19.7111087814
31
0.0000000000
11
8.3583674069
21
19.6986121326
31
0.0000000000
11
8.3322749688
21
19.6874792307
31
0.0000000000
0
SPLINE
5
3E9
100
AcDbEntity
8
0
100
AcDbSpline
62
9
6
CONTINUOUS
70
0
71
3
72
17
73
13
74
11
42
0.0000001000
43
0.0000001000
44
0.0000000001
12
-0.1179179401
22
-0.3087406208
32
0.0000000000
13
-0.3163889498
23
0.0974882659
33
0.0000000000
40
0.0000000000
40
0.0000000000
40
0.0000000000
40
0.0000000000
40
0.1182391787
40
0.2350132620
40
0.3490850066
40
0.4594021520
40
0.5651891160
40
0.6660398429
40
0.7620050151
40
0.8536565041
40
0.9420976916
40
1.0000000000
40
1.0000000000
40
1.0000000000
40
1.0000000000
10
6.1424143956
20
18.5250494781
30
0.0000000000
10
6.1377668888
20
18.5128810656
30
0.0000000000
10
6.1271392975
20
18.4891990624
30
0.0000000000
10
6.1074060285
20
18.4560929620
30
0.0000000000
10
6.0843819456
20
18.4262656144
30
0.0000000000
10
6.0586153877
20
18.4004440211
30
0.0000000000
10
6.0307124495
20
18.3792549840
30
0.0000000000
10
6.0013258170
20
18.3632250859
30
0.0000000000
10
5.9711452919
20
18.3527716960
30
0.0000000000
10
5.9408871585
20
18.3482010235
30
0.0000000000
10
5.9145231290
20
18.3495215364
30
0.0000000000
10
5.8987301108
20
18.3531828885
30
0.0000000000
10
5.8926235606
20
18.3550644870
30
0.0000000000
11
6.1424143956
21
18.5250494781
31
0.0000000000
11
6.1264003932
21
18.4894043107
31
0.0000000000
11
6.1066059447
21
18.4562742957
31
0.0000000000
11
6.0835166551
21
18.4264721917
31
0.0000000000
11
6.0576989601
21
18.4007291157
31
0.0000000000
11
6.0297862294
21
18.3796766068
31
0.0000000000
11
6.0004632291
21
18.3638311336
31
0.0000000000
11
5.9704493227
21
18.3535814233
31
0.0000000000
11
5.9404808230
21
18.3491789259
31
0.0000000000
11
5.9112929290
21
18.3507316453
31
0.0000000000
11
5.8926235606
21
18.3550644870
31
0.0000000000
0
SPLINE
5
3EA
100
AcDbEntity
8
0
100
AcDbSpline
62
9
6
CONTINUOUS
70
0
71
3
72
8
73
4
74
2
42
0.0000001000
43
0.0000001000
44
0.0000000001
12
-0.0069689964
22
0.0021473423
32
0.0000000000
13
-0.0068329399
23
0.0025210937
33
0.0000000000
40
0.0000000000
40
0.0000000000
40
0.0000000000
40
0.0000000000
40
1.0000000000
40
1.0000000000
40
1.0000000000
40
1.0000000000
10
5.8926235606
20
18.3550644870
30
0.0000000000
10
5.8903005618
20
18.3557802678
30
0.0000000000
10
5.8879981295
20
18.3565587014
30
0.0000000000
10
5.8857204829
20
18.3573990660
30
0.0000000000
11
5.8926235606
21
18.3550644870
31
0.0000000000
11
5.8857204829
21
18.3573990660
31
0.0000000000
0
SPLINE
5
3EB
100
AcDbEntity
8
0
100
AcDbSpline
62
7
6
CONTINUOUS
70
0
71
3
72
11
73
7
74
5
42
0.0000001000
43
0.0000001000
44
0.0000000001
12
-0.1080512657
22
-0.0460026582
32
0.0000000000
13
-0.1162950980
23
-0.0163331188
33
0.0000000000
40
0.0000000000
40
0.0000000000
40
0.0000000000
40
0.0000000000
40
0.2289040360
40
0.4737689455
40
0.7318898288
40
1.0000000000
40
1.0000000000
40
1.0000000000
40
1.0000000000
10
6.8918330288
20
17.3866542258
30
0.0000000000
10
6.8835885719
20
17.3831441611
30
0.0000000000
10
6.8661711650
20
17.3766947599
30
0.0000000000
10
6.8385885130
20
17.3688650021
30
0.0000000000
10
6.8090603535
20
17.3625193383
30
0.0000000000
10
6.7887136873
20
17.3592493025
30
0.0000000000
10
6.7783203877
20
17.3577896108
30
0.0000000000
11
6.8918330288
21
17.3866542258
31
0.0000000000
11
6.8666558196
21
17.3772344191
31
0.0000000000
11
6.8390157477
21
17.3693010850
31
0.0000000000
11
6.8093958911
21
17.3628567075
31
0.0000000000
11
6.7783203877
21
17.3577896108
31
0.0000000000
0
SPLINE
5
3EC
100
AcDbEntity
8
0
100
AcDbSpline
62
7
6
CONTINUOUS
70
0
71
3
72
14
73
10
74
8
42
0.0000001000
43
0.0000001000
44
0.0000000001
12
-0.2392848096
22
-0.0336064657
32
0.0000000000
13
-0.2252357561
23
0.0874955359
33
0.0000000000
40
0.0000000000
40
0.0000000000
40
0.0000000000
40
0.0000000000
40
0.1533034719
40
0.3079404822
40
0.4602372251
40
0.6085618629
40
0.7490542893
40
0.8804372881
40
1.0000000000
40
1.0000000000
40
1.0000000000
40
1.0000000000
10
6.7783203877
20
17.3577896108
30
0.0000000000
10
6.7660926570
20
17.3560722815
30
0.0000000000
10
6.7414155546
20
17.3533992318
30
0.0000000000
10
6.7043663136
20
17.3516420459
30
0.0000000000
10
6.6676774935
20
17.3521303981
30
0.0000000000
10
6.6322272156
20
17.3548493702
30
0.0000000000
10
6.5987074971
20
17.3597429606
30
0.0000000000
10
6.5679204804
20
17.3666869729
30
0.0000000000
10
6.5486448965
20
17.3729049573
30
0.0000000000
10
6.5396682973
20
17.3763920251
30
0.0000000000
11
6.7783203877
21
17.3577896108
31
0.0000000000
11
6.7414946106
21
17.3537819056
31
0.0000000000
11
6.7041710117
21
17.3520141350
31
0.0000000000
11
6.6673746392
21
17.3525274670
31
0.0000000000
11
6.6316430638
21
17.3553152284
31
0.0000000000
11
6.5980621287
21
17.3602914630
31
0.0000000000
11
6.5671173182
21
17.3673808077
31
0.0000000000
11
6.5396682973
21
17.3763920251
31
0.0000000000
0
SPLINE
5
3ED
100
AcDbEntity
8
0
100
AcDbSpline
62
9
6
CONTINUOUS
70
0
71
3
72
17
73
13
74
11
42
0.0000001000
43
0.0000001000
44
0.0000000001
12
-0.0043673419
22
0.3663105637
32
0.0000000000
13
0.3436094593
23
0.1270237862
33
0.0000000000
40
0.0000000000
40
0.0000000000
40
0.0000000000
40
0.0000000000
40
0.1007572922
40
0.2049059533
40
0.3110138821
40
0.4177209525
40
0.5236145389
40
0.6273416994
40
0.7276778879
40
0.8236207303
40
0.9144842106
40
1.0000000000
40
1.0000000000
40
1.0000000000
40
1.0000000000
10
4.5027640329
20
19.3882972630
30
0.0000000000
10
4.5026173524
20
19.4006000832
30
0.0000000000
10
4.5038878738
20
19.4256590667
30
0.0000000000
10
4.5101227105
20
19.4631964492
30
0.0000000000
10
4.5205790225
20
19.5005403206
30
0.0000000000
10
4.5350012746
20
19.5367653233
30
0.0000000000
10
4.5530436946
20
19.5710041069
30
0.0000000000
10
4.5742752698
20
19.6024333235
30
0.0000000000
10
4.5981908758
20
19.6302984997
30
0.0000000000
10
4.6242316225
20
19.6539310097
30
0.0000000000
10
4.6517779753
20
19.6727533601
30
0.0000000000
10
4.6713295217
20
19.6820651769
30
0.0000000000
10
4.6811241997
20
19.6856860233
30
0.0000000000
11
4.5027640329
21
19.3882972630
31
0.0000000000
11
4.5045528584
21
19.4251649752
31
0.0000000000
11
4.5107511087
21
19.4628116041
31
0.0000000000
11
4.5212080354
21
19.5002498765
31
0.0000000000
11
4.5356692604
21
19.5365673131
31
0.0000000000
11
4.5537803758
21
19.5708727175
31
0.0000000000
11
4.5750990500
21
19.6023281195
31
0.0000000000
11
4.5991038774
21
19.6301639225
31
0.0000000000
11
4.6252079023
21
19.6536993812
31
0.0000000000
11
4.6527727702
21
19.6723588831
31
0.0000000000
11
4.6811241997
21
19.6856860233
31
0.0000000000
0
SPLINE
5
3EE
100
AcDbEntity
8
0
100
AcDbSpline
62
9
6
CONTINUOUS
70
0
71
3
72
17
73
13
74
11
42
0.0000001000
43
0.0000001000
44
0.0000000001
12
-0.0043673426
22
0.3663106227
32
0.0000000000
13
0.3436095146
23
0.1270238067
33
0.0000000000
40
0.0000000000
40
0.0000000000
40
0.0000000000
40
0.0000000000
40
0.1009564627
40
0.2051212761
40
0.3112429828
40
0.4179521861
40
0.5238450619
40
0.6275649251
40
0.7278915934
40
0.8238149277
40
0.9146587859
40
1.0000000000
40
1.0000000000
40
1.0000000000
40
1.0000000000
10
5.7857774345
20
18.8898952903
30
0.0000000000
10
5.7856304640
20
18.9022224318
30
0.0000000000
10
5.7869054122
20
18.9273078807
30
0.0000000000
10
5.7931531379
20
18.9648714894
30
0.0000000000
10
5.8036188805
20
19.0022168236
30
0.0000000000
10
5.8180500884
20
19.0384402664
30
0.0000000000
10
5.8361001997
20
19.0726742077
30
0.0000000000
10
5.8573382775
20
19.1040964653
30
0.0000000000
10
5.8812582727
20
19.1319520710
30
0.0000000000
10
5.9073011802
20
19.1555733333
30
0.0000000000
10
5.9348316153
20
19.1743728092
30
0.0000000000
10
5.9543629170
20
19.1836705953
30
0.0000000000
10
5.9641376014
20
19.1872840505
30
0.0000000000
11
5.7857774345
21
18.8898952903
31
0.0000000000
11
5.7875740505
21
18.9268356794
31
0.0000000000
11
5.7937816310
21
18.9644867743
31
0.0000000000
11
5.8042483570
21
19.0019275557
31
0.0000000000
11
5.8187182147
21
19.0382424015
31
0.0000000000
11
5.8368372991
21
19.0725433103
31
0.0000000000
11
5.8581622299
21
19.1039912485
31
0.0000000000
11
5.8821720826
21
19.1318181186
31
0.0000000000
11
5.9082773889
21
19.1553414899
31
0.0000000000
11
5.9358418633
21
19.1739887569
31
0.0000000000
11
5.9641376014
21
19.1872840505
31
0.0000000000
0
SPLINE
5
3EF
100
AcDbEntity
8
0
100
AcDbSpline
62
9
6
CONTINUOUS
70
0
71
3
72
12
73
8
74
6
42
0.0000001000
43
0.0000001000
44
0.0000000001
12
0.0823553564
22
0.0301722602
32
0.0000000000
13
-0.0006580610
23
0.0884380607
33
0.0000000000
40
0.0000000000
40
0.0000000000
40
0.0000000000
40
0.0000000000
40
0.2858759512
40
0.5295181467
40
0.7310032695
40
0.8973645256
40
1.0000000000
40
1.0000000000
40
1.0000000000
40
1.0000000000
10
13.3730163082
20
19.3032923678
30
0.0000000000
10
13.3808641135
20
19.3061675423
30
0.0000000000
10
13.3951578703
20
19.3122242281
30
0.0000000000
10
13.4135554730
20
19.3232863666
30
0.0000000000
10
13.4268815248
20
19.3354395181
30
0.0000000000
10
13.4340352311
20
19.3475699503
30
0.0000000000
10
13.4352175073
20
19.3555368001
30
0.0000000000
10
13.4351949938
20
19.3585624275
30
0.0000000000
11
13.3730163082
21
19.3032923678
31
0.0000000000
11
13.3960160573
21
19.3132775383
31
0.0000000000
11
13.4141664072
21
19.3245566923
31
0.0000000000
11
13.4269199361
21
19.3367896458
31
0.0000000000
11
13.4338919923
21
19.3496074481
31
0.0000000000
11
13.4351949938
21
19.3585624275
31
0.0000000000
0
SPLINE
5
3F0
100
AcDbEntity
8
0
100
AcDbSpline
62
9
6
CONTINUOUS
70
0
71
3
72
13
73
9
74
7
42
0.0000001000
43
0.0000001000
44
0.0000000001
12
0.0016914965
22
-0.1103433806
32
0.0000000000
13
-0.1030199420
23
-0.0377430761
33
0.0000000000
40
0.0000000000
40
0.0000000000
40
0.0000000000
40
0.0000000000
40
0.0277921699
40
0.1661495515
40
0.3255995810
40
0.5160357938
40
0.7410118145
40
1.0000000000
40
1.0000000000
40
1.0000000000
40
1.0000000000
10
8.4144505867
20
19.3845179082
30
0.0000000000
10
8.4144662569
20
19.3834956809
30
0.0000000000
10
8.4142932044
20
19.3773853793
30
0.0000000000
10
8.4107015070
20
19.3656908249
30
0.0000000000
10
8.3998028196
20
19.3512410561
30
0.0000000000
10
8.3834444420
20
19.3378255180
30
0.0000000000
10
8.3619677029
20
19.3255353877
30
0.0000000000
10
8.3456044158
20
19.3186852678
30
0.0000000000
10
8.3367107666
20
19.3154269309
30
0.0000000000
11
8.4144505867
21
19.3845179082
31
0.0000000000
11
8.4143619236
21
19.3814555090
31
0.0000000000
11
8.4102083931
21
19.3668547537
31
0.0000000000
11
8.4000487809
21
19.3526128717
31
0.0000000000
11
8.3841314046
21
19.3390779578
31
0.0000000000
11
8.3628453109
21
19.3265808274
31
0.0000000000
11
8.3367107666
21
19.3154269309
31
0.0000000000
0
SPLINE
5
3F1
100
AcDbEntity
8
0
100
AcDbSpline
62
9
6
CONTINUOUS
70
0
71
3
72
14
73
10
74
8
42
0.0000001000
43
0.0000001000
44
0.0000000001
12
-0.0030451281
22
0.2554099579
32
0.0000000000
13
0.1712678909
23
0.1895015275
33
0.0000000000
40
0.0000000000
40
0.0000000000
40
0.0000000000
40
0.0000000000
40
0.1380740023
40
0.2806470275
40
0.4259405789
40
0.5722586825
40
0.7178334158
40
0.8609401145
40
1.0000000000
40
1.0000000000
40
1.0000000000
40
1.0000000000
10
5.0342402861
20
-25.1892447404
30
0.0000000000
10
5.0341001351
20
-25.1774895820
30
0.0000000000
10
5.0352470283
20
-25.1535609872
30
0.0000000000
10
5.0409338399
20
-25.1176788395
30
0.0000000000
10
5.0504983966
20
-25.0819016317
30
0.0000000000
10
5.0637262974
20
-25.0470408329
30
0.0000000000
10
5.0803280315
20
-25.0138596890
30
0.0000000000
10
5.0999351031
20
-24.9830936929
30
0.0000000000
10
5.1149999773
20
-24.9643022077
30
0.0000000000
10
5.1229388084
20
-24.9555181875
30
0.0000000000
11
5.0342402861
21
-25.1892447404
31
0.0000000000
11
5.0358579882
21
-25.1540138795
31
0.0000000000
11
5.0415102666
21
-25.1180380380
31
0.0000000000
11
5.0510714729
21
-25.0821787557
31
0.0000000000
11
5.0643288087
21
-25.0472353625
31
0.0000000000
11
5.0809855456
21
-25.0139909047
31
0.0000000000
11
5.1006686794
21
-24.9831894327
31
0.0000000000
11
5.1229388084
21
-24.9555181875
31
0.0000000000
0
SPLINE
5
3F2
100
AcDbEntity
8
0
100
AcDbSpline
62
9
6
CONTINUOUS
70
0
71
3
72
14
73
10
74
8
42
0.0000001000
43
0.0000001000
44
0.0000000001
12
-0.0030451281
22
0.2554099579
32
0.0000000000
13
0.1712678909
23
0.1895015275
33
0.0000000000
40
0.0000000000
40
0.0000000000
40
0.0000000000
40
0.0000000000
40
0.1380740023
40
0.2806470275
40
0.4259405789
40
0.5722586825
40
0.7178334158
40
0.8609401145
40
1.0000000000
40
1.0000000000
40
1.0000000000
40
1.0000000000
10
6.3172536878
20
-25.6876467131
30
0.0000000000
10
6.3171135367
20
-25.6758915548
30
0.0000000000
10
6.3182604299
20
-25.6519629600
30
0.0000000000
10
6.3239472415
20
-25.6160808123
30
0.0000000000
10
6.3335117982
20
-25.5803036044
30
0.0000000000
10
6.3467396990
20
-25.5454428056
30
0.0000000000
10
6.3633414332
20
-25.5122616617
30
0.0000000000
10
6.3829485047
20
-25.4814956657
30
0.0000000000
10
6.3980133789
20
-25.4627041805
30
0.0000000000
10
6.4059522100
20
-25.4539201603
30
0.0000000000
11
6.3172536878
21
-25.6876467131
31
0.0000000000
11
6.3188713898
21
-25.6524158523
31
0.0000000000
11
6.3245236682
21
-25.6164400108
31
0.0000000000
11
6.3340848745
21
-25.5805807285
31
0.0000000000
11
6.3473422103
21
-25.5456373352
31
0.0000000000
11
6.3639989472
21
-25.5123928774
31
0.0000000000
11
6.3836820810
21
-25.4815914054
31
0.0000000000
11
6.4059522100
21
-25.4539201603
31
0.0000000000
0
SPLINE
5
3F3
100
AcDbEntity
8
0
100
AcDbSpline
62
9
6
CONTINUOUS
70
0
71
3
72
8
73
4
74
2
42
0.0000001000
43
0.0000001000
44
0.0000000001
12
0.0016835939
22
0.0009925137
32
0.0000000000
13
0.0016674544
23
0.0010193159
33
0.0000000000
40
0.0000000000
40
0.0000000000
40
0.0000000000
40
0.0000000000
40
1.0000000000
40
1.0000000000
40
1.0000000000
40
1.0000000000
10
13.2967766512
20
19.0902003470
30
0.0000000000
10
13.2973378492
20
19.0905311849
30
0.0000000000
10
13.2978963937
20
19.0908665150
30
0.0000000000
10
13.2984522118
20
19.0912062870
30
0.0000000000
11
13.2967766512
21
19.0902003470
31
0.0000000000
11
13.2984522118
21
19.0912062870
31
0.0000000000
0
SPLINE
5
3F4
100
AcDbEntity
8
0
100
AcDbSpline
62
9
6
CONTINUOUS
70
0
71
3
72
14
73
10
74
8
42
0.0000001000
43
0.0000001000
44
0.0000000001
12
0.2019756534
22
0.1234678376
32
0.0000000000
13
-0.0214442183
23
0.2351059755
33
0.0000000000
40
0.0000000000
40
0.0000000000
40
0.0000000000
40
0.0000000000
40
0.0409757853
40
0.1733806101
40
0.3140185631
40
0.4660355681
40
0.6310720657
40
0.8093246593
40
1.0000000000
40
1.0000000000
40
1.0000000000
40
1.0000000000
10
13.2984522118
20
19.0912062870
30
0.0000000000
10
13.3012109155
20
19.0928926842
30
0.0000000000
10
13.3125996213
20
19.1004913270
30
0.0000000000
10
13.3307598066
20
19.1176020895
30
0.0000000000
10
13.3494342328
20
19.1456551875
30
0.0000000000
10
13.3632382961
20
19.1791332141
30
0.0000000000
10
13.3719684863
20
19.2172766119
30
0.0000000000
10
13.3754971285
20
19.2592640947
30
0.0000000000
10
13.3743789459
20
19.2883495213
30
0.0000000000
10
13.3730159847
20
19.3032924920
30
0.0000000000
11
13.2984522118
21
19.0912062870
31
0.0000000000
11
13.3065179354
21
19.0965875871
31
0.0000000000
11
13.3293913394
21
19.1178923767
31
0.0000000000
11
13.3480034333
21
19.1453872484
31
0.0000000000
11
13.3619320312
21
19.1784625596
31
0.0000000000
11
13.3708614001
21
19.2163876730
31
0.0000000000
11
13.3745848493
21
19.2583048383
31
0.0000000000
11
13.3730159847
21
19.3032924920
31
0.0000000000
0
SPLINE
5
3F5
100
AcDbEntity
8
0
100
AcDbSpline
62
9
6
CONTINUOUS
70
0
71
3
72
12
73
8
74
6
42
0.0000001000
43
0.0000001000
44
0.0000000001
12
-0.0890492924
22
0.0345922677
32
0.0000000000
13
-0.0065267681
23
0.0959602338
33
0.0000000000
40
0.0000000000
40
0.0000000000
40
0.0000000000
40
0.0000000000
40
0.2814108639
40
0.5230703015
40
0.7260607535
40
0.8971757311
40
1.0000000000
40
1.0000000000
40
1.0000000000
40
1.0000000000
10
5.0385796210
20
-25.5532062172
30
0.0000000000
10
5.0302264749
20
-25.5499613372
30
0.0000000000
10
5.0149754382
20
-25.5431502793
30
0.0000000000
10
4.9952926313
20
-25.5308331534
30
0.0000000000
10
4.9808476486
20
-25.5173304487
30
0.0000000000
10
4.9728898809
20
-25.5040533649
30
0.0000000000
10
4.9710910840
20
-25.4953518558
30
0.0000000000
10
4.9708673806
20
-25.4920628422
30
0.0000000000
11
5.0385796210
21
-25.5532062172
31
0.0000000000
11
5.0141264381
21
-25.5420356974
31
0.0000000000
11
4.9947237919
21
-25.5295251967
31
0.0000000000
11
4.9808459147
21
-25.5159804920
31
0.0000000000
11
4.9728320045
21
-25.5017326381
31
0.0000000000
11
4.9708673806
21
-25.4920628422
31
0.0000000000
0
SPLINE
5
3F6
100
AcDbEntity
8
0
100
AcDbSpline
62
9
6
CONTINUOUS
70
0
71
3
72
8
73
4
74
2
42
0.0000001000
43
0.0000001000
44
0.0000000001
12
-0.0001271193
22
0.0018689804
32
0.0000000000
13
-0.0000286856
23
0.0018712796
33
0.0000000000
40
0.0000000000
40
0.0000000000
40
0.0000000000
40
0.0000000000
40
1.0000000000
40
1.0000000000
40
1.0000000000
40
1.0000000000
10
4.9708673806
20
-25.4920628422
30
0.0000000000
10
4.9708250075
20
-25.4914398487
30
0.0000000000
10
4.9707988330
20
-25.4908160349
30
0.0000000000
10
4.9707892711
20
-25.4901922750
30
0.0000000000
11
4.9708673806
21
-25.4920628422
31
0.0000000000
11
4.9707892711
21
-25.4901922750
31
0.0000000000
0
SPLINE
5
3F7
100
AcDbEntity
8
0
100
AcDbSpline
62
9
6
CONTINUOUS
70
0
71
3
72
12
73
8
74
6
42
0.0000001000
43
0.0000001000
44
0.0000000001
12
-0.0907836711
22
0.0352660079
32
0.0000000000
13
-0.0015015069
23
0.0979495654
33
0.0000000000
40
0.0000000000
40
0.0000000000
40
0.0000000000
40
0.0000000000
40
0.2760346439
40
0.5130772934
40
0.7121897099
40
0.8800356176
40
1.0000000000
40
1.0000000000
40
1.0000000000
40
1.0000000000
10
5.0342402861
20
-25.1892447404
30
0.0000000000
10
5.0258871400
20
-25.1859998604
30
0.0000000000
10
5.0106361033
20
-25.1791888025
30
0.0000000000
10
4.9909532964
20
-25.1668716767
30
0.0000000000
10
4.9765083138
20
-25.1533689719
30
0.0000000000
10
4.9682255707
20
-25.1395496853
30
0.0000000000
10
4.9665099787
20
-25.1301476179
30
0.0000000000
10
4.9664499363
20
-25.1262307982
30
0.0000000000
11
5.0342402861
21
-25.1892447404
31
0.0000000000
11
5.0097871033
21
-25.1780742206
31
0.0000000000
11
4.9903844571
21
-25.1655637199
31
0.0000000000
11
4.9765065798
21
-25.1520190152
31
0.0000000000
11
4.9684926696
21
-25.1377711613
31
0.0000000000
11
4.9664499363
21
-25.1262307982
31
0.0000000000
0
SPLINE
5
3F8
100
AcDbEntity
8
0
100
AcDbSpline
62
9
6
CONTINUOUS
70
0
71
3
72
14
73
10
74
8
42
0.0000001000
43
0.0000001000
44
0.0000000001
12
0.0024068273
22
-0.2018725085
32
0.0000000000
13
0.1885978622
23
-0.0733018079
33
0.0000000000
40
0.0000000000
40
0.0000000000
40
0.0000000000
40
0.0000000000
40
0.1751455445
40
0.3415617472
40
0.4982963709
40
0.6456513262
40
0.7849629732
40
0.9186707988
40
1.0000000000
40
1.0000000000
40
1.0000000000
40
1.0000000000
10
6.3215930226
20
-26.0516081899
30
0.0000000000
10
6.3217335376
20
-26.0633938801
30
0.0000000000
10
6.3233885787
20
-26.0863940317
30
0.0000000000
10
6.3303022806
20
-26.1193190937
30
0.0000000000
10
6.3414637635
20
-26.1490971967
30
0.0000000000
10
6.3566485261
20
-26.1749767645
30
0.0000000000
10
6.3755488310
20
-26.1962941062
30
0.0000000000
10
6.3949929418
20
-26.2104433459
30
0.0000000000
10
6.4081387558
20
-26.2166591536
30
0.0000000000
10
6.4132515936
20
-26.2186463461
30
0.0000000000
11
6.3215930226
21
-26.0516081899
31
0.0000000000
11
6.3242417944
21
-26.0868684244
31
0.0000000000
11
6.3312805612
21
-26.1197200692
31
0.0000000000
11
6.3425364308
21
-26.1492930865
31
0.0000000000
11
6.3577355482
21
-26.1748663446
31
0.0000000000
11
6.3765053947
21
-26.1958119694
31
0.0000000000
11
6.3983875472
21
-26.2116182805
31
0.0000000000
11
6.4132515936
21
-26.2186463461
31
0.0000000000
0
SPLINE
5
3F9
100
AcDbEntity
8
0
100
AcDbSpline
62
9
6
CONTINUOUS
70
0
71
3
72
10
73
6
74
4
42
0.0000001000
43
0.0000001000
44
0.0000000001
12
-0.0331409325
22
1.4799419967
32
0.0000000000
13
-0.0293746547
23
1.4800215419
33
0.0000000000
40
0.0000000000
40
0.0000000000
40
0.0000000000
40
0.0000000000
40
0.3332336060
40
0.6665669062
40
1.0000000000
40
1.0000000000
40
1.0000000000
40
1.0000000000
10
-3.2130735851
20
-9.8834418355
30
0.0000000000
10
-3.2167548093
20
-9.7190530327
30
0.0000000000
10
-3.2239787457
20
-9.3902231026
30
0.0000000000
10
-3.2343976749
20
-8.8968953862
30
0.0000000000
10
-3.2410657230
20
-8.5679552591
30
0.0000000000
10
-3.2443305503
20
-8.4034592052
30
0.0000000000
11
-3.2130735851
21
-9.8834418355
31
0.0000000000
11
-3.2239079304
21
-9.3902707841
31
0.0000000000
11
-3.2343269201
21
-8.8969431715
31
0.0000000000
11
-3.2443305503
21
-8.4034592052
31
0.0000000000
0
SPLINE
5
3FA
100
AcDbEntity
8
0
100
AcDbSpline
62
9
6
CONTINUOUS
70
0
71
3
72
17
73
13
74
11
42
0.0000001000
43
0.0000001000
44
0.0000000001
12
0.1141768984
22
0.3028217899
32
0.0000000000
13
-0.2829401114
23
0.1587585784
33
0.0000000000
40
0.0000000000
40
0.0000000000
40
0.0000000000
40
0.0000000000
40
0.1207661487
40
0.2403777057
40
0.3574776734
40
0.4709900594
40
0.5800853616
40
0.6843000634
40
0.7836130172
40
0.8785148349
40
0.9700240120
40
1.0000000000
40
1.0000000000
40
1.0000000000
40
1.0000000000
10
8.8638476850
20
-24.8981535958
30
0.0000000000
10
8.8684439197
20
-24.8859633887
30
0.0000000000
10
8.8762025266
20
-24.8611484309
30
0.0000000000
10
8.8833779534
20
-24.8231714523
30
0.0000000000
10
8.8859033863
20
-24.7853782053
30
0.0000000000
10
8.8837057610
20
-24.7486928108
30
0.0000000000
10
8.8768245993
20
-24.7139937212
30
0.0000000000
10
8.8654023443
20
-24.6821174336
30
0.0000000000
10
8.8496825424
20
-24.6538423219
30
0.0000000000
10
8.8300020911
20
-24.6298798571
30
0.0000000000
10
8.8118337720
20
-24.6149800923
30
0.0000000000
10
8.8005990254
20
-24.6081500011
30
0.0000000000
10
8.7977718889
20
-24.6065636860
30
0.0000000000
11
8.8638476850
21
-24.8981535958
31
0.0000000000
11
8.8754993169
21
-24.8608470523
31
0.0000000000
11
8.8826510155
21
-24.8228033499
31
0.0000000000
11
8.8851158273
21
-24.7849863419
31
0.0000000000
11
8.8828329382
21
-24.7483211501
31
0.0000000000
11
8.8758580048
21
-24.7137102801
31
0.0000000000
11
8.8643620753
21
-24.6820027807
31
0.0000000000
11
8.8486272687
21
-24.6539769458
31
0.0000000000
11
8.8290396851
21
-24.6303204715
31
0.0000000000
11
8.8060802951
21
-24.6116140549
31
0.0000000000
11
8.7977718889
21
-24.6065636860
31
0.0000000000
0
SPLINE
5
3FB
100
AcDbEntity
8
0
100
AcDbSpline
62
9
6
CONTINUOUS
70
0
71
3
72
8
73
4
74
2
42
0.0000001000
43
0.0000001000
44
0.0000000001
12
-0.0151642653
22
0.0085087166
32
0.0000000000
13
-0.0160824406
23
0.0065154301
33
0.0000000000
40
0.0000000000
40
0.0000000000
40
0.0000000000
40
0.0000000000
40
1.0000000000
40
1.0000000000
40
1.0000000000
40
1.0000000000
10
8.7977718889
20
-24.6065636860
30
0.0000000000
10
8.7927171338
20
-24.6037274471
30
0.0000000000
10
8.7874865365
20
-24.6012076312
30
0.0000000000
10
8.7821257229
20
-24.5990358212
30
0.0000000000
11
8.7977718889
21
-24.6065636860
31
0.0000000000
11
8.7821257229
21
-24.5990358212
31
0.0000000000
0
SPLINE
5
3FC
100
AcDbEntity
8
0
100
AcDbSpline
62
9
6
CONTINUOUS
70
0
71
3
72
8
73
4
74
2
42
0.0000001000
43
0.0000001000
44
0.0000000001
12
-0.0018086124
22
0.0007327176
32
0.0000000000
13
-0.0018182987
23
0.0007061755
33
0.0000000000
40
0.0000000000
40
0.0000000000
40
0.0000000000
40
0.0000000000
40
1.0000000000
40
1.0000000000
40
1.0000000000
40
1.0000000000
10
8.7821257229
20
-24.5990358212
30
0.0000000000
10
8.7815228522
20
-24.5987915820
30
0.0000000000
10
8.7809183345
20
-24.5985517440
30
0.0000000000
10
8.7803122349
20
-24.5983163521
30
0.0000000000
11
8.7821257229
21
-24.5990358212
31
0.0000000000
11
8.7803122349
21
-24.5983163521
31
0.0000000000
0
SPLINE
5
3FD
100
AcDbEntity
8
0
100
AcDbSpline
62
9
6
CONTINUOUS
70
0
71
3
72
10
73
6
74
4
42
0.0000001000
43
0.0000001000
44
0.0000000001
12
-0.0306240879
22
1.2476496687
32
0.0000000000
13
-0.0279405279
23
1.2477126502
33
0.0000000000
40
0.0000000000
40
0.0000000000
40
0.0000000000
40
0.0000000000
40
0.3332487869
40
0.6665821056
40
1.0000000000
40
1.0000000000
40
1.0000000000
40
1.0000000000
10
-3.9712058605
20
-10.8252430520
30
0.0000000000
10
-3.9746076739
20
-10.6866504725
30
0.0000000000
10
-3.9813126994
20
-10.4094277060
30
0.0000000000
10
-3.9910732668
20
-9.9935337087
30
0.0000000000
10
-3.9973823786
20
-9.7162312810
30
0.0000000000
10
-4.0004876692
20
-9.5775613728
30
0.0000000000
11
-3.9712058605
21
-10.8252430520
31
0.0000000000
11
-3.9812621602
21
-10.4094616795
31
0.0000000000
11
-3.9910227643
21
-9.9935677334
31
0.0000000000
11
-4.0004876692
21
-9.5775613728
31
0.0000000000
0
SPLINE
5
3FE
100
AcDbEntity
8
0
100
AcDbSpline
62
7
6
CONTINUOUS
70
0
71
3
72
10
73
6
74
4
42
0.0000001000
43
0.0000001000
44
0.0000000001
12
0.0055980568
22
0.0021381470
32
0.0000000000
13
0.0056342223
23
0.0020409437
33
0.0000000000
40
0.0000000000
40
0.0000000000
40
0.0000000000
40
0.0000000000
40
0.3340100540
40
0.6673426233
40
1.0000000000
40
1.0000000000
40
1.0000000000
40
1.0000000000
10
-7.3840096280
20
-8.7615116612
30
0.0000000000
10
-7.3833863589
20
-8.7612736070
30
0.0000000000
10
-7.3821397196
20
-8.7608015469
30
0.0000000000
10
-7.3802676160
20
-8.7601049419
30
0.0000000000
10
-7.3790181507
20
-8.7596482245
30
0.0000000000
10
-7.3783933955
20
-8.7594219128
30
0.0000000000
11
-7.3840096280
21
-8.7615116612
31
0.0000000000
11
-7.3821377789
21
-8.7608028678
31
0.0000000000
11
-7.3802656849
21
-8.7601062789
31
0.0000000000
11
-7.3783933955
21
-8.7594219128
31
0.0000000000
0
SPLINE
5
3FF
100
AcDbEntity
8
0
100
AcDbSpline
62
9
6
CONTINUOUS
70
0
71
3
72
10
73
6
74
4
42
0.0000001000
43
0.0000001000
44
0.0000000001
12
0.0279405279
22
-1.2477126502
32
0.0000000000
13
0.0306240879
23
-1.2476496687
33
0.0000000000
40
0.0000000000
40
0.0000000000
40
0.0000000000
40
0.0000000000
40
0.3334178940
40
0.6667512129
40
1.0000000000
40
1.0000000000
40
1.0000000000
40
1.0000000000
10
-8.1087350647
20
-7.9816633067
30
0.0000000000
10
-8.1056297740
20
-8.1203332147
30
0.0000000000
10
-8.0993206622
20
-8.3976356423
30
0.0000000000
10
-8.0895600949
20
-8.8135296396
30
0.0000000000
10
-8.0828550694
20
-9.0907524062
30
0.0000000000
10
-8.0794532560
20
-9.2293449858
30
0.0000000000
11
-8.1087350647
21
-7.9816633067
31
0.0000000000
11
-8.0992701598
21
-8.3976696667
31
0.0000000000
11
-8.0895095557
21
-8.8135636130
31
0.0000000000
11
-8.0794532560
21
-9.2293449858
31
0.0000000000
0
SPLINE
5
400
100
AcDbEntity
8
0
100
AcDbSpline
62
7
6
CONTINUOUS
70
0
71
3
72
27
73
23
74
21
42
0.0000001000
43
0.0000001000
44
0.0000000001
12
-0.7872161402
22
-0.3006728671
32
0.0000000000
13
-0.5980106345
23
-0.5937143299
33
0.0000000000
40
0.0000000000
40
0.0000000000
40
0.0000000000
40
0.0000000000
40
0.0497879328
40
0.1024644954
40
0.1570869530
40
0.2128704597
40
0.2691976873
40
0.3255976189
40
0.3817089744
40
0.4372607022
40
0.4920335894
40
0.5458439360
40
0.5985318780
40
0.6499529467
40
0.6999715230
40
0.7484560668
40
0.7952757591
40
0.8403055479
40
0.8834180732
40
0.9244865694
40
0.9633866565
40
1.0000000000
40
1.0000000000
40
1.0000000000
40
1.0000000000
10
-7.3840096280
20
-8.7615116612
30
0.0000000000
10
-7.3970742495
20
-8.7665016213
30
0.0000000000
10
-7.4236999177
20
-8.7774614186
30
0.0000000000
10
-7.4638253308
20
-8.7958368065
30
0.0000000000
10
-7.5048478445
20
-8.8162387603
30
0.0000000000
10
-7.5462043371
20
-8.8382286774
30
0.0000000000
10
-7.5874630450
20
-8.8614356932
30
0.0000000000
10
-7.6283014522
20
-8.8855547049
30
0.0000000000
10
-7.6684830921
20
-8.9103392852
30
0.0000000000
10
-7.7078316531
20
-8.9355890942
30
0.0000000000
10
-7.7462117800
20
-8.9611387666
30
0.0000000000
10
-7.7835127469
20
-8.9868469503
30
0.0000000000
10
-7.8196397840
20
-9.0125895534
30
0.0000000000
10
-7.8545079711
20
-9.0382544430
30
0.0000000000
10
-7.8880379188
20
-9.0637372250
30
0.0000000000
10
-7.9201527563
20
-9.0889378363
30
0.0000000000
10
-7.9507778028
20
-9.1137591169
30
0.0000000000
10
-7.9798395475
20
-9.1381048828
30
0.0000000000
10
-8.0072660503
20
-9.1618790579
30
0.0000000000
10
-8.0329868657
20
-9.1849842422
30
0.0000000000
10
-8.0569351985
20
-9.2073221020
30
0.0000000000
10
-8.0721548664
20
-9.2220990303
30
0.0000000000
10
-8.0794532560
20
-9.2293449858
30
0.0000000000
11
-7.3840096280
21
-8.7615116612
31
0.0000000000
11
-7.4228424134
21
-8.7773947056
31
0.0000000000
11
-7.4632276869
21
-8.7958193303
31
0.0000000000
11
-7.5044610818
21
-8.8162768643
31
0.0000000000
11
-7.5459807449
21
-8.8383188302
31
0.0000000000
11
-7.5873617983
21
-8.8615701840
31
0.0000000000
11
-7.6282923233
21
-8.8857265298
31
0.0000000000
11
-7.6685416601
21
-8.9105412793
31
0.0000000000
11
-7.7079434535
21
-8.9358178450
31
0.0000000000
11
-7.7463666951
21
-8.9613921270
31
0.0000000000
11
-7.7837037123
21
-8.9871237901
31
0.0000000000
11
-7.8198618899
21
-9.0128895564
31
0.0000000000
11
-7.8547579184
21
-9.0385780127
31
0.0000000000
11
-7.8883135306
21
-9.0640853415
31
0.0000000000
11
-7.9204525940
21
-9.0893119235
31
0.0000000000
11
-7.9510992759
21
-9.1141596371
31
0.0000000000
11
-7.9801817474
21
-9.1385336801
31
0.0000000000
11
-8.0076273400
21
-9.1623374624
31
0.0000000000
11
-8.0333650527
21
-9.1854732059
31
0.0000000000
11
-8.0573273621
21
-9.2078420073
31
0.0000000000
11
-8.0794532560
21
-9.2293449858
31
0.0000000000
0
SPLINE
5
401
100
AcDbEntity
8
0
100
AcDbSpline
62
9
6
CONTINUOUS
70
0
71
3
72
11
73
7
74
5
42
0.0000001000
43
0.0000001000
44
0.0000000001
12
0.0269283680
22
-1.2468382247
32
0.0000000000
13
0.0296085380
23
-1.2467774581
33
0.0000000000
40
0.0000000000
40
0.0000000000
40
0.0000000000
40
0.0000000000
40
0.2500714358
40
0.5000952116
40
0.7500713816
40
1.0000000000
40
1.0000000000
40
1.0000000000
40
1.0000000000
10
-7.4122775826
20
-7.5147033131
30
0.0000000000
10
-7.4100329107
20
-7.6186361881
30
0.0000000000
10
-7.4054881935
20
-7.8264809291
30
0.0000000000
10
-7.3985043021
20
-8.1382146413
30
0.0000000000
10
-7.3913542458
20
-8.4498852004
30
0.0000000000
10
-7.3864763017
20
-8.6576432053
30
0.0000000000
10
-7.3840096280
20
-8.7615116612
30
0.0000000000
11
-7.4122775826
21
-7.5147033131
31
0.0000000000
11
-7.4054598416
21
-7.8265001186
31
0.0000000000
11
-7.3984759351
21
-8.1382337935
31
0.0000000000
11
-7.3913258637
21
-8.4499043152
31
0.0000000000
11
-7.3840096280
21
-8.7615116612
31
0.0000000000
0
SPLINE
5
402
100
AcDbEntity
8
0
100
AcDbSpline
62
7
6
CONTINUOUS
70
0
71
3
72
10
73
6
74
4
42
0.0000001000
43
0.0000001000
44
0.0000000001
12
0.0046193536
22
0.0017483727
32
0.0000000000
13
0.0046438620
23
0.0016821951
33
0.0000000000
40
0.0000000000
40
0.0000000000
40
0.0000000000
40
0.0000000000
40
0.3338911501
40
0.6672239585
40
1.0000000000
40
1.0000000000
40
1.0000000000
40
1.0000000000
10
-8.1996916667
20
-7.2088228504
30
0.0000000000
10
-8.1991775463
20
-7.2086282617
30
0.0000000000
10
-8.1981492429
20
-7.2082418412
30
0.0000000000
10
-8.1966053415
20
-7.2076700295
30
0.0000000000
10
-8.1955751285
20
-7.2072940507
30
0.0000000000
10
-8.1950600065
20
-7.2071074527
30
0.0000000000
11
-8.1996916667
21
-7.2088228504
31
0.0000000000
11
-8.1981479255
21
-7.2082427434
31
0.0000000000
11
-8.1966040295
21
-7.2076709407
31
0.0000000000
11
-8.1950600065
21
-7.2071074527
31
0.0000000000
0
SPLINE
5
403
100
AcDbEntity
8
0
100
AcDbSpline
62
7
6
CONTINUOUS
70
0
71
3
72
27
73
23
74
21
42
0.0000001000
43
0.0000001000
44
0.0000000001
12
-0.7884959340
22
-0.2984367271
32
0.0000000000
13
-0.5988389609
23
-0.5934494224
33
0.0000000000
40
0.0000000000
40
0.0000000000
40
0.0000000000
40
0.0000000000
40
0.0497170520
40
0.1023304129
40
0.1568982675
40
0.2126360706
40
0.2689264160
40
0.3252980038
40
0.3813891811
40
0.4369284943
40
0.4916963398
40
0.5455086493
40
0.5982052158
40
0.6496412506
40
0.6996808318
40
0.7481921267
40
0.7950440246
40
0.8401111784
40
0.8832659165
40
0.9243811355
40
0.9633320812
40
1.0000000000
40
1.0000000000
40
1.0000000000
40
1.0000000000
10
-7.4122775826
20
-7.5147033131
30
0.0000000000
10
-7.4253448137
20
-7.5196491112
30
0.0000000000
10
-7.4519791923
20
-7.5305249224
30
0.0000000000
10
-7.4921218853
20
-7.5487856384
30
0.0000000000
10
-7.5331697511
20
-7.5690823752
30
0.0000000000
10
-7.5745585739
20
-7.5909768066
30
0.0000000000
10
-7.6158555972
20
-7.6140980280
30
0.0000000000
10
-7.6567374151
20
-7.6381406902
30
0.0000000000
10
-7.6969667988
20
-7.6628580150
30
0.0000000000
10
-7.7363667865
20
-7.6880492752
30
0.0000000000
10
-7.7748014679
20
-7.7135487212
30
0.0000000000
10
-7.8121596339
20
-7.7392146411
30
0.0000000000
10
-7.8483460866
20
-7.7649226120
30
0.0000000000
10
-7.8832755181
20
-7.7905601976
30
0.0000000000
10
-7.9168681790
20
-7.8160227235
30
0.0000000000
10
-7.9490468549
20
-7.8412098631
30
0.0000000000
10
-7.9797365320
20
-7.8660242011
30
0.0000000000
10
-8.0088633690
20
-7.8903692978
30
0.0000000000
10
-8.0363550931
20
-7.9141488127
30
0.0000000000
10
-8.0621409166
20
-7.9372650614
30
0.0000000000
10
-8.0861536909
20
-7.9596193951
30
0.0000000000
10
-8.1014156719
20
-7.9744097883
30
0.0000000000
10
-8.1087350647
20
-7.9816633067
30
0.0000000000
11
-7.4122775826
21
-7.5147033131
31
0.0000000000
11
-7.4511184243
21
-7.5304611698
31
0.0000000000
11
-7.4915211213
21
-7.5487698422
31
0.0000000000
11
-7.5327801126
21
-7.5691212787
31
0.0000000000
11
-7.5743323899
21
-7.5910671768
31
0.0000000000
11
-7.6157520319
21
-7.6142323572
31
0.0000000000
11
-7.6567262156
21
-7.6383121081
31
0.0000000000
11
-7.6970235113
21
-7.6630594472
31
0.0000000000
11
-7.7364769193
21
-7.6882773634
31
0.0000000000
11
-7.7749548801
21
-7.7138013542
31
0.0000000000
11
-7.8123492420
21
-7.7394907132
31
0.0000000000
11
-7.8485669663
21
-7.7652218244
31
0.0000000000
11
-7.8835243593
21
-7.7908829665
31
0.0000000000
11
-7.9171427978
21
-7.8163700396
31
0.0000000000
11
-7.9493458091
21
-7.8415831597
31
0.0000000000
11
-7.9800572271
21
-7.8664239502
31
0.0000000000
11
-8.0092048980
21
-7.8907973533
31
0.0000000000
11
-8.0367158221
21
-7.9146065155
31
0.0000000000
11
-8.0625186578
21
-7.9377533758
31
0.0000000000
11
-8.0865455303
21
-7.9601387178
31
0.0000000000
11
-8.1087350647
21
-7.9816633067
31
0.0000000000
0
SPLINE
5
404
100
AcDbEntity
8
0
100
AcDbSpline
62
9
6
CONTINUOUS
70
0
71
3
72
10
73
6
74
4
42
0.0000001000
43
0.0000001000
44
0.0000000001
12
0.0293746547
22
-1.4800215419
32
0.0000000000
13
0.0331409325
23
-1.4799419967
33
0.0000000000
40
0.0000000000
40
0.0000000000
40
0.0000000000
40
0.0000000000
40
0.3334330934
40
0.6667663937
40
1.0000000000
40
1.0000000000
40
1.0000000000
40
1.0000000000
10
-8.9274061140
20
-6.1958002137
30
0.0000000000
10
-8.9241412867
20
-6.3602962674
30
0.0000000000
10
-8.9174732386
20
-6.6892363944
30
0.0000000000
10
-8.9070543094
20
-7.1825641107
30
0.0000000000
10
-8.8998303729
20
-7.5113940411
30
0.0000000000
10
-8.8961491488
20
-7.6757828440
30
0.0000000000
11
-8.9274061140
21
-6.1958002137
31
0.0000000000
11
-8.9174024838
21
-6.6892841794
31
0.0000000000
11
-8.9069834941
21
-7.1826117922
31
0.0000000000
11
-8.8961491488
21
-7.6757828440
31
0.0000000000
0
SPLINE
5
405
100
AcDbEntity
8
0
100
AcDbSpline
62
7
6
CONTINUOUS
70
0
71
3
72
27
73
23
74
21
42
0.0000001000
43
0.0000001000
44
0.0000000001
12
-0.7884959340
22
-0.2984367271
32
0.0000000000
13
-0.5988389609
23
-0.5934494224
33
0.0000000000
40
0.0000000000
40
0.0000000000
40
0.0000000000
40
0.0000000000
40
0.0497170520
40
0.1023304129
40
0.1568982675
40
0.2126360706
40
0.2689264160
40
0.3252980038
40
0.3813891811
40
0.4369284943
40
0.4916963398
40
0.5455086493
40
0.5982052158
40
0.6496412506
40
0.6996808318
40
0.7481921267
40
0.7950440246
40
0.8401111784
40
0.8832659165
40
0.9243811355
40
0.9633320812
40
1.0000000000
40
1.0000000000
40
1.0000000000
40
1.0000000000
10
-8.1996916667
20
-7.2088228504
30
0.0000000000
10
-8.2127588979
20
-7.2137686485
30
0.0000000000
10
-8.2393932764
20
-7.2246444597
30
0.0000000000
10
-8.2795359694
20
-7.2429051758
30
0.0000000000
10
-8.3205838352
20
-7.2632019125
30
0.0000000000
10
-8.3619726581
20
-7.2850963439
30
0.0000000000
10
-8.4032696814
20
-7.3082175653
30
0.0000000000
10
-8.4441514993
20
-7.3322602275
30
0.0000000000
10
-8.4843808829
20
-7.3569775523
30
0.0000000000
10
-8.5237808706
20
-7.3821688125
30
0.0000000000
10
-8.5622155520
20
-7.4076682585
30
0.0000000000
10
-8.5995737181
20
-7.4333341784
30
0.0000000000
10
-8.6357601708
20
-7.4590421494
30
0.0000000000
10
-8.6706896022
20
-7.4846797349
30
0.0000000000
10
-8.7042822631
20
-7.5101422608
30
0.0000000000
10
-8.7364609390
20
-7.5353294005
30
0.0000000000
10
-8.7671506161
20
-7.5601437384
30
0.0000000000
10
-8.7962774532
20
-7.5844888351
30
0.0000000000
10
-8.8237691772
20
-7.6082683500
30
0.0000000000
10
-8.8495550007
20
-7.6313845988
30
0.0000000000
10
-8.8735677750
20
-7.6537389324
30
0.0000000000
10
-8.8888297560
20
-7.6685293256
30
0.0000000000
10
-8.8961491488
20
-7.6757828440
30
0.0000000000
11
-8.1996916667
21
-7.2088228504
31
0.0000000000
11
-8.2385325084
21
-7.2245807071
31
0.0000000000
11
-8.2789352054
21
-7.2428893796
31
0.0000000000
11
-8.3201941967
21
-7.2632408160
31
0.0000000000
11
-8.3617464741
21
-7.2851867141
31
0.0000000000
11
-8.4031661160
21
-7.3083518945
31
0.0000000000
11
-8.4441402997
21
-7.3324316454
31
0.0000000000
11
-8.4844375954
21
-7.3571789845
31
0.0000000000
11
-8.5238910035
21
-7.3823969007
31
0.0000000000
11
-8.5623689642
21
-7.4079208915
31
0.0000000000
11
-8.5997633262
21
-7.4336102506
31
0.0000000000
11
-8.6359810504
21
-7.4593413617
31
0.0000000000
11
-8.6709384434
21
-7.4850025039
31
0.0000000000
11
-8.7045568819
21
-7.5104895769
31
0.0000000000
11
-8.7367598933
21
-7.5357026971
31
0.0000000000
11
-8.7674713112
21
-7.5605434875
31
0.0000000000
11
-8.7966189822
21
-7.5849168907
31
0.0000000000
11
-8.8241299062
21
-7.6087260528
31
0.0000000000
11
-8.8499327419
21
-7.6318729132
31
0.0000000000
11
-8.8739596144
21
-7.6542582551
31
0.0000000000
11
-8.8961491488
21
-7.6757828440
31
0.0000000000
0
SPLINE
5
406
100
AcDbEntity
8
0
100
AcDbSpline
62
9
6
CONTINUOUS
70
0
71
3
72
11
73
7
74
5
42
0.0000001000
43
0.0000001000
44
0.0000000001
12
0.0281788253
22
-1.4789793231
32
0.0000000000
13
0.0319403432
23
-1.4789028700
33
0.0000000000
40
0.0000000000
40
0.0000000000
40
0.0000000000
40
0.0000000000
40
0.2500842699
40
0.5001123121
40
0.7500841982
40
1.0000000000
40
1.0000000000
40
1.0000000000
40
1.0000000000
10
-8.2297504239
20
-5.7298809145
30
0.0000000000
10
-8.2274013969
20
-5.8531707359
30
0.0000000000
10
-8.2226255654
20
-6.0997211740
30
0.0000000000
10
-8.2152276041
20
-6.4695006545
30
0.0000000000
10
-8.2075962360
20
-6.8391923052
30
0.0000000000
10
-8.2023524656
20
-7.0856224515
30
0.0000000000
10
-8.1996916667
20
-7.2088228504
30
0.0000000000
11
-8.2297504239
21
-5.7298809145
31
0.0000000000
11
-8.2225858454
21
-6.0997481214
31
0.0000000000
11
-8.2151878590
21
-6.4695275420
31
0.0000000000
11
-8.2075564657
21
-6.8392191328
31
0.0000000000
11
-8.1996916667
21
-7.2088228504
31
0.0000000000
0
SPLINE
5
407
100
AcDbEntity
8
0
100
AcDbSpline
62
7
6
CONTINUOUS
70
0
71
3
72
10
73
6
74
4
42
0.0000001000
43
0.0000001000
44
0.0000000001
12
0.0034578592
22
0.0012946003
32
0.0000000000
13
0.0034715148
23
0.0012575234
33
0.0000000000
40
0.0000000000
40
0.0000000000
40
0.0000000000
40
0.0000000000
40
0.3337503634
40
0.6670833994
40
1.0000000000
40
1.0000000000
40
1.0000000000
40
1.0000000000
10
-10.1469325418
20
-4.9851284837
30
0.0000000000
10
-10.1465478545
20
-4.9849844592
30
0.0000000000
10
-10.1457784491
20
-4.9846979555
30
0.0000000000
10
-10.1446235399
20
-4.9842725805
30
0.0000000000
10
-10.1438530743
20
-4.9839919243
30
0.0000000000
10
-10.1434678326
20
-4.9838523742
30
0.0000000000
11
-10.1469325418
21
-4.9851284837
31
0.0000000000
11
-10.1457777136
21
-4.9846984629
31
0.0000000000
11
-10.1446228067
21
-4.9842730917
31
0.0000000000
11
-10.1434678326
21
-4.9838523742
31
0.0000000000
0
SPLINE
5
408
100
AcDbEntity
8
0
100
AcDbSpline
62
7
6
CONTINUOUS
70
0
71
3
72
27
73
23
74
21
42
0.0000001000
43
0.0000001000
44
0.0000000001
12
-0.7900041825
22
-0.2957724881
32
0.0000000000
13
-0.5998196959
23
-0.5931309346
33
0.0000000000
40
0.0000000000
40
0.0000000000
40
0.0000000000
40
0.0000000000
40
0.0496333739
40
0.1021720793
40
0.1566754071
40
0.2123591798
40
0.2686059075
40
0.3249439619
40
0.3810112535
40
0.4365358568
40
0.4912977084
40
0.5451123065
40
0.5978190400
40
0.6492727427
40
0.6993371358
40
0.7478800415
40
0.7947700045
40
0.8398813298
40
0.8830859772
40
0.9242564444
40
0.9632675351
40
1.0000000000
40
1.0000000000
40
1.0000000000
40
1.0000000000
10
-8.2297504239
20
-5.7298809145
30
0.0000000000
10
-8.2428206149
20
-5.7347743100
30
0.0000000000
10
-8.2694650695
20
-5.7455504522
30
0.0000000000
10
-8.3096279183
20
-5.7636750826
30
0.0000000000
10
-8.3507055222
20
-5.7838469074
30
0.0000000000
10
-8.3921323714
20
-5.8056279341
30
0.0000000000
10
-8.4334745342
20
-5.8286472158
30
0.0000000000
10
-8.4744075507
20
-5.8525991158
30
0.0000000000
10
-8.5146932886
20
-5.8772364431
30
0.0000000000
10
-8.5541540156
20
-5.9023580148
30
0.0000000000
10
-8.5926531629
20
-5.9277976280
30
0.0000000000
10
-8.6300789482
20
-5.9534131465
30
0.0000000000
10
-8.6663356658
20
-5.9790797569
30
0.0000000000
10
-8.7013375478
20
-6.0046846649
30
0.0000000000
10
-8.7350044178
20
-6.0301228654
30
0.0000000000
10
-8.7672586539
20
-6.0552937210
30
0.0000000000
10
-8.7980248472
20
-6.0800995150
30
0.0000000000
10
-8.8272287645
20
-6.1044435065
30
0.0000000000
10
-8.8547977377
20
-6.1282290424
30
0.0000000000
10
-8.8806605737
20
-6.1513581031
30
0.0000000000
10
-8.9047497042
20
-6.1737316674
30
0.0000000000
10
-8.9200618287
20
-6.1885378267
30
0.0000000000
10
-8.9274061140
20
-6.1958002137
30
0.0000000000
11
-8.2297504239
21
-5.7298809145
31
0.0000000000
11
-8.2686004629
21
-5.7454902508
31
0.0000000000
11
-8.3090234749
21
-5.7636613118
31
0.0000000000
11
-8.3503124867
21
-5.7838867861
31
0.0000000000
11
-8.3919031225
21
-5.8057185844
31
0.0000000000
11
-8.4333682247
21
-5.8287813719
31
0.0000000000
11
-8.4743938991
21
-5.8527700663
31
0.0000000000
11
-8.5147478027
21
-5.8774372219
31
0.0000000000
11
-8.5542621718
21
-5.9025853280
31
0.0000000000
11
-8.5928047928
21
-5.9280494075
31
0.0000000000
11
-8.6302669463
21
-5.9536883160
31
0.0000000000
11
-8.6665550903
21
-5.9793780381
31
0.0000000000
11
-8.7015850762
21
-6.0050064896
31
0.0000000000
11
-8.7352778578
21
-6.0304692367
31
0.0000000000
11
-8.7675565590
21
-6.0556660836
31
0.0000000000
11
-8.7983446180
21
-6.0804983524
31
0.0000000000
11
-8.8275694962
21
-6.1048706841
31
0.0000000000
11
-8.8551578000
21
-6.1286859140
31
0.0000000000
11
-8.8810377846
21
-6.1518456476
31
0.0000000000
11
-8.9051411577
21
-6.1742502984
31
0.0000000000
11
-8.9274061140
21
-6.1958002137
31
0.0000000000
0
SPLINE
5
409
100
AcDbEntity
8
0
100
AcDbSpline
62
9
6
CONTINUOUS
70
0
71
3
72
17
73
13
74
11
42
0.0000001000
43
0.0000001000
44
0.0000000001
12
0.3338659310
22
-0.1296942327
32
0.0000000000
13
0.3371967242
23
0.1207701250
33
0.0000000000
40
0.0000000000
40
0.0000000000
40
0.0000000000
40
0.0000000000
40
0.0850014424
40
0.1786729995
40
0.2793237895
40
0.3849747483
40
0.4934586509
40
0.6025069507
40
0.7098313140
40
0.8132042513
40
0.9105426609
40
1.0000000000
40
1.0000000000
40
1.0000000000
40
1.0000000000
10
6.3172536878
20
-25.6876467131
30
0.0000000000
10
6.3267133830
20
-25.6913214454
30
0.0000000000
10
6.3470399208
20
-25.6979237128
30
0.0000000000
10
6.3795501523
20
-25.7054883763
30
0.0000000000
10
6.4149572275
20
-25.7110596599
30
0.0000000000
10
6.4524059647
20
-25.7144968188
30
0.0000000000
10
6.4909941454
20
-25.7157137265
30
0.0000000000
10
6.5297871541
20
-25.7146793200
30
0.0000000000
10
6.5678451093
20
-25.7114192606
30
0.0000000000
10
6.6042491256
20
-25.7060145976
30
0.0000000000
10
6.6381179728
20
-25.6986011029
30
0.0000000000
10
6.6594964068
20
-25.6921323065
30
0.0000000000
10
6.6695513140
20
-25.6885310485
30
0.0000000000
11
6.3172536878
21
-25.6876467131
31
0.0000000000
11
6.3461597315
21
-25.6972042261
31
0.0000000000
11
6.3788121253
21
-25.7049151312
31
0.0000000000
11
6.4144127912
21
-25.7105909611
31
0.0000000000
11
6.4520915908
21
-25.7140929894
31
0.0000000000
11
6.4909275927
21
-25.7153356208
31
0.0000000000
11
6.5299715816
21
-25.7142884833
31
0.0000000000
11
6.5682692587
21
-25.7109771707
31
0.0000000000
11
6.6048845661
21
-25.7054826168
31
0.0000000000
11
6.6389225660
21
-25.6979391176
31
0.0000000000
11
6.6695513140
21
-25.6885310485
31
0.0000000000
0
SPLINE
5
40A
100
AcDbEntity
8
0
100
AcDbSpline
62
9
6
CONTINUOUS
70
0
71
3
72
17
73
13
74
11
42
0.0000001000
43
0.0000001000
44
0.0000000001
12
0.3338659310
22
-0.1296942327
32
0.0000000000
13
0.3371967242
23
0.1207701250
33
0.0000000000
40
0.0000000000
40
0.0000000000
40
0.0000000000
40
0.0000000000
40
0.0850014424
40
0.1786729995
40
0.2793237895
40
0.3849747483
40
0.4934586509
40
0.6025069507
40
0.7098313140
40
0.8132042513
40
0.9105426609
40
1.0000000000
40
1.0000000000
40
1.0000000000
40
1.0000000000
10
6.3215930226
20
-26.0516081899
30
0.0000000000
10
6.3310527178
20
-26.0552829222
30
0.0000000000
10
6.3513792557
20
-26.0618851896
30
0.0000000000
10
6.3838894872
20
-26.0694498531
30
0.0000000000
10
6.4192965624
20
-26.0750211367
30
0.0000000000
10
6.4567452995
20
-26.0784582956
30
0.0000000000
10
6.4953334803
20
-26.0796752033
30
0.0000000000
10
6.5341264889
20
-26.0786407967
30
0.0000000000
10
6.5721844441
20
-26.0753807374
30
0.0000000000
10
6.6085884604
20
-26.0699760744
30
0.0000000000
10
6.6424573077
20
-26.0625625797
30
0.0000000000
10
6.6638357416
20
-26.0560937833
30
0.0000000000
10
6.6738906489
20
-26.0524925253
30
0.0000000000
11
6.3215930226
21
-26.0516081899
31
0.0000000000
11
6.3504990664
21
-26.0611657029
31
0.0000000000
11
6.3831514601
21
-26.0688766080
31
0.0000000000
11
6.4187521260
21
-26.0745524379
31
0.0000000000
11
6.4564309256
21
-26.0780544662
31
0.0000000000
11
6.4952669276
21
-26.0792970976
31
0.0000000000
11
6.5343109165
21
-26.0782499601
31
0.0000000000
11
6.5726085936
21
-26.0749386475
31
0.0000000000
11
6.6092239010
21
-26.0694440936
31
0.0000000000
11
6.6432619009
21
-26.0619005944
31
0.0000000000
11
6.6738906489
21
-26.0524925253
31
0.0000000000
0
SPLINE
5
40B
100
AcDbEntity
8
0
100
AcDbSpline
62
9
6
CONTINUOUS
70
0
71
3
72
17
73
13
74
11
42
0.0000001000
43
0.0000001000
44
0.0000000001
12
-0.1749527875
22
0.3126127714
32
0.0000000000
13
-0.3331452299
23
0.1317174190
33
0.0000000000
40
0.0000000000
40
0.0000000000
40
0.0000000000
40
0.0000000000
40
0.0887351458
40
0.1856831848
40
0.2888893572
40
0.3962378323
40
0.5054492984
40
0.6141885094
40
0.7201347793
40
0.8210654194
40
0.9149395572
40
1.0000000000
40
1.0000000000
40
1.0000000000
40
1.0000000000
10
6.6695513140
20
-25.6885310485
30
0.0000000000
10
6.6643764936
20
-25.6792844685
30
0.0000000000
10
6.6525992236
20
-25.6604602631
30
0.0000000000
10
6.6321284114
20
-25.6326621300
30
0.0000000000
10
6.6084507113
20
-25.6045640765
30
0.0000000000
10
6.5821429657
20
-25.5768598479
30
0.0000000000
10
6.5538412846
20
-25.5502233692
30
0.0000000000
10
6.5242346540
20
-25.5253041298
30
0.0000000000
10
6.4940445218
20
-25.5027073701
30
0.0000000000
10
6.4640044676
20
-25.4829777924
30
0.0000000000
10
6.4348477707
20
-25.4665894598
30
0.0000000000
10
6.4153980370
20
-25.4576548076
30
0.0000000000
10
6.4059522100
20
-25.4539201603
30
0.0000000000
11
6.6695513140
21
-25.6885310485
31
0.0000000000
11
6.6528049131
21
-25.6615114238
31
0.0000000000
11
6.6322835599
21
-25.6334920226
31
0.0000000000
11
6.6085029764
21
-25.6051821609
31
0.0000000000
11
6.5820445329
21
-25.5772743350
31
0.0000000000
11
6.5535591079
21
-25.5504554370
31
0.0000000000
11
6.5237454446
21
-25.5253833634
31
0.0000000000
11
6.4933353066
21
-25.5026735286
31
0.0000000000
11
6.4630748959
21
-25.4828831849
31
0.0000000000
11
6.4337071285
21
-25.4664981424
31
0.0000000000
11
6.4059522100
21
-25.4539201603
31
0.0000000000
0
SPLINE
5
40C
100
AcDbEntity
8
0
100
AcDbSpline
62
9
6
CONTINUOUS
70
0
71
3
72
10
73
6
74
4
42
0.0000001000
43
0.0000001000
44
0.0000000001
12
0.0476674569
22
-8.2577217490
32
0.0000000000
13
0.1638651849
23
-8.2562333344
33
0.0000000000
40
0.0000000000
40
0.0000000000
40
0.0000000000
40
0.0000000000
40
0.3338795660
40
0.6672114231
40
1.0000000000
40
1.0000000000
40
1.0000000000
40
1.0000000000
10
-10.9502136340
20
2.8060754238
30
0.0000000000
10
-10.9449085707
20
1.8870472393
30
0.0000000000
10
-10.9300241793
20
0.0505201689
30
0.0000000000
10
-10.8948259336
20
-2.7018836396
30
0.0000000000
10
-10.8627657191
20
-4.5351877355
30
0.0000000000
10
-10.8445882319
20
-5.4510477829
30
0.0000000000
11
-10.9502136340
21
2.8060754238
31
0.0000000000
11
-10.9278583593
21
0.0490355675
31
0.0000000000
11
-10.8926498110
21
-2.7033468328
31
0.0000000000
11
-10.8445882319
21
-5.4510477829
31
0.0000000000
0
SPLINE
5
40D
100
AcDbEntity
8
0
100
AcDbSpline
62
7
6
CONTINUOUS
70
0
71
3
72
27
73
23
74
21
42
0.0000001000
43
0.0000001000
44
0.0000000001
12
-0.7900041825
22
-0.2957724881
32
0.0000000000
13
-0.5998196959
23
-0.5931309346
33
0.0000000000
40
0.0000000000
40
0.0000000000
40
0.0000000000
40
0.0000000000
40
0.0496333739
40
0.1021720793
40
0.1566754071
40
0.2123591798
40
0.2686059075
40
0.3249439619
40
0.3810112535
40
0.4365358568
40
0.4912977084
40
0.5451123065
40
0.5978190400
40
0.6492727427
40
0.6993371358
40
0.7478800415
40
0.7947700045
40
0.8398813298
40
0.8830859772
40
0.9242564444
40
0.9632675351
40
1.0000000000
40
1.0000000000
40
1.0000000000
40
1.0000000000
10
-10.1469325418
20
-4.9851284837
30
0.0000000000
10
-10.1600027328
20
-4.9900218792
30
0.0000000000
10
-10.1866471873
20
-5.0007980214
30
0.0000000000
10
-10.2268100362
20
-5.0189226517
30
0.0000000000
10
-10.2678876400
20
-5.0390944765
30
0.0000000000
10
-10.3093144893
20
-5.0608755032
30
0.0000000000
10
-10.3506566521
20
-5.0838947850
30
0.0000000000
10
-10.3915896686
20
-5.1078466850
30
0.0000000000
10
-10.4318754064
20
-5.1324840123
30
0.0000000000
10
-10.4713361335
20
-5.1576055839
30
0.0000000000
10
-10.5098352807
20
-5.1830451971
30
0.0000000000
10
-10.5472610661
20
-5.2086607157
30
0.0000000000
10
-10.5835177837
20
-5.2343273261
30
0.0000000000
10
-10.6185196657
20
-5.2599322340
30
0.0000000000
10
-10.6521865357
20
-5.2853704346
30
0.0000000000
10
-10.6844407718
20
-5.3105412902
30
0.0000000000
10
-10.7152069651
20
-5.3353470842
30
0.0000000000
10
-10.7444108823
20
-5.3596910757
30
0.0000000000
10
-10.7719798555
20
-5.3834766115
30
0.0000000000
10
-10.7978426916
20
-5.4066056722
30
0.0000000000
10
-10.8219318221
20
-5.4289792365
30
0.0000000000
10
-10.8372439466
20
-5.4437853958
30
0.0000000000
10
-10.8445882319
20
-5.4510477829
30
0.0000000000
11
-10.1469325418
21
-4.9851284837
31
0.0000000000
11
-10.1857825808
21
-5.0007378199
31
0.0000000000
11
-10.2262055928
21
-5.0189088810
31
0.0000000000
11
-10.2674946046
21
-5.0391343552
31
0.0000000000
11
-10.3090852404
21
-5.0609661535
31
0.0000000000
11
-10.3505503425
21
-5.0840289411
31
0.0000000000
11
-10.3915760169
21
-5.1080176354
31
0.0000000000
11
-10.4319299205
21
-5.1326847910
31
0.0000000000
11
-10.4714442896
21
-5.1578328971
31
0.0000000000
11
-10.5099869107
21
-5.1832969767
31
0.0000000000
11
-10.5474490642
21
-5.2089358851
31
0.0000000000
11
-10.5837372082
21
-5.2346256072
31
0.0000000000
11
-10.6187671940
21
-5.2602540587
31
0.0000000000
11
-10.6524599756
21
-5.2857168058
31
0.0000000000
11
-10.6847386768
21
-5.3109136527
31
0.0000000000
11
-10.7155267359
21
-5.3357459216
31
0.0000000000
11
-10.7447516140
21
-5.3601182533
31
0.0000000000
11
-10.7723399179
21
-5.3839334832
31
0.0000000000
11
-10.7982199025
21
-5.4070932167
31
0.0000000000
11
-10.8223232756
21
-5.4294978675
31
0.0000000000
11
-10.8445882319
21
-5.4510477829
31
0.0000000000
0
SPLINE
5
40E
100
AcDbEntity
8
0
100
AcDbSpline
62
7
6
CONTINUOUS
70
0
71
3
72
18
73
14
74
12
42
0.0000001000
43
0.0000001000
44
0.0000000001
12
0.3529709834
22
-0.1371158198
32
0.0000000000
13
0.3552324364
23
-0.1311456414
33
0.0000000000
40
0.0000000000
40
0.0000000000
40
0.0000000000
40
0.0000000000
40
0.0815509510
40
0.1722976427
40
0.2688884169
40
0.3688502156
40
0.4699222593
40
0.5700678826
40
0.6674662224
40
0.7604980786
40
0.8477332755
40
0.9279232456
40
1.0000000000
40
1.0000000000
40
1.0000000000
40
1.0000000000
10
7.0419936421
20
-24.7561191137
30
0.0000000000
10
7.0515886819
20
-24.7598464222
30
0.0000000000
10
7.0718211180
20
-24.7678228692
30
0.0000000000
10
7.1034727107
20
-24.7800741112
30
0.0000000000
10
7.1373042710
20
-24.7931308053
30
0.0000000000
10
7.1723791594
20
-24.8065855477
30
0.0000000000
10
7.2078932243
20
-24.8201480542
30
0.0000000000
10
7.2431251832
20
-24.8335422083
30
0.0000000000
10
7.2774274003
20
-24.8465259697
30
0.0000000000
10
7.3102240286
20
-24.8588839390
30
0.0000000000
10
7.3410064200
20
-24.8704272370
30
0.0000000000
10
7.3693308230
20
-24.8809920545
30
0.0000000000
10
7.3873520674
20
-24.8876722240
30
0.0000000000
10
7.3958867344
20
-24.8908230747
30
0.0000000000
11
7.0419936421
21
-24.7561191137
31
0.0000000000
11
7.0707523078
21
-24.7673689004
31
0.0000000000
11
7.1027867425
21
-24.7798027307
31
0.0000000000
11
7.1369116854
21
-24.7929662491
31
0.0000000000
11
7.1722516579
21
-24.8065266198
31
0.0000000000
11
7.2080058935
21
-24.8201807756
31
0.0000000000
11
7.2434526166
21
-24.8336567417
31
0.0000000000
11
7.2779461745
21
-24.8467123005
31
0.0000000000
11
7.3109120857
21
-24.8591329366
31
0.0000000000
11
7.3418426000
21
-24.8707300331
31
0.0000000000
11
7.3702940961
21
-24.8813398010
31
0.0000000000
11
7.3958867344
21
-24.8908230747
31
0.0000000000
0
SPLINE
5
40F
100
AcDbEntity
8
0
100
AcDbSpline
62
9
6
CONTINUOUS
70
0
71
3
72
12
73
8
74
6
42
0.0000001000
43
0.0000001000
44
0.0000000001
12
0.0484509606
22
-7.2493472057
32
0.0000000000
13
0.1380990053
23
-7.2481933265
33
0.0000000000
40
0.0000000000
40
0.0000000000
40
0.0000000000
40
0.0000000000
40
0.1922755407
40
0.3944705544
40
0.5964891210
40
0.7983319931
40
1.0000000000
40
1.0000000000
40
1.0000000000
40
1.0000000000
10
-10.2401119331
20
2.2637371645
30
0.0000000000
10
-10.2370066216
20
1.7991131133
30
0.0000000000
10
-10.2295097523
20
0.8459022539
30
0.0000000000
10
-10.2146717285
20
-0.5954404987
30
0.0000000000
10
-10.1959404369
20
-2.0598594665
30
0.0000000000
10
-10.1735670761
20
-3.5229535399
30
0.0000000000
10
-10.1562159255
20
-4.4978855830
30
0.0000000000
10
-10.1469325418
20
-4.9851284837
30
0.0000000000
11
-10.2401119331
21
2.2637371645
31
0.0000000000
11
-10.2291480664
21
0.8698770074
31
0.0000000000
11
-10.2140573293
21
-0.5958598412
31
0.0000000000
11
-10.1953244852
21
-2.0602754065
31
0.0000000000
11
-10.1729495713
21
-3.5233660052
31
0.0000000000
11
-10.1469325418
21
-4.9851284837
31
0.0000000000
0
SPLINE
5
410
100
AcDbEntity
8
0
100
AcDbSpline
62
9
6
CONTINUOUS
70
0
71
3
72
10
73
6
74
4
42
0.0000001000
43
0.0000001000
44
0.0000000001
12
-0.1638651849
22
8.2562333344
32
0.0000000000
13
-0.0476674569
23
8.2577217490
33
0.0000000000
40
0.0000000000
40
0.0000000000
40
0.0000000000
40
0.0000000000
40
0.3327885727
40
0.6661204298
40
1.0000000000
40
1.0000000000
40
1.0000000000
40
1.0000000000
10
-1.3271484325
20
-9.1482116361
30
0.0000000000
10
-1.3453259195
20
-8.2323516004
30
0.0000000000
10
-1.3773861338
20
-6.3990475161
30
0.0000000000
10
-1.4125843796
20
-3.6466437076
30
0.0000000000
10
-1.4274687712
20
-1.8101166255
30
0.0000000000
10
-1.4327738345
20
-0.8910884294
30
0.0000000000
11
-1.3271484325
21
-9.1482116361
31
0.0000000000
11
-1.3752100110
21
-6.4005107210
31
0.0000000000
11
-1.4104185595
21
-3.6481283208
31
0.0000000000
11
-1.4327738345
21
-0.8910884294
31
0.0000000000
0
SPLINE
5
411
100
AcDbEntity
8
0
100
AcDbSpline
62
7
6
CONTINUOUS
70
0
71
3
72
9
73
5
74
3
42
0.0000001000
43
0.0000001000
44
0.0000000001
12
0.0506610329
22
0.0181818624
32
0.0000000000
13
0.0530356772
23
0.0091835352
33
0.0000000000
40
0.0000000000
40
0.0000000000
40
0.0000000000
40
0.0000000000
40
0.5079117864
40
1.0000000000
40
1.0000000000
40
1.0000000000
40
1.0000000000
10
8.9513773240
20
22.6889198855
30
0.0000000000
10
8.9599544359
20
22.6919981462
30
0.0000000000
10
8.9770947262
20
22.6973793786
30
0.0000000000
10
8.9946396105
20
22.7012583621
30
0.0000000000
10
9.0033390211
20
22.7027647319
30
0.0000000000
11
8.9513773240
21
22.6889198855
31
0.0000000000
11
8.9774703218
21
22.6970769872
31
0.0000000000
11
9.0033390211
21
22.7027647319
31
0.0000000000
0
SPLINE
5
412
100
AcDbEntity
8
0
100
AcDbSpline
62
7
6
CONTINUOUS
70
0
71
3
72
13
73
9
74
7
42
0.0000001000
43
0.0000001000
44
0.0000000001
12
-0.1865930419
22
0.0724843093
32
0.0000000000
13
-0.0021082936
23
0.2010999445
33
0.0000000000
40
0.0000000000
40
0.0000000000
40
0.0000000000
40
0.0000000000
40
0.2460478199
40
0.4625302528
40
0.6498114392
40
0.8131432944
40
0.9605904138
40
1.0000000000
40
1.0000000000
40
1.0000000000
40
1.0000000000
10
-2.8805975867
20
21.3335205382
30
0.0000000000
10
-2.8959011904
20
21.3394654070
30
0.0000000000
10
-2.9241543354
20
21.3520896049
30
0.0000000000
10
-2.9611699757
20
21.3749791651
30
0.0000000000
10
-2.9895698460
20
21.4003695641
30
0.0000000000
10
-3.0086898767
20
21.4280607973
30
0.0000000000
10
-3.0155103257
20
21.4508947449
30
0.0000000000
10
-3.0162342691
20
21.4634080319
30
0.0000000000
10
-3.0162619648
20
21.4660497871
30
0.0000000000
11
-2.8805975867
21
21.3335205382
31
0.0000000000
11
-2.9254210177
21
21.3539346460
31
0.0000000000
11
-2.9620343468
21
21.3771159829
31
0.0000000000
11
-2.9895997333
21
21.4025247863
31
0.0000000000
11
-3.0076762256
21
21.4297685868
31
0.0000000000
11
-3.0157992159
21
21.4581443757
31
0.0000000000
11
-3.0162619648
21
21.4660497871
31
0.0000000000
0
SPLINE
5
413
100
AcDbEntity
8
0
100
AcDbSpline
62
7
6
CONTINUOUS
70
0
71
3
72
17
73
13
74
11
42
0.0000001000
43
0.0000001000
44
0.0000000001
12
-0.4380999180
22
-0.0241580783
32
0.0000000000
13
-0.3966734586
23
-0.1875241801
33
0.0000000000
40
0.0000000000
40
0.0000000000
40
0.0000000000
40
0.0000000000
40
0.1183015610
40
0.2341701029
40
0.3466961634
40
0.4552882333
40
0.5595001499
40
0.6589243882
40
0.7531477446
40
0.8417286617
40
0.9241890555
40
1.0000000000
40
1.0000000000
40
1.0000000000
40
1.0000000000
10
2.8583086159
20
20.5489816520
30
0.0000000000
10
2.8410326478
20
20.5480290059
30
0.0000000000
10
2.8069322513
20
20.5442037051
30
0.0000000000
10
2.7571273593
20
20.5345115682
30
0.0000000000
10
2.7093744784
20
20.5222191812
30
0.0000000000
10
2.6638786857
20
20.5082437564
30
0.0000000000
10
2.6207389860
20
20.4932433830
30
0.0000000000
10
2.5800302086
20
20.4777184256
30
0.0000000000
10
2.5418291731
20
20.4620730284
30
0.0000000000
10
2.5062265443
20
20.4466532348
30
0.0000000000
10
2.4733315589
20
20.4317716054
30
0.0000000000
10
2.4523607174
20
20.4219698257
30
0.0000000000
10
2.4423366542
20
20.4172310307
30
0.0000000000
11
2.8583086159
21
20.5489816520
31
0.0000000000
11
2.8066954838
21
20.5434694783
31
0.0000000000
11
2.7567618288
21
20.5339172056
31
0.0000000000
11
2.7089235504
21
20.5217045907
31
0.0000000000
11
2.6633591180
21
20.5077738006
31
0.0000000000
11
2.6201572762
21
20.4927958439
31
0.0000000000
11
2.5793865810
21
20.4772782032
31
0.0000000000
11
2.5411207810
21
20.4616293716
31
0.0000000000
11
2.5054490104
21
20.4461985549
31
0.0000000000
11
2.4724780544
21
20.4313000813
31
0.0000000000
11
2.4423366542
21
20.4172310307
31
0.0000000000
0
SPLINE
5
414
100
AcDbEntity
8
0
100
AcDbSpline
62
7
6
CONTINUOUS
70
0
71
3
72
15
73
11
74
9
42
0.0000001000
43
0.0000001000
44
0.0000000001
12
0.2918950426
22
0.0160959247
32
0.0000000000
13
0.2745684034
23
0.1003692511
33
0.0000000000
40
0.0000000000
40
0.0000000000
40
0.0000000000
40
0.0000000000
40
0.1357453811
40
0.2697974957
40
0.4014312578
40
0.5299446394
40
0.6546662144
40
0.7749632325
40
0.8902504267
40
1.0000000000
40
1.0000000000
40
1.0000000000
40
1.0000000000
10
2.8583086159
20
20.5489816520
30
0.0000000000
10
2.8715164172
20
20.5497099678
30
0.0000000000
10
2.8977471407
20
20.5515563989
30
0.0000000000
10
2.9366704494
20
20.5555152498
30
0.0000000000
10
2.9747491829
20
20.5606255749
30
0.0000000000
10
3.0117397261
20
20.5668544330
30
0.0000000000
10
3.0474061024
20
20.5741616821
30
0.0000000000
10
3.0815213269
20
20.5825003941
30
0.0000000000
10
3.1138672968
20
20.5918166258
30
0.0000000000
10
3.1346574328
20
20.5988220575
30
0.0000000000
10
3.1447020212
20
20.6024938850
30
0.0000000000
11
2.8583086159
21
20.5489816520
31
0.0000000000
11
2.8978938437
21
20.5517741176
31
0.0000000000
11
2.9368803401
21
20.5557489046
31
0.0000000000
11
2.9750182622
21
20.5608805365
31
0.0000000000
11
3.0120632088
21
20.5671361239
31
0.0000000000
11
3.0477777850
21
20.5744755750
31
0.0000000000
11
3.0819331274
21
20.5828518544
31
0.0000000000
11
3.1143103651
21
20.5922112836
31
0.0000000000
11
3.1447020212
21
20.6024938850
31
0.0000000000
0
SPLINE
5
415
100
AcDbEntity
8
0
100
AcDbSpline
62
7
6
CONTINUOUS
70
0
71
3
72
18
73
14
74
12
42
0.0000001000
43
0.0000001000
44
0.0000000001
12
-0.6613670826
22
-0.2809542083
32
0.0000000000
13
-0.6698063835
23
0.2601943382
33
0.0000000000
40
0.0000000000
40
0.0000000000
40
0.0000000000
40
0.0000000000
40
0.0822770382
40
0.1708914193
40
0.2642495951
40
0.3612749872
40
0.4598161230
40
0.5588368062
40
0.6560206100
40
0.7503784073
40
0.8398605924
40
0.9235319250
40
1.0000000000
40
1.0000000000
40
1.0000000000
40
1.0000000000
10
3.1604362131
20
19.2827893892
30
0.0000000000
10
3.1422977715
20
19.2750840292
30
0.0000000000
10
3.1038548048
20
19.2608596082
30
0.0000000000
10
3.0429378694
20
19.2434959042
30
0.0000000000
10
2.9775330858
20
19.2295552179
30
0.0000000000
10
2.9090448081
20
19.2193423664
30
0.0000000000
10
2.8387265305
20
19.2130438760
30
0.0000000000
10
2.7681245617
20
19.2107975976
30
0.0000000000
10
2.6985116890
20
19.2126408355
30
0.0000000000
10
2.6314131032
20
19.2185268001
30
0.0000000000
10
2.5680402176
20
19.2283442188
30
0.0000000000
10
2.5097421096
20
19.2418728652
30
0.0000000000
10
2.4732018607
20
19.2537728108
30
0.0000000000
10
2.4561289258
20
19.2604049975
30
0.0000000000
11
3.1604362131
21
19.2827893892
31
0.0000000000
11
3.1050596817
21
19.2620814078
31
0.0000000000
11
3.0438631771
21
19.2444869392
31
0.0000000000
11
2.9782729325
21
19.2304077233
31
0.0000000000
11
2.9093244115
21
19.2200682729
31
0.0000000000
11
2.8387999970
21
19.2137304296
31
0.0000000000
11
2.7676823352
21
19.2114814719
31
0.0000000000
11
2.6978748250
21
19.2133787224
31
0.0000000000
11
2.6303393894
21
19.2193919040
31
0.0000000000
11
2.5668186448
21
19.2293666027
31
0.0000000000
11
2.5082945018
21
19.2431425600
31
0.0000000000
11
2.4561289258
21
19.2604049975
31
0.0000000000
0
SPLINE
5
416
100
AcDbEntity
8
0
100
AcDbSpline
62
7
6
CONTINUOUS
70
0
71
3
72
11
73
7
74
5
42
0.0000001000
43
0.0000001000
44
0.0000000001
12
-0.0999422717
22
0.0386755146
32
0.0000000000
13
-0.1052222864
23
-0.0185863130
33
0.0000000000
40
0.0000000000
40
0.0000000000
40
0.0000000000
40
0.0000000000
40
0.1227116254
40
0.3735242349
40
0.6678441609
40
1.0000000000
40
1.0000000000
40
1.0000000000
40
1.0000000000
10
3.7283229411
20
24.7913003682
30
0.0000000000
10
3.7242349149
20
24.7928823466
30
0.0000000000
10
3.7113334067
20
24.7965269668
30
0.0000000000
10
3.6875370714
20
24.7987742698
30
0.0000000000
10
3.6562602986
20
24.7972464722
30
0.0000000000
10
3.6341513995
20
24.7940519581
30
0.0000000000
10
3.6225013339
20
24.7919941073
30
0.0000000000
11
3.7283229411
21
24.7913003682
31
0.0000000000
11
3.7157140010
21
24.7950193357
31
0.0000000000
11
3.6890849887
21
24.7980385883
31
0.0000000000
11
3.6576590908
21
24.7968480891
31
0.0000000000
11
3.6225013339
21
24.7919941073
31
0.0000000000
0
SPLINE
5
417
100
AcDbEntity
8
0
100
AcDbSpline
62
7
6
CONTINUOUS
70
0
71
3
72
11
73
7
74
5
42
0.0000001000
43
0.0000001000
44
0.0000000001
12
-0.0982461504
22
0.0379740095
32
0.0000000000
13
-0.1034685387
23
-0.0179163728
33
0.0000000000
40
0.0000000000
40
0.0000000000
40
0.0000000000
40
0.0000000000
40
0.1173686963
40
0.3696498453
40
0.6656793384
40
1.0000000000
40
1.0000000000
40
1.0000000000
40
1.0000000000
10
9.1073452785
20
22.7017543102
30
0.0000000000
10
9.1035016043
20
22.7032399635
30
0.0000000000
10
9.0909741905
20
22.7068510693
30
0.0000000000
10
9.0676768064
20
22.7092010630
30
0.0000000000
10
9.0367436452
20
22.7078387719
30
0.0000000000
10
9.0148695779
20
22.7047613365
30
0.0000000000
10
9.0033390211
20
22.7027647319
30
0.0000000000
11
9.1073452785
21
22.7017543102
31
0.0000000000
11
9.0955050770
21
22.7053006161
31
0.0000000000
11
9.0692022634
21
22.7084576908
31
0.0000000000
11
9.0381335907
21
22.7074337199
31
0.0000000000
11
9.0033390211
21
22.7027647319
31
0.0000000000
0
SPLINE
5
418
100
AcDbEntity
8
0
100
AcDbSpline
62
9
6
CONTINUOUS
70
0
71
3
72
8
73
4
74
2
42
0.0000001000
43
0.0000001000
44
0.0000000001
12
-4.5025639980
22
-0.6662320460
32
0.0000000000
13
-4.5025639980
23
-0.6662320460
33
0.0000000000
40
0.0000000000
40
0.0000000000
40
0.0000000000
40
0.0000000000
40
1.0000000000
40
1.0000000000
40
1.0000000000
40
1.0000000000
10
13.8150247597
20
-17.7701426066
30
0.0000000000
10
12.3141700937
20
-17.9922199553
30
0.0000000000
10
10.8133154277
20
-18.2142973040
30
0.0000000000
10
9.3124607618
20
-18.4363746527
30
0.0000000000
11
13.8150247597
21
-17.7701426066
31
0.0000000000
11
9.3124607618
21
-18.4363746527
31
0.0000000000
0
SPLINE
5
419
100
AcDbEntity
8
0
100
AcDbSpline
62
7
6
CONTINUOUS
70
0
71
3
72
16
73
12
74
10
42
0.0000001000
43
0.0000001000
44
0.0000000001
12
0.0044091181
22
-0.3361768145
32
0.0000000000
13
0.2117701055
23
-0.2609553307
33
0.0000000000
40
0.0000000000
40
0.0000000000
40
0.0000000000
40
0.0000000000
40
0.0262105022
40
0.1234369541
40
0.2305054537
40
0.3457314794
40
0.4677136869
40
0.5952382165
40
0.7271920181
40
0.8624928188
40
1.0000000000
40
1.0000000000
40
1.0000000000
40
1.0000000000
10
-3.0320801823
20
22.7913414157
30
0.0000000000
10
-3.0320416606
20
22.7884042947
30
0.0000000000
10
-3.0315102123
20
22.7745777316
30
0.0000000000
10
-3.0280059036
20
22.7489152294
30
0.0000000000
10
-3.0193172031
20
22.7141395167
30
0.0000000000
10
-3.0066959272
20
22.6776498685
30
0.0000000000
10
-2.9904504281
20
22.6401226894
30
0.0000000000
10
-2.9708605090
20
22.6021115722
30
0.0000000000
10
-2.9481871068
20
22.5641098532
30
0.0000000000
10
-2.9226933414
20
22.5265834028
30
0.0000000000
10
-2.9040964950
20
22.5023076487
30
0.0000000000
10
-2.8943898582
20
22.4903465714
30
0.0000000000
11
-3.0320801823
21
22.7913414157
31
0.0000000000
11
-3.0317553169
21
22.7825362466
31
0.0000000000
11
-3.0276007288
21
22.7501263780
31
0.0000000000
11
-3.0190508005
21
22.7151742142
31
0.0000000000
11
-3.0065025191
21
22.6785394522
31
0.0000000000
11
-2.9902909136
21
22.6408863521
31
0.0000000000
11
-2.9707070366
21
22.6027651183
31
0.0000000000
11
-2.9480176528
21
22.5646632100
31
0.0000000000
11
-2.9224844698
21
22.5270381006
31
0.0000000000
11
-2.8943898582
21
22.4903465714
31
0.0000000000
0
SPLINE
5
41A
100
AcDbEntity
8
0
100
AcDbSpline
62
9
6
CONTINUOUS
70
0
71
3
72
8
73
4
74
2
42
0.0000001000
43
0.0000001000
44
0.0000000001
12
-4.4792177933
22
-2.6243936990
32
0.0000000000
13
-4.4792177933
23
-2.6243936990
33
0.0000000000
40
0.0000000000
40
0.0000000000
40
0.0000000000
40
0.0000000000
40
1.0000000000
40
1.0000000000
40
1.0000000000
40
1.0000000000
10
13.3730163082
20
19.3032923678
30
0.0000000000
10
11.8799437104
20
18.4284944681
30
0.0000000000
10
10.3868711126
20
17.5536965685
30
0.0000000000
10
8.8937985148
20
16.6788986688
30
0.0000000000
11
13.3730163082
21
19.3032923678
31
0.0000000000
11
8.8937985148
21
16.6788986688
31
0.0000000000
0
SPLINE
5
41B
100
AcDbEntity
8
0
100
AcDbSpline
62
7
6
CONTINUOUS
70
0
71
3
72
10
73
6
74
4
42
0.0000001000
43
0.0000001000
44
0.0000000001
12
0.0046193536
22
0.0017483727
32
0.0000000000
13
0.0046438620
23
0.0016821951
33
0.0000000000
40
0.0000000000
40
0.0000000000
40
0.0000000000
40
0.0000000000
40
0.3338911501
40
0.6672239585
40
1.0000000000
40
1.0000000000
40
1.0000000000
40
1.0000000000
10
-7.4122775826
20
-7.5147033131
30
0.0000000000
10
-7.4117634622
20
-7.5145087243
30
0.0000000000
10
-7.4107351587
20
-7.5141223039
30
0.0000000000
10
-7.4091912573
20
-7.5135504922
30
0.0000000000
10
-7.4081610444
20
-7.5131745134
30
0.0000000000
10
-7.4076459224
20
-7.5129879153
30
0.0000000000
11
-7.4122775826
21
-7.5147033131
31
0.0000000000
11
-7.4107338413
21
-7.5141232061
31
0.0000000000
11
-7.4091899453
21
-7.5135514034
31
0.0000000000
11
-7.4076459224
21
-7.5129879153
31
0.0000000000
0
SPLINE
5
41C
100
AcDbEntity
8
0
100
AcDbSpline
62
7
6
CONTINUOUS
70
0
71
3
72
10
73
6
74
4
42
0.0000001000
43
0.0000001000
44
0.0000000001
12
0.0034578592
22
0.0012946003
32
0.0000000000
13
0.0034715148
23
0.0012575234
33
0.0000000000
40
0.0000000000
40
0.0000000000
40
0.0000000000
40
0.0000000000
40
0.3337503634
40
0.6670833994
40
1.0000000000
40
1.0000000000
40
1.0000000000
40
1.0000000000
10
-8.2297504239
20
-5.7298809145
30
0.0000000000
10
-8.2293657366
20
-5.7297368901
30
0.0000000000
10
-8.2285963312
20
-5.7294503864
30
0.0000000000
10
-8.2274414220
20
-5.7290250114
30
0.0000000000
10
-8.2266709564
20
-5.7287443552
30
0.0000000000
10
-8.2262857148
20
-5.7286048050
30
0.0000000000
11
-8.2297504239
21
-5.7298809145
31
0.0000000000
11
-8.2285955957
21
-5.7294508938
31
0.0000000000
11
-8.2274406888
21
-5.7290255225
31
0.0000000000
11
-8.2262857148
21
-5.7286048050
31
0.0000000000
0
SPLINE
5
41D
100
AcDbEntity
8
0
100
AcDbSpline
62
9
6
CONTINUOUS
70
0
71
3
72
11
73
7
74
5
42
0.0000001000
43
0.0000001000
44
0.0000000001
12
-0.0878759362
22
0.0341538670
32
0.0000000000
13
-0.0886528821
23
-0.0314547085
33
0.0000000000
40
0.0000000000
40
0.0000000000
40
0.0000000000
40
0.0000000000
40
0.1076821073
40
0.3927260549
40
0.6882536143
40
1.0000000000
40
1.0000000000
40
1.0000000000
40
1.0000000000
10
-4.6904139858
20
25.0137014301
30
0.0000000000
10
-4.6935682078
20
25.0149273502
30
0.0000000000
10
-4.7052675834
20
25.0188935751
30
0.0000000000
10
-4.7267388315
20
25.0224834695
30
0.0000000000
10
-4.7548765769
20
25.0209382351
30
0.0000000000
10
-4.7734293811
20
25.0160998652
30
0.0000000000
10
-4.7826417863
20
25.0128312346
30
0.0000000000
11
-4.6904139858
21
25.0137014301
31
0.0000000000
11
-4.7000254730
21
25.0169581787
31
0.0000000000
11
-4.7264588854
21
25.0214564743
31
0.0000000000
11
-4.7542238636
21
25.0200695265
31
0.0000000000
11
-4.7826417863
21
25.0128312346
31
0.0000000000
0
SPLINE
5
41E
100
AcDbEntity
8
0
100
AcDbSpline
62
7
6
CONTINUOUS
70
0
71
3
72
10
73
6
74
4
42
0.0000001000
43
0.0000001000
44
0.0000000001
12
0.0585479629
22
4.7420663127
32
0.0000000000
13
0.0957436356
23
4.7414611603
33
0.0000000000
40
0.0000000000
40
0.0000000000
40
0.0000000000
40
0.0000000000
40
0.3330417591
40
0.6663756398
40
1.0000000000
40
1.0000000000
40
1.0000000000
40
1.0000000000
10
-12.6603847330
20
14.2948281108
30
0.0000000000
10
-12.6538850941
20
14.8212634797
30
0.0000000000
10
-12.6394987823
20
15.8745794559
30
0.0000000000
10
-12.6137733624
20
17.4551809846
30
0.0000000000
10
-12.5938616121
20
18.5093281339
30
0.0000000000
10
-12.5832141424
20
19.0366171159
30
0.0000000000
11
-12.6603847330
21
14.2948281108
31
0.0000000000
11
-12.6388165726
21
15.8741073137
31
0.0000000000
11
-12.6130929423
21
17.4547098462
31
0.0000000000
11
-12.5832141424
21
19.0366171159
31
0.0000000000
0
SPLINE
5
41F
100
AcDbEntity
8
0
100
AcDbSpline
62
7
6
CONTINUOUS
70
0
71
3
72
21
73
17
74
15
42
0.0000001000
43
0.0000001000
44
0.0000000001
12
-1.9173678103
22
-0.8230443791
32
0.0000000000
13
-0.0421248640
23
-2.0861272410
33
0.0000000000
40
0.0000000000
40
0.0000000000
40
0.0000000000
40
0.0000000000
40
0.0612705826
40
0.1251082534
40
0.1914547935
40
0.2601529488
40
0.3309616751
40
0.4035710096
40
0.4776162433
40
0.5526913716
40
0.6283619429
40
0.7041774757
40
0.7796836304
40
0.8544343223
40
0.9280039603
40
1.0000000000
40
1.0000000000
40
1.0000000000
40
1.0000000000
10
-11.5641226762
20
20.7431205092
30
0.0000000000
10
-11.6032820904
20
20.7263110397
30
0.0000000000
10
-11.6812937253
20
20.6872970622
30
0.0000000000
10
-11.7936688490
20
20.6154662903
30
0.0000000000
10
-11.9026309222
20
20.5299210292
30
0.0000000000
10
-12.0069760801
20
20.4316231308
30
0.0000000000
10
-12.1055746805
20
20.3216580028
30
0.0000000000
10
-12.1973477005
20
20.2012404493
30
0.0000000000
10
-12.2812898974
20
20.0716987036
30
0.0000000000
10
-12.3564790147
20
19.9344617798
30
0.0000000000
10
-12.4220876204
20
19.7910437796
30
0.0000000000
10
-12.4773926580
20
19.6430267691
30
0.0000000000
10
-12.5217838299
20
19.4920446438
30
0.0000000000
10
-12.5547705564
20
19.3397586052
30
0.0000000000
10
-12.5759867055
20
19.1878606263
30
0.0000000000
10
-12.5822032013
20
19.0866814158
30
0.0000000000
10
-12.5832141424
20
19.0366171159
30
0.0000000000
11
-11.5641226762
21
20.7431205092
31
0.0000000000
11
-11.6785947877
21
20.6861968971
31
0.0000000000
11
-11.7909728516
21
20.6146875656
31
0.0000000000
11
-11.9000067247
21
20.5293880162
31
0.0000000000
11
-12.0044834659
21
20.4312471588
31
0.0000000000
11
-12.1032408297
21
20.3213567558
31
0.0000000000
11
-12.1951801955
21
20.2009392765
31
0.0000000000
11
-12.2792787892
21
20.0713342983
31
0.0000000000
11
-12.3546010607
21
19.9339836044
31
0.0000000000
11
-12.4203090918
21
19.7904151445
31
0.0000000000
11
-12.4756719172
21
19.6422260379
31
0.0000000000
11
-12.5200736564
21
19.4910648057
31
0.0000000000
11
-12.5530203649
21
19.3386130322
31
0.0000000000
11
-12.5741455287
21
19.1865666586
31
0.0000000000
11
-12.5832141424
21
19.0366171159
31
0.0000000000
0
SPLINE
5
420
100
AcDbEntity
8
0
100
AcDbSpline
62
9
6
CONTINUOUS
70
0
71
3
72
13
73
9
74
7
42
0.0000001000
43
0.0000001000
44
0.0000000001
12
0.0016915211
22
-0.1103420374
32
0.0000000000
13
-0.1030198512
23
-0.0377430428
33
0.0000000000
40
0.0000000000
40
0.0000000000
40
0.0000000000
40
0.0000000000
40
0.0276482527
40
0.1660212834
40
0.3254847489
40
0.5159445219
40
0.7409593242
40
1.0000000000
40
1.0000000000
40
1.0000000000
40
1.0000000000
10
-4.5309644434
20
24.7836491319
30
0.0000000000
10
-4.5309488542
20
24.7826322104
30
0.0000000000
10
-4.5311204587
20
24.7765266955
30
0.0000000000
10
-4.5347063857
20
24.7648345953
30
0.0000000000
10
-4.5456034111
20
24.7503808130
30
0.0000000000
10
-4.5619626554
20
24.7369618178
30
0.0000000000
10
-4.5834425680
20
24.7246686876
30
0.0000000000
10
-4.5998088829
20
24.7178171334
30
0.0000000000
10
-4.6087043269
20
24.7145581390
30
0.0000000000
11
-4.5309644434
21
24.7836491319
31
0.0000000000
11
-4.5310519785
21
24.7806025833
31
0.0000000000
11
-4.5352004252
21
24.7659986118
31
0.0000000000
11
-4.5453576911
21
24.7517532647
31
0.0000000000
11
-4.5612754992
21
24.7382148968
31
0.0000000000
11
-4.5825646424
21
24.7257145993
31
0.0000000000
11
-4.6087043269
21
24.7145581390
31
0.0000000000
0
SPLINE
5
421
100
AcDbEntity
8
0
100
AcDbSpline
62
9
6
CONTINUOUS
70
0
71
3
72
13
73
9
74
7
42
0.0000001000
43
0.0000001000
44
0.0000000001
12
0.0016914804
22
-0.1103431675
32
0.0000000000
13
-0.1030199193
23
-0.0377430678
33
0.0000000000
40
0.0000000000
40
0.0000000000
40
0.0000000000
40
0.0000000000
40
0.0277700014
40
0.1661301838
40
0.3255826668
40
0.5160234249
40
0.7410045944
40
1.0000000000
40
1.0000000000
40
1.0000000000
40
1.0000000000
10
-4.5265286992
20
24.4115968103
30
0.0000000000
10
-4.5265130417
20
24.4105754003
30
0.0000000000
10
-4.5266858725
20
24.4044658222
30
0.0000000000
10
-4.5302767000
20
24.3927716205
30
0.0000000000
10
-4.5411751860
20
24.3783211983
30
0.0000000000
10
-4.5575337287
20
24.3649051405
30
0.0000000000
10
-4.5790109380
20
24.3526145800
30
0.0000000000
10
-4.5953746338
20
24.3457642662
30
0.0000000000
10
-4.6042685291
20
24.3425058392
30
0.0000000000
11
-4.5265286992
21
24.4115968103
31
0.0000000000
11
-4.5266171887
21
24.4085368529
31
0.0000000000
11
-4.5307699582
21
24.3939355651
31
0.0000000000
11
-4.5409292492
21
24.3796931280
31
0.0000000000
11
-4.5568467856
21
24.3661576396
31
0.0000000000
11
-4.5781332803
21
24.3536600871
31
0.0000000000
11
-4.6042685291
21
24.3425058392
31
0.0000000000
0
SPLINE
5
422
100
AcDbEntity
8
0
100
AcDbSpline
62
9
6
CONTINUOUS
70
0
71
3
72
8
73
4
74
2
42
0.0000001000
43
0.0000001000
44
0.0000000001
12
-0.0024173363
22
0.0009395221
32
0.0000000000
13
-0.0024377360
23
0.0008850358
33
0.0000000000
40
0.0000000000
40
0.0000000000
40
0.0000000000
40
0.0000000000
40
1.0000000000
40
1.0000000000
40
1.0000000000
40
1.0000000000
10
-5.9853779295
20
25.5167457345
30
0.0000000000
10
-5.9861837083
20
25.5170589085
30
0.0000000000
10
-5.9869929880
20
25.5173630496
30
0.0000000000
10
-5.9878055667
20
25.5176580615
30
0.0000000000
11
-5.9853779295
21
25.5167457345
31
0.0000000000
11
-5.9878055667
21
25.5176580615
31
0.0000000000
0
SPLINE
5
423
100
AcDbEntity
8
0
100
AcDbSpline
62
9
6
CONTINUOUS
70
0
71
3
72
11
73
7
74
5
42
0.0000001000
43
0.0000001000
44
0.0000000001
12
-0.0861797768
22
0.0312881247
32
0.0000000000
13
-0.0862141732
23
-0.0305894363
33
0.0000000000
40
0.0000000000
40
0.0000000000
40
0.0000000000
40
0.0000000000
40
0.0824414354
40
0.3755483175
40
0.6794353577
40
1.0000000000
40
1.0000000000
40
1.0000000000
40
1.0000000000
10
-5.9878055667
20
25.5176580615
30
0.0000000000
10
-5.9901738282
20
25.5185178741
30
0.0000000000
10
-6.0010897022
20
25.5220813625
30
0.0000000000
10
-6.0217027752
20
25.5255277739
30
0.0000000000
10
-6.0498405206
20
25.5239825396
30
0.0000000000
10
-6.0683933248
20
25.5191441696
30
0.0000000000
10
-6.0776057300
20
25.5158755390
30
0.0000000000
11
-5.9878055667
21
25.5176580615
31
0.0000000000
11
-5.9949894167
21
25.5200024832
31
0.0000000000
11
-6.0214228291
21
25.5245007787
31
0.0000000000
11
-6.0491878073
21
25.5231138309
31
0.0000000000
11
-6.0776057300
21
25.5158755390
31
0.0000000000
0
SPLINE
5
424
100
AcDbEntity
8
0
100
AcDbSpline
62
7
6
CONTINUOUS
70
0
71
3
72
9
73
5
74
3
42
0.0000001000
43
0.0000001000
44
0.0000000001
12
0.0492218826
22
0.0174642937
32
0.0000000000
13
0.0514320916
23
0.0090848905
33
0.0000000000
40
0.0000000000
40
0.0000000000
40
0.0000000000
40
0.0000000000
40
0.5075796461
40
1.0000000000
40
1.0000000000
40
1.0000000000
40
1.0000000000
10
3.5720728627
20
24.7785753421
30
0.0000000000
10
3.5804008713
20
24.7815301821
30
0.0000000000
10
3.5970421330
20
24.7867159100
30
0.0000000000
10
3.6140592643
20
24.7905029123
30
0.0000000000
10
3.6225013339
20
24.7919941073
30
0.0000000000
11
3.5720728627
21
24.7785753421
31
0.0000000000
11
3.5973912407
21
24.7864341584
31
0.0000000000
11
3.6225013339
21
24.7919941073
31
0.0000000000
0
SPLINE
5
425
100
AcDbEntity
8
0
100
AcDbSpline
62
9
6
CONTINUOUS
70
0
71
3
72
13
73
9
74
7
42
0.0000001000
43
0.0000001000
44
0.0000000001
12
0.0016914965
22
-0.1103433806
32
0.0000000000
13
-0.1030199420
23
-0.0377430761
33
0.0000000000
40
0.0000000000
40
0.0000000000
40
0.0000000000
40
0.0000000000
40
0.0277921699
40
0.1661495515
40
0.3255995810
40
0.5160357938
40
0.7410118145
40
1.0000000000
40
1.0000000000
40
1.0000000000
40
1.0000000000
10
8.9415875051
20
-24.8290626184
30
0.0000000000
10
8.9416031752
20
-24.8300848457
30
0.0000000000
10
8.9414301228
20
-24.8361951473
30
0.0000000000
10
8.9378384254
20
-24.8478897017
30
0.0000000000
10
8.9269397380
20
-24.8623394705
30
0.0000000000
10
8.9105813603
20
-24.8757550087
30
0.0000000000
10
8.8891046213
20
-24.8880451389
30
0.0000000000
10
8.8727413342
20
-24.8948952588
30
0.0000000000
10
8.8638476850
20
-24.8981535958
30
0.0000000000
11
8.9415875051
21
-24.8290626184
31
0.0000000000
11
8.9414988420
21
-24.8321250176
31
0.0000000000
11
8.9373453114
21
-24.8467257729
31
0.0000000000
11
8.9271856993
21
-24.8609676549
31
0.0000000000
11
8.9112683230
21
-24.8745025688
31
0.0000000000
11
8.8899822292
21
-24.8869996992
31
0.0000000000
11
8.8638476850
21
-24.8981535958
31
0.0000000000
0
SPLINE
5
426
100
AcDbEntity
8
0
100
AcDbSpline
62
9
6
CONTINUOUS
70
0
71
3
72
13
73
9
74
7
42
0.0000001000
43
0.0000001000
44
0.0000000001
12
0.0016915211
22
-0.1103420374
32
0.0000000000
13
-0.1030198512
23
-0.0377430428
33
0.0000000000
40
0.0000000000
40
0.0000000000
40
0.0000000000
40
0.0000000000
40
0.0276482527
40
0.1660212834
40
0.3254847489
40
0.5159445219
40
0.7409593242
40
1.0000000000
40
1.0000000000
40
1.0000000000
40
1.0000000000
10
8.9460233662
20
-25.2011149026
30
0.0000000000
10
8.9460389554
20
-25.2021318241
30
0.0000000000
10
8.9458673509
20
-25.2082373390
30
0.0000000000
10
8.9422814239
20
-25.2199294392
30
0.0000000000
10
8.9313843986
20
-25.2343832215
30
0.0000000000
10
8.9150251542
20
-25.2478022167
30
0.0000000000
10
8.8935452416
20
-25.2600953469
30
0.0000000000
10
8.8771789267
20
-25.2669469011
30
0.0000000000
10
8.8682834827
20
-25.2702058956
30
0.0000000000
11
8.9460233662
21
-25.2011149026
31
0.0000000000
11
8.9459358311
21
-25.2041614512
31
0.0000000000
11
8.9417873844
21
-25.2187654227
31
0.0000000000
11
8.9316301185
21
-25.2330107698
31
0.0000000000
11
8.9157123104
21
-25.2465491377
31
0.0000000000
11
8.8944231672
21
-25.2590494352
31
0.0000000000
11
8.8682834827
21
-25.2702058956
31
0.0000000000
0
SPLINE
5
427
100
AcDbEntity
8
0
100
AcDbSpline
62
7
6
CONTINUOUS
70
0
71
3
72
8
73
4
74
2
42
0.0000001000
43
0.0000001000
44
0.0000000001
12
0.0018852255
22
0.0007045329
32
0.0000000000
13
0.0018706849
23
0.0007421624
33
0.0000000000
40
0.0000000000
40
0.0000000000
40
0.0000000000
40
0.0000000000
40
1.0000000000
40
1.0000000000
40
1.0000000000
40
1.0000000000
10
8.2386426681
20
-25.6419895456
30
0.0000000000
10
8.2392710766
20
-25.6417547013
30
0.0000000000
10
8.2398971276
20
-25.6415135630
30
0.0000000000
10
8.2405206892
20
-25.6412661755
30
0.0000000000
11
8.2386426681
21
-25.6419895456
31
0.0000000000
11
8.2405206892
21
-25.6412661755
31
0.0000000000
0
SPLINE
5
428
100
AcDbEntity
8
0
100
AcDbSpline
62
7
6
CONTINUOUS
70
0
71
3
72
8
73
4
74
2
42
0.0000001000
43
0.0000001000
44
0.0000000001
12
0.0070003843
22
0.0027772834
32
0.0000000000
13
0.0067705007
23
0.0032953018
33
0.0000000000
40
0.0000000000
40
0.0000000000
40
0.0000000000
40
0.0000000000
40
1.0000000000
40
1.0000000000
40
1.0000000000
40
1.0000000000
10
8.2405206892
20
-25.6412661755
30
0.0000000000
10
8.2428541507
20
-25.6403404144
30
0.0000000000
10
8.2451527519
20
-25.6393271420
30
0.0000000000
10
8.2474095855
20
-25.6382287081
30
0.0000000000
11
8.2405206892
21
-25.6412661755
31
0.0000000000
11
8.2474095855
21
-25.6382287081
31
0.0000000000
0
SPLINE
5
429
100
AcDbEntity
8
0
100
AcDbSpline
62
7
6
CONTINUOUS
70
0
71
3
72
14
73
10
74
8
42
0.0000001000
43
0.0000001000
44
0.0000000001
12
0.1718572145
22
0.0836454232
32
0.0000000000
13
-0.0022741164
23
0.1907413909
33
0.0000000000
40
0.0000000000
40
0.0000000000
40
0.0000000000
40
0.0000000000
40
0.1198281843
40
0.2446301596
40
0.3769640716
40
0.5184280801
40
0.6696642975
40
0.8304794147
40
1.0000000000
40
1.0000000000
40
1.0000000000
40
1.0000000000
10
8.2474095855
20
-25.6382287081
30
0.0000000000
10
8.2542740315
20
-25.6348876817
30
0.0000000000
10
8.2674989840
20
-25.6264585047
30
0.0000000000
10
8.2846333501
20
-25.6094614436
30
0.0000000000
10
8.2989652412
20
-25.5883921599
30
0.0000000000
10
8.3102545688
20
-25.5637155784
30
0.0000000000
10
8.3183175865
20
-25.5359344449
30
0.0000000000
10
8.3230205651
20
-25.5056040473
30
0.0000000000
10
8.3238435181
20
-25.4845668061
30
0.0000000000
10
8.3237150149
20
-25.4737886087
30
0.0000000000
11
8.2474095855
21
-25.6382287081
31
0.0000000000
11
8.2667248749
21
-25.6260058000
31
0.0000000000
11
8.2837156729
21
-25.6093304676
31
0.0000000000
11
8.2980360801
21
-25.5885421879
31
0.0000000000
11
8.3093945753
21
-25.5640641850
31
0.0000000000
11
8.3175599530
21
-25.5363948035
31
0.0000000000
11
8.3223660284
21
-25.5060973491
31
0.0000000000
11
8.3237150149
21
-25.4737886087
31
0.0000000000
0
SPLINE
5
42A
100
AcDbEntity
8
0
100
AcDbSpline
62
9
6
CONTINUOUS
70
0
71
3
72
8
73
4
74
2
42
0.0000001000
43
0.0000001000
44
0.0000000001
12
0.0020787969
22
0.0007780559
32
0.0000000000
13
0.0020612524
23
0.0008236907
33
0.0000000000
40
0.0000000000
40
0.0000000000
40
0.0000000000
40
0.0000000000
40
1.0000000000
40
1.0000000000
40
1.0000000000
40
1.0000000000
10
8.7835918456
20
-25.4382647766
30
0.0000000000
10
8.7842847779
20
-25.4380054246
30
0.0000000000
10
8.7849748660
20
-25.4377384198
30
0.0000000000
10
8.7856619501
20
-25.4374638562
30
0.0000000000
11
8.7835918456
21
-25.4382647766
31
0.0000000000
11
8.7856619501
21
-25.4374638562
31
0.0000000000
0
SPLINE
5
42B
100
AcDbEntity
8
0
100
AcDbSpline
62
9
6
CONTINUOUS
70
0
71
3
72
14
73
10
74
8
42
0.0000001000
43
0.0000001000
44
0.0000000001
12
0.1841732265
22
0.0735968944
32
0.0000000000
13
-0.0032631965
23
0.1977967640
33
0.0000000000
40
0.0000000000
40
0.0000000000
40
0.0000000000
40
0.0000000000
40
0.0827741377
40
0.2119436896
40
0.3483510954
40
0.4946600208
40
0.6521687538
40
0.8209342250
40
1.0000000000
40
1.0000000000
40
1.0000000000
40
1.0000000000
10
8.7856619501
20
-25.4374638562
30
0.0000000000
10
8.7907435435
20
-25.4354332164
30
0.0000000000
10
8.8033342676
20
-25.4291750921
30
0.0000000000
10
8.8215612650
20
-25.4148441142
30
0.0000000000
10
8.8387552669
20
-25.3935597757
30
0.0000000000
10
8.8523106793
20
-25.3677091320
30
0.0000000000
10
8.8619741939
20
-25.3379478199
30
0.0000000000
10
8.8675638530
20
-25.3049962937
30
0.0000000000
10
8.8684782583
20
-25.2820121058
30
0.0000000000
10
8.8682834827
20
-25.2702058956
30
0.0000000000
11
8.7856619501
21
-25.4374638562
31
0.0000000000
11
8.8003491494
21
-25.4301696338
31
0.0000000000
11
8.8205179284
21
-25.4144799639
31
0.0000000000
11
8.8376210884
21
-25.3936077009
31
0.0000000000
11
8.8512370198
21
-25.3680670455
31
0.0000000000
11
8.8610302434
21
-25.3384870965
31
0.0000000000
11
8.8667594490
21
-25.3055965464
31
0.0000000000
11
8.8682834827
21
-25.2702058956
31
0.0000000000
0
SPLINE
5
42C
100
AcDbEntity
8
0
100
AcDbSpline
62
9
6
CONTINUOUS
70
0
71
3
72
12
73
8
74
6
42
0.0000001000
43
0.0000001000
44
0.0000000001
12
0.0006597805
22
-0.0884385719
32
0.0000000000
13
-0.0823558802
23
-0.0301724518
33
0.0000000000
40
0.0000000000
40
0.0000000000
40
0.0000000000
40
0.0000000000
40
0.1026411804
40
0.2690013788
40
0.4704852205
40
0.7141258668
40
1.0000000000
40
1.0000000000
40
1.0000000000
40
1.0000000000
10
13.8772034412
20
-17.7148719846
30
0.0000000000
10
13.8772260148
20
-17.7178977978
30
0.0000000000
10
13.8760437794
20
-17.7258648602
30
0.0000000000
10
13.8688899764
20
-17.7379954564
30
0.0000000000
10
13.8555639246
20
-17.7501486079
30
0.0000000000
10
13.8371663219
20
-17.7612107464
30
0.0000000000
10
13.8228725650
20
-17.7672674321
30
0.0000000000
10
13.8150247597
20
-17.7701426066
30
0.0000000000
11
13.8772034412
21
-17.7148719846
31
0.0000000000
11
13.8759004438
21
-17.7238275264
31
0.0000000000
11
13.8689283876
21
-17.7366453287
31
0.0000000000
11
13.8561748588
21
-17.7488782822
31
0.0000000000
11
13.8380245088
21
-17.7601574362
31
0.0000000000
11
13.8150247597
21
-17.7701426066
31
0.0000000000
0
SPLINE
5
42D
100
AcDbEntity
8
0
100
AcDbSpline
62
9
6
CONTINUOUS
70
0
71
3
72
14
73
10
74
8
42
0.0000001000
43
0.0000001000
44
0.0000000001
12
0.1914794260
22
0.0672477585
32
0.0000000000
13
-0.0014803586
23
0.2024352328
33
0.0000000000
40
0.0000000000
40
0.0000000000
40
0.0000000000
40
0.0000000000
40
0.1017036767
40
0.2277573084
40
0.3612374076
40
0.5046597492
40
0.6591714203
40
0.8247379687
40
1.0000000000
40
1.0000000000
40
1.0000000000
40
1.0000000000
10
6.5865249076
20
-26.2215210928
30
0.0000000000
10
6.5930162948
20
-26.2192413114
30
0.0000000000
10
6.6070244410
20
-26.2126191191
30
0.0000000000
10
6.6263449031
20
-26.1973858421
30
0.0000000000
10
6.6435585584
20
-26.1760816052
30
0.0000000000
10
6.6572096475
20
-26.1501915626
30
0.0000000000
10
6.6670426833
20
-26.1203685946
30
0.0000000000
10
6.6728661885
20
-26.0873555211
30
0.0000000000
10
6.6739771324
20
-26.0643189287
30
0.0000000000
10
6.6738906489
20
-26.0524925253
30
0.0000000000
11
6.5865249076
21
-26.2215210928
31
0.0000000000
11
6.6051625476
21
-26.2127324409
31
0.0000000000
11
6.6252885949
21
-26.1970439145
31
0.0000000000
11
6.6424211840
21
-26.1761476965
31
0.0000000000
11
6.6561387858
21
-26.1505580452
31
0.0000000000
11
6.6661026970
21
-26.1209080200
31
0.0000000000
11
6.6720688001
21
-26.0879258787
31
0.0000000000
11
6.6738906489
21
-26.0524925253
31
0.0000000000
0
SPLINE
5
42E
100
AcDbEntity
8
0
100
AcDbSpline
62
7
6
CONTINUOUS
70
0
71
3
72
12
73
8
74
6
42
0.0000001000
43
0.0000001000
44
0.0000000001
12
0.0006469062
22
-0.0876990201
32
0.0000000000
13
-0.0819414229
23
-0.0291019608
33
0.0000000000
40
0.0000000000
40
0.0000000000
40
0.0000000000
40
0.0000000000
40
0.1017684493
40
0.2676756492
40
0.4684835560
40
0.7129836630
40
1.0000000000
40
1.0000000000
40
1.0000000000
40
1.0000000000
10
13.8882767498
20
-18.6437241017
30
0.0000000000
10
13.8882986946
20
-18.6466990995
30
0.0000000000
10
13.8871180090
20
-18.6545616141
30
0.0000000000
10
13.8799412898
20
-18.6664825567
30
0.0000000000
10
13.8666040275
20
-18.6783773163
30
0.0000000000
10
13.8482102219
20
-18.6891616030
30
0.0000000000
10
13.8339245669
20
-18.6950402703
30
0.0000000000
10
13.8260850579
20
-18.6978245164
30
0.0000000000
11
13.8882767498
21
-18.6437241017
31
0.0000000000
11
13.8869788625
21
-18.6525256871
31
0.0000000000
11
13.8799879139
21
-18.6651452552
31
0.0000000000
11
13.8672589574
21
-18.6770982873
31
0.0000000000
11
13.8490801373
21
-18.6881231932
31
0.0000000000
11
13.8260850579
21
-18.6978245164
31
0.0000000000
0
SPLINE
5
42F
100
AcDbEntity
8
0
100
AcDbSpline
62
7
6
CONTINUOUS
70
0
71
3
72
12
73
8
74
6
42
0.0000001000
43
0.0000001000
44
0.0000000001
12
-0.3493528750
22
0.1357334325
32
0.0000000000
13
-0.3531676743
23
-0.1239941092
33
0.0000000000
40
0.0000000000
40
0.0000000000
40
0.0000000000
40
0.0000000000
40
0.0827281521
40
0.3020351250
40
0.5258876424
40
0.7579152797
40
1.0000000000
40
1.0000000000
40
1.0000000000
40
1.0000000000
10
6.1232454397
20
23.9713113318
30
0.0000000000
10
6.1136116671
20
23.9750543238
30
0.0000000000
10
6.0779812345
20
23.9875388047
30
0.0000000000
10
6.0135322777
20
24.0015416589
30
0.0000000000
10
5.9289644857
20
24.0050396584
30
0.0000000000
10
5.8421795129
20
23.9944762954
30
0.0000000000
10
5.7849577843
20
23.9785759881
30
0.0000000000
10
5.7564589517
20
23.9685702950
30
0.0000000000
11
6.1232454397
21
23.9713113318
31
0.0000000000
11
6.0939892530
21
23.9815601203
31
0.0000000000
11
6.0137965161
21
23.9990930842
31
0.0000000000
11
5.9300885484
21
24.0027642643
31
0.0000000000
11
5.8438442168
21
23.9925388496
31
0.0000000000
11
5.7564589517
21
23.9685702950
31
0.0000000000
0
SPLINE
5
430
100
AcDbEntity
8
0
100
AcDbSpline
62
7
6
CONTINUOUS
70
0
71
3
72
13
73
9
74
7
42
0.0000001000
43
0.0000001000
44
0.0000000001
12
-0.4406550806
22
0.1709122982
32
0.0000000000
13
-0.4466088629
23
-0.1541146112
33
0.0000000000
40
0.0000000000
40
0.0000000000
40
0.0000000000
40
0.0000000000
40
0.0679606939
40
0.2895327425
40
0.4896825596
40
0.6717328980
40
0.8406078611
40
1.0000000000
40
1.0000000000
40
1.0000000000
40
1.0000000000
10
13.2965091201
20
21.1847753221
30
0.0000000000
10
13.2865267118
20
21.1886470949
30
0.0000000000
10
13.2437592865
20
21.2045248980
30
0.0000000000
10
13.1697252303
20
21.2266599703
30
0.0000000000
10
13.0758673342
20
21.2432648291
30
0.0000000000
10
12.9889186692
20
21.2474140441
30
0.0000000000
10
12.9086255885
20
21.2399340966
30
0.0000000000
10
12.8582492635
20
21.2272004094
30
0.0000000000
10
12.8345206162
20
21.2190121903
30
0.0000000000
11
13.2965091201
21
21.1847753221
31
0.0000000000
11
13.2663940591
21
21.1959472203
31
0.0000000000
11
13.1659899868
21
21.2255676749
31
0.0000000000
11
13.0728097636
21
21.2416691943
31
0.0000000000
11
12.9868814672
21
21.2454178695
31
0.0000000000
11
12.9074704816
21
21.2376984916
31
0.0000000000
11
12.8345206162
21
21.2190121903
31
0.0000000000
0
SPLINE
5
431
100
AcDbEntity
8
0
100
AcDbSpline
62
7
6
CONTINUOUS
70
0
71
3
72
15
73
11
74
9
42
0.0000001000
43
0.0000001000
44
0.0000000001
12
-0.0029381400
22
0.1751066760
32
0.0000000000
13
-0.1642110580
23
-0.0578163382
33
0.0000000000
40
0.0000000000
40
0.0000000000
40
0.0000000000
40
0.0000000000
40
0.0328064446
40
0.1239875648
40
0.2144417374
40
0.3224361595
40
0.4544073014
40
0.6109731368
40
0.7933246908
40
1.0000000000
40
1.0000000000
40
1.0000000000
40
1.0000000000
10
14.3482714559
20
-19.5396471959
30
0.0000000000
10
14.3482393259
20
-19.5377323200
30
0.0000000000
10
14.3476341795
20
-19.5305034489
30
0.0000000000
10
14.3426984161
20
-19.5183170632
30
0.0000000000
10
14.3278906118
20
-19.5088354251
30
0.0000000000
10
14.3088400202
20
-19.5052654062
30
0.0000000000
10
14.2857336291
20
-19.5057855946
30
0.0000000000
10
14.2586910544
20
-19.5100591954
30
0.0000000000
10
14.2279640783
20
-19.5178154063
30
0.0000000000
10
14.2064793418
20
-19.5247960970
30
0.0000000000
10
14.1951665514
20
-19.5287791668
30
0.0000000000
11
14.3482714559
21
-19.5396471959
31
0.0000000000
11
14.3477616601
21
-19.5339196806
31
0.0000000000
11
14.3413950103
21
-19.5193784844
31
0.0000000000
11
14.3285181960
21
-19.5103139148
31
0.0000000000
11
14.3101924988
21
-19.5061133406
31
0.0000000000
11
14.2872176446
21
-19.5062219587
31
0.0000000000
11
14.2602522024
21
-19.5101969716
31
0.0000000000
11
14.2294272655
21
-19.5177882561
31
0.0000000000
11
14.1951665514
21
-19.5287791668
31
0.0000000000
0
ENDSEC
0
SECTION
2
OBJECTS
0
DICTIONARY
5
432
100
AcDbDictionary
3
ACAD_GROUP
350
433
3
ACAD_MLINESTYLE
350
434
0
DICTIONARY
5
433
102
{ACAD_REACTORS
330
432
102
}
100
AcDbDictionary
0
DICTIONARY
5
434
102
{ACAD_REACTORS
330
432
102
}
100
AcDbDictionary
3
STANDARD
350
435
0
MLINESTYLE
5
435
102
{ACAD_REACTORS
330
434
102
}
100
AcDbMlineStyle
2
STANDARD
70
0
3

62
256
51
90.0
52
90.0
71
2
49
0.5
62
256
6
BYLAYER
49
-0.5
62
256
6
BYLAYER
0
ENDSEC
0
EOF
