  0
SECTION
  2
HEADER
  9
$ACADVER
  1
AC1015
  9
$DWGCODEPAGE
  3
ANSI_1252
  9
$EXTMAX
 10
297.0
 20
210.0
 30
0.0
  9
$EXTMIN
 10
0.0
 20
0.0
 30
0.0
  9
$LIMMIN
 10
0.0
 20
0.0
  9
$LIMMAX
 10
297.0
 20
210.0
  9
$VIEWCTR
 10
148.5
 20
105.0
  9
$VIEWSIZE
 40
210.0
  9
$CLAYER
  8
0
  9
$LTSCALE
 40
16.335
  9
$CELTYPE
  6
BYLAYER
  9
$DIMSCALE
 40
1.0
  9
$DIMASZ
 40
3.0
  9
$DIMEXO
 40
1.85625
  9
$DIMDLI
 40
11.286
  9
$DIMEXE
 40
5.346
  9
$DIMCEN
 40
2.673
  9
$DIMLFAC
 40
1.0
  9
$DIMBLK
  1
_FILLED
  9
$DIMTXT
 40
3.0
  9
$DIMTOL
 70
1
  9
$DIMLIM
 70
0
  9
$DIMTFAC
 40
1.0
  9
$DIMTP
 40
0.01
  9
$DIMTM
 40
0.01
  9
$PDMODE
 70
3
  9
$PDSIZE
 40
3.0
  9
$HANDSEED
  5
510
  9
$TILEMODE
 70
1
  9
$MEASUREMENT
 70
1
  9
$INSUNITS
 70
4
  0
ENDSEC
  0
SECTION
  2
CLASSES
  0
CLASS
  1
ACDBDICTIONARYWDFLT
  2
AcDbDictionaryWithDefault
  3
AutoCAD 2000
 90
0
280
0
281
0
  0
CLASS
  1
ACDBPLACEHOLDER
  2
AcDbPlaceHolder
  3
AutoCAD 2000
 90
0
280
0
281
0
  0
CLASS
  1
LAYOUT
  2
AcDbLayout
  3
AutoCAD 2000
 90
0
280
0
281
0
  0
ENDSEC
  0
SECTION
  2
TABLES
  0
TABLE
  2
VPORT
  5
8
100
AcDbSymbolTable
 70
2
  0
VPORT
  5
1F4
100
AcDbSymbolTableRecord
100
AcDbViewportTableRecord
  2
*ACTIVE
 70
0
 10
0.0
 20
0.0
 11
1.0
 21
1.0
 12
148.5
 22
105.0
 13
0.0
 23
0.0
 14
1.0
 24
1.0
 15
0.0
 25
0.0
 16
0.0
 26
0.0
 36
1.0
 17
0.0
 27
0.0
 37
0.0
 40
210.0
 41
1.4142857143
 42
50.0
 43
0.0
 44
0.0
 50
0.0
 51
0.0
 71
0
 72
100
 73
1
 74
1
 75
0
 76
0
 77
0
 78
0
  0
ENDTAB
  0
TABLE
  2
LTYPE
  5
5
100
AcDbSymbolTable
 70
6
  0
LTYPE
  5
14
100
AcDbSymbolTableRecord
100
AcDbLinetypeTableRecord
  2
BYBLOCK
 70
0
  3

 72
65
 73
0
 40
0.0
  0
LTYPE
  5
15
100
AcDbSymbolTableRecord
100
AcDbLinetypeTableRecord
  2
BYLAYER
 70
0
  3

 72
65
 73
0
 40
0.0
  0
LTYPE
  5
16
100
AcDbSymbolTableRecord
100
AcDbLinetypeTableRecord
  2
CONTINUOUS
 70
64
  3
Solid line
 72
65
 73
0
 40
0.0
  0
LTYPE
  5
1F5
100
AcDbSymbolTableRecord
100
AcDbLinetypeTableRecord
  2
CENTER
 70
64
  3
____ _ ____ _ ____ _ ____ _ ____ _ ____ _ ____
 72
65
 73
4
 40
0.6
 49
0.375
 74
0
 49
-0.075
 74
0
 49
0.075
 74
0
 49
-0.075
 74
0
  0
LTYPE
  5
1F6
100
AcDbSymbolTableRecord
100
AcDbLinetypeTableRecord
  2
HIDDEN
 70
64
  3
- - - - - - - - - - - - - - - - - - - -
 72
65
 73
2
 40
0.2
 49
0.1
 74
0
 49
-0.1
 74
0
  0
LTYPE
  5
1F7
100
AcDbSymbolTableRecord
100
AcDbLinetypeTableRecord
  2
PHANTOM
 70
64
  3
_____ _ _ _____ _ _ _____ _ _ _____
 72
65
 73
6
 40
0.8
 49
0.45
 74
0
 49
-0.05
 74
0
 49
0.1
 74
0
 49
-0.05
 74
0
 49
0.1
 74
0
 49
-0.05
 74
0
  0
LTYPE
  5
1F8
100
AcDbSymbolTableRecord
100
AcDbLinetypeTableRecord
  2
DOT
 70
64
  3
. . . . . . . . . . . . . . . . . . . .
 72
65
 73
2
 40
0.2
 49
0.1
 74
0
 49
-0.1
 74
0
  0
LTYPE
  5
1F9
100
AcDbSymbolTableRecord
100
AcDbLinetypeTableRecord
  2
DASHED
 70
64
  3
- - - - - - - - - - - - - - - - - - - -
 72
65
 73
2
 40
0.2
 49
0.1
 74
0
 49
-0.1
 74
0
  0
ENDTAB
  0
TABLE
  2
LAYER
  5
2
100
AcDbSymbolTable
 70
36
  0
LAYER
  5
10
100
AcDbSymbolTableRecord
100
AcDbLayerTableRecord
  2
0
 70
0
 62
7
  6
CONTINUOUS
370
-3
390
F
  0
LAYER
  5
1FA
100
AcDbSymbolTableRecord
100
AcDbLayerTableRecord
  2
DEFAULT_1
 70
0
 62
7
  6
CENTER
370
-3
390
F
  0
LAYER
  5
1FB
100
AcDbSymbolTableRecord
100
AcDbLayerTableRecord
  2
DEFAULT_2
 70
0
 62
7
  6
HIDDEN
370
-3
390
F
  0
LAYER
  5
1FC
100
AcDbSymbolTableRecord
100
AcDbLayerTableRecord
  2
DEFAULT_3
 70
0
 62
7
  6
PHANTOM
370
-3
390
F
  0
LAYER
  5
1FD
100
AcDbSymbolTableRecord
100
AcDbLayerTableRecord
  2
ASSI
 70
0
 62
7
  6
CONTINUOUS
370
-3
390
F
  0
LAYER
  5
1FE
100
AcDbSymbolTableRecord
100
AcDbLayerTableRecord
  2
BIDONE
 70
0
 62
7
  6
CONTINUOUS
370
-3
390
F
  0
LAYER
  5
1FF
100
AcDbSymbolTableRecord
100
AcDbLayerTableRecord
  2
COLOR6
 70
0
 62
7
  6
CONTINUOUS
370
-3
390
F
  0
LAYER
  5
200
100
AcDbSymbolTableRecord
100
AcDbLayerTableRecord
  2
COORDINATE
 70
0
 62
7
  6
CONTINUOUS
370
-3
390
F
  0
LAYER
  5
201
100
AcDbSymbolTableRecord
100
AcDbLayerTableRecord
  2
COORD_ORIGINE
 70
0
 62
7
  6
CONTINUOUS
370
-3
390
F
  0
LAYER
  5
202
100
AcDbSymbolTableRecord
100
AcDbLayerTableRecord
  2
CURVE
 70
0
 62
7
  6
CONTINUOUS
370
-3
390
F
  0
LAYER
  5
203
100
AcDbSymbolTableRecord
100
AcDbLayerTableRecord
  2
CURVE_LED_TASTO
 70
0
 62
7
  6
CONTINUOUS
370
-3
390
F
  0
LAYER
  5
204
100
AcDbSymbolTableRecord
100
AcDbLayerTableRecord
  2
DRAFT
 70
0
 62
7
  6
CONTINUOUS
370
-3
390
F
  0
LAYER
  5
205
100
AcDbSymbolTableRecord
100
AcDbLayerTableRecord
  2
IGES_SCRITTE
 70
0
 62
7
  6
CONTINUOUS
370
-3
390
F
  0
LAYER
  5
206
100
AcDbSymbolTableRecord
100
AcDbLayerTableRecord
  2
NOTE
 70
0
 62
7
  6
CONTINUOUS
370
-3
390
F
  0
LAYER
  5
207
100
AcDbSymbolTableRecord
100
AcDbLayerTableRecord
  2
PIANI
 70
0
 62
7
  6
CONTINUOUS
370
-3
390
F
  0
LAYER
  5
208
100
AcDbSymbolTableRecord
100
AcDbLayerTableRecord
  2
PIANI_DI_RIFERIMENTO
 70
0
 62
7
  6
CONTINUOUS
370
-3
390
F
  0
LAYER
  5
209
100
AcDbSymbolTableRecord
100
AcDbLayerTableRecord
  2
PIANI_ORIGINE
 70
0
 62
7
  6
CONTINUOUS
370
-3
390
F
  0
LAYER
  5
20A
100
AcDbSymbolTableRecord
100
AcDbLayerTableRecord
  2
PIANI_RIFERIMENTO
 70
0
 62
7
  6
CONTINUOUS
370
-3
390
F
  0
LAYER
  5
20B
100
AcDbSymbolTableRecord
100
AcDbLayerTableRecord
  2
PUNTI
 70
0
 62
7
  6
CONTINUOUS
370
-3
390
F
  0
LAYER
  5
20C
100
AcDbSymbolTableRecord
100
AcDbLayerTableRecord
  2
RACCORDO
 70
0
 62
7
  6
CONTINUOUS
370
-3
390
F
  0
LAYER
  5
20D
100
AcDbSymbolTableRecord
100
AcDbLayerTableRecord
  2
SMUSSO
 70
0
 62
7
  6
CONTINUOUS
370
-3
390
F
  0
LAYER
  5
20E
100
AcDbSymbolTableRecord
100
AcDbLayerTableRecord
  2
SNAPLINE
 70
0
 62
7
  6
CONTINUOUS
370
-3
390
F
  0
LAYER
  5
20F
100
AcDbSymbolTableRecord
100
AcDbLayerTableRecord
  2
SUPERFICI
 70
0
 62
7
  6
CONTINUOUS
370
-3
390
F
  0
LAYER
  5
210
100
AcDbSymbolTableRecord
100
AcDbLayerTableRecord
  2
TRASH
 70
0
 62
7
  6
CONTINUOUS
370
-3
390
F
  0
LAYER
  5
211
100
AcDbSymbolTableRecord
100
AcDbLayerTableRecord
  2
___SHELL
 70
0
 62
7
  6
CONTINUOUS
370
-3
390
F
  0
ENDTAB
  0
TABLE
  2
STYLE
  5
3
100
AcDbSymbolTable
 70
1
  0
STYLE
  5
11
100
AcDbSymbolTableRecord
100
AcDbTextStyleTableRecord
  2
STANDARD
 70
0
 40
0.0
 41
0.8
 50
0.0
 71
0
 42
0.2
  3
txt
  4

  0
STYLE
  5
212
100
AcDbSymbolTableRecord
100
AcDbTextStyleTableRecord
  2
TEXTSTYLE_1
 70
0
 40
0.0
 41
0.8
 50
0.0
 71
0
 42
0.2
  3
gdt
  4

  0
ENDTAB
  0
TABLE
  2
VIEW
  5
6
100
AcDbSymbolTable
 70
0
  0
ENDTAB
  0
TABLE
  2
UCS
  5
7
100
AcDbSymbolTable
 70
0
  0
ENDTAB
  0
TABLE
  2
APPID
  5
9
100
AcDbSymbolTable
 70
1
  0
APPID
  5
213
100
AcDbSymbolTableRecord
100
AcDbRegAppTableRecord
  2
ACAD
 70
0
  0
ENDTAB
  0
TABLE
  2
BLOCK_RECORD
  5
1
100
AcDbSymbolTable
 70
0
  0
BLOCK_RECORD
  5
214
100
AcDbSymbolTableRecord
100
AcDbBlockTableRecord
  2
*Model_Space
  0
BLOCK_RECORD
  5
215
100
AcDbSymbolTableRecord
100
AcDbBlockTableRecord
  2
*Paper_Space
  0
ENDTAB
  0
TABLE
  2
DIMSTYLE
  5
A
100
AcDbSymbolTable
 70
1
100
AcDbDimStyleTable
 71
0
  0
DIMSTYLE
105
216
100
AcDbSymbolTableRecord
100
AcDbDimStyleTableRecord
  2
STANDARD
 70
0
  3

  4

 40
1.0
 41
3.0
 42
0.0625
 43
0.38
 44
0.18
 45
0.0
 46
0.0
 47
0.01
 48
0.01
140
3.0
141
0.09
142
0.0
143
25.4
144
1.0
145
0.0
146
1.0
147
0.09
 71
1.0
 72
0.0
 73
0
 74
0
 75
0
 76
0
 77
1
 78
8
170
0
171
2
172
0
173
0
174
0
175
0
176
0
177
0
178
0
270
2
271
2
272
2
273
2
274
2
275
0
280
0
281
0
282
0
283
1
284
8
285
0
286
0
287
3
288
0
340
11
  0
ENDTAB
  0
ENDSEC
  0
SECTION
  2
BLOCKS
  0
BLOCK
  5
20
100
AcDbEntity
  8
0
100
AcDbBlockBegin
  2
*Model_Space
 70
0
 10
0.0
 20
0.0
 30
0.0
  3
*Model_Space
  1

  0
ENDBLK
  5
21
100
AcDbEntity
  8
0
100
AcDbBlockEnd
  0
BLOCK
  5
1C
100
AcDbEntity
  8
0
100
AcDbBlockBegin
  2
*Paper_Space
 70
0
 10
0.0
 20
0.0
 30
0.0
  3
*Paper_Space
  1

  0
ENDBLK
  5
1D
100
AcDbEntity
  8
0
100
AcDbBlockEnd
  0
ENDSEC
  0
SECTION
  2
ENTITIES
  0
LINE
  5
217
100
AcDbEntity
  8
RACCORDO
100
AcDbLine
 62
7
  6
CONTINUOUS
 10
-21.0739858093
 20
27.9215052279
 11
-22.6567424647
 21
27.1095211038
  0
LINE
  5
218
100
AcDbEntity
  8
RACCORDO
100
AcDbLine
 62
253
  6
CONTINUOUS
 10
-20.9609001954
 20
27.915057226
 11
-22.5436567986
 21
27.1030731286
  0
LINE
  5
219
100
AcDbEntity
  8
RACCORDO
100
AcDbLine
 62
7
  6
CONTINUOUS
 10
-21.0722479715
 20
27.9223741906
 11
-21.073985806
 21
27.9215052296
  0
LINE
  5
21A
100
AcDbEntity
  8
RACCORDO
100
AcDbLine
 62
7
  6
CONTINUOUS
 10
-20.5369624278
 20
28.1831394836
 11
-21.0722084609
 21
27.922404185
  0
LINE
  5
21B
100
AcDbEntity
  8
RACCORDO
100
AcDbLine
 62
253
  6
CONTINUOUS
 10
-20.4264503167
 20
28.1754046925
 11
-20.9609001954
 21
27.915057226
  0
LINE
  5
21C
100
AcDbEntity
  8
RACCORDO
100
AcDbLine
 62
253
  6
CONTINUOUS
 10
-18.8969536203
 20
26.7835296502
 11
-18.8969897528
 21
26.7834855451
  0
LINE
  5
21D
100
AcDbEntity
  8
RACCORDO
100
AcDbLine
 62
253
  6
CONTINUOUS
 10
-19.4406176242
 20
26.2113684009
 11
-18.9123504525
 21
26.8543205567
  0
LINE
  5
21E
100
AcDbEntity
  8
RACCORDO
100
AcDbLine
 62
7
  6
CONTINUOUS
 10
-19.4406176242
 20
26.1218379346
 11
-18.8969898801
 21
26.7834853901
  0
LWPOLYLINE
  5
21F
100
AcDbEntity
  8
RACCORDO
100
AcDbPolyline
 62
7
  6
CONTINUOUS
 90
19
 70
0
 10
-26.6784105092
 20
23.0857771467
 10
-26.6903608469
 20
23.0787278588
 10
-26.7802462481
 20
23.0203684021
 10
-26.8667205372
 20
22.9548515531
 10
-26.9496148484
 20
22.8826110667
 10
-27.0287699655
 20
22.8040866151
 10
-27.1038731132
 20
22.7198045971
 10
-27.1747357891
 20
22.6301599855
 10
-27.2411139023
 20
22.5355873272
 10
-27.3025251647
 20
22.4368204305
 10
-27.3587368699
 20
22.3343264146
 10
-27.4094865343
 20
22.2285579956
 10
-27.4543324796
 20
22.1203593326
 10
-27.4930595207
 20
22.0102199562
 10
-27.525398447
 20
21.8986175782
 10
-27.5510176265
 20
21.7863446579
 10
-27.5696862074
 20
21.6738983188
 10
-27.5811510311
 20
21.5616036669
 10
-27.5842925666
 20
21.5000628109
  0
LINE
  5
220
100
AcDbEntity
  8
RACCORDO
100
AcDbLine
 62
7
  6
CONTINUOUS
 10
-26.6786102312
 20
23.0856748399
 11
-22.089635405
 21
25.7614674814
  0
LINE
  5
221
100
AcDbEntity
  8
RACCORDO
100
AcDbLine
 62
253
  6
CONTINUOUS
 10
-22.089635405
 20
25.616633305
 11
-26.4452561842
 21
23.0769074464
  0
LINE
  5
222
100
AcDbEntity
  8
RACCORDO
100
AcDbLine
 62
7
  6
CONTINUOUS
 10
-19.3390920816
 20
25.3929169637
 11
-20.330677807
 21
24.8395816712
  0
LINE
  5
223
100
AcDbEntity
  8
RACCORDO
100
AcDbLine
 62
253
  6
CONTINUOUS
 10
-19.6173913279
 20
27.2433027922
 11
-21.2186721187
 21
26.4405807887
  0
LINE
  5
224
100
AcDbEntity
  8
RACCORDO
100
AcDbLine
 62
253
  6
CONTINUOUS
 10
-19.4406176242
 20
26.9384132534
 11
-21.0418984151
 21
26.1356912499
  0
LINE
  5
225
100
AcDbEntity
  8
RACCORDO
100
AcDbLine
 62
253
  6
CONTINUOUS
 10
-19.0891241562
 20
27.5067416123
 11
-19.6173913279
 21
27.2433027922
  0
LINE
  5
226
100
AcDbEntity
  8
RACCORDO
100
AcDbLine
 62
253
  6
CONTINUOUS
 10
-18.9123504525
 20
27.2018520734
 11
-19.4406176242
 21
26.9384132534
  0
LWPOLYLINE
  5
227
100
AcDbEntity
  8
RACCORDO
100
AcDbPolyline
 62
7
  6
CONTINUOUS
 90
14
 70
0
 10
-27.5842743066
 20
-14.1125015117
 10
-27.5832828545
 20
-14.1363284486
 10
-27.5734780538
 20
-14.247835405
 10
-27.5554380339
 20
-14.354681468
 10
-27.5292389905
 20
-14.4568031189
 10
-27.495113375
 20
-14.5535808041
 10
-27.4537049688
 20
-14.6437351258
 10
-27.4057831621
 20
-14.7265285328
 10
-27.3516932653
 20
-14.8021986279
 10
-27.2917174107
 20
-14.8707908
 10
-27.226499608
 20
-14.9318845008
 10
-27.1566877483
 20
-14.9852481775
 10
-27.0825437279
 20
-15.0309356165
 10
-27.0527379755
 20
-15.0465426842
  0
LWPOLYLINE
  5
228
100
AcDbEntity
  8
RACCORDO
100
AcDbPolyline
 62
7
  6
CONTINUOUS
 90
10
 70
0
 10
-27.5843046114
 20
21.5001468456
 10
-27.6986990471
 20
17.5510406853
 10
-27.7866108677
 20
13.5293165141
 10
-27.8452155829
 20
9.521861126
 10
-27.8745049283
 20
5.529040551
 10
-27.8744763181
 20
1.5511896893
 10
-27.8451292088
 20
-2.4113469345
 10
-27.7864651482
 20
-6.3582361527
 10
-27.6984913587
 20
-10.2891195072
 10
-27.5842859917
 20
-14.1124896256
  0
LINE
  5
229
100
AcDbEntity
  8
RACCORDO
100
AcDbLine
 62
7
  6
CONTINUOUS
 10
-17.0717979059
 20
25.0061441791
 11
-16.7182565167
 21
25.187517604
  0
LINE
  5
22A
100
AcDbEntity
  8
RACCORDO
100
AcDbLine
 62
7
  6
CONTINUOUS
 10
-11.7118637352
 20
28.481038897
 11
-18.0264040619
 21
25.3362625924
  0
LINE
  5
22B
100
AcDbEntity
  8
ASSI
100
AcDbLine
 62
7
  6
CONTINUOUS
 10
-10.7765026761
 20
27.4841958521
 11
-15.3747536324
 21
25.2178345546
  0
LINE
  5
22C
100
AcDbEntity
  8
ASSI
100
AcDbLine
 62
7
  6
CONTINUOUS
 10
-16.7182565167
 20
25.187517604
 11
-11.3820331107
 21
27.7869610694
  0
LINE
  5
22D
100
AcDbEntity
  8
RACCORDO
100
AcDbLine
 62
7
  6
CONTINUOUS
 10
-5.3037272038
 20
30.4764606039
 11
-2.1372823926
 21
32.0192712253
  0
LINE
  5
22E
100
AcDbEntity
  8
DRAFT
100
AcDbLine
 62
7
  6
CONTINUOUS
 10
-5.6520353911
 20
29.2666341945
 11
-4.2501634835
 21
29.9496787437
  0
LINE
  5
22F
100
AcDbEntity
  8
DRAFT
100
AcDbLine
 62
7
  6
CONTINUOUS
 10
-19.4406176242
 20
25.3438202816
 11
-19.3390920816
 21
25.3929169637
  0
LWPOLYLINE
  5
230
100
AcDbEntity
  8
RACCORDO
100
AcDbPolyline
 62
7
  6
CONTINUOUS
 90
8
 70
0
 10
-2.8583287218
 20
32.1969618618
 10
-3.8012562528
 20
31.7576131242
 10
-4.865197391
 20
31.2614595181
 10
-5.9652653366
 20
30.7480337503
 10
-7.1014620106
 20
30.2173391701
 10
-8.2737840432
 20
29.6693737091
 10
-9.482228649
 20
29.1041332485
 10
-11.0234307448
 20
28.3826933699
  0
LINE
  5
231
100
AcDbEntity
  8
DRAFT
100
AcDbLine
 62
7
  6
CONTINUOUS
 10
-12.1024932313
 20
24.7397053036
 11
-12.8906863246
 21
23.9758009007
  0
LINE
  5
232
100
AcDbEntity
  8
DRAFT
100
AcDbLine
 62
7
  6
CONTINUOUS
 10
-4.0851113603
 20
27.101130103
 11
-5.376537422
 21
26.4301232289
  0
LINE
  5
233
100
AcDbEntity
  8
0
100
AcDbLine
 62
7
  6
CONTINUOUS
 10
-11.7685090484
 20
25.2073418871
 11
-11.0614022672
 21
25.5608952777
  0
LINE
  5
234
100
AcDbEntity
  8
0
100
AcDbLine
 62
7
  6
CONTINUOUS
 10
-9.3100643701
 20
26.0830108356
 11
-10.7078488766
 21
25.3841185824
  0
LINE
  5
235
100
AcDbEntity
  8
DRAFT
100
AcDbLine
 62
7
  6
CONTINUOUS
 10
-11.0614022672
 20
26.1210111562
 11
-10.7276266445
 21
26.2843315114
  0
LINE
  5
236
100
AcDbEntity
  8
RACCORDO
100
AcDbLine
 62
7
  6
CONTINUOUS
 10
-8.6510686187
 20
26.9506413387
 11
-10.7078488766
 21
25.9442344609
  0
LINE
  5
237
100
AcDbEntity
  8
DRAFT
100
AcDbLine
 62
7
  6
CONTINUOUS
 10
-6.8187615801
 20
27.151235308
 11
-4.0851113603
 21
28.483172179
  0
LINE
  5
238
100
AcDbEntity
  8
0
100
AcDbLine
 62
7
  6
CONTINUOUS
 10
-11.7661848892
 20
24.902089899
 11
-12.1024932313
 21
24.7397053036
  0
LINE
  5
239
100
AcDbEntity
  8
0
100
AcDbLine
 62
253
  6
CONTINUOUS
 10
-6.8573701097
 20
25.6103778629
 11
-6.6736380093
 21
25.6983160881
  0
LINE
  5
23A
100
AcDbEntity
  8
RACCORDO
100
AcDbLine
 62
253
  6
CONTINUOUS
 10
10.3618702886
 20
-29.0823939532
 11
9.8336031169
 21
-28.9738916762
  0
LINE
  5
23B
100
AcDbEntity
  8
RACCORDO
100
AcDbLine
 62
253
  6
CONTINUOUS
 10
10.2724564933
 20
-28.7628271472
 11
9.8336031169
 21
-28.6726898205
  0
LWPOLYLINE
  5
23C
100
AcDbEntity
  8
RACCORDO
100
AcDbPolyline
 62
7
  6
CONTINUOUS
 90
11
 70
0
 10
3.6892612411
 20
-30.4175408604
 10
3.7268042166
 20
-30.4352945576
 10
3.804908672
 20
-30.4656955111
 10
3.887080965
 20
-30.4890475098
 10
3.9726726417
 20
-30.5048332255
 10
4.0607782852
 20
-30.5126329518
 10
4.1508537826
 20
-30.5122167005
 10
4.2423320242
 20
-30.5034509161
 10
4.3344002569
 20
-30.4863151918
 10
4.4265593024
 20
-30.4608360736
 10
4.52469898
 20
-30.424483352
  0
LINE
  5
23D
100
AcDbEntity
  8
RACCORDO
100
AcDbLine
 62
7
  6
CONTINUOUS
 10
-27.0534059971
 20
-15.0462099331
 11
3.6903956668
 21
-30.418110765
  0
LINE
  5
23E
100
AcDbEntity
  8
RACCORDO
100
AcDbLine
 62
253
  6
CONTINUOUS
 10
-27.4378221942
 20
-14.2901365771
 11
3.2969264601
 21
-29.6575109043
  0
LINE
  5
23F
100
AcDbEntity
  8
RACCORDO
100
AcDbLine
 62
7
  6
CONTINUOUS
 10
3.6892103283
 20
-30.41751639
 11
3.6903947671
 21
-30.4181103152
  0
LINE
  5
240
100
AcDbEntity
  8
RACCORDO
100
AcDbLine
 62
7
  6
CONTINUOUS
 10
-22.7926283592
 20
26.8870846613
 11
-22.7926283592
 21
26.5471107272
  0
LINE
  5
241
100
AcDbEntity
  8
RACCORDO
100
AcDbLine
 62
253
  6
CONTINUOUS
 10
-22.7194050545
 20
26.7986963137
 11
-22.7194050545
 21
26.4587223795
  0
LINE
  5
242
100
AcDbEntity
  8
DRAFT
100
AcDbLine
 62
7
  6
CONTINUOUS
 10
-10.3953657833
 20
20.9210538146
 11
-10.4957168422
 21
20.8638122014
  0
LINE
  5
243
100
AcDbEntity
  8
RACCORDO
100
AcDbLine
 62
7
  6
CONTINUOUS
 10
-10.4957168422
 20
20.8638122014
 11
-10.8533959915
 21
20.6642162496
  0
LINE
  5
244
100
AcDbEntity
  8
RACCORDO
100
AcDbLine
 62
7
  6
CONTINUOUS
 10
-10.8533959915
 20
21.8969432219
 11
-10.4957168422
 21
22.0762477667
  0
LINE
  5
245
100
AcDbEntity
  8
ASSI
100
AcDbLine
 62
7
  6
CONTINUOUS
 10
-10.4957168422
 20
22.0762477667
 11
-5.2212247731
 21
24.7065569006
  0
LINE
  5
246
100
AcDbEntity
  8
DRAFT
100
AcDbLine
 62
7
  6
CONTINUOUS
 10
-10.3953657833
 20
20.9210538146
 11
-5.170882772
 21
23.5077013225
  0
LINE
  5
247
100
AcDbEntity
  8
ASSI
100
AcDbLine
 62
7
  6
CONTINUOUS
 10
-5.8267552078
 20
25.009322118
 11
-10.4250061641
 21
22.7429608205
  0
LINE
  5
248
100
AcDbEntity
  8
RACCORDO
100
AcDbLine
 62
7
  6
CONTINUOUS
 10
-4.4084279316
 20
24.8293209952
 11
-5.0472887081
 21
24.5167188701
  0
LINE
  5
249
100
AcDbEntity
  8
RACCORDO
100
AcDbLine
 62
7
  6
CONTINUOUS
 10
6.619788983
 20
-29.9531845146
 11
7.9447736628
 21
-30.6156768545
  0
LINE
  5
24A
100
AcDbEntity
  8
RACCORDO
100
AcDbLine
 62
253
  6
CONTINUOUS
 10
6.5548156866
 20
-29.8179660645
 11
7.8798003664
 21
-30.4804584044
  0
LINE
  5
24B
100
AcDbEntity
  8
RACCORDO
100
AcDbLine
 62
253
  6
CONTINUOUS
 10
7.8798003664
 20
-30.1404844703
 11
6.6573969961
 21
-29.5292827851
  0
LINE
  5
24C
100
AcDbEntity
  8
RACCORDO
100
AcDbLine
 62
253
  6
CONTINUOUS
 10
7.9681887141
 20
-29.9087902965
 11
6.9573540862
 21
-29.4033729826
  0
LINE
  5
24D
100
AcDbEntity
  8
RACCORDO
100
AcDbLine
 62
7
  6
CONTINUOUS
 10
8.1057179463
 20
-28.921336479
 11
8.5905067461
 21
-29.163730879
  0
LINE
  5
24E
100
AcDbEntity
  8
RACCORDO
100
AcDbLine
 62
7
  6
CONTINUOUS
 10
-22.089635405
 20
25.5872186855
 11
-22.089635405
 21
26.0411057529
  0
LINE
  5
24F
100
AcDbEntity
  8
RACCORDO
100
AcDbLine
 62
253
  6
CONTINUOUS
 10
-22.0164121003
 20
25.4954199564
 11
-22.0164121003
 21
26.0044941005
  0
LINE
  5
250
100
AcDbEntity
  8
RACCORDO
100
AcDbLine
 62
253
  6
CONTINUOUS
 10
-21.3944203747
 20
25.7962300396
 11
-21.3944203747
 21
26.1362039738
  0
LINE
  5
251
100
AcDbEntity
  8
RACCORDO
100
AcDbLine
 62
253
  6
CONTINUOUS
 10
-21.0418984151
 20
25.7957173158
 11
-21.0418984151
 21
26.1356912499
  0
LINE
  5
252
100
AcDbEntity
  8
RACCORDO
100
AcDbLine
 62
253
  6
CONTINUOUS
 10
-20.6831997666
 20
25.5227265168
 11
-20.6831997666
 21
24.8288137895
  0
LINE
  5
253
100
AcDbEntity
  8
RACCORDO
100
AcDbLine
 62
253
  6
CONTINUOUS
 10
-20.330677807
 20
25.6472137929
 11
-20.330677807
 21
24.8395816712
  0
LINE
  5
254
100
AcDbEntity
  8
RACCORDO
100
AcDbLine
 62
7
  6
CONTINUOUS
 10
-19.4406176242
 20
25.3438202816
 11
-19.4406176242
 21
26.9384132534
  0
LINE
  5
255
100
AcDbEntity
  8
DRAFT
100
AcDbLine
 62
7
  6
CONTINUOUS
 10
-1.4485794579
 20
24.8950801637
 11
-1.832621506
 21
24.6581652709
  0
LINE
  5
256
100
AcDbEntity
  8
RACCORDO
100
AcDbLine
 62
7
  6
CONTINUOUS
 10
-7.7096676449
 20
21.2393461457
 11
-9.2924243003
 21
20.4273620216
  0
LINE
  5
257
100
AcDbEntity
  8
RACCORDO
100
AcDbLine
 62
253
  6
CONTINUOUS
 10
-7.596582031
 20
21.2328981438
 11
-9.1793386341
 21
20.4209140464
  0
LINE
  5
258
100
AcDbEntity
  8
RACCORDO
100
AcDbLine
 62
7
  6
CONTINUOUS
 10
-5.1640832326
 20
19.9665539396
 11
-6.746839888
 21
19.1545698154
  0
LINE
  5
259
100
AcDbEntity
  8
RACCORDO
100
AcDbLine
 62
253
  6
CONTINUOUS
 10
-5.0509976187
 20
19.9601059376
 11
-6.6337542219
 21
19.1481218403
  0
LINE
  5
25A
100
AcDbEntity
  8
RACCORDO
100
AcDbLine
 62
253
  6
CONTINUOUS
 10
-6.2530731635
 20
20.56114371
 11
-7.8543539543
 21
19.7584217065
  0
LINE
  5
25B
100
AcDbEntity
  8
RACCORDO
100
AcDbLine
 62
253
  6
CONTINUOUS
 10
-6.0762994598
 20
20.2562541712
 11
-7.6775802506
 21
19.4535321677
  0
LINE
  5
25C
100
AcDbEntity
  8
RACCORDO
100
AcDbLine
 62
7
  6
CONTINUOUS
 10
-7.7079298071
 20
21.2402151084
 11
-7.7096676416
 21
21.2393461474
  0
LINE
  5
25D
100
AcDbEntity
  8
RACCORDO
100
AcDbLine
 62
7
  6
CONTINUOUS
 10
-5.1623453948
 20
19.9674229023
 11
-5.1640832293
 21
19.9665539412
  0
LINE
  5
25E
100
AcDbEntity
  8
RACCORDO
100
AcDbLine
 62
253
  6
CONTINUOUS
 10
-5.7248059917
 20
20.8245825301
 11
-6.2530731635
 21
20.56114371
  0
LINE
  5
25F
100
AcDbEntity
  8
RACCORDO
100
AcDbLine
 62
253
  6
CONTINUOUS
 10
-5.5480322881
 20
20.5196929912
 11
-6.0762994598
 21
20.2562541712
  0
LINE
  5
260
100
AcDbEntity
  8
RACCORDO
100
AcDbLine
 62
7
  6
CONTINUOUS
 10
-7.1726442634
 20
21.5009804014
 11
-7.7078902964
 21
21.2402451028
  0
LINE
  5
261
100
AcDbEntity
  8
RACCORDO
100
AcDbLine
 62
253
  6
CONTINUOUS
 10
-7.0621321523
 20
21.4932456103
 11
-7.596582031
 21
21.2328981438
  0
LINE
  5
262
100
AcDbEntity
  8
RACCORDO
100
AcDbLine
 62
7
  6
CONTINUOUS
 10
-4.6270598511
 20
20.2281881952
 11
-5.1623058842
 21
19.9674528967
  0
LINE
  5
263
100
AcDbEntity
  8
RACCORDO
100
AcDbLine
 62
253
  6
CONTINUOUS
 10
-4.51654774
 20
20.2204534042
 11
-5.0509976187
 21
19.9601059376
  0
LINE
  5
264
100
AcDbEntity
  8
RACCORDO
100
AcDbLine
 62
7
  6
CONTINUOUS
 10
-1.3476328151
 20
23.2989234369
 11
-6.038875702
 21
21.0435947561
  0
LINE
  5
265
100
AcDbEntity
  8
DRAFT
100
AcDbLine
 62
7
  6
CONTINUOUS
 10
-3.2832276741
 20
20.7326354047
 11
-0.1012471588
 21
22.2556012789
  0
LINE
  5
266
100
AcDbEntity
  8
DRAFT
100
AcDbLine
 62
7
  6
CONTINUOUS
 10
-5.4758344311
 20
20.4206614855
 11
0.3050215015
 21
23.0904523261
  0
LINE
  5
267
100
AcDbEntity
  8
RACCORDO
100
AcDbLine
 62
253
  6
CONTINUOUS
 10
9.8336031169
 20
-28.543400459
 11
10.2724564933
 21
-28.7628271472
  0
LINE
  5
268
100
AcDbEntity
  8
RACCORDO
100
AcDbLine
 62
7
  6
CONTINUOUS
 10
9.8336031169
 20
-28.5397803095
 11
10.2958715445
 21
-28.7709145233
  0
LINE
  5
269
100
AcDbEntity
  8
RACCORDO
100
AcDbLine
 62
253
  6
CONTINUOUS
 10
-18.9123504525
 20
27.2018520734
 11
-18.9123504525
 21
26.8543205567
  0
LINE
  5
26A
100
AcDbEntity
  8
RACCORDO
100
AcDbLine
 62
7
  6
CONTINUOUS
 10
-18.8401525955
 20
27.2897247056
 11
-18.8401525955
 21
26.9421931889
  0
LINE
  5
26B
100
AcDbEntity
  8
RACCORDO
100
AcDbLine
 62
7
  6
CONTINUOUS
 10
-17.2161936199
 20
24.8183696031
 11
-17.2161936199
 21
23.5817610948
  0
LINE
  5
26C
100
AcDbEntity
  8
RACCORDO
100
AcDbLine
 62
253
  6
CONTINUOUS
 10
-17.0697470105
 20
24.478917347
 11
-17.0697470105
 21
23.3983340362
  0
LINE
  5
26D
100
AcDbEntity
  8
RACCORDO
100
AcDbLine
 62
253
  6
CONTINUOUS
 10
-6.0762994598
 20
19.5292093187
 11
-5.5480322881
 21
20.1721614745
  0
LINE
  5
26E
100
AcDbEntity
  8
RACCORDO
100
AcDbLine
 62
7
  6
CONTINUOUS
 10
-5.9926568429
 20
19.5414799935
 11
-5.5326717157
 21
20.1013263079
  0
LINE
  5
26F
100
AcDbEntity
  8
RACCORDO
100
AcDbLine
 62
7
  6
CONTINUOUS
 10
-6.6619778531
 20
18.3272769769
 11
-6.9663596425
 21
18.157422589
  0
LINE
  5
270
100
AcDbEntity
  8
RACCORDO
100
AcDbLine
 62
253
  6
CONTINUOUS
 10
-3.7074887512
 20
19.2883515039
 11
-5.3087695421
 21
18.4856295004
  0
LINE
  5
271
100
AcDbEntity
  8
RACCORDO
100
AcDbLine
 62
253
  6
CONTINUOUS
 10
-3.5307150475
 20
18.9834619651
 11
-5.1319958384
 21
18.1807399616
  0
LINE
  5
272
100
AcDbEntity
  8
RACCORDO
100
AcDbLine
 62
253
  6
CONTINUOUS
 10
-3.1792215795
 20
19.5517903239
 11
-3.7074887512
 21
19.2883515039
  0
LINE
  5
273
100
AcDbEntity
  8
RACCORDO
100
AcDbLine
 62
253
  6
CONTINUOUS
 10
-3.0024478758
 20
19.2469007851
 11
-3.5307150475
 21
18.9834619651
  0
LINE
  5
274
100
AcDbEntity
  8
DRAFT
100
AcDbLine
 62
7
  6
CONTINUOUS
 10
-3.0003849617
 20
17.8232530423
 11
3.9472569024
 21
21.2693346256
  0
LINE
  5
275
100
AcDbEntity
  8
DRAFT
100
AcDbLine
 62
7
  6
CONTINUOUS
 10
-3.5307150475
 20
17.3888689933
 11
-3.4291895049
 21
17.4379656754
  0
LINE
  5
276
100
AcDbEntity
  8
DRAFT
100
AcDbLine
 62
7
  6
CONTINUOUS
 10
2.2322052191
 20
21.08887509
 11
-0.9497752962
 21
19.5659092158
  0
LINE
  5
277
100
AcDbEntity
  8
RACCORDO
100
AcDbLine
 62
253
  6
CONTINUOUS
 10
-2.9870510436
 20
18.8285783619
 11
-2.9870871761
 21
18.8285342567
  0
LINE
  5
278
100
AcDbEntity
  8
RACCORDO
100
AcDbLine
 62
253
  6
CONTINUOUS
 10
-3.5307150475
 20
18.2564171126
 11
-3.0024478758
 21
18.8993692684
  0
LINE
  5
279
100
AcDbEntity
  8
RACCORDO
100
AcDbLine
 62
7
  6
CONTINUOUS
 10
-3.5307150475
 20
18.1668866463
 11
-2.9870873034
 21
18.8285341018
  0
LINE
  5
27A
100
AcDbEntity
  8
RACCORDO
100
AcDbLine
 62
7
  6
CONTINUOUS
 10
-3.4291895049
 20
17.4379656754
 11
-4.4207752303
 21
16.8846303828
  0
LINE
  5
27B
100
AcDbEntity
  8
RACCORDO
100
AcDbLine
 62
7
  6
CONTINUOUS
 10
-1.1618953292
 20
17.0511928908
 11
-0.80835394
 21
17.2325663156
  0
LINE
  5
27C
100
AcDbEntity
  8
RACCORDO
100
AcDbLine
 62
7
  6
CONTINUOUS
 10
4.1980388415
 20
20.5260876086
 11
-2.1165014852
 21
17.3813113041
  0
LINE
  5
27D
100
AcDbEntity
  8
ASSI
100
AcDbLine
 62
7
  6
CONTINUOUS
 10
5.1333999006
 20
19.5292445638
 11
0.5351489443
 21
17.2628832663
  0
LINE
  5
27E
100
AcDbEntity
  8
ASSI
100
AcDbLine
 62
7
  6
CONTINUOUS
 10
-0.80835394
 20
17.2325663156
 11
4.527869466
 21
19.8320097811
  0
LINE
  5
27F
100
AcDbEntity
  8
DRAFT
100
AcDbLine
 62
253
  6
CONTINUOUS
 10
-11.7685090484
 20
24.902089899
 11
-11.7685090484
 21
25.2073418871
  0
LINE
  5
280
100
AcDbEntity
  8
RACCORDO
100
AcDbLine
 62
253
  6
CONTINUOUS
 10
-11.5584399108
 20
20.6426804863
 11
-11.5584399108
 21
21.7232637971
  0
LINE
  5
281
100
AcDbEntity
  8
DRAFT
100
AcDbLine
 62
7
  6
CONTINUOUS
 10
-11.0614022672
 20
25.5608952777
 11
-11.0614022672
 21
26.1210111562
  0
LINE
  5
282
100
AcDbEntity
  8
DRAFT
100
AcDbLine
 62
7
  6
CONTINUOUS
 10
3.7862586234
 20
15.6373284267
 11
4.1413935283
 21
15.8186916272
  0
LINE
  5
283
100
AcDbEntity
  8
0
100
AcDbLine
 62
7
  6
CONTINUOUS
 10
4.1413935283
 20
17.2523905987
 11
4.8485003095
 21
17.6059439893
  0
LINE
  5
284
100
AcDbEntity
  8
0
100
AcDbLine
 62
7
  6
CONTINUOUS
 10
5.2020537001
 20
17.429167294
 11
6.5998382066
 21
18.1280595473
  0
LINE
  5
285
100
AcDbEntity
  8
DRAFT
100
AcDbLine
 62
7
  6
CONTINUOUS
 10
4.8485003095
 20
18.1660598679
 11
5.1822759322
 21
18.329380223
  0
LINE
  5
286
100
AcDbEntity
  8
RACCORDO
100
AcDbLine
 62
7
  6
CONTINUOUS
 10
7.258833958
 20
18.9956900504
 11
5.2020537001
 21
17.9892831726
  0
LINE
  5
287
100
AcDbEntity
  8
DRAFT
100
AcDbLine
 62
7
  6
CONTINUOUS
 10
6.6183778935
 20
16.4045745739
 11
5.5751762984
 21
15.9008705388
  0
LINE
  5
288
100
AcDbEntity
  8
DRAFT
100
AcDbLine
 62
7
  6
CONTINUOUS
 10
4.2182102019
 20
15.4213526374
 11
5.2957777708
 21
15.9190090501
  0
LINE
  5
289
100
AcDbEntity
  8
RACCORDO
100
AcDbLine
 62
253
  6
CONTINUOUS
 10
-10.8533959915
 20
20.6642162496
 11
-10.8533959915
 21
21.8969432219
  0
LINE
  5
28A
100
AcDbEntity
  8
ASSI
100
AcDbLine
 62
253
  6
CONTINUOUS
 10
-10.7276266445
 20
26.2843315114
 11
-10.7276266445
 21
27.5041449528
  0
LINE
  5
28B
100
AcDbEntity
  8
DRAFT
100
AcDbLine
 62
7
  6
CONTINUOUS
 10
-10.7078488766
 20
25.3841185824
 11
-10.7078488766
 21
25.9442344609
  0
LINE
  5
28C
100
AcDbEntity
  8
ASSI
100
AcDbLine
 62
7
  6
CONTINUOUS
 10
-10.6022771373
 20
26.4333816847
 11
-10.6022771373
 21
27.5128685427
  0
LINE
  5
28D
100
AcDbEntity
  8
DRAFT
100
AcDbLine
 62
7
  6
CONTINUOUS
 10
-10.4957168422
 20
22.0762477667
 11
-10.4957168422
 21
20.8638122014
  0
LINE
  5
28E
100
AcDbEntity
  8
DRAFT
100
AcDbLine
 62
253
  6
CONTINUOUS
 10
-10.354295486
 20
24.8959733894
 11
-10.354295486
 21
25.2073418871
  0
LINE
  5
28F
100
AcDbEntity
  8
RACCORDO
100
AcDbLine
 62
7
  6
CONTINUOUS
 10
-9.4283101948
 20
20.2049255791
 11
-9.4283101948
 21
19.864951645
  0
LINE
  5
290
100
AcDbEntity
  8
RACCORDO
100
AcDbLine
 62
253
  6
CONTINUOUS
 10
-9.3550868901
 20
20.1165372315
 11
-9.3550868901
 21
19.7765632973
  0
LINE
  5
291
100
AcDbEntity
  8
RACCORDO
100
AcDbLine
 62
7
  6
CONTINUOUS
 10
-8.7253172405
 20
18.9049744062
 11
-8.7253172405
 21
19.3589466707
  0
LINE
  5
292
100
AcDbEntity
  8
RACCORDO
100
AcDbLine
 62
253
  6
CONTINUOUS
 10
-8.6520939358
 20
18.8132608741
 11
-8.6520939358
 21
19.3223350183
  0
LINE
  5
293
100
AcDbEntity
  8
RACCORDO
100
AcDbLine
 62
7
  6
CONTINUOUS
 10
5.0565065852
 20
13.9419919336
 11
5.4141857345
 21
14.1212964784
  0
LINE
  5
294
100
AcDbEntity
  8
ASSI
100
AcDbLine
 62
7
  6
CONTINUOUS
 10
5.4141857345
 20
14.1212964784
 11
10.6886778036
 21
16.7516056123
  0
LINE
  5
295
100
AcDbEntity
  8
DRAFT
100
AcDbLine
 62
7
  6
CONTINUOUS
 10
5.5145367934
 20
12.9661025262
 11
10.7390198047
 21
15.5527500342
  0
LINE
  5
296
100
AcDbEntity
  8
ASSI
100
AcDbLine
 62
7
  6
CONTINUOUS
 10
10.0831473689
 20
17.0543708296
 11
5.4848964126
 21
14.7880095321
  0
LINE
  5
297
100
AcDbEntity
  8
RACCORDO
100
AcDbLine
 62
7
  6
CONTINUOUS
 10
11.5014746451
 20
16.8743697068
 11
10.8626138686
 21
16.5617675817
  0
LINE
  5
298
100
AcDbEntity
  8
RACCORDO
100
AcDbLine
 62
253
  6
CONTINUOUS
 10
-8.0301022103
 20
19.1140709574
 11
-8.0301022103
 21
19.4540448916
  0
LINE
  5
299
100
AcDbEntity
  8
RACCORDO
100
AcDbLine
 62
7
  6
CONTINUOUS
 10
-7.95013243
 20
26.4351170049
 11
-7.95013243
 21
26.1567590231
  0
LINE
  5
29A
100
AcDbEntity
  8
RACCORDO
100
AcDbLine
 62
253
  6
CONTINUOUS
 10
-7.6775802506
 20
19.1135582336
 11
-7.6775802506
 21
19.4535321677
  0
LINE
  5
29B
100
AcDbEntity
  8
RACCORDO
100
AcDbLine
 62
253
  6
CONTINUOUS
 10
-7.3188816022
 20
18.8405674346
 11
-7.3188816022
 21
18.1466547073
  0
LINE
  5
29C
100
AcDbEntity
  8
RACCORDO
100
AcDbLine
 62
253
  6
CONTINUOUS
 10
-6.9663596425
 20
18.9650547107
 11
-6.9663596425
 21
18.157422589
  0
LINE
  5
29D
100
AcDbEntity
  8
RACCORDO
100
AcDbLine
 62
7
  6
CONTINUOUS
 10
-6.8827257825
 20
18.932133373
 11
-6.8827257825
 21
18.5921594388
  0
LINE
  5
29E
100
AcDbEntity
  8
RACCORDO
100
AcDbLine
 62
253
  6
CONTINUOUS
 10
-6.8095024778
 20
18.8437450253
 11
-6.8095024778
 21
18.5037710912
  0
LINE
  5
29F
100
AcDbEntity
  8
RACCORDO
100
AcDbLine
 62
7
  6
CONTINUOUS
 10
-6.1797328283
 20
17.6321822
 11
-6.1797328283
 21
18.0861544645
  0
LINE
  5
2A0
100
AcDbEntity
  8
RACCORDO
100
AcDbLine
 62
253
  6
CONTINUOUS
 10
-6.1065095236
 20
17.540468668
 11
-6.1065095236
 21
18.0495428122
  0
LINE
  5
2A1
100
AcDbEntity
  8
RACCORDO
100
AcDbLine
 62
7
  6
CONTINUOUS
 10
-6.0762994598
 20
19.4985697477
 11
-6.0762994598
 21
20.2562541712
  0
LINE
  5
2A2
100
AcDbEntity
  8
RACCORDO
100
AcDbLine
 62
253
  6
CONTINUOUS
 10
-5.7581014083
 20
25.3185376887
 11
-5.7581014083
 21
25.0607435122
  0
LINE
  5
2A3
100
AcDbEntity
  8
RACCORDO
100
AcDbLine
 62
253
  6
CONTINUOUS
 10
-5.5480322881
 20
20.5196929912
 11
-5.5480322881
 21
20.1721614745
  0
LINE
  5
2A4
100
AcDbEntity
  8
RACCORDO
100
AcDbLine
 62
253
  6
CONTINUOUS
 10
-5.484517798
 20
17.8412787513
 11
-5.484517798
 21
18.1812526854
  0
LINE
  5
2A5
100
AcDbEntity
  8
RACCORDO
100
AcDbLine
 62
7
  6
CONTINUOUS
 10
-5.4758344311
 20
20.6075656234
 11
-5.4758344311
 21
20.2600341067
  0
LINE
  5
2A6
100
AcDbEntity
  8
DRAFT
100
AcDbLine
 62
7
  6
CONTINUOUS
 10
5.5751762984
 20
15.9008705388
 11
4.7869832051
 21
15.1369661359
  0
LINE
  5
2A7
100
AcDbEntity
  8
DRAFT
100
AcDbLine
 62
7
  6
CONTINUOUS
 10
5.5145367934
 20
12.9661025262
 11
5.4141857345
 21
12.9088609131
  0
LINE
  5
2A8
100
AcDbEntity
  8
RACCORDO
100
AcDbLine
 62
7
  6
CONTINUOUS
 10
5.4141857345
 20
12.9088609131
 11
5.0565065852
 21
12.7092649612
  0
LINE
  5
2A9
100
AcDbEntity
  8
RACCORDO
100
AcDbLine
 62
7
  6
CONTINUOUS
 10
8.2002349318
 20
13.2843948574
 11
6.6174782764
 21
12.4724107332
  0
LINE
  5
2AA
100
AcDbEntity
  8
RACCORDO
100
AcDbLine
 62
253
  6
CONTINUOUS
 10
8.3133205457
 20
13.2779468554
 11
6.7305639426
 21
12.4659627581
  0
LINE
  5
2AB
100
AcDbEntity
  8
RACCORDO
100
AcDbLine
 62
253
  6
CONTINUOUS
 10
9.6568294132
 20
12.6061924217
 11
8.0555486224
 21
11.8034704182
  0
LINE
  5
2AC
100
AcDbEntity
  8
RACCORDO
100
AcDbLine
 62
253
  6
CONTINUOUS
 10
9.8336031169
 20
12.3013028829
 11
8.2323223261
 21
11.4985808793
  0
LINE
  5
2AD
100
AcDbEntity
  8
RACCORDO
100
AcDbLine
 62
7
  6
CONTINUOUS
 10
8.2019727696
 20
13.2852638201
 11
8.2002349351
 21
13.284394859
  0
LINE
  5
2AE
100
AcDbEntity
  8
RACCORDO
100
AcDbLine
 62
253
  6
CONTINUOUS
 10
10.1850965849
 20
12.8696312417
 11
9.6568294132
 21
12.6061924217
  0
LINE
  5
2AF
100
AcDbEntity
  8
RACCORDO
100
AcDbLine
 62
253
  6
CONTINUOUS
 10
10.3618702886
 20
12.5647417029
 11
9.8336031169
 21
12.3013028829
  0
LINE
  5
2B0
100
AcDbEntity
  8
RACCORDO
100
AcDbLine
 62
7
  6
CONTINUOUS
 10
8.7372583133
 20
13.546029113
 11
8.2020122803
 21
13.2852938145
  0
LINE
  5
2B1
100
AcDbEntity
  8
RACCORDO
100
AcDbLine
 62
253
  6
CONTINUOUS
 10
8.8477704244
 20
13.538294322
 11
8.3133205457
 21
13.2779468554
  0
LINE
  5
2B2
100
AcDbEntity
  8
RACCORDO
100
AcDbLine
 62
7
  6
CONTINUOUS
 10
14.5622697616
 20
15.3439721485
 11
9.8710268747
 21
13.0886434677
  0
LINE
  5
2B3
100
AcDbEntity
  8
DRAFT
100
AcDbLine
 62
7
  6
CONTINUOUS
 10
19.6510982632
 20
16.6150673673
 11
16.8693155897
 21
15.3071967231
  0
LINE
  5
2B4
100
AcDbEntity
  8
ASSI
100
AcDbLine
 62
253
  6
CONTINUOUS
 10
-5.170882772
 20
23.5077013225
 11
-5.170882772
 21
24.7272172345
  0
LINE
  5
2B5
100
AcDbEntity
  8
RACCORDO
100
AcDbLine
 62
253
  6
CONTINUOUS
 10
-5.1319958384
 20
17.8407660274
 11
-5.1319958384
 21
18.1807399616
  0
LINE
  5
2B6
100
AcDbEntity
  8
ASSI
100
AcDbLine
 62
7
  6
CONTINUOUS
 10
-5.0472887081
 20
23.6558863184
 11
-5.0472887081
 21
24.7354445381
  0
LINE
  5
2B7
100
AcDbEntity
  8
RACCORDO
100
AcDbLine
 62
253
  6
CONTINUOUS
 10
-4.7732971899
 20
17.5677752284
 11
-4.7732971899
 21
16.8738625012
  0
LINE
  5
2B8
100
AcDbEntity
  8
RACCORDO
100
AcDbLine
 62
253
  6
CONTINUOUS
 10
-4.4207752303
 20
17.6922625046
 11
-4.4207752303
 21
16.8846303828
  0
LINE
  5
2B9
100
AcDbEntity
  8
RACCORDO
100
AcDbLine
 62
7
  6
CONTINUOUS
 10
-4.2501634835
 20
29.9496787437
 11
-4.2501634835
 21
28.5656982407
  0
LINE
  5
2BA
100
AcDbEntity
  8
DRAFT
100
AcDbLine
 62
7
  6
CONTINUOUS
 10
-4.0851113603
 20
28.483172179
 11
-4.0851113603
 21
27.101130103
  0
LINE
  5
2BB
100
AcDbEntity
  8
RACCORDO
100
AcDbLine
 62
7
  6
CONTINUOUS
 10
-3.5307150475
 20
17.3888689933
 11
-3.5307150475
 21
18.9834619651
  0
LINE
  5
2BC
100
AcDbEntity
  8
RACCORDO
100
AcDbLine
 62
253
  6
CONTINUOUS
 10
-3.0024478758
 20
19.2469007851
 11
-3.0024478758
 21
18.8993692684
  0
LINE
  5
2BD
100
AcDbEntity
  8
RACCORDO
100
AcDbLine
 62
7
  6
CONTINUOUS
 10
-2.9302500188
 20
19.3347734173
 11
-2.9302500188
 21
18.9872419005
  0
LINE
  5
2BE
100
AcDbEntity
  8
RACCORDO
100
AcDbLine
 62
253
  6
CONTINUOUS
 10
4.3128648533
 20
7.6978469276
 11
8.8318959916
 21
10.1649188559
  0
LINE
  5
2BF
100
AcDbEntity
  8
RACCORDO
100
AcDbLine
 62
253
  6
CONTINUOUS
 10
10.2790870511
 20
10.1522617016
 11
4.6786975933
 21
7.0948444819
  0
LINE
  5
2C0
100
AcDbEntity
  8
RACCORDO
100
AcDbLine
 62
7
  6
CONTINUOUS
 10
15.4499760476
 20
14.5994708543
 11
9.9584327194
 21
11.6366572434
  0
LINE
  5
2C1
100
AcDbEntity
  8
RACCORDO
100
AcDbLine
 62
7
  6
CONTINUOUS
 10
15.4499760476
 20
14.0945832081
 11
10.1065191916
 21
11.2698009657
  0
LINE
  5
2C2
100
AcDbEntity
  8
RACCORDO
100
AcDbLine
 62
7
  6
CONTINUOUS
 10
15.0620510978
 20
13.4336176983
 11
10.4801202444
 21
11.0830004393
  0
LINE
  5
2C3
100
AcDbEntity
  8
RACCORDO
100
AcDbLine
 62
253
  6
CONTINUOUS
 10
17.4638422135
 20
12.0748355535
 11
10.8942632887
 21
8.8084974123
  0
LINE
  5
2C4
100
AcDbEntity
  8
DRAFT
100
AcDbLine
 62
7
  6
CONTINUOUS
 10
16.9596122444
 20
12.9445036067
 11
10.8942632887
 21
9.9982658861
  0
LINE
  5
2C5
100
AcDbEntity
  8
RACCORDO
100
AcDbLine
 62
7
  6
CONTINUOUS
 10
9.8336031169
 20
10.7064414155
 11
9.9349379357
 21
10.7554940648
  0
LINE
  5
2C6
100
AcDbEntity
  8
RACCORDO
100
AcDbLine
 62
253
  6
CONTINUOUS
 10
10.5406021879
 20
11.0527594675
 11
9.8288243533
 21
10.716558636
  0
LINE
  5
2C7
100
AcDbEntity
  8
RACCORDO
100
AcDbLine
 62
253
  6
CONTINUOUS
 10
10.8942632887
 20
10.4428337769
 11
10.2790870511
 21
10.1522617016
  0
LINE
  5
2C8
100
AcDbEntity
  8
DRAFT
100
AcDbLine
 62
7
  6
CONTINUOUS
 10
21.218022294
 20
15.8316053519
 11
22.6445775111
 21
16.5023082464
  0
LINE
  5
2C9
100
AcDbEntity
  8
RACCORDO
100
AcDbLine
 62
7
  6
CONTINUOUS
 10
26.9203388808
 20
17.4904605886
 11
23.6981412314
 21
15.9755263863
  0
LINE
  5
2CA
100
AcDbEntity
  8
DRAFT
100
AcDbLine
 62
7
  6
CONTINUOUS
 10
10.8704018968
 20
10.6105286779
 11
16.4624114516
 21
13.1931040031
  0
LINE
  5
2CB
100
AcDbEntity
  8
RACCORDO
100
AcDbLine
 62
7
  6
CONTINUOUS
 10
-1.4485794579
 20
31.5037923203
 11
-1.4485794579
 21
24.8950801637
  0
LINE
  5
2CC
100
AcDbEntity
  8
RACCORDO
100
AcDbLine
 62
7
  6
CONTINUOUS
 10
-1.3062910432
 20
16.8634183147
 11
-1.3062910432
 21
15.6268098064
  0
LINE
  5
2CD
100
AcDbEntity
  8
RACCORDO
100
AcDbLine
 62
253
  6
CONTINUOUS
 10
-1.1598444338
 20
16.5239660586
 11
-1.1598444338
 21
15.4433827478
  0
LINE
  5
2CE
100
AcDbEntity
  8
DRAFT
100
AcDbLine
 62
7
  6
CONTINUOUS
 10
-0.1012471588
 20
22.2556012789
 11
-0.1012471588
 21
19.9720334489
  0
LINE
  5
2CF
100
AcDbEntity
  8
RACCORDO
100
AcDbLine
 62
253
  6
CONTINUOUS
 10
27.9281111627
 20
15.9902352559
 11
10.8942632887
 21
7.1707023389
  0
LINE
  5
2D0
100
AcDbEntity
  8
RACCORDO
100
AcDbLine
 62
253
  6
CONTINUOUS
 10
9.8336031169
 20
11.5742580304
 11
10.3618702886
 21
12.2172101861
  0
LINE
  5
2D1
100
AcDbEntity
  8
RACCORDO
100
AcDbLine
 62
7
  6
CONTINUOUS
 10
9.8336031169
 20
11.4847275641
 11
10.377230861
 21
12.1463750196
  0
LINE
  5
2D2
100
AcDbEntity
  8
DRAFT
100
AcDbLine
 62
7
  6
CONTINUOUS
 10
3.9472569024
 20
21.2693346256
 11
3.9472569024
 21
20.4011928327
  0
LINE
  5
2D3
100
AcDbEntity
  8
DRAFT
100
AcDbLine
 62
253
  6
CONTINUOUS
 10
4.1413935283
 20
15.8186916272
 11
4.1413935283
 21
17.2523905987
  0
LINE
  5
2D4
100
AcDbEntity
  8
RACCORDO
100
AcDbLine
 62
253
  6
CONTINUOUS
 10
4.3514626659
 20
12.687729198
 11
4.3514626659
 21
13.7683125088
  0
LINE
  5
2D5
100
AcDbEntity
  8
DRAFT
100
AcDbLine
 62
7
  6
CONTINUOUS
 10
4.8485003095
 20
17.6059439893
 11
4.8485003095
 21
18.1660598679
  0
LINE
  5
2D6
100
AcDbEntity
  8
RACCORDO
100
AcDbLine
 62
253
  6
CONTINUOUS
 10
5.0565065852
 20
12.7092649612
 11
5.0565065852
 21
13.9419919336
  0
LINE
  5
2D7
100
AcDbEntity
  8
ASSI
100
AcDbLine
 62
253
  6
CONTINUOUS
 10
5.1822759322
 20
18.329380223
 11
5.1822759322
 21
19.5491936645
  0
LINE
  5
2D8
100
AcDbEntity
  8
DRAFT
100
AcDbLine
 62
7
  6
CONTINUOUS
 10
5.2020537001
 20
17.429167294
 11
5.2020537001
 21
17.9892831726
  0
LINE
  5
2D9
100
AcDbEntity
  8
ASSI
100
AcDbLine
 62
7
  6
CONTINUOUS
 10
5.3076254394
 20
18.4784303963
 11
5.3076254394
 21
19.5579172543
  0
LINE
  5
2DA
100
AcDbEntity
  8
DRAFT
100
AcDbLine
 62
7
  6
CONTINUOUS
 10
5.4141857345
 20
14.1212964784
 11
5.4141857345
 21
12.9088609131
  0
LINE
  5
2DB
100
AcDbEntity
  8
DRAFT
100
AcDbLine
 62
253
  6
CONTINUOUS
 10
5.5556070907
 20
15.8819043691
 11
5.5556070907
 21
17.2523905987
  0
LINE
  5
2DC
100
AcDbEntity
  8
DRAFT
100
AcDbLine
 62
7
  6
CONTINUOUS
 10
5.5971063935
 20
16.4522180839
 11
5.5971063935
 21
15.9114593621
  0
LINE
  5
2DD
100
AcDbEntity
  8
RACCORDO
100
AcDbLine
 62
253
  6
CONTINUOUS
 10
21.7066407643
 20
5.1163401818
 11
21.2258552777
 21
4.8778670361
  0
LINE
  5
2DE
100
AcDbEntity
  8
DRAFT
100
AcDbLine
 62
7
  6
CONTINUOUS
 10
27.6211680786
 20
5.0928405375
 11
20.3430562238
 21
2.2898624773
  0
LINE
  5
2DF
100
AcDbEntity
  8
RACCORDO
100
AcDbLine
 62
7
  6
CONTINUOUS
 10
6.4815923819
 20
12.2499742908
 11
6.4815923819
 21
11.9100003566
  0
LINE
  5
2E0
100
AcDbEntity
  8
RACCORDO
100
AcDbLine
 62
7
  6
CONTINUOUS
 10
6.4815923819
 20
-29.6030784212
 11
6.4815923819
 21
-29.7295777169
  0
LINE
  5
2E1
100
AcDbEntity
  8
RACCORDO
100
AcDbLine
 62
253
  6
CONTINUOUS
 10
6.5548156866
 20
12.1615859431
 11
6.5548156866
 21
11.821612009
  0
LINE
  5
2E2
100
AcDbEntity
  8
RACCORDO
100
AcDbLine
 62
253
  6
CONTINUOUS
 10
6.5548156866
 20
-29.5723422521
 11
6.5548156866
 21
-29.8179660645
  0
LINE
  5
2E3
100
AcDbEntity
  8
RACCORDO
100
AcDbLine
 62
7
  6
CONTINUOUS
 10
7.1845853362
 20
10.9500231178
 11
7.1845853362
 21
11.4039953823
  0
LINE
  5
2E4
100
AcDbEntity
  8
RACCORDO
100
AcDbLine
 62
253
  6
CONTINUOUS
 10
7.2578086409
 20
10.8583095858
 11
7.2578086409
 21
11.36738373
  0
LINE
  5
2E5
100
AcDbEntity
  8
RACCORDO
100
AcDbLine
 62
253
  6
CONTINUOUS
 10
7.8798003664
 20
-30.4804584044
 11
7.8798003664
 21
-30.1404844703
  0
LINE
  5
2E6
100
AcDbEntity
  8
RACCORDO
100
AcDbLine
 62
253
  6
CONTINUOUS
 10
7.8798003664
 20
11.1591196691
 11
7.8798003664
 21
11.4990936032
  0
LINE
  5
2E7
100
AcDbEntity
  8
RACCORDO
100
AcDbLine
 62
7
  6
CONTINUOUS
 10
7.9597701467
 20
18.4801657166
 11
7.9597701467
 21
18.2018077347
  0
LINE
  5
2E8
100
AcDbEntity
  8
RACCORDO
100
AcDbLine
 62
253
  6
CONTINUOUS
 10
8.2323223261
 20
-30.4809711283
 11
8.2323223261
 21
-30.1409971942
  0
LINE
  5
2E9
100
AcDbEntity
  8
RACCORDO
100
AcDbLine
 62
253
  6
CONTINUOUS
 10
8.2323223261
 20
11.1586069452
 11
8.2323223261
 21
11.4985808793
  0
LINE
  5
2EA
100
AcDbEntity
  8
RACCORDO
100
AcDbLine
 62
253
  6
CONTINUOUS
 10
8.5910209745
 20
10.8856161462
 11
8.5910209745
 21
10.191703419
  0
LINE
  5
2EB
100
AcDbEntity
  8
RACCORDO
100
AcDbLine
 62
253
  6
CONTINUOUS
 10
8.5910209745
 20
-28.7176259801
 11
8.5910209745
 21
-29.1639879932
  0
LINE
  5
2EC
100
AcDbEntity
  8
RACCORDO
100
AcDbLine
 62
253
  6
CONTINUOUS
 10
8.737587606
 20
18.0706931816
 11
8.737587606
 21
17.8128990051
  0
LINE
  5
2ED
100
AcDbEntity
  8
RACCORDO
100
AcDbLine
 62
7
  6
CONTINUOUS
 10
27.9281111627
 20
9.4375237055
 11
20.3430562238
 21
4.6830595053
  0
LINE
  5
2EE
100
AcDbEntity
  8
RACCORDO
100
AcDbLine
 62
253
  6
CONTINUOUS
 10
21.91874049
 20
4.7505222679
 11
21.6987643693
 21
4.6414124903
  0
LINE
  5
2EF
100
AcDbEntity
  8
RACCORDO
100
AcDbLine
 62
7
  6
CONTINUOUS
 10
27.9281111627
 20
4.3190480109
 11
20.3430562238
 21
1.2189578902
  0
LINE
  5
2F0
100
AcDbEntity
  8
RACCORDO
100
AcDbLine
 62
253
  6
CONTINUOUS
 10
-27.4378221942
 20
21.3251032905
 11
3.2969264601
 21
5.9577289633
  0
LINE
  5
2F1
100
AcDbEntity
  8
RACCORDO
100
AcDbLine
 62
253
  6
CONTINUOUS
 10
-26.4452561842
 20
23.0769074464
 11
4.3128648533
 21
7.6978469276
  0
LINE
  5
2F2
100
AcDbEntity
  8
RACCORDO
100
AcDbLine
 62
253
  6
CONTINUOUS
 10
8.9435429342
 20
11.0101034224
 11
8.9435429342
 21
10.2016025984
  0
LINE
  5
2F3
100
AcDbEntity
  8
RACCORDO
100
AcDbLine
 62
253
  6
CONTINUOUS
 10
8.9435429342
 20
-28.5696515804
 11
8.9435429342
 21
-29.289500717
  0
LINE
  5
2F4
100
AcDbEntity
  8
RACCORDO
100
AcDbLine
 62
7
  6
CONTINUOUS
 10
9.8336031169
 20
-28.1960404687
 11
9.8336031169
 21
-29.7009365286
  0
LINE
  5
2F5
100
AcDbEntity
  8
RACCORDO
100
AcDbLine
 62
7
  6
CONTINUOUS
 10
9.8336031169
 20
10.7064414155
 11
9.8336031169
 21
12.3013028829
  0
LINE
  5
2F6
100
AcDbEntity
  8
RACCORDO
100
AcDbLine
 62
253
  6
CONTINUOUS
 10
10.3618702886
 20
12.5647417029
 11
10.3618702886
 21
12.2172101861
  0
LINE
  5
2F7
100
AcDbEntity
  8
RACCORDO
100
AcDbLine
 62
253
  6
CONTINUOUS
 10
10.3618702886
 20
-29.0823939532
 11
10.3618702886
 21
-29.42992547
  0
LINE
  5
2F8
100
AcDbEntity
  8
RACCORDO
100
AcDbLine
 62
7
  6
CONTINUOUS
 10
10.4340681456
 20
12.6526143351
 11
10.4340681456
 21
12.3050828183
  0
LINE
  5
2F9
100
AcDbEntity
  8
RACCORDO
100
AcDbLine
 62
7
  6
CONTINUOUS
 10
10.4340681456
 20
-28.9945213211
 11
10.4340681456
 21
-29.3420528378
  0
LINE
  5
2FA
100
AcDbEntity
  8
ASSI
100
AcDbLine
 62
253
  6
CONTINUOUS
 10
10.7390198047
 20
15.5527500342
 11
10.7390198047
 21
16.7722659461
  0
LINE
  5
2FB
100
AcDbEntity
  8
ASSI
100
AcDbLine
 62
7
  6
CONTINUOUS
 10
10.8626138686
 20
15.7009350301
 11
10.8626138686
 21
16.7804932498
  0
LINE
  5
2FC
100
AcDbEntity
  8
RACCORDO
100
AcDbLine
 62
7
  6
CONTINUOUS
 10
10.8942632887
 20
10.4428337769
 11
10.8942632887
 21
-27.4889140321
  0
LINE
  5
2FD
100
AcDbEntity
  8
DRAFT
100
AcDbLine
 62
7
  6
CONTINUOUS
 10
10.8942632887
 20
7.1707023389
 11
10.8942632887
 21
-24.2167825941
  0
LINE
  5
2FE
100
AcDbEntity
  8
RACCORDO
100
AcDbLine
 62
253
  6
CONTINUOUS
 10
10.4340681456
 20
-29.3420528607
 11
10.4340680006
 21
-29.3421874604
  0
LINE
  5
2FF
100
AcDbEntity
  8
0
100
AcDbLine
 62
7
  6
CONTINUOUS
 10
-7.4346567537
 20
-17.5528197353
 11
-7.2679113397
 21
-17.4694470283
  0
LINE
  5
300
100
AcDbEntity
  8
RACCORDO
100
AcDbLine
 62
7
  6
CONTINUOUS
 10
8.0054788325
 20
11.0027857844
 11
8.6309018758
 21
10.8721968727
  0
LINE
  5
301
100
AcDbEntity
  8
RACCORDO
100
AcDbLine
 62
253
  6
CONTINUOUS
 10
8.2323223261
 20
11.1586069452
 11
8.9435429342
 21
11.0101034224
  0
LINE
  5
302
100
AcDbEntity
  8
RACCORDO
100
AcDbLine
 62
7
  6
CONTINUOUS
 10
-22.0164121003
 20
25.4954199564
 11
-20.6831997666
 21
24.8288137895
  0
LINE
  5
303
100
AcDbEntity
  8
RACCORDO
100
AcDbLine
 62
7
  6
CONTINUOUS
 10
-8.6520939358
 20
18.8132608741
 11
-7.3188816022
 21
18.1466547073
  0
LINE
  5
304
100
AcDbEntity
  8
RACCORDO
100
AcDbLine
 62
7
  6
CONTINUOUS
 10
-6.1065095236
 20
17.540468668
 11
-4.7732971899
 21
16.8738625012
  0
LINE
  5
305
100
AcDbEntity
  8
RACCORDO
100
AcDbLine
 62
7
  6
CONTINUOUS
 10
7.2578086409
 20
10.8583095858
 11
8.5910209745
 21
10.191703419
  0
LINE
  5
306
100
AcDbEntity
  8
RACCORDO
100
AcDbLine
 62
7
  6
CONTINUOUS
 10
4.3514626659
 20
12.687729198
 11
-1.1598444338
 21
15.4433827478
  0
LINE
  5
307
100
AcDbEntity
  8
RACCORDO
100
AcDbLine
 62
7
  6
CONTINUOUS
 10
-11.5584399108
 20
20.6426804863
 11
-17.0697470105
 21
23.3983340362
  0
LINE
  5
308
100
AcDbEntity
  8
RACCORDO
100
AcDbLine
 62
7
  6
CONTINUOUS
 10
-22.6544317581
 20
26.3235039294
 11
-21.3294470783
 21
25.6610115895
  0
LINE
  5
309
100
AcDbEntity
  8
RACCORDO
100
AcDbLine
 62
7
  6
CONTINUOUS
 10
-9.2901135937
 20
19.6413448472
 11
-7.9651289139
 21
18.9788525073
  0
LINE
  5
30A
100
AcDbEntity
  8
RACCORDO
100
AcDbLine
 62
7
  6
CONTINUOUS
 10
-6.7445291814
 20
18.3685526411
 11
-5.4195445016
 21
17.7060603012
  0
LINE
  5
30B
100
AcDbEntity
  8
RACCORDO
100
AcDbLine
 62
7
  6
CONTINUOUS
 10
6.619788983
 20
11.6863935589
 11
7.9447736628
 21
11.023901219
  0
LINE
  5
30C
100
AcDbEntity
  8
RACCORDO
100
AcDbLine
 62
253
  6
CONTINUOUS
 10
-22.7194050545
 20
26.4587223795
 11
-21.3944203747
 21
25.7962300396
  0
LINE
  5
30D
100
AcDbEntity
  8
RACCORDO
100
AcDbLine
 62
253
  6
CONTINUOUS
 10
-9.3550868901
 20
19.7765632973
 11
-8.0301022103
 21
19.1140709574
  0
LINE
  5
30E
100
AcDbEntity
  8
RACCORDO
100
AcDbLine
 62
253
  6
CONTINUOUS
 10
-6.8095024778
 20
18.5037710912
 11
-5.484517798
 21
17.8412787513
  0
LINE
  5
30F
100
AcDbEntity
  8
RACCORDO
100
AcDbLine
 62
253
  6
CONTINUOUS
 10
6.5548156866
 20
11.821612009
 11
7.8798003664
 21
11.1591196691
  0
LINE
  5
310
100
AcDbEntity
  8
RACCORDO
100
AcDbLine
 62
253
  6
CONTINUOUS
 10
20.7985607142
 20
4.9685788338
 11
23.6267401699
 21
3.5544891059
  0
LINE
  5
311
100
AcDbEntity
  8
RACCORDO
100
AcDbLine
 62
253
  6
CONTINUOUS
 10
7.8798003664
 20
11.4990936032
 11
6.5548156866
 21
12.1615859431
  0
LINE
  5
312
100
AcDbEntity
  8
RACCORDO
100
AcDbLine
 62
253
  6
CONTINUOUS
 10
-5.484517798
 20
18.1812526854
 11
-6.8095024778
 21
18.8437450253
  0
LINE
  5
313
100
AcDbEntity
  8
RACCORDO
100
AcDbLine
 62
253
  6
CONTINUOUS
 10
-8.0301022103
 20
19.4540448916
 11
-9.3550868901
 21
20.1165372315
  0
LINE
  5
314
100
AcDbEntity
  8
RACCORDO
100
AcDbLine
 62
253
  6
CONTINUOUS
 10
-21.3944203747
 20
26.1362039738
 11
-22.7194050545
 21
26.7986963137
  0
LINE
  5
315
100
AcDbEntity
  8
RACCORDO
100
AcDbLine
 62
7
  6
CONTINUOUS
 10
20.9076602005
 20
5.0369645747
 11
23.7656308069
 21
3.6079792715
  0
LINE
  5
316
100
AcDbEntity
  8
DRAFT
100
AcDbLine
 62
7
  6
CONTINUOUS
 10
6.5687705943
 20
12.4389856258
 11
5.5145367934
 21
12.9661025262
  0
LINE
  5
317
100
AcDbEntity
  8
DRAFT
100
AcDbLine
 62
7
  6
CONTINUOUS
 10
-1.3062910432
 20
16.3765164445
 11
-3.4291895049
 21
17.4379656754
  0
LINE
  5
318
100
AcDbEntity
  8
DRAFT
100
AcDbLine
 62
7
  6
CONTINUOUS
 10
-9.3411319824
 20
20.3939369141
 11
-10.3953657833
 21
20.9210538146
  0
LINE
  5
319
100
AcDbEntity
  8
DRAFT
100
AcDbLine
 62
7
  6
CONTINUOUS
 10
-17.2161936199
 20
24.3314677328
 11
-19.3390920816
 21
25.3929169637
  0
LINE
  5
31A
100
AcDbEntity
  8
RACCORDO
100
AcDbLine
 62
253
  6
CONTINUOUS
 10
8.0555486224
 20
11.8034704182
 11
6.7305639426
 21
12.4659627581
  0
LINE
  5
31B
100
AcDbEntity
  8
RACCORDO
100
AcDbLine
 62
253
  6
CONTINUOUS
 10
-5.3087695421
 20
18.4856295004
 11
-6.6337542219
 21
19.1481218403
  0
LINE
  5
31C
100
AcDbEntity
  8
RACCORDO
100
AcDbLine
 62
253
  6
CONTINUOUS
 10
-7.8543539543
 20
19.7584217065
 11
-9.1793386341
 21
20.4209140464
  0
LINE
  5
31D
100
AcDbEntity
  8
RACCORDO
100
AcDbLine
 62
253
  6
CONTINUOUS
 10
-21.2186721187
 20
26.4405807887
 11
-22.5436567986
 21
27.1030731286
  0
LINE
  5
31E
100
AcDbEntity
  8
RACCORDO
100
AcDbLine
 62
253
  6
CONTINUOUS
 10
4.3514626659
 20
13.7683125088
 11
-1.1598444338
 21
16.5239660586
  0
LINE
  5
31F
100
AcDbEntity
  8
RACCORDO
100
AcDbLine
 62
253
  6
CONTINUOUS
 10
-11.5584399108
 20
21.7232637971
 11
-17.0697470105
 21
24.478917347
  0
LINE
  5
320
100
AcDbEntity
  8
RACCORDO
100
AcDbLine
 62
253
  6
CONTINUOUS
 10
21.3326312567
 20
5.3033449357
 11
21.7066407643
 21
5.1163401818
  0
LINE
  5
321
100
AcDbEntity
  8
RACCORDO
100
AcDbLine
 62
253
  6
CONTINUOUS
 10
4.7742850457
 20
13.8707020732
 11
-1.301469604
 21
16.9085793981
  0
LINE
  5
322
100
AcDbEntity
  8
RACCORDO
100
AcDbLine
 62
253
  6
CONTINUOUS
 10
-11.135617531
 20
21.8256533616
 11
-17.2113721807
 21
24.8635306865
  0
LINE
  5
323
100
AcDbEntity
  8
RACCORDO
100
AcDbLine
 62
7
  6
CONTINUOUS
 10
-19.4406176242
 20
26.0433693736
 11
-18.0264040619
 21
25.3362625924
  0
LINE
  5
324
100
AcDbEntity
  8
DRAFT
100
AcDbLine
 62
7
  6
CONTINUOUS
 10
-3.5307150475
 20
18.0884180853
 11
-2.1165014852
 21
17.3813113041
  0
LINE
  5
325
100
AcDbEntity
  8
RACCORDO
100
AcDbLine
 62
7
  6
CONTINUOUS
 10
9.8336031169
 20
11.4062590031
 11
10.5406021879
 21
11.0527594675
  0
LINE
  5
326
100
AcDbEntity
  8
DRAFT
100
AcDbLine
 62
7
  6
CONTINUOUS
 10
-16.7182565167
 20
25.187517604
 11
-10.4957168422
 21
22.0762477667
  0
LINE
  5
327
100
AcDbEntity
  8
DRAFT
100
AcDbLine
 62
7
  6
CONTINUOUS
 10
-0.80835394
 20
17.2325663156
 11
5.4141857345
 21
14.1212964784
  0
LINE
  5
328
100
AcDbEntity
  8
RACCORDO
100
AcDbLine
 62
7
  6
CONTINUOUS
 10
22.1368001322
 20
5.1410595797
 11
21.5454423251
 21
5.4367391714
  0
LINE
  5
329
100
AcDbEntity
  8
RACCORDO
100
AcDbLine
 62
7
  6
CONTINUOUS
 10
15.2018317238
 20
13.6775281396
 11
15.2018317238
 21
13.9634033936
  0
LINE
  5
32A
100
AcDbEntity
  8
RACCORDO
100
AcDbLine
 62
253
  6
CONTINUOUS
 10
15.4499760476
 20
14.5994708543
 11
15.4499760476
 21
14.0945832081
  0
LINE
  5
32B
100
AcDbEntity
  8
RACCORDO
100
AcDbLine
 62
253
  6
CONTINUOUS
 10
15.4499760476
 20
-22.7121176824
 11
15.4499760476
 21
-22.7538943109
  0
LINE
  5
32C
100
AcDbEntity
  8
RACCORDO
100
AcDbLine
 62
7
  6
CONTINUOUS
 10
15.5903061474
 20
14.9019076608
 11
15.5903061474
 21
14.2708518707
  0
LINE
  5
32D
100
AcDbEntity
  8
RACCORDO
100
AcDbLine
 62
7
  6
CONTINUOUS
 10
15.5903061474
 20
-22.637908814
 11
15.5903061474
 21
-22.7090019322
  0
LINE
  5
32E
100
AcDbEntity
  8
RACCORDO
100
AcDbLine
 62
253
  6
CONTINUOUS
 10
-6.3389834447
 20
-19.7441663532
 11
-6.3388968481
 21
-19.7441230435
  0
LINE
  5
32F
100
AcDbEntity
  8
0
100
AcDbLine
 62
7
  6
CONTINUOUS
 10
-6.3389834447
 20
-19.7441663532
 11
-6.1408454197
 21
-19.6450973407
  0
LINE
  5
330
100
AcDbEntity
  8
0
100
AcDbLine
 62
7
  6
CONTINUOUS
 10
7.9597701467
 20
18.2018077347
 11
6.5998382066
 21
18.1280595473
  0
LINE
  5
331
100
AcDbEntity
  8
RACCORDO
100
AcDbLine
 62
7
  6
CONTINUOUS
 10
-5.3588393319
 20
17.6849448666
 11
-4.7334162886
 21
17.5543559549
  0
LINE
  5
332
100
AcDbEntity
  8
RACCORDO
100
AcDbLine
 62
253
  6
CONTINUOUS
 10
-5.1319958384
 20
17.8407660274
 11
-4.4207752303
 21
17.6922625046
  0
LINE
  5
333
100
AcDbEntity
  8
RACCORDO
100
AcDbLine
 62
7
  6
CONTINUOUS
 10
-7.9044237442
 20
18.9577370728
 11
-7.2790007009
 21
18.8271481611
  0
LINE
  5
334
100
AcDbEntity
  8
RACCORDO
100
AcDbLine
 62
253
  6
CONTINUOUS
 10
-7.6775802506
 20
19.1135582336
 11
-6.9663596425
 21
18.9650547107
  0
LINE
  5
335
100
AcDbEntity
  8
RACCORDO
100
AcDbLine
 62
253
  6
CONTINUOUS
 10
10.2958452135
 20
12.8762342931
 11
10.2956870473
 21
12.876313128
  0
LINE
  5
336
100
AcDbEntity
  8
RACCORDO
100
AcDbLine
 62
253
  6
CONTINUOUS
 10
-5.6140573632
 20
20.8311855815
 11
-5.6142155294
 21
20.8312644163
  0
LINE
  5
337
100
AcDbEntity
  8
RACCORDO
100
AcDbLine
 62
7
  6
CONTINUOUS
 10
-20.9609001954
 20
27.915057226
 11
-19.6173913279
 21
27.2433027922
  0
LINE
  5
338
100
AcDbEntity
  8
RACCORDO
100
AcDbLine
 62
7
  6
CONTINUOUS
 10
-7.596582031
 20
21.2328981438
 11
-6.2530731635
 21
20.56114371
  0
LINE
  5
339
100
AcDbEntity
  8
RACCORDO
100
AcDbLine
 62
7
  6
CONTINUOUS
 10
-5.0509976187
 20
19.9601059376
 11
-3.7074887512
 21
19.2883515039
  0
LINE
  5
33A
100
AcDbEntity
  8
RACCORDO
100
AcDbLine
 62
7
  6
CONTINUOUS
 10
8.3133205457
 20
13.2779468554
 11
9.6568294132
 21
12.6061924217
  0
LINE
  5
33B
100
AcDbEntity
  8
DRAFT
100
AcDbLine
 62
7
  6
CONTINUOUS
 10
5.4848964126
 20
14.7880095321
 11
0.5351489443
 21
17.2628832663
  0
LINE
  5
33C
100
AcDbEntity
  8
DRAFT
100
AcDbLine
 62
7
  6
CONTINUOUS
 10
-10.4250061641
 20
22.7429608205
 11
-15.3747536324
 21
25.2178345546
  0
LINE
  5
33D
100
AcDbEntity
  8
RACCORDO
100
AcDbLine
 62
253
  6
CONTINUOUS
 10
-20.4264503167
 20
28.1754046925
 11
-19.0891241562
 21
27.5067416123
  0
LINE
  5
33E
100
AcDbEntity
  8
RACCORDO
100
AcDbLine
 62
253
  6
CONTINUOUS
 10
-7.0621321523
 20
21.4932456103
 11
-5.7248059917
 21
20.8245825301
  0
LINE
  5
33F
100
AcDbEntity
  8
RACCORDO
100
AcDbLine
 62
253
  6
CONTINUOUS
 10
-4.51654774
 20
20.2204534042
 11
-3.1792215795
 21
19.5517903239
  0
LINE
  5
340
100
AcDbEntity
  8
RACCORDO
100
AcDbLine
 62
253
  6
CONTINUOUS
 10
8.8477704244
 20
13.538294322
 11
10.1850965849
 21
12.8696312417
  0
LINE
  5
341
100
AcDbEntity
  8
RACCORDO
100
AcDbLine
 62
7
  6
CONTINUOUS
 10
-20.3156753572
 20
28.1819945837
 11
-18.9783491966
 21
27.5133315034
  0
LINE
  5
342
100
AcDbEntity
  8
RACCORDO
100
AcDbLine
 62
7
  6
CONTINUOUS
 10
-6.9513571927
 20
21.4998355014
 11
-5.6140310322
 21
20.8311724212
  0
LINE
  5
343
100
AcDbEntity
  8
RACCORDO
100
AcDbLine
 62
7
  6
CONTINUOUS
 10
-4.4057727805
 20
20.2270432953
 11
-3.0684466199
 21
19.558380215
  0
LINE
  5
344
100
AcDbEntity
  8
RACCORDO
100
AcDbLine
 62
7
  6
CONTINUOUS
 10
8.9585453839
 20
13.5448842131
 11
10.2958715445
 21
12.8762211328
  0
LINE
  5
345
100
AcDbEntity
  8
DRAFT
100
AcDbLine
 62
7
  6
CONTINUOUS
 10
5.5751762984
 20
15.9008705388
 11
6.651207747
 21
15.3628548144
  0
LINE
  5
346
100
AcDbEntity
  8
DRAFT
100
AcDbLine
 62
7
  6
CONTINUOUS
 10
-9.2586948297
 20
23.3178061028
 11
-12.1024932313
 21
24.7397053036
  0
LINE
  5
347
100
AcDbEntity
  8
RACCORDO
100
AcDbLine
 62
7
  6
CONTINUOUS
 10
27.6211680786
 20
5.0928405375
 11
27.9158781435
 21
4.9454855051
  0
LINE
  5
348
100
AcDbEntity
  8
DRAFT
100
AcDbLine
 62
7
  6
CONTINUOUS
 10
-0.9497752962
 20
19.5659092158
 11
-3.2832276741
 21
20.7326354047
  0
LINE
  5
349
100
AcDbEntity
  8
ASSI
100
AcDbLine
 62
7
  6
CONTINUOUS
 10
5.5971063935
 20
16.4522180839
 11
6.1473040939
 21
16.1771192337
  0
LINE
  5
34A
100
AcDbEntity
  8
0
100
AcDbLine
 62
7
  6
CONTINUOUS
 10
6.6183778935
 20
16.4045745739
 11
7.683870672
 21
15.8718281847
  0
LINE
  5
34B
100
AcDbEntity
  8
0
100
AcDbLine
 62
7
  6
CONTINUOUS
 10
-8.2260319047
 20
23.826779473
 11
-10.3644197375
 21
24.8959733894
  0
LINE
  5
34C
100
AcDbEntity
  8
RACCORDO
100
AcDbLine
 62
7
  6
CONTINUOUS
 10
-21.2687419086
 20
25.639896155
 11
-20.6433188653
 21
25.5093072433
  0
LINE
  5
34D
100
AcDbEntity
  8
ASSI
100
AcDbLine
 62
7
  6
CONTINUOUS
 10
-10.354295486
 20
25.2073418871
 11
-7.9073304194
 21
23.9838593538
  0
LINE
  5
34E
100
AcDbEntity
  8
ASSI
100
AcDbLine
 62
7
  6
CONTINUOUS
 10
5.5556070907
 20
17.2523905987
 11
8.0025721573
 21
16.0289080654
  0
LINE
  5
34F
100
AcDbEntity
  8
0
100
AcDbLine
 62
7
  6
CONTINUOUS
 10
5.2020537001
 20
17.429167294
 11
4.8485003095
 21
17.6059439893
  0
LINE
  5
350
100
AcDbEntity
  8
0
100
AcDbLine
 62
7
  6
CONTINUOUS
 10
-10.7078488766
 20
25.3841185824
 11
-11.0614022672
 21
25.5608952777
  0
LINE
  5
351
100
AcDbEntity
  8
DRAFT
100
AcDbLine
 62
7
  6
CONTINUOUS
 10
-11.0614022672
 20
26.1210111562
 11
-10.7078488766
 21
25.9442344609
  0
LINE
  5
352
100
AcDbEntity
  8
DRAFT
100
AcDbLine
 62
7
  6
CONTINUOUS
 10
4.8485003095
 20
18.1660598679
 11
5.2020537001
 21
17.9892831726
  0
LINE
  5
353
100
AcDbEntity
  8
DRAFT
100
AcDbLine
 62
7
  6
CONTINUOUS
 10
16.9596122444
 20
12.9445036067
 11
16.4624114516
 21
13.1931040031
  0
LINE
  5
354
100
AcDbEntity
  8
0
100
AcDbLine
 62
7
  6
CONTINUOUS
 10
9.4103878536
 20
16.7227847238
 11
6.5998382066
 21
18.1280595473
  0
LINE
  5
355
100
AcDbEntity
  8
0
100
AcDbLine
 62
7
  6
CONTINUOUS
 10
-6.4995147231
 20
24.6777360122
 11
-9.3100643701
 21
26.0830108356
  0
LINE
  5
356
100
AcDbEntity
  8
ASSI
100
AcDbLine
 62
253
  6
CONTINUOUS
 10
10.6886778036
 20
16.7516056123
 11
10.0831473689
 21
17.0543708296
  0
LINE
  5
357
100
AcDbEntity
  8
ASSI
100
AcDbLine
 62
253
  6
CONTINUOUS
 10
5.1333999006
 20
19.5292445638
 11
4.527869466
 21
19.8320097811
  0
LINE
  5
358
100
AcDbEntity
  8
ASSI
100
AcDbLine
 62
253
  6
CONTINUOUS
 10
-5.2212247731
 20
24.7065569006
 11
-5.8267552078
 21
25.009322118
  0
LINE
  5
359
100
AcDbEntity
  8
ASSI
100
AcDbLine
 62
253
  6
CONTINUOUS
 10
-10.7765026761
 20
27.4841958521
 11
-11.3820331107
 21
27.7869610694
  0
LINE
  5
35A
100
AcDbEntity
  8
0
100
AcDbLine
 62
7
  6
CONTINUOUS
 10
11.0532699282
 20
16.655057844
 11
10.8626138686
 21
16.7503858738
  0
LINE
  5
35B
100
AcDbEntity
  8
0
100
AcDbLine
 62
7
  6
CONTINUOUS
 10
10.1963044019
 20
17.0835406071
 11
7.9597701467
 21
18.2018077347
  0
LINE
  5
35C
100
AcDbEntity
  8
0
100
AcDbLine
 62
7
  6
CONTINUOUS
 10
-4.8566326485
 20
24.6100091323
 11
-5.0472887081
 21
24.7053371621
  0
LINE
  5
35D
100
AcDbEntity
  8
0
100
AcDbLine
 62
7
  6
CONTINUOUS
 10
-5.7135981748
 20
25.0384918955
 11
-7.95013243
 21
26.1567590231
  0
LINE
  5
35E
100
AcDbEntity
  8
DRAFT
100
AcDbLine
 62
7
  6
CONTINUOUS
 10
-0.1012471588
 20
22.2556012789
 11
2.2322052191
 21
21.08887509
  0
LINE
  5
35F
100
AcDbEntity
  8
ASSI
100
AcDbLine
 62
7
  6
CONTINUOUS
 10
10.8540148824
 20
16.7928918146
 11
10.3606463495
 21
17.0395760811
  0
LINE
  5
360
100
AcDbEntity
  8
ASSI
100
AcDbLine
 62
7
  6
CONTINUOUS
 10
5.2989930599
 20
19.5704027259
 11
4.805623674
 21
19.8170874188
  0
LINE
  5
361
100
AcDbEntity
  8
ASSI
100
AcDbLine
 62
7
  6
CONTINUOUS
 10
-5.0558876942
 20
24.747843103
 11
-5.5492562272
 21
24.9945273695
  0
LINE
  5
362
100
AcDbEntity
  8
ASSI
100
AcDbLine
 62
7
  6
CONTINUOUS
 10
-10.6109095168
 20
27.5253540143
 11
-11.1042789027
 21
27.7720387072
  0
LINE
  5
363
100
AcDbEntity
  8
0
100
AcDbLine
 62
253
  6
CONTINUOUS
 10
-5.7581014083
 20
25.3185376887
 11
-4.5960533518
 21
24.7375136605
  0
LINE
  5
364
100
AcDbEntity
  8
0
100
AcDbLine
 62
253
  6
CONTINUOUS
 10
8.737587606
 20
18.0706931816
 11
11.3138492249
 21
16.7825623722
  0
LINE
  5
365
100
AcDbEntity
  8
RACCORDO
100
AcDbLine
 62
253
  6
CONTINUOUS
 10
-11.7118637352
 20
28.481038897
 11
-8.6510686187
 21
26.9506413387
  0
LINE
  5
366
100
AcDbEntity
  8
RACCORDO
100
AcDbLine
 62
253
  6
CONTINUOUS
 10
-4.4084279316
 20
24.8293209952
 11
-1.3476328151
 21
23.2989234369
  0
LINE
  5
367
100
AcDbEntity
  8
RACCORDO
100
AcDbLine
 62
253
  6
CONTINUOUS
 10
4.1980388415
 20
20.5260876086
 11
7.258833958
 21
18.9956900504
  0
LINE
  5
368
100
AcDbEntity
  8
RACCORDO
100
AcDbLine
 62
253
  6
CONTINUOUS
 10
11.5014746451
 20
16.8743697068
 11
14.5622697616
 21
15.3439721485
  0
LINE
  5
369
100
AcDbEntity
  8
RACCORDO
100
AcDbLine
 62
7
  6
CONTINUOUS
 10
-11.4313826385
 20
28.5866693167
 11
-8.2100256156
 21
26.9759908053
  0
LINE
  5
36A
100
AcDbEntity
  8
RACCORDO
100
AcDbLine
 62
7
  6
CONTINUOUS
 10
-3.9673849285
 20
24.8546704617
 11
-0.7460270003
 21
23.2439914976
  0
LINE
  5
36B
100
AcDbEntity
  8
RACCORDO
100
AcDbLine
 62
7
  6
CONTINUOUS
 10
4.4785199382
 20
20.6317180284
 11
7.6998769611
 21
19.021039517
  0
LINE
  5
36C
100
AcDbEntity
  8
RACCORDO
100
AcDbLine
 62
7
  6
CONTINUOUS
 10
11.9425176482
 20
16.8997191734
 11
15.1638755764
 21
15.2890402093
  0
LINE
  5
36D
100
AcDbEntity
  8
0
100
AcDbLine
 62
253
  6
CONTINUOUS
 10
-5.5422671594
 20
25.6862228643
 11
-0.5925196911
 21
23.2113491302
  0
LINE
  5
36E
100
AcDbEntity
  8
0
100
AcDbLine
 62
253
  6
CONTINUOUS
 10
8.9534218549
 20
18.4383783572
 11
13.9031693232
 21
15.963504623
  0
LWPOLYLINE
  5
36F
100
AcDbEntity
  8
RACCORDO
100
AcDbPolyline
 62
7
  6
CONTINUOUS
 90
12
 70
0
 10
22.4807603824
 20
4.4958917379
 10
22.4783647441
 20
4.566142021
 10
22.4685962374
 20
4.6513701753
 10
22.4512261544
 20
4.7328870079
 10
22.4263216401
 20
4.8099978015
 10
22.3943090907
 20
4.8814824046
 10
22.3556840015
 20
4.9466009108
 10
22.3107347305
 20
5.0052342596
 10
22.2599461396
 20
5.0569523224
 10
22.2040227832
 20
5.101184799
 10
22.1437115425
 20
5.1375161243
 10
22.1369246332
 20
5.1409784644
  0
LINE
  5
370
100
AcDbEntity
  8
0
100
AcDbLine
 62
7
  6
CONTINUOUS
 10
20.3430562238
 20
4.6830595053
 11
20.3430562238
 21
1.2189578902
  0
LINE
  5
371
100
AcDbEntity
  8
RACCORDO
100
AcDbLine
 62
253
  6
CONTINUOUS
 10
22.3965877056
 20
4.2925008222
 11
22.3965877056
 21
4.3918094537
  0
LINE
  5
372
100
AcDbEntity
  8
RACCORDO
100
AcDbLine
 62
7
  6
CONTINUOUS
 10
22.4807857655
 20
4.2504017922
 11
22.4807857655
 21
4.4960081947
  0
LINE
  5
373
100
AcDbEntity
  8
RACCORDO
100
AcDbLine
 62
253
  6
CONTINUOUS
 10
-21.0418984151
 20
25.7957173158
 11
-20.330677807
 21
25.6472137929
  0
LINE
  5
374
100
AcDbEntity
  8
DRAFT
100
AcDbLine
 62
7
  6
CONTINUOUS
 10
0.3050215015
 20
23.0904523261
 11
3.9472569024
 21
21.2693346256
  0
LINE
  5
375
100
AcDbEntity
  8
DRAFT
100
AcDbLine
 62
7
  6
CONTINUOUS
 10
-6.8187615801
 20
27.151235308
 11
16.8693155897
 21
15.3071967231
  0
LINE
  5
376
100
AcDbEntity
  8
RACCORDO
100
AcDbLine
 62
7
  6
CONTINUOUS
 10
17.4638422135
 20
12.0748355535
 11
16.9596122444
 21
12.9445036067
  0
LINE
  5
377
100
AcDbEntity
  8
RACCORDO
100
AcDbLine
 62
253
  6
CONTINUOUS
 10
8.5905067461
 20
-29.163730879
 11
7.9681887141
 21
-29.9087902965
  0
LINE
  5
378
100
AcDbEntity
  8
DRAFT
100
AcDbLine
 62
7
  6
CONTINUOUS
 10
21.218022294
 20
15.8316053519
 11
19.6510982632
 21
16.6150673673
  0
LINE
  5
379
100
AcDbEntity
  8
DRAFT
100
AcDbLine
 62
7
  6
CONTINUOUS
 10
-4.0851113603
 20
28.483172179
 11
-5.6520353911
 21
29.2666341945
  0
LINE
  5
37A
100
AcDbEntity
  8
DRAFT
100
AcDbLine
 62
7
  6
CONTINUOUS
 10
-5.3037272038
 20
30.4764606039
 11
-4.2501634835
 21
29.9496787437
  0
LINE
  5
37B
100
AcDbEntity
  8
DRAFT
100
AcDbLine
 62
7
  6
CONTINUOUS
 10
22.6445775111
 20
16.5023082464
 11
23.6981412314
 21
15.9755263863
  0
LINE
  5
37C
100
AcDbEntity
  8
RACCORDO
100
AcDbLine
 62
253
  6
CONTINUOUS
 10
27.9281111627
 20
15.9902352559
 11
27.9281111627
 21
9.4375237055
  0
LINE
  5
37D
100
AcDbEntity
  8
RACCORDO
100
AcDbLine
 62
253
  6
CONTINUOUS
 10
27.9281111627
 20
4.3190480109
 11
27.9281111627
 21
-15.3972496771
  0
LINE
  5
37E
100
AcDbEntity
  8
RACCORDO
100
AcDbLine
 62
7
  6
CONTINUOUS
 10
28.2087713623
 20
16.3375644411
 11
28.2087713623
 21
9.8370701597
  0
LINE
  5
37F
100
AcDbEntity
  8
RACCORDO
100
AcDbLine
 62
7
  6
CONTINUOUS
 10
28.2087713623
 20
4.6141600996
 11
28.2087713623
 21
-15.0499204425
  0
LINE
  5
380
100
AcDbEntity
  8
RACCORDO
100
AcDbLine
 62
253
  6
CONTINUOUS
 10
8.9435429342
 20
-29.289500717
 11
8.2323223261
 21
-30.1409971942
  0
LINE
  5
381
100
AcDbEntity
  8
RACCORDO
100
AcDbLine
 62
7
  6
CONTINUOUS
 10
16.9596122444
 20
-21.9137971939
 11
17.4638422135
 21
-21.5483591098
  0
LWPOLYLINE
  5
382
100
AcDbEntity
  8
RACCORDO
100
AcDbPolyline
 62
7
  6
CONTINUOUS
 90
8
 70
0
 10
19.9763191726
 20
-20.1590400015
 10
21.1940099768
 20
-19.5104270036
 10
22.3756062252
 20
-18.880647981
 10
23.5211101613
 20
-18.2697031692
 10
24.6305307738
 20
-17.6775937853
 10
25.703868356
 20
-17.1043196909
 10
26.7411162068
 20
-16.5498800995
 10
27.6663227974
 20
-16.0549272134
  0
LINE
  5
383
100
AcDbEntity
  8
RACCORDO
100
AcDbLine
 62
7
  6
CONTINUOUS
 10
17.5933844169
 20
-21.4272604261
 11
19.9763191726
 21
-20.1590400015
  0
LINE
  5
384
100
AcDbEntity
  8
DRAFT
100
AcDbLine
 62
7
  6
CONTINUOUS
 10
16.9596122444
 20
-21.9137971939
 11
10.8942632887
 21
-25.1212536335
  0
LINE
  5
385
100
AcDbEntity
  8
RACCORDO
100
AcDbLine
 62
253
  6
CONTINUOUS
 10
10.8942632887
 20
-25.0157978231
 11
17.4638422135
 21
-21.5483591098
  0
LINE
  5
386
100
AcDbEntity
  8
RACCORDO
100
AcDbLine
 62
253
  6
CONTINUOUS
 10
27.9281111627
 20
-15.3972496771
 11
10.8942632887
 21
-24.2167825941
  0
LINE
  5
387
100
AcDbEntity
  8
RACCORDO
100
AcDbLine
 62
7
  6
CONTINUOUS
 10
14.5622697616
 20
-23.3177956305
 11
10.8942632887
 21
-25.1589307579
  0
LINE
  5
388
100
AcDbEntity
  8
RACCORDO
100
AcDbLine
 62
7
  6
CONTINUOUS
 10
15.4499760476
 20
-22.7538943109
 11
14.1766516357
 21
-23.3854726063
  0
LINE
  5
389
100
AcDbEntity
  8
0
100
AcDbLine
 62
7
  6
CONTINUOUS
 10
-7.95013243
 20
26.1567590231
 11
-9.3100643701
 21
26.0830108356
  0
LINE
  5
38A
100
AcDbEntity
  8
RACCORDO
100
AcDbLine
 62
253
  6
CONTINUOUS
 10
27.2067296647
 20
17.3472651967
 11
26.9203388808
 21
17.4904605886
  0
LINE
  5
38B
100
AcDbEntity
  8
RACCORDO
100
AcDbLine
 62
253
  6
CONTINUOUS
 10
-2.1372823926
 20
32.0192712253
 11
-2.423794843
 21
32.1625274505
  0
LINE
  5
38C
100
AcDbEntity
  8
RACCORDO
100
AcDbLine
 62
7
  6
CONTINUOUS
 10
27.6417146457
 20
17.369572476
 11
27.3589885762
 21
17.5109355108
  0
LINE
  5
38D
100
AcDbEntity
  8
RACCORDO
100
AcDbLine
 62
7
  6
CONTINUOUS
 10
-1.7061863269
 20
32.0435229623
 11
-1.9889123964
 21
32.1848859971
  0
LINE
  5
38E
100
AcDbEntity
  8
RACCORDO
100
AcDbLine
 62
253
  6
CONTINUOUS
 10
10.3618702886
 20
-29.42992547
 11
9.8336031169
 21
-29.7009365286
  0
LINE
  5
38F
100
AcDbEntity
  8
RACCORDO
100
AcDbLine
 62
253
  6
CONTINUOUS
 10
10.2790870511
 20
-27.7924107439
 11
10.8942632887
 21
-27.4889140321
  0
LINE
  5
390
100
AcDbEntity
  8
RACCORDO
100
AcDbLine
 62
7
  6
CONTINUOUS
 10
10.1444793195
 20
-28.0651675989
 11
10.7633836145
 21
-27.759831653
  0
LINE
  5
391
100
AcDbEntity
  8
RACCORDO
100
AcDbLine
 62
7
  6
CONTINUOUS
 10
10.1444406963
 20
-28.0651866537
 11
10.1340538309
 21
-28.0699234378
  0
LINE
  5
392
100
AcDbEntity
  8
RACCORDO
100
AcDbLine
 62
253
  6
CONTINUOUS
 10
4.6786975933
 20
-30.1432267582
 11
10.2790870511
 21
-27.7924107439
  0
LINE
  5
393
100
AcDbEntity
  8
RACCORDO
100
AcDbLine
 62
7
  6
CONTINUOUS
 10
4.5248903483
 20
-30.4244224564
 11
10.1340486394
 21
-28.069925642
  0
LINE
  5
394
100
AcDbEntity
  8
RACCORDO
100
AcDbLine
 62
7
  6
CONTINUOUS
 10
10.2981822511
 20
-29.5644892803
 11
9.7691210275
 21
-29.8359077025
  0
LINE
  5
395
100
AcDbEntity
  8
RACCORDO
100
AcDbLine
 62
7
  6
CONTINUOUS
 10
9.76734158
 20
-29.8367871277
 11
9.769076497
 21
-29.835919626
  0
LINE
  5
396
100
AcDbEntity
  8
RACCORDO
100
AcDbLine
 62
253
  6
CONTINUOUS
 10
9.8336031169
 20
-29.7009365286
 11
8.2323223261
 21
-30.4809711283
  0
LINE
  5
397
100
AcDbEntity
  8
RACCORDO
100
AcDbLine
 62
7
  6
CONTINUOUS
 10
9.7673415765
 20
-29.8367871294
 11
8.1660607335
 21
-30.6168217545
  0
ARC
  5
398
100
AcDbEntity
  8
0
100
AcDbCircle
 62
7
  6
CONTINUOUS
 10
-0.5314982575
 20
-20.1694408776
 40
1.2668053469
100
AcDbArc
 50
176.5012763014
 51
180.0297525085
  0
ARC
  5
399
100
AcDbEntity
  8
0
100
AcDbCircle
 62
7
  6
CONTINUOUS
 10
-6.4782495772
 20
-19.2759098639
 40
0.5072288783
100
AcDbArc
 50
275.3785540269
 51
281.659037597
  0
ARC
  5
39A
100
AcDbEntity
  8
RACCORDO
100
AcDbCircle
 62
253
  6
CONTINUOUS
 10
-7.2268729536
 20
-17.9694377242
 40
0.4655581308
100
AcDbArc
 50
106.664462796
 51
116.5072397406
  0
ARC
  5
39B
100
AcDbEntity
  8
0
100
AcDbCircle
 62
7
  6
CONTINUOUS
 10
-7.2060822586
 20
-17.9235785438
 40
0.4588608262
100
AcDbArc
 50
121.6627431156
 51
129.1175749391
  0
ARC
  5
39C
100
AcDbEntity
  8
0
100
AcDbCircle
 62
7
  6
CONTINUOUS
 10
-7.2096000082
 20
-17.9178873454
 40
0.4521702167
100
AcDbArc
 50
116.6422667116
 51
121.6618906412
  0
ARC
  5
39D
100
AcDbEntity
  8
0
100
AcDbCircle
 62
7
  6
CONTINUOUS
 10
-7.2113580195
 20
-17.9145964897
 40
0.4484404572
100
AcDbArc
 50
109.2345458994
 51
116.6300430874
  0
ARC
  5
39E
100
AcDbEntity
  8
0
100
AcDbCircle
 62
7
  6
CONTINUOUS
 10
-6.4574582625
 20
-19.3425734312
 40
0.4371775704
100
AcDbArc
 50
295.6885365785
 51
296.603380869
  0
ARC
  5
39F
100
AcDbEntity
  8
RACCORDO
100
AcDbCircle
 62
7
  6
CONTINUOUS
 10
-19.0922994787
 20
26.9440073759
 40
0.2527840137
100
AcDbArc
 50
320.5967025709
 51
322.3866459787
  0
ARC
  5
3A0
100
AcDbEntity
  8
RACCORDO
100
AcDbCircle
 62
7
  6
CONTINUOUS
 10
-20.4270093232
 20
27.9574388422
 40
0.2510511181
100
AcDbArc
 50
114.0213677675
 51
116.0153391033
  0
ARC
  5
3A1
100
AcDbEntity
  8
RACCORDO
100
AcDbCircle
 62
7
  6
CONTINUOUS
 10
-21.2176452231
 20
25.8846133865
 40
0.2499947893
100
AcDbArc
 50
243.4327401235
 51
258.2061487899
  0
ARC
  5
3A2
100
AcDbEntity
  8
RACCORDO
100
AcDbCircle
 62
7
  6
CONTINUOUS
 10
-19.0901360564
 20
27.2897381598
 40
0.2499798459
100
AcDbArc
 50
0.0026497112
 51
63.4369603271
  0
ARC
  5
3A3
100
AcDbEntity
  8
RACCORDO
100
AcDbCircle
 62
7
  6
CONTINUOUS
 10
-22.5426475231
 20
26.887100029
 40
0.2499767785
100
AcDbArc
 50
117.1563818397
 51
179.9996446429
  0
ARC
  5
3A4
100
AcDbEntity
  8
RACCORDO
100
AcDbCircle
 62
7
  6
CONTINUOUS
 10
-20.4274530275
 20
27.95847821
 40
0.2499076167
100
AcDbArc
 50
63.4309534658
 51
99.4307816456
  0
ARC
  5
3A5
100
AcDbEntity
  8
RACCORDO
100
AcDbCircle
 62
7
  6
CONTINUOUS
 10
-22.5427396047
 20
26.547206539
 40
0.2499016144
100
AcDbArc
 50
187.1989449914
 51
243.4694542371
  0
ARC
  5
3A6
100
AcDbEntity
  8
RACCORDO
100
AcDbCircle
 62
7
  6
CONTINUOUS
 10
-22.5432054551
 20
26.5470779678
 40
0.249423334
100
AcDbArc
 50
179.9860845277
 51
187.1830535281
  0
ARC
  5
3A7
100
AcDbEntity
  8
RACCORDO
100
AcDbCircle
 62
7
  6
CONTINUOUS
 10
-19.0895735793
 20
26.9419907026
 40
0.2493958655
100
AcDbArc
 50
322.3714383014
 51
0.0735346387
  0
ARC
  5
3A8
100
AcDbEntity
  8
RACCORDO
100
AcDbCircle
 62
7
  6
CONTINUOUS
 10
-20.4277313941
 20
27.9592199701
 40
0.249130317
100
AcDbArc
 50
99.3955798613
 51
114.0364366594
  0
ARC
  5
3A9
100
AcDbEntity
  8
RACCORDO
100
AcDbCircle
 62
253
  6
CONTINUOUS
 10
-22.4421481196
 20
26.9035832448
 40
0.2238307969
100
AcDbArc
 50
116.9688687629
 51
123.6397753869
  0
ARC
  5
3AA
100
AcDbEntity
  8
RACCORDO
100
AcDbCircle
 62
253
  6
CONTINUOUS
 10
-19.1875933075
 20
27.3082067789
 40
0.2216128467
100
AcDbArc
 50
56.8545045011
 51
63.6195441512
  0
ARC
  5
3AB
100
AcDbEntity
  8
RACCORDO
100
AcDbCircle
 62
7
  6
CONTINUOUS
 10
-16.9995400238
 20
24.822950383
 40
0.2169485403
100
AcDbArc
 50
180.2785040786
 51
182.9497651277
  0
ARC
  5
3AC
100
AcDbEntity
  8
RACCORDO
100
AcDbCircle
 62
253
  6
CONTINUOUS
 10
-20.3589525883
 20
28.0929917027
 40
0.0987931446
100
AcDbArc
 50
64.068897085
 51
67.5068752119
  0
ARC
  5
3AD
100
AcDbEntity
  8
RACCORDO
100
AcDbCircle
 62
7
  6
CONTINUOUS
 10
-5.3077426464
 20
17.9296620982
 40
0.2499947893
100
AcDbArc
 50
243.4327401235
 51
258.2061487898
  0
ARC
  5
3AE
100
AcDbEntity
  8
RACCORDO
100
AcDbCircle
 62
7
  6
CONTINUOUS
 10
-6.6327449464
 20
18.9321487406
 40
0.2499767785
100
AcDbArc
 50
117.1563818397
 51
179.9996446429
  0
ARC
  5
3AF
100
AcDbEntity
  8
RACCORDO
100
AcDbCircle
 62
7
  6
CONTINUOUS
 10
-6.632837028
 20
18.5922552507
 40
0.2499016144
100
AcDbArc
 50
187.1989449915
 51
243.469454237
  0
ARC
  5
3B0
100
AcDbEntity
  8
RACCORDO
100
AcDbCircle
 62
7
  6
CONTINUOUS
 10
-6.6333028784
 20
18.5921266795
 40
0.249423334
100
AcDbArc
 50
179.9860845277
 51
187.1830535281
  0
ARC
  5
3B1
100
AcDbEntity
  8
RACCORDO
100
AcDbCircle
 62
253
  6
CONTINUOUS
 10
-6.5322455429
 20
18.9486319565
 40
0.2238307969
100
AcDbArc
 50
116.9688687629
 51
123.6397753869
  0
ARC
  5
3B2
100
AcDbEntity
  8
RACCORDO
100
AcDbCircle
 62
7
  6
CONTINUOUS
 10
-7.0636360743
 20
21.2752839522
 40
0.2510502018
100
AcDbArc
 50
63.3935065666
 51
65.5615280891
  0
ARC
  5
3B3
100
AcDbEntity
  8
RACCORDO
100
AcDbCircle
 62
7
  6
CONTINUOUS
 10
-9.1783075543
 20
20.2049244901
 40
0.2500026405
100
AcDbArc
 50
117.1623518353
 51
179.9997504283
  0
ARC
  5
3B4
100
AcDbEntity
  8
RACCORDO
100
AcDbCircle
 62
7
  6
CONTINUOUS
 10
-5.7258344311
 20
20.2600341067
 40
0.25
100
AcDbArc
 50
324.9351370963
 51
360.0
  0
ARC
  5
3B5
100
AcDbEntity
  8
RACCORDO
100
AcDbCircle
 62
7
  6
CONTINUOUS
 10
-7.8533270587
 20
19.2024543043
 40
0.2499947893
100
AcDbArc
 50
243.4327401235
 51
258.2061487899
  0
ARC
  5
3B6
100
AcDbEntity
  8
RACCORDO
100
AcDbCircle
 62
7
  6
CONTINUOUS
 10
-7.0631852702
 20
21.2763187531
 40
0.249908238
100
AcDbArc
 50
80.0989787939
 51
115.9761348894
  0
ARC
  5
3B7
100
AcDbEntity
  8
RACCORDO
100
AcDbCircle
 62
7
  6
CONTINUOUS
 10
-9.1784214403
 20
19.8650474568
 40
0.2499016144
100
AcDbArc
 50
187.1989449915
 51
243.4694542369
  0
ARC
  5
3B8
100
AcDbEntity
  8
RACCORDO
100
AcDbCircle
 62
7
  6
CONTINUOUS
 10
-5.7256259604
 20
20.6076931347
 40
0.2497648131
100
AcDbArc
 50
0.0030233337
 51
63.5119295513
  0
ARC
  5
3B9
100
AcDbEntity
  8
RACCORDO
100
AcDbCircle
 62
7
  6
CONTINUOUS
 10
-5.7255035807
 20
20.2598150393
 40
0.2496033435
100
AcDbArc
 50
320.5784045836
 51
324.9326654346
  0
ARC
  5
3BA
100
AcDbEntity
  8
RACCORDO
100
AcDbCircle
 62
7
  6
CONTINUOUS
 10
-9.1788872907
 20
19.8649188856
 40
0.249423334
100
AcDbArc
 50
179.9860845277
 51
187.1830535281
  0
ARC
  5
3BB
100
AcDbEntity
  8
RACCORDO
100
AcDbCircle
 62
7
  6
CONTINUOUS
 10
-7.0629035136
 20
21.277052188
 40
0.2491373256
100
AcDbArc
 50
65.5466671192
 51
80.1338084054
  0
ARC
  5
3BC
100
AcDbEntity
  8
RACCORDO
100
AcDbCircle
 62
253
  6
CONTINUOUS
 10
-7.1302808213
 20
21.4115069835
 40
0.0988110465
100
AcDbArc
 50
112.180705635
 51
115.3363786428
  0
ARC
  5
3BD
100
AcDbEntity
  8
RACCORDO
100
AcDbCircle
 62
7
  6
CONTINUOUS
 10
-3.1823969021
 20
18.9890560875
 40
0.2527840137
100
AcDbArc
 50
320.596702571
 51
322.3866459787
  0
ARC
  5
3BE
100
AcDbEntity
  8
RACCORDO
100
AcDbCircle
 62
7
  6
CONTINUOUS
 10
-3.1796710027
 20
18.9870394143
 40
0.2493958655
100
AcDbArc
 50
322.3714383065
 51
0.0735346336
  0
ARC
  5
3BF
100
AcDbEntity
  8
RACCORDO
100
AcDbCircle
 62
7
  6
CONTINUOUS
 10
-1.0896374471
 20
16.8679990947
 40
0.2169485403
100
AcDbArc
 50
180.2785040786
 51
182.9497651277
  0
ARC
  5
3C0
100
AcDbEntity
  8
RACCORDO
100
AcDbCircle
 62
7
  6
CONTINUOUS
 10
-4.5171067465
 20
20.0024875538
 40
0.2510511181
100
AcDbArc
 50
114.0213677675
 51
116.0153391033
  0
ARC
  5
3C1
100
AcDbEntity
  8
RACCORDO
100
AcDbCircle
 62
7
  6
CONTINUOUS
 10
-3.1802334797
 20
19.3347868714
 40
0.2499798459
100
AcDbArc
 50
0.0026497112
 51
63.4369603271
  0
ARC
  5
3C2
100
AcDbEntity
  8
RACCORDO
100
AcDbCircle
 62
7
  6
CONTINUOUS
 10
-4.5175504508
 20
20.0035269216
 40
0.2499076167
100
AcDbArc
 50
63.4309534658
 51
99.4307816456
  0
ARC
  5
3C3
100
AcDbEntity
  8
RACCORDO
100
AcDbCircle
 62
7
  6
CONTINUOUS
 10
-4.5178288174
 20
20.0042686818
 40
0.249130317
100
AcDbArc
 50
99.3955798612
 51
114.0364366594
  0
ARC
  5
3C4
100
AcDbEntity
  8
RACCORDO
100
AcDbCircle
 62
253
  6
CONTINUOUS
 10
-3.2776907308
 20
19.3532554906
 40
0.2216128467
100
AcDbArc
 50
56.8545045011
 51
63.6195441512
  0
ARC
  5
3C5
100
AcDbEntity
  8
RACCORDO
100
AcDbCircle
 62
253
  6
CONTINUOUS
 10
-4.4490500116
 20
20.1380404144
 40
0.0987931446
100
AcDbArc
 50
64.0688970848
 51
67.506875212
  0
ARC
  5
3C6
100
AcDbEntity
  8
RACCORDO
100
AcDbCircle
 62
7
  6
CONTINUOUS
 10
-2.4350085865
 20
31.2867542074
 40
1.0038301472
100
AcDbArc
 50
98.6271662266
 51
114.9422471132
  0
ARC
  5
3C7
100
AcDbEntity
  8
RACCORDO
100
AcDbCircle
 62
7
  6
CONTINUOUS
 10
-2.4363177084
 20
31.2898122107
 40
1.0006671359
100
AcDbArc
 50
63.4319499314
 51
81.9099206386
  0
ARC
  5
3C8
100
AcDbEntity
  8
RACCORDO
100
AcDbCircle
 62
7
  6
CONTINUOUS
 10
-2.4361262011
 20
31.290505699
 40
0.9999536026
100
AcDbArc
 50
81.9151924903
 51
98.5960972935
  0
ARC
  5
3C9
100
AcDbEntity
  8
ASSI
100
AcDbCircle
 62
7
  6
CONTINUOUS
 10
-11.2676925599
 20
27.5554373868
 40
0.2609136852
100
AcDbArc
 50
85.3681289557
 51
91.9511463125
  0
ARC
  5
3CA
100
AcDbEntity
  8
ASSI
100
AcDbCircle
 62
7
  6
CONTINUOUS
 10
-5.7126080608
 20
24.7801993438
 40
0.2586587349
100
AcDbArc
 50
85.7336057234
 51
92.3802840595
  0
ARC
  5
3CB
100
AcDbEntity
  8
RACCORDO
100
AcDbCircle
 62
7
  6
CONTINUOUS
 10
27.1945300026
 20
-15.1732456468
 40
0.9999686354
100
AcDbArc
 50
298.1663776833
 51
345.9236741889
  0
ARC
  5
3CC
100
AcDbEntity
  8
RACCORDO
100
AcDbCircle
 62
7
  6
CONTINUOUS
 10
16.917862394
 20
-20.8610144936
 40
0.8820974403
100
AcDbArc
 50
325.7070744052
 51
329.2883635167
  0
ARC
  5
3CD
100
AcDbEntity
  8
RACCORDO
100
AcDbCircle
 62
7
  6
CONTINUOUS
 10
16.9622914785
 20
-20.8917668438
 40
0.8280650293
100
AcDbArc
 50
319.6847826694
 51
325.7329654373
  0
ARC
  5
3CE
100
AcDbEntity
  8
RACCORDO
100
AcDbCircle
 62
253
  6
CONTINUOUS
 10
10.1251395116
 20
-28.9616953536
 40
0.2562677438
100
AcDbArc
 50
15.4895611465
 51
22.2737082324
  0
ARC
  5
3CF
100
AcDbEntity
  8
RACCORDO
100
AcDbCircle
 62
7
  6
CONTINUOUS
 10
6.7315980717
 20
-29.7295753662
 40
0.2500056899
100
AcDbArc
 50
180.0005387289
 51
243.4294321895
  0
ARC
  5
3D0
100
AcDbEntity
  8
RACCORDO
100
AcDbCircle
 62
7
  6
CONTINUOUS
 10
8.0565737176
 20
-30.3922181491
 40
0.2498565201
100
AcDbArc
 50
243.419816709
 51
295.9869883011
  0
ARC
  5
3D1
100
AcDbEntity
  8
RACCORDO
100
AcDbCircle
 62
7
  6
CONTINUOUS
 10
10.1842368811
 20
-28.9943635061
 40
0.2497721136
100
AcDbArc
 50
359.9981183745
 51
63.4870189877
  0
ARC
  5
3D2
100
AcDbEntity
  8
RACCORDO
100
AcDbCircle
 62
7
  6
CONTINUOUS
 10
10.1842784207
 20
-29.3421900742
 40
0.249755468
100
AcDbArc
 50
297.0856494767
 51
344.5192069253
  0
ARC
  5
3D3
100
AcDbEntity
  8
RACCORDO
100
AcDbCircle
 62
7
  6
CONTINUOUS
 10
10.1859223178
 20
-29.342417005
 40
0.2481133753
100
AcDbArc
 50
344.4683839465
 51
0.0530068991
  0
ARC
  5
3D4
100
AcDbEntity
  8
RACCORDO
100
AcDbCircle
 62
253
  6
CONTINUOUS
 10
10.2003553312
 20
-28.9068929584
 40
0.1611010103
100
AcDbArc
 50
54.7871985742
 51
63.4132361601
  0
ARC
  5
3D5
100
AcDbEntity
  8
ASSI
100
AcDbCircle
 62
7
  6
CONTINUOUS
 10
12.0890204666
 20
25.7674349864
 40
11.3542157049
100
AcDbArc
 50
235.1267822963
 51
237.9928290374
  0
ARC
  5
3D6
100
AcDbEntity
  8
RACCORDO
100
AcDbCircle
 62
7
  6
CONTINUOUS
 10
14.895711582
 20
10.5857925034
 40
2.9685929572
100
AcDbArc
 50
20.501485539
 51
30.1058408397
  0
ARC
  5
3D7
100
AcDbEntity
  8
0
100
AcDbCircle
 62
253
  6
CONTINUOUS
 10
8.2954484099
 20
17.3792680193
 40
1.1727332699
100
AcDbArc
 50
104.1067883947
 51
106.6782902919
  0
ARC
  5
3D8
100
AcDbEntity
  8
RACCORDO
100
AcDbCircle
 62
7
  6
CONTINUOUS
 10
27.1944845399
 20
16.475127726
 40
1.0000230889
100
AcDbArc
 50
11.3314013741
 51
63.4345526542
  0
ARC
  5
3D9
100
AcDbEntity
  8
ASSI
100
AcDbCircle
 62
7
  6
CONTINUOUS
 10
4.6422100168
 20
19.6004860985
 40
0.2609136852
100
AcDbArc
 50
85.3681289557
 51
91.9511463125
  0
ARC
  5
3DA
100
AcDbEntity
  8
ASSI
100
AcDbCircle
 62
7
  6
CONTINUOUS
 10
10.1972945159
 20
16.8252480555
 40
0.2586587349
100
AcDbArc
 50
85.7336057235
 51
92.3802840595
  0
ARC
  5
3DB
100
AcDbEntity
  8
RACCORDO
100
AcDbCircle
 62
7
  6
CONTINUOUS
 10
8.8462665024
 20
13.3203326639
 40
0.2510502017
100
AcDbArc
 50
63.3935065662
 51
65.5615280893
  0
ARC
  5
3DC
100
AcDbEntity
  8
RACCORDO
100
AcDbCircle
 62
7
  6
CONTINUOUS
 10
6.7315950224
 20
12.2499732018
 40
0.2500026405
100
AcDbArc
 50
117.1623518353
 51
179.9997504283
  0
ARC
  5
3DD
100
AcDbEntity
  8
RACCORDO
100
AcDbCircle
 62
7
  6
CONTINUOUS
 10
10.1840681456
 20
12.3050828183
 40
0.25
100
AcDbArc
 50
324.9351370963
 51
360.0
  0
ARC
  5
3DE
100
AcDbEntity
  8
RACCORDO
100
AcDbCircle
 62
7
  6
CONTINUOUS
 10
8.056575518
 20
11.247503016
 40
0.2499947893
100
AcDbArc
 50
243.4327401235
 51
258.2061487899
  0
ARC
  5
3DF
100
AcDbEntity
  8
RACCORDO
100
AcDbCircle
 62
7
  6
CONTINUOUS
 10
8.8467173065
 20
13.3213674647
 40
0.249908238
100
AcDbArc
 50
80.0989787939
 51
115.9761348893
  0
ARC
  5
3E0
100
AcDbEntity
  8
RACCORDO
100
AcDbCircle
 62
7
  6
CONTINUOUS
 10
6.7314811364
 20
11.9100961685
 40
0.2499016144
100
AcDbArc
 50
187.1989449915
 51
243.4694542371
  0
ARC
  5
3E1
100
AcDbEntity
  8
RACCORDO
100
AcDbCircle
 62
7
  6
CONTINUOUS
 10
10.1842766164
 20
12.6527418464
 40
0.249764813
100
AcDbArc
 50
0.0030233187
 51
63.5119295665
  0
ARC
  5
3E2
100
AcDbEntity
  8
RACCORDO
100
AcDbCircle
 62
7
  6
CONTINUOUS
 10
10.184398996
 20
12.3048637509
 40
0.2496033435
100
AcDbArc
 50
320.5784045837
 51
324.9326654346
  0
ARC
  5
3E3
100
AcDbEntity
  8
RACCORDO
100
AcDbCircle
 62
7
  6
CONTINUOUS
 10
6.731015286
 20
11.9099675973
 40
0.249423334
100
AcDbArc
 50
179.9860845277
 51
187.1830535281
  0
ARC
  5
3E4
100
AcDbEntity
  8
RACCORDO
100
AcDbCircle
 62
7
  6
CONTINUOUS
 10
8.8469990631
 20
13.3221008997
 40
0.2491373256
100
AcDbArc
 50
65.5466671192
 51
80.1338084054
  0
ARC
  5
3E5
100
AcDbEntity
  8
RACCORDO
100
AcDbCircle
 62
253
  6
CONTINUOUS
 10
8.7796217554
 20
13.4565556952
 40
0.0988110465
100
AcDbArc
 50
112.180705635
 51
115.3363786426
  0
SPLINE
  5
3E6
100
AcDbEntity
  8
0
100
AcDbSpline
 62
7
  6
CONTINUOUS
 70
0
 71
3
 72
16
 73
12
 74
10
 42
0.0000001
 43
0.0000001
 44
0.0000000001
 12
-1.4716645557
 22
0.9229116555
 32
0.0
 13
0.0
 23
1.7353160104
 33
0.0
 40
0.0
 40
0.0
 40
0.0
 40
0.0
 40
0.0431950966
 40
0.154546979
 40
0.272459983
 40
0.3950898542
 40
0.5202546158
 40
0.6456025763
 40
0.7687700673
 40
0.8875384773
 40
1.0
 40
1.0
 40
1.0
 40
1.0
 10
-1.0056178049
 20
-21.6432037037
 30
0.0
 10
-1.0268073691
 20
-21.6299152843
 30
0.0
 10
-1.1010945569
 20
-21.5799228694
 30
0.0
 10
-1.2223907312
 20
-21.4785565764
 30
0.0
 10
-1.361197002
 20
-21.3290087388
 30
0.0
 10
-1.4866305363
 20
-21.1581290181
 30
0.0
 10
-1.5949892065
 20
-20.9709846181
 30
0.0
 10
-1.6830560962
 20
-20.7731431144
 30
0.0
 10
-1.7482114588
 20
-20.5704671936
 30
0.0
 10
-1.7885119256
 20
-20.3690188578
 30
0.0
 10
-1.7983034336
 20
-20.2351507969
 30
0.0
 10
-1.7983034336
 20
-20.1700987033
 30
0.0
 11
-1.0056178049
 21
-21.6432037037
 31
0.0
 11
-1.0679047121
 21
-21.601383729
 31
0.0
 11
-1.2167259105
 21
-21.4781345665
 31
0.0
 11
-1.3563616954
 21
-21.3285695724
 31
0.0
 11
-1.4825693042
 21
-21.1572332032
 31
0.0
 11
-1.5915139827
 21
-20.9693314278
 31
0.0
 11
-1.6798855018
 21
-20.7705735466
 31
0.0
 11
-1.7449987376
 21
-20.5669987172
 31
0.0
 11
-1.7848752576
 21
-20.3647924578
 31
0.0
 11
-1.7983034336
 21
-20.1700987033
 31
0.0
  0
SPLINE
  5
3E7
100
AcDbEntity
  8
RACCORDO
100
AcDbSpline
 62
7
  6
CONTINUOUS
 70
0
 71
3
 72
12
 73
8
 74
6
 42
0.0000001
 43
0.0000001
 44
0.0000000001
 12
0.0
 22
0.867204234
 32
0.0
 13
0.7756510471
 23
0.3878255235
 33
0.0
 40
0.0
 40
0.0
 40
0.0
 40
0.0
 40
0.2325968403
 40
0.4483408249
 40
0.6454663659
 40
0.8269206479
 40
1.0
 40
1.0
 40
1.0
 40
1.0
 10
-7.8116045483
 20
-18.2861008181
 30
0.0
 10
-7.8116045483
 20
-18.2188644965
 30
0.0
 10
-7.8014835355
 20
-18.0888994726
 30
0.0
 10
-7.7522916942
 20
-17.9076388742
 30
0.0
 10
-7.6719644225
 20
-17.7540251417
 30
0.0
 10
-7.5654871146
 20
-17.6332152029
 30
0.0
 10
-7.479406479
 20
-17.5751945979
 30
0.0
 10
-7.4346567521
 20
-17.5528197345
 30
0.0
 11
-7.8116045483
 21
-18.2861008181
 31
0.0
 11
-7.7946307225
 21
-18.0851072966
 31
0.0
 11
-7.7442273806
 21
-17.9049304273
 31
0.0
 11
-7.6639078946
 21
-17.7540263705
 31
0.0
 11
-7.5592469303
 21
-17.6365206342
 31
0.0
 11
-7.4346567521
 21
-17.5528197345
 31
0.0
  0
SPLINE
  5
3E8
100
AcDbEntity
  8
RACCORDO
100
AcDbSpline
 62
7
  6
CONTINUOUS
 70
0
 71
3
 72
19
 73
15
 74
13
 42
0.0000001
 43
0.0000001
 44
0.0000000001
 12
-2.1378285184
 22
-1.0689142593
 32
0.0
 13
0.0
 23
2.3901649456
 33
0.0
 40
0.0
 40
0.0
 40
0.0
 40
0.0
 40
0.0624315081
 40
0.1284173982
 40
0.1996399406
 40
0.2775516426
 40
0.3615116266
 40
0.4499444832
 40
0.541448363
 40
0.634765368
 40
0.7285891723
 40
0.8215986204
 40
0.9124685843
 40
1.0
 40
1.0
 40
1.0
 40
1.0
 10
-6.3389834431
 20
-19.7441663524
 30
0.0
 10
-6.3834727293
 20
-19.7664109955
 30
0.0
 10
-6.4813306789
 20
-19.8004768829
 30
0.0
 10
-6.6414542212
 20
-19.8133145108
 30
0.0
 10
-6.8121470264
 20
-19.7856888144
 30
0.0
 10
-6.9860103477
 20
-19.7169119195
 30
0.0
 10
-7.155446595
 20
-19.6098726602
 30
0.0
 10
-7.3136875965
 20
-19.4702678373
 30
0.0
 10
-7.4558351
 20
-19.3045459113
 30
0.0
 10
-7.5783636474
 20
-19.1187580792
 30
0.0
 10
-7.6783505663
 20
-18.9186196733
 30
0.0
 10
-7.7531037301
 20
-18.7097849382
 30
0.0
 10
-7.8000951997
 20
-18.4981319878
 30
0.0
 10
-7.8116045483
 20
-18.3558389919
 30
0.0
 10
-7.8116045483
 20
-18.2861008181
 30
0.0
 11
-6.3389834431
 21
-19.7441663524
 31
0.0
 11
-6.4798371538
 21
-19.7934341791
 31
0.0
 11
-6.6369816688
 21
-19.8068619266
 31
0.0
 11
-6.8052208198
 21
-19.7808797229
 31
0.0
 11
-6.9789124902
 21
-19.7137249057
 31
0.0
 11
-7.1492584462
 21
-19.6076400368
 31
0.0
 11
-7.3083939866
 21
-19.4685257594
 31
0.0
 11
-7.4512462341
 21
-19.3029147029
 31
0.0
 11
-7.5742867296
 21
-19.1168791374
 31
0.0
 11
-7.6745081194
 21
-18.9162658413
 31
0.0
 11
-7.7491610882
 21
-18.7068673057
 31
0.0
 11
-7.795645541
 21
-18.4947057702
 31
0.0
 11
-7.8116045483
 21
-18.2861008181
 31
0.0
  0
SPLINE
  5
3E9
100
AcDbEntity
  8
RACCORDO
100
AcDbSpline
 62
253
  6
CONTINUOUS
 70
0
 71
3
 72
34
 73
30
 74
28
 42
0.0000001
 43
0.0000001
 44
0.0000000001
 12
0.0
 22
-2.6850838718
 32
0.0
 13
0.0
 23
2.6850838718
 33
0.0
 40
0.0
 40
0.0
 40
0.0
 40
0.0
 40
0.0171499677
 40
0.0379811035
 40
0.0621738419
 40
0.0894604977
 40
0.1195912669
 40
0.1526554547
 40
0.1894371267
 40
0.2309306482
 40
0.2777506098
 40
0.3298760619
 40
0.3869297321
 40
0.4477271443
 40
0.5092016812
 40
0.5678923395
 40
0.6217396124
 40
0.6705458408
 40
0.7150788231
 40
0.754656944
 40
0.789452855
 40
0.8215472904
 40
0.8514269493
 40
0.8796036031
 40
0.9066778511
 40
0.932778681
 40
0.9574743636
 40
0.9801372319
 40
1.0
 40
1.0
 40
1.0
 40
1.0
 10
-7.7670417607
 20
-18.3490279049
 30
0.0
 10
-7.7670417607
 20
-18.3643776055
 30
0.0
 10
-7.7663365099
 20
-18.3983750434
 30
0.0
 10
-7.7627757129
 20
-18.4539274276
 30
0.0
 10
-7.7555376104
 20
-18.518268699
 30
0.0
 10
-7.7436542159
 20
-18.5903731578
 30
0.0
 10
-7.7262124453
 20
-18.6694974528
 30
0.0
 10
-7.702107238
 20
-18.7557211266
 30
0.0
 10
-7.6696926959
 20
-18.8500175941
 30
0.0
 10
-7.6266640419
 20
-18.9534707093
 30
0.0
 10
-7.5703961654
 20
-19.0659962126
 30
0.0
 10
-7.498343701
 20
-19.1857782772
 30
0.0
 10
-7.4085559224
 20
-19.3088752141
 30
0.0
 10
-7.3009097984
 20
-19.4283793475
 30
0.0
 10
-7.1783475395
 20
-19.5349943219
 30
0.0
 10
-7.0467979822
 20
-19.6195772403
 30
0.0
 10
-6.9129230977
 20
-19.675971767
 30
0.0
 10
-6.7824708112
 20
-19.7011934751
 30
0.0
 10
-6.6622810029
 20
-19.6943665393
 30
0.0
 10
-6.5603453343
 20
-19.6594605992
 30
0.0
 10
-6.4803053493
 20
-19.6061127344
 30
0.0
 10
-6.4199859131
 20
-19.5431731817
 30
0.0
 10
-6.3751799727
 20
-19.4756637749
 30
0.0
 10
-6.3424411694
 20
-19.4066319404
 30
0.0
 10
-6.3190735288
 20
-19.3375278011
 30
0.0
 10
-6.3032424721
 20
-19.2695586989
 30
0.0
 10
-6.2935827927
 20
-19.2044621821
 30
0.0
 10
-6.2888041826
 20
-19.1444500902
 30
0.0
 10
-6.2878898205
 20
-19.1063816077
 30
0.0
 10
-6.2878898205
 20
-19.088603875
 30
0.0
 11
-7.7670417607
 21
-18.3490279049
 31
0.0
 11
-7.7661051506
 21
-18.3950674807
 31
0.0
 11
-7.7625554854
 21
-18.4508880784
 31
0.0
 11
-7.7553298356
 21
-18.5154444937
 31
0.0
 11
-7.7434568789
 21
-18.587743043
 31
0.0
 11
-7.7260834165
 21
-18.6667592575
 31
0.0
 11
-7.7022205643
 21
-18.7522722597
 31
0.0
 11
-7.6701512875
 21
-18.8456824803
 31
0.0
 11
-7.6273909687
 21
-18.9485636841
 31
0.0
 11
-7.5711655308
 21
-19.0610051936
 31
0.0
 11
-7.4989685091
 21
-19.1809081986
 31
0.0
 11
-7.4085435274
 21
-19.3045677738
 31
0.0
 11
-7.2989886342
 21
-19.4255926932
 31
0.0
 11
-7.1739870644
 21
-19.533392631
 31
0.0
 11
-7.0408785308
 21
-19.6177520902
 31
0.0
 11
-6.9071427559
 21
-19.6727011935
 31
0.0
 11
-6.7782256061
 21
-19.6962418158
 31
0.0
 11
-6.6589081257
 21
-19.6884015452
 31
0.0
 11
-6.558467674
 21
-19.6536862669
 31
0.0
 11
-6.4805993684
 21
-19.6020560376
 31
0.0
 11
-6.4207048502
 21
-19.5400964306
 31
0.0
 11
-6.3760626641
 21
-19.4734343702
 31
0.0
 11
-6.343415786
 21
-19.4051839901
 31
0.0
 11
-6.3199510703
 21
-19.3363784189
 31
0.0
 11
-6.3039197768
 21
-19.2681536952
 31
0.0
 11
-6.2940934246
 21
-19.202575832
 31
0.0
 11
-6.2892040108
 21
-19.1419208791
 31
0.0
 11
-6.2878898205
 21
-19.088603875
 31
0.0
  0
SPLINE
  5
3EA
100
AcDbEntity
  8
RACCORDO
100
AcDbSpline
 62
253
  6
CONTINUOUS
 70
0
 71
3
 72
34
 73
30
 74
28
 42
0.0000001
 43
0.0000001
 44
0.0000000001
 12
0.0
 22
2.6850837854
 32
0.0
 13
0.0
 23
-2.6850837854
 33
0.0
 40
0.0
 40
0.0
 40
0.0
 40
0.0
 40
0.0171499674
 40
0.0379811024
 40
0.0621738408
 40
0.0894604963
 40
0.1195912656
 40
0.1526554533
 40
0.1894371252
 40
0.2309306466
 40
0.2777506088
 40
0.3298760624
 40
0.386929736
 40
0.4477271501
 40
0.5092016841
 40
0.5678923363
 40
0.6217396022
 40
0.6705458283
 40
0.7150788073
 40
0.7546569342
 40
0.7894528472
 40
0.821547287
 40
0.8514269462
 40
0.8796036009
 40
0.9066778498
 40
0.9327786803
 40
0.9574743639
 40
0.9801372317
 40
1.0
 40
1.0
 40
1.0
 40
1.0
 10
-6.2878898205
 20
-19.088603875
 30
0.0
 10
-6.2878898205
 20
-19.0732541752
 30
0.0
 10
-6.2885950739
 20
-19.0392567393
 30
0.0
 10
-6.2921558784
 20
-18.9837043585
 30
0.0
 10
-6.2993939807
 20
-18.9193630902
 30
0.0
 10
-6.3112773826
 20
-18.8472586351
 30
0.0
 10
-6.3287191535
 20
-18.7681343431
 30
0.0
 10
-6.3528243671
 20
-18.681910674
 30
0.0
 10
-6.3852389185
 20
-18.5876142133
 30
0.0
 10
-6.4282675904
 20
-18.4841611089
 30
0.0
 10
-6.4845354884
 20
-18.3716356191
 30
0.0
 10
-6.5565879696
 20
-18.2518535637
 30
0.0
 10
-6.6463757864
 20
-18.1287566533
 30
0.0
 10
-6.7540219076
 20
-18.0092525247
 30
0.0
 10
-6.8765841284
 20
-17.9026375253
 30
0.0
 10
-7.0081336457
 20
-17.818054581
 30
0.0
 10
-7.1420084998
 20
-17.7616600262
 30
0.0
 10
-7.2724607703
 20
-17.7364383135
 30
0.0
 10
-7.3926505758
 20
-17.7432652377
 30
0.0
 10
-7.4945862457
 20
-17.7781711802
 30
0.0
 10
-7.5746262373
 20
-17.831519048
 30
0.0
 10
-7.6349456806
 20
-17.8944585987
 30
0.0
 10
-7.6797516202
 20
-17.9619680092
 30
0.0
 10
-7.7124904231
 20
-18.030999843
 30
0.0
 10
-7.7358580644
 20
-18.100103982
 30
0.0
 10
-7.7516891181
 20
-18.1680730849
 30
0.0
 10
-7.7613488007
 20
-18.2331696002
 30
0.0
 10
-7.7661274011
 20
-18.2931816917
 30
0.0
 10
-7.7670417607
 20
-18.3312501725
 30
0.0
 10
-7.7670417607
 20
-18.3490279049
 30
0.0
 11
-6.2878898205
 21
-19.088603875
 31
0.0
 11
-6.2888264333
 21
-19.0425643017
 31
0.0
 11
-6.2923761043
 21
-18.986743708
 31
0.0
 11
-6.2996017566
 21
-18.9221872953
 31
0.0
 11
-6.3114747182
 21
-18.84988875
 31
0.0
 11
-6.3288481832
 21
-18.7708725384
 31
0.0
 11
-6.3527110409
 21
-18.6853595409
 31
0.0
 11
-6.3847803274
 21
-18.5919493275
 31
0.0
 11
-6.4275406628
 21
-18.4890681345
 31
0.0
 11
-6.4837661207
 21
-18.3766266378
 31
0.0
 11
-6.555963163
 21
-18.2567236458
 31
0.0
 11
-6.6463881752
 21
-18.1330640879
 31
0.0
 11
-6.7559430701
 21
-18.0120391699
 31
0.0
 11
-6.8809446058
 21
-17.9042392128
 31
0.0
 11
-7.0140530984
 21
-17.819879729
 31
0.0
 11
-7.1477888391
 21
-17.7649306041
 31
0.0
 11
-7.2767059762
 21
-17.7413899712
 31
0.0
 11
-7.3960234448
 21
-17.7492302321
 31
0.0
 11
-7.4964639089
 21
-17.7839455138
 31
0.0
 11
-7.5743322172
 21
-17.8355757429
 31
0.0
 11
-7.6342267446
 21
-17.8975353537
 31
0.0
 11
-7.6788689289
 21
-17.9641974131
 31
0.0
 11
-7.7115158066
 21
-18.0324477932
 31
0.0
 11
-7.7349805223
 21
-18.1012533647
 31
0.0
 11
-7.7510118145
 21
-18.1694780882
 31
0.0
 11
-7.7608381666
 21
-18.2350559519
 31
0.0
 11
-7.7657275735
 21
-18.2957109018
 31
0.0
 11
-7.7670417607
 21
-18.3490279049
 31
0.0
  0
SPLINE
  5
3EB
100
AcDbEntity
  8
RACCORDO
100
AcDbSpline
 62
253
  6
CONTINUOUS
 70
0
 71
3
 72
21
 73
17
 74
15
 42
0.0000001
 43
0.0000001
 44
0.0000000001
 12
0.0
 22
1.7258835296
 32
0.0
 13
-1.4836843603
 23
0.8850551175
 33
0.0
 40
0.0
 40
0.0
 40
0.0
 40
0.0
 40
0.0312498475
 40
0.0692073399
 40
0.1132901912
 40
0.1630106298
 40
0.2179134815
 40
0.2781614689
 40
0.3451832818
 40
0.4207908113
 40
0.5061039461
 40
0.6010845198
 40
0.7050450999
 40
0.8158273446
 40
0.9278433455
 40
1.0
 40
1.0
 40
1.0
 40
1.0
 10
-6.0206142907
 20
-19.0815959469
 30
0.0
 10
-6.0206142907
 20
-19.0636180812
 30
0.0
 10
-6.0214402811
 20
-19.0237996271
 30
0.0
 10
-6.0256107214
 20
-18.9587355981
 30
0.0
 10
-6.0340881257
 20
-18.8833778541
 30
0.0
 10
-6.048006156
 20
-18.7989277022
 30
0.0
 10
-6.0684342936
 20
-18.7062557827
 30
0.0
 10
-6.0966667552
 20
-18.6052689212
 30
0.0
 10
-6.1346312633
 20
-18.4948270335
 30
0.0
 10
-6.1850272029
 20
-18.3736606686
 30
0.0
 10
-6.2509291833
 20
-18.2418685037
 30
0.0
 10
-6.3353184323
 20
-18.1015772773
 30
0.0
 10
-6.4404795776
 20
-17.957403514
 30
0.0
 10
-6.5665568976
 20
-17.817437815
 30
0.0
 10
-6.6949605862
 20
-17.7057416742
 30
0.0
 10
-6.7829732833
 20
-17.6462615999
 30
0.0
 10
-6.8186591833
 20
-17.6249740612
 30
0.0
 11
-6.0206142907
 21
-19.0815959469
 31
0.0
 11
-6.0217112533
 21
-19.0276735067
 31
0.0
 11
-6.0258686627
 21
-18.9622953475
 31
0.0
 11
-6.0343314714
 21
-18.886685617
 31
0.0
 11
-6.048237286
 21
-18.8020081479
 31
0.0
 11
-6.0685854114
 21
-18.7094628098
 31
0.0
 11
-6.0965340246
 21
-18.6093083028
 31
0.0
 11
-6.1340941481
 21
-18.4999044072
 31
0.0
 11
-6.1841758104
 21
-18.3794078828
 31
0.0
 11
-6.2500280884
 21
-18.2477141
 31
0.0
 11
-6.3345866241
 21
-18.1072812215
 31
0.0
 11
-6.4404941228
 21
-17.9624484881
 31
0.0
 11
-6.5688070535
 21
-17.8207015981
 31
0.0
 11
-6.7152114703
 21
-17.6944442825
 31
0.0
 11
-6.8186591833
 21
-17.6249740612
 31
0.0
  0
SPLINE
  5
3EC
100
AcDbEntity
  8
RACCORDO
100
AcDbSpline
 62
253
  6
CONTINUOUS
 70
0
 71
3
 72
9
 73
5
 74
3
 42
0.0000001
 43
0.0000001
 44
0.0000000001
 12
-0.1016411136
 22
0.0606314862
 32
0.0
 13
-0.1080638951
 23
0.0484324949
 33
0.0
 40
0.0
 40
0.0
 40
0.0
 40
0.0
 40
0.5077905198
 40
1.0
 40
1.0
 40
1.0
 40
1.0
 10
-6.8186591833
 20
-17.6249740612
 30
0.0
 10
-6.8358633146
 20
-17.6147113632
 30
0.0
 10
-6.8702945695
 20
-17.5954236265
 30
0.0
 10
-6.9058110061
 20
-17.578144527
 30
0.0
 10
-6.9235410307
 20
-17.570198216
 30
0.0
 11
-6.8186591833
 21
-17.6249740612
 31
0.0
 11
-6.8711108596
 21
-17.595641033
 31
0.0
 11
-6.9235410307
 21
-17.570198216
 31
0.0
  0
SPLINE
  5
3ED
100
AcDbEntity
  8
RACCORDO
100
AcDbSpline
 62
253
  6
CONTINUOUS
 70
0
 71
3
 72
11
 73
7
 74
5
 42
0.0000001
 43
0.0000001
 44
0.0000000001
 12
-0.4092519551
 22
0.1834201259
 32
0.0
 13
-0.4302378165
 23
-0.129105603
 33
0.0
 40
0.0
 40
0.0
 40
0.0
 40
0.0
 40
0.2482210775
 40
0.591006073
 40
0.9037783979
 40
1.0
 40
1.0
 40
1.0
 40
1.0
 10
-6.9235410307
 20
-17.570198216
 30
0.0
 10
-6.9574026844
 20
-17.5550219689
 30
0.0
 10
-7.0401842569
 20
-17.5237392844
 30
0.0
 10
-7.1737630248
 20
-17.4979131284
 30
0.0
 10
-7.2871250919
 20
-17.504352391
 30
0.0
 10
-7.3465799844
 20
-17.5192918659
 30
0.0
 10
-7.3603793751
 20
-17.5234327819
 30
0.0
 11
-6.9235410307
 21
-17.570198216
 31
0.0
 11
-7.0277448137
 21
-17.5312837829
 31
0.0
 11
-7.1787350852
 21
-17.5037126388
 31
0.0
 11
-7.318482011
 21
-17.5128954104
 31
0.0
 11
-7.3603793751
 21
-17.5234327819
 31
0.0
  0
SPLINE
  5
3EE
100
AcDbEntity
  8
RACCORDO
100
AcDbSpline
 62
253
  6
CONTINUOUS
 70
0
 71
3
 72
10
 73
6
 74
4
 42
0.0000001
 43
0.0000001
 44
0.0000000001
 12
0.1304153427
 22
0.0652076947
 32
0.0
 13
0.104395776
 23
0.1016172757
 33
0.0
 40
0.0
 40
0.0
 40
0.0
 40
0.0
 40
0.0105650151
 40
0.7628982382
 40
1.0
 40
1.0
 40
1.0
 40
1.0
 10
-6.3388969749
 20
-19.7441227899
 30
0.0
 10
-6.3384376949
 20
-19.7438931498
 30
0.0
 10
-6.3053015803
 20
-19.7272545069
 30
0.0
 10
-6.2645783563
 20
-19.7001118297
 30
0.0
 10
-6.2289951
 20
-19.6677801186
 30
0.0
 10
-6.2207442925
 20
-19.6597489069
 30
0.0
 11
-6.3388969749
 21
-19.7441227899
 31
0.0
 11
-6.337520319
 21
-19.7434315282
 31
0.0
 11
-6.2463194323
 21
-19.682961197
 31
0.0
 11
-6.2207442925
 21
-19.6597489069
 31
0.0
  0
SPLINE
  5
3EF
100
AcDbEntity
  8
RACCORDO
100
AcDbSpline
 62
253
  6
CONTINUOUS
 70
0
 71
3
 72
15
 73
11
 74
9
 42
0.0000001
 43
0.0000001
 44
0.0000000001
 12
0.4504890592
 22
0.4384992639
 32
0.0
 13
-0.0
 23
0.6276470198
 33
0.0
 40
0.0
 40
0.0
 40
0.0
 40
0.0
 40
0.1058633578
 40
0.2555752807
 40
0.3967542964
 40
0.5324097091
 40
0.6631878189
 40
0.7869254366
 40
0.9004776738
 40
1.0
 40
1.0
 40
1.0
 40
1.0
 10
-6.2207442925
 20
-19.6597489069
 30
0.0
 10
-6.204847531
 20
-19.6442752388
 30
0.0
 10
-6.1689442331
 20
-19.6043784713
 30
0.0
 10
-6.1228501551
 20
-19.534928124
 30
0.0
 10
-6.0845058257
 20
-19.4540766866
 30
0.0
 10
-6.0571371844
 20
-19.3731405598
 30
0.0
 10
-6.038595563
 20
-19.2935338089
 30
0.0
 10
-6.0272819342
 20
-19.217291488
 30
0.0
 10
-6.0216851956
 20
-19.1470041368
 30
0.0
 10
-6.0206142907
 20
-19.1024175774
 30
0.0
 10
-6.0206142907
 20
-19.0815959469
 30
0.0
 11
-6.2207442925
 21
-19.6597489069
 31
0.0
 11
-6.1761697623
 21
-19.6103929373
 31
0.0
 11
-6.123883973
 21
-19.5323170068
 31
0.0
 11
-6.0856473152
 21
-19.4523808174
 31
0.0
 11
-6.0581649829
 21
-19.3717943812
 31
0.0
 11
-6.0393888277
 21
-19.2918882405
 31
0.0
 11
-6.0278800125
 21
-19.215082162
 31
0.0
 11
-6.0221534773
 21
-19.144041872
 31
0.0
 11
-6.0206142907
 21
-19.0815959469
 31
0.0
  0
SPLINE
  5
3F0
100
AcDbEntity
  8
ASSI
100
AcDbSpline
 62
7
  6
CONTINUOUS
 70
0
 71
3
 72
9
 73
5
 74
3
 42
0.0000001
 43
0.0000001
 44
0.0000000001
 12
0.0473825667
 22
0.0233536656
 32
0.0
 13
0.0502870674
 23
0.0161775207
 33
0.0
 40
0.0
 40
0.0
 40
0.0
 40
0.0
 40
0.5077133959
 40
1.0
 40
1.0
 40
1.0
 40
1.0
 10
-5.8267552078
 20
25.009322118
 30
0.0
 10
-5.8187362865
 20
25.0132744409
 30
0.0
 10
-5.8026724471
 20
25.0205233412
 30
0.0
 10
-5.7861310594
 20
25.0266165598
 30
0.0
 10
-5.7778791762
 20
25.0292712187
 30
0.0
 11
-5.8267552078
 21
25.009322118
 31
0.0
 11
-5.8023015346
 21
25.0203372651
 31
0.0
 11
-5.7778791762
 21
25.0292712187
 31
0.0
  0
SPLINE
  5
3F1
100
AcDbEntity
  8
ASSI
100
AcDbSpline
 62
7
  6
CONTINUOUS
 70
0
 71
3
 72
9
 73
5
 74
3
 42
0.0000001
 43
0.0000001
 44
0.0000000001
 12
0.0473825667
 22
0.0233536656
 32
0.0
 13
0.0502870674
 23
0.0161775207
 33
0.0
 40
0.0
 40
0.0
 40
0.0
 40
0.0
 40
0.5077133959
 40
1.0
 40
1.0
 40
1.0
 40
1.0
 10
10.0831473689
 20
17.0543708296
 30
0.0
 10
10.0911662902
 20
17.0583231526
 30
0.0
 10
10.1072301296
 20
17.0655720529
 30
0.0
 10
10.1237715173
 20
17.0716652714
 30
0.0
 10
10.1320234005
 20
17.0743199303
 30
0.0
 11
10.0831473689
 21
17.0543708296
 31
0.0
 11
10.1076010421
 21
17.0653859767
 31
0.0
 11
10.1320234005
 21
17.0743199303
 31
0.0
  0
SPLINE
  5
3F2
100
AcDbEntity
  8
0
100
AcDbSpline
 62
7
  6
CONTINUOUS
 70
0
 71
3
 72
10
 73
6
 74
4
 42
0.0000001
 43
0.0000001
 44
0.0000000001
 12
-0.5130574268
 22
0.2565287134
 32
0.0
 13
-0.5164954299
 23
-0.2572230466
 33
0.0
 40
0.0
 40
0.0
 40
0.0
 40
0.0
 40
0.3889925423
 40
0.7433492533
 40
1.0
 40
1.0
 40
1.0
 40
1.0
 10
-1.908240918
 20
-20.0264191672
 30
0.0
 10
-1.9747660889
 20
-19.9931565818
 30
0.0
 10
-2.1095457194
 20
-19.9427749242
 30
0.0
 10
-2.3043377849
 20
-19.9314617335
 30
0.0
 10
-2.4183882468
 20
-19.9666442518
 30
0.0
 10
-2.4625745593
 20
-19.9886497475
 30
0.0
 11
-1.908240918
 21
-20.0264191672
 31
0.0
 11
-2.1185692569
 21
-19.9519210366
 31
0.0
 11
-2.3216988396
 21
-19.9445149058
 31
0.0
 11
-2.4625745593
 21
-19.9886497475
 31
0.0
  0
SPLINE
  5
3F3
100
AcDbEntity
  8
0
100
AcDbSpline
 62
7
  6
CONTINUOUS
 70
0
 71
3
 72
11
 73
7
 74
5
 42
0.0000001
 43
0.0000001
 44
0.0000000001
 12
-0.4627955239
 22
0.2313977619
 32
0.0
 13
-0.4898311769
 23
-0.1713235159
 33
0.0
 40
0.0
 40
0.0
 40
0.0
 40
0.0
 40
0.2931969397
 40
0.5750267531
 40
0.8368998389
 40
1.0
 40
1.0
 40
1.0
 40
1.0
 10
-6.8579883863
 20
-17.5515454331
 30
0.0
 10
-6.9032184634
 20
-17.5289303945
 30
0.0
 10
-6.9953855371
 20
-17.4909190145
 30
0.0
 10
-7.1376762448
 20
-17.4612671892
 30
0.0
 10
-7.2608182185
 20
-17.4639487522
 30
0.0
 10
-7.3324599304
 20
-17.4818746176
 30
0.0
 10
-7.359090445
 20
-17.4911889153
 30
0.0
 11
-6.8579883863
 21
-17.5515454331
 31
0.0
 11
-6.9986633045
 21
-17.4947531273
 31
0.0
 11
-7.1416832709
 21
-17.4662903075
 31
0.0
 11
-7.2771159675
 21
-17.4705179993
 31
0.0
 11
-7.359090445
 21
-17.4911889153
 31
0.0
  0
SPLINE
  5
3F4
100
AcDbEntity
  8
0
100
AcDbSpline
 62
7
  6
CONTINUOUS
 70
0
 71
3
 72
14
 73
10
 74
8
 42
0.0000001
 43
0.0000001
 44
0.0000000001
 12
-0.0355559874
 22
1.8374475442
 32
0.0
 13
-1.6437707154
 23
0.8218853577
 33
0.0
 40
0.0
 40
0.0
 40
0.0
 40
0.0
 40
0.1356863478
 40
0.2833569493
 40
0.4352993779
 40
0.5847191372
 40
0.7337282617
 40
0.8749844765
 40
1.0
 40
1.0
 40
1.0
 40
1.0
 10
-5.9526724455
 20
-19.0653026938
 30
0.0
 10
-5.9542805995
 20
-18.9821971783
 30
0.0
 10
-5.9739782659
 20
-18.8087666963
 30
0.0
 10
-6.0445410949
 20
-18.5507038785
 30
0.0
 10
-6.153521137
 20
-18.2971942169
 30
0.0
 10
-6.2953841234
 20
-18.0596600287
 30
0.0
 10
-6.4640217735
 20
-17.8484284107
 30
0.0
 10
-6.651504403
 20
-17.6749784585
 30
0.0
 10
-6.7894894342
 20
-17.5857949091
 30
0.0
 10
-6.8579883863
 20
-17.5515454331
 30
0.0
 11
-5.9526724455
 21
-19.0653026938
 31
0.0
 11
-5.9791608722
 21
-18.8173503212
 31
0.0
 11
-6.0497147303
 21
-18.5552940666
 31
0.0
 11
-6.1596714457
 21
-18.2986159313
 31
0.0
 11
-6.3006419323
 21
-18.0629598631
 31
0.0
 11
-6.4721906929
 21
-17.8495035696
 31
0.0
 11
-6.6638385076
 21
-17.6743950244
 31
0.0
 11
-6.8579883863
 21
-17.5515454331
 31
0.0
  0
SPLINE
  5
3F5
100
AcDbEntity
  8
ASSI
100
AcDbSpline
 62
7
  6
CONTINUOUS
 70
0
 71
3
 72
9
 73
5
 74
3
 42
0.0000001
 43
0.0000001
 44
0.0000000001
 12
0.0493471994
 22
0.0240385841
 32
0.0
 13
0.0524191685
 23
0.0162858956
 33
0.0
 40
0.0
 40
0.0
 40
0.0
 40
0.0
 40
0.5076735693
 40
1.0
 40
1.0
 40
1.0
 40
1.0
 10
4.527869466
 20
19.8320097811
 30
0.0
 10
4.5362202223
 20
19.836077699
 30
0.0
 10
4.5529567969
 20
19.843513036
 30
0.0
 10
4.5701982099
 20
19.8497028609
 30
0.0
 10
4.5788006572
 20
19.8523755198
 30
0.0
 11
4.527869466
 21
19.8320097811
 31
0.0
 11
4.5533437687
 21
19.8433061383
 31
0.0
 11
4.5788006572
 21
19.8523755198
 31
0.0
  0
SPLINE
  5
3F6
100
AcDbEntity
  8
ASSI
100
AcDbSpline
 62
7
  6
CONTINUOUS
 70
0
 71
3
 72
9
 73
5
 74
3
 42
0.0000001
 43
0.0000001
 44
0.0000000001
 12
0.0493471994
 22
0.0240385841
 32
0.0
 13
0.0524191685
 23
0.0162858956
 33
0.0
 40
0.0
 40
0.0
 40
0.0
 40
0.0
 40
0.5076735693
 40
1.0
 40
1.0
 40
1.0
 40
1.0
 10
-11.3820331107
 20
27.7869610694
 30
0.0
 10
-11.3736823544
 20
27.7910289874
 30
0.0
 10
-11.3569457798
 20
27.7984643243
 30
0.0
 10
-11.3397043668
 20
27.8046541492
 30
0.0
 10
-11.3311019194
 20
27.8073268082
 30
0.0
 11
-11.3820331107
 21
27.7869610694
 31
0.0
 11
-11.356558808
 21
27.7982574266
 31
0.0
 11
-11.3311019194
 21
27.8073268082
 31
0.0
  0
SPLINE
  5
3F7
100
AcDbEntity
  8
ASSI
100
AcDbSpline
 62
7
  6
CONTINUOUS
 70
0
 71
3
 72
9
 73
5
 74
3
 42
0.0000001
 43
0.0000001
 44
0.0000000001
 12
-0.0022603291
 22
0.0111833758
 32
0.0
 13
-0.0125041619
 23
0.0072869315
 33
0.0
 40
0.0
 40
0.0
 40
0.0
 40
0.0
 40
0.1912946007
 40
1.0
 40
1.0
 40
1.0
 40
1.0
 10
10.8631068926
 20
16.7814051119
 30
0.0
 10
10.862962763
 20
16.7821182184
 30
0.0
 10
10.8618175168
 20
16.7857473911
 30
0.0
 10
10.8584204641
 20
16.7887846121
 30
0.0
 10
10.8550497363
 20
16.7907489391
 30
0.0
 11
10.8631068926
 21
16.7814051119
 31
0.0
 11
10.8624422024
 21
16.783485039
 31
0.0
 11
10.8550497363
 21
16.7907489391
 31
0.0
  0
SPLINE
  5
3F8
100
AcDbEntity
  8
ASSI
100
AcDbSpline
 62
7
  6
CONTINUOUS
 70
0
 71
3
 72
9
 73
5
 74
3
 42
0.0000001
 43
0.0000001
 44
0.0000000001
 12
-0.0020947532
 22
0.0113038802
 32
0.0
 13
-0.0126780464
 23
0.0072184938
 33
0.0
 40
0.0
 40
0.0
 40
0.0
 40
0.0
 40
0.2097195359
 40
1.0
 40
1.0
 40
1.0
 40
1.0
 10
5.3081405683
 20
19.5588993686
 30
0.0
 10
5.3079941314
 20
19.5596895835
 30
0.0
 10
5.3068610629
 20
19.5633418483
 30
0.0
 10
5.3034233477
 20
19.5663510473
 30
0.0
 10
5.3000836102
 20
19.5682525922
 30
0.0
 11
5.3081405683
 21
19.5588993686
 31
0.0
 11
5.3074175146
 21
19.5611932026
 31
0.0
 11
5.3000836102
 21
19.5682525922
 31
0.0
  0
SPLINE
  5
3F9
100
AcDbEntity
  8
ASSI
100
AcDbSpline
 62
7
  6
CONTINUOUS
 70
0
 71
3
 72
9
 73
5
 74
3
 42
0.0000001
 43
0.0000001
 44
0.0000000001
 12
-0.0022603291
 22
0.0111833758
 32
0.0
 13
-0.0125041619
 23
0.0072869315
 33
0.0
 40
0.0
 40
0.0
 40
0.0
 40
0.0
 40
0.1912946007
 40
1.0
 40
1.0
 40
1.0
 40
1.0
 10
-5.0467956841
 20
24.7363564003
 30
0.0
 10
-5.0469398137
 20
24.7370695067
 30
0.0
 10
-5.0480850599
 20
24.7406986795
 30
0.0
 10
-5.0514821126
 20
24.7437359005
 30
0.0
 10
-5.0548528403
 20
24.7457002274
 30
0.0
 11
-5.0467956841
 21
24.7363564003
 31
0.0
 11
-5.0474603743
 21
24.7384363274
 31
0.0
 11
-5.0548528403
 21
24.7457002274
 31
0.0
  0
SPLINE
  5
3FA
100
AcDbEntity
  8
ASSI
100
AcDbSpline
 62
7
  6
CONTINUOUS
 70
0
 71
3
 72
9
 73
5
 74
3
 42
0.0000001
 43
0.0000001
 44
0.0000000001
 12
-0.0020947532
 22
0.0113038802
 32
0.0
 13
-0.0126780464
 23
0.0072184938
 33
0.0
 40
0.0
 40
0.0
 40
0.0
 40
0.0
 40
0.2097195359
 40
1.0
 40
1.0
 40
1.0
 40
1.0
 10
-10.6017620084
 20
27.513850657
 30
0.0
 10
-10.6019084453
 20
27.5146408718
 30
0.0
 10
-10.6030415138
 20
27.5182931367
 30
0.0
 10
-10.606479229
 20
27.5213023357
 30
0.0
 10
-10.6098189665
 20
27.5232038805
 30
0.0
 11
-10.6017620084
 21
27.513850657
 31
0.0
 11
-10.6024850621
 21
27.5161444909
 31
0.0
 11
-10.6098189665
 21
27.5232038805
 31
0.0
  0
SPLINE
  5
3FB
100
AcDbEntity
  8
ASSI
100
AcDbSpline
 62
7
  6
CONTINUOUS
 70
0
 71
3
 72
8
 73
4
 74
2
 42
0.0000001
 43
0.0000001
 44
0.0000000001
 12
0.0526830353
 22
0.0163678753
 32
0.0
 13
0.0556337135
 23
0.0019731525
 33
0.0
 40
0.0
 40
0.0
 40
0.0
 40
0.0
 40
1.0
 40
1.0
 40
1.0
 40
1.0
 10
-11.3311019194
 20
27.8073031743
 30
0.0
 10
-11.3135409077
 20
27.8127591328
 30
0.0
 10
-11.2951205495
 20
27.8155420823
 30
0.0
 10
-11.2765759784
 20
27.8161997998
 30
0.0
 11
-11.3311019194
 21
27.8073031743
 31
0.0
 11
-11.2765759784
 21
27.8161997998
 31
0.0
  0
SPLINE
  5
3FC
100
AcDbEntity
  8
ASSI
100
AcDbSpline
 62
7
  6
CONTINUOUS
 70
0
 71
3
 72
9
 73
5
 74
3
 42
0.0000001
 43
0.0000001
 44
0.0000000001
 12
0.1475389477
 22
-0.0117645147
 32
0.0
 13
0.1317015537
 23
-0.0656915902
 33
0.0
 40
0.0
 40
0.0
 40
0.0
 40
0.0
 40
0.6873192813
 40
1.0
 40
1.0
 40
1.0
 40
1.0
 10
-11.2466228993
 20
27.8154989575
 30
0.0
 10
-11.2128207781
 20
27.8128036316
 30
0.0
 10
-11.16496567
 20
27.7999586924
 30
0.0
 10
-11.1201294299
 20
27.7799533639
 30
0.0
 10
-11.1064025844
 20
27.7731065327
 30
0.0
 11
-11.2466228993
 21
27.8154989575
 31
0.0
 11
-11.1484634379
 21
27.7917638591
 31
0.0
 11
-11.1064025844
 21
27.7731065327
 31
0.0
  0
SPLINE
  5
3FD
100
AcDbEntity
  8
ASSI
100
AcDbSpline
 62
7
  6
CONTINUOUS
 70
0
 71
3
 72
8
 73
4
 74
2
 42
0.0000001
 43
0.0000001
 44
0.0000000001
 12
0.0525936458
 22
0.0169195548
 32
0.0
 13
0.0557086239
 23
0.0023937401
 33
0.0
 40
0.0
 40
0.0
 40
0.0
 40
0.0
 40
1.0
 40
1.0
 40
1.0
 40
1.0
 10
-5.7778791762
 20
25.0292506851
 30
0.0
 10
-5.760347961
 20
25.0348905367
 30
0.0
 10
-5.7419201766
 20
25.0378369897
 30
0.0
 10
-5.7233506353
 20
25.038634903
 30
0.0
 11
-5.7778791762
 21
25.0292506851
 31
0.0
 11
-5.7233506353
 21
25.038634903
 31
0.0
  0
SPLINE
  5
3FE
100
AcDbEntity
  8
ASSI
100
AcDbSpline
 62
7
  6
CONTINUOUS
 70
0
 71
3
 72
9
 73
5
 74
3
 42
0.0000001
 43
0.0000001
 44
0.0000000001
 12
0.1493566503
 22
-0.0109515781
 32
0.0
 13
0.1332475219
 23
-0.0664630827
 33
0.0
 40
0.0
 40
0.0
 40
0.0
 40
0.0
 40
0.6798506464
 40
1.0
 40
1.0
 40
1.0
 40
1.0
 10
-5.6933654457
 20
25.0381413197
 30
0.0
 10
-5.6595187073
 20
25.0356595072
 30
0.0
 10
-5.6110346719
 20
25.0228777116
 30
0.0
 10
-5.5656384453
 20
25.0027079293
 30
0.0
 10
-5.5514187426
 20
24.995615225
 30
0.0
 11
-5.6933654457
 21
25.0381413197
 31
0.0
 11
-5.5950220774
 21
25.0148653786
 31
0.0
 11
-5.5514187426
 21
24.995615225
 31
0.0
  0
SPLINE
  5
3FF
100
AcDbEntity
  8
ASSI
100
AcDbSpline
 62
7
  6
CONTINUOUS
 70
0
 71
3
 72
8
 73
4
 74
2
 42
0.0000001
 43
0.0000001
 44
0.0000000001
 12
0.0526830353
 22
0.0163678753
 32
0.0
 13
0.0556337135
 23
0.0019731525
 33
0.0
 40
0.0
 40
0.0
 40
0.0
 40
0.0
 40
1.0
 40
1.0
 40
1.0
 40
1.0
 10
4.5788006572
 20
19.852351886
 30
0.0
 10
4.596361669
 20
19.8578078444
 30
0.0
 10
4.6147820272
 20
19.8605907939
 30
0.0
 10
4.6333265983
 20
19.8612485115
 30
0.0
 11
4.5788006572
 21
19.852351886
 31
0.0
 11
4.6333265983
 21
19.8612485115
 31
0.0
  0
SPLINE
  5
400
100
AcDbEntity
  8
ASSI
100
AcDbSpline
 62
7
  6
CONTINUOUS
 70
0
 71
3
 72
9
 73
5
 74
3
 42
0.0000001
 43
0.0000001
 44
0.0000000001
 12
0.1475389477
 22
-0.0117645147
 32
0.0
 13
0.1317015537
 23
-0.0656915902
 33
0.0
 40
0.0
 40
0.0
 40
0.0
 40
0.0
 40
0.6873192813
 40
1.0
 40
1.0
 40
1.0
 40
1.0
 10
4.6632796774
 20
19.8605476692
 30
0.0
 10
4.6970817986
 20
19.8578523432
 30
0.0
 10
4.7449369067
 20
19.8450074041
 30
0.0
 10
4.7897731468
 20
19.8250020756
 30
0.0
 10
4.8034999923
 20
19.8181552444
 30
0.0
 11
4.6632796774
 21
19.8605476692
 31
0.0
 11
4.7614391388
 21
19.8368125708
 31
0.0
 11
4.8034999923
 21
19.8181552444
 31
0.0
  0
SPLINE
  5
401
100
AcDbEntity
  8
ASSI
100
AcDbSpline
 62
7
  6
CONTINUOUS
 70
0
 71
3
 72
8
 73
4
 74
2
 42
0.0000001
 43
0.0000001
 44
0.0000000001
 12
0.0525936458
 22
0.0169195548
 32
0.0
 13
0.0557086239
 23
0.0023937401
 33
0.0
 40
0.0
 40
0.0
 40
0.0
 40
0.0
 40
1.0
 40
1.0
 40
1.0
 40
1.0
 10
10.1320234005
 20
17.0742993967
 30
0.0
 10
10.1495546157
 20
17.0799392483
 30
0.0
 10
10.1679824001
 20
17.0828857013
 30
0.0
 10
10.1865519414
 20
17.0836836147
 30
0.0
 11
10.1320234005
 21
17.0742993967
 31
0.0
 11
10.1865519414
 21
17.0836836147
 31
0.0
  0
SPLINE
  5
402
100
AcDbEntity
  8
ASSI
100
AcDbSpline
 62
7
  6
CONTINUOUS
 70
0
 71
3
 72
9
 73
5
 74
3
 42
0.0000001
 43
0.0000001
 44
0.0000000001
 12
0.1493566503
 22
-0.0109515781
 32
0.0
 13
0.1332475219
 23
-0.0664630827
 33
0.0
 40
0.0
 40
0.0
 40
0.0
 40
0.0
 40
0.6798506464
 40
1.0
 40
1.0
 40
1.0
 40
1.0
 10
10.216537131
 20
17.0831900314
 30
0.0
 10
10.2503838694
 20
17.0807082189
 30
0.0
 10
10.2988679047
 20
17.0679264232
 30
0.0
 10
10.3442641314
 20
17.047756641
 30
0.0
 10
10.3584838341
 20
17.0406639366
 30
0.0
 11
10.216537131
 21
17.0831900314
 31
0.0
 11
10.3148804993
 21
17.0599140903
 31
0.0
 11
10.3584838341
 21
17.0406639366
 31
0.0
  0
SPLINE
  5
403
100
AcDbEntity
  8
0
100
AcDbSpline
 62
7
  6
CONTINUOUS
 70
0
 71
3
 72
11
 73
7
 74
5
 42
0.0000001
 43
0.0000001
 44
0.0000000001
 12
0.6950655517
 22
0.3481059288
 32
0.0
 13
-0.0149719496
 23
0.7737141903
 33
0.0
 40
0.0
 40
0.0
 40
0.0
 40
0.0
 40
0.2060318949
 40
0.44134541
 40
0.706959001
 40
1.0
 40
1.0
 40
1.0
 40
1.0
 10
-6.2616849665
 20
-19.7334660566
 30
0.0
 10
-6.2139497422
 20
-19.7095590819
 30
0.0
 10
-6.1209644504
 20
-19.6396445634
 30
0.0
 10
-6.0196631967
 20
-19.4841336222
 30
0.0
 10
-5.9607183823
 20
-19.285758319
 30
0.0
 10
-5.9512099804
 20
-19.1408793536
 30
0.0
 10
-5.9526724455
 20
-19.0653026938
 30
0.0
 11
-6.2616849665
 21
-19.7334660566
 31
0.0
 11
-6.1336157561
 21
-19.6383622716
 31
0.0
 11
-6.0316378094
 21
-19.4874956994
 31
0.0
 11
-5.9699808091
 21
-19.2914136252
 31
0.0
 11
-5.9526724455
 21
-19.0653026938
 31
0.0
  0
SPLINE
  5
404
100
AcDbEntity
  8
0
100
AcDbSpline
 62
7
  6
CONTINUOUS
 70
0
 71
3
 72
18
 73
14
 74
12
 42
0.0000001
 43
0.0000001
 44
0.0000000001
 12
2.350850736
 22
1.1706233044
 32
0.0
 13
-2.3350891912
 23
1.1675445956
 33
0.0
 40
0.0
 40
0.0
 40
0.0
 40
0.0
 40
0.0147424154
 40
0.0847336365
 40
0.1632684889
 40
0.2527610492
 40
0.3513559784
 40
0.4585054126
 40
0.5722855861
 40
0.6868627051
 40
0.7993276934
 40
0.9046779012
 40
1.0
 40
1.0
 40
1.0
 40
1.0
 10
-1.311692972
 20
-22.2081351044
 30
0.0
 10
-1.300140566
 20
-22.2023824994
 30
0.0
 10
-1.2351971251
 20
-22.1664920772
 30
0.0
 10
-1.129387794
 20
-22.0662759753
 30
0.0
 10
-1.0372606327
 20
-21.8768309257
 30
0.0
 10
-0.9965621217
 20
-21.6461160849
 30
0.0
 10
-1.0064378117
 20
-21.3878553523
 30
0.0
 10
-1.0649715345
 20
-21.1148056271
 30
0.0
 10
-1.1691088448
 20
-20.8409033726
 30
0.0
 10
-1.3134633175
 20
-20.5806790117
 30
0.0
 10
-1.4893356651
 20
-20.3496175023
 30
0.0
 10
-1.6870151339
 20
-20.1604107969
 30
0.0
 10
-1.8340457171
 20
-20.0635167677
 30
0.0
 10
-1.908240918
 20
-20.0264191672
 30
0.0
 11
-1.311692972
 21
-22.2081351044
 31
0.0
 11
-1.2778457672
 21
-22.1894057113
 31
0.0
 11
-1.1435334707
 21
-22.065513581
 31
0.0
 11
-1.0501064533
 21
-21.8830050305
 31
0.0
 11
-1.0058756205
 21
-21.6535909193
 31
0.0
 11
-1.0132265435
 21
-21.3962932278
 31
0.0
 11
-1.0703669237
 21
-21.1224553063
 31
0.0
 11
-1.1752766691
 21
-20.8445509605
 31
0.0
 11
-1.3204617233
 21
-20.5830197458
 31
0.0
 11
-1.4990334676
 21
-20.3499512127
 31
0.0
 11
-1.6989540889
 21
-20.1610648551
 31
0.0
 11
-1.908240918
 21
-20.0264191672
 31
0.0
  0
SPLINE
  5
405
100
AcDbEntity
  8
RACCORDO
100
AcDbSpline
 62
7
  6
CONTINUOUS
 70
0
 71
3
 72
10
 73
6
 74
4
 42
0.0000001
 43
0.0000001
 44
0.0000000001
 12
0.4092503236
 22
0.200251018
 32
0.0
 13
0.4110139266
 23
-0.2048779406
 33
0.0
 40
0.0
 40
0.0
 40
0.0
 40
0.0
 40
0.4200360998
 40
0.7912936528
 40
1.0
 40
1.0
 40
1.0
 40
1.0
 10
-4.4084279316
 20
24.8293209952
 30
0.0
 10
-4.3511279617
 20
24.8573585473
 30
0.0
 10
-4.2359500467
 20
24.8978640787
 30
0.0
 10
-4.0804222794
 20
24.8985219679
 30
0.0
 10
-3.9959768341
 20
24.8687405574
 30
0.0
 10
-3.9673830957
 20
24.8544874486
 30
0.0
 11
-4.4084279316
 21
24.8293209952
 31
0.0
 11
-4.2266267701
 21
24.8890943641
 31
0.0
 11
-4.0574993444
 21
24.8862687892
 31
0.0
 11
-3.9673830957
 21
24.8544874486
 31
0.0
  0
SPLINE
  5
406
100
AcDbEntity
  8
RACCORDO
100
AcDbSpline
 62
7
  6
CONTINUOUS
 70
0
 71
3
 72
11
 73
7
 74
5
 42
0.0000001
 43
0.0000001
 44
0.0000000001
 12
0.0
 22
0.6288995887
 32
0.0
 13
-0.567333602
 23
0.2827985441
 33
0.0
 40
0.0
 40
0.0
 40
0.0
 40
0.0
 40
0.3376538799
 40
0.6342623148
 40
0.8982625334
 40
1.0
 40
1.0
 40
1.0
 40
1.0
 10
-7.95013243
 20
26.4351170049
 30
0.0
 10
-7.95013243
 20
26.505900467
 30
0.0
 10
-7.9632606738
 20
26.6396095318
 30
0.0
 10
-8.0310758517
 20
26.8182983239
 30
0.0
 10
-8.124540309
 20
26.9259856527
 30
0.0
 10
-8.1907840883
 20
26.9662173896
 30
0.0
 10
-8.2100237828
 20
26.9758077921
 30
0.0
 11
-7.95013243
 21
26.4351170049
 31
0.0
 11
-7.9739602299
 21
26.6461262996
 31
0.0
 11
-8.0438346712
 21
26.8190817447
 31
0.0
 11
-8.1550623161
 21
26.9423466978
 31
0.0
 11
-8.2100237828
 21
26.9758077921
 31
0.0
  0
SPLINE
  5
407
100
AcDbEntity
  8
RACCORDO
100
AcDbSpline
 62
7
  6
CONTINUOUS
 70
0
 71
3
 72
10
 73
6
 74
4
 42
0.0000001
 43
0.0000001
 44
0.0000000001
 12
0.4092503236
 22
0.200251018
 32
0.0
 13
0.4110139266
 23
-0.2048779406
 33
0.0
 40
0.0
 40
0.0
 40
0.0
 40
0.0
 40
0.4200360998
 40
0.7912936528
 40
1.0
 40
1.0
 40
1.0
 40
1.0
 10
11.5014746451
 20
16.8743697068
 30
0.0
 10
11.558774615
 20
16.902407259
 30
0.0
 10
11.67395253
 20
16.9429127904
 30
0.0
 10
11.8294802973
 20
16.9435706795
 30
0.0
 10
11.9139257426
 20
16.9137892691
 30
0.0
 10
11.942519481
 20
16.8995361602
 30
0.0
 11
11.5014746451
 21
16.8743697068
 31
0.0
 11
11.6832758066
 21
16.9341430758
 31
0.0
 11
11.8524032323
 21
16.9313175008
 31
0.0
 11
11.942519481
 21
16.8995361602
 31
0.0
  0
SPLINE
  5
408
100
AcDbEntity
  8
RACCORDO
100
AcDbSpline
 62
7
  6
CONTINUOUS
 70
0
 71
3
 72
11
 73
7
 74
5
 42
0.0000001
 43
0.0000001
 44
0.0000000001
 12
0.0
 22
0.6288995887
 32
0.0
 13
-0.567333602
 23
0.2827985441
 33
0.0
 40
0.0
 40
0.0
 40
0.0
 40
0.0
 40
0.3376538799
 40
0.6342623148
 40
0.8982625334
 40
1.0
 40
1.0
 40
1.0
 40
1.0
 10
7.9597701467
 20
18.4801657166
 30
0.0
 10
7.9597701467
 20
18.5509491786
 30
0.0
 10
7.9466419029
 20
18.6846582434
 30
0.0
 10
7.878826725
 20
18.8633470356
 30
0.0
 10
7.7853622677
 20
18.9710343643
 30
0.0
 10
7.7191184884
 20
19.0112661013
 30
0.0
 10
7.6998787939
 20
19.0208565038
 30
0.0
 11
7.9597701467
 21
18.4801657166
 31
0.0
 11
7.9359423468
 21
18.6911750113
 31
0.0
 11
7.8660679055
 21
18.8641304564
 31
0.0
 11
7.7548402606
 21
18.9873954095
 31
0.0
 11
7.6998787939
 21
19.0208565038
 31
0.0
  0
SPLINE
  5
409
100
AcDbEntity
  8
RACCORDO
100
AcDbSpline
 62
7
  6
CONTINUOUS
 70
0
 71
3
 72
8
 73
4
 74
2
 42
0.0000001
 43
0.0000001
 44
0.0000000001
 12
-0.0112379531
 22
-0.040494248
 32
0.0
 13
0.0001807382
 23
-0.0423966111
 33
0.0
 40
0.0
 40
0.0
 40
0.0
 40
0.0
 40
1.0
 40
1.0
 40
1.0
 40
1.0
 10
-1.301469604
 20
16.9085793981
 30
0.0
 10
-1.3052155884
 20
16.8950813155
 30
0.0
 10
-1.3066436705
 20
16.8810767562
 30
0.0
 10
-1.3065834244
 20
16.8669445525
 30
0.0
 11
-1.301469604
 21
16.9085793981
 31
0.0
 11
-1.3065834244
 21
16.8669445525
 31
0.0
  0
SPLINE
  5
40A
100
AcDbEntity
  8
RACCORDO
100
AcDbSpline
 62
7
  6
CONTINUOUS
 70
0
 71
3
 72
8
 73
4
 74
2
 42
0.0000001
 43
0.0000001
 44
0.0000000001
 12
-0.0112379531
 22
-0.040494248
 32
0.0
 13
0.0001807382
 23
-0.0423966111
 33
0.0
 40
0.0
 40
0.0
 40
0.0
 40
0.0
 40
1.0
 40
1.0
 40
1.0
 40
1.0
 10
-17.2113721807
 20
24.8635306865
 30
0.0
 10
-17.2151181651
 20
24.8500326038
 30
0.0
 10
-17.2165462472
 20
24.8360280446
 30
0.0
 10
-17.2164860011
 20
24.8218958409
 30
0.0
 11
-17.2113721807
 21
24.8635306865
 31
0.0
 11
-17.2164860011
 21
24.8218958409
 31
0.0
  0
SPLINE
  5
40B
100
AcDbEntity
  8
RACCORDO
100
AcDbSpline
 62
253
  6
CONTINUOUS
 70
0
 71
3
 72
9
 73
5
 74
3
 42
0.0000001
 43
0.0000001
 44
0.0000000001
 12
-0.1032829872
 22
0.0499301224
 32
0.0
 13
-0.1016986035
 23
-0.0501246629
 33
0.0
 40
0.0
 40
0.0
 40
0.0
 40
0.0
 40
0.3961259987
 40
1.0
 40
1.0
 40
1.0
 40
1.0
 10
10.2956132759
 20
12.8761605281
 30
0.0
 10
10.2819755838
 20
12.8827534013
 30
0.0
 10
10.2432564445
 20
12.8915090997
 30
0.0
 10
10.2055676325
 20
12.8797209019
 30
0.0
 10
10.1850965849
 20
12.8696312417
 30
0.0
 11
10.2956132759
 21
12.8761605281
 31
0.0
 11
10.251461943
 21
12.8864664588
 31
0.0
 11
10.1850965849
 21
12.8696312417
 31
0.0
  0
SPLINE
  5
40C
100
AcDbEntity
  8
RACCORDO
100
AcDbSpline
 62
253
  6
CONTINUOUS
 70
0
 71
3
 72
9
 73
5
 74
3
 42
0.0000001
 43
0.0000001
 44
0.0000000001
 12
0.000059674
 22
-0.1172327446
 32
0.0
 13
-0.1053322998
 23
-0.0532825413
 33
0.0
 40
0.0
 40
0.0
 40
0.0
 40
0.0
 40
0.43809753
 40
1.0
 40
1.0
 40
1.0
 40
1.0
 10
-5.4758344728
 20
20.6075656257
 30
0.0
 10
-5.4758257585
 20
20.5904458338
 30
0.0
 10
-5.4943431912
 20
20.5513826544
 30
0.0
 10
-5.5283034616
 20
20.5296728551
 30
0.0
 10
-5.5480322881
 20
20.5196929912
 30
0.0
 11
-5.4758344728
 21
20.6075656257
 31
0.0
 11
-5.4950145768
 21
20.5595494936
 31
0.0
 11
-5.5480322881
 21
20.5196929912
 31
0.0
  0
SPLINE
  5
40D
100
AcDbEntity
  8
RACCORDO
100
AcDbSpline
 62
253
  6
CONTINUOUS
 70
0
 71
3
 72
9
 73
5
 74
3
 42
0.0000001
 43
0.0000001
 44
0.0000000001
 12
0.000059674
 22
-0.1172327446
 32
0.0
 13
-0.1053322998
 23
-0.0532825413
 33
0.0
 40
0.0
 40
0.0
 40
0.0
 40
0.0
 40
0.43809753
 40
1.0
 40
1.0
 40
1.0
 40
1.0
 10
10.4340681039
 20
12.6526143374
 30
0.0
 10
10.4340768182
 20
12.6354945454
 30
0.0
 10
10.4155593855
 20
12.5964313661
 30
0.0
 10
10.3815991151
 20
12.5747215667
 30
0.0
 10
10.3618702886
 20
12.5647417029
 30
0.0
 11
10.4340681039
 21
12.6526143374
 31
0.0
 11
10.4148879999
 21
12.6045982053
 31
0.0
 11
10.3618702886
 21
12.5647417029
 31
0.0
  0
SPLINE
  5
40E
100
AcDbEntity
  8
0
100
AcDbSpline
 62
7
  6
CONTINUOUS
 70
0
 71
3
 72
23
 73
19
 74
17
 42
0.0000001
 43
0.0000001
 44
0.0000000001
 12
-5.6985928201
 22
2.8492964101
 32
0.0
 13
5.6985928201
 23
-2.8492964101
 33
0.0
 40
0.0
 40
0.0
 40
0.0
 40
0.0
 40
0.063572163
 40
0.1329495017
 40
0.206470372
 40
0.2826226497
 40
0.3595322617
 40
0.4353437353
 40
0.5082784919
 40
0.576812351
 40
0.6398408071
 40
0.696887734
 40
0.7483838136
 40
0.7959086421
 40
0.8421136245
 40
0.8900561542
 40
0.9423027076
 40
1.0
 40
1.0
 40
1.0
 40
1.0
 10
-7.227240007
 20
-20.9837665942
 30
0.0
 10
-7.3479972976
 20
-20.9233879489
 30
0.0
 10
-7.5885728717
 20
-20.7725095353
 30
0.0
 10
-7.921006379
 20
-20.4844995823
 30
0.0
 10
-8.2297433671
 20
-20.1347907268
 30
0.0
 10
-8.5025987216
 20
-19.7370637256
 30
0.0
 10
-8.7295289572
 20
-19.3059752157
 30
0.0
 10
-8.9019783358
 20
-18.8576118797
 30
0.0
 10
-9.0134750232
 20
-18.4085083847
 30
0.0
 10
-9.0597359529
 20
-17.9751193367
 30
0.0
 10
-9.0386845572
 20
-17.573115218
 30
0.0
 10
-8.9501409832
 20
-17.2168627077
 30
0.0
 10
-8.7952296156
 20
-16.9195291113
 30
0.0
 10
-8.5766942529
 20
-16.6947032717
 30
0.0
 10
-8.3030413305
 20
-16.556541414
 30
0.0
 10
-7.9901740409
 20
-16.5128914174
 30
0.0
 10
-7.6548740402
 20
-16.5620231388
 30
0.0
 10
-7.4358729705
 20
-16.6483580914
 30
0.0
 10
-7.3262751784
 20
-16.7031569875
 30
0.0
 11
-7.227240007
 21
-20.9837665942
 31
0.0
 11
-7.5720054205
 21
-20.7711920285
 31
0.0
 11
-7.9075766613
 21
-20.483490556
 31
0.0
 11
-8.2186234595
 21
-20.1332549124
 31
0.0
 11
-8.4936276473
 21
-19.7335360222
 31
0.0
 11
-8.7218143027
 21
-19.2999016342
 31
0.0
 11
-8.8944758364
 21
-18.8488049576
 31
0.0
 11
-9.004944268
 21
-18.3974432395
 31
0.0
 11
-9.0489204812
 21
-17.9630190693
 31
0.0
 11
-9.0246357329
 21
-17.5621858602
 31
0.0
 11
-8.932989366
 21
-17.2104714028
 31
0.0
 11
-8.7775705669
 21
-16.9215251586
 31
0.0
 11
-8.5644236851
 21
-16.7064649501
 31
0.0
 11
-8.3017360761
 21
-16.5735888498
 31
0.0
 11
-7.9996816525
 21
-16.5281541738
 31
0.0
 11
-7.6697206071
 21
-16.5720974861
 31
0.0
 11
-7.3262751784
 21
-16.7031569875
 31
0.0
  0
SPLINE
  5
40F
100
AcDbEntity
  8
0
100
AcDbSpline
 62
7
  6
CONTINUOUS
 70
0
 71
3
 72
23
 73
19
 74
17
 42
0.0000001
 43
0.0000001
 44
0.0000000001
 12
5.690234828
 22
-2.845117414
 32
0.0
 13
-5.690234828
 23
2.845117414
 33
0.0
 40
0.0
 40
0.0
 40
0.0
 40
0.0
 40
0.0636410223
 40
0.1330677796
 40
0.2066477224
 40
0.2828836648
 40
0.3599071751
 40
0.4358535582
 40
0.5089279087
 40
0.5775757401
 40
0.6406606506
 40
0.6976753993
 40
0.7490385778
 40
0.7963489931
 40
0.8423205375
 40
0.8900879871
 40
0.9422649911
 40
1.0
 40
1.0
 40
1.0
 40
1.0
 10
-7.3262751784
 20
-16.7031569875
 30
0.0
 10
-7.2055643912
 20
-16.7635123811
 30
0.0
 10
-6.9652250885
 20
-16.9145156881
 30
0.0
 10
-6.6336515836
 20
-17.2031477662
 30
0.0
 10
-6.3262963113
 20
-17.5537280559
 30
0.0
 10
-6.0551368689
 20
-17.9524239268
 30
0.0
 10
-5.8299565775
 20
-18.384414282
 30
0.0
 10
-5.6590330409
 20
-18.8334742336
 30
0.0
 10
-5.5485936786
 20
-19.2829644738
 30
0.0
 10
-5.5027446554
 20
-19.7163835462
 30
0.0
 10
-5.5234817976
 20
-20.1180688426
 30
0.0
 10
-5.6110201013
 20
-20.4737412657
 30
0.0
 10
-5.7644209532
 20
-20.770384202
 30
0.0
 10
-5.9813113806
 20
-20.9945008167
 30
0.0
 10
-6.2534648351
 20
-21.1318289322
 30
0.0
 10
-6.5649781351
 20
-21.1746008789
 30
0.0
 10
-6.8992169287
 20
-21.1248812421
 30
0.0
 10
-7.1177314208
 20
-21.0385208873
 30
0.0
 10
-7.227240007
 20
-20.9837665942
 30
0.0
 11
-7.3262751784
 21
-16.7031569875
 31
0.0
 11
-6.9818112523
 21
-16.9159230859
 31
0.0
 11
-6.6471455279
 21
-17.2041659994
 31
0.0
 11
-6.3374827227
 21
-17.5552110281
 31
0.0
 11
-6.0641535844
 21
-17.9558601038
 31
0.0
 11
-5.8376744099
 21
-18.3903953967
 31
0.0
 11
-5.6664902681
 21
-18.8422150437
 31
0.0
 11
-5.5570299549
 21
-19.2940348168
 31
0.0
 11
-5.513438019
 21
-19.7285828019
 31
0.0
 11
-5.5374256201
 21
-20.1292036774
 31
0.0
 11
-5.6281456438
 21
-20.4803962533
 31
0.0
 11
-5.782160914
 21
-20.7685896365
 31
0.0
 11
-5.9936372928
 21
-20.9827589696
 31
0.0
 11
-6.254630272
 21
-21.1147384929
 31
0.0
 11
-6.5552184939
 21
-21.1594174637
 31
0.0
 11
-6.88417455
 21
-21.1149822937
 31
0.0
 11
-7.227240007
 21
-20.9837665942
 31
0.0
  0
SPLINE
  5
410
100
AcDbEntity
  8
RACCORDO
100
AcDbSpline
 62
253
  6
CONTINUOUS
 70
0
 71
3
 72
9
 73
5
 74
3
 42
0.0000001
 43
0.0000001
 44
0.0000000001
 12
-0.0001778183
 22
-0.1172427845
 32
0.0
 13
-0.1053162897
 23
-0.0532744426
 33
0.0
 40
0.0
 40
0.0
 40
0.0
 40
0.0
 40
0.4306932236
 40
1.0
 40
1.0
 40
1.0
 40
1.0
 10
-5.4758348253
 20
20.2600341073
 30
0.0
 10
-5.4758603537
 20
20.2432022163
 30
0.0
 10
-5.4940265754
 20
20.2040566703
 30
0.0
 10
-5.5280465289
 20
20.1822713082
 30
0.0
 10
-5.5480322881
 20
20.1721614745
 30
0.0
 11
-5.4758348253
 21
20.2600341073
 31
0.0
 11
-5.4944493051
 21
20.2127030295
 31
0.0
 11
-5.5480322881
 21
20.1721614745
 31
0.0
  0
SPLINE
  5
411
100
AcDbEntity
  8
0
100
AcDbSpline
 62
7
  6
CONTINUOUS
 70
0
 71
3
 72
23
 73
19
 74
17
 42
0.0000001
 43
0.0000001
 44
0.0000000001
 12
-5.698592942
 22
2.849296471
 32
0.0
 13
5.698592942
 23
-2.849296471
 33
0.0
 40
0.0
 40
0.0
 40
0.0
 40
0.0
 40
0.0635728333
 40
0.1329501616
 40
0.2064706382
 40
0.2826232179
 40
0.3595340911
 40
0.4353473717
 40
0.5082840466
 40
0.576819187
 40
0.6398481277
 40
0.6968952358
 40
0.748391967
 40
0.7959170641
 40
0.8421215023
 40
0.8900621007
 40
0.9423066467
 40
1.0
 40
1.0
 40
1.0
 40
1.0
 10
-2.277492541
 20
-23.4586403269
 30
0.0
 10
-2.3982511074
 20
-23.3982610437
 30
0.0
 10
-2.6388277569
 20
-23.2473816202
 30
0.0
 10
-2.9712612992
 20
-22.9593708479
 30
0.0
 10
-3.2799978607
 20
-22.6096619139
 30
0.0
 10
-3.5528543738
 20
-22.2119326659
 30
0.0
 10
-3.7797871805
 20
-21.7808373492
 30
0.0
 10
-3.9522384794
 20
-21.3324633033
 30
0.0
 10
-4.0637341482
 20
-20.8833484634
 30
0.0
 10
-4.1099902599
 20
-20.4499508754
 30
0.0
 10
-4.0889308885
 20
-20.0479428426
 30
0.0
 10
-4.0003768383
 20
-19.6916897965
 30
0.0
 10
-3.8454524153
 20
-19.394359784
 30
0.0
 10
-3.6269037722
 20
-19.1695451327
 30
0.0
 10
-3.3532470018
 20
-19.0314018293
 30
0.0
 10
-3.0403881055
 20
-18.9877671814
 30
0.0
 10
-2.7051064277
 20
-19.036904043
 30
0.0
 10
-2.4861180198
 20
-19.1232355671
 30
0.0
 10
-2.3765277077
 20
-19.1780307231
 30
0.0
 11
-2.277492541
 21
-23.4586403269
 31
0.0
 11
-2.622261414
 21
-23.2460632186
 31
0.0
 11
-2.9578322104
 21
-22.9583613145
 31
0.0
 11
-3.2688770574
 21
-22.60812728
 31
0.0
 11
-3.5438820778
 21
-22.2084066144
 31
0.0
 11
-3.7720716752
 21
-21.7747646826
 31
0.0
 11
-3.944735337
 21
-21.3236564823
 31
0.0
 11
-4.0552029053
 21
-20.8722819603
 31
0.0
 11
-4.0991740452
 21
-20.4378490619
 31
0.0
 11
-4.0748811246
 21
-20.0370132461
 31
0.0
 11
-3.9832245798
 21
-19.6853002403
 31
0.0
 11
-3.8277921701
 21
-19.3963565947
 31
0.0
 11
-3.6146324496
 21
-19.1813066935
 31
0.0
 11
-3.351940269
 21
-19.0484472985
 31
0.0
 11
-3.049895994
 21
-19.0030278338
 31
0.0
 11
-2.7199486969
 21
-19.0469775479
 31
0.0
 11
-2.3765277077
 21
-19.1780307231
 31
0.0
  0
SPLINE
  5
412
100
AcDbEntity
  8
0
100
AcDbSpline
 62
7
  6
CONTINUOUS
 70
0
 71
3
 72
23
 73
19
 74
17
 42
0.0000001
 43
0.0000001
 44
0.0000000001
 12
5.6902349536
 22
-2.8451174768
 32
0.0
 13
-5.6902349536
 23
2.8451174768
 33
0.0
 40
0.0
 40
0.0
 40
0.0
 40
0.0
 40
0.0636416513
 40
0.1330683141
 40
0.206647788
 40
0.2828840183
 40
0.3599088816
 40
0.435857208
 40
0.5089336027
 40
0.5775827697
 40
0.640668136
 40
0.6976829981
 40
0.7490467725
 40
0.7963574162
 40
0.8423284036
 40
0.8900939281
 40
0.9422689331
 40
1.0
 40
1.0
 40
1.0
 40
1.0
 10
-2.3765277077
 20
-19.1780307231
 30
0.0
 10
-2.2558157248
 20
-19.2383867146
 30
0.0
 10
-2.0154755682
 20
-19.3893908754
 30
0.0
 10
-1.6839023067
 20
-19.6780234347
 30
0.0
 10
-1.3765476024
 20
-20.0286034331
 30
0.0
 10
-1.1053868853
 20
-20.4273014732
 30
0.0
 10
-0.8802037287
 20
-20.8592989815
 30
0.0
 10
-0.7092779925
 20
-21.3083703205
 30
0.0
 10
-0.5988395338
 20
-21.7578725475
 30
0.0
 10
-0.5529953811
 20
-22.1913004735
 30
0.0
 10
-0.5737405968
 20
-22.5929895886
 30
0.0
 10
-0.6612893971
 20
-22.9486622242
 30
0.0
 10
-0.8147032375
 20
-23.2453012636
 30
0.0
 10
-1.0316069055
 20
-23.4694064625
 30
0.0
 10
-1.3037641607
 20
-23.6067158752
 30
0.0
 10
-1.6152690371
 20
-23.6494724884
 30
0.0
 10
-1.949489555
 20
-23.5997477958
 30
0.0
 10
-2.1679914294
 20
-23.5133908827
 30
0.0
 10
-2.277492541
 20
-23.4586403269
 30
0.0
 11
-2.3765277077
 21
-19.1780307231
 31
0.0
 11
-2.0320605428
 21
-19.3907992099
 31
0.0
 11
-1.6973956228
 21
-19.6790421505
 31
0.0
 11
-1.3877349764
 21
-20.0300851203
 31
0.0
 11
-1.1144049354
 21
-20.4307358102
 31
0.0
 11
-0.8879224678
 21
-20.8652791053
 31
0.0
 11
-0.7167358806
 21
-21.3171110578
 31
0.0
 11
-0.6072762968
 21
-21.7689443995
 31
0.0
 11
-0.5636894953
 21
-22.2035014487
 31
0.0
 11
-0.5876853717
 21
-22.6041247423
 31
0.0
 11
-0.6784155753
 21
-22.9553154422
 31
0.0
 11
-0.8324443799
 21
-23.2435058982
 31
0.0
 11
-1.0439335069
 21
-23.4576646949
 31
0.0
 11
-1.3049310178
 21
-23.5896274159
 31
0.0
 11
-1.6055091228
 21
-23.6342911952
 31
0.0
 11
-1.9344514949
 21
-23.5898496708
 31
0.0
 11
-2.277492541
 21
-23.4586403269
 31
0.0
  0
SPLINE
  5
413
100
AcDbEntity
  8
0
100
AcDbSpline
 62
253
  6
CONTINUOUS
 70
0
 71
3
 72
10
 73
6
 74
4
 42
0.0000001
 43
0.0000001
 44
0.0000000001
 12
-0.278935555
 22
-1.2448536236
 32
0.0
 13
-0.5025360474
 23
-1.1724318144
 33
0.0
 40
0.0
 40
0.0
 40
0.0
 40
0.0
 40
0.2863867277
 40
0.6409321378
 40
1.0
 40
1.0
 40
1.0
 40
1.0
 10
-6.8328988935
 20
-19.7722977385
 30
0.0
 10
-6.8595267071
 20
-19.891134257
 30
0.0
 10
-6.9267242848
 20
-20.1554455023
 30
0.0
 10
-7.0562734281
 20
-20.5607094348
 30
0.0
 10
-7.1670919021
 20
-20.8434390175
 30
0.0
 10
-7.2272400835
 20
-20.9837665459
 30
0.0
 11
-6.8328988935
 21
-19.7722977385
 31
0.0
 11
-6.9227397632
 21
-20.1264264949
 31
0.0
 11
-7.0602221437
 21
-20.5572790568
 31
0.0
 11
-7.2272400835
 21
-20.9837665459
 31
0.0
  0
SPLINE
  5
414
100
AcDbEntity
  8
0
100
AcDbSpline
 62
253
  6
CONTINUOUS
 70
0
 71
3
 72
10
 73
6
 74
4
 42
0.0000001
 43
0.0000001
 44
0.0000000001
 12
-0.3008758459
 22
0.9275820084
 32
0.0
 13
-0.6469692731
 23
0.7296337551
 33
0.0
 40
0.0
 40
0.0
 40
0.0
 40
0.0
 40
0.3502525196
 40
0.6827231171
 40
1.0
 40
1.0
 40
1.0
 40
1.0
 10
-6.8579883863
 20
-17.5515454331
 30
0.0
 10
-6.893115894
 20
-17.4432494545
 30
0.0
 10
-6.9737291172
 20
-17.2357648578
 30
0.0
 10
-7.1302492366
 20
-16.9498299195
 30
0.0
 10
-7.2578523035
 20
-16.7803223438
 30
0.0
 10
-7.3262751016
 20
-16.703157036
 30
0.0
 11
-6.8579883863
 21
-17.5515454331
 31
0.0
 11
-6.9827366621
 21
-17.2335902247
 31
0.0
 11
-7.1394099042
 21
-16.9497475352
 31
0.0
 11
-7.3262751016
 21
-16.703157036
 31
0.0
  0
SPLINE
  5
415
100
AcDbEntity
  8
0
100
AcDbSpline
 62
253
  6
CONTINUOUS
 70
0
 71
3
 72
10
 73
6
 74
4
 42
0.0000001
 43
0.0000001
 44
0.0000000001
 12
-0.2797412835
 22
-1.3247326722
 32
0.0
 13
-0.5334042876
 23
-1.2444483535
 33
0.0
 40
0.0
 40
0.0
 40
0.0
 40
0.0
 40
0.3276837071
 40
0.6617114853
 40
1.0
 40
1.0
 40
1.0
 40
1.0
 10
-1.8664891111
 20
-22.1706067732
 30
0.0
 10
-1.8970446647
 20
-22.3153045442
 30
0.0
 10
-1.9690192698
 20
-22.6054259288
 30
0.0
 10
-2.1065259598
 20
-23.035583169
 30
0.0
 10
-2.2173444338
 20
-23.3183127516
 30
0.0
 10
-2.2774926152
 20
-23.45864028
 30
0.0
 11
-1.8664891111
 21
-22.1706067732
 31
0.0
 11
-1.9729922949
 21
-22.6013002291
 31
0.0
 11
-2.1104746754
 21
-23.032152791
 31
0.0
 11
-2.2774926152
 21
-23.45864028
 31
0.0
  0
SPLINE
  5
416
100
AcDbEntity
  8
0
100
AcDbSpline
 62
253
  6
CONTINUOUS
 70
0
 71
3
 72
10
 73
6
 74
4
 42
0.0000001
 43
0.0000001
 44
0.0000000001
 12
-0.3008758459
 22
0.9275820084
 32
0.0
 13
-0.6469692731
 23
0.7296337551
 33
0.0
 40
0.0
 40
0.0
 40
0.0
 40
0.0
 40
0.3502525196
 40
0.6827231171
 40
1.0
 40
1.0
 40
1.0
 40
1.0
 10
-1.908240918
 20
-20.0264191672
 30
0.0
 10
-1.9433684257
 20
-19.9181231887
 30
0.0
 10
-2.0239816489
 20
-19.7106385919
 30
0.0
 10
-2.1805017683
 20
-19.4247036536
 30
0.0
 10
-2.3081048352
 20
-19.255196078
 30
0.0
 10
-2.3765276333
 20
-19.1780307701
 30
0.0
 11
-1.908240918
 21
-20.0264191672
 31
0.0
 11
-2.0329891938
 21
-19.7084639588
 31
0.0
 11
-2.1896624359
 21
-19.4246212694
 31
0.0
 11
-2.3765276333
 21
-19.1780307701
 31
0.0
  0
SPLINE
  5
417
100
AcDbEntity
  8
RACCORDO
100
AcDbSpline
 62
253
  6
CONTINUOUS
 70
0
 71
3
 72
9
 73
5
 74
3
 42
0.0000001
 43
0.0000001
 44
0.0000000001
 12
-0.0001778183
 22
-0.1172427845
 32
0.0
 13
-0.1053162897
 23
-0.0532744426
 33
0.0
 40
0.0
 40
0.0
 40
0.0
 40
0.0
 40
0.4306932236
 40
1.0
 40
1.0
 40
1.0
 40
1.0
 10
10.4340677514
 20
12.3050828189
 30
0.0
 10
10.434042223
 20
12.288250928
 30
0.0
 10
10.4158760013
 20
12.2491053819
 30
0.0
 10
10.3818560477
 20
12.2273200199
 30
0.0
 10
10.3618702886
 20
12.2172101861
 30
0.0
 11
10.4340677514
 21
12.3050828189
 31
0.0
 11
10.4154532716
 21
12.2577517412
 31
0.0
 11
10.3618702886
 21
12.2172101861
 31
0.0
  0
SPLINE
  5
418
100
AcDbEntity
  8
RACCORDO
100
AcDbSpline
 62
253
  6
CONTINUOUS
 70
0
 71
3
 72
9
 73
5
 74
3
 42
0.0000001
 43
0.0000001
 44
0.0000000001
 12
-0.1033656463
 22
0.0502818943
 32
0.0
 13
-0.1018740126
 23
-0.0502111176
 33
0.0
 40
0.0
 40
0.0
 40
0.0
 40
0.0
 40
0.3889228029
 40
1.0
 40
1.0
 40
1.0
 40
1.0
 10
-3.0685225921
 20
19.5582240372
 30
0.0
 10
-3.0819230111
 20
19.5647426289
 30
0.0
 10
-3.1206058245
 20
19.5737597184
 30
0.0
 10
-3.1584706174
 20
19.5620179469
 30
0.0
 10
-3.1792215795
 20
19.5517903239
 30
0.0
 11
-3.0685225921
 21
19.5582240372
 31
0.0
 11
-3.111888533
 21
19.5686165274
 31
0.0
 11
-3.1792215795
 21
19.5517903239
 31
0.0
  0
SPLINE
  5
419
100
AcDbEntity
  8
RACCORDO
100
AcDbSpline
 62
253
  6
CONTINUOUS
 70
0
 71
3
 72
9
 73
5
 74
3
 42
0.0000001
 43
0.0000001
 44
0.0000000001
 12
-0.0002584765
 22
-0.1172281621
 32
0.0
 13
-0.1053070205
 23
-0.0532697537
 33
0.0
 40
0.0
 40
0.0
 40
0.0
 40
0.0
 40
0.4297137825
 40
1.0
 40
1.0
 40
1.0
 40
1.0
 10
-2.930250853
 20
18.9872418268
 30
0.0
 10
-2.9302878766
 20
18.9704503079
 30
0.0
 10
-2.9484006913
 20
18.9312831715
 30
0.0
 10
-2.982429495
 20
18.9094956038
 30
0.0
 10
-3.0024478758
 20
18.8993692684
 30
0.0
 11
-2.930250853
 21
18.9872418268
 31
0.0
 11
-2.9487934788
 21
18.939998197
 31
0.0
 11
-3.0024478758
 21
18.8993692684
 31
0.0
  0
SPLINE
  5
41A
100
AcDbEntity
  8
RACCORDO
100
AcDbSpline
 62
253
  6
CONTINUOUS
 70
0
 71
3
 72
9
 73
5
 74
3
 42
0.0000001
 43
0.0000001
 44
0.0000000001
 12
-0.0004123412
 22
-0.1171974798
 32
0.0
 13
-0.1052879339
 23
-0.0532600988
 33
0.0
 40
0.0
 40
0.0
 40
0.0
 40
0.0
 40
0.4284366955
 40
1.0
 40
1.0
 40
1.0
 40
1.0
 10
-2.9302521569
 20
19.3347734019
 30
0.0
 10
-2.9303110442
 20
19.3180361682
 30
0.0
 10
-2.9483468647
 20
19.2788307905
 30
0.0
 10
-2.9823883027
 20
19.2570479578
 30
0.0
 10
-3.0024478758
 20
19.2469007851
 30
0.0
 11
-2.9302521569
 21
19.3347734019
 31
0.0
 11
-2.9487034181
 21
19.2876401708
 31
0.0
 11
-3.0024478758
 21
19.2469007851
 31
0.0
  0
SPLINE
  5
41B
100
AcDbEntity
  8
ASSI
100
AcDbSpline
 62
7
  6
CONTINUOUS
 70
0
 71
3
 72
9
 73
5
 74
3
 42
0.0000001
 43
0.0000001
 44
0.0000000001
 12
-0.0487497541
 22
0.0277566264
 32
0.0
 13
-0.0504954652
 23
-0.014780657
 33
0.0
 40
0.0
 40
0.0
 40
0.0
 40
0.0
 40
0.1799272314
 40
1.0
 40
1.0
 40
1.0
 40
1.0
 10
-10.6098189665
 20
27.5232038805
 30
0.0
 10
-10.6127427692
 20
27.5248686048
 30
0.0
 10
-10.6316463609
 20
27.5320908048
 30
0.0
 10
-10.6483784768
 20
27.5264773376
 30
0.0
 10
-10.6621817954
 20
27.5224369328
 30
0.0
 11
-10.6098189665
 21
27.5232038805
 31
0.0
 11
-10.6194750121
 21
27.5270520063
 31
0.0
 11
-10.6621817954
 21
27.5224369328
 31
0.0
  0
SPLINE
  5
41C
100
AcDbEntity
  8
ASSI
100
AcDbSpline
 62
7
  6
CONTINUOUS
 70
0
 71
3
 72
8
 73
4
 74
2
 42
0.0000001
 43
0.0000001
 44
0.0000000001
 12
-0.0655135972
 22
-0.0191766529
 32
0.0
 13
-0.0646933822
 23
-0.0208120812
 33
0.0
 40
0.0
 40
0.0
 40
0.0
 40
0.0
 40
1.0
 40
1.0
 40
1.0
 40
1.0
 10
-10.6621817954
 20
27.5224369328
 30
0.0
 10
-10.6840196612
 20
27.5160447152
 30
0.0
 10
-10.7060621838
 20
27.5110617796
 30
0.0
 10
-10.7276266445
 20
27.5041244192
 30
0.0
 11
-10.6621817954
 21
27.5224369328
 31
0.0
 11
-10.7276266445
 21
27.5041244192
 31
0.0
  0
SPLINE
  5
41D
100
AcDbEntity
  8
ASSI
100
AcDbSpline
 62
7
  6
CONTINUOUS
 70
0
 71
3
 72
9
 73
5
 74
3
 42
0.0000001
 43
0.0000001
 44
0.0000000001
 12
0.0473825667
 22
0.0233536656
 32
0.0
 13
0.0502870674
 23
0.0161775207
 33
0.0
 40
0.0
 40
0.0
 40
0.0
 40
0.0
 40
0.5077133959
 40
1.0
 40
1.0
 40
1.0
 40
1.0
 10
-10.7765026761
 20
27.4841958521
 30
0.0
 10
-10.7684837548
 20
27.4881481751
 30
0.0
 10
-10.7524199154
 20
27.4953970754
 30
0.0
 10
-10.7358785278
 20
27.5014902939
 30
0.0
 10
-10.7276266445
 20
27.5041449528
 30
0.0
 11
-10.7765026761
 21
27.4841958521
 31
0.0
 11
-10.7520490029
 21
27.4952109992
 31
0.0
 11
-10.7276266445
 21
27.5041449528
 31
0.0
  0
SPLINE
  5
41E
100
AcDbEntity
  8
RACCORDO
100
AcDbSpline
 62
253
  6
CONTINUOUS
 70
0
 71
3
 72
9
 73
5
 74
3
 42
0.0000001
 43
0.0000001
 44
0.0000000001
 12
-0.1033656463
 22
0.0502818943
 32
0.0
 13
-0.1018740126
 23
-0.0502111176
 33
0.0
 40
0.0
 40
0.0
 40
0.0
 40
0.0
 40
0.3889228029
 40
1.0
 40
1.0
 40
1.0
 40
1.0
 10
-18.9784251688
 20
27.5131753255
 30
0.0
 10
-18.9918255878
 20
27.5196939173
 30
0.0
 10
-19.0305084012
 20
27.5287110068
 30
0.0
 10
-19.0683731941
 20
27.5169692353
 30
0.0
 10
-19.0891241562
 20
27.5067416123
 30
0.0
 11
-18.9784251688
 21
27.5131753255
 31
0.0
 11
-19.0217911097
 21
27.5235678158
 31
0.0
 11
-19.0891241562
 21
27.5067416123
 31
0.0
  0
SPLINE
  5
41F
100
AcDbEntity
  8
RACCORDO
100
AcDbSpline
 62
253
  6
CONTINUOUS
 70
0
 71
3
 72
9
 73
5
 74
3
 42
0.0000001
 43
0.0000001
 44
0.0000000001
 12
-0.1010013689
 22
0.0418404961
 32
0.0
 13
-0.0966275049
 23
-0.047625247
 33
0.0
 40
0.0
 40
0.0
 40
0.0
 40
0.0
 40
0.3557436246
 40
1.0
 40
1.0
 40
1.0
 40
1.0
 10
-4.4112544645
 20
20.2293179146
 30
0.0
 10
-4.4232313288
 20
20.2342794111
 30
0.0
 10
-4.4598820204
 20
20.2418180979
 30
0.0
 10
-4.495796778
 20
20.2306810272
 30
0.0
 10
-4.51654774
 20
20.2204534042
 30
0.0
 11
-4.4112544645
 21
20.2293179146
 31
0.0
 11
-4.4492146935
 21
20.2372796077
 31
0.0
 11
-4.51654774
 21
20.2204534042
 31
0.0
  0
SPLINE
  5
420
100
AcDbEntity
  8
ASSI
100
AcDbSpline
 62
7
  6
CONTINUOUS
 70
0
 71
3
 72
9
 73
5
 74
3
 42
0.0000001
 43
0.0000001
 44
0.0000000001
 12
-0.0476893308
 22
0.0277914577
 32
0.0
 13
-0.0497291217
 23
-0.0144757978
 33
0.0
 40
0.0
 40
0.0
 40
0.0
 40
0.0
 40
0.1758647164
 40
1.0
 40
1.0
 40
1.0
 40
1.0
 10
-5.0548528403
 20
24.7457002274
 30
0.0
 10
-5.0576484639
 20
24.7473294064
 30
0.0
 10
-5.0759837107
 20
24.7546692509
 30
0.0
 10
-5.0925223123
 20
24.7491367504
 30
0.0
 10
-5.1061834869
 20
24.7451600785
 30
0.0
 11
-5.0548528403
 21
24.7457002274
 31
0.0
 11
-5.0640419425
 21
24.7495129247
 31
0.0
 11
-5.1061834869
 21
24.7451600785
 31
0.0
  0
SPLINE
  5
421
100
AcDbEntity
  8
ASSI
100
AcDbSpline
 62
7
  6
CONTINUOUS
 70
0
 71
3
 72
8
 73
4
 74
2
 42
0.0000001
 43
0.0000001
 44
0.0000000001
 12
-0.0649567755
 22
-0.0189084608
 32
0.0
 13
-0.0639497066
 23
-0.0204750299
 33
0.0
 40
0.0
 40
0.0
 40
0.0
 40
0.0
 40
1.0
 40
1.0
 40
1.0
 40
1.0
 10
-5.1061834869
 20
24.7451600785
 30
0.0
 10
-5.1278357454
 20
24.7388572583
 30
0.0
 10
-5.1495662031
 20
24.7340186106
 30
0.0
 10
-5.170882772
 20
24.7271936006
 30
0.0
 11
-5.1061834869
 21
24.7451600785
 31
0.0
 11
-5.170882772
 21
24.7271936006
 31
0.0
  0
SPLINE
  5
422
100
AcDbEntity
  8
RACCORDO
100
AcDbSpline
 62
253
  6
CONTINUOUS
 70
0
 71
3
 72
9
 73
5
 74
3
 42
0.0000001
 43
0.0000001
 44
0.0000000001
 12
-0.0002584765
 22
-0.1172281621
 32
0.0
 13
-0.1053070205
 23
-0.0532697537
 33
0.0
 40
0.0
 40
0.0
 40
0.0
 40
0.0
 40
0.4297137825
 40
1.0
 40
1.0
 40
1.0
 40
1.0
 10
-18.8401534297
 20
26.9421931152
 30
0.0
 10
-18.8401904533
 20
26.9254015962
 30
0.0
 10
-18.858303268
 20
26.8862344598
 30
0.0
 10
-18.8923320717
 20
26.8644468922
 30
0.0
 10
-18.9123504525
 20
26.8543205567
 30
0.0
 11
-18.8401534297
 21
26.9421931152
 31
0.0
 11
-18.8586960555
 21
26.8949494853
 31
0.0
 11
-18.9123504525
 21
26.8543205567
 31
0.0
  0
SPLINE
  5
423
100
AcDbEntity
  8
RACCORDO
100
AcDbSpline
 62
253
  6
CONTINUOUS
 70
0
 71
3
 72
9
 73
5
 74
3
 42
0.0000001
 43
0.0000001
 44
0.0000000001
 12
-0.0004123412
 22
-0.1171974798
 32
0.0
 13
-0.1052879339
 23
-0.0532600988
 33
0.0
 40
0.0
 40
0.0
 40
0.0
 40
0.0
 40
0.4284366955
 40
1.0
 40
1.0
 40
1.0
 40
1.0
 10
-18.8401547336
 20
27.2897246902
 30
0.0
 10
-18.8402136209
 20
27.2729874566
 30
0.0
 10
-18.8582494414
 20
27.2337820789
 30
0.0
 10
-18.8922908794
 20
27.2119992461
 30
0.0
 10
-18.9123504525
 20
27.2018520734
 30
0.0
 11
-18.8401547336
 21
27.2897246902
 31
0.0
 11
-18.8586059947
 21
27.2425914592
 31
0.0
 11
-18.9123504525
 21
27.2018520734
 31
0.0
  0
SPLINE
  5
424
100
AcDbEntity
  8
RACCORDO
100
AcDbSpline
 62
253
  6
CONTINUOUS
 70
0
 71
3
 72
9
 73
5
 74
3
 42
0.0000001
 43
0.0000001
 44
0.0000000001
 12
-0.1010013689
 22
0.0418404961
 32
0.0
 13
-0.0966275049
 23
-0.047625247
 33
0.0
 40
0.0
 40
0.0
 40
0.0
 40
0.0
 40
0.3557436246
 40
1.0
 40
1.0
 40
1.0
 40
1.0
 10
-20.3211570412
 20
28.1842692029
 30
0.0
 10
-20.3331339055
 20
28.1892306995
 30
0.0
 10
-20.3697845971
 20
28.1967693863
 30
0.0
 10
-20.4056993547
 20
28.1856323155
 30
0.0
 10
-20.4264503167
 20
28.1754046925
 30
0.0
 11
-20.3211570412
 21
28.1842692029
 31
0.0
 11
-20.3591172702
 21
28.192230896
 31
0.0
 11
-20.4264503167
 21
28.1754046925
 31
0.0
  0
SPLINE
  5
425
100
AcDbEntity
  8
RACCORDO
100
AcDbSpline
 62
253
  6
CONTINUOUS
 70
0
 71
3
 72
8
 73
4
 74
2
 42
0.0000001
 43
0.0000001
 44
0.0000000001
 12
-0.0222040997
 22
0.0111524103
 32
0.0
 13
-0.0239481237
 23
0.0049598188
 33
0.0
 40
0.0
 40
0.0
 40
0.0
 40
0.0
 40
1.0
 40
1.0
 40
1.0
 40
1.0
 10
10.2956759575
 20
-28.7709771952
 30
0.0
 10
10.2882745909
 20
-28.7672597251
 30
0.0
 10
10.2804392012
 20
-28.7644804202
 30
0.0
 10
10.2724564933
 20
-28.7628271472
 30
0.0
 11
10.2956759575
 21
-28.7709771952
 31
0.0
 11
10.2724564933
 21
-28.7628271472
 31
0.0
  0
SPLINE
  5
426
100
AcDbEntity
  8
RACCORDO
100
AcDbSpline
 62
7
  6
CONTINUOUS
 70
0
 71
3
 72
10
 73
6
 74
4
 42
0.0000001
 43
0.0000001
 44
0.0000000001
 12
-0.4110139266
 22
0.2048779406
 32
0.0
 13
-0.4092503236
 23
-0.200251018
 33
0.0
 40
0.0
 40
0.0
 40
0.0
 40
0.0
 40
0.2087063472
 40
0.5799639002
 40
1.0
 40
1.0
 40
1.0
 40
1.0
 10
7.6998787939
 20
19.0208565038
 30
0.0
 10
7.6712850555
 20
19.0351096126
 30
0.0
 10
7.5868396102
 20
19.0648910231
 30
0.0
 10
7.4313118429
 20
19.0642331339
 30
0.0
 10
7.3161339279
 20
19.0237276026
 30
0.0
 10
7.258833958
 20
18.9956900504
 30
0.0
 11
7.6998787939
 21
19.0208565038
 31
0.0
 11
7.6097625452
 21
19.0526378444
 31
0.0
 11
7.4406351195
 21
19.0554634193
 31
0.0
 11
7.258833958
 21
18.9956900504
 31
0.0
  0
SPLINE
  5
427
100
AcDbEntity
  8
RACCORDO
100
AcDbSpline
 62
7
  6
CONTINUOUS
 70
0
 71
3
 72
10
 73
6
 74
4
 42
0.0000001
 43
0.0000001
 44
0.0000000001
 12
-0.4110139266
 22
0.2048779406
 32
0.0
 13
-0.4092503236
 23
-0.200251018
 33
0.0
 40
0.0
 40
0.0
 40
0.0
 40
0.0
 40
0.2087063472
 40
0.5799639002
 40
1.0
 40
1.0
 40
1.0
 40
1.0
 10
-8.2100237828
 20
26.9758077921
 30
0.0
 10
-8.2386175212
 20
26.990060901
 30
0.0
 10
-8.3230629665
 20
27.0198423114
 30
0.0
 10
-8.4785907338
 20
27.0191844223
 30
0.0
 10
-8.5937686488
 20
26.9786788909
 30
0.0
 10
-8.6510686187
 20
26.9506413387
 30
0.0
 11
-8.2100237828
 21
26.9758077921
 31
0.0
 11
-8.3001400315
 21
27.0075891327
 31
0.0
 11
-8.4692674572
 21
27.0104147077
 31
0.0
 11
-8.6510686187
 21
26.9506413387
 31
0.0
  0
SPLINE
  5
428
100
AcDbEntity
  8
RACCORDO
100
AcDbSpline
 62
253
  6
CONTINUOUS
 70
0
 71
3
 72
9
 73
5
 74
3
 42
0.0000001
 43
0.0000001
 44
0.0000000001
 12
-0.0001778183
 22
-0.1172427845
 32
0.0
 13
-0.1053162897
 23
-0.0532744426
 33
0.0
 40
0.0
 40
0.0
 40
0.0
 40
0.0
 40
0.4306932236
 40
1.0
 40
1.0
 40
1.0
 40
1.0
 10
10.4340677514
 20
-28.9945213205
 30
0.0
 10
10.434042223
 20
-29.0113532114
 30
0.0
 10
10.4158760013
 20
-29.0504987575
 30
0.0
 10
10.3818560477
 20
-29.0722841195
 30
0.0
 10
10.3618702886
 20
-29.0823939532
 30
0.0
 11
10.4340677514
 21
-28.9945213205
 31
0.0
 11
10.4154532716
 21
-29.0418523982
 31
0.0
 11
10.3618702886
 21
-29.0823939532
 31
0.0
  0
SPLINE
  5
429
100
AcDbEntity
  8
RACCORDO
100
AcDbSpline
 62
253
  6
CONTINUOUS
 70
0
 71
3
 72
9
 73
5
 74
3
 42
0.0000001
 43
0.0000001
 44
0.0000000001
 12
-0.0006991542
 22
-0.1170649676
 32
0.0
 13
-0.1051670206
 23
-0.0531989345
 33
0.0
 40
0.0
 40
0.0
 40
0.0
 40
0.0
 40
0.4277795542
 40
1.0
 40
1.0
 40
1.0
 40
1.0
 10
10.4340653688
 20
-29.3421874447
 30
0.0
 10
10.4339656742
 20
-29.3588801113
 30
0.0
 10
10.4159322063
 20
-29.3980204801
 30
0.0
 10
10.3819298618
 20
-29.4197782973
 30
0.0
 10
10.3618702886
 20
-29.42992547
 30
0.0
 11
10.4340653688
 21
-29.3421874447
 31
0.0
 11
10.4156147464
 21
-29.3891860842
 31
0.0
 11
10.3618702886
 21
-29.42992547
 31
0.0
  0
SPLINE
  5
42A
100
AcDbEntity
  8
RACCORDO
100
AcDbSpline
 62
7
  6
CONTINUOUS
 70
0
 71
3
 72
10
 73
6
 74
4
 42
0.0000001
 43
0.0000001
 44
0.0000000001
 12
0.1410723012
 22
0.0703050025
 32
0.0
 13
0.0007426527
 23
0.1558250454
 33
0.0
 40
0.0
 40
0.0
 40
0.0
 40
0.0
 40
0.0920861958
 40
0.5025729548
 40
1.0
 40
1.0
 40
1.0
 40
1.0
 10
9.7690039425
 20
-29.83577404
 30
0.0
 10
9.773334213
 20
-29.833616
 30
0.0
 10
9.7959946711
 20
-29.8200990734
 30
0.0
 10
9.8269146593
 20
-29.7745847064
 30
0.0
 10
9.8334799784
 20
-29.7267737259
 30
0.0
 10
9.8336031169
 20
-29.7009365286
 30
0.0
 11
9.7690039425
 21
-29.83577404
 31
0.0
 11
9.7813992716
 21
-29.8283484451
 31
0.0
 11
9.8198300761
 21
-29.7772155342
 31
0.0
 11
9.8336031169
 21
-29.7009365286
 31
0.0
  0
SPLINE
  5
42B
100
AcDbEntity
  8
RACCORDO
100
AcDbSpline
 62
253
  6
CONTINUOUS
 70
0
 71
3
 72
10
 73
6
 74
4
 42
0.0000001
 43
0.0000001
 44
0.0000000001
 12
0.1404036865
 22
0.0699631391
 32
0.0
 13
-0.0007347502
 23
0.1552152443
 33
0.0
 40
0.0
 40
0.0
 40
0.0
 40
0.0
 40
0.0890070714
 40
0.5013944615
 40
1.0
 40
1.0
 40
1.0
 40
1.0
 10
10.2980949982
 20
-29.5643698753
 30
0.0
 10
10.3022606385
 20
-29.5622941373
 30
0.0
 10
10.3247918767
 20
-29.5489335335
 30
0.0
 10
10.3558106209
 20
-29.503624992
 30
0.0
 10
10.3619924055
 20
-29.4557225301
 30
0.0
 10
10.3618702886
 20
-29.42992547
 30
0.0
 11
10.2980949982
 21
-29.5643698753
 31
0.0
 11
10.3100401697
 21
-29.5572557513
 31
0.0
 11
10.3486124511
 21
-29.5061734783
 31
0.0
 11
10.3618702886
 21
-29.42992547
 31
0.0
  0
SPLINE
  5
42C
100
AcDbEntity
  8
RACCORDO
100
AcDbSpline
 62
253
  6
CONTINUOUS
 70
0
 71
3
 72
10
 73
6
 74
4
 42
0.0000001
 43
0.0000001
 44
0.0000000001
 12
0.1444085502
 22
0.0683897243
 32
0.0
 13
0.0007518771
 23
0.1577433554
 33
0.0
 40
0.0
 40
0.0
 40
0.0
 40
0.0
 40
0.1067722402
 40
0.5152566224
 40
1.0
 40
1.0
 40
1.0
 40
1.0
 10
8.1659747216
 20
-30.6166444765
 30
0.0
 10
8.1711143298
 20
-30.6142104352
 30
0.0
 10
8.1947899803
 20
-30.600348646
 30
0.0
 10
8.2257437578
 20
-30.5540163802
 30
0.0
 10
8.2322008369
 20
-30.5064594773
 30
0.0
 10
8.2323223261
 20
-30.4809711283
 30
0.0
 11
8.1659747216
 21
-30.6166444765
 31
0.0
 11
8.1805947543
 21
-30.6080356251
 31
0.0
 11
8.2189513312
 21
-30.5562589277
 31
0.0
 11
8.2323223261
 21
-30.4809711283
 31
0.0
  0
SPLINE
  5
42D
100
AcDbEntity
  8
ASSI
100
AcDbSpline
 62
7
  6
CONTINUOUS
 70
0
 71
3
 72
9
 73
5
 74
3
 42
0.0000001
 43
0.0000001
 44
0.0000000001
 12
-0.0487497541
 22
0.0277566264
 32
0.0
 13
-0.0504954652
 23
-0.014780657
 33
0.0
 40
0.0
 40
0.0
 40
0.0
 40
0.0
 40
0.1799272314
 40
1.0
 40
1.0
 40
1.0
 40
1.0
 10
5.3000836102
 20
19.5682525922
 30
0.0
 10
5.2971598075
 20
19.5699173165
 30
0.0
 10
5.2782562158
 20
19.5771395165
 30
0.0
 10
5.2615240999
 20
19.5715260492
 30
0.0
 10
5.2477207813
 20
19.5674856444
 30
0.0
 11
5.3000836102
 21
19.5682525922
 31
0.0
 11
5.2904275646
 21
19.572100718
 31
0.0
 11
5.2477207813
 21
19.5674856444
 31
0.0
  0
SPLINE
  5
42E
100
AcDbEntity
  8
ASSI
100
AcDbSpline
 62
7
  6
CONTINUOUS
 70
0
 71
3
 72
8
 73
4
 74
2
 42
0.0000001
 43
0.0000001
 44
0.0000000001
 12
-0.0655135972
 22
-0.0191766529
 32
0.0
 13
-0.0646933822
 23
-0.0208120812
 33
0.0
 40
0.0
 40
0.0
 40
0.0
 40
0.0
 40
1.0
 40
1.0
 40
1.0
 40
1.0
 10
5.2477207813
 20
19.5674856444
 30
0.0
 10
5.2258829155
 20
19.5610934268
 30
0.0
 10
5.2038403929
 20
19.5561104913
 30
0.0
 10
5.1822759322
 20
19.5491731309
 30
0.0
 11
5.2477207813
 21
19.5674856444
 31
0.0
 11
5.1822759322
 21
19.5491731309
 31
0.0
  0
SPLINE
  5
42F
100
AcDbEntity
  8
ASSI
100
AcDbSpline
 62
7
  6
CONTINUOUS
 70
0
 71
3
 72
9
 73
5
 74
3
 42
0.0000001
 43
0.0000001
 44
0.0000000001
 12
-0.0476893308
 22
0.0277914577
 32
0.0
 13
-0.0497291217
 23
-0.0144757978
 33
0.0
 40
0.0
 40
0.0
 40
0.0
 40
0.0
 40
0.1758647164
 40
1.0
 40
1.0
 40
1.0
 40
1.0
 10
10.8550497363
 20
16.7907489391
 30
0.0
 10
10.8522541128
 20
16.792378118
 30
0.0
 10
10.833918866
 20
16.7997179625
 30
0.0
 10
10.8173802644
 20
16.7941854621
 30
0.0
 10
10.8037190898
 20
16.7902087902
 30
0.0
 11
10.8550497363
 21
16.7907489391
 31
0.0
 11
10.8458606342
 21
16.7945616364
 31
0.0
 11
10.8037190898
 21
16.7902087902
 31
0.0
  0
SPLINE
  5
430
100
AcDbEntity
  8
ASSI
100
AcDbSpline
 62
7
  6
CONTINUOUS
 70
0
 71
3
 72
8
 73
4
 74
2
 42
0.0000001
 43
0.0000001
 44
0.0000000001
 12
-0.0649567755
 22
-0.0189084608
 32
0.0
 13
-0.0639497066
 23
-0.0204750299
 33
0.0
 40
0.0
 40
0.0
 40
0.0
 40
0.0
 40
1.0
 40
1.0
 40
1.0
 40
1.0
 10
10.8037190898
 20
16.7902087902
 30
0.0
 10
10.7820668313
 20
16.7839059699
 30
0.0
 10
10.7603363736
 20
16.7790673222
 30
0.0
 10
10.7390198047
 20
16.7722423123
 30
0.0
 11
10.8037190898
 21
16.7902087902
 31
0.0
 11
10.7390198047
 21
16.7722423123
 31
0.0
  0
SPLINE
  5
431
100
AcDbEntity
  8
ASSI
100
AcDbSpline
 62
7
  6
CONTINUOUS
 70
0
 71
3
 72
9
 73
5
 74
3
 42
0.0000001
 43
0.0000001
 44
0.0000000001
 12
0.0473825667
 22
0.0233536656
 32
0.0
 13
0.0502870674
 23
0.0161775207
 33
0.0
 40
0.0
 40
0.0
 40
0.0
 40
0.0
 40
0.5077133959
 40
1.0
 40
1.0
 40
1.0
 40
1.0
 10
5.1333999006
 20
19.5292445638
 30
0.0
 10
5.1414188219
 20
19.5331968867
 30
0.0
 10
5.1574826613
 20
19.540445787
 30
0.0
 10
5.1740240489
 20
19.5465390056
 30
0.0
 10
5.1822759322
 20
19.5491936645
 30
0.0
 11
5.1333999006
 21
19.5292445638
 31
0.0
 11
5.1578535738
 21
19.5402597109
 31
0.0
 11
5.1822759322
 21
19.5491936645
 31
0.0
  0
SPLINE
  5
432
100
AcDbEntity
  8
RACCORDO
100
AcDbSpline
 62
253
  6
CONTINUOUS
 70
0
 71
3
 72
10
 73
6
 74
4
 42
0.0000001
 43
0.0000001
 44
0.0000000001
 12
-0.0060797696
 22
-0.2427388456
 32
0.0
 13
0.21332739
 23
-0.1064697904
 33
0.0
 40
0.0
 40
0.0
 40
0.0
 40
0.0
 40
0.1781885627
 40
0.5386288551
 40
1.0
 40
1.0
 40
1.0
 40
1.0
 10
-27.5837905374
 20
21.5000502368
 30
0.0
 10
-27.5841516526
 20
21.4856324748
 30
0.0
 10
-27.5777716239
 20
21.4416648392
 30
0.0
 10
-27.5264045182
 20
21.3765231245
 30
0.0
 10
-27.470613229
 20
21.341484811
 30
0.0
 10
-27.4378055282
 20
21.3251107813
 30
0.0
 11
-27.5837905374
 21
21.5000502368
 31
0.0
 11
-27.5776006279
 21
21.4575137159
 31
0.0
 11
-27.5289772857
 21
21.3866558649
 31
0.0
 11
-27.4378055282
 21
21.3251107813
 31
0.0
  0
SPLINE
  5
433
100
AcDbEntity
  8
RACCORDO
100
AcDbSpline
 62
253
  6
CONTINUOUS
 70
0
 71
3
 72
9
 73
5
 74
3
 42
0.0000001
 43
0.0000001
 44
0.0000000001
 12
-0.1033414895
 22
0.0501908998
 32
0.0
 13
-0.1018549951
 23
-0.0502017443
 33
0.0
 40
0.0
 40
0.0
 40
0.0
 40
0.0
 40
0.3970532077
 40
1.0
 40
1.0
 40
1.0
 40
1.0
 10
-6.9514567102
 20
21.4996979732
 30
0.0
 10
-6.9651340668
 20
21.5063407924
 30
0.0
 10
-7.0039143351
 20
21.5151415961
 30
0.0
 10
-7.0416611048
 20
21.5033352706
 30
0.0
 10
-7.0621321523
 20
21.4932456103
 30
0.0
 11
-6.9514567102
 21
21.4996979732
 31
0.0
 11
-6.9957667943
 21
21.5100808274
 31
0.0
 11
-7.0621321523
 21
21.4932456103
 31
0.0
  0
SPLINE
  5
434
100
AcDbEntity
  8
RACCORDO
100
AcDbSpline
 62
253
  6
CONTINUOUS
 70
0
 71
3
 72
10
 73
6
 74
4
 42
0.0000001
 43
0.0000001
 44
0.0000000001
 12
0.2100239394
 22
0.1237121433
 32
0.0
 13
0.2173071743
 23
-0.1046969452
 33
0.0
 40
0.0
 40
0.0
 40
0.0
 40
0.0
 40
0.1159062985
 40
0.5234140575
 40
1.0
 40
1.0
 40
1.0
 40
1.0
 10
-26.6783283335
 20
23.0856377672
 30
0.0
 10
-26.6702139677
 20
23.0904174394
 30
0.0
 10
-26.631985403
 20
23.1091376963
 30
0.0
 10
-26.5486512521
 20
23.1165101508
 30
0.0
 10
-26.4797780324
 20
23.0935398105
 30
0.0
 10
-26.4452561842
 20
23.0769074464
 30
0.0
 11
-26.6783283335
 21
23.0856377672
 31
0.0
 11
-26.6530187889
 21
23.0979796153
 31
0.0
 11
-26.5554280475
 21
23.1097358238
 31
0.0
 11
-26.4452561842
 21
23.0769074464
 31
0.0
  0
SPLINE
  5
435
100
AcDbEntity
  8
0
100
AcDbSpline
 62
7
  6
CONTINUOUS
 70
0
 71
3
 72
13
 73
9
 74
7
 42
0.0000001
 43
0.0000001
 44
0.0000000001
 12
-1.3014002469
 22
0.6507001234
 32
0.0
 13
-1.3014002469
 23
-0.6507001234
 33
0.0
 40
0.0
 40
0.0
 40
0.0
 40
0.0
 40
0.1524570658
 40
0.32173371
 40
0.5
 40
0.67826629
 40
0.8475429342
 40
1.0
 40
1.0
 40
1.0
 40
1.0
 10
5.5556070907
 20
17.2523905987
 30
0.0
 10
5.489471203
 20
17.2854585426
 30
0.0
 10
5.3421781715
 20
17.3400206541
 30
0.0
 10
5.1037355134
 20
17.3880060403
 30
0.0
 10
4.8485003095
 20
17.4043928732
 30
0.0
 10
4.5932651056
 20
17.3880060403
 30
0.0
 10
4.3548224475
 20
17.3400206541
 30
0.0
 10
4.207529416
 20
17.2854585426
 30
0.0
 10
4.1413935283
 20
17.2523905987
 30
0.0
 11
5.5556070907
 21
17.2523905987
 31
0.0
 11
5.3485003095
 21
17.33184991
 31
0.0
 11
5.1073193546
 21
17.3818001213
 31
0.0
 11
4.8485003095
 21
17.3988372082
 31
0.0
 11
4.5896812644
 21
17.3818001213
 31
0.0
 11
4.3485003095
 21
17.33184991
 31
0.0
 11
4.1413935283
 21
17.2523905987
 31
0.0
  0
SPLINE
  5
436
100
AcDbEntity
  8
ASSI
100
AcDbSpline
 62
7
  6
CONTINUOUS
 70
0
 71
3
 72
9
 73
5
 74
3
 42
0.0000001
 43
0.0000001
 44
0.0000000001
 12
0.0487319585
 22
0.024301888
 32
0.0
 13
0.0518619745
 23
0.016604853
 33
0.0
 40
0.0
 40
0.0
 40
0.0
 40
0.0
 40
0.5079043109
 40
1.0
 40
1.0
 40
1.0
 40
1.0
 10
10.6886778036
 20
16.7516056123
 30
0.0
 10
10.6969281942
 20
16.7557199568
 30
0.0
 10
10.7134633401
 20
16.7632491895
 30
0.0
 10
10.7305127867
 20
16.7695422206
 30
0.0
 10
10.7390198047
 20
16.7722659461
 30
0.0
 11
10.6886778036
 21
16.7516056123
 31
0.0
 11
10.7138574105
 21
16.7630493173
 31
0.0
 11
10.7390198047
 21
16.7722659461
 31
0.0
  0
SPLINE
  5
437
100
AcDbEntity
  8
RACCORDO
100
AcDbSpline
 62
253
  6
CONTINUOUS
 70
0
 71
3
 72
10
 73
6
 74
4
 42
0.0000001
 43
0.0000001
 44
0.0000000001
 12
0.0078097198
 22
-0.2433575178
 32
0.0
 13
0.2142828912
 23
-0.1073233496
 33
0.0
 40
0.0
 40
0.0
 40
0.0
 40
0.0
 40
0.1601246164
 40
0.5365310872
 40
1.0
 40
1.0
 40
1.0
 40
1.0
 10
-27.5839087399
 20
-14.1124898033
 30
0.0
 10
-27.5834918971
 20
-14.1254789797
 30
0.0
 10
-27.5764747541
 20
-14.1687827814
 30
0.0
 10
-27.5281121263
 20
-14.2366310306
 30
0.0
 10
-27.4709266767
 20
-14.2735562297
 30
0.0
 10
-27.4378221905
 20
-14.290136575
 30
0.0
 11
-27.5839087399
 21
-14.1124898033
 31
0.0
 11
-27.5776172885
 21
-14.1507118462
 31
0.0
 11
-27.5289951424
 21
-14.2266950542
 31
0.0
 11
-27.4378221905
 21
-14.290136575
 31
0.0
  0
SPLINE
  5
438
100
AcDbEntity
  8
ASSI
100
AcDbSpline
 62
7
  6
CONTINUOUS
 70
0
 71
3
 72
9
 73
5
 74
3
 42
0.0000001
 43
0.0000001
 44
0.0000000001
 12
0.0487319585
 22
0.024301888
 32
0.0
 13
0.0518619745
 23
0.016604853
 33
0.0
 40
0.0
 40
0.0
 40
0.0
 40
0.0
 40
0.5079043109
 40
1.0
 40
1.0
 40
1.0
 40
1.0
 10
-5.2212247731
 20
24.7065569006
 30
0.0
 10
-5.2129743825
 20
24.7106712452
 30
0.0
 10
-5.1964392366
 20
24.7182004779
 30
0.0
 10
-5.17938979
 20
24.7244935089
 30
0.0
 10
-5.170882772
 20
24.7272172345
 30
0.0
 11
-5.2212247731
 21
24.7065569006
 31
0.0
 11
-5.1960451662
 21
24.7180006057
 31
0.0
 11
-5.170882772
 21
24.7272172345
 31
0.0
  0
SPLINE
  5
439
100
AcDbEntity
  8
RACCORDO
100
AcDbSpline
 62
253
  6
CONTINUOUS
 70
0
 71
3
 72
11
 73
7
 74
5
 42
0.0000001
 43
0.0000001
 44
0.0000000001
 12
-0.7972121785
 22
0.3984798281
 32
0.0
 13
-0.0300412628
 23
0.8870667136
 33
0.0
 40
0.0
 40
0.0
 40
0.0
 40
0.0
 40
0.2185145107
 40
0.4520396559
 40
0.7112830332
 40
1.0
 40
1.0
 40
1.0
 40
1.0
 10
-27.0534059618
 20
-15.0462098625
 30
0.0
 10
-27.1114734382
 20
-15.0171853209
 30
0.0
 10
-27.2205724639
 20
-14.935158657
 30
0.0
 10
-27.3405656724
 20
-14.758461553
 30
0.0
 10
-27.4159868671
 20
-14.5376727557
 30
0.0
 10
-27.4349310535
 20
-14.3755069808
 30
0.0
 10
-27.4378221942
 20
-14.2901365771
 30
0.0
 11
-27.0534059618
 21
-15.0462098625
 31
0.0
 11
-27.2092758486
 21
-14.9308094086
 31
0.0
 11
-27.3282378919
 21
-14.7610762127
 31
0.0
 11
-27.4055457155
 21
-14.5443538258
 31
0.0
 11
-27.4378221942
 21
-14.2901365771
 31
0.0
  0
SPLINE
  5
43A
100
AcDbEntity
  8
RACCORDO
100
AcDbSpline
 62
253
  6
CONTINUOUS
 70
0
 71
3
 72
9
 73
5
 74
3
 42
0.0000001
 43
0.0000001
 44
0.0000000001
 12
-0.1033414895
 22
0.0501908998
 32
0.0
 13
-0.1018549951
 23
-0.0502017443
 33
0.0
 40
0.0
 40
0.0
 40
0.0
 40
0.0
 40
0.3970532077
 40
1.0
 40
1.0
 40
1.0
 40
1.0
 10
8.9584458665
 20
13.5447466848
 30
0.0
 10
8.9447685099
 20
13.5513895041
 30
0.0
 10
8.9059882416
 20
13.5601903078
 30
0.0
 10
8.8682414719
 20
13.5483839822
 30
0.0
 10
8.8477704244
 20
13.538294322
 30
0.0
 11
8.9584458665
 21
13.5447466848
 31
0.0
 11
8.9141357824
 21
13.5551295391
 31
0.0
 11
8.8477704244
 21
13.538294322
 31
0.0
  0
SPLINE
  5
43B
100
AcDbEntity
  8
RACCORDO
100
AcDbSpline
 62
7
  6
CONTINUOUS
 70
0
 71
3
 72
8
 73
4
 74
2
 42
0.0000001
 43
0.0000001
 44
0.0000000001
 12
0.0015532391
 22
-0.0304928421
 32
0.0
 13
0.0046192167
 23
-0.030189134
 33
0.0
 40
0.0
 40
0.0
 40
0.0
 40
0.0
 40
1.0
 40
1.0
 40
1.0
 40
1.0
 10
-1.3062985387
 20
16.8568348417
 30
0.0
 10
-1.3057807923
 20
16.846670561
 30
0.0
 10
-1.304599009
 20
16.836487011
 30
0.0
 10
-1.3030592701
 20
16.8264239663
 30
0.0
 11
-1.3062985387
 21
16.8568348417
 31
0.0
 11
-1.3030592701
 21
16.8264239663
 31
0.0
  0
SPLINE
  5
43C
100
AcDbEntity
  8
RACCORDO
100
AcDbSpline
 62
7
  6
CONTINUOUS
 70
0
 71
3
 72
10
 73
6
 74
4
 42
0.0000001
 43
0.0000001
 44
0.0000000001
 12
0.0517490772
 22
-0.3382088229
 32
0.0
 13
0.2084338308
 23
-0.2656690665
 33
0.0
 40
0.0
 40
0.0
 40
0.0
 40
0.0
 40
0.3047324504
 40
0.6441132884
 40
1.0
 40
1.0
 40
1.0
 40
1.0
 10
-1.3030592701
 20
16.8264239663
 30
0.0
 10
-1.2978027291
 20
16.7920695652
 30
0.0
 10
-1.2778737993
 20
16.7224232611
 30
0.0
 10
-1.2285907807
 20
16.620493438
 30
0.0
 10
-1.1845707107
 20
16.5554820888
 30
0.0
 10
-1.1598444338
 20
16.5239660586
 30
0.0
 11
-1.3030592701
 21
16.8264239663
 31
0.0
 11
-1.2763013238
 21
16.7270632088
 31
0.0
 11
-1.2270798644
 21
16.623571466
 31
0.0
 11
-1.1598444338
 21
16.5239660586
 31
0.0
  0
SPLINE
  5
43D
100
AcDbEntity
  8
0
100
AcDbSpline
 62
7
  6
CONTINUOUS
 70
0
 71
3
 72
13
 73
9
 74
7
 42
0.0000001
 43
0.0000001
 44
0.0000000001
 12
-1.3014002469
 22
0.6507001234
 32
0.0
 13
-1.3014002469
 23
-0.6507001234
 33
0.0
 40
0.0
 40
0.0
 40
0.0
 40
0.0
 40
0.1524570658
 40
0.32173371
 40
0.5
 40
0.67826629
 40
0.8475429342
 40
1.0
 40
1.0
 40
1.0
 40
1.0
 10
-10.354295486
 20
25.2073418871
 30
0.0
 10
-10.4204313737
 20
25.2404098309
 30
0.0
 10
-10.5677244052
 20
25.2949719424
 30
0.0
 10
-10.8061670633
 20
25.3429573286
 30
0.0
 10
-11.0614022672
 20
25.3593441615
 30
0.0
 10
-11.3166374711
 20
25.3429573286
 30
0.0
 10
-11.5550801292
 20
25.2949719424
 30
0.0
 10
-11.7023731607
 20
25.2404098309
 30
0.0
 10
-11.7685090484
 20
25.2073418871
 30
0.0
 11
-10.354295486
 21
25.2073418871
 31
0.0
 11
-10.5614022672
 21
25.2868011984
 31
0.0
 11
-10.8025832221
 21
25.3367514096
 31
0.0
 11
-11.0614022672
 21
25.3537884965
 31
0.0
 11
-11.3202213123
 21
25.3367514096
 31
0.0
 11
-11.5614022672
 21
25.2868011984
 31
0.0
 11
-11.7685090484
 21
25.2073418871
 31
0.0
  0
SPLINE
  5
43E
100
AcDbEntity
  8
RACCORDO
100
AcDbSpline
 62
253
  6
CONTINUOUS
 70
0
 71
3
 72
10
 73
6
 74
4
 42
0.0000001
 43
0.0000001
 44
0.0000000001
 12
-0.0143128387
 22
-0.3357569865
 32
0.0
 13
-0.3113946552
 23
-0.1315092082
 33
0.0
 40
0.0
 40
0.0
 40
0.0
 40
0.0
 40
0.3855988215
 40
0.718031156
 40
1.0
 40
1.0
 40
1.0
 40
1.0
 10
4.6786975933
 20
-30.1432267582
 30
0.0
 10
4.676857922
 20
-30.186382591
 30
0.0
 10
4.6641223053
 20
-30.2669767339
 30
0.0
 10
4.6112567403
 20
-30.3688242127
 30
0.0
 10
4.5541553901
 20
-30.4120552747
 30
0.0
 10
4.5248875265
 20
-30.4244157745
 30
0.0
 11
4.6786975933
 21
-30.1432267582
 31
0.0
 11
4.6559050146
 21
-30.2707916083
 31
0.0
 11
4.601381162
 21
-30.3683007202
 31
0.0
 11
4.5248875265
 21
-30.4244157745
 31
0.0
  0
SPLINE
  5
43F
100
AcDbEntity
  8
RACCORDO
100
AcDbSpline
 62
7
  6
CONTINUOUS
 70
0
 71
3
 72
10
 73
6
 74
4
 42
0.0000001
 43
0.0000001
 44
0.0000000001
 12
-0.0057083705
 22
-0.317761969
 32
0.0
 13
-0.2862835288
 23
-0.1424806486
 33
0.0
 40
0.0
 40
0.0
 40
0.0
 40
0.0
 40
0.3942284346
 40
0.7324121747
 40
1.0
 40
1.0
 40
1.0
 40
1.0
 10
10.2790870511
 20
-27.7924107439
 30
0.0
 10
10.2783369171
 20
-27.8341676784
 30
0.0
 10
10.2681903862
 20
-27.9121761045
 30
0.0
 10
10.2212507243
 20
-28.0099853419
 30
0.0
 10
10.1699652439
 20
-28.0524562953
 30
0.0
 10
10.1444299149
 20
-28.0651649909
 30
0.0
 11
10.2790870511
 21
-27.7924107439
 31
0.0
 11
10.2603931816
 21
-27.916299314
 31
0.0
 11
10.2108151972
 21
-28.0116608201
 31
0.0
 11
10.1444299149
 21
-28.0651649909
 31
0.0
  0
SPLINE
  5
440
100
AcDbEntity
  8
RACCORDO
100
AcDbSpline
 62
253
  6
CONTINUOUS
 70
0
 71
3
 72
14
 73
10
 74
8
 42
0.0000001
 43
0.0000001
 44
0.0000000001
 12
0.0359021119
 22
-1.0277279116
 32
0.0
 13
0.9482465309
 23
0.3979222772
 33
0.0
 40
0.0
 40
0.0
 40
0.0
 40
0.0
 40
0.1659689894
 40
0.3165777222
 40
0.4534510449
 40
0.5821808105
 40
0.7112860605
 40
0.8489193848
 40
1.0
 40
1.0
 40
1.0
 40
1.0
 10
3.9975099339
 20
-29.6429110901
 30
0.0
 10
3.9994961463
 20
-29.6997680777
 30
0.0
 10
4.01253014
 20
-29.8083095102
 30
0.0
 10
4.0643801217
 20
-29.9563988007
 30
0.0
 10
4.146920653
 20
-30.0753767025
 30
0.0
 10
4.2576543865
 20
-30.1576558205
 30
0.0
 10
4.3901112465
 20
-30.197085698
 30
0.0
 10
4.5352733388
 20
-30.1925074039
 30
0.0
 10
4.6309437035
 20
-30.1632662057
 30
0.0
 10
4.6786975933
 20
-30.1432267582
 30
0.0
 11
3.9975099339
 21
-29.6429110901
 31
0.0
 11
4.0195294555
 21
-29.812159722
 31
0.0
 11
4.0725760065
 21
-29.957671353
 31
0.0
 11
4.1543358612
 21
-30.0722449558
 31
0.0
 11
4.2610448168
 21
-30.1505879825
 31
0.0
 11
4.3880354486
 21
-30.1893202894
 31
0.0
 11
4.5295476082
 21
-30.1867285157
 31
0.0
 11
4.6786975933
 21
-30.1432267582
 31
0.0
  0
SPLINE
  5
441
100
AcDbEntity
  8
RACCORDO
100
AcDbSpline
 62
253
  6
CONTINUOUS
 70
0
 71
3
 72
11
 73
7
 74
5
 42
0.0000001
 43
0.0000001
 44
0.0000000001
 12
0.0309969906
 22
-0.8944685787
 32
0.0
 13
0.8028098678
 23
-0.4037387534
 33
0.0
 40
0.0
 40
0.0
 40
0.0
 40
0.0
 40
0.2868492624
 40
0.5455863921
 40
0.7802568995
 40
1.0
 40
1.0
 40
1.0
 40
1.0
 10
3.2969264601
 20
-29.6575109043
 30
0.0
 10
3.2998902814
 20
-29.7430367883
 30
0.0
 10
3.3193818394
 20
-29.9058458398
 30
0.0
 10
3.3968033777
 20
-30.1276805253
 30
0.0
 10
3.5196005387
 20
-30.3053001163
 30
0.0
 10
3.6304063533
 20
-30.3879434519
 30
0.0
 10
3.6892103298
 20
-30.4175163871
 30
0.0
 11
3.2969264601
 21
-29.6575109043
 31
0.0
 11
3.3299628817
 21
-29.9121081244
 31
0.0
 11
3.4090910553
 21
-30.1297406863
 31
0.0
 11
3.5308545969
 21
-30.3008746313
 31
0.0
 11
3.6892103298
 21
-30.4175163871
 31
0.0
  0
SPLINE
  5
442
100
AcDbEntity
  8
RACCORDO
100
AcDbSpline
 62
253
  6
CONTINUOUS
 70
0
 71
3
 72
12
 73
8
 74
6
 42
0.0000001
 43
0.0000001
 44
0.0000000001
 12
-0.6373361836
 22
-0.339304242
 32
0.0
 13
-0.6460206961
 23
0.3224624624
 33
0.0
 40
0.0
 40
0.0
 40
0.0
 40
0.0
 40
0.1883063605
 40
0.3963823591
 40
0.6105971435
 40
0.8161873634
 40
1.0
 40
1.0
 40
1.0
 40
1.0
 10
3.9975099338
 20
-29.64291109
 30
0.0
 10
3.9575051148
 20
-29.6642088057
 30
0.0
 10
3.8674816976
 20
-29.6982796676
 30
0.0
 10
3.7223550783
 20
-29.7248775557
 30
0.0
 10
3.5705831758
 20
-29.7281086198
 30
0.0
 10
3.4261441444
 20
-29.7076891403
 30
0.0
 10
3.3365208895
 20
-29.6772617595
 30
0.0
 10
3.2969386337
 20
-29.657504201
 30
0.0
 11
3.9975099338
 21
-29.64291109
 31
0.0
 11
3.8710263138
 21
-29.6927879184
 31
0.0
 11
3.7233998392
 21
-29.7206716802
 31
0.0
 11
3.5687642601
 21
-29.7238927856
 31
0.0
 11
3.4219243777
 21
-29.7021428461
 31
0.0
 11
3.2969386337
 21
-29.657504201
 31
0.0
  0
SPLINE
  5
443
100
AcDbEntity
  8
RACCORDO
100
AcDbSpline
 62
253
  6
CONTINUOUS
 70
0
 71
3
 72
10
 73
6
 74
4
 42
0.0000001
 43
0.0000001
 44
0.0000000001
 12
-1.1963573183
 22
-35.5656669647
 32
0.0
 13
1.2364769415
 23
-35.5642947666
 33
0.0
 40
0.0
 40
0.0
 40
0.0
 40
0.0
 40
0.3369855371
 40
0.6703454986
 40
1.0
 40
1.0
 40
1.0
 40
1.0
 10
3.9975099339
 20
5.9367135376
 30
0.0
 10
3.8631248961
 20
1.9416750766
 30
0.0
 10
3.6829763423
 20
-6.0086633388
 30
0.0
 10
3.6814894741
 20
-17.8715133436
 30
0.0
 10
3.8616398707
 20
-25.7349344709
 30
0.0
 10
3.9975099339
 20
-29.6429110901
 30
0.0
 11
3.9975099339
 21
5.9367135376
 31
0.0
 11
3.7272757484
 21
-6.0521353762
 31
0.0
 11
3.7272755997
 21
-17.915010563
 31
0.0
 11
3.9975099339
 21
-29.6429110901
 31
0.0
  0
SPLINE
  5
444
100
AcDbEntity
  8
RACCORDO
100
AcDbSpline
 62
253
  6
CONTINUOUS
 70
0
 71
3
 72
10
 73
6
 74
4
 42
0.0000001
 43
0.0000001
 44
0.0000000001
 12
-1.197535035
 22
-35.6012686883
 32
0.0
 13
1.2376947731
 23
-35.5998951406
 33
0.0
 40
0.0
 40
0.0
 40
0.0
 40
0.0
 40
0.3369861745
 40
0.6703453834
 40
1.0
 40
1.0
 40
1.0
 40
1.0
 10
3.2969264601
 20
5.9577289633
 30
0.0
 10
3.1624088766
 20
1.9586838488
 30
0.0
 10
2.982083463
 20
-5.9996115047
 30
0.0
 10
2.9805952455
 20
-17.8743361211
 30
0.0
 10
3.1609225281
 20
-25.7456209769
 30
0.0
 10
3.2969264601
 20
-29.6575109043
 30
0.0
 11
3.2969264601
 21
5.9577289633
 31
0.0
 11
3.0264261914
 21
-6.0431435415
 31
0.0
 11
3.0264261916
 21
-17.9178665968
 31
0.0
 11
3.2969264601
 21
-29.6575109043
 31
0.0
  0
SPLINE
  5
445
100
AcDbEntity
  8
RACCORDO
100
AcDbSpline
 62
253
  6
CONTINUOUS
 70
0
 71
3
 72
12
 73
8
 74
6
 42
0.0000001
 43
0.0000001
 44
0.0000000001
 12
-0.6592246383
 22
-0.2856314176
 32
0.0
 13
-0.6423627806
 23
0.3217646477
 33
0.0
 40
0.0
 40
0.0
 40
0.0
 40
0.0
 40
0.184228337
 40
0.3912407912
 40
0.6065787029
 40
0.8143633594
 40
1.0
 40
1.0
 40
1.0
 40
1.0
 10
3.9975099339
 20
5.9367135376
 30
0.0
 10
3.9570273143
 20
5.9191730706
 30
0.0
 10
3.8663396933
 20
5.8927233292
 30
0.0
 10
3.7215736618
 20
5.8759050464
 30
0.0
 10
3.5701666259
 20
5.8804662501
 30
0.0
 10
3.4261509859
 20
5.9059889059
 30
0.0
 10
3.3366751555
 20
5.9378185299
 30
0.0
 10
3.2969264659
 20
5.957728966
 30
0.0
 11
3.9975099339
 21
5.9367135376
 31
0.0
 11
3.8710253953
 21
5.8977230806
 31
0.0
 11
3.7233965242
 21
5.8796836285
 31
0.0
 11
3.5687577543
 21
5.8843223331
 31
0.0
 11
3.4219146681
 21
5.9111950709
 31
0.0
 11
3.2969264659
 21
5.957728966
 31
0.0
  0
SPLINE
  5
446
100
AcDbEntity
  8
RACCORDO
100
AcDbSpline
 62
253
  6
CONTINUOUS
 70
0
 71
3
 72
14
 73
10
 74
8
 42
0.0000001
 43
0.0000001
 44
0.0000000001
 12
-1.225378146
 22
-0.669255184
 32
0.0
 13
-0.0470508271
 23
-1.3954355312
 33
0.0
 40
0.0
 40
0.0
 40
0.0
 40
0.0
 40
0.1288598851
 40
0.268534083
 40
0.4157031581
 40
0.5664330333
 40
0.7168041968
 40
0.8626819864
 40
1.0
 40
1.0
 40
1.0
 40
1.0
 10
4.6786975933
 20
7.0948444819
 30
0.0
 10
4.6260635642
 20
7.0660977665
 30
0.0
 10
4.5222981783
 20
6.9950229215
 30
0.0
 10
4.3820374167
 20
6.8607752187
 30
0.0
 10
4.2561239552
 20
6.6998767164
 30
0.0
 10
4.1502029467
 20
6.5194521091
 30
0.0
 10
4.068836976
 20
6.3273286547
 30
0.0
 10
4.015553421
 20
6.1320787357
 30
0.0
 10
3.999663576
 20
6.0005863494
 30
0.0
 10
3.9975099339
 20
5.9367135376
 30
0.0
 11
4.6786975933
 21
7.0948444819
 31
0.0
 11
4.5295074138
 21
6.99428245
 31
0.0
 11
4.3879431799
 21
6.8601510336
 31
0.0
 11
4.2608904047
 21
6.6986570543
 31
0.0
 11
4.1542118289
 21
6.5172451066
 31
0.0
 11
4.0725329107
 21
6.3238320512
 31
0.0
 11
4.0195200519
 21
6.127173305
 31
0.0
 11
3.9975099339
 21
5.9367135376
 31
0.0
  0
SPLINE
  5
447
100
AcDbEntity
  8
RACCORDO
100
AcDbSpline
 62
253
  6
CONTINUOUS
 70
0
 71
3
 72
14
 73
10
 74
8
 42
0.0000001
 43
0.0000001
 44
0.0000000001
 12
-1.8324109718
 22
-1.0115901053
 32
0.0
 13
-0.0700466429
 23
-2.0919220775
 33
0.0
 40
0.0
 40
0.0
 40
0.0
 40
0.0
 40
0.1290649272
 40
0.2684381346
 40
0.4153157993
 40
0.565842438
 40
0.7161443217
 40
0.8620452913
 40
1.0
 40
1.0
 40
1.0
 40
1.0
 10
4.3128648533
 20
7.6978469276
 30
0.0
 10
4.2340315237
 20
7.6543266599
 30
0.0
 10
4.0790772911
 20
7.5470092044
 30
0.0
 10
3.8699819514
 20
7.3449527674
 30
0.0
 10
3.6825566143
 20
7.1034292133
 30
0.0
 10
3.5248366633
 20
6.832802866
 30
0.0
 10
3.4035659142
 20
6.544694066
 30
0.0
 10
3.3239552484
 20
6.2515096508
 30
0.0
 10
3.3001475481
 20
6.0539257969
 30
0.0
 10
3.2969264601
 20
5.9577289633
 30
0.0
 11
4.3128648533
 21
7.6978469276
 31
0.0
 11
4.0896062168
 21
7.5457484421
 31
0.0
 11
3.8788056339
 21
7.3440942181
 31
0.0
 11
3.6896951313
 21
7.101710838
 31
0.0
 11
3.5308448875
 21
6.8296198883
 31
0.0
 11
3.4090900405
 21
6.5395398514
 31
0.0
 11
3.3299595965
 21
6.2445854915
 31
0.0
 11
3.2969264601
 21
5.9577289633
 31
0.0
  0
SPLINE
  5
448
100
AcDbEntity
  8
RACCORDO
100
AcDbSpline
 62
253
  6
CONTINUOUS
 70
0
 71
3
 72
12
 73
8
 74
6
 42
0.0000001
 43
0.0000001
 44
0.0000000001
 12
-0.0325006601
 22
0.7310287938
 32
0.0
 13
-0.6495264385
 23
0.3370085991
 33
0.0
 40
0.0
 40
0.0
 40
0.0
 40
0.0
 40
0.1932101956
 40
0.4029603576
 40
0.6161694638
 40
0.8190506716
 40
1.0
 40
1.0
 40
1.0
 40
1.0
 10
4.6786975933
 20
7.0948444819
 30
0.0
 10
4.6766044403
 20
7.1419252207
 30
0.0
 10
4.6594100825
 20
7.2396729986
 30
0.0
 10
4.605114985
 20
7.3806007057
 30
0.0
 10
4.5256779309
 20
7.5119574784
 30
0.0
 10
4.428539495
 20
7.6214972531
 30
0.0
 10
4.3520419798
 20
7.677519769
 30
0.0
 10
4.3128648556
 20
7.6978469289
 30
0.0
 11
4.6786975933
 21
7.0948444819
 31
0.0
 11
4.6559056372
 21
7.2343769942
 31
0.0
 11
4.6013827108
 21
7.3778512297
 31
0.0
 11
4.5204589618
 21
7.5112391064
 31
0.0
 11
4.4210462962
 21
7.6214981217
 31
0.0
 11
4.3128648556
 21
7.6978469289
 31
0.0
  0
SPLINE
  5
449
100
AcDbEntity
  8
RACCORDO
100
AcDbSpline
 62
7
  6
CONTINUOUS
 70
0
 71
3
 72
12
 73
8
 74
6
 42
0.0000001
 43
0.0000001
 44
0.0000000001
 12
-0.0131741614
 22
0.7206303023
 32
0.0
 13
-0.6297646732
 23
0.3505396518
 33
0.0
 40
0.0
 40
0.0
 40
0.0
 40
0.0
 40
0.1938882076
 40
0.4030788083
 40
0.6153762009
 40
0.8179525832
 40
1.0
 40
1.0
 40
1.0
 40
1.0
 10
10.2790870511
 20
10.1522617016
 30
0.0
 10
10.2782356129
 20
10.1988356074
 30
0.0
 10
10.2640736513
 20
10.2955717455
 30
0.0
 10
10.2146206373
 20
10.4356796798
 30
0.0
 10
10.1400950865
 20
10.5667564941
 30
0.0
 10
10.047198348
 20
10.6770405214
 30
0.0
 10
9.973153613
 20
10.7342224521
 30
0.0
 10
9.9349379357
 20
10.7554940648
 30
0.0
 11
10.2790870511
 21
10.1522617016
 31
0.0
 11
10.2603931816
 21
10.2907507702
 31
0.0
 11
10.2108151972
 21
10.4331407466
 31
0.0
 11
10.1350008468
 21
10.566051674
 31
0.0
 11
10.040068009
 21
10.6769832808
 31
0.0
 11
9.9349379357
 21
10.7554940648
 31
0.0
  0
SPLINE
  5
44A
100
AcDbEntity
  8
0
100
AcDbSpline
 62
7
  6
CONTINUOUS
 70
0
 71
3
 72
8
 73
4
 74
2
 42
0.0000001
 43
0.0000001
 44
0.0000000001
 12
-0.0953063281
 22
-0.077489865
 32
0.0
 13
-0.0735712338
 23
-0.0983764815
 33
0.0
 40
0.0
 40
0.0
 40
0.0
 40
0.0
 40
1.0
 40
1.0
 40
1.0
 40
1.0
 10
-7.4955838965
 20
-17.5675700334
 30
0.0
 10
-7.5273526725
 20
-17.5933999884
 30
0.0
 10
-7.5556446885
 20
-17.6234476299
 30
0.0
 10
-7.5801684331
 20
-17.6562397904
 30
0.0
 11
-7.4955838965
 21
-17.5675700334
 31
0.0
 11
-7.5801684331
 21
-17.6562397904
 31
0.0
  0
LINE
  5
44B
100
AcDbEntity
  8
RACCORDO
100
AcDbLine
 62
253
  6
CONTINUOUS
 10
-27.4378221942
 20
-14.2901365771
 11
-27.4438984148
 21
-14.1083081774
  0
SPLINE
  5
44C
100
AcDbEntity
  8
RACCORDO
100
AcDbSpline
 62
253
  6
CONTINUOUS
 70
0
 71
3
 72
10
 73
6
 74
4
 42
0.0000001
 43
0.0000001
 44
0.0000000001
 12
-1.1773310788
 22
35.4195364709
 32
0.0
 13
1.1499480989
 23
35.4203969358
 33
0.0
 40
0.0
 40
0.0
 40
0.0
 40
0.0
 40
0.3260804886
 40
0.6611549348
 40
1.0
 40
1.0
 40
1.0
 40
1.0
 10
-27.4438984148
 20
-14.1083081774
 30
0.0
 10
-27.571866646
 20
-10.2584349246
 30
0.0
 10
-27.7433279773
 20
-2.4493042128
 30
0.0
 10
-27.741847498
 20
9.3645719898
 30
0.0
 10
-27.5677069404
 20
17.3244277213
 30
0.0
 10
-27.4378221942
 20
21.3251032905
 30
0.0
 11
-27.4438984148
 21
-14.1083081774
 31
0.0
 11
-27.6990503891
 21
-2.5551283065
 31
0.0
 11
-27.699050389
 21
9.3195947487
 31
0.0
 11
-27.4378221942
 21
21.3251032905
 31
0.0
  0
SPLINE
  5
44D
100
AcDbEntity
  8
RACCORDO
100
AcDbSpline
 62
253
  6
CONTINUOUS
 70
0
 71
3
 72
14
 73
10
 74
8
 42
0.0000001
 43
0.0000001
 44
0.0000000001
 12
0.0624585672
 22
1.9101336566
 32
0.0
 13
1.5276341583
 23
1.1545605106
 33
0.0
 40
0.0
 40
0.0
 40
0.0
 40
0.0
 40
0.1512404492
 40
0.3112476323
 40
0.47597469
 40
0.6407067201
 40
0.8010834083
 40
0.9527917808
 40
1.0
 40
1.0
 40
1.0
 40
1.0
 10
-27.4378221942
 20
21.3251032905
 30
0.0
 10
-27.4346734403
 20
21.4213997812
 30
0.0
 10
-27.4114007362
 20
21.6192372831
 30
0.0
 10
-27.3336653248
 20
21.9131973161
 30
0.0
 10
-27.2152528308
 20
22.2025891337
 30
0.0
 10
-27.0612516977
 20
22.4749443439
 30
0.0
 10
-26.8782506753
 20
22.7185654655
 30
0.0
 10
-26.7159687954
 20
22.8810732252
 30
0.0
 10
-26.616856873
 20
22.9605600209
 30
0.0
 10
-26.5928179102
 20
22.9787282695
 30
0.0
 11
-27.4378221942
 21
21.3251032905
 31
0.0
 11
-27.4055489708
 21
21.6123397751
 31
0.0
 11
-27.3282390228
 21
21.908204383
 31
0.0
 11
-27.209285096
 21
22.1996848801
 31
0.0
 11
-27.0540893179
 21
22.4736030626
 31
0.0
 11
-26.8693300415
 21
22.7181620558
 31
0.0
 11
-26.6633787121
 21
22.9222409066
 31
0.0
 11
-26.5928179102
 21
22.9787282695
 31
0.0
  0
SPLINE
  5
44E
100
AcDbEntity
  8
RACCORDO
100
AcDbSpline
 62
253
  6
CONTINUOUS
 70
0
 71
3
 72
8
 73
4
 74
2
 42
0.0000001
 43
0.0000001
 44
0.0000000001
 12
0.1416173378
 22
0.1070320305
 32
0.0
 13
0.1534688882
 23
0.0885262528
 33
0.0
 40
0.0
 40
0.0
 40
0.0
 40
0.0
 40
1.0
 40
1.0
 40
1.0
 40
1.0
 10
-26.5928179102
 20
22.9787282695
 30
0.0
 10
-26.545612131
 20
23.014405613
 30
0.0
 10
-26.4964124803
 20
23.0473986954
 30
0.0
 10
-26.4452561842
 20
23.0769074464
 30
0.0
 11
-26.5928179102
 21
22.9787282695
 31
0.0
 11
-26.4452561842
 21
23.0769074464
 31
0.0
  0
SPLINE
  5
44F
100
AcDbEntity
  8
0
100
AcDbSpline
 62
7
  6
CONTINUOUS
 70
0
 71
3
 72
18
 73
14
 74
12
 42
0.0000001
 43
0.0000001
 44
0.0000000001
 12
-2.3501113799
 22
-1.1703933353
 32
0.0
 13
2.3344680853
 23
-1.1672340426
 33
0.0
 40
0.0
 40
0.0
 40
0.0
 40
0.0
 40
0.0142286406
 40
0.0841281359
 40
0.16251168
 40
0.251754052
 40
0.3503263493
 40
0.4576215226
 40
0.571432057
 40
0.6860711462
 40
0.7987405706
 40
0.9043352594
 40
1.0
 40
1.0
 40
1.0
 40
1.0
 10
-2.4625745593
 20
-19.9886497475
 30
0.0
 10
-2.4737208561
 20
-19.9942007829
 30
0.0
 10
-2.5382247309
 20
-20.0297409569
 30
0.0
 10
-2.6437600491
 20
-20.129234661
 30
0.0
 10
-2.7359386367
 20
-20.3181191528
 30
0.0
 10
-2.7769098647
 20
-20.5483334888
 30
0.0
 10
-2.7674764747
 20
-20.8064305419
 30
0.0
 10
-2.7094142486
 20
-21.0796434526
 30
0.0
 10
-2.6057331977
 20
-21.3538496258
 30
0.0
 10
-2.4618700246
 20
-21.6145592536
 30
0.0
 10
-2.286102874
 20
-21.8461600878
 30
0.0
 10
-2.0883650453
 20
-22.036214987
 30
0.0
 10
-1.9409312057
 20
-22.1333857259
 30
0.0
 10
-1.8664891111
 20
-22.1706067732
 30
0.0
 11
-2.4625745593
 21
-19.9886497475
 31
0.0
 11
-2.495257652
 21
-20.0066793296
 31
0.0
 11
-2.6296398929
 21
-20.1300701536
 31
0.0
 11
-2.7231416733
 21
-20.3120352421
 31
0.0
 11
-2.767591788
 21
-20.5406784803
 31
0.0
 11
-2.7606916083
 21
-20.797861073
 31
0.0
 11
-2.7039756686
 21
-21.0720996742
 31
0.0
 11
-2.5995860701
 21
-21.3502000683
 31
0.0
 11
-2.4548967215
 21
-21.6120997426
 31
0.0
 11
-2.2764410583
 21
-21.8458304954
 31
0.0
 11
-2.0764219179
 21
-22.0354346499
 31
0.0
 11
-1.8664891111
 21
-22.1706067732
 31
0.0
  0
SPLINE
  5
450
100
AcDbEntity
  8
RACCORDO
100
AcDbSpline
 62
7
  6
CONTINUOUS
 70
0
 71
3
 72
11
 73
7
 74
5
 42
0.0000001
 43
0.0000001
 44
0.0000000001
 12
-0.4344827436
 22
-0.0321536765
 32
0.0
 13
-0.4201195016
 23
-0.1153634158
 33
0.0
 40
0.0
 40
0.0
 40
0.0
 40
0.0
 40
0.2928656888
 40
0.5624705703
 40
0.8004581643
 40
1.0
 40
1.0
 40
1.0
 40
1.0
 10
4.7742850457
 20
13.8707020732
 30
0.0
 10
4.7318700164
 20
13.8675631704
 30
0.0
 10
4.6511186752
 20
13.8530639866
 30
0.0
 10
4.5387206168
 20
13.8235078059
 30
0.0
 10
4.4402967073
 20
13.7941561345
 30
0.0
 10
4.3794064714
 20
13.7759857847
 30
0.0
 10
4.3514626659
 20
13.7683125088
 30
0.0
 11
4.7742850457
 21
13.8707020732
 31
0.0
 11
4.6482593059
 21
13.8507646783
 31
0.0
 11
4.5344571631
 21
13.8216839654
 31
0.0
 11
4.4349479764
 21
13.7925575456
 31
0.0
 11
4.3514626659
 21
13.7683125088
 31
0.0
  0
SPLINE
  5
451
100
AcDbEntity
  8
0
100
AcDbSpline
 62
7
  6
CONTINUOUS
 70
0
 71
3
 72
10
 73
6
 74
4
 42
0.0000001
 43
0.0000001
 44
0.0000000001
 12
0.513474179
 22
-0.2567370895
 32
0.0
 13
0.5169400621
 23
0.2574140818
 33
0.0
 40
0.0
 40
0.0
 40
0.0
 40
0.0
 40
0.3899778724
 40
0.7449886572
 40
1.0
 40
1.0
 40
1.0
 40
1.0
 10
-1.8664891111
 20
-22.1706067732
 30
0.0
 10
-1.7997412552
 20
-22.2039807012
 30
0.0
 10
-1.6645229341
 20
-22.2545132918
 30
0.0
 10
-1.4695128218
 20
-22.2653378261
 30
0.0
 10
-1.3556348318
 20
-22.2300162746
 30
0.0
 10
-1.311692972
 20
-22.2081351044
 30
0.0
 11
-1.8664891111
 21
-22.1706067732
 31
0.0
 11
-1.6554190936
 21
-22.2452479534
 31
0.0
 11
-1.4517332677
 21
-22.2522211195
 31
0.0
 11
-1.311692972
 21
-22.2081351044
 31
0.0
  0
SPLINE
  5
452
100
AcDbEntity
  8
RACCORDO
100
AcDbSpline
 62
253
  6
CONTINUOUS
 70
0
 71
3
 72
11
 73
7
 74
5
 42
0.0000001
 43
0.0000001
 44
0.0000000001
 12
-0.0017563676
 22
0.3667488161
 32
0.0
 13
-0.3272587834
 23
0.1655580492
 33
0.0
 40
0.0
 40
0.0
 40
0.0
 40
0.0
 40
0.2478227056
 40
0.5144535803
 40
0.7742769777
 40
1.0
 40
1.0
 40
1.0
 40
1.0
 10
-21.0418984151
 20
26.1356912499
 30
0.0
 10
-21.0420435043
 20
26.1659874779
 30
0.0
 10
-21.0527952521
 20
26.2289320818
 30
0.0
 10
-21.0909412094
 20
26.3164185582
 30
0.0
 10
-21.1464010969
 20
26.3907683972
 30
0.0
 10
-21.1940488382
 20
26.4281240343
 30
0.0
 10
-21.2186721187
 20
26.4405807887
 30
0.0
 11
-21.0418984151
 21
26.1356912499
 31
0.0
 11
-21.055788684
 21
26.2255133115
 31
0.0
 11
-21.0945804506
 21
26.3152776084
 31
0.0
 11
-21.152307832
 21
26.3910926939
 31
0.0
 11
-21.2186721187
 21
26.4405807887
 31
0.0
  0
SPLINE
  5
453
100
AcDbEntity
  8
RACCORDO
100
AcDbSpline
 62
7
  6
CONTINUOUS
 70
0
 71
3
 72
11
 73
7
 74
5
 42
0.0000001
 43
0.0000001
 44
0.0000000001
 12
-0.0017561623
 22
0.3667460209
 32
0.0
 13
-0.3272563736
 23
0.1655566186
 33
0.0
 40
0.0
 40
0.0
 40
0.0
 40
0.0
 40
0.2466966781
 40
0.5118834164
 40
0.7705699875
 40
1.0
 40
1.0
 40
1.0
 40
1.0
 10
-19.4406176242
 20
26.9384132534
 30
0.0
 10
-19.4407620374
 20
26.9685715951
 30
0.0
 10
-19.451414381
 20
27.0312009345
 30
0.0
 10
-19.4892338018
 20
27.1183267146
 30
0.0
 10
-19.5445483297
 20
27.1929251526
 30
0.0
 10
-19.59236385
 20
27.2306415732
 30
0.0
 10
-19.6173913279
 20
27.2433027922
 30
0.0
 11
-19.4406176242
 21
26.9384132534
 31
0.0
 11
-19.4543906651
 21
27.0278348459
 31
0.0
 11
-19.4928214695
 21
27.1171771926
 31
0.0
 11
-19.550059569
 21
27.1928392973
 31
0.0
 11
-19.6173913279
 21
27.2433027922
 31
0.0
  0
SPLINE
  5
454
100
AcDbEntity
  8
RACCORDO
100
AcDbSpline
 62
253
  6
CONTINUOUS
 70
0
 71
3
 72
11
 73
7
 74
5
 42
0.0000001
 43
0.0000001
 44
0.0000000001
 12
0.3239351271
 22
-0.1619675635
 32
0.0
 13
0.3246828523
 23
0.1604634026
 33
0.0
 40
0.0
 40
0.0
 40
0.0
 40
0.0
 40
0.231346483
 40
0.4969674372
 40
0.7631067912
 40
1.0
 40
1.0
 40
1.0
 40
1.0
 10
-21.3944203747
 20
26.1362039738
 30
0.0
 10
-21.3694399573
 20
26.123713765
 30
0.0
 10
-21.3114650643
 20
26.1055331401
 30
0.0
 10
-21.2192673017
 20
26.0965798208
 30
0.0
 10
-21.1263571771
 20
26.1049946717
 30
0.0
 10
-21.0675368026
 20
26.1230203531
 30
0.0
 10
-21.0418984151
 20
26.1356912499
 30
0.0
 11
-21.3944203747
 21
26.1362039738
 31
0.0
 11
-21.3150152439
 21
26.1094632868
 31
0.0
 11
-21.2193226477
 21
26.0995951404
 31
0.0
 11
-21.1233771865
 21
26.108819021
 31
0.0
 11
-21.0418984151
 21
26.1356912499
 31
0.0
  0
SPLINE
  5
455
100
AcDbEntity
  8
RACCORDO
100
AcDbSpline
 62
253
  6
CONTINUOUS
 70
0
 71
3
 72
11
 73
7
 74
5
 42
0.0000001
 43
0.0000001
 44
0.0000000001
 12
0.3239343427
 22
-0.1619671713
 32
0.0
 13
0.3246820661
 23
0.1604630141
 33
0.0
 40
0.0
 40
0.0
 40
0.0
 40
0.0
 40
0.2355641544
 40
0.5004433916
 40
0.765454133
 40
1.0
 40
1.0
 40
1.0
 40
1.0
 10
-21.3944203747
 20
25.7962300396
 30
0.0
 10
-21.3689846016
 20
25.7835121531
 30
0.0
 10
-21.3105328939
 20
25.7653499588
 30
0.0
 10
-21.2180433815
 20
25.7566238365
 30
0.0
 10
-21.1256576365
 20
25.765190359
 30
0.0
 10
-21.067282694
 20
25.7831720035
 30
0.0
 10
-21.0418984151
 20
25.7957173158
 30
0.0
 11
-21.3944203747
 21
25.7962300396
 31
0.0
 11
-21.313510061
 21
25.7691739885
 31
0.0
 11
-21.2180559331
 21
25.7596185572
 31
0.0
 11
-21.1225383365
 21
25.7690167288
 31
0.0
 11
-21.0418984151
 21
25.7957173158
 31
0.0
  0
SPLINE
  5
456
100
AcDbEntity
  8
RACCORDO
100
AcDbSpline
 62
253
  6
CONTINUOUS
 70
0
 71
3
 72
10
 73
6
 74
4
 42
0.0000001
 43
0.0000001
 44
0.0000000001
 12
0.0
 22
-0.1565857044
 32
0.0
 13
0.1420456113
 23
-0.0715482561
 33
0.0
 40
0.0
 40
0.0
 40
0.0
 40
0.0
 40
0.4461395578
 40
0.8209928008
 40
1.0
 40
1.0
 40
1.0
 40
1.0
 10
-21.3944203747
 20
25.7962300396
 30
0.0
 10
-21.3944203747
 20
25.7729436807
 30
0.0
 10
-21.3889853298
 20
25.7296141087
 30
0.0
 10
-21.3623155016
 20
25.6824218835
 30
0.0
 10
-21.3378694887
 20
25.6654061817
 30
0.0
 10
-21.3293937597
 20
25.6611369641
 30
0.0
 11
-21.3944203747
 21
25.7962300396
 31
0.0
 11
-21.3836525733
 21
25.7272058042
 31
0.0
 11
-21.3526607563
 21
25.6773579851
 31
0.0
 11
-21.3293937597
 21
25.6611369641
 31
0.0
  0
SPLINE
  5
457
100
AcDbEntity
  8
RACCORDO
100
AcDbSpline
 62
253
  6
CONTINUOUS
 70
0
 71
3
 72
10
 73
6
 74
4
 42
0.0000001
 43
0.0000001
 44
0.0000000001
 12
0.0
 22
-0.1566934698
 32
0.0
 13
0.1422173849
 23
-0.0714387831
 33
0.0
 40
0.0
 40
0.0
 40
0.0
 40
0.0
 40
0.4458327267
 40
0.8204281656
 40
1.0
 40
1.0
 40
1.0
 40
1.0
 10
-22.7194050545
 20
26.4587223795
 30
0.0
 10
-22.7194050545
 20
26.4354360206
 30
0.0
 10
-22.7139700096
 20
26.3921064486
 30
0.0
 10
-22.6872818267
 20
26.3448817448
 30
0.0
 10
-22.6627934009
 20
26.3278562487
 30
0.0
 10
-22.6542806554
 20
26.3235801176
 30
0.0
 11
-22.7194050545
 21
26.4587223795
 31
0.0
 11
-22.7086372531
 21
26.3896981441
 31
0.0
 11
-22.6776454361
 21
26.339850325
 31
0.0
 11
-22.6542806554
 21
26.3235801176
 31
0.0
  0
SPLINE
  5
458
100
AcDbEntity
  8
RACCORDO
100
AcDbSpline
 62
253
  6
CONTINUOUS
 70
0
 71
3
 72
9
 73
5
 74
3
 42
0.0000001
 43
0.0000001
 44
0.0000000001
 12
-0.1065991214
 22
0.0532995607
 32
0.0
 13
0.0001011167
 23
0.11838275
 33
0.0
 40
0.0
 40
0.0
 40
0.0
 40
0.0
 40
0.5668907358
 40
1.0
 40
1.0
 40
1.0
 40
1.0
 10
-22.7194050545
 20
26.4587223795
 30
0.0
 10
-22.739548406
 20
26.4687940553
 30
0.0
 10
-22.7739766954
 20
26.4905996204
 30
0.0
 10
-22.7926428325
 20
26.5300198403
 30
0.0
 10
-22.7926282343
 20
26.5471107288
 30
0.0
 11
-22.7194050545
 21
26.4587223795
 31
0.0
 11
-22.7735171569
 21
26.4991775364
 31
0.0
 11
-22.7926282343
 21
26.5471107288
 31
0.0
  0
SPLINE
  5
459
100
AcDbEntity
  8
RACCORDO
100
AcDbSpline
 62
253
  6
CONTINUOUS
 70
0
 71
3
 72
9
 73
5
 74
3
 42
0.0000001
 43
0.0000001
 44
0.0000000001
 12
-0.1065800867
 22
0.0532900434
 32
0.0
 13
-0.0000602393
 23
0.1183432009
 33
0.0
 40
0.0
 40
0.0
 40
0.0
 40
0.0
 40
0.5683218492
 40
1.0
 40
1.0
 40
1.0
 40
1.0
 10
-22.7194050545
 20
26.7986963137
 30
0.0
 10
-22.7395956519
 20
26.8087916123
 30
0.0
 10
-22.7740374018
 20
26.8305938682
 30
0.0
 10
-22.7926196495
 20
26.8700559343
 30
0.0
 10
-22.7926283175
 20
26.887084659
 30
0.0
 11
-22.7194050545
 21
26.7986963137
 31
0.0
 11
-22.7736211936
 21
26.8392769463
 31
0.0
 11
-22.7926283175
 21
26.887084659
 31
0.0
  0
SPLINE
  5
45A
100
AcDbEntity
  8
RACCORDO
100
AcDbSpline
 62
253
  6
CONTINUOUS
 70
0
 71
3
 72
9
 73
5
 74
3
 42
0.0000001
 43
0.0000001
 44
0.0000000001
 12
0.0
 22
0.1880744913
 32
0.0
 13
0.0945726714
 23
0.1629826439
 33
0.0
 40
0.0
 40
0.0
 40
0.0
 40
0.0
 40
0.4819605369
 40
1.0
 40
1.0
 40
1.0
 40
1.0
 10
-22.7194050545
 20
26.7986963137
 30
0.0
 10
-22.7194050545
 20
26.8289111413
 30
0.0
 10
-22.708965498
 20
26.8917109961
 30
0.0
 10
-22.6838472475
 20
26.9497268393
 30
0.0
 10
-22.6675164555
 20
26.977870653
 30
0.0
 11
-22.7194050545
 21
26.7986963137
 31
0.0
 11
-22.7059324915
 21
26.888333986
 31
0.0
 11
-22.6675164555
 21
26.977870653
 31
0.0
  0
SPLINE
  5
45B
100
AcDbEntity
  8
RACCORDO
100
AcDbSpline
 62
253
  6
CONTINUOUS
 70
0
 71
3
 72
9
 73
5
 74
3
 42
0.0000001
 43
0.0000001
 44
0.0000000001
 12
0.0763384414
 22
0.1315585234
 32
0.0
 13
0.1268330217
 23
0.0841455786
 33
0.0
 40
0.0
 40
0.0
 40
0.0
 40
0.0
 40
0.6260109823
 40
1.0
 40
1.0
 40
1.0
 40
1.0
 10
-22.6675164555
 20
26.977870653
 30
0.0
 10
-22.651586888
 20
27.0053230132
 30
0.0
 10
-22.6210969218
 20
27.0462718314
 30
0.0
 10
-22.5819549711
 20
27.079440795
 30
0.0
 10
-22.5661435854
 20
27.0899306358
 30
0.0
 11
-22.6675164555
 21
26.977870653
 31
0.0
 11
-22.6100221566
 21
27.0535429877
 31
0.0
 11
-22.5661435854
 21
27.0899306358
 31
0.0
  0
SPLINE
  5
45C
100
AcDbEntity
  8
RACCORDO
100
AcDbSpline
 62
253
  6
CONTINUOUS
 70
0
 71
3
 72
9
 73
5
 74
3
 42
0.0000001
 43
0.0000001
 44
0.0000000001
 12
0.0
 22
0.1619190411
 32
0.0
 13
0.0723089468
 23
0.1452021746
 33
0.0
 40
0.0
 40
0.0
 40
0.0
 40
0.0
 40
0.5572886809
 40
1.0
 40
1.0
 40
1.0
 40
1.0
 10
-21.3944203747
 20
26.1362039738
 30
0.0
 10
-21.3944203747
 20
26.1662825234
 30
0.0
 10
-21.3854717749
 20
26.2203483413
 30
0.0
 10
-21.3656264654
 20
26.2708798479
 30
0.0
 10
-21.3549558023
 20
26.2923073966
 30
0.0
 11
-21.3944203747
 21
26.1362039738
 31
0.0
 11
-21.3810622695
 21
26.2254454066
 31
0.0
 11
-21.3549558023
 21
26.2923073966
 31
0.0
  0
SPLINE
  5
45D
100
AcDbEntity
  8
RACCORDO
100
AcDbSpline
 62
253
  6
CONTINUOUS
 70
0
 71
3
 72
10
 73
6
 74
4
 42
0.0000001
 43
0.0000001
 44
0.0000000001
 12
0.091101051
 22
0.1829382297
 32
0.0
 13
0.1819412657
 23
0.0922670294
 33
0.0
 40
0.0
 40
0.0
 40
0.0
 40
0.0
 40
0.1236022378
 40
0.5873984497
 40
1.0
 40
1.0
 40
1.0
 40
1.0
 10
-21.3549558023
 20
26.2923073966
 30
0.0
 10
-21.3512023711
 20
26.2998445882
 30
0.0
 10
-21.3322564912
 20
26.335109122
 30
0.0
 10
-21.2914552276
 20
26.3902372619
 30
0.0
 10
-21.2436952015
 20
26.4278909489
 30
0.0
 10
-21.2186721187
 20
26.4405807887
 30
0.0
 11
-21.3549558023
 21
26.2923073966
 31
0.0
 11
-21.3430067603
 21
26.314557913
 31
0.0
 11
-21.2860051653
 21
26.3900739457
 31
0.0
 11
-21.2186721187
 21
26.4405807887
 31
0.0
  0
SPLINE
  5
45E
100
AcDbEntity
  8
RACCORDO
100
AcDbSpline
 62
253
  6
CONTINUOUS
 70
0
 71
3
 72
9
 73
5
 74
3
 42
0.0000001
 43
0.0000001
 44
0.0000000001
 12
-0.10402806
 22
0.0514080461
 32
0.0
 13
-0.1049781092
 23
-0.0523720213
 33
0.0
 40
0.0
 40
0.0
 40
0.0
 40
0.0
 40
0.6041247065
 40
1.0
 40
1.0
 40
1.0
 40
1.0
 10
-22.5436567986
 20
27.1030731286
 30
0.0
 10
-22.564605439
 20
27.1134254189
 30
0.0
 10
-22.603214586
 20
27.125517461
 30
0.0
 10
-22.6428214394
 20
27.1162951709
 30
0.0
 10
-22.656674186
 20
27.1093842412
 30
0.0
 11
-22.5436567986
 21
27.1030731286
 31
0.0
 11
-22.6116190477
 21
27.120256601
 31
0.0
 11
-22.656674186
 21
27.1093842412
 31
0.0
  0
SPLINE
  5
45F
100
AcDbEntity
  8
RACCORDO
100
AcDbSpline
 62
7
  6
CONTINUOUS
 70
0
 71
3
 72
9
 73
5
 74
3
 42
0.0000001
 43
0.0000001
 44
0.0000000001
 12
-0.1023089032
 22
0.0505585467
 32
0.0
 13
-0.1043540979
 23
-0.0494770179
 33
0.0
 40
0.0
 40
0.0
 40
0.0
 40
0.0
 40
0.6142757471
 40
1.0
 40
1.0
 40
1.0
 40
1.0
 10
-20.9609001954
 20
27.915057226
 30
0.0
 10
-20.9818488214
 20
27.9254095223
 30
0.0
 10
-21.0198199259
 20
27.9373017539
 30
0.0
 10
-21.0587560349
 20
27.9285782711
 30
0.0
 10
-21.072173337
 20
27.9222167758
 30
0.0
 11
-20.9609001954
 21
27.915057226
 31
0.0
 11
-21.0288624082
 21
27.9322407169
 31
0.0
 11
-21.072173337
 21
27.9222167758
 31
0.0
  0
SPLINE
  5
460
100
AcDbEntity
  8
RACCORDO
100
AcDbSpline
 62
253
  6
CONTINUOUS
 70
0
 71
3
 72
9
 73
5
 74
3
 42
0.0000001
 43
0.0000001
 44
0.0000000001
 12
-0.1011432681
 22
0.0511592745
 32
0.0
 13
-0.1037107759
 23
-0.0490365042
 33
0.0
 40
0.0
 40
0.0
 40
0.0
 40
0.0
 40
0.6055184376
 40
1.0
 40
1.0
 40
1.0
 40
1.0
 10
-20.4264503167
 20
28.1754046925
 30
0.0
 10
-20.4468650213
 20
28.1857306539
 30
0.0
 10
-20.4844456909
 20
28.1979011294
 30
0.0
 10
-20.5232209669
 20
28.1894395585
 30
0.0
 10
-20.5368582965
 20
28.1829915596
 30
0.0
 11
-20.4264503167
 21
28.1754046925
 31
0.0
 11
-20.4928146035
 21
28.1929047555
 31
0.0
 11
-20.5368582965
 21
28.1829915596
 31
0.0
  0
SPLINE
  5
461
100
AcDbEntity
  8
RACCORDO
100
AcDbSpline
 62
7
  6
CONTINUOUS
 70
0
 71
3
 72
11
 73
7
 74
5
 42
0.0000001
 43
0.0000001
 44
0.0000000001
 12
-0.4344827436
 22
-0.0321536765
 32
0.0
 13
-0.4201195016
 23
-0.1153634158
 33
0.0
 40
0.0
 40
0.0
 40
0.0
 40
0.0
 40
0.2928656888
 40
0.5624705703
 40
0.8004581643
 40
1.0
 40
1.0
 40
1.0
 40
1.0
 10
-11.135617531
 20
21.8256533616
 30
0.0
 10
-11.1780325603
 20
21.8225144587
 30
0.0
 10
-11.2587839015
 20
21.8080152749
 30
0.0
 10
-11.3711819599
 20
21.7784590943
 30
0.0
 10
-11.4696058694
 20
21.7491074229
 30
0.0
 10
-11.5304961053
 20
21.730937073
 30
0.0
 10
-11.5584399108
 20
21.7232637971
 30
0.0
 11
-11.135617531
 21
21.8256533616
 31
0.0
 11
-11.2616432708
 21
21.8057159666
 31
0.0
 11
-11.3754454136
 21
21.7766352537
 31
0.0
 11
-11.4749546003
 21
21.747508834
 31
0.0
 11
-11.5584399108
 21
21.7232637971
 31
0.0
  0
SPLINE
  5
462
100
AcDbEntity
  8
0
100
AcDbSpline
 62
7
  6
CONTINUOUS
 70
0
 71
3
 72
8
 73
4
 74
2
 42
0.0000001
 43
0.0000001
 44
0.0000000001
 12
0.1117092488
 22
0.0230957665
 32
0.0
 13
0.1026258016
 23
0.0493639685
 33
0.0
 40
0.0
 40
0.0
 40
0.0
 40
0.0
 40
1.0
 40
1.0
 40
1.0
 40
1.0
 10
-6.3757451292
 20
-19.7726733621
 30
0.0
 10
-6.3385087129
 20
-19.7649747733
 30
0.0
 10
-6.3021596573
 20
-19.7529966737
 30
0.0
 10
-6.2679510568
 20
-19.7365420175
 30
0.0
 11
-6.3757451292
 21
-19.7726733621
 31
0.0
 11
-6.2679510568
 21
-19.7365420175
 31
0.0
  0
SPLINE
  5
463
100
AcDbEntity
  8
RACCORDO
100
AcDbSpline
 62
253
  6
CONTINUOUS
 70
0
 71
3
 72
9
 73
5
 74
3
 42
0.0000001
 43
0.0000001
 44
0.0000000001
 12
0.0387534079
 22
-0.0630887806
 32
0.0
 13
-0.0389516357
 23
-0.0618238842
 33
0.0
 40
0.0
 40
0.0
 40
0.0
 40
0.0
 40
0.7035255856
 40
1.0
 40
1.0
 40
1.0
 40
1.0
 10
-18.9123504525
 20
26.8543205567
 30
0.0
 10
-18.9032624478
 20
26.8395256996
 30
0.0
 10
-18.8878703445
 20
26.8183067126
 30
0.0
 10
-18.8940004433
 20
26.7902040338
 30
0.0
 10
-18.8978498311
 20
26.7840943006
 30
0.0
 11
-18.9123504525
 21
26.8543205567
 31
0.0
 11
-18.8922573471
 21
26.8062624279
 31
0.0
 11
-18.8978498311
 21
26.7840943006
 31
0.0
  0
SPLINE
  5
464
100
AcDbEntity
  8
RACCORDO
100
AcDbSpline
 62
253
  6
CONTINUOUS
 70
0
 71
3
 72
9
 73
5
 74
3
 42
0.0000001
 43
0.0000001
 44
0.0000000001
 12
0.0008899793
 22
0.1889076232
 32
0.0
 13
-0.09529658
 23
0.1635452566
 33
0.0
 40
0.0
 40
0.0
 40
0.0
 40
0.0
 40
0.482283622
 40
1.0
 40
1.0
 40
1.0
 40
1.0
 10
-18.9123504525
 20
27.2018520734
 30
0.0
 10
-18.9122073783
 20
27.232221091
 30
0.0
 10
-18.9224948284
 20
27.2953549236
 30
0.0
 10
-18.947735038
 20
27.3536410377
 30
0.0
 10
-18.9641805714
 20
27.3818643903
 30
0.0
 11
-18.9123504525
 21
27.2018520734
 31
0.0
 11
-18.92560829
 21
27.2919903507
 31
0.0
 11
-18.9641805714
 21
27.3818643903
 31
0.0
  0
SPLINE
  5
465
100
AcDbEntity
  8
RACCORDO
100
AcDbSpline
 62
253
  6
CONTINUOUS
 70
0
 71
3
 72
9
 73
5
 74
3
 42
0.0000001
 43
0.0000001
 44
0.0000000001
 12
-0.0768286997
 22
0.1318512103
 32
0.0
 13
-0.1279766292
 23
0.0833199333
 33
0.0
 40
0.0
 40
0.0
 40
0.0
 40
0.0
 40
0.6259924643
 40
1.0
 40
1.0
 40
1.0
 40
1.0
 10
-18.9641805714
 20
27.3818643903
 30
0.0
 10
-18.9802119671
 20
27.4093770116
 30
0.0
 10
-19.0109498068
 20
27.4503637483
 30
0.0
 10
-19.0504679802
 20
27.4833724242
 30
0.0
 10
-19.0664227215
 20
27.4937598519
 30
0.0
 11
-18.9641805714
 21
27.3818643903
 31
0.0
 11
-19.0221359984
 21
27.457565453
 31
0.0
 11
-19.0664227215
 21
27.4937598519
 31
0.0
  0
SPLINE
  5
466
100
AcDbEntity
  8
RACCORDO
100
AcDbSpline
 62
7
  6
CONTINUOUS
 70
0
 71
3
 72
8
 73
4
 74
2
 42
0.0000001
 43
0.0000001
 44
0.0000000001
 12
0.0015532391
 22
-0.0304928421
 32
0.0
 13
0.0046192167
 23
-0.030189134
 33
0.0
 40
0.0
 40
0.0
 40
0.0
 40
0.0
 40
1.0
 40
1.0
 40
1.0
 40
1.0
 10
-17.2162011153
 20
24.81178613
 30
0.0
 10
-17.215683369
 20
24.8016218493
 30
0.0
 10
-17.2145015857
 20
24.7914382993
 30
0.0
 10
-17.2129618468
 20
24.7813752546
 30
0.0
 11
-17.2162011153
 21
24.81178613
 31
0.0
 11
-17.2129618468
 21
24.7813752546
 31
0.0
  0
SPLINE
  5
467
100
AcDbEntity
  8
RACCORDO
100
AcDbSpline
 62
7
  6
CONTINUOUS
 70
0
 71
3
 72
10
 73
6
 74
4
 42
0.0000001
 43
0.0000001
 44
0.0000000001
 12
0.0517490772
 22
-0.3382088229
 32
0.0
 13
0.2084338308
 23
-0.2656690665
 33
0.0
 40
0.0
 40
0.0
 40
0.0
 40
0.0
 40
0.3047324504
 40
0.6441132884
 40
1.0
 40
1.0
 40
1.0
 40
1.0
 10
-17.2129618468
 20
24.7813752546
 30
0.0
 10
-17.2077053058
 20
24.7470208535
 30
0.0
 10
-17.1877763759
 20
24.6773745495
 30
0.0
 10
-17.1384933574
 20
24.5754447263
 30
0.0
 10
-17.0944732874
 20
24.5104333771
 30
0.0
 10
-17.0697470105
 20
24.478917347
 30
0.0
 11
-17.2129618468
 21
24.7813752546
 31
0.0
 11
-17.1862039005
 21
24.6820144972
 31
0.0
 11
-17.1369824411
 21
24.5785227544
 31
0.0
 11
-17.0697470105
 21
24.478917347
 31
0.0
  0
SPLINE
  5
468
100
AcDbEntity
  8
RACCORDO
100
AcDbSpline
 62
253
  6
CONTINUOUS
 70
0
 71
3
 72
9
 73
5
 74
3
 42
0.0000001
 43
0.0000001
 44
0.0000000001
 12
-0.1032829872
 22
0.0499301224
 32
0.0
 13
-0.1016986035
 23
-0.0501246629
 33
0.0
 40
0.0
 40
0.0
 40
0.0
 40
0.0
 40
0.3961259987
 40
1.0
 40
1.0
 40
1.0
 40
1.0
 10
-5.6142893008
 20
20.8311118165
 30
0.0
 10
-5.6279269929
 20
20.8377046897
 30
0.0
 10
-5.6666461322
 20
20.846460388
 30
0.0
 10
-5.7043349442
 20
20.8346721903
 30
0.0
 10
-5.7248059917
 20
20.8245825301
 30
0.0
 11
-5.6142893008
 21
20.8311118165
 31
0.0
 11
-5.6584406337
 21
20.8414177471
 31
0.0
 11
-5.7248059917
 21
20.8245825301
 31
0.0
  0
SPLINE
  5
469
100
AcDbEntity
  8
RACCORDO
100
AcDbSpline
 62
7
  6
CONTINUOUS
 70
0
 71
3
 72
12
 73
8
 74
6
 42
0.0000001
 43
0.0000001
 44
0.0000000001
 12
-0.2284925148
 22
-0.2735627587
 32
0.0
 13
-0.352533439
 23
0.0725054033
 33
0.0
 40
0.0
 40
0.0
 40
0.0
 40
0.0
 40
0.2287814123
 40
0.4651190808
 40
0.6980474888
 40
0.9171060202
 40
1.0
 40
1.0
 40
1.0
 40
1.0
 10
-20.330677807
 20
25.6472137929
 30
0.0
 10
-20.3481027537
 20
25.6263517682
 30
0.0
 10
-20.3878953789
 20
25.5874261311
 30
0.0
 10
-20.4575269498
 20
25.5414492423
 30
0.0
 10
-20.5342756302
 20
25.5111937828
 30
0.0
 10
-20.5980715074
 20
25.5030280039
 30
0.0
 10
-20.6342375438
 20
25.5074880093
 30
0.0
 10
-20.6439785103
 20
25.5094914297
 30
0.0
 11
-20.330677807
 21
25.6472137929
 31
0.0
 11
-20.3888466795
 21
25.5900643583
 31
0.0
 11
-20.459265458
 21
25.5438325527
 31
0.0
 11
-20.5367548836
 21
25.5140278638
 31
0.0
 11
-20.6143919105
 21
25.5057227715
 31
0.0
 11
-20.6439785103
 21
25.5094914297
 31
0.0
  0
SPLINE
  5
46A
100
AcDbEntity
  8
RACCORDO
100
AcDbSpline
 62
253
  6
CONTINUOUS
 70
0
 71
3
 72
10
 73
6
 74
4
 42
0.0000001
 43
0.0000001
 44
0.0000000001
 12
-0.084189407
 22
-0.2191734365
 32
0.0
 13
-0.232079946
 23
-0.0465837423
 33
0.0
 40
0.0
 40
0.0
 40
0.0
 40
0.0
 40
0.4019490033
 40
0.7725721677
 40
1.0
 40
1.0
 40
1.0
 40
1.0
 10
-21.0418984151
 20
25.7957173158
 30
0.0
 10
-21.0531783645
 20
25.766351801
 30
0.0
 10
-21.0835307219
 20
25.712672979
 30
0.0
 10
-21.1439861268
 20
25.6601771724
 30
0.0
 10
-21.1887851858
 20
25.6433433381
 30
0.0
 10
-21.2063789988
 20
25.6398118583
 30
0.0
 11
-21.0418984151
 21
25.7957173158
 31
0.0
 11
-21.0891881588
 21
25.7140483707
 31
0.0
 11
-21.155962657
 21
25.6582523105
 31
0.0
 11
-21.2063789988
 21
25.6398118583
 31
0.0
  0
SPLINE
  5
46B
100
AcDbEntity
  8
RACCORDO
100
AcDbSpline
 62
253
  6
CONTINUOUS
 70
0
 71
3
 72
9
 73
5
 74
3
 42
0.0000001
 43
0.0000001
 44
0.0000000001
 12
-0.0613740299
 22
-0.0123191686
 32
0.0
 13
-0.0615800992
 23
0.0128393748
 33
0.0
 40
0.0
 40
0.0
 40
0.0
 40
0.0
 40
0.4139203318
 40
1.0
 40
1.0
 40
1.0
 40
1.0
 10
-21.2063789988
 20
25.6398118583
 30
0.0
 10
-21.2148469851
 20
25.6381121401
 30
0.0
 10
-21.2356170341
 20
25.6356120388
 30
0.0
 10
-21.2566903265
 20
25.6374900186
 30
0.0
 10
-21.2687206078
 20
25.6399983175
 30
0.0
 11
-21.2063789988
 21
25.6398118583
 31
0.0
 11
-21.232093231
 21
25.6367925514
 31
0.0
 11
-21.2687206078
 21
25.6399983175
 31
0.0
  0
SPLINE
  5
46C
100
AcDbEntity
  8
RACCORDO
100
AcDbSpline
 62
253
  6
CONTINUOUS
 70
0
 71
3
 72
9
 73
5
 74
3
 42
0.0000001
 43
0.0000001
 44
0.0000000001
 12
-0.1065991214
 22
0.0532995607
 32
0.0
 13
0.0001011167
 23
0.11838275
 33
0.0
 40
0.0
 40
0.0
 40
0.0
 40
0.0
 40
0.5668907358
 40
1.0
 40
1.0
 40
1.0
 40
1.0
 10
-9.3550868901
 20
19.7765632973
 30
0.0
 10
-9.3752302416
 20
19.7866349731
 30
0.0
 10
-9.409658531
 20
19.8084405382
 30
0.0
 10
-9.4283246681
 20
19.847860758
 30
0.0
 10
-9.4283100699
 20
19.8649516466
 30
0.0
 11
-9.3550868901
 21
19.7765632973
 31
0.0
 11
-9.4091989925
 21
19.8170184542
 31
0.0
 11
-9.4283100699
 21
19.8649516466
 31
0.0
  0
SPLINE
  5
46D
100
AcDbEntity
  8
RACCORDO
100
AcDbSpline
 62
253
  6
CONTINUOUS
 70
0
 71
3
 72
9
 73
5
 74
3
 42
0.0000001
 43
0.0000001
 44
0.0000000001
 12
-0.1066082657
 22
0.0533041328
 32
0.0
 13
0.0001795774
 23
0.1184026244
 33
0.0
 40
0.0
 40
0.0
 40
0.0
 40
0.0
 40
0.5660979181
 40
1.0
 40
1.0
 40
1.0
 40
1.0
 10
-9.3550868901
 20
20.1165372315
 30
0.0
 10
-9.3752037959
 20
20.1265956843
 30
0.0
 10
-9.4096250375
 20
20.1484016111
 30
0.0
 10
-9.4283357736
 20
20.1878005301
 30
0.0
 10
-9.4283098006
 20
20.2049255785
 30
0.0
 11
-9.3550868901
 21
20.1165372315
 31
0.0
 11
-9.4091406861
 21
20.1569222347
 31
0.0
 11
-9.4283098006
 21
20.2049255785
 31
0.0
  0
SPLINE
  5
46E
100
AcDbEntity
  8
RACCORDO
100
AcDbSpline
 62
253
  6
CONTINUOUS
 70
0
 71
3
 72
9
 73
5
 74
3
 42
0.0000001
 43
0.0000001
 44
0.0000000001
 12
-0.1040116458
 22
0.0513999346
 32
0.0
 13
-0.1050164757
 23
-0.0523709623
 33
0.0
 40
0.0
 40
0.0
 40
0.0
 40
0.0
 40
0.6065614381
 40
1.0
 40
1.0
 40
1.0
 40
1.0
 10
-9.1793386341
 20
20.4209140464
 30
0.0
 10
-9.200368452
 20
20.4313064525
 30
0.0
 10
-9.2390015125
 20
20.4433882391
 30
0.0
 10
-9.2785768106
 20
20.4340833973
 30
0.0
 10
-9.292349321
 20
20.4272151453
 30
0.0
 11
-9.1793386341
 21
20.4209140464
 31
0.0
 11
-9.2475817665
 21
20.4380946448
 31
0.0
 11
-9.292349321
 21
20.4272151453
 31
0.0
  0
SPLINE
  5
46F
100
AcDbEntity
  8
RACCORDO
100
AcDbSpline
 62
7
  6
CONTINUOUS
 70
0
 71
3
 72
9
 73
5
 74
3
 42
0.0000001
 43
0.0000001
 44
0.0000000001
 12
-0.1023089032
 22
0.0505585467
 32
0.0
 13
-0.1043540979
 23
-0.0494770179
 33
0.0
 40
0.0
 40
0.0
 40
0.0
 40
0.0
 40
0.6142757471
 40
1.0
 40
1.0
 40
1.0
 40
1.0
 10
-7.596582031
 20
21.2328981438
 30
0.0
 10
-7.617530657
 20
21.2432504401
 30
0.0
 10
-7.6555017615
 20
21.2551426717
 30
0.0
 10
-7.6944378705
 20
21.2464191889
 30
0.0
 10
-7.7078551726
 20
21.2400576936
 30
0.0
 11
-7.596582031
 21
21.2328981438
 31
0.0
 11
-7.6645442438
 21
21.2500816347
 31
0.0
 11
-7.7078551726
 21
21.2400576936
 31
0.0
  0
SPLINE
  5
470
100
AcDbEntity
  8
RACCORDO
100
AcDbSpline
 62
7
  6
CONTINUOUS
 70
0
 71
3
 72
12
 73
8
 74
6
 42
0.0000001
 43
0.0000001
 44
0.0000000001
 12
-0.3670335496
 22
0.0766434959
 32
0.0
 13
-0.3353658921
 23
0.1676829461
 33
0.0
 40
0.0
 40
0.0
 40
0.0
 40
0.0
 40
0.1600953599
 40
0.356214479
 40
0.5748206836
 40
0.7975627619
 40
1.0
 40
1.0
 40
1.0
 40
1.0
 10
8.9435429342
 20
-29.289500717
 30
0.0
 10
8.9239561447
 20
-29.2854106277
 30
0.0
 10
8.8807679349
 20
-29.2744511697
 30
0.0
 10
8.8120498675
 20
-29.2534372148
 30
0.0
 10
8.736858469
 20
-29.2270220979
 30
0.0
 10
8.6620398264
 20
-29.1973598963
 30
0.0
 10
8.6136511562
 20
-29.175303084
 30
0.0
 10
8.5910209745
 20
-29.1639879932
 30
0.0
 11
8.9435429342
 21
-29.289500717
 31
0.0
 11
8.885257506
 21
-29.2751428198
 31
0.0
 11
8.8148859287
 21
-29.2538066831
 31
0.0
 11
8.7375343462
 21
-29.2266913823
 31
0.0
 11
8.6599611751
 21
-29.195747344
 31
0.0
 11
8.5910209745
 21
-29.1639879932
 31
0.0
  0
SPLINE
  5
471
100
AcDbEntity
  8
RACCORDO
100
AcDbSpline
 62
253
  6
CONTINUOUS
 70
0
 71
3
 72
9
 73
5
 74
3
 42
0.0000001
 43
0.0000001
 44
0.0000000001
 12
-0.0963732753
 22
0.0487465645
 32
0.0
 13
-0.1015038951
 23
-0.0413985115
 33
0.0
 40
0.0
 40
0.0
 40
0.0
 40
0.0
 40
0.6441511521
 40
1.0
 40
1.0
 40
1.0
 40
1.0
 10
-7.0621321523
 20
21.4932456103
 30
0.0
 10
-7.0828251377
 20
21.5037123289
 30
0.0
 10
-7.118740563
 20
21.515246309
 30
0.0
 10
-7.15554484
 20
21.5079163298
 30
0.0
 10
-7.1675848547
 20
21.5030057922
 30
0.0
 11
-7.0621321523
 21
21.4932456103
 31
0.0
 11
-7.1294638747
 21
21.5107443461
 31
0.0
 11
-7.1675848547
 21
21.5030057922
 31
0.0
  0
SPLINE
  5
472
100
AcDbEntity
  8
RACCORDO
100
AcDbSpline
 62
253
  6
CONTINUOUS
 70
0
 71
3
 72
11
 73
7
 74
5
 42
0.0000001
 43
0.0000001
 44
0.0000000001
 12
-0.1867735371
 22
0.3016216705
 32
0.0
 13
-0.3163613297
 23
0.1605474863
 33
0.0
 40
0.0
 40
0.0
 40
0.0
 40
0.0
 40
0.2176681647
 40
0.482099381
 40
0.7556293202
 40
1.0
 40
1.0
 40
1.0
 40
1.0
 10
8.2323223261
 20
-30.1409971942
 30
0.0
 10
8.218770775
 20
-30.1191127157
 30
0.0
 10
8.1828373624
 20
-30.0744039683
 30
0.0
 10
8.1187868453
 20
-30.0119318637
 30
0.0
 10
8.0460606865
 20
-29.9545003349
 30
0.0
 10
7.9939585251
 20
-29.9218679959
 30
0.0
 10
7.9681887141
 20
-29.9087902965
 30
0.0
 11
8.2323223261
 21
-30.1409971942
 31
0.0
 11
8.1853175626
 21
-30.0797295305
 31
0.0
 11
8.118492745
 21
-30.0138883515
 31
0.0
 11
8.0422460355
 21
-29.9538624344
 31
0.0
 11
7.9681887141
 21
-29.9087902965
 31
0.0
  0
SPLINE
  5
473
100
AcDbEntity
  8
RACCORDO
100
AcDbSpline
 62
253
  6
CONTINUOUS
 70
0
 71
3
 72
11
 73
7
 74
5
 42
0.0000001
 43
0.0000001
 44
0.0000000001
 12
0.3239339718
 22
-0.1619669859
 32
0.0
 13
0.3246816944
 23
0.1604628304
 33
0.0
 40
0.0
 40
0.0
 40
0.0
 40
0.0
 40
0.2351714904
 40
0.499579122
 40
0.7642132407
 40
1.0
 40
1.0
 40
1.0
 40
1.0
 10
7.8798003664
 20
-30.4804584044
 30
0.0
 10
7.9051937114
 20
-30.4931550769
 30
0.0
 10
7.9635378293
 20
-30.5112995343
 30
0.0
 10
8.0558729006
 20
-30.520055109
 30
0.0
 10
8.1483072363
 20
-30.5115531023
 30
0.0
 10
8.2068037779
 20
-30.4935827985
 30
0.0
 10
8.2323223261
 20
-30.4809711283
 30
0.0
 11
7.8798003664
 21
-30.4804584044
 31
0.0
 11
7.9605703728
 21
-30.5074853024
 31
0.0
 11
8.0558498422
 21
-30.5170695279
 31
0.0
 11
8.151239216
 21
-30.5077626198
 31
0.0
 11
8.2323223261
 21
-30.4809711283
 31
0.0
  0
SPLINE
  5
474
100
AcDbEntity
  8
RACCORDO
100
AcDbSpline
 62
253
  6
CONTINUOUS
 70
0
 71
3
 72
11
 73
7
 74
5
 42
0.0000001
 43
0.0000001
 44
0.0000000001
 12
0.3239339718
 22
-0.1619669859
 32
0.0
 13
0.3246816944
 23
0.1604628304
 33
0.0
 40
0.0
 40
0.0
 40
0.0
 40
0.0
 40
0.2351714904
 40
0.499579122
 40
0.7642132407
 40
1.0
 40
1.0
 40
1.0
 40
1.0
 10
7.8798003664
 20
-30.1404844703
 30
0.0
 10
7.9051937114
 20
-30.1531811428
 30
0.0
 10
7.9635378293
 20
-30.1713256001
 30
0.0
 10
8.0558729006
 20
-30.1800811749
 30
0.0
 10
8.1483072363
 20
-30.1715791682
 30
0.0
 10
8.2068037779
 20
-30.1536088644
 30
0.0
 10
8.2323223261
 20
-30.1409971942
 30
0.0
 11
7.8798003664
 21
-30.1404844703
 31
0.0
 11
7.9605703728
 21
-30.1675113683
 31
0.0
 11
8.0558498422
 21
-30.1770955938
 31
0.0
 11
8.151239216
 21
-30.1677886857
 31
0.0
 11
8.2323223261
 21
-30.1409971942
 31
0.0
  0
SPLINE
  5
475
100
AcDbEntity
  8
RACCORDO
100
AcDbSpline
 62
253
  6
CONTINUOUS
 70
0
 71
3
 72
9
 73
5
 74
3
 42
0.0000001
 43
0.0000001
 44
0.0000000001
 12
0.0457010842
 22
0.120635239
 32
0.0
 13
-0.0064504073
 23
0.1294276002
 33
0.0
 40
0.0
 40
0.0
 40
0.0
 40
0.0
 40
0.7511314421
 40
1.0
 40
1.0
 40
1.0
 40
1.0
 10
10.3618702886
 20
-29.0823939532
 30
0.0
 10
10.3733127957
 20
-29.0521896462
 30
0.0
 10
10.3823958307
 20
-29.0093621331
 30
0.0
 10
10.3825629054
 20
-28.9660805665
 30
0.0
 10
10.3820278042
 20
-28.9553437464
 30
0.0
 11
10.3618702886
 21
-29.0823939532
 31
0.0
 11
10.3819275311
 21
-28.9875952866
 31
0.0
 11
10.3820278042
 21
-28.9553437464
 31
0.0
  0
SPLINE
  5
476
100
AcDbEntity
  8
RACCORDO
100
AcDbSpline
 62
253
  6
CONTINUOUS
 70
0
 71
3
 72
8
 73
4
 74
2
 42
0.0000001
 43
0.0000001
 44
0.0000000001
 12
-0.0031374355
 22
0.06295273
 32
0.0
 13
-0.0169020461
 23
0.0607549683
 33
0.0
 40
0.0
 40
0.0
 40
0.0
 40
0.0
 40
1.0
 40
1.0
 40
1.0
 40
1.0
 10
10.3820278042
 20
-28.9553437464
 30
0.0
 10
10.3809819924
 20
-28.9343595031
 30
0.0
 10
10.3777334023
 20
-28.9135074271
 30
0.0
 10
10.3720993869
 20
-28.8932557709
 30
0.0
 11
10.3820278042
 21
-28.9553437464
 31
0.0
 11
10.3720993869
 21
-28.8932557709
 31
0.0
  0
SPLINE
  5
477
100
AcDbEntity
  8
RACCORDO
100
AcDbSpline
 62
253
  6
CONTINUOUS
 70
0
 71
3
 72
9
 73
5
 74
3
 42
0.0000001
 43
0.0000001
 44
0.0000000001
 12
-0.0433544901
 22
0.1055279023
 32
0.0
 13
-0.0933559639
 23
0.0656992635
 33
0.0
 40
0.0
 40
0.0
 40
0.0
 40
0.0
 40
0.5080012259
 40
1.0
 40
1.0
 40
1.0
 40
1.0
 10
10.362285516
 20
-28.8645617905
 30
0.0
 10
10.354944138
 20
-28.846692356
 30
0.0
 10
10.3363039993
 20
-28.8132571217
 30
0.0
 10
10.3085589099
 20
-28.7860454937
 30
0.0
 10
10.29324857
 20
-28.7752708413
 30
0.0
 11
10.362285516
 21
-28.8645617905
 31
0.0
 11
10.33365604
 21
-28.8143281724
 31
0.0
 11
10.29324857
 21
-28.7752708413
 31
0.0
  0
SPLINE
  5
478
100
AcDbEntity
  8
RACCORDO
100
AcDbSpline
 62
253
  6
CONTINUOUS
 70
0
 71
3
 72
9
 73
5
 74
3
 42
0.0000001
 43
0.0000001
 44
0.0000000001
 12
0.0387807665
 22
-0.0631333192
 32
0.0
 13
-0.0389120561
 23
-0.0616129602
 33
0.0
 40
0.0
 40
0.0
 40
0.0
 40
0.0
 40
0.6995530358
 40
1.0
 40
1.0
 40
1.0
 40
1.0
 10
-5.5480322881
 20
20.1721614745
 30
0.0
 10
-5.5389892204
 20
20.1574397728
 30
0.0
 10
-5.5236849196
 20
20.1362731189
 30
0.0
 10
-5.5296284901
 20
20.1080406945
 30
0.0
 10
-5.5335254932
 20
20.1018702189
 30
0.0
 11
-5.5480322881
 21
20.1721614745
 31
0.0
 11
-5.5279750456
 21
20.1243675713
 31
0.0
 11
-5.5335254932
 21
20.1018702189
 31
0.0
  0
SPLINE
  5
479
100
AcDbEntity
  8
RACCORDO
100
AcDbSpline
 62
253
  6
CONTINUOUS
 70
0
 71
3
 72
10
 73
6
 74
4
 42
0.0000001
 43
0.0000001
 44
0.0000000001
 12
0.0
 22
-0.1564740151
 32
0.0
 13
0.1424586975
 23
-0.0693254778
 33
0.0
 40
0.0
 40
0.0
 40
0.0
 40
0.0
 40
0.4857576856
 40
0.8957117118
 40
1.0
 40
1.0
 40
1.0
 40
1.0
 10
6.5548156866
 20
-29.8179660645
 30
0.0
 10
6.5548156866
 20
-29.8433022163
 30
0.0
 10
6.5610307708
 20
-29.8906489575
 30
0.0
 10
6.5915838395
 20
-29.9366954651
 30
0.0
 10
6.614899986
 20
-29.9505987935
 30
0.0
 10
6.6198522439
 20
-29.9530087387
 30
0.0
 11
6.5548156866
 21
-29.8179660645
 31
0.0
 11
6.567777565
 21
-29.8928611578
 31
0.0
 11
6.6057557167
 21
-29.944557552
 31
0.0
 11
6.6198522439
 21
-29.9530087387
 31
0.0
  0
SPLINE
  5
47A
100
AcDbEntity
  8
RACCORDO
100
AcDbSpline
 62
253
  6
CONTINUOUS
 70
0
 71
3
 72
10
 73
6
 74
4
 42
0.0000001
 43
0.0000001
 44
0.0000000001
 12
0.0
 22
-0.156491039
 32
0.0
 13
0.1424876246
 23
-0.0693084301
 33
0.0
 40
0.0
 40
0.0
 40
0.0
 40
0.0
 40
0.4857048422
 40
0.8956142714
 40
1.0
 40
1.0
 40
1.0
 40
1.0
 10
7.8798003664
 20
-30.4804584044
 30
0.0
 10
7.8798003664
 20
-30.5057945562
 30
0.0
 10
7.8860154507
 20
-30.5531412974
 30
0.0
 10
7.9165718434
 20
-30.5991928147
 30
0.0
 10
7.939894532
 20
-30.613097016
 30
0.0
 10
7.9448524235
 20
-30.6155086197
 30
0.0
 11
7.8798003664
 21
-30.4804584044
 31
0.0
 11
7.8927622448
 21
-30.5553534977
 31
0.0
 11
7.9307403965
 21
-30.6070498919
 31
0.0
 11
7.9448524235
 21
-30.6155086197
 31
0.0
  0
SPLINE
  5
47B
100
AcDbEntity
  8
RACCORDO
100
AcDbSpline
 62
253
  6
CONTINUOUS
 70
0
 71
3
 72
9
 73
5
 74
3
 42
0.0000001
 43
0.0000001
 44
0.0000000001
 12
0.0008855331
 22
0.1879638671
 32
0.0
 13
-0.0944249264
 23
0.1629389431
 33
0.0
 40
0.0
 40
0.0
 40
0.0
 40
0.0
 40
0.4825030098
 40
1.0
 40
1.0
 40
1.0
 40
1.0
 10
-5.5480322881
 20
20.5196929912
 30
0.0
 10
-5.5478898639
 20
20.5499240351
 30
0.0
 10
-5.5580796478
 20
20.6127416295
 30
0.0
 10
-5.5830960485
 20
20.6707760661
 30
0.0
 10
-5.5993842535
 20
20.6988828703
 30
0.0
 11
-5.5480322881
 21
20.5196929912
 31
0.0
 11
-5.5611748388
 21
20.6094298289
 31
0.0
 11
-5.5993842535
 21
20.6988828703
 31
0.0
  0
SPLINE
  5
47C
100
AcDbEntity
  8
RACCORDO
100
AcDbSpline
 62
253
  6
CONTINUOUS
 70
0
 71
3
 72
9
 73
5
 74
3
 42
0.0000001
 43
0.0000001
 44
0.0000000001
 12
-0.0766777692
 22
0.1323145819
 32
0.0
 13
-0.1280657459
 23
0.0838317777
 33
0.0
 40
0.0
 40
0.0
 40
0.0
 40
0.0
 40
0.6218576083
 40
1.0
 40
1.0
 40
1.0
 40
1.0
 10
-5.5993842535
 20
20.6988828703
 30
0.0
 10
-5.6152784716
 20
20.7263098134
 30
0.0
 10
-5.6459555532
 20
20.7674657636
 30
0.0
 10
-5.6854551253
 20
20.8007040504
 30
0.0
 10
-5.7015974878
 20
20.8112708334
 30
0.0
 11
-5.5993842535
 21
20.6988828703
 31
0.0
 11
-5.6568437426
 21
20.77443428
 31
0.0
 11
-5.7015974878
 21
20.8112708334
 31
0.0
  0
SPLINE
  5
47D
100
AcDbEntity
  8
RACCORDO
100
AcDbSpline
 62
253
  6
CONTINUOUS
 70
0
 71
3
 72
8
 73
4
 74
2
 42
0.0000001
 43
0.0000001
 44
0.0000000001
 12
-0.02243743
 22
0.0146875313
 32
0.0
 13
-0.0239740436
 23
0.0118493444
 33
0.0
 40
0.0
 40
0.0
 40
0.0
 40
0.0
 40
1.0
 40
1.0
 40
1.0
 40
1.0
 10
-5.7015974878
 20
20.8112708334
 30
0.0
 10
-5.7090766311
 20
20.8161666771
 30
0.0
 10
-5.7168146439
 20
20.8206327486
 30
0.0
 10
-5.7248059917
 20
20.8245825301
 30
0.0
 11
-5.7015974878
 21
20.8112708334
 31
0.0
 11
-5.7248059917
 21
20.8245825301
 31
0.0
  0
SPLINE
  5
47E
100
AcDbEntity
  8
RACCORDO
100
AcDbSpline
 62
253
  6
CONTINUOUS
 70
0
 71
3
 72
11
 73
7
 74
5
 42
0.0000001
 43
0.0000001
 44
0.0000000001
 12
-0.001756354
 22
0.3667459834
 32
0.0
 13
-0.3272562557
 23
0.1655567704
 33
0.0
 40
0.0
 40
0.0
 40
0.0
 40
0.0
 40
0.2466966689
 40
0.5118834295
 40
0.770570014
 40
1.0
 40
1.0
 40
1.0
 40
1.0
 10
-7.6775802506
 20
19.4535321677
 30
0.0
 10
-7.6777246795
 20
19.4836905052
 30
0.0
 10
-7.6883770475
 20
19.5463198353
 30
0.0
 10
-7.7261964959
 20
19.6334455931
 30
0.0
 10
-7.7815109902
 20
19.7080440418
 30
0.0
 10
-7.8293264883
 20
19.7457604773
 30
0.0
 10
-7.8543539543
 20
19.7584217065
 30
0.0
 11
-7.6775802506
 21
19.4535321677
 31
0.0
 11
-7.6913533282
 21
19.542953742
 31
0.0
 11
-7.7297841539
 21
19.6322960778
 31
0.0
 11
-7.7870222319
 21
19.7079581931
 31
0.0
 11
-7.8543539543
 21
19.7584217065
 31
0.0
  0
SPLINE
  5
47F
100
AcDbEntity
  8
RACCORDO
100
AcDbSpline
 62
7
  6
CONTINUOUS
 70
0
 71
3
 72
11
 73
7
 74
5
 42
0.0000001
 43
0.0000001
 44
0.0000000001
 12
-0.0017561623
 22
0.3667460209
 32
0.0
 13
-0.3272563736
 23
0.1655566186
 33
0.0
 40
0.0
 40
0.0
 40
0.0
 40
0.0
 40
0.2466966781
 40
0.5118834164
 40
0.7705699875
 40
1.0
 40
1.0
 40
1.0
 40
1.0
 10
-6.0762994598
 20
20.2562541712
 30
0.0
 10
-6.0764438729
 20
20.2864125129
 30
0.0
 10
-6.0870962166
 20
20.3490418523
 30
0.0
 10
-6.1249156373
 20
20.4361676324
 30
0.0
 10
-6.1802301653
 20
20.5107660704
 30
0.0
 10
-6.2280456855
 20
20.548482491
 30
0.0
 10
-6.2530731635
 20
20.56114371
 30
0.0
 11
-6.0762994598
 21
20.2562541712
 31
0.0
 11
-6.0900725006
 21
20.3456757637
 31
0.0
 11
-6.1285033051
 21
20.4350181104
 31
0.0
 11
-6.1857414046
 21
20.5106802151
 31
0.0
 11
-6.2530731635
 21
20.56114371
 31
0.0
  0
SPLINE
  5
480
100
AcDbEntity
  8
RACCORDO
100
AcDbSpline
 62
253
  6
CONTINUOUS
 70
0
 71
3
 72
11
 73
7
 74
5
 42
0.0000001
 43
0.0000001
 44
0.0000000001
 12
0.323935073
 22
-0.1619675365
 32
0.0
 13
0.3246827982
 23
0.1604633758
 33
0.0
 40
0.0
 40
0.0
 40
0.0
 40
0.0
 40
0.2362663305
 40
0.5021885878
 40
0.7680504865
 40
1.0
 40
1.0
 40
1.0
 40
1.0
 10
-8.0301022103
 20
19.4540448916
 30
0.0
 10
-8.00459056
 20
19.4412890664
 30
0.0
 10
-7.9459230874
 20
19.4230880718
 30
0.0
 10
-7.8531104727
 20
19.414418033
 30
0.0
 10
-7.7608116344
 20
19.4231184158
 30
0.0
 10
-7.7026835897
 20
19.4411257004
 30
0.0
 10
-7.6775802506
 20
19.4535321677
 30
0.0
 11
-8.0301022103
 21
19.4540448916
 31
0.0
 11
-7.9489409451
 21
19.426936822
 31
0.0
 11
-7.8531018076
 21
19.4174332892
 31
0.0
 11
-7.7572932554
 21
19.4270233121
 31
0.0
 11
-7.6775802506
 21
19.4535321677
 31
0.0
  0
SPLINE
  5
481
100
AcDbEntity
  8
RACCORDO
100
AcDbSpline
 62
253
  6
CONTINUOUS
 70
0
 71
3
 72
11
 73
7
 74
5
 42
0.0000001
 43
0.0000001
 44
0.0000000001
 12
0.3239343427
 22
-0.1619671713
 32
0.0
 13
0.3246820661
 23
0.1604630141
 33
0.0
 40
0.0
 40
0.0
 40
0.0
 40
0.0
 40
0.2355641544
 40
0.5004433916
 40
0.765454133
 40
1.0
 40
1.0
 40
1.0
 40
1.0
 10
-8.0301022103
 20
19.1140709574
 30
0.0
 10
-8.0046664371
 20
19.1013530708
 30
0.0
 10
-7.9462147294
 20
19.0831908765
 30
0.0
 10
-7.8537252171
 20
19.0744647543
 30
0.0
 10
-7.7613394721
 20
19.0830312768
 30
0.0
 10
-7.7029645295
 20
19.1010129213
 30
0.0
 10
-7.6775802506
 20
19.1135582336
 30
0.0
 11
-8.0301022103
 21
19.1140709574
 31
0.0
 11
-7.9491918966
 21
19.0870149063
 31
0.0
 11
-7.8537377686
 21
19.077459475
 31
0.0
 11
-7.7582201721
 21
19.0868576466
 31
0.0
 11
-7.6775802506
 21
19.1135582336
 31
0.0
  0
SPLINE
  5
482
100
AcDbEntity
  8
RACCORDO
100
AcDbSpline
 62
253
  6
CONTINUOUS
 70
0
 71
3
 72
10
 73
6
 74
4
 42
0.0000001
 43
0.0000001
 44
0.0000000001
 12
0.0
 22
-0.1565857044
 32
0.0
 13
0.1420456113
 23
-0.0715482561
 33
0.0
 40
0.0
 40
0.0
 40
0.0
 40
0.0
 40
0.4461395578
 40
0.8209928008
 40
1.0
 40
1.0
 40
1.0
 40
1.0
 10
-8.0301022103
 20
19.1140709574
 30
0.0
 10
-8.0301022103
 20
19.0907845985
 30
0.0
 10
-8.0246671653
 20
19.0474550264
 30
0.0
 10
-7.9979973372
 20
19.0002628013
 30
0.0
 10
-7.9735513242
 20
18.9832470995
 30
0.0
 10
-7.9650755952
 20
18.9789778819
 30
0.0
 11
-8.0301022103
 21
19.1140709574
 31
0.0
 11
-8.0193344089
 21
19.045046722
 31
0.0
 11
-7.9883425919
 21
18.9951989029
 31
0.0
 11
-7.9650755952
 21
18.9789778819
 31
0.0
  0
SPLINE
  5
483
100
AcDbEntity
  8
RACCORDO
100
AcDbSpline
 62
253
  6
CONTINUOUS
 70
0
 71
3
 72
9
 73
5
 74
3
 42
0.0000001
 43
0.0000001
 44
0.0000000001
 12
-0.1066082657
 22
0.0533041328
 32
0.0
 13
0.0001795774
 23
0.1184026244
 33
0.0
 40
0.0
 40
0.0
 40
0.0
 40
0.0
 40
0.5660979181
 40
1.0
 40
1.0
 40
1.0
 40
1.0
 10
6.5548156866
 20
-29.8179660645
 30
0.0
 10
6.5346987808
 20
-29.8079076116
 30
0.0
 10
6.5002775392
 20
-29.7861016849
 30
0.0
 10
6.4815668031
 20
-29.7467027659
 30
0.0
 10
6.4815927761
 20
-29.7295777175
 30
0.0
 11
6.5548156866
 21
-29.8179660645
 31
0.0
 11
6.5007618906
 21
-29.7775810613
 31
0.0
 11
6.4815927761
 21
-29.7295777175
 31
0.0
  0
SPLINE
  5
484
100
AcDbEntity
  8
RACCORDO
100
AcDbSpline
 62
253
  6
CONTINUOUS
 70
0
 71
3
 72
10
 73
6
 74
4
 42
0.0000001
 43
0.0000001
 44
0.0000000001
 12
0.0
 22
-0.1566934698
 32
0.0
 13
0.1422173849
 23
-0.0714387831
 33
0.0
 40
0.0
 40
0.0
 40
0.0
 40
0.0
 40
0.4458327267
 40
0.8204281656
 40
1.0
 40
1.0
 40
1.0
 40
1.0
 10
-9.3550868901
 20
19.7765632973
 30
0.0
 10
-9.3550868901
 20
19.7532769384
 30
0.0
 10
-9.3496518451
 20
19.7099473664
 30
0.0
 10
-9.3229636623
 20
19.6627226626
 30
0.0
 10
-9.2984752365
 20
19.6456971665
 30
0.0
 10
-9.2899624909
 20
19.6414210354
 30
0.0
 11
-9.3550868901
 21
19.7765632973
 31
0.0
 11
-9.3443190887
 21
19.7075390619
 31
0.0
 11
-9.3133272717
 21
19.6576912428
 31
0.0
 11
-9.2899624909
 21
19.6414210354
 31
0.0
  0
SPLINE
  5
485
100
AcDbEntity
  8
RACCORDO
100
AcDbSpline
 62
7
  6
CONTINUOUS
 70
0
 71
3
 72
12
 73
8
 74
6
 42
0.0000001
 43
0.0000001
 44
0.0000000001
 12
-0.2284925148
 22
-0.2735627587
 32
0.0
 13
-0.352533439
 23
0.0725054033
 33
0.0
 40
0.0
 40
0.0
 40
0.0
 40
0.0
 40
0.2287814123
 40
0.4651190808
 40
0.6980474888
 40
0.9171060202
 40
1.0
 40
1.0
 40
1.0
 40
1.0
 10
-6.9663596425
 20
18.9650547107
 30
0.0
 10
-6.9837845893
 20
18.9441926859
 30
0.0
 10
-7.0235772144
 20
18.9052670489
 30
0.0
 10
-7.0932087854
 20
18.8592901601
 30
0.0
 10
-7.1699574658
 20
18.8290347006
 30
0.0
 10
-7.233753343
 20
18.8208689217
 30
0.0
 10
-7.2699193793
 20
18.825328927
 30
0.0
 10
-7.2796603459
 20
18.8273323475
 30
0.0
 11
-6.9663596425
 21
18.9650547107
 31
0.0
 11
-7.0245285151
 21
18.9079052761
 31
0.0
 11
-7.0949472936
 21
18.8616734705
 31
0.0
 11
-7.1724367192
 21
18.8318687816
 31
0.0
 11
-7.250073746
 21
18.8235636893
 31
0.0
 11
-7.2796603459
 21
18.8273323475
 31
0.0
  0
SPLINE
  5
486
100
AcDbEntity
  8
RACCORDO
100
AcDbSpline
 62
253
  6
CONTINUOUS
 70
0
 71
3
 72
10
 73
6
 74
4
 42
0.0000001
 43
0.0000001
 44
0.0000000001
 12
-0.084189407
 22
-0.2191734365
 32
0.0
 13
-0.232079946
 23
-0.0465837423
 33
0.0
 40
0.0
 40
0.0
 40
0.0
 40
0.0
 40
0.4019490033
 40
0.7725721677
 40
1.0
 40
1.0
 40
1.0
 40
1.0
 10
-7.6775802506
 20
19.1135582336
 30
0.0
 10
-7.6888602001
 20
19.0841927188
 30
0.0
 10
-7.7192125574
 20
19.0305138968
 30
0.0
 10
-7.7796679624
 20
18.9780180902
 30
0.0
 10
-7.8244670214
 20
18.9611842559
 30
0.0
 10
-7.8420608344
 20
18.9576527761
 30
0.0
 11
-7.6775802506
 21
19.1135582336
 31
0.0
 11
-7.7248699943
 21
19.0318892885
 31
0.0
 11
-7.7916444926
 21
18.9760932283
 31
0.0
 11
-7.8420608344
 21
18.9576527761
 31
0.0
  0
SPLINE
  5
487
100
AcDbEntity
  8
RACCORDO
100
AcDbSpline
 62
253
  6
CONTINUOUS
 70
0
 71
3
 72
9
 73
5
 74
3
 42
0.0000001
 43
0.0000001
 44
0.0000000001
 12
-0.0613740299
 22
-0.0123191686
 32
0.0
 13
-0.0615800992
 23
0.0128393748
 33
0.0
 40
0.0
 40
0.0
 40
0.0
 40
0.0
 40
0.4139203318
 40
1.0
 40
1.0
 40
1.0
 40
1.0
 10
-7.8420608344
 20
18.9576527761
 30
0.0
 10
-7.8505288207
 20
18.9559530579
 30
0.0
 10
-7.8712988697
 20
18.9534529566
 30
0.0
 10
-7.892372162
 20
18.9553309364
 30
0.0
 10
-7.9044024434
 20
18.9578392353
 30
0.0
 11
-7.8420608344
 21
18.9576527761
 31
0.0
 11
-7.8677750665
 21
18.9546334692
 31
0.0
 11
-7.9044024434
 21
18.9578392353
 31
0.0
  0
SPLINE
  5
488
100
AcDbEntity
  8
RACCORDO
100
AcDbSpline
 62
253
  6
CONTINUOUS
 70
0
 71
3
 72
9
 73
5
 74
3
 42
0.0000001
 43
0.0000001
 44
0.0000000001
 12
0.0
 22
0.1861931158
 32
0.0
 13
0.0928664524
 23
0.1617855074
 33
0.0
 40
0.0
 40
0.0
 40
0.0
 40
0.0
 40
0.4769670577
 40
1.0
 40
1.0
 40
1.0
 40
1.0
 10
-9.3550868901
 20
20.1165372315
 30
0.0
 10
-9.3550868901
 20
20.1461398923
 30
0.0
 10
-9.3449523865
 20
20.2083072929
 30
0.0
 10
-9.3203375979
 20
20.2658623657
 30
0.0
 10
-9.30414686
 20
20.294068749
 30
0.0
 11
-9.3550868901
 21
20.1165372315
 31
0.0
 11
-9.3421250117
 21
20.2043942032
 31
0.0
 11
-9.30414686
 21
20.294068749
 31
0.0
  0
SPLINE
  5
489
100
AcDbEntity
  8
RACCORDO
100
AcDbSpline
 62
253
  6
CONTINUOUS
 70
0
 71
3
 72
9
 73
5
 74
3
 42
0.0000001
 43
0.0000001
 44
0.0000000001
 12
0.0762998484
 22
0.1329243162
 32
0.0
 13
0.1275748667
 23
0.0851719626
 33
0.0
 40
0.0
 40
0.0
 40
0.0
 40
0.0
 40
0.6220683641
 40
1.0
 40
1.0
 40
1.0
 40
1.0
 10
-9.30414686
 20
20.294068749
 30
0.0
 10
-9.2883256194
 20
20.3216314197
 30
0.0
 10
-9.2578016587
 20
20.3630279042
 30
0.0
 10
-9.2184930418
 20
20.3966465145
 30
0.0
 10
-9.2024215157
 20
20.4073762408
 30
0.0
 11
-9.30414686
 21
20.294068749
 31
0.0
 11
-9.2469502487
 21
20.3701245099
 31
0.0
 11
-9.2024215157
 21
20.4073762408
 31
0.0
  0
SPLINE
  5
48A
100
AcDbEntity
  8
RACCORDO
100
AcDbSpline
 62
253
  6
CONTINUOUS
 70
0
 71
3
 72
8
 73
4
 74
2
 42
0.0000001
 43
0.0000001
 44
0.0000000001
 12
0.0223062272
 22
0.0148921586
 32
0.0
 13
0.0238556566
 23
0.0120978084
 33
0.0
 40
0.0
 40
0.0
 40
0.0
 40
0.0
 40
1.0
 40
1.0
 40
1.0
 40
1.0
 10
-9.2024215157
 20
20.4073762408
 30
0.0
 10
-9.1949861067
 20
20.4123402937
 30
0.0
 10
-9.1872905197
 20
20.4168814436
 30
0.0
 10
-9.1793386341
 20
20.4209140464
 30
0.0
 11
-9.2024215157
 21
20.4073762408
 31
0.0
 11
-9.1793386341
 21
20.4209140464
 31
0.0
  0
SPLINE
  5
48B
100
AcDbEntity
  8
RACCORDO
100
AcDbSpline
 62
253
  6
CONTINUOUS
 70
0
 71
3
 72
11
 73
7
 74
5
 42
0.0000001
 43
0.0000001
 44
0.0000000001
 12
0.0
 22
0.3659213833
 32
0.0
 13
0.3263545907
 23
0.1655026884
 33
0.0
 40
0.0
 40
0.0
 40
0.0
 40
0.0
 40
0.2477157306
 40
0.513975132
 40
0.7736929172
 40
1.0
 40
1.0
 40
1.0
 40
1.0
 10
-8.0301022103
 20
19.4540448916
 30
0.0
 10
-8.0301022103
 20
19.4842597192
 30
0.0
 10
-8.0196626537
 20
19.547059574
 30
0.0
 10
-7.9818518507
 20
19.634391517
 30
0.0
 10
-7.9265653395
 20
19.7086427405
 30
0.0
 10
-7.8789727394
 20
19.7459368963
 30
0.0
 10
-7.8543539543
 20
19.7584217065
 30
0.0
 11
-8.0301022103
 21
19.4540448916
 31
0.0
 11
-8.0166296472
 21
19.5436825639
 31
0.0
 11
-7.9782136113
 21
19.6332192309
 31
0.0
 11
-7.9207193123
 21
19.7088915656
 31
0.0
 11
-7.8543539543
 21
19.7584217065
 31
0.0
  0
SPLINE
  5
48C
100
AcDbEntity
  8
RACCORDO
100
AcDbSpline
 62
253
  6
CONTINUOUS
 70
0
 71
3
 72
10
 73
6
 74
4
 42
0.0000001
 43
0.0000001
 44
0.0000000001
 12
0.0
 22
0.2520880843
 32
0.0
 13
0.1608200907
 23
0.194127022
 33
0.0
 40
0.0
 40
0.0
 40
0.0
 40
0.0
 40
0.3143651663
 40
0.657620609
 40
1.0
 40
1.0
 40
1.0
 40
1.0
 10
7.8798003664
 20
-30.1404844703
 30
0.0
 10
7.8798003664
 20
-30.1140685661
 30
0.0
 10
7.8878998366
 20
-30.0587076919
 30
0.0
 10
7.9182167301
 20
-29.9797732129
 30
0.0
 10
7.9498348858
 20
-29.930945327
 30
0.0
 10
7.9681887141
 20
-29.9087902965
 30
0.0
 11
7.8798003664
 21
-30.1404844703
 31
0.0
 11
7.8902490913
 21
-30.0619286043
 31
0.0
 11
7.9209581731
 21
-29.9810305311
 31
0.0
 11
7.9681887141
 21
-29.9087902965
 31
0.0
  0
SPLINE
  5
48D
100
AcDbEntity
  8
RACCORDO
100
AcDbSpline
 62
253
  6
CONTINUOUS
 70
0
 71
3
 72
9
 73
5
 74
3
 42
0.0000001
 43
0.0000001
 44
0.0000000001
 12
0.0008855331
 22
0.1879638671
 32
0.0
 13
-0.0944249264
 23
0.1629389431
 33
0.0
 40
0.0
 40
0.0
 40
0.0
 40
0.0
 40
0.4825030098
 40
1.0
 40
1.0
 40
1.0
 40
1.0
 10
10.3618702886
 20
12.5647417029
 30
0.0
 10
10.3620127128
 20
12.5949727467
 30
0.0
 10
10.3518229289
 20
12.6577903412
 30
0.0
 10
10.3268065282
 20
12.7158247777
 30
0.0
 10
10.3105183232
 20
12.7439315819
 30
0.0
 11
10.3618702886
 21
12.5647417029
 31
0.0
 11
10.3487277379
 21
12.6544785406
 31
0.0
 11
10.3105183232
 21
12.7439315819
 31
0.0
  0
SPLINE
  5
48E
100
AcDbEntity
  8
RACCORDO
100
AcDbSpline
 62
253
  6
CONTINUOUS
 70
0
 71
3
 72
9
 73
5
 74
3
 42
0.0000001
 43
0.0000001
 44
0.0000000001
 12
-0.0766777692
 22
0.1323145819
 32
0.0
 13
-0.1280657459
 23
0.0838317777
 33
0.0
 40
0.0
 40
0.0
 40
0.0
 40
0.0
 40
0.6218576083
 40
1.0
 40
1.0
 40
1.0
 40
1.0
 10
10.3105183232
 20
12.7439315819
 30
0.0
 10
10.2946241051
 20
12.7713585251
 30
0.0
 10
10.2639470235
 20
12.8125144753
 30
0.0
 10
10.2244474514
 20
12.8457527621
 30
0.0
 10
10.2083050889
 20
12.856319545
 30
0.0
 11
10.3105183232
 21
12.7439315819
 31
0.0
 11
10.2530588341
 21
12.8194829916
 31
0.0
 11
10.2083050889
 21
12.856319545
 31
0.0
  0
SPLINE
  5
48F
100
AcDbEntity
  8
RACCORDO
100
AcDbSpline
 62
253
  6
CONTINUOUS
 70
0
 71
3
 72
8
 73
4
 74
2
 42
0.0000001
 43
0.0000001
 44
0.0000000001
 12
-0.02243743
 22
0.0146875313
 32
0.0
 13
-0.0239740436
 23
0.0118493444
 33
0.0
 40
0.0
 40
0.0
 40
0.0
 40
0.0
 40
1.0
 40
1.0
 40
1.0
 40
1.0
 10
10.2083050889
 20
12.856319545
 30
0.0
 10
10.2008259456
 20
12.8612153888
 30
0.0
 10
10.1930879328
 20
12.8656814602
 30
0.0
 10
10.1850965849
 20
12.8696312417
 30
0.0
 11
10.2083050889
 21
12.856319545
 31
0.0
 11
10.1850965849
 21
12.8696312417
 31
0.0
  0
SPLINE
  5
490
100
AcDbEntity
  8
RACCORDO
100
AcDbSpline
 62
7
  6
CONTINUOUS
 70
0
 71
3
 72
11
 73
7
 74
5
 42
0.0000001
 43
0.0000001
 44
0.0000000001
 12
-0.0017561623
 22
0.3667460209
 32
0.0
 13
-0.3272563736
 23
0.1655566186
 33
0.0
 40
0.0
 40
0.0
 40
0.0
 40
0.0
 40
0.2466966781
 40
0.5118834164
 40
0.7705699875
 40
1.0
 40
1.0
 40
1.0
 40
1.0
 10
9.8336031169
 20
12.3013028829
 30
0.0
 10
9.8334587037
 20
12.3314612245
 30
0.0
 10
9.8228063601
 20
12.3940905639
 30
0.0
 10
9.7849869394
 20
12.481216344
 30
0.0
 10
9.7296724114
 20
12.5558147821
 30
0.0
 10
9.6818568912
 20
12.5935312026
 30
0.0
 10
9.6568294132
 20
12.6061924217
 30
0.0
 11
9.8336031169
 21
12.3013028829
 31
0.0
 11
9.8198300761
 21
12.3907244753
 31
0.0
 11
9.7813992716
 21
12.4800668221
 31
0.0
 11
9.7241611721
 21
12.5557289267
 31
0.0
 11
9.6568294132
 21
12.6061924217
 31
0.0
  0
SPLINE
  5
491
100
AcDbEntity
  8
RACCORDO
100
AcDbSpline
 62
253
  6
CONTINUOUS
 70
0
 71
3
 72
11
 73
7
 74
5
 42
0.0000001
 43
0.0000001
 44
0.0000000001
 12
-0.001756354
 22
0.3667459834
 32
0.0
 13
-0.3272562557
 23
0.1655567704
 33
0.0
 40
0.0
 40
0.0
 40
0.0
 40
0.0
 40
0.2466966689
 40
0.5118834295
 40
0.770570014
 40
1.0
 40
1.0
 40
1.0
 40
1.0
 10
8.2323223261
 20
11.4985808793
 30
0.0
 10
8.2321778972
 20
11.5287392168
 30
0.0
 10
8.2215255292
 20
11.5913685469
 30
0.0
 10
8.1837060808
 20
11.6784943047
 30
0.0
 10
8.1283915865
 20
11.7530927534
 30
0.0
 10
8.0805760884
 20
11.790809189
 30
0.0
 10
8.0555486224
 20
11.8034704182
 30
0.0
 11
8.2323223261
 21
11.4985808793
 31
0.0
 11
8.2185492485
 21
11.5880024537
 31
0.0
 11
8.1801184228
 21
11.6773447895
 31
0.0
 11
8.1228803448
 21
11.7530069047
 31
0.0
 11
8.0555486224
 21
11.8034704182
 31
0.0
  0
SPLINE
  5
492
100
AcDbEntity
  8
RACCORDO
100
AcDbSpline
 62
7
  6
CONTINUOUS
 70
0
 71
3
 72
10
 73
6
 74
4
 42
0.0000001
 43
0.0000001
 44
0.0000000001
 12
-0.1030123289
 22
-0.0575767002
 32
0.0
 13
-0.1162791686
 23
-0.0201437648
 33
0.0
 40
0.0
 40
0.0
 40
0.0
 40
0.0
 40
0.3117917553
 40
0.6469200848
 40
1.0
 40
1.0
 40
1.0
 40
1.0
 10
8.9435429342
 20
10.2016025984
 30
0.0
 10
8.9328368025
 20
10.1956186183
 30
0.0
 10
8.9096438526
 20
10.1849144632
 30
0.0
 10
8.8721024715
 20
10.1729286166
 30
0.0
 10
8.8455812713
 20
10.1672896421
 30
0.0
 10
8.8318959916
 20
10.1649188559
 30
0.0
 11
8.9435429342
 21
10.2016025984
 31
0.0
 11
8.9102265333
 21
10.1859859122
 31
0.0
 11
8.8726139871
 21
10.173762634
 31
0.0
 11
8.8318959916
 21
10.1649188559
 31
0.0
  0
SPLINE
  5
493
100
AcDbEntity
  8
RACCORDO
100
AcDbSpline
 62
253
  6
CONTINUOUS
 70
0
 71
3
 72
10
 73
6
 74
4
 42
0.0000001
 43
0.0000001
 44
0.0000000001
 12
-0.084189407
 22
-0.2191734365
 32
0.0
 13
-0.232079946
 23
-0.0465837423
 33
0.0
 40
0.0
 40
0.0
 40
0.0
 40
0.0
 40
0.4019490033
 40
0.7725721677
 40
1.0
 40
1.0
 40
1.0
 40
1.0
 10
8.2323223261
 20
11.1586069452
 30
0.0
 10
8.2210423766
 20
11.1292414304
 30
0.0
 10
8.1906900193
 20
11.0755626084
 30
0.0
 10
8.1302346143
 20
11.0230668019
 30
0.0
 10
8.0854355553
 20
11.0062329675
 30
0.0
 10
8.0678417423
 20
11.0027014877
 30
0.0
 11
8.2323223261
 21
11.1586069452
 31
0.0
 11
8.1850325823
 21
11.0769380001
 31
0.0
 11
8.1182580841
 21
11.0211419399
 31
0.0
 11
8.0678417423
 21
11.0027014877
 31
0.0
  0
SPLINE
  5
494
100
AcDbEntity
  8
RACCORDO
100
AcDbSpline
 62
253
  6
CONTINUOUS
 70
0
 71
3
 72
9
 73
5
 74
3
 42
0.0000001
 43
0.0000001
 44
0.0000000001
 12
-0.0613740299
 22
-0.0123191686
 32
0.0
 13
-0.0615800992
 23
0.0128393748
 33
0.0
 40
0.0
 40
0.0
 40
0.0
 40
0.0
 40
0.4139203318
 40
1.0
 40
1.0
 40
1.0
 40
1.0
 10
8.0678417423
 20
11.0027014877
 30
0.0
 10
8.059373756
 20
11.0010017696
 30
0.0
 10
8.038603707
 20
10.9985016682
 30
0.0
 10
8.0175304147
 20
11.0003796481
 30
0.0
 10
8.0055001333
 20
11.0028879469
 30
0.0
 11
8.0678417423
 21
11.0027014877
 31
0.0
 11
8.0421275102
 21
10.9996821808
 31
0.0
 11
8.0055001333
 21
11.0028879469
 31
0.0
  0
SPLINE
  5
495
100
AcDbEntity
  8
RACCORDO
100
AcDbSpline
 62
7
  6
CONTINUOUS
 70
0
 71
3
 72
12
 73
8
 74
6
 42
0.0000001
 43
0.0000001
 44
0.0000000001
 12
-0.2284925148
 22
-0.2735627587
 32
0.0
 13
-0.352533439
 23
0.0725054033
 33
0.0
 40
0.0
 40
0.0
 40
0.0
 40
0.0
 40
0.2287814123
 40
0.4651190808
 40
0.6980474888
 40
0.9171060202
 40
1.0
 40
1.0
 40
1.0
 40
1.0
 10
8.9435429342
 20
11.0101034224
 30
0.0
 10
8.9261179874
 20
10.9892413976
 30
0.0
 10
8.8863253623
 20
10.9503157605
 30
0.0
 10
8.8166937913
 20
10.9043388717
 30
0.0
 10
8.7399451109
 20
10.8740834123
 30
0.0
 10
8.6761492337
 20
10.8659176334
 30
0.0
 10
8.6399831974
 20
10.8703776387
 30
0.0
 10
8.6302422308
 20
10.8723810592
 30
0.0
 11
8.9435429342
 21
11.0101034224
 31
0.0
 11
8.8853740616
 21
10.9529539877
 31
0.0
 11
8.8149552831
 21
10.9067221822
 31
0.0
 11
8.7374658575
 21
10.8769174932
 31
0.0
 11
8.6598288307
 21
10.8686124009
 31
0.0
 11
8.6302422308
 21
10.8723810592
 31
0.0
  0
SPLINE
  5
496
100
AcDbEntity
  8
RACCORDO
100
AcDbSpline
 62
253
  6
CONTINUOUS
 70
0
 71
3
 72
9
 73
5
 74
3
 42
0.0000001
 43
0.0000001
 44
0.0000000001
 12
-0.1066082657
 22
0.0533041328
 32
0.0
 13
0.0001795774
 23
0.1184026244
 33
0.0
 40
0.0
 40
0.0
 40
0.0
 40
0.0
 40
0.5660979181
 40
1.0
 40
1.0
 40
1.0
 40
1.0
 10
6.5548156866
 20
12.1615859431
 30
0.0
 10
6.5346987808
 20
12.171644396
 30
0.0
 10
6.5002775392
 20
12.1934503228
 30
0.0
 10
6.4815668031
 20
12.2328492417
 30
0.0
 10
6.4815927761
 20
12.2499742902
 30
0.0
 11
6.5548156866
 21
12.1615859431
 31
0.0
 11
6.5007618906
 21
12.2019709463
 31
0.0
 11
6.4815927761
 21
12.2499742902
 31
0.0
  0
SPLINE
  5
497
100
AcDbEntity
  8
RACCORDO
100
AcDbSpline
 62
253
  6
CONTINUOUS
 70
0
 71
3
 72
9
 73
5
 74
3
 42
0.0000001
 43
0.0000001
 44
0.0000000001
 12
-0.1065991214
 22
0.0532995607
 32
0.0
 13
0.0001011167
 23
0.11838275
 33
0.0
 40
0.0
 40
0.0
 40
0.0
 40
0.0
 40
0.5668907358
 40
1.0
 40
1.0
 40
1.0
 40
1.0
 10
6.5548156866
 20
11.821612009
 30
0.0
 10
6.5346723351
 20
11.8316836847
 30
0.0
 10
6.5002440457
 20
11.8534892498
 30
0.0
 10
6.4815779086
 20
11.8929094697
 30
0.0
 10
6.4815925068
 20
11.9100003583
 30
0.0
 11
6.5548156866
 21
11.821612009
 31
0.0
 11
6.5007035842
 21
11.8620671658
 31
0.0
 11
6.4815925068
 21
11.9100003583
 31
0.0
  0
SPLINE
  5
498
100
AcDbEntity
  8
RACCORDO
100
AcDbSpline
 62
253
  6
CONTINUOUS
 70
0
 71
3
 72
10
 73
6
 74
4
 42
0.0000001
 43
0.0000001
 44
0.0000000001
 12
0.0
 22
-0.1566934698
 32
0.0
 13
0.1422173849
 23
-0.0714387831
 33
0.0
 40
0.0
 40
0.0
 40
0.0
 40
0.0
 40
0.4458327267
 40
0.8204281656
 40
1.0
 40
1.0
 40
1.0
 40
1.0
 10
6.5548156866
 20
11.821612009
 30
0.0
 10
6.5548156866
 20
11.79832565
 30
0.0
 10
6.5602507316
 20
11.754996078
 30
0.0
 10
6.5869389144
 20
11.7077713742
 30
0.0
 10
6.6114273402
 20
11.6907458782
 30
0.0
 10
6.6199400858
 20
11.6864697471
 30
0.0
 11
6.5548156866
 21
11.821612009
 31
0.0
 11
6.565583488
 21
11.7525877735
 31
0.0
 11
6.596575305
 21
11.7027399545
 31
0.0
 11
6.6199400858
 21
11.6864697471
 31
0.0
  0
SPLINE
  5
499
100
AcDbEntity
  8
RACCORDO
100
AcDbSpline
 62
253
  6
CONTINUOUS
 70
0
 71
3
 72
10
 73
6
 74
4
 42
0.0000001
 43
0.0000001
 44
0.0000000001
 12
0.0
 22
-0.1565857044
 32
0.0
 13
0.1420456113
 23
-0.0715482561
 33
0.0
 40
0.0
 40
0.0
 40
0.0
 40
0.0
 40
0.4461395578
 40
0.8209928008
 40
1.0
 40
1.0
 40
1.0
 40
1.0
 10
7.8798003664
 20
11.1591196691
 30
0.0
 10
7.8798003664
 20
11.1358333101
 30
0.0
 10
7.8852354114
 20
11.0925037381
 30
0.0
 10
7.9119052395
 20
11.045311513
 30
0.0
 10
7.9363512524
 20
11.0282958112
 30
0.0
 10
7.9448269815
 20
11.0240265935
 30
0.0
 11
7.8798003664
 21
11.1591196691
 31
0.0
 11
7.8905681678
 21
11.0900954336
 31
0.0
 11
7.9215599848
 21
11.0402476145
 31
0.0
 11
7.9448269815
 21
11.0240265935
 31
0.0
  0
SPLINE
  5
49A
100
AcDbEntity
  8
RACCORDO
100
AcDbSpline
 62
253
  6
CONTINUOUS
 70
0
 71
3
 72
11
 73
7
 74
5
 42
0.0000001
 43
0.0000001
 44
0.0000000001
 12
0.3239343427
 22
-0.1619671713
 32
0.0
 13
0.3246820661
 23
0.1604630141
 33
0.0
 40
0.0
 40
0.0
 40
0.0
 40
0.0
 40
0.2355641544
 40
0.5004433916
 40
0.765454133
 40
1.0
 40
1.0
 40
1.0
 40
1.0
 10
7.8798003664
 20
11.1591196691
 30
0.0
 10
7.9052361396
 20
11.1464017825
 30
0.0
 10
7.9636878473
 20
11.1282395882
 30
0.0
 10
8.0561773596
 20
11.119513466
 30
0.0
 10
8.1485631046
 20
11.1280799884
 30
0.0
 10
8.2069380472
 20
11.146061633
 30
0.0
 10
8.2323223261
 20
11.1586069452
 30
0.0
 11
7.8798003664
 21
11.1591196691
 31
0.0
 11
7.9607106801
 21
11.1320636179
 31
0.0
 11
8.056164808
 21
11.1225081867
 31
0.0
 11
8.1516824046
 21
11.1319063583
 31
0.0
 11
8.2323223261
 21
11.1586069452
 31
0.0
  0
SPLINE
  5
49B
100
AcDbEntity
  8
RACCORDO
100
AcDbSpline
 62
253
  6
CONTINUOUS
 70
0
 71
3
 72
11
 73
7
 74
5
 42
0.0000001
 43
0.0000001
 44
0.0000000001
 12
0.323935073
 22
-0.1619675365
 32
0.0
 13
0.3246827982
 23
0.1604633758
 33
0.0
 40
0.0
 40
0.0
 40
0.0
 40
0.0
 40
0.2362663305
 40
0.5021885878
 40
0.7680504865
 40
1.0
 40
1.0
 40
1.0
 40
1.0
 10
7.8798003664
 20
11.4990936032
 30
0.0
 10
7.9053120167
 20
11.486337778
 30
0.0
 10
7.9639794893
 20
11.4681367834
 30
0.0
 10
8.056792104
 20
11.4594667446
 30
0.0
 10
8.1490909423
 20
11.4681671274
 30
0.0
 10
8.207218987
 20
11.486174412
 30
0.0
 10
8.2323223261
 20
11.4985808793
 30
0.0
 11
7.8798003664
 21
11.4990936032
 31
0.0
 11
7.9609616316
 21
11.4719855337
 31
0.0
 11
8.0568007691
 21
11.4624820009
 31
0.0
 11
8.1526093213
 21
11.4720720237
 31
0.0
 11
8.2323223261
 21
11.4985808793
 31
0.0
  0
SPLINE
  5
49C
100
AcDbEntity
  8
RACCORDO
100
AcDbSpline
 62
253
  6
CONTINUOUS
 70
0
 71
3
 72
11
 73
7
 74
5
 42
0.0000001
 43
0.0000001
 44
0.0000000001
 12
0.0
 22
0.3659213833
 32
0.0
 13
0.3263545907
 23
0.1655026884
 33
0.0
 40
0.0
 40
0.0
 40
0.0
 40
0.0
 40
0.2477157306
 40
0.513975132
 40
0.7736929172
 40
1.0
 40
1.0
 40
1.0
 40
1.0
 10
7.8798003664
 20
11.4990936032
 30
0.0
 10
7.8798003664
 20
11.5293084308
 30
0.0
 10
7.890239923
 20
11.5921082856
 30
0.0
 10
7.928050726
 20
11.6794402286
 30
0.0
 10
7.9833372372
 20
11.7536914522
 30
0.0
 10
8.0309298372
 20
11.790985608
 30
0.0
 10
8.0555486224
 20
11.8034704182
 30
0.0
 11
7.8798003664
 21
11.4990936032
 31
0.0
 11
7.8932729295
 21
11.5887312756
 31
0.0
 11
7.9316889654
 21
11.6782679426
 31
0.0
 11
7.9891832644
 21
11.7539402773
 31
0.0
 11
8.0555486224
 21
11.8034704182
 31
0.0
  0
SPLINE
  5
49D
100
AcDbEntity
  8
RACCORDO
100
AcDbSpline
 62
253
  6
CONTINUOUS
 70
0
 71
3
 72
9
 73
5
 74
3
 42
0.0000001
 43
0.0000001
 44
0.0000000001
 12
0.0
 22
0.1861931158
 32
0.0
 13
0.0928664524
 23
0.1617855074
 33
0.0
 40
0.0
 40
0.0
 40
0.0
 40
0.0
 40
0.4769670577
 40
1.0
 40
1.0
 40
1.0
 40
1.0
 10
6.5548156866
 20
12.1615859431
 30
0.0
 10
6.5548156866
 20
12.191188604
 30
0.0
 10
6.5649501902
 20
12.2533560045
 30
0.0
 10
6.5895649788
 20
12.3109110774
 30
0.0
 10
6.6057557167
 20
12.3391174607
 30
0.0
 11
6.5548156866
 21
12.1615859431
 31
0.0
 11
6.567777565
 21
12.2494429149
 31
0.0
 11
6.6057557167
 21
12.3391174607
 31
0.0
  0
SPLINE
  5
49E
100
AcDbEntity
  8
RACCORDO
100
AcDbSpline
 62
253
  6
CONTINUOUS
 70
0
 71
3
 72
9
 73
5
 74
3
 42
0.0000001
 43
0.0000001
 44
0.0000000001
 12
0.0762998484
 22
0.1329243162
 32
0.0
 13
0.1275748667
 23
0.0851719626
 33
0.0
 40
0.0
 40
0.0
 40
0.0
 40
0.0
 40
0.6220683641
 40
1.0
 40
1.0
 40
1.0
 40
1.0
 10
6.6057557167
 20
12.3391174607
 30
0.0
 10
6.6215769573
 20
12.3666801313
 30
0.0
 10
6.652100918
 20
12.4080766159
 30
0.0
 10
6.6914095349
 20
12.4416952261
 30
0.0
 10
6.707481061
 20
12.4524249525
 30
0.0
 11
6.6057557167
 21
12.3391174607
 31
0.0
 11
6.6629523279
 21
12.4151732215
 31
0.0
 11
6.707481061
 21
12.4524249525
 31
0.0
  0
SPLINE
  5
49F
100
AcDbEntity
  8
RACCORDO
100
AcDbSpline
 62
253
  6
CONTINUOUS
 70
0
 71
3
 72
8
 73
4
 74
2
 42
0.0000001
 43
0.0000001
 44
0.0000000001
 12
0.0223062272
 22
0.0148921586
 32
0.0
 13
0.0238556566
 23
0.0120978084
 33
0.0
 40
0.0
 40
0.0
 40
0.0
 40
0.0
 40
1.0
 40
1.0
 40
1.0
 40
1.0
 10
6.707481061
 20
12.4524249525
 30
0.0
 10
6.71491647
 20
12.4573890053
 30
0.0
 10
6.722612057
 20
12.4619301553
 30
0.0
 10
6.7305639426
 20
12.4659627581
 30
0.0
 11
6.707481061
 21
12.4524249525
 31
0.0
 11
6.7305639426
 21
12.4659627581
 31
0.0
  0
SPLINE
  5
4A0
100
AcDbEntity
  8
RACCORDO
100
AcDbSpline
 62
7
  6
CONTINUOUS
 70
0
 71
3
 72
9
 73
5
 74
3
 42
0.0000001
 43
0.0000001
 44
0.0000000001
 12
-0.1023089032
 22
0.0505585467
 32
0.0
 13
-0.1043540979
 23
-0.0494770179
 33
0.0
 40
0.0
 40
0.0
 40
0.0
 40
0.0
 40
0.6142757471
 40
1.0
 40
1.0
 40
1.0
 40
1.0
 10
8.3133205457
 20
13.2779468554
 30
0.0
 10
8.2923719197
 20
13.2882991518
 30
0.0
 10
8.2544008152
 20
13.3001913833
 30
0.0
 10
8.2154647062
 20
13.2914679005
 30
0.0
 10
8.2020474041
 20
13.2851064053
 30
0.0
 11
8.3133205457
 21
13.2779468554
 31
0.0
 11
8.2453583329
 21
13.2951303464
 31
0.0
 11
8.2020474041
 21
13.2851064053
 31
0.0
  0
SPLINE
  5
4A1
100
AcDbEntity
  8
RACCORDO
100
AcDbSpline
 62
253
  6
CONTINUOUS
 70
0
 71
3
 72
9
 73
5
 74
3
 42
0.0000001
 43
0.0000001
 44
0.0000000001
 12
-0.1040116458
 22
0.0513999346
 32
0.0
 13
-0.1050164757
 23
-0.0523709623
 33
0.0
 40
0.0
 40
0.0
 40
0.0
 40
0.0
 40
0.6065614381
 40
1.0
 40
1.0
 40
1.0
 40
1.0
 10
6.7305639426
 20
12.4659627581
 30
0.0
 10
6.7095341247
 20
12.4763551642
 30
0.0
 10
6.6709010642
 20
12.4884369507
 30
0.0
 10
6.6313257661
 20
12.479132109
 30
0.0
 10
6.6175532557
 20
12.4722638569
 30
0.0
 11
6.7305639426
 21
12.4659627581
 31
0.0
 11
6.6623208102
 21
12.4831433564
 31
0.0
 11
6.6175532557
 21
12.4722638569
 31
0.0
  0
SPLINE
  5
4A2
100
AcDbEntity
  8
RACCORDO
100
AcDbSpline
 62
253
  6
CONTINUOUS
 70
0
 71
3
 72
9
 73
5
 74
3
 42
0.0000001
 43
0.0000001
 44
0.0000000001
 12
-0.0963732753
 22
0.0487465645
 32
0.0
 13
-0.1015038951
 23
-0.0413985115
 33
0.0
 40
0.0
 40
0.0
 40
0.0
 40
0.0
 40
0.6441511521
 40
1.0
 40
1.0
 40
1.0
 40
1.0
 10
8.8477704244
 20
13.538294322
 30
0.0
 10
8.827077439
 20
13.5487610405
 30
0.0
 10
8.7911620137
 20
13.5602950207
 30
0.0
 10
8.7543577367
 20
13.5529650414
 30
0.0
 10
8.742317722
 20
13.5480545039
 30
0.0
 11
8.8477704244
 21
13.538294322
 31
0.0
 11
8.780438702
 21
13.5557930577
 31
0.0
 11
8.742317722
 21
13.5480545039
 31
0.0
  0
SPLINE
  5
4A3
100
AcDbEntity
  8
RACCORDO
100
AcDbSpline
 62
253
  6
CONTINUOUS
 70
0
 71
3
 72
11
 73
7
 74
5
 42
0.0000001
 43
0.0000001
 44
0.0000000001
 12
-0.0017563676
 22
0.3667488161
 32
0.0
 13
-0.3272587834
 23
0.1655580492
 33
0.0
 40
0.0
 40
0.0
 40
0.0
 40
0.0
 40
0.2478227056
 40
0.5144535803
 40
0.7742769777
 40
1.0
 40
1.0
 40
1.0
 40
1.0
 10
-5.1319958384
 20
18.1807399616
 30
0.0
 10
-5.1321409276
 20
18.2110361895
 30
0.0
 10
-5.1428926754
 20
18.2739807934
 30
0.0
 10
-5.1810386327
 20
18.3614672698
 30
0.0
 10
-5.2364985202
 20
18.4358171089
 30
0.0
 10
-5.2841462615
 20
18.473172746
 30
0.0
 10
-5.3087695421
 20
18.4856295004
 30
0.0
 11
-5.1319958384
 21
18.1807399616
 31
0.0
 11
-5.1458861073
 21
18.2705620231
 31
0.0
 11
-5.1846778739
 21
18.3603263201
 31
0.0
 11
-5.2424052553
 21
18.4361414056
 31
0.0
 11
-5.3087695421
 21
18.4856295004
 31
0.0
  0
SPLINE
  5
4A4
100
AcDbEntity
  8
RACCORDO
100
AcDbSpline
 62
7
  6
CONTINUOUS
 70
0
 71
3
 72
11
 73
7
 74
5
 42
0.0000001
 43
0.0000001
 44
0.0000000001
 12
-0.0017561623
 22
0.3667460209
 32
0.0
 13
-0.3272563736
 23
0.1655566186
 33
0.0
 40
0.0
 40
0.0
 40
0.0
 40
0.0
 40
0.2466966781
 40
0.5118834164
 40
0.7705699875
 40
1.0
 40
1.0
 40
1.0
 40
1.0
 10
-3.5307150475
 20
18.9834619651
 30
0.0
 10
-3.5308594607
 20
19.0136203068
 30
0.0
 10
-3.5415118043
 20
19.0762496461
 30
0.0
 10
-3.5793312251
 20
19.1633754262
 30
0.0
 10
-3.634645753
 20
19.2379738643
 30
0.0
 10
-3.6824612733
 20
19.2756902849
 30
0.0
 10
-3.7074887512
 20
19.2883515039
 30
0.0
 11
-3.5307150475
 21
18.9834619651
 31
0.0
 11
-3.5444880884
 21
19.0728835576
 31
0.0
 11
-3.5829188928
 21
19.1622259043
 31
0.0
 11
-3.6401569923
 21
19.2378880089
 31
0.0
 11
-3.7074887512
 21
19.2883515039
 31
0.0
  0
SPLINE
  5
4A5
100
AcDbEntity
  8
RACCORDO
100
AcDbSpline
 62
253
  6
CONTINUOUS
 70
0
 71
3
 72
11
 73
7
 74
5
 42
0.0000001
 43
0.0000001
 44
0.0000000001
 12
0.3239351271
 22
-0.1619675635
 32
0.0
 13
0.3246828523
 23
0.1604634026
 33
0.0
 40
0.0
 40
0.0
 40
0.0
 40
0.0
 40
0.231346483
 40
0.4969674372
 40
0.7631067912
 40
1.0
 40
1.0
 40
1.0
 40
1.0
 10
-5.484517798
 20
18.1812526854
 30
0.0
 10
-5.4595373806
 20
18.1687624767
 30
0.0
 10
-5.4015624876
 20
18.1505818518
 30
0.0
 10
-5.309364725
 20
18.1416285324
 30
0.0
 10
-5.2164546004
 20
18.1500433833
 30
0.0
 10
-5.1576342259
 20
18.1680690648
 30
0.0
 10
-5.1319958384
 20
18.1807399616
 30
0.0
 11
-5.484517798
 21
18.1812526854
 31
0.0
 11
-5.4051126672
 21
18.1545119985
 31
0.0
 11
-5.309420071
 21
18.144643852
 31
0.0
 11
-5.2134746098
 21
18.1538677327
 31
0.0
 11
-5.1319958384
 21
18.1807399616
 31
0.0
  0
SPLINE
  5
4A6
100
AcDbEntity
  8
RACCORDO
100
AcDbSpline
 62
253
  6
CONTINUOUS
 70
0
 71
3
 72
11
 73
7
 74
5
 42
0.0000001
 43
0.0000001
 44
0.0000000001
 12
0.3239343427
 22
-0.1619671713
 32
0.0
 13
0.3246820661
 23
0.1604630141
 33
0.0
 40
0.0
 40
0.0
 40
0.0
 40
0.0
 40
0.2355641544
 40
0.5004433916
 40
0.765454133
 40
1.0
 40
1.0
 40
1.0
 40
1.0
 10
-5.484517798
 20
17.8412787513
 30
0.0
 10
-5.4590820249
 20
17.8285608647
 30
0.0
 10
-5.4006303172
 20
17.8103986704
 30
0.0
 10
-5.3081408048
 20
17.8016725482
 30
0.0
 10
-5.2157550598
 20
17.8102390706
 30
0.0
 10
-5.1573801173
 20
17.8282207152
 30
0.0
 10
-5.1319958384
 20
17.8407660274
 30
0.0
 11
-5.484517798
 21
17.8412787513
 31
0.0
 11
-5.4036074844
 21
17.8142227001
 31
0.0
 11
-5.3081533564
 21
17.8046672689
 31
0.0
 11
-5.2126357598
 21
17.8140654405
 31
0.0
 11
-5.1319958384
 21
17.8407660274
 31
0.0
  0
SPLINE
  5
4A7
100
AcDbEntity
  8
RACCORDO
100
AcDbSpline
 62
253
  6
CONTINUOUS
 70
0
 71
3
 72
10
 73
6
 74
4
 42
0.0000001
 43
0.0000001
 44
0.0000000001
 12
0.0
 22
-0.1565857044
 32
0.0
 13
0.1420456113
 23
-0.0715482561
 33
0.0
 40
0.0
 40
0.0
 40
0.0
 40
0.0
 40
0.4461395578
 40
0.8209928008
 40
1.0
 40
1.0
 40
1.0
 40
1.0
 10
-5.484517798
 20
17.8412787513
 30
0.0
 10
-5.484517798
 20
17.8179923923
 30
0.0
 10
-5.4790827531
 20
17.7746628203
 30
0.0
 10
-5.4524129249
 20
17.7274705952
 30
0.0
 10
-5.427966912
 20
17.7104548934
 30
0.0
 10
-5.419491183
 20
17.7061856758
 30
0.0
 11
-5.484517798
 21
17.8412787513
 31
0.0
 11
-5.4737499966
 21
17.7722545158
 31
0.0
 11
-5.4427581796
 21
17.7224066968
 31
0.0
 11
-5.419491183
 21
17.7061856758
 31
0.0
  0
SPLINE
  5
4A8
100
AcDbEntity
  8
RACCORDO
100
AcDbSpline
 62
253
  6
CONTINUOUS
 70
0
 71
3
 72
10
 73
6
 74
4
 42
0.0000001
 43
0.0000001
 44
0.0000000001
 12
0.0
 22
-0.1566934698
 32
0.0
 13
0.1422173849
 23
-0.0714387831
 33
0.0
 40
0.0
 40
0.0
 40
0.0
 40
0.0
 40
0.4458327267
 40
0.8204281656
 40
1.0
 40
1.0
 40
1.0
 40
1.0
 10
-6.8095024778
 20
18.5037710912
 30
0.0
 10
-6.8095024778
 20
18.4804847322
 30
0.0
 10
-6.8040674329
 20
18.4371551602
 30
0.0
 10
-6.77737925
 20
18.3899304564
 30
0.0
 10
-6.7528908242
 20
18.3729049604
 30
0.0
 10
-6.7443780787
 20
18.3686288293
 30
0.0
 11
-6.8095024778
 21
18.5037710912
 31
0.0
 11
-6.7987346764
 21
18.4347468558
 31
0.0
 11
-6.7677428595
 21
18.3848990367
 31
0.0
 11
-6.7443780787
 21
18.3686288293
 31
0.0
  0
SPLINE
  5
4A9
100
AcDbEntity
  8
RACCORDO
100
AcDbSpline
 62
253
  6
CONTINUOUS
 70
0
 71
3
 72
9
 73
5
 74
3
 42
0.0000001
 43
0.0000001
 44
0.0000000001
 12
-0.1065991214
 22
0.0532995607
 32
0.0
 13
0.0001011167
 23
0.11838275
 33
0.0
 40
0.0
 40
0.0
 40
0.0
 40
0.0
 40
0.5668907358
 40
1.0
 40
1.0
 40
1.0
 40
1.0
 10
-6.8095024778
 20
18.5037710912
 30
0.0
 10
-6.8296458293
 20
18.5138427669
 30
0.0
 10
-6.8640741187
 20
18.5356483321
 30
0.0
 10
-6.8827402558
 20
18.5750685519
 30
0.0
 10
-6.8827256576
 20
18.5921594405
 30
0.0
 11
-6.8095024778
 21
18.5037710912
 31
0.0
 11
-6.8636145802
 21
18.544226248
 31
0.0
 11
-6.8827256576
 21
18.5921594405
 31
0.0
  0
SPLINE
  5
4AA
100
AcDbEntity
  8
RACCORDO
100
AcDbSpline
 62
253
  6
CONTINUOUS
 70
0
 71
3
 72
9
 73
5
 74
3
 42
0.0000001
 43
0.0000001
 44
0.0000000001
 12
-0.1065800867
 22
0.0532900434
 32
0.0
 13
-0.0000602393
 23
0.1183432009
 33
0.0
 40
0.0
 40
0.0
 40
0.0
 40
0.0
 40
0.5683218492
 40
1.0
 40
1.0
 40
1.0
 40
1.0
 10
-6.8095024778
 20
18.8437450253
 30
0.0
 10
-6.8296930752
 20
18.853840324
 30
0.0
 10
-6.8641348251
 20
18.8756425798
 30
0.0
 10
-6.8827170728
 20
18.915104646
 30
0.0
 10
-6.8827257408
 20
18.9321333707
 30
0.0
 11
-6.8095024778
 21
18.8437450253
 31
0.0
 11
-6.8637186169
 21
18.8843256579
 31
0.0
 11
-6.8827257408
 21
18.9321333707
 31
0.0
  0
SPLINE
  5
4AB
100
AcDbEntity
  8
RACCORDO
100
AcDbSpline
 62
253
  6
CONTINUOUS
 70
0
 71
3
 72
9
 73
5
 74
3
 42
0.0000001
 43
0.0000001
 44
0.0000000001
 12
0.0
 22
0.1880744913
 32
0.0
 13
0.0945726714
 23
0.1629826439
 33
0.0
 40
0.0
 40
0.0
 40
0.0
 40
0.0
 40
0.4819605369
 40
1.0
 40
1.0
 40
1.0
 40
1.0
 10
-6.8095024778
 20
18.8437450253
 30
0.0
 10
-6.8095024778
 20
18.8739598529
 30
0.0
 10
-6.7990629213
 20
18.9367597078
 30
0.0
 10
-6.7739446708
 20
18.9947755509
 30
0.0
 10
-6.7576138788
 20
19.0229193647
 30
0.0
 11
-6.8095024778
 21
18.8437450253
 31
0.0
 11
-6.7960299148
 21
18.9333826977
 31
0.0
 11
-6.7576138788
 21
19.0229193647
 31
0.0
  0
SPLINE
  5
4AC
100
AcDbEntity
  8
RACCORDO
100
AcDbSpline
 62
253
  6
CONTINUOUS
 70
0
 71
3
 72
9
 73
5
 74
3
 42
0.0000001
 43
0.0000001
 44
0.0000000001
 12
0.0763384414
 22
0.1315585234
 32
0.0
 13
0.1268330217
 23
0.0841455786
 33
0.0
 40
0.0
 40
0.0
 40
0.0
 40
0.0
 40
0.6260109823
 40
1.0
 40
1.0
 40
1.0
 40
1.0
 10
-6.7576138788
 20
19.0229193647
 30
0.0
 10
-6.7416843113
 20
19.0503717248
 30
0.0
 10
-6.7111943451
 20
19.091320543
 30
0.0
 10
-6.6720523944
 20
19.1244895066
 30
0.0
 10
-6.6562410087
 20
19.1349793474
 30
0.0
 11
-6.7576138788
 21
19.0229193647
 31
0.0
 11
-6.7001195799
 21
19.0985916994
 31
0.0
 11
-6.6562410087
 21
19.1349793474
 31
0.0
  0
SPLINE
  5
4AD
100
AcDbEntity
  8
RACCORDO
100
AcDbSpline
 62
253
  6
CONTINUOUS
 70
0
 71
3
 72
11
 73
7
 74
5
 42
0.0000001
 43
0.0000001
 44
0.0000000001
 12
0.0
 22
0.3659186217
 32
0.0
 13
0.3263521277
 23
0.1655014394
 33
0.0
 40
0.0
 40
0.0
 40
0.0
 40
0.0
 40
0.246600319
 40
0.5114083697
 40
0.7699746932
 40
1.0
 40
1.0
 40
1.0
 40
1.0
 10
-5.484517798
 20
18.1812526854
 30
0.0
 10
-5.484517798
 20
18.211331235
 30
0.0
 10
-5.4741756796
 20
18.2738164398
 30
0.0
 10
-5.4366910664
 20
18.3607863621
 30
0.0
 10
-5.3815526509
 20
18.4352859735
 30
0.0
 10
-5.3337926248
 20
18.4729396606
 30
0.0
 10
-5.3087695421
 20
18.4856295004
 30
0.0
 11
-5.484517798
 21
18.1812526854
 31
0.0
 11
-5.4711596928
 21
18.2704941183
 31
0.0
 11
-5.4331041836
 21
18.3596066247
 31
0.0
 11
-5.3761025886
 21
18.4351226574
 31
0.0
 11
-5.3087695421
 21
18.4856295004
 31
0.0
  0
SPLINE
  5
4AE
100
AcDbEntity
  8
RACCORDO
100
AcDbSpline
 62
253
  6
CONTINUOUS
 70
0
 71
3
 72
9
 73
5
 74
3
 42
0.0000001
 43
0.0000001
 44
0.0000000001
 12
-0.10402806
 22
0.0514080461
 32
0.0
 13
-0.1049781092
 23
-0.0523720213
 33
0.0
 40
0.0
 40
0.0
 40
0.0
 40
0.0
 40
0.6041247065
 40
1.0
 40
1.0
 40
1.0
 40
1.0
 10
-6.6337542219
 20
19.1481218403
 30
0.0
 10
-6.6547028623
 20
19.1584741305
 30
0.0
 10
-6.6933120093
 20
19.1705661726
 30
0.0
 10
-6.7329188627
 20
19.1613438826
 30
0.0
 10
-6.7467716093
 20
19.1544329528
 30
0.0
 11
-6.6337542219
 21
19.1481218403
 31
0.0
 11
-6.701716471
 21
19.1653053126
 31
0.0
 11
-6.7467716093
 21
19.1544329528
 31
0.0
  0
SPLINE
  5
4AF
100
AcDbEntity
  8
RACCORDO
100
AcDbSpline
 62
253
  6
CONTINUOUS
 70
0
 71
3
 72
9
 73
5
 74
3
 42
0.0000001
 43
0.0000001
 44
0.0000000001
 12
0.0387807665
 22
-0.0631333192
 32
0.0
 13
-0.0389120561
 23
-0.0616129602
 33
0.0
 40
0.0
 40
0.0
 40
0.0
 40
0.0
 40
0.6995530358
 40
1.0
 40
1.0
 40
1.0
 40
1.0
 10
10.3618702886
 20
12.2172101861
 30
0.0
 10
10.3709133563
 20
12.2024884844
 30
0.0
 10
10.3862176571
 20
12.1813218306
 30
0.0
 10
10.3802740866
 20
12.1530894062
 30
0.0
 10
10.3763770835
 20
12.1469189306
 30
0.0
 11
10.3618702886
 21
12.2172101861
 31
0.0
 11
10.3819275311
 21
12.1694162829
 31
0.0
 11
10.3763770835
 21
12.1469189306
 31
0.0
  0
SPLINE
  5
4B0
100
AcDbEntity
  8
RACCORDO
100
AcDbSpline
 62
7
  6
CONTINUOUS
 70
0
 71
3
 72
9
 73
5
 74
3
 42
0.0000001
 43
0.0000001
 44
0.0000000001
 12
-0.1023089032
 22
0.0505585467
 32
0.0
 13
-0.1043540979
 23
-0.0494770179
 33
0.0
 40
0.0
 40
0.0
 40
0.0
 40
0.0
 40
0.6142757471
 40
1.0
 40
1.0
 40
1.0
 40
1.0
 10
-5.0509976187
 20
19.9601059376
 30
0.0
 10
-5.0719462447
 20
19.970458234
 30
0.0
 10
-5.1099173492
 20
19.9823504655
 30
0.0
 10
-5.1488534582
 20
19.9736269827
 30
0.0
 10
-5.1622707603
 20
19.9672654875
 30
0.0
 11
-5.0509976187
 21
19.9601059376
 31
0.0
 11
-5.1189598315
 21
19.9772894286
 31
0.0
 11
-5.1622707603
 21
19.9672654875
 31
0.0
  0
SPLINE
  5
4B1
100
AcDbEntity
  8
RACCORDO
100
AcDbSpline
 62
253
  6
CONTINUOUS
 70
0
 71
3
 72
9
 73
5
 74
3
 42
0.0000001
 43
0.0000001
 44
0.0000000001
 12
-0.1011432681
 22
0.0511592745
 32
0.0
 13
-0.1037107759
 23
-0.0490365042
 33
0.0
 40
0.0
 40
0.0
 40
0.0
 40
0.0
 40
0.6055184376
 40
1.0
 40
1.0
 40
1.0
 40
1.0
 10
-4.51654774
 20
20.2204534042
 30
0.0
 10
-4.5369624446
 20
20.2307793655
 30
0.0
 10
-4.5745431142
 20
20.2429498411
 30
0.0
 10
-4.6133183902
 20
20.2344882701
 30
0.0
 10
-4.6269557198
 20
20.2280402712
 30
0.0
 11
-4.51654774
 21
20.2204534042
 31
0.0
 11
-4.5829120268
 21
20.2379534672
 31
0.0
 11
-4.6269557198
 21
20.2280402712
 31
0.0
  0
SPLINE
  5
4B2
100
AcDbEntity
  8
RACCORDO
100
AcDbSpline
 62
253
  6
CONTINUOUS
 70
0
 71
3
 72
10
 73
6
 74
4
 42
0.0000001
 43
0.0000001
 44
0.0000000001
 12
-0.084189407
 22
-0.2191734365
 32
0.0
 13
-0.232079946
 23
-0.0465837423
 33
0.0
 40
0.0
 40
0.0
 40
0.0
 40
0.0
 40
0.4019490033
 40
0.7725721677
 40
1.0
 40
1.0
 40
1.0
 40
1.0
 10
-5.1319958384
 20
17.8407660274
 30
0.0
 10
-5.1432757878
 20
17.8114005127
 30
0.0
 10
-5.1736281452
 20
17.7577216907
 30
0.0
 10
-5.2340835502
 20
17.7052258841
 30
0.0
 10
-5.2788826091
 20
17.6883920498
 30
0.0
 10
-5.2964764221
 20
17.6848605699
 30
0.0
 11
-5.1319958384
 21
17.8407660274
 31
0.0
 11
-5.1792855821
 21
17.7590970823
 31
0.0
 11
-5.2460600803
 21
17.7033010221
 31
0.0
 11
-5.2964764221
 21
17.6848605699
 31
0.0
  0
SPLINE
  5
4B3
100
AcDbEntity
  8
RACCORDO
100
AcDbSpline
 62
253
  6
CONTINUOUS
 70
0
 71
3
 72
9
 73
5
 74
3
 42
0.0000001
 43
0.0000001
 44
0.0000000001
 12
-0.0613740299
 22
-0.0123191686
 32
0.0
 13
-0.0615800992
 23
0.0128393748
 33
0.0
 40
0.0
 40
0.0
 40
0.0
 40
0.0
 40
0.4139203318
 40
1.0
 40
1.0
 40
1.0
 40
1.0
 10
-5.2964764221
 20
17.6848605699
 30
0.0
 10
-5.3049444084
 20
17.6831608518
 30
0.0
 10
-5.3257144574
 20
17.6806607504
 30
0.0
 10
-5.3467877498
 20
17.6825387303
 30
0.0
 10
-5.3588180311
 20
17.6850470291
 30
0.0
 11
-5.2964764221
 21
17.6848605699
 31
0.0
 11
-5.3221906543
 21
17.681841263
 31
0.0
 11
-5.3588180311
 21
17.6850470291
 31
0.0
  0
SPLINE
  5
4B4
100
AcDbEntity
  8
RACCORDO
100
AcDbSpline
 62
7
  6
CONTINUOUS
 70
0
 71
3
 72
12
 73
8
 74
6
 42
0.0000001
 43
0.0000001
 44
0.0000000001
 12
-0.2284925148
 22
-0.2735627587
 32
0.0
 13
-0.352533439
 23
0.0725054033
 33
0.0
 40
0.0
 40
0.0
 40
0.0
 40
0.0
 40
0.2287814123
 40
0.4651190808
 40
0.6980474888
 40
0.9171060202
 40
1.0
 40
1.0
 40
1.0
 40
1.0
 10
-4.4207752303
 20
17.6922625046
 30
0.0
 10
-4.438200177
 20
17.6714004798
 30
0.0
 10
-4.4779928022
 20
17.6324748427
 30
0.0
 10
-4.5476243731
 20
17.5864979539
 30
0.0
 10
-4.6243730536
 20
17.5562424945
 30
0.0
 10
-4.6881689307
 20
17.5480767156
 30
0.0
 10
-4.7243349671
 20
17.5525367209
 30
0.0
 10
-4.7340759336
 20
17.5545401414
 30
0.0
 11
-4.4207752303
 21
17.6922625046
 31
0.0
 11
-4.4789441028
 21
17.6351130699
 31
0.0
 11
-4.5493628813
 21
17.5888812644
 31
0.0
 11
-4.6268523069
 21
17.5590765754
 31
0.0
 11
-4.7044893338
 21
17.5507714831
 31
0.0
 11
-4.7340759336
 21
17.5545401414
 31
0.0
  0
SPLINE
  5
4B5
100
AcDbEntity
  8
RACCORDO
100
AcDbSpline
 62
253
  6
CONTINUOUS
 70
0
 71
3
 72
9
 73
5
 74
3
 42
0.0000001
 43
0.0000001
 44
0.0000000001
 12
0.0008899793
 22
0.1889076232
 32
0.0
 13
-0.09529658
 23
0.1635452566
 33
0.0
 40
0.0
 40
0.0
 40
0.0
 40
0.0
 40
0.482283622
 40
1.0
 40
1.0
 40
1.0
 40
1.0
 10
-3.0024478758
 20
19.2469007851
 30
0.0
 10
-3.0023048017
 20
19.2772698027
 30
0.0
 10
-3.0125922517
 20
19.3404036352
 30
0.0
 10
-3.0378324613
 20
19.3986897493
 30
0.0
 10
-3.0542779947
 20
19.4269131019
 30
0.0
 11
-3.0024478758
 21
19.2469007851
 31
0.0
 11
-3.0157057134
 21
19.3370390624
 31
0.0
 11
-3.0542779947
 21
19.4269131019
 31
0.0
  0
SPLINE
  5
4B6
100
AcDbEntity
  8
RACCORDO
100
AcDbSpline
 62
253
  6
CONTINUOUS
 70
0
 71
3
 72
9
 73
5
 74
3
 42
0.0000001
 43
0.0000001
 44
0.0000000001
 12
-0.0768286997
 22
0.1318512103
 32
0.0
 13
-0.1279766292
 23
0.0833199333
 33
0.0
 40
0.0
 40
0.0
 40
0.0
 40
0.0
 40
0.6259924643
 40
1.0
 40
1.0
 40
1.0
 40
1.0
 10
-3.0542779947
 20
19.4269131019
 30
0.0
 10
-3.0703093904
 20
19.4544257233
 30
0.0
 10
-3.1010472302
 20
19.49541246
 30
0.0
 10
-3.1405654035
 20
19.5284211359
 30
0.0
 10
-3.1565201448
 20
19.5388085635
 30
0.0
 11
-3.0542779947
 21
19.4269131019
 31
0.0
 11
-3.1122334217
 21
19.5026141646
 31
0.0
 11
-3.1565201448
 21
19.5388085635
 31
0.0
  0
SPLINE
  5
4B7
100
AcDbEntity
  8
RACCORDO
100
AcDbSpline
 62
253
  6
CONTINUOUS
 70
0
 71
3
 72
9
 73
5
 74
3
 42
0.0000001
 43
0.0000001
 44
0.0000000001
 12
0.0387534079
 22
-0.0630887806
 32
0.0
 13
-0.0389516357
 23
-0.0618238842
 33
0.0
 40
0.0
 40
0.0
 40
0.0
 40
0.0
 40
0.7035255856
 40
1.0
 40
1.0
 40
1.0
 40
1.0
 10
-3.0024478758
 20
18.8993692684
 30
0.0
 10
-2.9933598711
 20
18.8845744112
 30
0.0
 10
-2.9779677678
 20
18.8633554242
 30
0.0
 10
-2.9840978666
 20
18.8352527455
 30
0.0
 10
-2.9879472544
 20
18.8291430122
 30
0.0
 11
-3.0024478758
 21
18.8993692684
 31
0.0
 11
-2.9823547704
 21
18.8513111395
 31
0.0
 11
-2.9879472544
 21
18.8291430122
 31
0.0
  0
SPLINE
  5
4B8
100
AcDbEntity
  8
CURVE
100
AcDbSpline
 62
253
  6
CONTINUOUS
 70
0
 71
3
 72
26
 73
22
 74
20
 42
0.0000001
 43
0.0000001
 44
0.0000000001
 12
-0.0311002097
 22
1.1040910726
 32
0.0
 13
0.0308069507
 23
-1.093680061
 33
0.0
 40
0.0
 40
0.0
 40
0.0
 40
0.0
 40
0.05
 40
0.1
 40
0.15
 40
0.2
 40
0.25
 40
0.3
 40
0.35
 40
0.4
 40
0.45
 40
0.5
 40
0.55
 40
0.6
 40
0.7
 40
0.75
 40
0.8
 40
0.85
 40
0.9
 40
0.95
 40
1.0
 40
1.0
 40
1.0
 40
1.0
 10
-24.4687948528
 20
-12.7841511715
 30
0.0
 10
-24.4693131897
 20
-12.7657496536
 30
0.0
 10
-24.4679130387
 20
-12.7314728079
 30
0.0
 10
-24.4590836995
 20
-12.6846621574
 30
0.0
 10
-24.4432622162
 20
-12.6430138744
 30
0.0
 10
-24.4209772159
 20
-12.608584399
 30
0.0
 10
-24.3932287076
 20
-12.5823894651
 30
0.0
 10
-24.3604752352
 20
-12.5645046285
 30
0.0
 10
-24.3229220403
 20
-12.5553443962
 30
0.0
 10
-24.2819278511
 20
-12.555512901
 30
0.0
 10
-24.2391081213
 20
-12.5647599631
 30
0.0
 10
-24.1950083397
 20
-12.5827551746
 30
0.0
 10
-24.1502898764
 20
-12.6093914923
 30
0.0
 10
-24.0918651177
 20
-12.6553846961
 30
0.0
 10
-24.0377132387
 20
-12.7150347591
 30
0.0
 10
-23.9913381046
 20
-12.7843513342
 30
0.0
 10
-23.9613662228
 20
-12.8397745014
 30
0.0
 10
-23.9368712045
 20
-12.8974022585
 30
0.0
 10
-23.9185305563
 20
-12.9557750627
 30
0.0
 10
-23.9069634038
 20
-13.0124249126
 30
0.0
 10
-23.9036228771
 20
-13.0487658829
 30
0.0
 10
-23.9031094279
 20
-13.0669938839
 30
0.0
 11
-24.4687948528
 21
-12.7841511715
 31
0.0
 11
-24.4667915199
 21
-12.7322402442
 31
0.0
 11
-24.4579183421
 21
-12.685522552
 31
0.0
 11
-24.4421849634
 21
-12.644217009
 31
0.0
 11
-24.4200666312
 21
-12.6099568225
 31
0.0
 11
-24.3923945469
 21
-12.5837744813
 31
0.0
 11
-24.3596752814
 21
-12.5659587292
 31
0.0
 11
-24.3223485412
 21
-12.5568991857
 31
0.0
 11
-24.2816235943
 21
-12.5570259939
 31
0.0
 11
-24.2388947793
 21
-12.566217988
 31
0.0
 11
-24.1949052261
 21
-12.584195359
 31
0.0
 11
-24.1504398588
 21
-12.6107012565
 31
0.0
 11
-24.1068273807
 21
-12.6450244668
 31
0.0
 11
-24.0267675172
 21
-12.7331694456
 31
0.0
 11
-23.9921396827
 21
-12.7849239568
 31
0.0
 11
-23.9622790334
 21
-12.840141933
 31
0.0
 11
-23.9378969329
 21
-12.897526433
 31
0.0
 11
-23.9196594722
 21
-12.9554879036
 31
0.0
 11
-23.9080561309
 21
-13.0120685135
 31
0.0
 11
-23.9031094279
 21
-13.0669938839
 31
0.0
  0
SPLINE
  5
4B9
100
AcDbEntity
  8
CURVE
100
AcDbSpline
 62
253
  6
CONTINUOUS
 70
0
 71
3
 72
18
 73
14
 74
12
 42
0.0000001
 43
0.0000001
 44
0.0000000001
 12
5.5155348495
 22
-3.6475098474
 32
0.0
 13
0.918314882
 23
-7.0175405461
 33
0.0
 40
0.0
 40
0.0
 40
0.0
 40
0.0
 40
0.0909090909
 40
0.1818181818
 40
0.2727272727
 40
0.3636363636
 40
0.4545454545
 40
0.5454545455
 40
0.6363636364
 40
0.7272727273
 40
0.8181818182
 40
0.9090909091
 40
1.0
 40
1.0
 40
1.0
 40
1.0
 10
-23.7382737666
 20
-8.1176614899
 30
0.0
 10
-23.571136347
 20
-8.2281920914
 30
0.0
 10
-23.2416197677
 20
-8.4701068148
 30
0.0
 10
-22.7585140444
 20
-8.8970595053
 30
0.0
 10
-22.2954525802
 20
-9.3811261001
 30
0.0
 10
-21.8601167733
 20
-9.9135489955
 30
0.0
 10
-21.4559181203
 20
-10.4903012967
 30
0.0
 10
-21.0913963039
 20
-11.098825716
 30
0.0
 10
-20.7686184563
 20
-11.7354417543
 30
0.0
 10
-20.4946168046
 20
-12.3861346173
 30
0.0
 10
-20.2711319999
 20
-13.0459177222
 30
0.0
 10
-20.1023955527
 20
-13.703078814
 30
0.0
 10
-20.0278117769
 20
-14.1318746256
 30
0.0
 10
-19.9999840532
 20
-14.3445273694
 30
0.0
 11
-23.7382737666
 21
-8.1176614899
 31
0.0
 11
-23.2434812919
 21
-8.4807869157
 31
0.0
 11
-22.7618547543
 21
-8.9065784893
 31
0.0
 11
-22.3000735231
 21
-9.3891854835
 31
0.0
 11
-21.865306299
 21
-9.9209372298
 31
0.0
 11
-21.4625309264
 21
-10.4955966497
 31
0.0
 11
-21.098353632
 21
-11.1035076525
 31
0.0
 11
-20.7767478223
 21
-11.7377878918
 31
0.0
 11
-20.5030362791
 21
-12.3876496576
 31
0.0
 11
-20.2802567262
 21
-13.04548072
 31
0.0
 11
-20.11187235
 21
-13.7007509183
 31
0.0
 11
-19.9999840532
 21
-14.3445273694
 31
0.0
  0
SPLINE
  5
4BA
100
AcDbEntity
  8
CURVE
100
AcDbSpline
 62
253
  6
CONTINUOUS
 70
0
 71
3
 72
15
 73
11
 74
9
 42
0.0000001
 43
0.0000001
 44
0.0000000001
 12
3.8938762538
 22
-2.4148220014
 32
0.0
 13
0.5196444698
 23
-4.8900981245
 33
0.0
 40
0.0
 40
0.0
 40
0.0
 40
0.0
 40
0.125
 40
0.25
 40
0.375
 40
0.5
 40
0.625
 40
0.75
 40
0.875
 40
1.0
 40
1.0
 40
1.0
 40
1.0
 10
-23.9876321029
 20
-9.6625176335
 30
0.0
 10
-23.825387259
 20
-9.7631352169
 30
0.0
 10
-23.5080747916
 20
-9.9930332655
 30
0.0
 10
-23.0465275855
 20
-10.4276510365
 30
0.0
 10
-22.6200480765
 20
-10.9345261224
 30
0.0
 10
-22.2390080189
 20
-11.5000118305
 30
0.0
 10
-21.9148944226
 20
-12.1073486473
 30
0.0
 10
-21.6570427179
 20
-12.7380349182
 30
0.0
 10
-21.4726234686
 20
-13.3757666201
 30
0.0
 10
-21.4028634224
 20
-13.7872874481
 30
0.0
 10
-21.3812115695
 20
-13.9910415366
 30
0.0
 11
-23.9876321029
 21
-9.6625176335
 31
0.0
 11
-23.5104783741
 21
-10.0079950485
 31
0.0
 11
-23.0523722017
 21
-10.4396939223
 31
0.0
 11
-22.6276213184
 21
-10.9442945594
 31
0.0
 11
-22.2484957625
 21
-11.5069870153
 31
0.0
 11
-21.9259380712
 21
-12.111240223
 31
0.0
 11
-21.6692814605
 21
-12.7392091567
 31
0.0
 11
-21.4859199986
 21
-13.3723582101
 31
0.0
 11
-21.3812115695
 21
-13.9910415366
 31
0.0
  0
SPLINE
  5
4BB
100
AcDbEntity
  8
CURVE
100
AcDbSpline
 62
253
  6
CONTINUOUS
 70
0
 71
3
 72
15
 73
11
 74
9
 42
0.0000001
 43
0.0000001
 44
0.0000000001
 12
2.2391115547
 22
-1.1195557774
 32
0.0
 13
0.0762162281
 23
-2.7057585117
 33
0.0
 40
0.0
 40
0.0
 40
0.0
 40
0.0
 40
0.125
 40
0.25
 40
0.375
 40
0.5
 40
0.625
 40
0.75
 40
0.875
 40
1.0
 40
1.0
 40
1.0
 40
1.0
 10
-24.2312302534
 20
-11.2161607766
 30
0.0
 10
-24.1379339386
 20
-11.262808934
 30
0.0
 10
-23.954599208
 20
-11.3760199767
 30
0.0
 10
-23.6839867748
 20
-11.6080095541
 30
0.0
 10
-23.43395896
 20
-11.8900794044
 30
0.0
 10
-23.2124959277
 20
-12.2122240195
 30
0.0
 10
-23.0284667256
 20
-12.562013729
 30
0.0
 10
-22.8889262561
 20
-12.925348179
 30
0.0
 10
-22.7991165454
 20
-13.2899937514
 30
0.0
 10
-22.7749142542
 20
-13.5199393709
 30
0.0
 10
-22.771738578
 20
-13.6326793089
 30
0.0
 11
-24.2312302534
 21
-11.2161607766
 31
0.0
 11
-23.9553308185
 21
-11.3863821456
 31
0.0
 11
-23.6874175445
 21
-11.6163562662
 31
0.0
 11
-23.4387197571
 21
-11.8967585319
 31
0.0
 11
-23.2187348994
 21
-12.2168315352
 31
0.0
 11
-23.0358815144
 21
-12.5642711858
 31
0.0
 11
-22.8972147159
 21
-12.9255666994
 31
0.0
 11
-22.8080342577
 21
-13.2867058942
 31
0.0
 11
-22.771738578
 21
-13.6326793089
 31
0.0
  0
SPLINE
  5
4BC
100
AcDbEntity
  8
CURVE
100
AcDbSpline
 62
253
  6
CONTINUOUS
 70
0
 71
3
 72
26
 73
22
 74
20
 42
0.0000001
 43
0.0000001
 44
0.0000000001
 12
0.0311007709
 22
-1.104110995
 32
0.0
 13
-0.0308073072
 23
1.0936927189
 33
0.0
 40
0.0
 40
0.0
 40
0.0
 40
0.0
 40
0.05
 40
0.1
 40
0.15
 40
0.2
 40
0.25
 40
0.3
 40
0.35
 40
0.4
 40
0.45
 40
0.5
 40
0.55
 40
0.6
 40
0.7
 40
0.75
 40
0.8
 40
0.85
 40
0.9
 40
0.95
 40
1.0
 40
1.0
 40
1.0
 40
1.0
 10
-23.9031094279
 20
-13.0669938839
 30
0.0
 10
-23.9025910817
 20
-13.0853957338
 30
0.0
 10
-23.9039874414
 20
-13.1196711745
 30
0.0
 10
-23.9128008649
 20
-13.1664741917
 30
0.0
 10
-23.9285970848
 20
-13.2081100077
 30
0.0
 10
-23.9508501986
 20
-13.2425232498
 30
0.0
 10
-23.9785636973
 20
-13.2687000772
 30
0.0
 10
-24.0112820625
 20
-13.2865666785
 30
0.0
 10
-24.048802797
 20
-13.2957101295
 30
0.0
 10
-24.0897711197
 20
-13.2955284261
 30
0.0
 10
-24.1325740681
 20
-13.2862732066
 30
0.0
 10
-24.1766675251
 20
-13.2682754886
 30
0.0
 10
-24.2213909203
 20
-13.2416426376
 30
0.0
 10
-24.2798368113
 20
-13.1956615613
 30
0.0
 10
-24.3340287117
 20
-13.1360327932
 30
0.0
 10
-24.3804517806
 20
-13.0667401946
 30
0.0
 10
-24.4104596363
 20
-13.0113346367
 30
0.0
 10
-24.4349872802
 20
-12.9537222719
 30
0.0
 10
-24.453353736
 20
-12.8953612669
 30
0.0
 10
-24.4649370135
 20
-12.8387188589
 30
0.0
 10
-24.4682813977
 20
-12.8023793834
 30
0.0
 10
-24.4687948528
 20
-12.7841511715
 30
0.0
 11
-23.9031094279
 21
-13.0669938839
 31
0.0
 11
-23.9051072554
 21
-13.1189028172
 31
0.0
 11
-23.9139646643
 21
-13.1656129915
 31
0.0
 11
-23.9296732338
 21
-13.2069062454
 31
0.0
 11
-23.9517602627
 21
-13.241150514
 31
0.0
 11
-23.9793978417
 21
-13.2673150395
 31
0.0
 11
-24.0120824574
 21
-13.2851128201
 31
0.0
 11
-24.049377395
 21
-13.2941559371
 31
0.0
 11
-24.0900768907
 21
-13.2940161734
 31
0.0
 11
-24.1327891529
 21
-13.2848161235
 31
0.0
 11
-24.1767725148
 21
-13.2668362998
 31
0.0
 11
-24.2212427575
 21
-13.2403338116
 31
0.0
 11
-24.2648708394
 21
-13.2060195227
 31
0.0
 11
-24.3449870763
 21
-13.1179043243
 31
0.0
 11
-24.3796502063
 21
-13.0661675098
 31
0.0
 11
-24.4095462677
 21
-13.0109668356
 31
0.0
 11
-24.4339604155
 21
-12.9535974985
 31
0.0
 11
-24.4522232063
 21
-12.8956476997
 31
0.0
 11
-24.4638425633
 21
-12.8390743914
 31
0.0
 11
-24.4687948528
 21
-12.7841511715
 31
0.0
  0
SPLINE
  5
4BD
100
AcDbEntity
  8
RACCORDO
100
AcDbSpline
 62
7
  6
CONTINUOUS
 70
0
 71
3
 72
9
 73
5
 74
3
 42
0.0000001
 43
0.0000001
 44
0.0000000001
 12
0.1436834617
 22
0.104133852
 32
0.0
 13
0.1151736175
 23
0.1355360204
 33
0.0
 40
0.0
 40
0.0
 40
0.0
 40
0.0
 40
0.8873491916
 40
1.0
 40
1.0
 40
1.0
 40
1.0
 10
17.4638422135
 20
-21.5483591098
 30
0.0
 10
17.506341348
 20
-21.51755808
 30
0.0
 10
17.5503985144
 20
-21.4773079939
 30
0.0
 10
17.5893633815
 20
-21.4326079687
 30
0.0
 10
17.5936881819
 20
-21.4275185546
 30
0.0
 11
17.4638422135
 21
-21.5483591098
 31
0.0
 11
17.5805199116
 21
-21.442622486
 31
0.0
 11
17.5936881819
 21
-21.4275185546
 31
0.0
  0
SPLINE
  5
4BE
100
AcDbEntity
  8
RACCORDO
100
AcDbSpline
 62
7
  6
CONTINUOUS
 70
0
 71
3
 72
10
 73
6
 74
4
 42
0.0000001
 43
0.0000001
 44
0.0000000001
 12
-0.0
 22
0.3363221113
 32
0.0
 13
-0.0661046415
 23
0.3297616396
 33
0.0
 40
0.0
 40
0.0
 40
0.0
 40
0.0
 40
0.3300418684
 40
0.664173191
 40
1.0
 40
1.0
 40
1.0
 40
1.0
 10
28.2087713623
 20
16.3375644411
 30
0.0
 10
28.2087713623
 20
16.3745645672
 30
0.0
 10
28.2061980143
 20
16.449047295
 30
0.0
 10
28.1948423477
 20
16.5606518052
 30
0.0
 10
28.1823944405
 20
16.634782596
 30
0.0
 10
28.1749945369
 20
16.6716968624
 30
0.0
 11
28.2087713623
 21
16.3375644411
 31
0.0
 11
28.2049869135
 21
16.4485002869
 31
0.0
 11
28.1936576963
 21
16.5603034999
 31
0.0
 11
28.1749945369
 21
16.6716968624
 31
0.0
  0
SPLINE
  5
4BF
100
AcDbEntity
  8
RACCORDO
100
AcDbSpline
 62
7
  6
CONTINUOUS
 70
0
 71
3
 72
10
 73
6
 74
4
 42
0.0000001
 43
0.0000001
 44
0.0000000001
 12
0.0899818519
 22
0.3588907588
 32
0.0
 13
-0.0000000141
 23
0.3699990682
 33
0.0
 40
0.0
 40
0.0
 40
0.0
 40
0.0
 40
0.3240655129
 40
0.6583782953
 40
1.0
 40
1.0
 40
1.0
 40
1.0
 10
28.1644785169
 20
-15.4164258303
 30
0.0
 10
28.1741985219
 20
-15.3776577911
 30
0.0
 10
28.19062294
 20
-15.2980224133
 30
0.0
 10
28.2054892175
 20
-15.1754618899
 30
0.0
 10
28.2087713639
 20
-15.0920536682
 30
0.0
 10
28.2087713623
 20
-15.0499204308
 30
0.0
 11
28.1644785169
 21
-15.4164258303
 31
0.0
 11
28.1887593546
 21
-15.2990060909
 31
0.0
 11
28.2037253256
 21
-15.1762193809
 31
0.0
 11
28.2087713623
 21
-15.0499204308
 31
0.0
  0
SPLINE
  5
4C0
100
AcDbEntity
  8
0
100
AcDbSpline
 62
7
  6
CONTINUOUS
 70
0
 71
3
 72
15
 73
11
 74
9
 42
0.0000001
 43
0.0000001
 44
0.0000000001
 12
-1.2895830749
 22
0.6447915375
 32
0.0
 13
-1.2983696853
 23
-0.6269105153
 33
0.0
 40
0.0
 40
0.0
 40
0.0
 40
0.0
 40
0.1122840267
 40
0.2348776411
 40
0.3648594532
 40
0.4987550835
 40
0.632821114
 40
0.7633027369
 40
0.8866903854
 40
1.0
 40
1.0
 40
1.0
 40
1.0
 10
-10.3644197375
 20
24.8959733894
 30
0.0
 10
-10.4126862643
 20
24.9201066528
 30
0.0
 10
-10.5177900106
 20
24.962471976
 30
0.0
 10
-10.6876311698
 20
25.0074513775
 30
0.0
 10
-10.8715825307
 20
25.0354798813
 30
0.0
 10
-11.0628687279
 20
25.045493753
 30
0.0
 10
-11.2544735762
 20
25.0371271148
 30
0.0
 10
-11.4393664735
 20
25.0106847054
 30
0.0
 10
-11.6107336784
 20
24.967171137
 30
0.0
 10
-11.7171456329
 20
24.9257682286
 30
0.0
 10
-11.7661848892
 20
24.902089899
 30
0.0
 11
-10.3644197375
 21
24.8959733894
 31
0.0
 11
-10.514143624
 21
24.957547783
 31
0.0
 11
-10.6848155571
 21
25.0035204847
 31
0.0
 11
-10.8700211964
 21
25.0321637086
 31
0.0
 11
-11.0627999832
 21
25.0424009604
 31
0.0
 11
-11.2559067382
 21
25.0338474947
 31
0.0
 11
-11.4420839562
 21
25.0068247753
 31
0.0
 11
-11.6143345637
 21
24.9623483934
 31
0.0
 11
-11.7661848892
 21
24.902089899
 31
0.0
  0
SPLINE
  5
4C1
100
AcDbEntity
  8
RACCORDO
100
AcDbSpline
 62
253
  6
CONTINUOUS
 70
0
 71
3
 72
10
 73
6
 74
4
 42
0.0000001
 43
0.0000001
 44
0.0000000001
 12
-0.4003653654
 22
0.1995862977
 32
0.0
 13
-0.3983434363
 23
-0.1954764043
 33
0.0
 40
0.0
 40
0.0
 40
0.0
 40
0.0
 40
0.2031990381
 40
0.576742015
 40
1.0
 40
1.0
 40
1.0
 40
1.0
 10
22.1361233186
 20
5.1412051414
 30
0.0
 10
22.1090053662
 20
5.1547237226
 30
0.0
 10
22.0273687677
 20
5.183858038
 30
0.0
 10
21.8757933824
 20
5.183740919
 30
0.0
 10
21.7628414444
 20
5.1439191648
 30
0.0
 10
21.7066407643
 20
5.1163401818
 30
0.0
 11
22.1361233186
 21
5.1412051414
 31
0.0
 11
22.050762702
 21
5.1716282018
 31
0.0
 11
21.8850483706
 21
5.1750153615
 31
0.0
 11
21.7066407643
 21
5.1163401818
 31
0.0
  0
SPLINE
  5
4C2
100
AcDbEntity
  8
RACCORDO
100
AcDbSpline
 62
253
  6
CONTINUOUS
 70
0
 71
3
 72
9
 73
5
 74
3
 42
0.0000001
 43
0.0000001
 44
0.0000000001
 12
0.030420032
 22
-0.2170817998
 32
0.0
 13
-0.1733247016
 23
-0.1379630887
 33
0.0
 40
0.0
 40
0.0
 40
0.0
 40
0.0
 40
0.342872877
 40
1.0
 40
1.0
 40
1.0
 40
1.0
 10
28.1734733706
 20
16.6708476477
 30
0.0
 10
28.1769501053
 20
16.6460371606
 30
0.0
 10
28.1650503854
 20
16.5671250526
 30
0.0
 10
28.1102935686
 20
16.5155319782
 30
0.0
 10
28.0723281144
 20
16.4853122157
 30
0.0
 11
28.1734733706
 21
16.6708476477
 31
0.0
 11
28.163751565
 21
16.5951351926
 31
0.0
 11
28.0723281144
 21
16.4853122157
 31
0.0
  0
SPLINE
  5
4C3
100
AcDbEntity
  8
RACCORDO
100
AcDbSpline
 62
253
  6
CONTINUOUS
 70
0
 71
3
 72
9
 73
5
 74
3
 42
0.0000001
 43
0.0000001
 44
0.0000000001
 12
-0.1734116635
 22
-0.1380323086
 32
0.0
 13
-0.1936846506
 23
-0.0990508548
 33
0.0
 40
0.0
 40
0.0
 40
0.0
 40
0.0
 40
0.0240493105
 40
1.0
 40
1.0
 40
1.0
 40
1.0
 10
28.0723281144
 20
16.4853122157
 30
0.0
 10
28.0709379708
 20
16.4842056884
 30
0.0
 10
28.0130235173
 20
16.4384002684
 30
0.0
 10
27.9519140985
 20
16.4004448724
 30
0.0
 10
27.888905209
 20
16.3682219557
 30
0.0
 11
28.0723281144
 21
16.4853122157
 31
0.0
 11
28.0681505176
 21
16.4820070511
 31
0.0
 11
27.888905209
 21
16.3682219557
 31
0.0
  0
SPLINE
  5
4C4
100
AcDbEntity
  8
RACCORDO
100
AcDbSpline
 62
253
  6
CONTINUOUS
 70
0
 71
3
 72
10
 73
6
 74
4
 42
0.0000001
 43
0.0000001
 44
0.0000000001
 12
0.0009393521
 22
-0.4734863212
 32
0.0
 13
-0.4132375638
 23
-0.213960012
 33
0.0
 40
0.0
 40
0.0
 40
0.0
 40
0.0
 40
0.1568023828
 40
0.5307770587
 40
1.0
 40
1.0
 40
1.0
 40
1.0
 10
28.2078825053
 20
16.3375626777
 30
0.0
 10
28.2079316028
 20
16.3128147499
 30
0.0
 10
28.1968997759
 20
16.2291135319
 30
0.0
 10
28.103368017
 20
16.096508787
 30
0.0
 10
27.9927446777
 20
16.023700238
 30
0.0
 10
27.9281111627
 20
15.9902352559
 30
0.0
 11
28.2078825053
 21
16.3375626777
 31
0.0
 11
28.1980436953
 21
16.2645229269
 31
0.0
 11
28.106029732
 21
16.1168115148
 31
0.0
 11
27.9281111627
 21
15.9902352559
 31
0.0
  0
SPLINE
  5
4C5
100
AcDbEntity
  8
RACCORDO
100
AcDbSpline
 62
253
  6
CONTINUOUS
 70
0
 71
3
 72
10
 73
6
 74
4
 42
0.0000001
 43
0.0000001
 44
0.0000000001
 12
0.000781696
 22
-0.3938376178
 32
0.0
 13
-0.3273823955
 23
-0.2082919083
 33
0.0
 40
0.0
 40
0.0
 40
0.0
 40
0.0
 40
0.1885086973
 40
0.6381161744
 40
1.0
 40
1.0
 40
1.0
 40
1.0
 10
28.2078825087
 20
-15.0499221952
 30
0.0
 10
28.2079316275
 20
-15.0746694673
 30
0.0
 10
28.1969002321
 20
-15.1583701485
 30
0.0
 10
28.1191026048
 20
-15.2686689258
 30
0.0
 10
28.0356197704
 20
-15.3331815267
 30
0.0
 10
27.9961283059
 20
-15.3583073509
 30
0.0
 11
28.2078825087
 21
-15.0499221952
 31
0.0
 11
28.1980442595
 21
-15.1229600462
 31
0.0
 11
28.1060307987
 21
-15.2706723009
 31
0.0
 11
27.9961283059
 21
-15.3583073509
 31
0.0
  0
SPLINE
  5
4C6
100
AcDbEntity
  8
RACCORDO
100
AcDbSpline
 62
253
  6
CONTINUOUS
 70
0
 71
3
 72
8
 73
4
 74
2
 42
0.0000001
 43
0.0000001
 44
0.0000000001
 12
-0.066208973
 22
-0.0421244194
 32
0.0
 13
-0.0695138082
 23
-0.0359918403
 33
0.0
 40
0.0
 40
0.0
 40
0.0
 40
0.0
 40
1.0
 40
1.0
 40
1.0
 40
1.0
 10
27.9961283059
 20
-15.3583073509
 30
0.0
 10
27.9740586482
 20
-15.3723488241
 30
0.0
 10
27.9512824321
 20
-15.3852523948
 30
0.0
 10
27.9281111627
 20
-15.3972496749
 30
0.0
 11
27.9961283059
 21
-15.3583073509
 31
0.0
 11
27.9281111627
 21
-15.3972496749
 31
0.0
  0
SPLINE
  5
4C7
100
AcDbEntity
  8
RACCORDO
100
AcDbSpline
 62
253
  6
CONTINUOUS
 70
0
 71
3
 72
13
 73
9
 74
7
 42
0.0000001
 43
0.0000001
 44
0.0000000001
 12
-0.0001900147
 22
0.7463437452
 32
0.0
 13
-0.6686179991
 23
-0.3316308089
 33
0.0
 40
0.0
 40
0.0
 40
0.0
 40
0.0
 40
0.1973867482
 40
0.3708373604
 40
0.5243571849
 40
0.6701868924
 40
0.824743469
 40
1.0
 40
1.0
 40
1.0
 40
1.0
 10
22.3965877056
 20
4.3918094537
 30
0.0
 10
22.3965752035
 20
4.4409155753
 30
0.0
 10
22.387734562
 20
4.5336666761
 30
0.0
 10
22.341828659
 20
4.6577785822
 30
0.0
 10
22.2637846535
 20
4.7499766209
 30
0.0
 10
22.1576115362
 20
4.7984612288
 30
0.0
 10
22.0363188347
 20
4.7979715072
 30
0.0
 10
21.9578003803
 20
4.7698957562
 30
0.0
 10
21.91874049
 20
4.7505222679
 30
0.0
 11
22.3965877056
 21
4.3918094537
 31
0.0
 11
22.3804706068
 21
4.5382435384
 31
0.0
 11
22.3329509706
 21
4.6586601747
 31
0.0
 11
22.2570951898
 21
4.7445330339
 31
0.0
 11
22.1581591658
 21
4.7898939361
 31
0.0
 11
22.0428243049
 21
4.79190186
 31
0.0
 11
21.91874049
 21
4.7505222679
 31
0.0
  0
SPLINE
  5
4C8
100
AcDbEntity
  8
RACCORDO
100
AcDbSpline
 62
253
  6
CONTINUOUS
 70
0
 71
3
 72
9
 73
5
 74
3
 42
0.0000001
 43
0.0000001
 44
0.0000000001
 12
0.1232421767
 22
0.0638104911
 32
0.0
 13
0.0008452537
 23
0.1379505554
 33
0.0
 40
0.0
 40
0.0
 40
0.0
 40
0.0
 40
0.5724588776
 40
1.0
 40
1.0
 40
1.0
 40
1.0
 10
22.3965877056
 20
4.3918094537
 30
0.0
 10
22.4201047316
 20
4.4039857477
 30
0.0
 10
22.4598938952
 20
4.4300533422
 30
0.0
 10
22.4806605802
 20
4.4762319168
 30
0.0
 10
22.4807810404
 20
4.4958917619
 30
0.0
 11
22.3965877056
 21
4.3918094537
 31
0.0
 11
22.4594262109
 21
4.440421552
 31
0.0
 11
22.4807810404
 21
4.4958917619
 31
0.0
  0
SPLINE
  5
4C9
100
AcDbEntity
  8
RACCORDO
100
AcDbSpline
 62
253
  6
CONTINUOUS
 70
0
 71
3
 72
11
 73
7
 74
5
 42
0.0000001
 43
0.0000001
 44
0.0000000001
 12
0.0061350188
 22
0.4414244875
 32
0.0
 13
-0.3974927025
 23
0.1920749023
 33
0.0
 40
0.0
 40
0.0
 40
0.0
 40
0.0
 40
0.2470852803
 40
0.5114851617
 40
0.7695777859
 40
1.0
 40
1.0
 40
1.0
 40
1.0
 10
21.91874049
 20
4.7505222679
 30
0.0
 10
21.9192457809
 20
4.7868787656
 30
0.0
 10
21.9075649705
 20
4.8624672557
 30
0.0
 10
21.8625934381
 20
4.9675156273
 30
0.0
 10
21.7955400296
 20
5.0570119319
 30
0.0
 10
21.7371711472
 20
5.1015874071
 30
0.0
 10
21.7066407643
 20
5.1163401818
 30
0.0
 11
21.91874049
 21
4.7505222679
 31
0.0
 11
21.9037112
 21
4.8585619488
 31
0.0
 11
21.8581277944
 21
4.9660171077
 31
0.0
 11
21.7889272762
 21
5.0565349334
 31
0.0
 11
21.7066407643
 21
5.1163401818
 31
0.0
  0
SPLINE
  5
4CA
100
AcDbEntity
  8
0
100
AcDbSpline
 62
253
  6
CONTINUOUS
 70
0
 71
3
 72
8
 73
4
 74
2
 42
0.0000001
 43
0.0000001
 44
0.0000000001
 12
-0.0420254015
 22
-0.0201142817
 32
0.0
 13
-0.0381178454
 23
-0.027181799
 33
0.0
 40
0.0
 40
0.0
 40
0.0
 40
0.0
 40
1.0
 40
1.0
 40
1.0
 40
1.0
 10
13.9031693232
 20
15.963504623
 30
0.0
 10
13.889160856
 20
15.9567998625
 30
0.0
 10
13.8757937826
 20
15.9487509514
 30
0.0
 10
13.8630878341
 20
15.9396903517
 30
0.0
 11
13.9031693232
 21
15.963504623
 31
0.0
 11
13.8630878341
 21
15.9396903517
 31
0.0
  0
SPLINE
  5
4CB
100
AcDbEntity
  8
0
100
AcDbSpline
 62
253
  6
CONTINUOUS
 70
0
 71
3
 72
10
 73
6
 74
4
 42
0.0000001
 43
0.0000001
 44
0.0000000001
 12
0.1981445736
 22
-0.0990724235
 32
0.0
 13
0.1404718688
 23
-0.171821139
 33
0.0
 40
0.0
 40
0.0
 40
0.0
 40
0.0
 40
0.3786252226
 40
0.7543320877
 40
1.0
 40
1.0
 40
1.0
 40
1.0
 10
13.9031693232
 20
15.963504623
 30
0.0
 10
13.9281768343
 20
15.9510008502
 30
0.0
 10
13.9767793831
 20
15.9234960137
 30
0.0
 10
14.0358294919
 20
15.8786729626
 30
0.0
 10
14.0678046932
 20
15.8454552336
 30
0.0
 10
14.0793078367
 20
15.8313849201
 30
0.0
 11
13.9031693232
 21
15.963504623
 31
0.0
 11
13.97594476
 21
15.9218007226
 31
0.0
 11
14.041783814
 21
15.8708825463
 31
0.0
 11
14.0793078367
 21
15.8313849201
 31
0.0
  0
SPLINE
  5
4CC
100
AcDbEntity
  8
0
100
AcDbSpline
 62
253
  6
CONTINUOUS
 70
0
 71
3
 72
11
 73
7
 74
5
 42
0.0000001
 43
0.0000001
 44
0.0000000001
 12
-0.4009699333
 22
-0.1919130309
 32
0.0
 13
-0.0
 23
-0.4445306501
 33
0.0
 40
0.0
 40
0.0
 40
0.0
 40
0.0
 40
0.2286190318
 40
0.4870720935
 40
0.7526205358
 40
1.0
 40
1.0
 40
1.0
 40
1.0
 10
8.9534218549
 20
18.4383783572
 30
0.0
 10
8.9228654022
 20
18.4237533667
 30
0.0
 10
8.8642667298
 20
18.3789693427
 30
0.0
 10
8.7965606738
 20
18.2891141759
 30
0.0
 10
8.7503752396
 20
18.1834837199
 30
0.0
 10
8.737587606
 20
18.1073490996
 30
0.0
 10
8.737587606
 20
18.0706931816
 30
0.0
 11
8.9534218549
 21
18.4383783572
 31
0.0
 11
8.8711125373
 21
18.3787674476
 31
0.0
 11
8.8010343323
 21
18.2877244472
 31
0.0
 11
8.7540912722
 21
18.1794154697
 31
0.0
 11
8.737587606
 21
18.0706931816
 31
0.0
  0
SPLINE
  5
4CD
100
AcDbEntity
  8
0
100
AcDbSpline
 62
253
  6
CONTINUOUS
 70
0
 71
3
 72
10
 73
6
 74
4
 42
0.0000001
 43
0.0000001
 44
0.0000000001
 12
0.0839081511
 22
-0.1339356035
 32
0.0
 13
0.0352583386
 23
-0.1546046364
 33
0.0
 40
0.0
 40
0.0
 40
0.0
 40
0.0
 40
0.1340796214
 40
0.8745112204
 40
1.0
 40
1.0
 40
1.0
 40
1.0
 10
7.9601197261
 20
18.3170473086
 30
0.0
 10
7.9638698505
 20
18.3110612969
 30
0.0
 10
7.9874478721
 20
18.2714666994
 30
0.0
 10
8.0079326064
 20
18.2225447275
 30
0.0
 10
8.0191338571
 20
18.1781539267
 30
0.0
 10
8.0206086991
 20
18.1716868777
 30
0.0
 11
7.9601197261
 21
18.3170473086
 31
0.0
 11
7.970966651
 21
18.2988451043
 31
0.0
 11
8.0157500112
 21
18.1909775182
 31
0.0
 11
8.0206086991
 21
18.1716868777
 31
0.0
  0
SPLINE
  5
4CE
100
AcDbEntity
  8
0
100
AcDbSpline
 62
253
  6
CONTINUOUS
 70
0
 71
3
 72
16
 73
12
 74
10
 42
0.0000001
 43
0.0000001
 44
0.0000000001
 12
0.6016343562
 22
0.1629218453
 32
0.0
 13
0.557296592
 23
-0.2786444637
 33
0.0
 40
0.0
 40
0.0
 40
0.0
 40
0.0
 40
0.0327251258
 40
0.1552463733
 40
0.2881227914
 40
0.4260700407
 40
0.5634064556
 40
0.6941078276
 40
0.8127145261
 40
0.9153396137
 40
1.0
 40
1.0
 40
1.0
 40
1.0
 10
8.1279343123
 20
18.1177633884
 30
0.0
 10
8.1344971656
 20
18.119540601
 30
0.0
 10
8.1657494822
 20
18.1275352316
 30
0.0
 10
8.2246131895
 20
18.1387526078
 30
0.0
 10
8.3059884208
 20
18.1470136454
 30
0.0
 10
8.3908445491
 20
18.1484978023
 30
0.0
 10
8.4750833473
 20
18.143027358
 30
0.0
 10
8.5546039196
 20
18.1311833923
 30
0.0
 10
8.6258119411
 20
18.1142756894
 30
0.0
 10
8.6861664971
 20
18.0941773509
 30
0.0
 10
8.7218606245
 20
18.0785565642
 30
0.0
 10
8.737587606
 20
18.0706931816
 30
0.0
 11
8.1279343123
 21
18.1177633884
 31
0.0
 11
8.1476934621
 21
18.1228243853
 31
0.0
 11
8.2226492245
 21
18.1372955504
 31
0.0
 11
8.3050058027
 21
18.1457749971
 31
0.0
 11
8.3909434229
 21
18.147317217
 31
0.0
 11
8.4763317223
 21
18.141730565
 31
0.0
 11
8.556862928
 21
18.1296199712
 31
0.0
 11
8.6287258906
 21
18.1123848383
 31
0.0
 11
8.6893331615
 21
18.0920015183
 31
0.0
 11
8.737587606
 21
18.0706931816
 31
0.0
  0
SPLINE
  5
4CF
100
AcDbEntity
  8
0
100
AcDbSpline
 62
253
  6
CONTINUOUS
 70
0
 71
3
 72
15
 73
11
 74
9
 42
0.0000001
 43
0.0000001
 44
0.0000000001
 12
0.935448377
 22
0.2354750594
 32
0.0
 13
0.862497347
 23
-0.4312319715
 33
0.0
 40
0.0
 40
0.0
 40
0.0
 40
0.0
 40
0.1269059792
 40
0.2644076824
 40
0.4070486474
 40
0.5489762784
 40
0.6839951698
 40
0.8065009869
 40
0.9125117987
 40
1.0
 40
1.0
 40
1.0
 40
1.0
 10
8.0096182234
 20
18.516635342
 30
0.0
 10
8.0491895542
 20
18.5265964063
 30
0.0
 10
8.1326488449
 20
18.543267886
 30
0.0
 10
8.2628709497
 20
18.5575281017
 30
0.0
 10
8.398657746
 20
18.560834648
 30
0.0
 10
8.5334492543
 20
18.5528573658
 30
0.0
 10
8.660684094
 20
18.5344966601
 30
0.0
 10
8.774613751
 20
18.5078390271
 30
0.0
 10
8.8711755282
 20
18.4758947347
 30
0.0
 10
8.9282690744
 20
18.4509542604
 30
0.0
 10
8.9534218549
 20
18.4383783572
 30
0.0
 11
8.0096182234
 21
18.516635342
 31
0.0
 11
8.1295645257
 21
18.5408931607
 31
0.0
 11
8.2613481731
 21
18.5555124014
 31
0.0
 11
8.398853748
 21
18.5589207446
 31
0.0
 11
8.5354705085
 21
18.5507656504
 31
0.0
 11
8.6643066657
 21
18.5319844015
 31
0.0
 11
8.7792694147
 21
18.5048064035
 31
0.0
 11
8.876224964
 21
18.4724074832
 31
0.0
 11
8.9534218549
 21
18.4383783572
 31
0.0
  0
SPLINE
  5
4D0
100
AcDbEntity
  8
0
100
AcDbSpline
 62
253
  6
CONTINUOUS
 70
0
 71
3
 72
8
 73
4
 74
2
 42
0.0000001
 43
0.0000001
 44
0.0000000001
 12
-0.0481974592
 22
-0.0230683642
 32
0.0
 13
-0.0430464192
 23
-0.0321715975
 33
0.0
 40
0.0
 40
0.0
 40
0.0
 40
0.0
 40
1.0
 40
1.0
 40
1.0
 40
1.0
 10
-0.5925196911
 20
23.2113491302
 30
0.0
 10
-0.6085855109
 20
23.2036596754
 30
0.0
 10
-0.623807706
 20
23.1942022606
 30
0.0
 10
-0.6381565124
 20
23.1834783948
 30
0.0
 11
-0.5925196911
 21
23.2113491302
 31
0.0
 11
-0.6381565124
 21
23.1834783948
 31
0.0
  0
SPLINE
  5
4D1
100
AcDbEntity
  8
0
100
AcDbSpline
 62
253
  6
CONTINUOUS
 70
0
 71
3
 72
10
 73
6
 74
4
 42
0.0000001
 43
0.0000001
 44
0.0000000001
 12
0.1970315635
 22
-0.0985159177
 32
0.0
 13
0.1403125467
 23
-0.1703361442
 33
0.0
 40
0.0
 40
0.0
 40
0.0
 40
0.0
 40
0.3807640358
 40
0.7585932286
 40
1.0
 40
1.0
 40
1.0
 40
1.0
 10
-0.5925196911
 20
23.2113491302
 30
0.0
 10
-0.56751218
 20
23.1988453574
 30
0.0
 10
-0.5189096313
 20
23.1713405208
 30
0.0
 10
-0.4601912165
 20
23.1267692481
 30
0.0
 10
-0.4284628115
 20
23.0938998717
 30
0.0
 10
-0.4171720118
 20
23.0801931055
 30
0.0
 11
-0.5925196911
 21
23.2113491302
 31
0.0
 11
-0.5197442543
 21
23.1696452298
 31
0.0
 11
-0.4539052003
 21
23.1187270534
 31
0.0
 11
-0.4171720118
 21
23.0801931055
 31
0.0
  0
SPLINE
  5
4D2
100
AcDbEntity
  8
0
100
AcDbSpline
 62
253
  6
CONTINUOUS
 70
0
 71
3
 72
9
 73
5
 74
3
 42
0.0000001
 43
0.0000001
 44
0.0000000001
 12
0.0624455676
 22
-0.0758074559
 32
0.0
 13
0.0309661522
 23
-0.0934407896
 33
0.0
 40
0.0
 40
0.0
 40
0.0
 40
0.0
 40
0.2602248318
 40
1.0
 40
1.0
 40
1.0
 40
1.0
 10
-0.4171720118
 20
23.0801931055
 30
0.0
 10
-0.4117553827
 20
23.0736174447
 30
0.0
 10
-0.3918939533
 20
23.0475587102
 30
0.0
 10
-0.376308119
 20
23.0183158275
 30
0.0
 10
-0.3686721222
 20
22.9952741022
 30
0.0
 11
-0.4171720118
 21
23.0801931055
 31
0.0
 11
-0.4017080388
 21
23.0598395642
 31
0.0
 11
-0.3686721222
 21
22.9952741022
 31
0.0
  0
SPLINE
  5
4D3
100
AcDbEntity
  8
0
100
AcDbSpline
 62
253
  6
CONTINUOUS
 70
0
 71
3
 72
11
 73
7
 74
5
 42
0.0000001
 43
0.0000001
 44
0.0000000001
 12
-0.4009699333
 22
-0.1919130309
 32
0.0
 13
-0.0
 23
-0.4445306501
 33
0.0
 40
0.0
 40
0.0
 40
0.0
 40
0.0
 40
0.2286190318
 40
0.4870720935
 40
0.7526205358
 40
1.0
 40
1.0
 40
1.0
 40
1.0
 10
-5.5422671594
 20
25.6862228643
 30
0.0
 10
-5.5728236121
 20
25.6715978739
 30
0.0
 10
-5.6314222845
 20
25.6268138498
 30
0.0
 10
-5.6991283405
 20
25.5369586831
 30
0.0
 10
-5.7453137747
 20
25.4313282271
 30
0.0
 10
-5.7581014083
 20
25.3551936067
 30
0.0
 10
-5.7581014083
 20
25.3185376887
 30
0.0
 11
-5.5422671594
 21
25.6862228643
 31
0.0
 11
-5.624576477
 21
25.6266119548
 31
0.0
 11
-5.6946546821
 21
25.5355689543
 31
0.0
 11
-5.7415977421
 21
25.4272599768
 31
0.0
 11
-5.7581014083
 21
25.3185376887
 31
0.0
  0
SPLINE
  5
4D4
100
AcDbEntity
  8
0
100
AcDbSpline
 62
253
  6
CONTINUOUS
 70
0
 71
3
 72
11
 73
7
 74
5
 42
0.0000001
 43
0.0000001
 44
0.0000000001
 12
0.3142288812
 22
-0.1571144406
 32
0.0
 13
0.0785281452
 23
-0.3443388377
 33
0.0
 40
0.0
 40
0.0
 40
0.0
 40
0.0
 40
0.2875473919
 40
0.6112105559
 40
0.9436568141
 40
1.0
 40
1.0
 40
1.0
 40
1.0
 10
-6.6736380093
 20
25.6983160881
 30
0.0
 10
-6.6435194443
 20
25.6832568055
 30
0.0
 10
-6.5860606415
 20
25.6380354
 30
0.0
 10
-6.5202613811
 20
25.5480181342
 30
0.0
 10
-6.4877564079
 20
25.4703892346
 30
0.0
 10
-6.4765551572
 20
25.4259984339
 30
0.0
 10
-6.4750803152
 20
25.4195313849
 30
0.0
 11
-6.6736380093
 21
25.6983160881
 31
0.0
 11
-6.5927404091
 21
25.6378118084
 31
0.0
 11
-6.5247223633
 21
25.5466896114
 31
0.0
 11
-6.4799390031
 21
25.4388220254
 31
0.0
 11
-6.4750803152
 21
25.4195313849
 31
0.0
  0
SPLINE
  5
4D5
100
AcDbEntity
  8
0
100
AcDbSpline
 62
253
  6
CONTINUOUS
 70
0
 71
3
 72
16
 73
12
 74
10
 42
0.0000001
 43
0.0000001
 44
0.0000000001
 12
0.6016343562
 22
0.1629218453
 32
0.0
 13
0.557296592
 23
-0.2786444637
 33
0.0
 40
0.0
 40
0.0
 40
0.0
 40
0.0
 40
0.0327251258
 40
0.1552463733
 40
0.2881227914
 40
0.4260700407
 40
0.5634064556
 40
0.6941078276
 40
0.8127145261
 40
0.9153396137
 40
1.0
 40
1.0
 40
1.0
 40
1.0
 10
-6.3677547021
 20
25.3656078955
 30
0.0
 10
-6.3611918487
 20
25.3673851082
 30
0.0
 10
-6.3299395322
 20
25.3753797388
 30
0.0
 10
-6.2710758248
 20
25.3865971149
 30
0.0
 10
-6.1897005936
 20
25.3948581525
 30
0.0
 10
-6.1048444652
 20
25.3963423094
 30
0.0
 10
-6.020605667
 20
25.3908718652
 30
0.0
 10
-5.9410850948
 20
25.3790278994
 30
0.0
 10
-5.8698770732
 20
25.3621201965
 30
0.0
 10
-5.8095225172
 20
25.3420218581
 30
0.0
 10
-5.7738283899
 20
25.3264010714
 30
0.0
 10
-5.7581014083
 20
25.3185376887
 30
0.0
 11
-6.3677547021
 21
25.3656078955
 31
0.0
 11
-6.3479955522
 21
25.3706688925
 31
0.0
 11
-6.2730397898
 21
25.3851400575
 31
0.0
 11
-6.1906832116
 21
25.3936195043
 31
0.0
 11
-6.1047455915
 21
25.3951617241
 31
0.0
 11
-6.019357292
 21
25.3895750722
 31
0.0
 11
-5.9388260863
 21
25.3774644784
 31
0.0
 11
-5.8669631237
 21
25.3602293455
 31
0.0
 11
-5.8063558528
 21
25.3398460254
 31
0.0
 11
-5.7581014083
 21
25.3185376887
 31
0.0
  0
SPLINE
  5
4D6
100
AcDbEntity
  8
0
100
AcDbSpline
 62
253
  6
CONTINUOUS
 70
0
 71
3
 72
17
 73
13
 74
11
 42
0.0000001
 43
0.0000001
 44
0.0000000001
 12
1.0494245296
 22
0.5022802802
 32
0.0
 13
1.0406145462
 23
-0.520287122
 33
0.0
 40
0.0
 40
0.0
 40
0.0
 40
0.0
 40
0.078360374
 40
0.1711653945
 40
0.2763494617
 40
0.3903156316
 40
0.5085413995
 40
0.6261759316
 40
0.7380842612
 40
0.8396213218
 40
0.9274867512
 40
1.0
 40
1.0
 40
1.0
 40
1.0
 10
-6.6736380093
 20
25.6983160881
 30
0.0
 10
-6.6462269098
 20
25.7114357116
 30
0.0
 10
-6.5846813022
 20
25.7366683003
 30
0.0
 10
-6.4818425256
 20
25.7673809302
 30
0.0
 10
-6.3630401694
 20
25.7911123932
 30
0.0
 10
-6.2328180647
 20
25.8053726089
 30
0.0
 10
-6.0970312683
 20
25.8086791551
 30
0.0
 10
-5.96223976
 20
25.800701873
 30
0.0
 10
-5.8350049203
 20
25.7823411672
 30
0.0
 10
-5.7210752633
 20
25.7556835343
 30
0.0
 10
-5.6245134862
 20
25.7237392419
 30
0.0
 10
-5.5674199399
 20
25.6987987675
 30
0.0
 10
-5.5422671594
 20
25.6862228643
 30
0.0
 11
-6.6736380093
 21
25.6983160881
 31
0.0
 11
-6.5894243806
 21
25.7332374403
 31
0.0
 11
-6.4860707909
 21
25.7644798492
 31
0.0
 11
-6.3661244887
 21
25.7887376679
 31
0.0
 11
-6.2343408412
 21
25.8033569086
 31
0.0
 11
-6.0968352664
 21
25.8067652518
 31
0.0
 11
-5.9602185058
 21
25.7986101575
 31
0.0
 11
-5.8313823486
 21
25.7798289086
 31
0.0
 11
-5.7164195996
 21
25.7526509107
 31
0.0
 11
-5.6194640503
 21
25.7202519903
 31
0.0
 11
-5.5422671594
 21
25.6862228643
 31
0.0
  0
LINE
  5
4D7
100
AcDbEntity
  8
RACCORDO
100
AcDbLine
 62
253
  6
CONTINUOUS
 10
17.6767793815
 20
11.6241574499
 11
18.4601287505
 21
11.991670019
  0
LINE
  5
4D8
100
AcDbEntity
  8
RACCORDO
100
AcDbLine
 62
253
  6
CONTINUOUS
 10
18.4601287505
 20
11.991670019
 11
18.4810499004
 21
12.0014790951
  0
SPLINE
  5
4D9
100
AcDbEntity
  8
RACCORDO
100
AcDbSpline
 62
253
  6
CONTINUOUS
 70
0
 71
3
 72
10
 73
6
 74
4
 42
0.0000001
 43
0.0000001
 44
0.0000000001
 12
9.3909855689
 22
4.4029770725
 32
0.0
 13
9.4299332146
 23
4.3189283435
 33
0.0
 40
0.0
 40
0.0
 40
0.0
 40
0.0
 40
0.2499299189
 40
0.6109243805
 40
1.0
 40
1.0
 40
1.0
 40
1.0
 10
18.4810499004
 20
12.0014790951
 30
0.0
 10
19.2634126543
 20
12.368290996
 30
0.0
 10
21.1764573717
 20
13.2635325289
 30
0.0
 10
24.3109723738
 20
14.7222364433
 30
0.0
 10
26.6659195067
 20
15.8080920488
 30
0.0
 10
27.888905209
 20
16.3682219557
 30
0.0
 11
18.4810499004
 21
12.0014790951
 31
0.0
 11
20.8289897186
 21
13.1000963589
 31
0.0
 11
24.2238413082
 21
14.6793577012
 31
0.0
 11
27.888905209
 21
16.3682219557
 31
0.0
  0
SPLINE
  5
4DA
100
AcDbEntity
  8
RACCORDO
100
AcDbSpline
 62
253
  6
CONTINUOUS
 70
0
 71
3
 72
12
 73
8
 74
6
 42
0.0000001
 43
0.0000001
 44
0.0000000001
 12
1.1106399037
 22
-0.5303433784
 32
0.0
 13
0.2481020769
 23
-1.2055000847
 33
0.0
 40
0.0
 40
0.0
 40
0.0
 40
0.0
 40
0.1763520002
 40
0.3722623587
 40
0.5810223004
 40
0.7928967144
 40
1.0
 40
1.0
 40
1.0
 40
1.0
 10
27.2068417651
 20
17.3472091464
 30
0.0
 10
27.2721296213
 20
17.3160334412
 30
0.0
 10
27.4001725041
 20
17.2297515296
 30
0.0
 10
27.5696283082
 20
17.0604684851
 30
0.0
 10
27.713903011
 20
16.8512094198
 30
0.0
 10
27.8261343914
 20
16.6180833695
 30
0.0
 10
27.8717776239
 20
16.4514429651
 30
0.0
 10
27.888905209
 20
16.3682219557
 30
0.0
 11
27.2068417651
 21
17.3472091464
 31
0.0
 11
27.3890752867
 21
17.2293074823
 31
0.0
 11
27.5604133031
 21
17.0596547435
 31
0.0
 11
27.7074532123
 21
16.8489542927
 31
0.0
 11
27.8195036912
 21
16.6134876169
 31
0.0
 11
27.888905209
 21
16.3682219557
 31
0.0
  0
SPLINE
  5
4DB
100
AcDbEntity
  8
RACCORDO
100
AcDbSpline
 62
253
  6
CONTINUOUS
 70
0
 71
3
 72
9
 73
5
 74
3
 42
0.0000001
 43
0.0000001
 44
0.0000000001
 12
4.357624676
 22
2.1298520396
 32
0.0
 13
4.3558167145
 23
2.1335473253
 33
0.0
 40
0.0
 40
0.0
 40
0.0
 40
0.0
 40
0.6778538623
 40
1.0
 40
1.0
 40
1.0
 40
1.0
 10
17.239303651
 20
12.4621068389
 30
0.0
 10
18.2239145568
 20
12.9433496493
 30
0.0
 10
19.6762768146
 20
13.6536672527
 30
0.0
 10
21.1283318637
 20
14.3646125799
 30
0.0
 10
21.596068374
 20
14.5937172567
 30
0.0
 11
17.239303651
 21
12.4621068389
 31
0.0
 11
20.1927521306
 21
13.9066211414
 31
0.0
 11
21.596068374
 21
14.5937172567
 31
0.0
  0
SPLINE
  5
4DC
100
AcDbEntity
  8
RACCORDO
100
AcDbSpline
 62
253
  6
CONTINUOUS
 70
0
 71
3
 72
9
 73
5
 74
3
 42
0.0000001
 43
0.0000001
 44
0.0000000001
 12
5.6127800991
 22
2.7492277
 32
0.0
 13
5.6082702513
 23
2.7584155681
 33
0.0
 40
0.0
 40
0.0
 40
0.0
 40
0.0
 40
0.3508735312
 40
1.0
 40
1.0
 40
1.0
 40
1.0
 10
21.596068374
 20
14.5937172567
 30
0.0
 10
22.2525270318
 20
14.9152610004
 30
0.0
 10
24.1232436866
 20
15.8320990515
 30
0.0
 10
25.9932374432
 20
16.7504116776
 30
0.0
 10
27.2067296647
 20
17.3472651967
 30
0.0
 11
21.596068374
 21
14.5937172567
 31
0.0
 11
23.5652079512
 21
15.5588309477
 31
0.0
 11
27.2067296647
 21
17.3472651967
 31
0.0
  0
SPLINE
  5
4DD
100
AcDbEntity
  8
RACCORDO
100
AcDbSpline
 62
253
  6
CONTINUOUS
 70
0
 71
3
 72
10
 73
6
 74
4
 42
0.0000001
 43
0.0000001
 44
0.0000000001
 12
0.4047587932
 22
0.1937264626
 32
0.0
 13
0.4047828802
 23
-0.2018072352
 33
0.0
 40
0.0
 40
0.0
 40
0.0
 40
0.0
 40
0.4223911506
 40
0.7963012154
 40
1.0
 40
1.0
 40
1.0
 40
1.0
 10
27.2068417651
 20
17.3472091464
 30
0.0
 10
27.2638306093
 20
17.3744852609
 30
0.0
 10
27.378360223
 20
17.4135958723
 30
0.0
 10
27.5315374325
 20
17.4127216774
 30
0.0
 10
27.6141571423
 20
17.3831288637
 30
0.0
 10
27.6416417359
 20
17.3694262342
 30
0.0
 11
27.2068417651
 21
17.3472091464
 31
0.0
 11
27.387428062
 21
17.4047766925
 31
0.0
 11
27.5551556241
 21
17.4003835851
 31
0.0
 11
27.6416417359
 21
17.3694262342
 31
0.0
  0
SPLINE
  5
4DE
100
AcDbEntity
  8
RACCORDO
100
AcDbSpline
 62
253
  6
CONTINUOUS
 70
0
 71
3
 72
10
 73
6
 74
4
 42
0.0000001
 43
0.0000001
 44
0.0000000001
 12
-0.3996152846
 22
0.2050889949
 32
0.0
 13
-0.410661906
 23
-0.1908073281
 33
0.0
 40
0.0
 40
0.0
 40
0.0
 40
0.0
 40
0.4251409979
 40
0.8013075493
 40
1.0
 40
1.0
 40
1.0
 40
1.0
 10
-2.4237852769
 20
32.1625226675
 30
0.0
 10
-2.4804162239
 20
32.1915865808
 30
0.0
 10
-2.5947022023
 20
32.234092061
 30
0.0
 10
-2.7480778344
 20
32.2368947062
 30
0.0
 10
-2.831054423
 20
32.2094359942
 30
0.0
 10
-2.8582528965
 20
32.196798669
 30
0.0
 11
-2.4237852769
 21
32.1625226675
 31
0.0
 11
-2.6041122338
 21
32.2253570968
 31
0.0
 11
-2.7730745369
 21
32.2249446561
 31
0.0
 11
-2.8582528965
 21
32.196798669
 31
0.0
  0
LINE
  5
4DF
100
AcDbEntity
  8
RACCORDO
100
AcDbLine
 62
253
  6
CONTINUOUS
 10
-2.423794843
 20
32.1625274505
 11
-2.7676499276
 21
32.0023534694
  0
SPLINE
  5
4E0
100
AcDbEntity
  8
RACCORDO
100
AcDbSpline
 62
253
  6
CONTINUOUS
 70
0
 71
3
 72
10
 73
6
 74
4
 42
0.0000001
 43
0.0000001
 44
0.0000000001
 12
-8.0141705584
 22
-3.7337294287
 32
0.0
 13
-8.0067673413
 23
-3.7495791949
 33
0.0
 40
0.0
 40
0.0
 40
0.0
 40
0.0
 40
0.3527529149
 40
0.7917233846
 40
1.0
 40
1.0
 40
1.0
 40
1.0
 10
-2.7676499276
 20
32.0023534694
 30
0.0
 10
-3.7099906025
 20
31.5633254896
 30
0.0
 10
-5.8245139098
 20
30.576937327
 30
0.0
 10
-8.4942796721
 20
29.3288794943
 30
0.0
 10
-10.2218545833
 20
28.5201732961
 30
0.0
 10
-10.7777287173
 20
28.2598567415
 30
0.0
 11
-2.7676499276
 21
32.0023534694
 31
0.0
 11
-5.5940850515
 21
30.6840104846
 31
0.0
 11
-9.109983568
 21
29.0405442229
 31
0.0
 11
-10.7777287173
 21
28.2598567415
 31
0.0
  0
SPLINE
  5
4E1
100
AcDbEntity
  8
RACCORDO
100
AcDbSpline
 62
253
  6
CONTINUOUS
 70
0
 71
3
 72
10
 73
6
 74
4
 42
0.0000001
 43
0.0000001
 44
0.0000000001
 12
0.4047578733
 22
0.1937260223
 32
0.0
 13
0.4047912833
 23
-0.2017866371
 33
0.0
 40
0.0
 40
0.0
 40
0.0
 40
0.0
 40
0.4209194827
 40
0.7951826056
 40
1.0
 40
1.0
 40
1.0
 40
1.0
 10
-2.423785277
 20
32.1625226675
 30
0.0
 10
-2.3669951187
 20
32.1897036865
 30
0.0
 10
-2.2526621277
 20
32.2287977232
 30
0.0
 10
-2.0994840463
 20
32.2281306449
 30
0.0
 10
-2.0166241015
 20
32.1985178559
 30
0.0
 10
-1.9889880029
 20
32.1847413849
 30
0.0
 11
-2.423785277
 21
32.1625226675
 31
0.0
 11
-2.2438602691
 21
32.2199888344
 31
0.0
 11
-2.0759691518
 21
32.2158093749
 31
0.0
 11
-1.9889880029
 21
32.1847413849
 31
0.0
  0
SPLINE
  5
4E2
100
AcDbEntity
  8
RACCORDO
100
AcDbSpline
 62
253
  6
CONTINUOUS
 70
0
 71
3
 72
10
 73
6
 74
4
 42
0.0000001
 43
0.0000001
 44
0.0000000001
 12
-0.0988038942
 22
-0.3860087299
 32
0.0
 13
-0.3543434376
 23
-0.1884773351
 33
0.0
 40
0.0
 40
0.0
 40
0.0
 40
0.0
 40
0.4648097632
 40
0.8798336391
 40
1.0
 40
1.0
 40
1.0
 40
1.0
 10
27.888905209
 20
-15.7360304232
 30
0.0
 10
27.8735968708
 20
-15.7958372987
 30
0.0
 10
27.8327887479
 20
-15.9075695714
 30
0.0
 10
27.7417087323
 20
-16.0095100151
 30
0.0
 10
27.6806581283
 20
-16.0470911587
 30
0.0
 10
27.6664647412
 20
-16.0546407039
 30
0.0
 11
27.888905209
 21
-15.7360304232
 31
0.0
 11
27.8195036575
 21
-15.907740332
 31
0.0
 11
27.7074531692
 21
-16.0293591126
 31
0.0
 11
27.6664647412
 21
-16.0546407039
 31
0.0
  0
SPLINE
  5
4E3
100
AcDbEntity
  8
RACCORDO
100
AcDbSpline
 62
253
  6
CONTINUOUS
 70
0
 71
3
 72
10
 73
6
 74
4
 42
0.0000001
 43
0.0000001
 44
0.0000000001
 12
9.9345847566
 22
5.3539790036
 32
0.0
 13
9.8651583522
 23
5.4808540292
 33
0.0
 40
0.0
 40
0.0
 40
0.0
 40
0.0
 40
0.313556196
 40
0.655898108
 40
1.0
 40
1.0
 40
1.0
 40
1.0
 10
17.6767794136
 20
-21.3106181202
 30
0.0
 10
18.7151296154
 20
-20.7510270235
 30
0.0
 10
20.8859106222
 20
-19.578159227
 30
0.0
 10
24.1899971004
 20
-17.7797482338
 30
0.0
 10
26.4521540077
 20
-16.5343970469
 30
0.0
 10
27.5836938923
 20
-15.9057396332
 30
0.0
 11
17.6767794136
 21
-21.3106181202
 31
0.0
 11
20.7898093339
 21
-19.6281007355
 31
0.0
 11
24.1827113486
 21
-17.7802165079
 31
0.0
 11
27.5836938923
 21
-15.9057396332
 31
0.0
  0
LINE
  5
4E4
100
AcDbEntity
  8
RACCORDO
100
AcDbLine
 62
253
  6
CONTINUOUS
 10
27.5836938923
 20
-15.9057396332
 11
27.888905209
 21
-15.7360304232
  0
SPLINE
  5
4E5
100
AcDbEntity
  8
RACCORDO
100
AcDbSpline
 62
253
  6
CONTINUOUS
 70
0
 71
3
 72
10
 73
6
 74
4
 42
0.0000001
 43
0.0000001
 44
0.0000000001
 12
0.3826238072
 22
0.2000558624
 32
0.0
 13
0.1053319723
 23
0.4212704293
 33
0.0
 40
0.0
 40
0.0
 40
0.0
 40
0.0
 40
0.5239833119
 40
0.9933840489
 40
1.0
 40
1.0
 40
1.0
 40
1.0
 10
27.888905209
 20
-15.7360304232
 30
0.0
 10
27.9557347056
 20
-15.7010884455
 30
0.0
 10
28.0746125225
 20
-15.6148339105
 30
0.0
 10
28.1472687369
 20
-15.4842082965
 30
0.0
 10
28.1642263431
 20
-15.417426693
 30
0.0
 10
28.1644586335
 20
-15.4164976581
 30
0.0
 11
27.888905209
 21
-15.7360304232
 31
0.0
 11
28.0681505176
 21
-15.5979897401
 31
0.0
 11
28.163751565
 21
-15.4192821416
 31
0.0
 11
28.1644586335
 21
-15.4164976581
 31
0.0
  0
SPLINE
  5
4E6
100
AcDbEntity
  8
RACCORDO
100
AcDbSpline
 62
253
  6
CONTINUOUS
 70
0
 71
3
 72
9
 73
5
 74
3
 42
0.0000001
 43
0.0000001
 44
0.0000000001
 12
0.0747832234
 22
-0.3730545664
 32
0.0
 13
-0.0000000002
 23
-0.3804763331
 33
0.0
 40
0.0
 40
0.0
 40
0.0
 40
0.0
 40
0.5111758377
 40
1.0
 40
1.0
 40
1.0
 40
1.0
 10
27.888905209
 20
16.3682219557
 30
0.0
 10
27.901647668
 20
16.3046564622
 30
0.0
 10
27.9210623343
 20
16.1791198943
 30
0.0
 10
27.9281111627
 20
16.0522305975
 30
0.0
 10
27.9281111627
 20
15.9902352559
 30
0.0
 11
27.888905209
 21
16.3682219557
 31
0.0
 11
27.9182650821
 21
16.1759604726
 31
0.0
 11
27.9281111627
 21
15.9902352559
 31
0.0
  0
SPLINE
  5
4E7
100
AcDbEntity
  8
RACCORDO
100
AcDbSpline
 62
253
  6
CONTINUOUS
 70
0
 71
3
 72
9
 73
5
 74
3
 42
0.0000001
 43
0.0000001
 44
0.0000000001
 12
0.0000000002
 22
-0.3416807641
 32
0.0
 13
-0.0830949874
 23
-0.331422642
 33
0.0
 40
0.0
 40
0.0
 40
0.0
 40
0.0
 40
0.515550082
 40
1.0
 40
1.0
 40
1.0
 40
1.0
 10
27.9281111627
 20
-15.3972496771
 30
0.0
 10
27.9281111627
 20
-15.4559675257
 30
0.0
 10
27.92212165
 20
-15.5699714828
 30
0.0
 10
27.9023236623
 20
-15.6825111993
 30
0.0
 10
27.888905209
 20
-15.7360304232
 30
0.0
 11
27.9281111627
 21
-15.3972496771
 31
0.0
 11
27.9182651945
 21
-15.5731278413
 31
0.0
 11
27.888905209
 21
-15.7360304232
 31
0.0
  0
ELLIPSE
  5
4E8
100
AcDbEntity
  8
DRAFT
100
AcDbEllipse
 62
7
  6
CONTINUOUS
 10
4.8485003095
 20
15.4651382367
 30
0.0
 11
0.9999934239
 21
0.0071767279
 31
0.0
 40
0.5053247124
 41
0.8346676008
 42
2.3525679043
  0
ELLIPSE
  5
4E9
100
AcDbEntity
  8
RACCORDO
100
AcDbEllipse
 62
7
  6
CONTINUOUS
 10
15.0903061474
 20
14.2681818508
 30
0.0
 11
0.499996712
 21
0.0035883639
 31
0.0
 40
0.5053247124
 41
-0.7715714568
 42
-0.0035790526
  0
ELLIPSE
  5
4EA
100
AcDbEntity
  8
RACCORDO
100
AcDbEllipse
 62
7
  6
CONTINUOUS
 10
10.540656042
 20
-27.3121763587
 30
0.0
 11
-0.2236445579
 21
0.4471998343
 31
0.0
 40
0.6124778111
 41
-3.1449277553
 42
-2.255529033
  0
ELLIPSE
  5
4EB
100
AcDbEntity
  8
RACCORDO
100
AcDbEllipse
 62
7
  6
CONTINUOUS
 10
10.540656042
 20
10.6197033502
 30
0.0
 11
-0.2237046003
 21
0.4472532382
 31
0.0
 40
0.6122950388
 41
-2.2557482655
 42
-0.6847996396
  0
ELLIPSE
  5
4EC
100
AcDbEntity
  8
RACCORDO
100
AcDbEllipse
 62
7
  6
CONTINUOUS
 10
-12.4251141844
 20
27.9655011009
 30
0.0
 11
0.9987332359
 21
0.6172510855
 31
0.0
 40
0.0815198604
 41
0.0494875922
 42
0.7263320369
  0
ELLIPSE
  5
4ED
100
AcDbEntity
  8
RACCORDO
100
AcDbEllipse
 62
7
  6
CONTINUOUS
 10
3.4847883923
 20
20.0105498126
 30
0.0
 11
0.9987332359
 21
0.6172510855
 31
0.0
 40
0.0815198604
 41
0.0494875922
 42
0.7263320369
  0
ELLIPSE
  5
4EE
100
AcDbEntity
  8
RACCORDO
100
AcDbEllipse
 62
7
  6
CONTINUOUS
 10
15.2631790259
 20
-22.8084284269
 30
0.0
 11
0.9987332359
 21
0.6172510855
 31
0.0
 40
0.0815198604
 41
-2.3978073241
 42
-1.2925747589
  0
ELLIPSE
  5
4EF
100
AcDbEntity
  8
RACCORDO
100
AcDbEllipse
 62
7
  6
CONTINUOUS
 10
-0.8062910432
 20
16.8754622824
 30
0.0
 11
0.4999985559
 21
0.0023864752
 31
0.0
 40
0.5035541159
 41
2.3596088132
 42
3.0002042076
  0
ELLIPSE
  5
4F0
100
AcDbEntity
  8
RACCORDO
100
AcDbEllipse
 62
7
  6
CONTINUOUS
 10
-16.7161936199
 20
24.8304135708
 30
0.0
 11
0.4999985559
 21
0.0023864752
 31
0.0
 40
0.5035541159
 41
2.3596088132
 42
3.0002042076
  0
ELLIPSE
  5
4F1
100
AcDbEntity
  8
RACCORDO
100
AcDbEllipse
 62
7
  6
CONTINUOUS
 10
15.061233133
 20
13.6064060788
 30
0.0
 11
0.0886155504
 21
0.1792981373
 31
0.0
 40
0.6088015717
 41
-2.4538695918
 42
-0.8888910292
  0
ELLIPSE
  5
4F2
100
AcDbEntity
  8
DRAFT
100
AcDbEllipse
 62
7
  6
CONTINUOUS
 10
-11.030247125
 20
26.4356417516
 30
0.0
 11
0.4279673669
 21
-0.0030279657
 31
0.0
 40
0.4946372042
 41
-0.7818985079
 42
0.0030606647
  0
ELLIPSE
  5
4F3
100
AcDbEntity
  8
DRAFT
100
AcDbEllipse
 62
7
  6
CONTINUOUS
 10
10.4346438809
 20
15.7031962487
 30
0.0
 11
0.4279673669
 21
-0.0030279657
 31
0.0
 40
0.4946372042
 41
-0.7760807437
 42
0.0030561755
  0
ELLIPSE
  5
4F4
100
AcDbEntity
  8
DRAFT
100
AcDbEllipse
 62
7
  6
CONTINUOUS
 10
4.8796554517
 20
18.4806904633
 30
0.0
 11
0.4279673669
 21
-0.0030279657
 31
0.0
 40
0.4946372042
 41
-0.7818985079
 42
0.0030606647
  0
ELLIPSE
  5
4F5
100
AcDbEntity
  8
DRAFT
100
AcDbEllipse
 62
7
  6
CONTINUOUS
 10
-5.4752586958
 20
23.658147537
 30
0.0
 11
0.4279673669
 21
-0.0030279657
 31
0.0
 40
0.4946372042
 41
-0.7760807437
 42
0.0030561755
  0
ELLIPSE
  5
4F6
100
AcDbEntity
  8
RACCORDO
100
AcDbEllipse
 62
7
  6
CONTINUOUS
 10
15.2631790259
 20
14.1213544958
 30
0.0
 11
-0.7417913999
 21
1.2002436976
 31
0.0
 40
0.5587454355
 41
5.1188866155
 42
6.2241191807
  0
ELLIPSE
  5
4F7
100
AcDbEntity
  8
RACCORDO
100
AcDbEllipse
 62
7
  6
CONTINUOUS
 10
-0.6467235508
 20
22.0763057841
 30
0.0
 11
-0.7417913999
 21
1.2002436976
 31
0.0
 40
0.5587454355
 41
5.1188866155
 42
6.2241191807
  0
ELLIPSE
  5
4F8
100
AcDbEntity
  8
RACCORDO
100
AcDbEllipse
 62
7
  6
CONTINUOUS
 10
15.0903061474
 20
-23.0131764703
 30
0.0
 11
0.499366618
 21
0.3086255427
 31
0.0
 40
0.0815198604
 41
6.2340361361
 42
7.0007906979
  0
ELLIPSE
  5
4F9
100
AcDbEntity
  8
RACCORDO
100
AcDbEllipse
 62
7
  6
CONTINUOUS
 10
10.9050407212
 20
10.8634403705
 30
0.0
 11
30.5620697111
 21
17.056795564
 31
0.0
 40
0.0108183174
 41
7.8796907726
 42
7.9121677293
  0
ELLIPSE
  5
4FA
100
AcDbEntity
  8
RACCORDO
100
AcDbEllipse
 62
7
  6
CONTINUOUS
 10
-0.8195964293
 20
23.1610334872
 30
0.0
 11
-0.3708957
 21
0.6001218488
 31
0.0
 40
0.5587454355
 41
-2.5065880361
 42
-2.2730822346
  0
ELLIPSE
  5
4FB
100
AcDbEntity
  8
RACCORDO
100
AcDbEllipse
 62
7
  6
CONTINUOUS
 10
15.0903061474
 20
15.2060821989
 30
0.0
 11
-0.3708957
 21
0.6001218488
 31
0.0
 40
0.5587454355
 41
-3.1744788413
 42
-2.2730822346
  0
ELLIPSE
  5
4FC
100
AcDbEntity
  8
RACCORDO
100
AcDbEllipse
 62
7
  6
CONTINUOUS
 10
4.7050160565
 20
12.8871991274
 30
0.0
 11
0.4998587701
 21
0.0223649649
 31
0.0
 40
0.5313301283
 41
-2.3799630874
 42
-0.8149845248
  0
ELLIPSE
  5
4FD
100
AcDbEntity
  8
RACCORDO
100
AcDbEllipse
 62
7
  6
CONTINUOUS
 10
4.7050160565
 20
14.1198087326
 30
0.0
 11
0.4999985559
 21
0.0023864752
 31
0.0
 40
0.5035541159
 41
-1.4342147631
 42
-0.7936193687
  0
ELLIPSE
  5
4FE
100
AcDbEntity
  8
RACCORDO
100
AcDbEllipse
 62
7
  6
CONTINUOUS
 10
-0.8062910432
 20
15.6428526772
 30
0.0
 11
0.4998587701
 21
0.0223649649
 31
0.0
 40
0.5313301283
 41
3.1178391735
 42
3.9032222197
  0
ELLIPSE
  5
4FF
100
AcDbEntity
  8
RACCORDO
100
AcDbEllipse
 62
7
  6
CONTINUOUS
 10
-11.2048865202
 20
20.8421504157
 30
0.0
 11
0.4998587701
 21
0.0223649649
 31
0.0
 40
0.5313301283
 41
-2.3799630874
 42
-0.8149845248
  0
ELLIPSE
  5
500
100
AcDbEntity
  8
RACCORDO
100
AcDbEllipse
 62
7
  6
CONTINUOUS
 10
-11.2048865202
 20
22.0747600209
 30
0.0
 11
0.4999985559
 21
0.0023864752
 31
0.0
 40
0.5035541159
 41
-1.4342147631
 42
-0.7936193687
  0
ELLIPSE
  5
501
100
AcDbEntity
  8
RACCORDO
100
AcDbEllipse
 62
7
  6
CONTINUOUS
 10
-16.7161936199
 20
23.5978039656
 30
0.0
 11
0.4998587701
 21
0.0223649649
 31
0.0
 40
0.5313301283
 41
3.1178391735
 42
3.9032222197
  0
ELLIPSE
  5
502
100
AcDbEntity
  8
RACCORDO
100
AcDbEllipse
 62
7
  6
CONTINUOUS
 10
-21.839635405
 20
25.5951549211
 30
0.0
 11
0.249929385
 21
0.0111824824
 31
0.0
 40
0.5313301283
 41
3.1195091424
 42
3.9032222197
  0
ELLIPSE
  5
503
100
AcDbEntity
  8
RACCORDO
100
AcDbEllipse
 62
7
  6
CONTINUOUS
 10
-20.5064230713
 20
24.9285487542
 30
0.0
 11
0.249929385
 21
0.0111824824
 31
0.0
 40
0.5313301283
 41
-2.3799630874
 42
-0.8149845248
  0
ELLIPSE
  5
504
100
AcDbEntity
  8
RACCORDO
100
AcDbEllipse
 62
7
  6
CONTINUOUS
 10
-8.4753172405
 20
18.9129958388
 30
0.0
 11
0.249929385
 21
0.0111824824
 31
0.0
 40
0.5313301283
 41
3.1178392025
 42
3.9032222197
  0
ELLIPSE
  5
505
100
AcDbEntity
  8
RACCORDO
100
AcDbEllipse
 62
7
  6
CONTINUOUS
 10
-7.1421049069
 20
18.246389672
 30
0.0
 11
0.249929385
 21
0.0111824824
 31
0.0
 40
0.5313301283
 41
-2.3799630874
 42
-0.8149845248
  0
ELLIPSE
  5
506
100
AcDbEntity
  8
RACCORDO
100
AcDbEllipse
 62
7
  6
CONTINUOUS
 10
8.7677976698
 20
10.2914383837
 30
0.0
 11
0.249929385
 21
0.0111824824
 31
0.0
 40
0.5313301283
 41
-2.3799630874
 42
-1.3352760237
  0
ELLIPSE
  5
507
100
AcDbEntity
  8
RACCORDO
100
AcDbEllipse
 62
7
  6
CONTINUOUS
 10
7.4345853362
 20
10.9580445505
 30
0.0
 11
0.249929385
 21
0.0111824824
 31
0.0
 40
0.5313301283
 41
3.1178392025
 42
3.9032222197
  0
ELLIPSE
  5
508
100
AcDbEntity
  8
RACCORDO
100
AcDbEllipse
 62
7
  6
CONTINUOUS
 10
-4.5965204946
 20
16.9735974659
 30
0.0
 11
0.249929385
 21
0.0111824824
 31
0.0
 40
0.5313301283
 41
-2.3799630874
 42
-0.8149845248
  0
ELLIPSE
  5
509
100
AcDbEntity
  8
RACCORDO
100
AcDbEllipse
 62
7
  6
CONTINUOUS
 10
-5.9297328283
 20
17.6402036327
 30
0.0
 11
0.249929385
 21
0.0111824824
 31
0.0
 40
0.5313301283
 41
3.1178392025
 42
3.9032222197
  0
ELLIPSE
  5
50A
100
AcDbEntity
  8
RACCORDO
100
AcDbEllipse
 62
7
  6
CONTINUOUS
 10
27.2087713623
 20
9.7835305672
 30
0.0
 11
0.9990976983
 21
0.0770382382
 31
0.0
 40
0.5512981776
 41
-0.8104286897
 42
-0.0424444757
  0
ELLIPSE
  5
50B
100
AcDbEntity
  8
RACCORDO
100
AcDbEllipse
 62
7
  6
CONTINUOUS
 10
26.90789047
 20
16.6184505751
 30
0.0
 11
0.4535199836
 21
0.8912633791
 31
0.0
 40
0.6176975122
 41
0.0043965582
 42
0.671624092
  0
ELLIPSE
  5
50C
100
AcDbEntity
  8
RACCORDO
100
AcDbEllipse
 62
7
  6
CONTINUOUS
 10
-2.1495154117
 20
31.147153516
 30
0.0
 11
0.4410298232
 21
0.8975092442
 31
0.0
 40
0.607010042
 41
5.3929141747
 42
6.946257209
  0
ELLIPSE
  5
50D
100
AcDbEntity
  8
RACCORDO
100
AcDbEllipse
 62
7
  6
CONTINUOUS
 10
27.2087713623
 20
4.6676995196
 30
0.0
 11
0.9995581339
 21
-0.0668216463
 31
0.0
 40
0.4448311488
 41
-0.7382161423
 42
0.8151268919
  0
ENDSEC
  0
SECTION
  2
OBJECTS
  0
DICTIONARY
  5
C
100
AcDbDictionary
280
0
281
1
  3
ACAD_GROUP
350
D
  3
ACAD_MLINESTYLE
350
17
  3
ACAD_LAYOUT
350
1A
  3
ACAD_PLOTSETTINGS
350
19
  3
ACAD_PLOTSTYLENAME
350
E
  0
DICTIONARY
  5
D
102
{ACAD_REACTORS
330
C
102
}
100
AcDbDictionary
280
0
281
1
  0
ACDBDICTIONARYWDFLT
  5
E
102
{ACAD_REACTORS
330
C
102
}
100
AcDbDictionary
281
1
  3
Normal
350
F
100
AcDbDictionaryWithDefault
340
F
  0
DICTIONARY
  5
17
102
{ACAD_REACTORS
330
C
102
}
100
AcDbDictionary
280
0
281
1
  3
Standard
350
18
  0
DICTIONARY
  5
19
102
{ACAD_REACTORS
330
C
102
}
100
AcDbDictionary
281
1
  0
DICTIONARY
  5
1A
102
{ACAD_REACTORS
330
C
102
}
100
AcDbDictionary
281
1
  3
Model
350
50E
  3
Layout1
350
50F
  0
ACDBPLACEHOLDER
  5
F
102
{ACAD_REACTORS
330
E
102
}
  0
MLINESTYLE
  5
18
102
{ACAD_REACTORS
330
17
102
}
100
AcDbMlineStyle
  2
STANDARD
 70
0
  3

 62
256
 51
90.0
 52
90.0
 71
2
 49
0.5
 62
256
  6
BYLAYER
 49
-0.5
 62
256
  6
BYLAYER
  0
LAYOUT
  5
50E
102
{ACAD_REACTORS
330
1A
102
}
100
AcDbPlotSettings
  1

  2
none_device
  4
ISO_A4_(297.00_x_210.00_MM)
  6

 40
0.0
 41
0.0
 42
0.0
 43
0.0
 44
297.0
 45
210.0
 46
0.0
 47
0.0
 48
0.0
 49
0.0
140
0.0
141
0.0
142
1.0
143
1.0
 70
1024
 72
1
 73
0
 74
0
  7

 75
0
147
1.0
148
0.0
149
0.0
100
AcDbLayout
  1
Model
 70
0
 71
0
 10
0.0
 20
0.0
 11
297.0
 21
210.0
 12
0.0
 22
0.0
 32
0.0
 14
0.0
 24
0.0
 34
0.0
 15
0.0
 25
0.0
 35
0.0
146
0.0
 13
0.0
 23
0.0
 33
0.0
 16
1.0
 26
0.0
 36
0.0
 17
0.0
 27
1.0
 37
0.0
 76
0
330
214
345
0
346
0
  0
LAYOUT
  5
50F
102
{ACAD_REACTORS
330
1A
102
}
100
AcDbPlotSettings
  1

  2
none_device
  4
ISO_A4_(297.00_x_210.00_MM)
  6

 40
0.0
 41
0.0
 42
0.0
 43
0.0
 44
297.0
 45
210.0
 46
0.0
 47
0.0
 48
0.0
 49
0.0
140
0.0
141
0.0
142
1.0
143
1.0
 70
0
 72
1
 73
0
 74
0
  7

 75
0
147
1.0
148
0.0
149
0.0
100
AcDbLayout
  1
Layout1
 70
0
 71
1
 10
0.0
 20
0.0
 11
297.0
 21
210.0
 12
0.0
 22
0.0
 32
0.0
 14
0.0
 24
0.0
 34
0.0
 15
0.0
 25
0.0
 35
0.0
146
0.0
 13
0.0
 23
0.0
 33
0.0
 16
1.0
 26
0.0
 36
0.0
 17
0.0
 27
1.0
 37
0.0
 76
0
330
215
345
0
346
0
  0
ENDSEC
  0
EOF
