0
SECTION
2
HEADER
9
$ACADVER
1
AC1015
9
$DWGCODEPAGE
3
ANSI_1252
9
$EXTMAX
10
431.8000000000
20
558.8000000000
30
0.0000000000
9
$EXTMIN
10
0.0000000000
20
0.0000000000
30
0.0000000000
9
$LIMMIN
10
0.0000000000
20
0.0000000000
9
$LIMMAX
10
431.8000000000
20
558.8000000000
9
$VIEWCTR
10
215.9000000000
20
279.4000000000
9
$VIEWSIZE
40
558.8000000000
9
$CLAYER
8
0
9
$LTSCALE
40
36.4254814815
9
$CELTYPE
6
BYLAYER
9
$DIMSCALE
40
1
9
$DIMASZ
40
3.0000000000
9
$DIMEXO
40
4.1392592593
9
$DIMDLI
40
25.1666962963
9
$DIMEXE
40
11.9210666667
9
$DIMCEN
40
5.9605333333
9
$DIMLFAC
40
1.0000000000
9
$DIMBLK
1
_FILLED
9
$DIMTXT
40
3.0000000000
9
$DIMTOL
70
1
9
$DIMLIM
70
0
9
$DIMTFAC
40
1.0000000000
9
$DIMTP
40
0.0100000000
9
$DIMTM
40
0.0100000000
9
$PDMODE
70
3
9
$PDSIZE
40
3.0000000000
9
$HANDSEED
5
35B
9
$MEASUREMENT
70
1
9
$INSUNITS
70
4
0
ENDSEC
0
SECTION
2
CLASSES
0
CLASS
1
ACDBDICTIONARYWDFLT
2
AcDbDictionaryWithDefault
3
AutoCAD 2000
90
0
280
0
281
0
0
CLASS
1
ACDBPLACEHOLDER
2
AcDbPlaceHolder
3
AutoCAD 2000
90
0
280
0
281
0
0
CLASS
1
LAYOUT
2
AcDbLayout
3
AutoCAD 2000
90
0
280
0
281
0
0
ENDSEC
0
SECTION
2
TABLES
0
TABLE
2
VPORT
5
8
100
AcDbSymbolTable
70
2
0
VPORT
5
1F4
100
AcDbSymbolTableRecord
100
AcDbViewportTableRecord
2
*ACTIVE
70
0
10
0.0
20
0.0
11
1.0
21
1.0
12
215.9000000000
22
279.4000000000
13
0.0
23
0.0
14
1.0
24
1.0
15
0.0
25
0.0
16
0.0
26
0.0
36
1.0
17
0.0
27
0.0
37
0.0
40
558.8000000000
41
0.7727272727
42
50.0
43
0.0
44
0.0
50
0.0
51
0.0
71
0
72
100
73
1
74
1
75
0
76
0
77
0
78
0
0
ENDTAB
0
TABLE
2
LTYPE
5
5
100
AcDbSymbolTable
70
6
0
LTYPE
5
14
100
AcDbSymbolTableRecord
100
AcDbLinetypeTableRecord
2
BYBLOCK
70
0
3

72
65
73
0
40
0.0
0
LTYPE
5
15
100
AcDbSymbolTableRecord
100
AcDbLinetypeTableRecord
2
BYLAYER
70
0
3

72
65
73
0
40
0.0
0
LTYPE
5
16
100
AcDbSymbolTableRecord
100
AcDbLinetypeTableRecord
2
CONTINUOUS
70
64
3
Solid line
72
65
73
0
40
0
0
LTYPE
5
1F5
100
AcDbSymbolTableRecord
100
AcDbLinetypeTableRecord
2
CENTER
70
64
3
____ _ ____ _ ____ _ ____ _ ____ _ ____ _ ____
72
65
73
4
40
0.6
49
0.375
74
0
49
-0.075
74
0
49
0.075
74
0
49
-0.075
74
0
0
LTYPE
5
1F6
100
AcDbSymbolTableRecord
100
AcDbLinetypeTableRecord
2
HIDDEN
70
64
3
- - - - - - - - - - - - - - - - - - - -
72
65
73
2
40
0.2
49
0.1
74
0
49
-0.1
74
0
0
LTYPE
5
1F7
100
AcDbSymbolTableRecord
100
AcDbLinetypeTableRecord
2
PHANTOM
70
64
3
_____ _ _ _____ _ _ _____ _ _ _____
72
65
73
6
40
0.8
49
0.45
74
0
49
-0.05
74
0
49
0.1
74
0
49
-0.05
74
0
49
0.1
74
0
49
-0.05
74
0
0
LTYPE
5
1F8
100
AcDbSymbolTableRecord
100
AcDbLinetypeTableRecord
2
DOT
70
64
3
. . . . . . . . . . . . . . . . . . . .
72
65
73
2
40
0.2
49
0.1
74
0
49
-0.1
74
0
0
LTYPE
5
1F9
100
AcDbSymbolTableRecord
100
AcDbLinetypeTableRecord
2
DASHED
70
64
3
- - - - - - - - - - - - - - - - - - - -
72
65
73
2
40
0.2
49
0.1
74
0
49
-0.1
74
0
0
ENDTAB
0
TABLE
2
LAYER
5
2
100
AcDbSymbolTable
70
36
0
LAYER
5
10
100
AcDbSymbolTableRecord
100
AcDbLayerTableRecord
2
0
70
0
62
7
6
CONTINUOUS
370
-3
390
F
0
LAYER
5
1FA
100
AcDbSymbolTableRecord
100
AcDbLayerTableRecord
2
DEFAULT_1
70
0
62
7
6
CENTER
370
-3
390
F
0
LAYER
5
1FB
100
AcDbSymbolTableRecord
100
AcDbLayerTableRecord
2
DEFAULT_2
70
0
62
8
6
HIDDEN
370
-3
390
F
0
LAYER
5
1FC
100
AcDbSymbolTableRecord
100
AcDbLayerTableRecord
2
DEFAULT_3
70
0
62
7
6
PHANTOM
370
-3
390
F
0
LAYER
5
1FD
100
AcDbSymbolTableRecord
100
AcDbLayerTableRecord
2
ASSI
70
0
62
7
6
CONTINUOUS
370
-3
390
F
0
LAYER
5
1FE
100
AcDbSymbolTableRecord
100
AcDbLayerTableRecord
2
COORDINATE
70
0
62
7
6
CONTINUOUS
370
-3
390
F
0
LAYER
5
1FF
100
AcDbSymbolTableRecord
100
AcDbLayerTableRecord
2
COORD_ORIGINE
70
0
62
7
6
CONTINUOUS
370
-3
390
F
0
LAYER
5
200
100
AcDbSymbolTableRecord
100
AcDbLayerTableRecord
2
COSMETICHE
70
0
62
7
6
CONTINUOUS
370
-3
390
F
0
LAYER
5
201
100
AcDbSymbolTableRecord
100
AcDbLayerTableRecord
2
CURVE
70
0
62
7
6
CONTINUOUS
370
-3
390
F
0
LAYER
5
202
100
AcDbSymbolTableRecord
100
AcDbLayerTableRecord
2
DRAFT
70
0
62
7
6
CONTINUOUS
370
-3
390
F
0
LAYER
5
203
100
AcDbSymbolTableRecord
100
AcDbLayerTableRecord
2
IGS
70
0
62
7
6
CONTINUOUS
370
-3
390
F
0
LAYER
5
204
100
AcDbSymbolTableRecord
100
AcDbLayerTableRecord
2
NOTE
70
0
62
7
6
CONTINUOUS
370
-3
390
F
0
LAYER
5
205
100
AcDbSymbolTableRecord
100
AcDbLayerTableRecord
2
PIANI
70
0
62
7
6
CONTINUOUS
370
-3
390
F
0
LAYER
5
206
100
AcDbSymbolTableRecord
100
AcDbLayerTableRecord
2
PIANI_ORIGINE
70
0
62
7
6
CONTINUOUS
370
-3
390
F
0
LAYER
5
207
100
AcDbSymbolTableRecord
100
AcDbLayerTableRecord
2
PUNTI
70
0
62
7
6
CONTINUOUS
370
-3
390
F
0
LAYER
5
208
100
AcDbSymbolTableRecord
100
AcDbLayerTableRecord
2
RACCORDO
70
0
62
7
6
CONTINUOUS
370
-3
390
F
0
LAYER
5
209
100
AcDbSymbolTableRecord
100
AcDbLayerTableRecord
2
SMUSSO
70
0
62
7
6
CONTINUOUS
370
-3
390
F
0
LAYER
5
20A
100
AcDbSymbolTableRecord
100
AcDbLayerTableRecord
2
SUPERFICI
70
0
62
7
6
CONTINUOUS
370
-3
390
F
0
LAYER
5
20B
100
AcDbSymbolTableRecord
100
AcDbLayerTableRecord
2
TESTO
70
0
62
7
6
CONTINUOUS
370
-3
390
F
0
LAYER
5
20C
100
AcDbSymbolTableRecord
100
AcDbLayerTableRecord
2
TRASH
70
0
62
7
6
CONTINUOUS
370
-3
390
F
0
LAYER
5
20D
100
AcDbSymbolTableRecord
100
AcDbLayerTableRecord
2
XSEC_DATUMS
70
0
62
7
6
CONTINUOUS
370
-3
390
F
0
ENDTAB
0
TABLE
2
STYLE
5
3
100
AcDbSymbolTable
70
1
0
STYLE
5
11
100
AcDbSymbolTableRecord
100
AcDbTextStyleTableRecord
2
STANDARD
70
0
40
0.0
41
0.8000000000
50
0.0
71
0
42
0.2
3
txt
4

0
ENDTAB
0
TABLE
2
VIEW
5
6
100
AcDbSymbolTable
70
0
0
ENDTAB
0
TABLE
2
UCS
5
7
100
AcDbSymbolTable
70
0
0
ENDTAB
0
TABLE
2
APPID
5
9
100
AcDbSymbolTable
70
1
0
APPID
5
20E
100
AcDbSymbolTableRecord
100
AcDbRegAppTableRecord
2
ACAD
70
0
0
ENDTAB
0
TABLE
2
BLOCK_RECORD
5
1
100
AcDbSymbolTable
70
0
0
BLOCK_RECORD
5
1F
100
AcDbSymbolTableRecord
100
AcDbBlockTableRecord
2
*MODEL_SPACE
0
BLOCK_RECORD
5
1B
100
AcDbSymbolTableRecord
100
AcDbBlockTableRecord
2
*PAPER_SPACE
0
ENDTAB
0
TABLE
2
DIMSTYLE
5
A
100
AcDbSymbolTable
70
1
100
AcDbDimStyleTable
71
0
0
DIMSTYLE
105
20F
100
AcDbSymbolTableRecord
100
AcDbDimStyleTableRecord
2
STANDARD
70
0
3

4

40
1.0
41
3.0000000000
42
0.0625
43
0.38
44
0.18
45
0.0
46
0.0
47
0.0100000000
48
0.0100000000
140
3.0000000000
141
0.09
142
0.0
143
25.4
144
1.0000000000
145
0.0
146
1.0000000000
147
0.09
71
1
72
0
73
0
74
0
75
0
76
0
77
1
78
8
170
0
171
2
172
0
173
0
174
0
175
0
176
0
177
0
178
0
270
2
271
2
272
2
273
2
274
2
275
0
280
0
281
0
282
0
283
1
284
8
285
0
286
0
287
3
288
0
340
11
0
ENDTAB
0
ENDSEC
0
SECTION
2
BLOCKS
0
BLOCK
5
20
100
AcDbEntity
8
0
100
AcDbBlockBegin
2
*MODEL_SPACE
70
0
10
0.0
20
0.0
30
0.0
3
*MODEL_SPACE
1

0
ENDBLK
5
21
100
AcDbEntity
8
0
100
AcDbBlockEnd
0
BLOCK
5
1C
100
AcDbEntity
8
0
100
AcDbBlockBegin
2
*PAPER_SPACE
70
0
10
0.0
20
0.0
30
0.0
3
*PAPER_SPACE
1

0
ENDBLK
5
1D
100
AcDbEntity
8
0
100
AcDbBlockEnd
0
ENDSEC
0
SECTION
2
ENTITIES
0
LWPOLYLINE
5
210
100
AcDbEntity
8
0
100
AcDbPolyline
62
7
6
CONTINUOUS
90
3
70
0
10
-43.5576481247
20
40.4798193955
10
-43.7246574651
20
40.2599339105
10
-43.8262288420
20
40.0956554142
0
LINE
5
211
100
AcDbEntity
8
0
100
AcDbLine
62
7
6
CONTINUOUS
10
-43.3683635147
20
40.6831273750
11
-43.5576481247
21
40.4798193955
0
LWPOLYLINE
5
212
100
AcDbEntity
8
0
100
AcDbPolyline
62
7
6
CONTINUOUS
90
13
70
0
10
-44.3553017185
20
39.5933678512
10
-44.4624790355
20
39.4861709779
10
-44.6379754723
20
39.2882195589
10
-44.7982921224
20
39.0771271117
10
-44.9425413205
20
38.8540116727
10
-45.0699289954
20
38.6200515148
10
-45.1797749436
20
38.3766093157
10
-45.2714555366
20
38.1250200876
10
-45.3444933164
20
37.8666059330
10
-45.3985600529
20
37.6026740532
10
-45.4333126792
20
37.3345460943
10
-45.4485825550
20
37.0638342453
10
-45.4491943941
20
36.9509218889
0
LINE
5
213
100
AcDbEntity
8
0
100
AcDbLine
62
7
6
CONTINUOUS
10
-43.3682817563
20
40.6832060057
11
-43.3486349563
21
40.7020506135
0
LINE
5
214
100
AcDbEntity
8
0
100
AcDbLine
62
7
6
CONTINUOUS
10
-41.8776719713
20
42.0984084625
11
-43.3485472550
21
40.7021338740
0
LINE
5
215
100
AcDbEntity
8
0
100
AcDbLine
62
7
6
CONTINUOUS
10
-43.3363269522
20
40.5607101792
11
-44.3551430248
21
39.5935244936
0
LINE
5
216
100
AcDbEntity
8
0
100
AcDbLine
62
9
6
CONTINUOUS
10
-39.2320253346
20
43.1482832645
11
-40.9816966786
21
41.5524086616
0
LINE
5
217
100
AcDbEntity
8
0
100
AcDbLine
62
9
6
CONTINUOUS
10
-41.9721212870
20
40.5318761880
11
-41.1235441844
21
41.3058630577
0
LWPOLYLINE
5
218
100
AcDbEntity
8
0
100
AcDbPolyline
62
7
6
CONTINUOUS
90
25
70
0
10
-43.6656549168
20
-39.3665290266
10
-43.6630129381
20
-39.4385620917
10
-43.6436984636
20
-39.6824161789
10
-43.6083434611
20
-39.9255177726
10
-43.5570110159
20
-40.1667487008
10
-43.4899098718
20
-40.4049266524
10
-43.4072953629
20
-40.6387113628
10
-43.3094598702
20
-40.8670259501
10
-43.1968272565
20
-41.0888234257
10
-43.0699721480
20
-41.3027889551
10
-42.9293975529
20
-41.5079340057
10
-42.7756919060
20
-41.7033576738
10
-42.6097012487
20
-41.8878863242
10
-42.4321293331
20
-42.0606953229
10
-42.2437158571
20
-42.2210234921
10
-42.0455294648
20
-42.3679033590
10
-41.8384620013
20
-42.5006893483
10
-41.6233857545
20
-42.6187878326
10
-41.4015118805
20
-42.7215396451
10
-41.1738663696
20
-42.8084804275
10
-40.9414660474
20
-42.8792385119
10
-40.7055948980
20
-42.9334392924
10
-40.4674406480
20
-42.9708630922
10
-40.2280528667
20
-42.9913868058
10
-40.1424871610
20
-42.9946055107
0
LINE
5
219
100
AcDbEntity
8
0
100
AcDbLine
62
7
6
CONTINUOUS
10
-43.7580793880
20
-35.7804265418
11
-43.6656638508
21
-39.3665362328
0
LINE
5
21A
100
AcDbEntity
8
0
100
AcDbLine
62
7
6
CONTINUOUS
10
-44.4943248835
20
-5.9002805138
11
-44.1563075819
21
-19.5012091728
0
LWPOLYLINE
5
21B
100
AcDbEntity
8
0
100
AcDbPolyline
62
7
6
CONTINUOUS
90
3
70
0
10
-44.1563075819
20
-19.5012091728
10
-43.9507095036
20
-27.9060919805
10
-43.7580793880
20
-35.7804265418
0
LINE
5
21C
100
AcDbEntity
8
0
100
AcDbLine
62
7
6
CONTINUOUS
10
-44.6635531598
20
1.0132486627
11
-44.4943248835
21
-5.9002805138
0
LINE
5
21D
100
AcDbEntity
8
0
100
AcDbLine
62
7
6
CONTINUOUS
10
-45.2708371572
20
27.4718106743
11
-45.0290859111
21
17.0357828667
0
LWPOLYLINE
5
21E
100
AcDbEntity
8
0
100
AcDbPolyline
62
7
6
CONTINUOUS
90
3
70
0
10
-44.8772451813
20
10.3687452184
10
-44.7730678229
20
5.7567533622
10
-44.6635531598
20
1.0132486627
0
LINE
5
21F
100
AcDbEntity
8
0
100
AcDbLine
62
7
6
CONTINUOUS
10
-45.0290859111
20
17.0357828667
11
-44.8772451813
21
10.3687452184
0
LWPOLYLINE
5
220
100
AcDbEntity
8
0
100
AcDbPolyline
62
7
6
CONTINUOUS
90
6
70
0
10
-45.4492244290
20
36.9509088655
10
-45.4279098965
20
35.2435618232
10
-45.3958080871
20
33.3456867163
10
-45.3576326470
20
31.4180256261
10
-45.3155446119
20
29.4603515562
10
-45.2708371572
20
27.4718106743
0
LWPOLYLINE
5
221
100
AcDbEntity
8
0
100
AcDbPolyline
62
7
6
CONTINUOUS
90
10
70
0
10
38.6707389951
20
-42.9946441862
10
38.7553212105
20
-42.9917111382
10
39.0116036423
20
-42.9710466410
10
39.2654262172
20
-42.9328494857
10
39.5156749031
20
-42.8773539590
10
39.7611652110
20
-42.8048847320
10
40.0006405849
20
-42.7158689135
10
40.2330407200
20
-42.6107745988
10
40.4573022778
20
-42.4901310223
10
40.6911132260
20
-42.3417324483
0
LINE
5
222
100
AcDbEntity
8
0
100
AcDbLine
62
7
6
CONTINUOUS
10
-23.8766600784
20
-43.1484444968
11
19.7299980905
21
-43.1482832933
0
LINE
5
223
100
AcDbEntity
8
0
100
AcDbLine
62
9
6
CONTINUOUS
10
-21.8023941509
20
-42.3895985901
11
19.5614869887
21
-42.3895985901
0
LWPOLYLINE
5
224
100
AcDbEntity
8
0
100
AcDbPolyline
62
7
6
CONTINUOUS
90
10
70
0
10
19.7300011983
20
-43.1482833036
10
21.9591701533
20
-43.1484454239
10
24.2814588517
20
-43.1468272260
10
26.5425317217
20
-43.1410357326
10
28.7438193959
20
-43.1300196381
10
30.8848885306
20
-43.1135758004
10
32.9644133103
20
-43.0917961572
10
34.9808479325
20
-43.0645933382
10
36.9324728108
20
-43.0313748090
10
38.6707410038
20
-42.9946463200
0
LWPOLYLINE
5
225
100
AcDbEntity
8
0
100
AcDbPolyline
62
7
6
CONTINUOUS
90
9
70
0
10
-40.1424781232
20
-42.9946063191
10
-38.5200303354
20
-43.0310963763
10
-36.6620187738
20
-43.0643766469
10
-34.7222721205
20
-43.0916286825
10
-32.7041559109
20
-43.1134507283
10
-30.6094516707
20
-43.1299331557
10
-28.4392134488
20
-43.1409849121
10
-26.1944415029
20
-43.1468072147
10
-23.8766600784
20
-43.1484444968
0
LINE
5
226
100
AcDbEntity
8
0
100
AcDbLine
62
7
6
CONTINUOUS
10
-26.0122561904
20
21.4444550420
11
-25.8338171051
21
21.6138439515
0
LINE
5
227
100
AcDbEntity
8
0
100
AcDbLine
62
9
6
CONTINUOUS
10
-26.0118966487
20
21.4447962483
11
-26.0122654290
21
21.4444462719
0
LINE
5
228
100
AcDbEntity
8
0
100
AcDbLine
62
9
6
CONTINUOUS
10
-24.8346161639
20
21.9117792063
11
-24.6429323939
21
22.0866139039
0
LWPOLYLINE
5
229
100
AcDbEntity
8
0
100
AcDbPolyline
62
7
6
CONTINUOUS
90
10
70
0
10
-26.0462943942
20
22.0920317705
10
-25.9255037797
20
22.1829092182
10
-25.7862989346
20
22.2723341499
10
-25.6406268004
20
22.3507497060
10
-25.4893180842
20
22.4177490010
10
-25.3331854938
20
22.4730064658
10
-25.1731988557
20
22.5162190135
10
-25.0102856682
20
22.5471905892
10
-24.8453108595
20
22.5658085773
10
-24.6791831270
20
22.5720160070
0
LINE
5
22A
100
AcDbEntity
8
0
100
AcDbLine
62
7
6
CONTINUOUS
10
18.6180569789
20
-33.4149237413
11
19.1892669040
21
-33.4149158548
0
LINE
5
22B
100
AcDbEntity
8
0
100
AcDbLine
62
7
6
CONTINUOUS
10
16.5547961036
20
-33.4149237413
11
17.1259912566
21
-33.4149158548
0
LINE
5
22C
100
AcDbEntity
8
0
100
AcDbLine
62
7
6
CONTINUOUS
10
14.3011356596
20
-33.4149306419
11
14.8723456143
21
-33.4149237413
0
LINE
5
22D
100
AcDbEntity
8
0
100
AcDbLine
62
7
6
CONTINUOUS
10
12.4321143263
20
-33.4149306419
11
13.0033459468
21
-33.4149237413
0
LINE
5
22E
100
AcDbEntity
8
0
100
AcDbLine
62
7
6
CONTINUOUS
10
15.4435410047
20
-33.4149237413
11
16.0147511673
21
-33.4149237413
0
LINE
5
22F
100
AcDbEntity
8
0
100
AcDbLine
62
7
6
CONTINUOUS
10
17.6660433240
20
-33.4149237413
11
18.2372525018
21
-33.4149237413
0
LINE
5
230
100
AcDbEntity
8
0
100
AcDbLine
62
7
6
CONTINUOUS
10
11.4347160337
20
-30.5513723939
11
12.0059330899
21
-30.5513723939
0
LINE
5
231
100
AcDbEntity
8
0
100
AcDbLine
62
7
6
CONTINUOUS
10
13.2687097248
20
-30.5513723939
11
13.8399267810
21
-30.5513723939
0
LINE
5
232
100
AcDbEntity
8
0
100
AcDbLine
62
7
6
CONTINUOUS
10
14.2207312581
20
-30.5513723939
11
14.7919404358
21
-30.5513723939
0
LINE
5
233
100
AcDbEntity
8
0
100
AcDbLine
62
7
6
CONTINUOUS
10
15.3631289326
20
-30.5513723939
11
16.2266448083
21
-30.5513723939
0
LINE
5
234
100
AcDbEntity
8
0
100
AcDbLine
62
7
6
CONTINUOUS
10
17.2933255387
20
-30.5513723939
11
18.1568404296
21
-30.5513723939
0
LINE
5
235
100
AcDbEntity
8
0
100
AcDbLine
62
7
6
CONTINUOUS
10
11.4691091940
20
-30.5235365506
11
12.0403262502
21
-30.5235365506
0
LINE
5
236
100
AcDbEntity
8
0
100
AcDbLine
62
7
6
CONTINUOUS
10
13.3031028852
20
-30.5235365506
11
13.8743199413
21
-30.5235365506
0
LINE
5
237
100
AcDbEntity
8
0
100
AcDbLine
62
7
6
CONTINUOUS
10
14.2551244185
20
-30.5235365506
11
14.8263335962
21
-30.5235365506
0
LINE
5
238
100
AcDbEntity
8
0
100
AcDbLine
62
7
6
CONTINUOUS
10
15.3975220929
20
-30.5235365506
11
16.2610379686
21
-30.5235365506
0
LINE
5
239
100
AcDbEntity
8
0
100
AcDbLine
62
7
6
CONTINUOUS
10
17.3277186990
20
-30.5235365506
11
18.1912335899
21
-30.5235365506
0
LINE
5
23A
100
AcDbEntity
8
0
100
AcDbLine
62
9
6
CONTINUOUS
10
-22.2092488468
20
-29.3361284846
11
19.0886126230
21
-29.3361284846
0
LINE
5
23B
100
AcDbEntity
8
0
100
AcDbLine
62
9
6
CONTINUOUS
10
-28.5793441879
20
20.1929880763
11
-28.0412282492
21
-1.7919807620
0
LINE
5
23C
100
AcDbEntity
8
0
100
AcDbLine
62
7
6
CONTINUOUS
10
-25.7914676481
20
-23.6637708720
11
-26.8644893462
21
20.3041313801
0
LINE
5
23D
100
AcDbEntity
8
0
100
AcDbLine
62
7
6
CONTINUOUS
10
-26.5570752406
20
20.1266435735
11
-25.4840535430
21
-23.8412586583
0
LINE
5
23E
100
AcDbEntity
8
0
100
AcDbLine
62
9
6
CONTINUOUS
10
-25.7293311469
20
20.0118678681
11
-24.6563094488
21
-23.9560343840
0
LINE
5
23F
100
AcDbEntity
8
0
100
AcDbLine
62
9
6
CONTINUOUS
10
-28.0412282492
20
-1.7919807620
11
-27.5121117716
21
-23.7741968675
0
LWPOLYLINE
5
240
100
AcDbEntity
8
0
100
AcDbPolyline
62
7
6
CONTINUOUS
90
11
70
0
10
-26.5570752405
20
20.1266435707
10
-26.5540037858
20
20.2830188171
10
-26.5372102149
20
20.4382042522
10
-26.5068659713
20
20.5910074686
10
-26.4632620546
20
20.7402069353
10
-26.4067645744
20
20.8847157816
10
-26.3377748984
20
21.0235615896
10
-26.2568305001
20
21.1556658575
10
-26.1645772075
20
21.2799869918
10
-26.0616706964
20
21.3956382918
10
-26.0118966456
20
21.4447962512
0
LINE
5
241
100
AcDbEntity
8
0
100
AcDbLine
62
7
6
CONTINUOUS
10
20.2546388749
20
-25.9413874301
11
-23.4708253589
21
-25.9413874301
0
LINE
5
242
100
AcDbEntity
8
0
100
AcDbLine
62
7
6
CONTINUOUS
10
-23.6966978665
20
-25.5899111797
11
20.0287663521
21
-25.5899111797
0
LINE
5
243
100
AcDbEntity
8
0
100
AcDbLine
62
9
6
CONTINUOUS
10
-23.8686561121
20
-24.7290842806
11
19.8568081217
21
-24.7290842806
0
LINE
5
244
100
AcDbEntity
8
0
100
AcDbLine
62
9
6
CONTINUOUS
10
-23.5697902111
20
-27.6367745183
11
20.1556740227
21
-27.6367745183
0
LWPOLYLINE
5
245
100
AcDbEntity
8
0
100
AcDbPolyline
62
7
6
CONTINUOUS
90
19
70
0
10
-23.6966978630
20
-25.5899111797
10
-23.8492456111
20
-25.5833109364
10
-24.0008912342
20
-25.5635430662
10
-24.1505239973
20
-25.5307247331
10
-24.2971275299
20
-25.4850329213
10
-24.4395357195
20
-25.4267765200
10
-24.5764762599
20
-25.3564576010
10
-24.7069564610
20
-25.2745927338
10
-24.8300499715
20
-25.1817546926
10
-24.9447173315
20
-25.0787315389
10
-25.0501629815
20
-24.9662548044
10
-25.1456274471
20
-24.8451290685
10
-25.2302937397
20
-24.7164116703
10
-25.3035748502
20
-24.5810512437
10
-25.3649761465
20
-24.4399927217
10
-25.4140088422
20
-24.2944072483
10
-25.4503378512
20
-24.1454021832
10
-25.4737404596
20
-23.9939908567
10
-25.4840535431
20
-23.8412586541
0
LINE
5
246
100
AcDbEntity
8
0
100
AcDbLine
62
9
6
CONTINUOUS
10
37.8029235624
20
41.5524086616
11
39.5525949063
21
43.1482832645
0
LINE
5
247
100
AcDbEntity
8
0
100
AcDbLine
62
9
6
CONTINUOUS
10
36.7928027989
20
40.5318761880
11
37.6413799015
21
41.3058630577
0
LINE
5
248
100
AcDbEntity
8
0
100
AcDbLine
62
9
6
CONTINUOUS
10
40.4674674832
20
36.9581513337
11
41.9160903667
21
38.0240321384
0
LINE
5
249
100
AcDbEntity
8
0
100
AcDbLine
62
9
6
CONTINUOUS
10
42.1076833421
20
38.0976464899
11
43.5884945398
21
39.1872109895
0
LINE
5
24A
100
AcDbEntity
8
0
100
AcDbLine
62
9
6
CONTINUOUS
10
20.8986866749
20
20.3041313801
11
20.6873226432
21
20.1486120635
0
LINE
5
24B
100
AcDbEntity
8
0
100
AcDbLine
62
9
6
CONTINUOUS
10
19.0825318398
20
22.0866139039
11
18.8908480698
21
21.9117792063
0
LINE
5
24C
100
AcDbEntity
8
0
100
AcDbLine
62
9
6
CONTINUOUS
10
20.6067294189
20
-23.9560343840
11
19.5337077208
21
20.0118678681
0
LINE
5
24D
100
AcDbEntity
8
0
100
AcDbLine
62
9
6
CONTINUOUS
10
21.7603443412
20
-23.8192901886
11
20.6873226432
21
20.1486120635
0
LINE
5
24E
100
AcDbEntity
8
0
100
AcDbLine
62
7
6
CONTINUOUS
10
20.8986866749
20
20.3041313801
11
21.9717083730
21
-23.6637708720
0
LINE
5
24F
100
AcDbEntity
8
0
100
AcDbLine
62
9
6
CONTINUOUS
10
18.7460543841
20
20.7849177647
11
-24.9794098497
21
20.7849177647
0
LINE
5
250
100
AcDbEntity
8
0
100
AcDbLine
62
9
6
CONTINUOUS
10
23.9118780606
20
-23.7741968675
11
23.3657614438
21
-1.7919807620
0
LINE
5
251
100
AcDbEntity
8
0
100
AcDbLine
62
7
6
CONTINUOUS
10
21.3761959652
20
20.2797339846
11
22.4492176632
21
-23.6881682675
0
LINE
5
252
100
AcDbEntity
8
0
100
AcDbLine
62
9
6
CONTINUOUS
10
23.3657614438
20
-1.7919807620
11
22.8312945103
21
20.1929880763
0
LWPOLYLINE
5
253
100
AcDbEntity
8
0
100
AcDbPolyline
62
7
6
CONTINUOUS
90
8
70
0
10
22.4492176632
20
-23.6881682675
10
22.4471846737
20
-23.8551261276
10
22.4329123455
20
-24.0213067679
10
22.4064228038
20
-24.1857865982
10
22.3678036650
20
-24.3476627808
10
22.3172185511
20
-24.5060096618
10
22.2549150314
20
-24.6598948175
10
22.1811833353
20
-24.8084786130
0
LINE
5
254
100
AcDbEntity
8
0
100
AcDbLine
62
9
6
CONTINUOUS
10
18.8908480698
20
21.9117792063
11
-24.8346161639
21
21.9117792063
0
LINE
5
255
100
AcDbEntity
8
0
100
AcDbLine
62
7
6
CONTINUOUS
10
-24.6429323939
20
22.0866139039
11
19.0825318398
21
22.0866139039
0
LINE
5
256
100
AcDbEntity
8
0
100
AcDbLine
62
7
6
CONTINUOUS
10
-24.6791831270
20
22.5720160070
11
19.0462811068
21
22.5720160070
0
LINE
5
257
100
AcDbEntity
8
0
100
AcDbLine
62
9
6
CONTINUOUS
10
18.8944480378
20
24.0572726016
11
-2.9725437696
21
24.0548697150
0
LINE
5
258
100
AcDbEntity
8
0
100
AcDbLine
62
9
6
CONTINUOUS
10
-2.9725437696
20
24.0548697150
11
-24.8310161959
21
24.0572726016
0
LWPOLYLINE
5
259
100
AcDbEntity
8
0
100
AcDbPolyline
62
7
6
CONTINUOUS
90
22
70
0
10
19.0462811068
20
22.5720160070
10
19.2167614299
20
22.5655134061
10
19.3865384849
20
22.5460710522
10
19.5546270568
20
22.5138458766
10
19.7199999418
20
22.4690898061
10
19.8817642608
20
22.4121047203
10
20.0391513307
20
22.3432009545
10
20.1912508095
20
22.2628032965
10
20.3371876849
20
22.1714089571
10
20.4762629606
20
22.0694781536
10
20.6076640193
20
21.9576169250
10
20.7306351539
20
21.8364902144
10
20.8445888432
20
21.7066829438
10
20.9488526512
20
21.5689504044
10
21.0428161513
20
21.4241013514
10
21.1260182357
20
21.2728290589
10
21.1979548667
20
21.1160056563
10
21.2581902676
20
20.9545493071
10
21.3064077022
20
20.7892426202
10
21.3423015363
20
20.6209891587
10
21.3656168819
20
20.4508217075
10
21.3761959652
20
20.2797339846
0
LWPOLYLINE
5
25A
100
AcDbEntity
8
0
100
AcDbPolyline
62
7
6
CONTINUOUS
90
6
70
0
10
22.1811833353
20
-24.8084786130
10
22.0963960242
20
-24.9509029081
10
22.0010452361
20
-25.0862739899
10
21.8956138436
20
-25.2138588284
10
21.7806668321
20
-25.3329244966
10
21.6459172974
20
-25.4516712624
0
LINE
5
25B
100
AcDbEntity
8
0
100
AcDbLine
62
7
6
CONTINUOUS
10
11.4347160337
20
-30.5513723939
11
11.4691091940
21
-30.5235365506
0
LINE
5
25C
100
AcDbEntity
8
0
100
AcDbLine
62
7
6
CONTINUOUS
10
12.0059330899
20
-30.5513723939
11
12.0403262502
21
-30.5235365506
0
LINE
5
25D
100
AcDbEntity
8
0
100
AcDbLine
62
7
6
CONTINUOUS
10
13.2687097248
20
-30.5513723939
11
13.3031028852
21
-30.5235365506
0
LINE
5
25E
100
AcDbEntity
8
0
100
AcDbLine
62
7
6
CONTINUOUS
10
13.8399267810
20
-30.5513723939
11
13.8743199413
21
-30.5235365506
0
LINE
5
25F
100
AcDbEntity
8
0
100
AcDbLine
62
7
6
CONTINUOUS
10
14.2207312581
20
-30.5513723939
11
14.2551244185
21
-30.5235365506
0
LINE
5
260
100
AcDbEntity
8
0
100
AcDbLine
62
7
6
CONTINUOUS
10
14.7919404358
20
-30.5513723939
11
14.8263335962
21
-30.5235365506
0
LINE
5
261
100
AcDbEntity
8
0
100
AcDbLine
62
7
6
CONTINUOUS
10
15.3631289326
20
-30.5513723939
11
15.3975220929
21
-30.5235365506
0
LINE
5
262
100
AcDbEntity
8
0
100
AcDbLine
62
7
6
CONTINUOUS
10
16.2266448083
20
-30.5513723939
11
16.2610379686
21
-30.5235365506
0
LINE
5
263
100
AcDbEntity
8
0
100
AcDbLine
62
9
6
CONTINUOUS
10
21.9717083730
20
-23.6637708720
11
21.7603443412
21
-23.8192901886
0
LINE
5
264
100
AcDbEntity
8
0
100
AcDbLine
62
9
6
CONTINUOUS
10
21.0198257036
20
-25.2832651480
11
21.0202768070
21
-25.2829554838
0
LINE
5
265
100
AcDbEntity
8
0
100
AcDbLine
62
7
6
CONTINUOUS
10
21.0198525022
20
-25.2832467579
11
21.2227013189
21
-25.1440416692
0
LWPOLYLINE
5
266
100
AcDbEntity
8
0
100
AcDbPolyline
62
7
6
CONTINUOUS
90
8
70
0
10
21.0202768567
20
-25.2829554497
10
20.9187390666
20
-25.3476364649
10
20.7817989821
20
-25.4203610448
10
20.6388306254
20
-25.4806889528
10
20.4908808002
20
-25.5281538552
10
20.3390770965
20
-25.5623605848
10
20.1846350811
20
-25.5830070524
10
20.0287663484
20
-25.5899111797
0
LINE
5
267
100
AcDbEntity
8
0
100
AcDbLine
62
7
6
CONTINUOUS
10
13.0033459468
20
-33.4149237413
11
13.0377552757
21
-33.3870748121
0
LINE
5
268
100
AcDbEntity
8
0
100
AcDbLine
62
7
6
CONTINUOUS
10
17.2933255387
20
-30.5513723939
11
17.3277186990
21
-30.5235365506
0
LINE
5
269
100
AcDbEntity
8
0
100
AcDbLine
62
7
6
CONTINUOUS
10
18.1568404296
20
-30.5513723939
11
18.1912335899
21
-30.5235365506
0
LINE
5
26A
100
AcDbEntity
8
0
100
AcDbLine
62
7
6
CONTINUOUS
10
14.8723456143
20
-33.4149237413
11
14.9067549432
21
-33.3870748121
0
LINE
5
26B
100
AcDbEntity
8
0
100
AcDbLine
62
7
6
CONTINUOUS
10
19.4545634073
20
-30.5514143861
11
19.4889565729
21
-30.5235785386
0
LINE
5
26C
100
AcDbEntity
8
0
100
AcDbLine
62
7
6
CONTINUOUS
10
16.0147511673
20
-33.4149237413
11
16.0491604961
21
-33.3870748121
0
LINE
5
26D
100
AcDbEntity
8
0
100
AcDbLine
62
7
6
CONTINUOUS
10
20.0254719790
20
-30.5516815907
11
20.0598651867
21
-30.5238457091
0
LINE
5
26E
100
AcDbEntity
8
0
100
AcDbLine
62
7
6
CONTINUOUS
10
17.1259912566
20
-33.4149158548
11
17.1604005854
21
-33.3870669257
0
LINE
5
26F
100
AcDbEntity
8
0
100
AcDbLine
62
7
6
CONTINUOUS
10
21.3222171627
20
-30.5525331806
11
21.3566096648
21
-30.5246978701
0
LINE
5
270
100
AcDbEntity
8
0
100
AcDbLine
62
7
6
CONTINUOUS
10
19.5113149425
20
-32.3088632722
11
19.5457160817
21
-32.2810209713
0
LINE
5
271
100
AcDbEntity
8
0
100
AcDbLine
62
7
6
CONTINUOUS
10
18.2372525018
20
-33.4149237413
11
18.2716618306
21
-33.3870748121
0
LINE
5
272
100
AcDbEntity
8
0
100
AcDbLine
62
7
6
CONTINUOUS
10
22.6597651639
20
-30.5525588176
11
22.6941574836
21
-30.5247236546
0
LINE
5
273
100
AcDbEntity
8
0
100
AcDbLine
62
7
6
CONTINUOUS
10
19.1892669040
20
-33.4149158548
11
19.2236762328
21
-33.3870669257
0
LINE
5
274
100
AcDbEntity
8
0
100
AcDbLine
62
7
6
CONTINUOUS
10
21.9177326098
20
-31.7809527918
11
21.9521294252
21
-31.7531139903
0
LINE
5
275
100
AcDbEntity
8
0
100
AcDbLine
62
7
6
CONTINUOUS
10
22.6126794523
20
-31.7809595526
11
22.6470757818
21
-31.7531211444
0
LINE
5
276
100
AcDbEntity
8
0
100
AcDbLine
62
7
6
CONTINUOUS
10
21.0216487710
20
-33.4162340304
11
21.0560590636
21
-33.3883843212
0
LINE
5
277
100
AcDbEntity
8
0
100
AcDbLine
62
7
6
CONTINUOUS
10
21.9727021927
20
-33.4170094855
11
22.0071116820
21
-33.3891604265
0
LINE
5
278
100
AcDbEntity
8
0
100
AcDbLine
62
7
6
CONTINUOUS
10
23.6879361160
20
-33.4163335580
11
23.7223457332
21
-33.3884843954
0
LINE
5
279
100
AcDbEntity
8
0
100
AcDbLine
62
7
6
CONTINUOUS
10
37.6413799015
20
41.3058630577
11
-41.1235441844
21
41.3058630577
0
LINE
5
27A
100
AcDbEntity
8
0
100
AcDbLine
62
7
6
CONTINUOUS
10
-42.2629854225
20
41.3243324981
11
-41.6920473860
21
41.3243324981
0
LINE
5
27B
100
AcDbEntity
8
0
100
AcDbLine
62
7
6
CONTINUOUS
10
-41.5453137932
20
41.3243324981
11
38.2029153278
21
41.3243324981
0
LINE
5
27C
100
AcDbEntity
8
0
100
AcDbLine
62
7
6
CONTINUOUS
10
38.3775332279
20
41.3243324981
11
39.0953445486
21
41.3243324981
0
LINE
5
27D
100
AcDbEntity
8
0
100
AcDbLine
62
7
6
CONTINUOUS
10
-40.9816966786
20
41.5524086616
11
37.8029235624
21
41.5524086616
0
LINE
5
27E
100
AcDbEntity
8
0
100
AcDbLine
62
7
6
CONTINUOUS
10
43.7928642795
20
-38.1947470508
11
41.9564021435
21
37.0557234929
0
LINE
5
27F
100
AcDbEntity
8
0
100
AcDbLine
62
7
6
CONTINUOUS
10
45.4493655027
20
-37.0634303036
11
43.5884945398
21
39.1872109895
0
LINE
5
280
100
AcDbEntity
8
0
100
AcDbLine
62
7
6
CONTINUOUS
10
39.5525949063
20
43.1482832645
11
-39.2320253346
21
43.1482832645
0
LWPOLYLINE
5
281
100
AcDbEntity
8
0
100
AcDbPolyline
62
7
6
CONTINUOUS
90
4
70
0
10
41.6221045210
20
-41.7028508076
10
41.7580030939
20
-41.6508480436
10
41.9777037020
20
-41.5499770448
10
42.1902477169
20
-41.4351176514
0
LINE
5
282
100
AcDbEntity
8
0
100
AcDbLine
62
9
6
CONTINUOUS
10
43.7928642795
20
-38.1947470508
11
42.2335755464
21
-39.3420544529
0
LINE
5
283
100
AcDbEntity
8
0
100
AcDbLine
62
9
6
CONTINUOUS
10
45.4493655027
20
-37.0634303036
11
44.0317972693
21
-38.1064613296
0
LINE
5
284
100
AcDbEntity
8
0
100
AcDbLine
62
7
6
CONTINUOUS
10
40.6799905427
20
-42.3493678971
11
42.2291140563
21
-41.2862902499
0
LINE
5
285
100
AcDbEntity
8
0
100
AcDbLine
62
7
6
CONTINUOUS
10
42.3947696389
20
-41.3067445098
11
43.7858014355
21
-40.3523060473
0
LINE
5
286
100
AcDbEntity
8
0
100
AcDbLine
62
7
6
CONTINUOUS
10
42.1902477169
20
-41.4351176514
11
42.3947696389
21
-41.3067445098
0
SPLINE
5
287
100
AcDbEntity
8
0
100
AcDbSpline
62
9
6
CONTINUOUS
70
0
71
3
72
12
73
8
74
6
42
0.0000001000
43
0.0000001000
44
0.0000000001
12
1.4096831842
22
0.9678143492
32
0.0000000000
13
-0.0416240070
23
1.7055760808
33
0.0000000000
40
0.0000000000
40
0.0000000000
40
0.0000000000
40
0.0000000000
40
0.0826609468
40
0.3106775270
40
0.5393707008
40
0.7690379217
40
1.0000000000
40
1.0000000000
40
1.0000000000
40
1.0000000000
10
21.0202669825
20
-25.2829411737
30
0.0000000000
10
21.0591088980
20
-25.2562743569
30
0.0000000000
10
21.2009233688
20
-25.1499730327
30
0.0000000000
10
21.4164274054
20
-24.9279056752
30
0.0000000000
10
21.6190844336
20
-24.5902473507
30
0.0000000000
10
21.7406468364
20
-24.2141639251
30
0.0000000000
10
21.7635488636
20
-23.9505979873
30
0.0000000000
10
21.7603443412
20
-23.8192901886
30
0.0000000000
11
21.0202669825
21
-25.2829411737
31
0.0000000000
11
21.1333212298
21
-25.1981781032
31
0.0000000000
11
21.4042846490
21
-24.9190512103
31
0.0000000000
11
21.6052292841
21
-24.5846058728
31
0.0000000000
11
21.7259178056
21
-24.2118241062
31
0.0000000000
11
21.7603443412
21
-23.8192901886
31
0.0000000000
0
SPLINE
5
288
100
AcDbEntity
8
0
100
AcDbSpline
62
9
6
CONTINUOUS
70
0
71
3
72
11
73
7
74
5
42
0.0000001000
43
0.0000001000
44
0.0000000001
12
-0.8400470254
22
0.0000001555
32
0.0000000000
13
-0.2190722146
23
0.8531155311
33
0.0000000000
40
0.0000000000
40
0.0000000000
40
0.0000000000
40
0.0000000000
40
0.4288275591
40
0.7650113227
40
0.9624285163
40
1.0000000000
40
1.0000000000
40
1.0000000000
40
1.0000000000
10
-24.6563094488
20
-23.9560343840
30
0.0000000000
10
-24.7763878873
20
-23.9560343618
30
0.0000000000
10
-24.9926572935
20
-23.9606563265
30
0.0000000000
10
-25.2549190831
20
-23.9042357148
30
0.0000000000
10
-25.4227612837
20
-23.9247571690
30
0.0000000000
10
-25.4738612615
20
-23.8500302368
30
0.0000000000
10
-25.4766048842
20
-23.8393459647
30
0.0000000000
11
-24.6563094488
21
-23.9560343840
31
0.0000000000
11
-25.0163956916
21
-23.9456719409
31
0.0000000000
11
-25.2972561944
21
-23.9161273572
31
0.0000000000
11
-25.4570619450
21
-23.8717997484
31
0.0000000000
11
-25.4766048842
21
-23.8393459647
31
0.0000000000
0
SPLINE
5
289
100
AcDbEntity
8
0
100
AcDbSpline
62
9
6
CONTINUOUS
70
0
71
3
72
14
73
10
74
8
42
0.0000001000
43
0.0000001000
44
0.0000000001
12
0.0297164569
22
-1.2176550355
32
0.0000000000
13
1.2180175915
23
0.0000000000
33
0.0000000000
40
0.0000000000
40
0.0000000000
40
0.0000000000
40
0.0000000000
40
0.1419974931
40
0.2849166042
40
0.4286985894
40
0.5725240678
40
0.7160981270
40
0.8588702553
40
1.0000000000
40
1.0000000000
40
1.0000000000
40
1.0000000000
10
-24.6563094488
20
-23.9560343840
30
0.0000000000
10
-24.6549028947
20
-24.0136690382
30
0.0000000000
10
-24.6391184976
20
-24.1293930621
30
0.0000000000
10
-24.5779765921
20
-24.2937805364
30
0.0000000000
10
-24.4821558417
20
-24.4416701360
30
0.0000000000
10
-24.3562852881
20
-24.5653501003
30
0.0000000000
10
-24.2067868881
20
-24.6583988711
30
0.0000000000
10
-24.0416232250
20
-24.7160213449
30
0.0000000000
10
-23.9259556160
20
-24.7290842806
30
0.0000000000
10
-23.8686561121
20
-24.7290842806
30
0.0000000000
11
-24.6563094488
21
-23.9560343840
31
0.0000000000
11
-24.6329969291
21
-24.1274114893
31
0.0000000000
11
-24.5724040684
21
-24.2906035613
31
0.0000000000
11
-24.4771803696
21
-24.4375818228
31
0.0000000000
11
-24.3522091945
21
-24.5603455207
31
0.0000000000
11
-24.2037123513
21
-24.6527046481
31
0.0000000000
11
-24.0394771747
21
-24.7098680667
31
0.0000000000
11
-23.8686561121
21
-24.7290842806
31
0.0000000000
0
SPLINE
5
28A
100
AcDbEntity
8
0
100
AcDbSpline
62
9
6
CONTINUOUS
70
0
71
3
72
11
73
7
74
5
42
0.0000001000
43
0.0000001000
44
0.0000000001
12
0.0216974155
22
-0.8890685501
32
0.0000000000
13
0.8475055621
23
-0.1639123471
33
0.0000000000
40
0.0000000000
40
0.0000000000
40
0.0000000000
40
0.0000000000
40
0.4107136260
40
0.7401146041
40
0.9443598898
40
1.0000000000
40
1.0000000000
40
1.0000000000
40
1.0000000000
10
-23.8686561121
20
-24.7290842806
30
0.0000000000
10
-23.8656856373
20
-24.8508018033
30
0.0000000000
10
-23.8597657364
20
-25.0701381383
30
0.0000000000
10
-23.8007757388
20
-25.3477231448
30
0.0000000000
10
-23.7913547752
20
-25.5173241996
30
0.0000000000
10
-23.7117422129
20
-25.5833857879
30
0.0000000000
10
-23.6960237787
20
-25.5864258216
30
0.0000000000
11
-23.8686561121
21
-24.7290842806
31
0.0000000000
11
-23.8467013278
21
-25.0936851567
31
0.0000000000
11
-23.8024081793
21
-25.3832645200
31
0.0000000000
11
-23.7423727576
21
-25.5546985035
31
0.0000000000
11
-23.6960237787
21
-25.5864258216
31
0.0000000000
0
SPLINE
5
28B
100
AcDbEntity
8
0
100
AcDbSpline
62
9
6
CONTINUOUS
70
0
71
3
72
11
73
7
74
5
42
0.0000001000
43
0.0000001000
44
0.0000000001
12
0.0216972423
22
-0.8890681219
32
0.0000000000
13
0.8474999918
23
-0.1639149137
33
0.0000000000
40
0.0000000000
40
0.0000000000
40
0.0000000000
40
0.0000000000
40
0.4107069895
40
0.7401087170
40
0.9443582087
40
1.0000000000
40
1.0000000000
40
1.0000000000
40
1.0000000000
10
19.8568081217
20
-24.7290842806
30
0.0000000000
10
19.8597785247
20
-24.8507997779
30
0.0000000000
10
19.8656983309
20
-25.0701340233
30
0.0000000000
10
19.9246876136
20
-25.3477192464
30
0.0000000000
10
19.9341078236
20
-25.5173208890
30
0.0000000000
10
20.0137215819
20
-25.5833856410
30
0.0000000000
10
20.0294403877
20
-25.5864258142
30
0.0000000000
11
19.8568081217
21
-24.7290842806
31
0.0000000000
11
19.8787622402
21
-25.0936791061
31
0.0000000000
11
19.9230547558
21
-25.3832590964
31
0.0000000000
11
19.9830903875
21
-25.5546968761
31
0.0000000000
11
20.0294403877
21
-25.5864258142
31
0.0000000000
0
SPLINE
5
28C
100
AcDbEntity
8
0
100
AcDbSpline
62
9
6
CONTINUOUS
70
0
71
3
72
14
73
10
74
8
42
0.0000001000
43
0.0000001000
44
0.0000000001
12
1.1990861069
22
0.0000000000
32
0.0000000000
13
-0.0292545780
23
1.1987291860
33
0.0000000000
40
0.0000000000
40
0.0000000000
40
0.0000000000
40
0.0000000000
40
0.1426484583
40
0.2849864632
40
0.4275032713
40
0.5700768755
40
0.7131086833
40
0.8566024444
40
1.0000000000
40
1.0000000000
40
1.0000000000
40
1.0000000000
10
19.8568081217
20
-24.7290842806
30
0.0000000000
10
19.9138240498
20
-24.7290842806
30
0.0000000000
10
20.0281607613
20
-24.7162343110
30
0.0000000000
10
20.1906074901
20
-24.6588060349
30
0.0000000000
10
20.3358039559
20
-24.5658948270
30
0.0000000000
10
20.4560468154
20
-24.4420175140
30
0.0000000000
10
20.5450219834
20
-24.2936065018
30
0.0000000000
10
20.5981684080
20
-24.1286995923
30
0.0000000000
10
20.6081277639
20
-24.0133326624
30
0.0000000000
10
20.6067294189
20
-23.9560343840
30
0.0000000000
11
19.8568081217
21
-24.7290842806
31
0.0000000000
11
20.0267708048
21
-24.7098480930
31
0.0000000000
11
20.1876738263
21
-24.6529240012
31
0.0000000000
11
20.3315928898
21
-24.5607791722
31
0.0000000000
11
20.4506864041
21
-24.4381277060
31
0.0000000000
11
20.5389474699
21
-24.2910740052
31
0.0000000000
11
20.5917995985
21
-24.1273310072
31
0.0000000000
11
20.6067294189
21
-23.9560343840
31
0.0000000000
0
SPLINE
5
28D
100
AcDbEntity
8
0
100
AcDbSpline
62
9
6
CONTINUOUS
70
0
71
3
72
11
73
7
74
5
42
0.0000001000
43
0.0000001000
44
0.0000000001
12
1.1678410919
22
0.0000000000
32
0.0000000000
13
0.9406501675
23
0.6921199884
33
0.0000000000
40
0.0000000000
40
0.0000000000
40
0.0000000000
40
0.0000000000
40
0.3303867334
40
0.6344529698
40
0.8681876379
40
1.0000000000
40
1.0000000000
40
1.0000000000
40
1.0000000000
10
20.6067294189
20
-23.9560343840
30
0.0000000000
10
20.7353424867
20
-23.9560343840
30
0.0000000000
10
20.9819117761
20
-23.9490360366
30
0.0000000000
10
21.3207746435
20
-23.9239469170
30
0.0000000000
10
21.5746278555
20
-23.8820523064
30
0.0000000000
10
21.7190145677
20
-23.8497001788
30
0.0000000000
10
21.7603443412
20
-23.8192901886
30
0.0000000000
11
20.6067294189
21
-23.9560343840
31
0.0000000000
11
20.9924294372
21
-23.9456716251
31
0.0000000000
11
21.3462992462
21
-23.9161265598
31
0.0000000000
11
21.6156409106
21
-23.8717990096
31
0.0000000000
11
21.7603443412
21
-23.8192901886
31
0.0000000000
0
SPLINE
5
28E
100
AcDbEntity
8
0
100
AcDbSpline
62
9
6
CONTINUOUS
70
0
71
3
72
11
73
7
74
5
42
0.0000001000
43
0.0000001000
44
0.0000000001
12
1.1678410905
22
-0.0000002162
32
0.0000000000
13
0.9406497211
23
0.6921205926
33
0.0000000000
40
0.0000000000
40
0.0000000000
40
0.0000000000
40
0.0000000000
40
0.3303808700
40
0.6344466510
40
0.8681846690
40
1.0000000000
40
1.0000000000
40
1.0000000000
40
1.0000000000
10
19.5337077208
20
20.0118678681
30
0.0000000000
10
19.6623185060
20
20.0118678443
30
0.0000000000
10
19.9088853362
20
20.0188659869
30
0.0000000000
10
20.2477471002
20
20.0439545830
30
0.0000000000
10
20.5016024993
20
20.0858492434
30
0.0000000000
10
20.6459919583
20
20.1182013637
30
0.0000000000
10
20.6873226431
20
20.1486120653
30
0.0000000000
11
19.5337077208
21
20.0118678681
31
0.0000000000
11
19.9194009001
21
20.0222302046
31
0.0000000000
11
20.2732702182
21
20.0517747516
31
0.0000000000
11
20.5426158310
21
20.0961023990
31
0.0000000000
11
20.6873226431
21
20.1486120653
31
0.0000000000
0
SPLINE
5
28F
100
AcDbEntity
8
0
100
AcDbSpline
62
9
6
CONTINUOUS
70
0
71
3
72
14
73
10
74
8
42
0.0000001000
43
0.0000001000
44
0.0000000001
12
-0.0677772602
22
2.7772261214
32
0.0000000000
13
-2.7780530388
23
-0.0000000048
33
0.0000000000
40
0.0000000000
40
0.0000000000
40
0.0000000000
40
0.0000000000
40
0.1425330944
40
0.2853469482
40
0.4289385233
40
0.5724298161
40
0.7156373750
40
0.8581947409
40
1.0000000000
40
1.0000000000
40
1.0000000000
40
1.0000000000
10
20.6873226432
20
20.1486120635
30
0.0000000000
10
20.6841024756
20
20.2805609412
30
0.0000000000
10
20.6479257170
20
20.5449056919
30
0.0000000000
10
20.5081558941
20
20.9199539112
30
0.0000000000
10
20.2897264985
20
21.2566307096
30
0.0000000000
10
20.0032183251
20
21.5380922634
30
0.0000000000
10
19.6630785431
20
21.7500171482
30
0.0000000000
10
19.2864147411
20
21.8817826145
30
0.0000000000
10
19.0221622468
20
21.9117792065
30
0.0000000000
10
18.8908480698
20
21.9117792063
30
0.0000000000
11
20.6873226432
21
20.1486120635
31
0.0000000000
11
20.6337883234
21
20.5409409545
31
0.0000000000
11
20.4954309623
21
20.9127788326
31
0.0000000000
11
20.2783457330
21
21.2474416653
31
0.0000000000
11
19.9939413622
21
21.5267572181
31
0.0000000000
11
19.6562086146
21
21.7370232877
31
0.0000000000
11
19.2822974774
21
21.8675290191
31
0.0000000000
11
18.8908480698
21
21.9117792063
31
0.0000000000
0
SPLINE
5
290
100
AcDbEntity
8
0
100
AcDbSpline
62
9
6
CONTINUOUS
70
0
71
3
72
14
73
10
74
8
42
0.0000001000
43
0.0000001000
44
0.0000000001
12
-0.0297164569
22
1.2176550355
32
0.0000000000
13
-1.2180175915
23
0.0000000000
33
0.0000000000
40
0.0000000000
40
0.0000000000
40
0.0000000000
40
0.0000000000
40
0.1419974931
40
0.2849166042
40
0.4286985894
40
0.5725240678
40
0.7160981270
40
0.8588702553
40
1.0000000000
40
1.0000000000
40
1.0000000000
40
1.0000000000
10
19.5337077208
20
20.0118678681
30
0.0000000000
10
19.5323011667
20
20.0695025223
30
0.0000000000
10
19.5165167696
20
20.1852265462
30
0.0000000000
10
19.4553748641
20
20.3496140205
30
0.0000000000
10
19.3595541137
20
20.4975036201
30
0.0000000000
10
19.2336835601
20
20.6211835844
30
0.0000000000
10
19.0841851601
20
20.7142323552
30
0.0000000000
10
18.9190214970
20
20.7718548290
30
0.0000000000
10
18.8033538880
20
20.7849177647
30
0.0000000000
10
18.7460543841
20
20.7849177647
30
0.0000000000
11
19.5337077208
21
20.0118678681
31
0.0000000000
11
19.5103952011
21
20.1832449734
31
0.0000000000
11
19.4498023404
21
20.3464370454
31
0.0000000000
11
19.3545786415
21
20.4934153069
31
0.0000000000
11
19.2296074664
21
20.6161790048
31
0.0000000000
11
19.0811106233
21
20.7085381322
31
0.0000000000
11
18.9168754467
21
20.7657015508
31
0.0000000000
11
18.7460543841
21
20.7849177647
31
0.0000000000
0
SPLINE
5
291
100
AcDbEntity
8
0
100
AcDbSpline
62
9
6
CONTINUOUS
70
0
71
3
72
11
73
7
74
5
42
0.0000001000
43
0.0000001000
44
0.0000000001
12
-0.0279809401
22
1.1465408777
32
0.0000000000
13
0.8473540332
23
0.7728713086
33
0.0000000000
40
0.0000000000
40
0.0000000000
40
0.0000000000
40
0.0000000000
40
0.3359923887
40
0.6410368464
40
0.8718873825
40
1.0000000000
40
1.0000000000
40
1.0000000000
40
1.0000000000
10
18.7460543841
20
20.7849177647
30
0.0000000000
10
18.7429205898
20
20.9133274341
30
0.0000000000
10
18.7454357478
20
21.1578218947
30
0.0000000000
10
18.7694042740
20
21.4934263528
30
0.0000000000
10
18.8143518983
20
21.7372697410
30
0.0000000000
10
18.8546624888
20
21.8787743508
30
0.0000000000
10
18.8908480698
20
21.9117792063
30
0.0000000000
11
18.7460543841
21
20.7849177647
31
0.0000000000
11
18.7497074484
21
21.1702441587
31
0.0000000000
11
18.7784243507
21
21.5189136524
31
0.0000000000
11
18.8279285987
21
21.7790027364
31
0.0000000000
11
18.8908480698
21
21.9117792063
31
0.0000000000
0
SPLINE
5
292
100
AcDbEntity
8
0
100
AcDbSpline
62
9
6
CONTINUOUS
70
0
71
3
72
11
73
7
74
5
42
0.0000001000
43
0.0000001000
44
0.0000000001
12
-0.0279807288
22
1.1465408207
32
0.0000000000
13
0.8473535761
23
0.7728717175
33
0.0000000000
40
0.0000000000
40
0.0000000000
40
0.0000000000
40
0.0000000000
40
0.3359864858
40
0.6410305929
40
0.8718845237
40
1.0000000000
40
1.0000000000
40
1.0000000000
40
1.0000000000
10
-24.9794098497
20
20.7849177647
30
0.0000000000
10
-24.9825435653
20
20.9133251718
30
0.0000000000
10
-24.9800285192
20
21.1578172225
30
0.0000000000
10
-24.9560605952
20
21.4934206356
30
0.0000000000
10
-24.9111130094
20
21.7372661110
30
0.0000000000
10
-24.8708025347
20
21.8787735969
30
0.0000000000
10
-24.8346161657
20
21.9117792063
30
0.0000000000
11
-24.9794098497
21
20.7849177647
31
0.0000000000
11
-24.9757570317
21
21.1702373699
31
0.0000000000
11
-24.9470407320
21
21.5189064908
31
0.0000000000
11
-24.8975365015
21
21.7789995267
31
0.0000000000
11
-24.8346161657
21
21.9117792063
31
0.0000000000
0
SPLINE
5
293
100
AcDbEntity
8
0
100
AcDbSpline
62
9
6
CONTINUOUS
70
0
71
3
72
11
73
7
74
5
42
0.0000001000
43
0.0000001000
44
0.0000000001
12
-1.2946905727
22
-0.0000000007
32
0.0000000000
13
-0.9412444376
23
-0.8931255951
33
0.0000000000
40
0.0000000000
40
0.0000000000
40
0.0000000000
40
0.0000000000
40
0.3024581699
40
0.6029017085
40
0.9035502661
40
1.0000000000
40
1.0000000000
40
1.0000000000
40
1.0000000000
10
-24.8346161639
20
21.9117792063
30
0.0000000000
10
-24.9651460777
20
21.9117792062
30
0.0000000000
10
-25.2263228636
20
21.8823066171
30
0.0000000000
10
-25.5969428427
20
21.7510041755
30
0.0000000000
10
-25.8526808315
20
21.5871273517
30
0.0000000000
10
-25.9816303045
20
21.4735044460
30
0.0000000000
10
-26.0118912297
20
21.4447905373
30
0.0000000000
11
-24.8346161639
21
21.9117792063
31
0.0000000000
11
-25.2237030243
21
21.8675758068
31
0.0000000000
11
-25.5903181518
21
21.7375762255
31
0.0000000000
11
-25.9180086660
21
21.5274999548
31
0.0000000000
11
-26.0118912297
21
21.4447905373
31
0.0000000000
0
SPLINE
5
294
100
AcDbEntity
8
0
100
AcDbSpline
62
9
6
CONTINUOUS
70
0
71
3
72
11
73
7
74
5
42
0.0000001000
43
0.0000001000
44
0.0000000001
12
-0.8400476026
22
0.0000000000
32
0.0000000000
13
-0.2190642851
23
0.8531237383
33
0.0000000000
40
0.0000000000
40
0.0000000000
40
0.0000000000
40
0.0000000000
40
0.4288343278
40
0.7650170389
40
0.9624297698
40
1.0000000000
40
1.0000000000
40
1.0000000000
40
1.0000000000
10
-25.7293311469
20
20.0118678681
30
0.0000000000
10
-25.8494115632
20
20.0118678681
30
0.0000000000
10
-26.0656831935
20
20.0072457931
30
0.0000000000
10
-26.3279440853
20
20.0636669043
30
0.0000000000
10
-26.4957865526
20
20.0431466221
30
0.0000000000
10
-26.5468832439
20
20.1178721904
30
0.0000000000
10
-26.5496266757
20
20.1285562088
30
0.0000000000
11
-25.7293311469
21
20.0118678681
31
0.0000000000
11
-26.0894233166
21
20.0222306271
31
0.0000000000
11
-26.3702830749
21
20.0517756923
31
0.0000000000
11
-26.5300850695
21
20.0961032425
31
0.0000000000
11
-26.5496266757
21
20.1285562088
31
0.0000000000
0
SPLINE
5
295
100
AcDbEntity
8
0
100
AcDbSpline
62
9
6
CONTINUOUS
70
0
71
3
72
14
73
10
74
8
42
0.0000001000
43
0.0000001000
44
0.0000000001
12
-1.1990861069
22
0.0000000000
32
0.0000000000
13
0.0292545780
23
-1.1987291860
33
0.0000000000
40
0.0000000000
40
0.0000000000
40
0.0000000000
40
0.0000000000
40
0.1426484583
40
0.2849864632
40
0.4275032713
40
0.5700768755
40
0.7131086833
40
0.8566024444
40
1.0000000000
40
1.0000000000
40
1.0000000000
40
1.0000000000
10
-24.9794098497
20
20.7849177647
30
0.0000000000
10
-25.0364257778
20
20.7849177647
30
0.0000000000
10
-25.1507624893
20
20.7720677950
30
0.0000000000
10
-25.3132092181
20
20.7146395190
30
0.0000000000
10
-25.4584056839
20
20.6217283111
30
0.0000000000
10
-25.5786485435
20
20.4978509981
30
0.0000000000
10
-25.6676237115
20
20.3494399859
30
0.0000000000
10
-25.7207701360
20
20.1845330764
30
0.0000000000
10
-25.7307294919
20
20.0691661465
30
0.0000000000
10
-25.7293311469
20
20.0118678681
30
0.0000000000
11
-24.9794098497
21
20.7849177647
31
0.0000000000
11
-25.1493725328
21
20.7656815771
31
0.0000000000
11
-25.3102755543
21
20.7087574853
31
0.0000000000
11
-25.4541946178
21
20.6166126563
31
0.0000000000
11
-25.5732881322
21
20.4939611901
31
0.0000000000
11
-25.6615491979
21
20.3469074893
31
0.0000000000
11
-25.7144013265
21
20.1831644913
31
0.0000000000
11
-25.7293311469
21
20.0118678681
31
0.0000000000
0
SPLINE
5
296
100
AcDbEntity
8
0
100
AcDbSpline
62
7
6
CONTINUOUS
70
0
71
3
72
14
73
10
74
8
42
0.0000001000
43
0.0000001000
44
0.0000000001
12
-0.1522661130
22
6.2392229213
32
0.0000000000
13
-6.2410806461
23
-0.0000000000
33
0.0000000000
40
0.0000000000
40
0.0000000000
40
0.0000000000
40
0.0000000000
40
0.1424016693
40
0.2860211262
40
0.4288233341
40
0.5729747374
40
0.7154241120
40
0.8584006987
40
1.0000000000
40
1.0000000000
40
1.0000000000
40
1.0000000000
10
43.5884945398
20
39.1872109895
30
0.0000000000
10
43.5812668903
20
39.4833695758
30
0.0000000000
10
43.4998705588
20
40.0786280056
30
0.0000000000
10
43.1855552644
20
40.9209396625
30
0.0000000000
10
42.6938054803
20
41.6781917727
30
0.0000000000
10
42.0511961024
20
42.3090689451
30
0.0000000000
10
41.2864434754
20
42.7852727931
30
0.0000000000
10
40.4412650546
20
43.0809476213
30
0.0000000000
10
39.8471724592
20
43.1482832645
30
0.0000000000
10
39.5525949063
20
43.1482832645
30
0.0000000000
11
43.5884945398
21
39.1872109895
31
0.0000000000
11
43.4684273068
21
40.0678035082
31
0.0000000000
11
43.1554943019
21
40.9077436422
31
0.0000000000
11
42.6701582313
21
41.6552446844
31
0.0000000000
11
42.0280777872
21
42.2854206740
31
0.0000000000
11
41.2732359857
21
42.7551040595
31
0.0000000000
11
40.4307509267
21
43.0491600290
31
0.0000000000
11
39.5525949063
21
43.1482832645
31
0.0000000000
0
SPLINE
5
297
100
AcDbEntity
8
0
100
AcDbSpline
62
7
6
CONTINUOUS
70
0
71
3
72
11
73
7
74
5
42
0.0000001000
43
0.0000001000
44
0.0000000001
12
-2.9088230412
22
0.0000000000
32
0.0000000000
13
-2.1146486545
23
-2.0068012637
33
0.0000000000
40
0.0000000000
40
0.0000000000
40
0.0000000000
40
0.0000000000
40
0.3021583665
40
0.6042703060
40
0.9032427249
40
1.0000000000
40
1.0000000000
40
1.0000000000
40
1.0000000000
10
-39.2320253346
20
43.1482832645
30
0.0000000000
10
-39.5250004075
20
43.1482832645
30
0.0000000000
10
-40.1131111977
20
43.0819853592
30
0.0000000000
10
-40.9454909852
20
42.7866813554
30
0.0000000000
10
-41.5200680137
20
42.4181264942
30
0.0000000000
10
-41.8088037787
20
42.1637352422
30
0.0000000000
10
-41.8770063259
20
42.0990110349
30
0.0000000000
11
-39.2320253346
21
43.1482832645
31
0.0000000000
11
-40.1053432173
21
43.0491600290
31
0.0000000000
11
-40.9334756044
21
42.7551040595
31
0.0000000000
11
-41.6653924795
21
42.2854206740
31
0.0000000000
11
-41.8770063259
21
42.0990110349
31
0.0000000000
0
SPLINE
5
298
100
AcDbEntity
8
0
100
AcDbSpline
62
7
6
CONTINUOUS
70
0
71
3
72
12
73
8
74
6
42
0.0000001000
43
0.0000001000
44
0.0000000001
12
3.1682361840
22
2.1739466915
32
0.0000000000
13
-0.0935356409
23
3.8326959498
33
0.0000000000
40
0.0000000000
40
0.0000000000
40
0.0000000000
40
0.0000000000
40
0.0827190599
40
0.3117253610
40
0.5391499592
40
0.7694320165
40
1.0000000000
40
1.0000000000
40
1.0000000000
40
1.0000000000
10
43.7859056607
20
-40.3521917212
30
0.0000000000
10
43.8732635003
20
-40.2922494457
30
0.0000000000
10
44.1930610668
20
-40.0526415104
30
0.0000000000
10
44.6770189138
20
-39.5535981763
30
0.0000000000
10
45.1323852500
20
-38.7944313728
30
0.0000000000
10
45.4051670039
20
-37.9505366265
30
0.0000000000
10
45.4565542774
20
-37.3579959624
30
0.0000000000
10
45.4493655027
20
-37.0634303036
30
0.0000000000
11
43.7859056607
21
-40.3521917212
31
0.0000000000
11
44.0401702570
21
-40.1616399880
31
0.0000000000
11
44.6514922398
21
-39.5314639984
31
0.0000000000
11
45.1003432931
21
-38.7839629563
31
0.0000000000
11
45.3722793914
21
-37.9440228223
31
0.0000000000
11
45.4493655027
21
-37.0634303036
31
0.0000000000
0
SPLINE
5
299
100
AcDbEntity
8
0
100
AcDbSpline
62
7
6
CONTINUOUS
70
0
71
3
72
9
73
5
74
3
42
0.0000001000
43
0.0000001000
44
0.0000000001
12
0.0725369377
22
0.0688677503
32
0.0000000000
13
0.0750878582
23
0.0660799013
33
0.0000000000
40
0.0000000000
40
0.0000000000
40
0.0000000000
40
0.0000000000
40
0.1761714886
40
1.0000000000
40
1.0000000000
40
1.0000000000
40
1.0000000000
10
-43.3486349301
20
40.7020505859
30
0.0000000000
10
-43.3443752834
20
40.7060947639
30
0.0000000000
10
-43.3201201388
20
40.7289705476
30
0.0000000000
10
-43.2954346438
20
40.7513877187
30
0.0000000000
10
-43.2748148044
20
40.7695338876
30
0.0000000000
11
-43.3486349301
21
40.7020505859
31
0.0000000000
11
-43.3358157970
21
40.7141406520
31
0.0000000000
11
-43.2748148044
21
40.7695338876
31
0.0000000000
0
SPLINE
5
29A
100
AcDbEntity
8
0
100
AcDbSpline
62
7
6
CONTINUOUS
70
0
71
3
72
12
73
8
74
6
42
0.0000001000
43
0.0000001000
44
0.0000000001
12
0.8731763859
22
0.7684252928
32
0.0000000000
13
1.1147286956
23
0.3305889710
33
0.0000000000
40
0.0000000000
40
0.0000000000
40
0.0000000000
40
0.0000000000
40
0.1425481736
40
0.3583138481
40
0.5752109494
40
0.7902196182
40
1.0000000000
40
1.0000000000
40
1.0000000000
40
1.0000000000
10
-43.2748148044
20
40.7695338876
30
0.0000000000
10
-43.2333249047
20
40.8060464283
30
0.0000000000
10
-43.1261521524
20
40.8945512914
30
0.0000000000
10
-42.9432053057
20
41.0225523255
30
0.0000000000
10
-42.7243023584
20
41.1462016114
30
0.0000000000
10
-42.4968700536
20
41.2476629273
30
0.0000000000
10
-42.3409348263
20
41.3012154713
30
0.0000000000
10
-42.2629854225
20
41.3243324981
30
0.0000000000
11
-43.2748148044
21
40.7695338876
31
0.0000000000
11
-43.1469771450
21
40.8750783229
31
0.0000000000
11
-42.9414203729
21
41.0188987260
31
0.0000000000
11
-42.7218729031
21
41.1429898146
31
0.0000000000
11
-42.4936393020
21
41.2450018850
31
0.0000000000
11
-42.2629854225
21
41.3243324981
31
0.0000000000
0
SPLINE
5
29B
100
AcDbEntity
8
0
100
AcDbSpline
62
7
6
CONTINUOUS
70
0
71
3
72
10
73
6
74
4
42
0.0000001000
43
0.0000001000
44
0.0000000001
12
0.2401040976
22
0.4085410065
32
0.0000000000
13
0.3042867274
23
0.3633046862
33
0.0000000000
40
0.0000000000
40
0.0000000000
40
0.0000000000
40
0.0000000000
40
0.1533371932
40
0.6597417769
40
1.0000000000
40
1.0000000000
40
1.0000000000
40
1.0000000000
10
-43.8321591299
20
40.0901375249
30
0.0000000000
10
-43.8198868337
20
40.1110190353
30
0.0000000000
10
-43.7659859947
20
40.2002173609
30
0.0000000000
10
-43.6771280149
20
40.3309832967
30
0.0000000000
10
-43.5942507361
20
40.4360269771
30
0.0000000000
10
-43.5597387157
20
40.4772327795
30
0.0000000000
11
-43.8321591299
21
40.0901375249
31
0.0000000000
11
-43.7945764621
21
40.1523238967
31
0.0000000000
11
-43.6596297872
21
40.3506808151
31
0.0000000000
11
-43.5597387157
21
40.4772327795
31
0.0000000000
0
SPLINE
5
29C
100
AcDbEntity
8
0
100
AcDbSpline
62
7
6
CONTINUOUS
70
0
71
3
72
9
73
5
74
3
42
0.0000001000
43
0.0000001000
44
0.0000000001
12
0.1567631072
22
0.1871681094
32
0.0000000000
13
0.1729504323
23
0.1723315325
33
0.0000000000
40
0.0000000000
40
0.0000000000
40
0.0000000000
40
0.0000000000
40
0.3320137475
40
1.0000000000
40
1.0000000000
40
1.0000000000
40
1.0000000000
10
-43.5597387157
20
40.4772327795
30
0.0000000000
10
-43.5423895468
20
40.4979469079
30
0.0000000000
10
-43.4892178869
20
40.5595680491
30
0.0000000000
10
-43.4333174074
20
40.6187676965
30
0.0000000000
10
-43.3948079037
20
40.6571393947
30
0.0000000000
11
-43.5597387157
21
40.4772327795
31
0.0000000000
11
-43.5067812964
21
40.5385981111
31
0.0000000000
11
-43.3948079037
21
40.6571393947
31
0.0000000000
0
SPLINE
5
29D
100
AcDbEntity
8
0
100
AcDbSpline
62
7
6
CONTINUOUS
70
0
71
3
72
8
73
4
74
2
42
0.0000001000
43
0.0000001000
44
0.0000000001
12
0.0263446690
22
0.0262503951
32
0.0000000000
13
0.0267075846
23
0.0258811761
33
0.0000000000
40
0.0000000000
40
0.0000000000
40
0.0000000000
40
0.0000000000
40
1.0000000000
40
1.0000000000
40
1.0000000000
40
1.0000000000
10
-43.3948079037
20
40.6571393947
30
0.0000000000
10
-43.3860263473
20
40.6658895264
30
0.0000000000
10
-43.3771840154
20
40.6745786693
30
0.0000000000
10
-43.3682814872
20
40.6832057280
30
0.0000000000
11
-43.3948079037
21
40.6571393947
31
0.0000000000
11
-43.3682814872
21
40.6832057280
31
0.0000000000
0
SPLINE
5
29E
100
AcDbEntity
8
0
100
AcDbSpline
62
9
6
CONTINUOUS
70
0
71
3
72
11
73
7
74
5
42
0.0000001000
43
0.0000001000
44
0.0000000001
12
0.6580763579
22
0.5956826806
32
0.0000000000
13
0.8010294774
23
0.3818167603
33
0.0000000000
40
0.0000000000
40
0.0000000000
40
0.0000000000
40
0.0000000000
40
0.1313480061
40
0.4243484361
40
0.7155910610
40
1.0000000000
40
1.0000000000
40
1.0000000000
40
1.0000000000
10
-42.9981512132
20
40.8325388370
30
0.0000000000
10
-42.9693388741
20
40.8586194145
30
0.0000000000
10
-42.8746408387
20
40.9410963897
30
0.0000000000
10
-42.7064943218
20
41.0700952269
30
0.0000000000
10
-42.4897626496
20
41.2086569103
30
0.0000000000
10
-42.3389254038
20
41.2881351316
30
0.0000000000
10
-42.2629854225
20
41.3243324981
30
0.0000000000
11
-42.9981512132
21
40.8325388370
31
0.0000000000
11
-42.9102350235
21
40.9091044462
31
0.0000000000
11
-42.7039465592
21
41.0673622745
31
0.0000000000
11
-42.4862120223
21
41.2065867719
31
0.0000000000
11
-42.2629854225
21
41.3243324981
31
0.0000000000
0
SPLINE
5
29F
100
AcDbEntity
8
0
100
AcDbSpline
62
9
6
CONTINUOUS
70
0
71
3
72
15
73
11
74
9
42
0.0000001000
43
0.0000001000
44
0.0000000001
12
2.1024011503
22
-0.7494722188
32
0.0000000000
13
1.4963872980
23
-1.6567642479
33
0.0000000000
40
0.0000000000
40
0.0000000000
40
0.0000000000
40
0.0000000000
40
0.1363889824
40
0.2777550524
40
0.4209031795
40
0.5624491787
40
0.7003454473
40
0.8335542607
40
0.9617375684
40
1.0000000000
40
1.0000000000
40
1.0000000000
40
1.0000000000
10
39.0953445486
20
41.3243324981
30
0.0000000000
10
39.1909259998
20
41.2902592470
30
0.0000000000
10
39.3835799139
20
41.2151145796
30
0.0000000000
10
39.6680487250
20
41.0837153790
30
0.0000000000
10
39.9468149718
20
40.9323184682
30
0.0000000000
10
40.2125513220
20
40.7638219448
30
0.0000000000
10
40.4599989665
20
40.5816648972
30
0.0000000000
10
40.6863771846
20
40.3889136361
30
0.0000000000
10
40.8454699518
20
40.2324558186
30
0.0000000000
10
40.9295214709
20
40.1414644834
30
0.0000000000
10
40.9486066097
20
40.1203338738
30
0.0000000000
11
39.0953445486
21
41.3243324981
31
0.0000000000
11
39.3789384865
21
41.2136722947
31
0.0000000000
11
39.6653295896
21
41.0812402992
31
0.0000000000
11
39.9460306108
21
40.9286267065
31
0.0000000000
11
40.2127546889
21
40.7593046532
31
0.0000000000
11
40.4605162793
21
40.5766985096
31
0.0000000000
11
40.6867802775
21
40.3838136288
31
0.0000000000
11
40.8906498808
21
40.1830826392
31
0.0000000000
11
40.9486066097
21
40.1203338738
31
0.0000000000
0
SPLINE
5
2A0
100
AcDbEntity
8
0
100
AcDbSpline
62
9
6
CONTINUOUS
70
0
71
3
72
24
73
20
74
18
42
0.0000001000
43
0.0000001000
44
0.0000000001
12
4.6083708694
22
-1.0932432969
32
0.0000000000
13
0.2993247927
23
-4.7268031104
33
0.0000000000
40
0.0000000000
40
0.0000000000
40
0.0000000000
40
0.0000000000
40
0.0639104570
40
0.1304104947
40
0.1980518418
40
0.2652796326
40
0.3311506864
40
0.3951851268
40
0.4572249208
40
0.5172978001
40
0.5755326862
40
0.6321114255
40
0.6872421520
40
0.7411448824
40
0.7940435480
40
0.8461612447
40
0.8977181162
40
0.9489294561
40
1.0000000000
40
1.0000000000
40
1.0000000000
40
1.0000000000
10
39.0953445486
20
41.3243324981
30
0.0000000000
10
39.1935189114
20
41.3010426052
30
0.0000000000
10
39.3924157771
20
41.2472642489
30
0.0000000000
10
39.6887154294
20
41.1467214804
30
0.0000000000
10
39.9822718685
20
41.0239758865
30
0.0000000000
10
40.2652888965
20
40.8807165295
30
0.0000000000
10
40.5318784808
20
40.7195351456
30
0.0000000000
10
40.7786422560
20
40.5431217450
30
0.0000000000
10
41.0039252801
20
40.3539398802
30
0.0000000000
10
41.2071719359
20
40.1541255835
30
0.0000000000
10
41.3884523356
20
39.9454936176
30
0.0000000000
10
41.5481724761
20
39.7295717507
30
0.0000000000
10
41.6869012246
20
39.5076365838
30
0.0000000000
10
41.8052647640
20
39.2807470644
30
0.0000000000
10
41.9038792148
20
39.0497753727
30
0.0000000000
10
41.9833059712
20
38.8154392694
30
0.0000000000
10
42.0440215628
20
38.5783251918
30
0.0000000000
10
42.0863946813
20
38.3389549502
30
0.0000000000
10
42.1025877822
20
38.1781132918
30
0.0000000000
10
42.1076833421
20
38.0976464899
30
0.0000000000
11
39.0953445486
21
41.3243324981
31
0.0000000000
11
39.3875551715
21
41.2453478571
31
0.0000000000
11
39.6857463333
21
41.1439416524
31
0.0000000000
11
39.9812485873
21
41.0201922548
31
0.0000000000
11
40.2652480054
21
40.8762177965
31
0.0000000000
11
40.5321330863
21
40.7146447571
31
0.0000000000
11
40.7787558145
21
40.5381264994
31
0.0000000000
11
41.0036810963
21
40.3490525375
31
0.0000000000
11
41.2064854653
21
40.1494959406
31
0.0000000000
11
41.3873120992
21
39.9412261496
31
0.0000000000
11
41.5466057097
21
39.7257391003
31
0.0000000000
11
41.6849547831
21
39.5042891362
31
0.0000000000
11
41.8029949243
21
39.2779187261
31
0.0000000000
11
41.9013461528
21
39.0474875257
31
0.0000000000
11
41.9805701587
21
38.8137028216
31
0.0000000000
11
42.0411420836
21
38.5771473594
31
0.0000000000
11
42.0834303939
21
38.3383114707
31
0.0000000000
11
42.1076833421
21
38.0976464899
31
0.0000000000
0
SPLINE
5
2A1
100
AcDbEntity
8
0
100
AcDbSpline
62
9
6
CONTINUOUS
70
0
71
3
72
10
73
6
74
4
42
0.0000001000
43
0.0000001000
44
0.0000000001
12
-0.0985894582
22
-0.1851712914
32
0.0000000000
13
-0.2092569143
23
-0.0215542874
33
0.0000000000
40
0.0000000000
40
0.0000000000
40
0.0000000000
40
0.0000000000
40
0.2318517621
40
0.5819837943
40
1.0000000000
40
1.0000000000
40
1.0000000000
40
1.0000000000
10
42.1076833461
20
38.0976464536
30
0.0000000000
10
42.1000639662
20
38.0833356902
30
0.0000000000
10
42.0643926575
20
38.0584896217
30
0.0000000000
10
41.9985228001
20
38.0365755028
30
0.0000000000
10
41.9451825531
20
38.0277301080
30
0.0000000000
10
41.9160249593
20
38.0247267609
30
0.0000000000
11
42.1076833461
21
38.0976464536
31
0.0000000000
11
42.0712195852
21
38.0654584089
31
0.0000000000
11
42.0024245379
21
38.0397227348
31
0.0000000000
11
41.9160249593
21
38.0247267609
31
0.0000000000
0
SPLINE
5
2A2
100
AcDbEntity
8
0
100
AcDbSpline
62
9
6
CONTINUOUS
70
0
71
3
72
10
73
6
74
4
42
0.0000001000
43
0.0000001000
44
0.0000000001
12
0.0643473296
22
-0.9722236305
32
0.0000000000
13
0.0313649756
23
-0.9738457808
33
0.0000000000
40
0.0000000000
40
0.0000000000
40
0.0000000000
40
0.0000000000
40
0.3259539447
40
0.6596245860
40
1.0000000000
40
1.0000000000
40
1.0000000000
40
1.0000000000
10
42.1076833421
20
38.0976464899
30
0.0000000000
10
42.1146747641
20
37.9920131141
30
0.0000000000
10
42.1275379318
20
37.7781585513
30
0.0000000000
10
42.1433305640
20
37.4537530033
30
0.0000000000
10
42.1515506752
20
37.2349830424
30
0.0000000000
10
42.1551092973
20
37.1244919888
30
0.0000000000
11
42.1076833421
21
38.0976464899
31
0.0000000000
11
42.1267901842
21
37.7806282898
31
0.0000000000
11
42.1426304655
21
37.4559021716
31
0.0000000000
11
42.1551092973
21
37.1244919888
31
0.0000000000
0
SPLINE
5
2A3
100
AcDbEntity
8
0
100
AcDbSpline
62
9
6
CONTINUOUS
70
0
71
3
72
10
73
6
74
4
42
0.0000001000
43
0.0000001000
44
0.0000000001
12
-0.1488267544
22
-0.1413259755
32
0.0000000000
13
-0.2056582013
23
-0.0104722300
33
0.0000000000
40
0.0000000000
40
0.0000000000
40
0.0000000000
40
0.0000000000
40
0.2306678656
40
0.6297881132
40
1.0000000000
40
1.0000000000
40
1.0000000000
40
1.0000000000
10
42.1551092973
20
37.1244919888
30
0.0000000000
10
42.1436661141
20
37.1136255351
30
0.0000000000
10
42.0999018098
20
37.1011478084
30
0.0000000000
10
42.0336105748
20
37.0897624728
30
0.0000000000
10
41.9810041559
20
37.0856008616
30
0.0000000000
10
41.9556251190
20
37.0843085469
30
0.0000000000
11
42.1551092973
21
37.1244919888
31
0.0000000000
11
42.1118779454
21
37.1051972604
31
0.0000000000
11
42.0312618447
21
37.0906707151
31
0.0000000000
11
41.9556251190
21
37.0843085469
31
0.0000000000
0
SPLINE
5
2A4
100
AcDbEntity
8
0
100
AcDbSpline
62
9
6
CONTINUOUS
70
0
71
3
72
15
73
11
74
9
42
0.0000001000
43
0.0000001000
44
0.0000000001
12
2.4224642505
22
-75.2156489499
32
0.0000000000
13
1.7702681881
23
-75.2338243780
33
0.0000000000
40
0.0000000000
40
0.0000000000
40
0.0000000000
40
0.0000000000
40
0.0879891070
40
0.1824732772
40
0.2858681880
40
0.4020462805
40
0.5339271476
40
0.6816905874
40
0.8429417564
40
1.0000000000
40
1.0000000000
40
1.0000000000
40
1.0000000000
10
42.1551092973
20
37.1244919888
30
0.0000000000
10
42.2261594527
20
34.9184393933
30
0.0000000000
10
42.3681780844
20
30.3433179425
30
0.0000000000
10
42.5754883990
20
23.1753405195
30
0.0000000000
10
42.7878268313
20
15.3001105431
30
0.0000000000
10
43.0098813472
20
6.4867243051
30
0.0000000000
10
43.2452010730
20
-3.4396480785
30
0.0000000000
10
43.4958832878
20
-14.4966190261
30
0.0000000000
10
43.7567649171
20
-26.1850905390
30
0.0000000000
10
43.9391188652
20
-34.1677638910
30
0.0000000000
10
44.0317972693
20
-38.1064613296
30
0.0000000000
11
42.1551092973
21
37.1244919888
31
0.0000000000
11
42.3608699125
21
30.5061003278
31
0.0000000000
11
42.5668120709
21
23.3987103185
31
0.0000000000
11
42.7770272254
21
15.6206027800
31
0.0000000000
11
42.9979300377
21
6.8804523753
31
0.0000000000
11
43.2341458272
21
-3.0413844939
31
0.0000000000
11
43.4875905394
21
-14.1583816419
31
0.0000000000
11
43.7601851248
21
-26.2902196241
31
0.0000000000
11
44.0317972693
21
-38.1064613296
31
0.0000000000
0
SPLINE
5
2A5
100
AcDbEntity
8
0
100
AcDbSpline
62
9
6
CONTINUOUS
70
0
71
3
72
10
73
6
74
4
42
0.0000001000
43
0.0000001000
44
0.0000000001
12
-0.2010794008
22
-0.1424006113
32
0.0000000000
13
-0.2441497473
23
-0.0270617769
33
0.0000000000
40
0.0000000000
40
0.0000000000
40
0.0000000000
40
0.0000000000
40
0.3204113445
40
0.8902277164
40
1.0000000000
40
1.0000000000
40
1.0000000000
40
1.0000000000
10
44.0317968569
20
-38.1064613286
30
0.0000000000
10
44.0103208165
20
-38.1216702524
30
0.0000000000
10
43.9361883998
20
-38.1377532274
30
0.0000000000
10
43.8561352797
20
-38.1508739566
30
0.0000000000
10
43.8009354478
20
-38.1573637005
30
0.0000000000
10
43.7920018227
20
-38.1583539116
30
0.0000000000
11
44.0317968569
21
-38.1064613286
31
0.0000000000
11
43.9573286281
21
-38.1326771248
31
0.0000000000
11
43.8187472487
21
-38.1552038337
31
0.0000000000
11
43.7920018227
21
-38.1583539116
31
0.0000000000
0
SPLINE
5
2A6
100
AcDbEntity
8
0
100
AcDbSpline
62
9
6
CONTINUOUS
70
0
71
3
72
21
73
17
74
15
42
0.0000001000
43
0.0000001000
44
0.0000000001
12
0.0874045482
22
-3.7138995413
32
0.0000000000
13
-3.0619777899
23
-2.1050286999
33
0.0000000000
40
0.0000000000
40
0.0000000000
40
0.0000000000
40
0.0000000000
40
0.0736416088
40
0.1472119859
40
0.2206459484
40
0.2938732347
40
0.3668969149
40
0.4397813535
40
0.5126044495
40
0.5854220333
40
0.6582184518
40
0.7309280333
40
0.8035069706
40
0.8760424540
40
0.9486227588
40
1.0000000000
40
1.0000000000
40
1.0000000000
40
1.0000000000
10
44.0317972693
20
-38.1064613296
30
0.0000000000
10
44.0339428064
20
-38.1976271754
30
0.0000000000
10
44.0317737020
20
-38.3800894805
30
0.0000000000
10
44.0090844085
20
-38.6525951291
30
0.0000000000
10
43.9670751591
20
-38.9222938388
30
0.0000000000
10
43.9060116566
20
-39.1876287006
30
0.0000000000
10
43.8262575710
20
-39.4472463863
30
0.0000000000
10
43.7282040675
20
-39.6999840474
30
0.0000000000
10
43.6122631790
20
-39.9447514257
30
0.0000000000
10
43.4789363479
20
-40.1803766698
30
0.0000000000
10
43.3288978535
20
-40.4055619840
30
0.0000000000
10
43.1630176307
20
-40.6189727883
30
0.0000000000
10
42.9822173143
20
-40.8194646843
30
0.0000000000
10
42.7873707847
20
-41.0061041900
30
0.0000000000
10
42.5996532015
20
-41.1612565036
30
0.0000000000
10
42.4753878567
20
-41.2515120035
30
0.0000000000
10
42.4229491996
20
-41.2875621926
30
0.0000000000
11
44.0317972693
21
-38.1064613296
31
0.0000000000
11
44.0285272929
21
-38.3800150540
31
0.0000000000
11
44.0058332598
21
-38.6523798781
31
0.0000000000
11
43.9638291665
21
-38.9219286121
31
0.0000000000
11
43.9028022930
21
-39.1870290960
31
0.0000000000
11
43.8231247588
21
-39.4463418127
31
0.0000000000
11
43.7251769192
21
-39.6987649375
31
0.0000000000
11
43.6093542759
21
-39.9432500633
31
0.0000000000
11
43.4761245430
21
-40.1786786526
31
0.0000000000
11
43.3261652376
21
-40.4037263270
31
0.0000000000
11
43.1603927047
21
-40.6169851848
31
0.0000000000
11
42.9798211642
21
-40.8172146527
31
0.0000000000
11
42.7852248186
21
-41.0036098213
31
0.0000000000
11
42.5773935899
21
-41.1753853748
31
0.0000000000
11
42.4229491996
21
-41.2875621926
31
0.0000000000
0
SPLINE
5
2A7
100
AcDbEntity
8
0
100
AcDbSpline
62
7
6
CONTINUOUS
70
0
71
3
72
10
73
6
74
4
42
0.0000001000
43
0.0000001000
44
0.0000000001
12
1.2265820508
22
0.4527703531
32
0.0000000000
13
1.3074802178
23
0.0000000000
33
0.0000000000
40
0.0000000000
40
0.0000000000
40
0.0000000000
40
0.0000000000
40
0.3325367592
40
0.6658264222
40
1.0000000000
40
1.0000000000
40
1.0000000000
40
1.0000000000
10
-42.2629854225
20
41.3243324981
30
0.0000000000
10
-42.1270242158
20
41.3745200934
30
0.0000000000
10
-41.8485307184
20
41.4589115713
30
0.0000000000
10
-41.4185396838
20
41.5353872910
30
0.0000000000
10
-41.1273384594
20
41.5524086616
30
0.0000000000
10
-40.9816966786
20
41.5524086616
30
0.0000000000
11
-42.2629854225
21
41.3243324981
31
0.0000000000
11
-41.8468985708
21
41.4504670763
31
0.0000000000
11
-41.4178730333
21
41.5268363662
31
0.0000000000
11
-40.9816966786
21
41.5524086616
31
0.0000000000
0
SPLINE
5
2A8
100
AcDbEntity
8
0
100
AcDbSpline
62
7
6
CONTINUOUS
70
0
71
3
72
10
73
6
74
4
42
0.0000001000
43
0.0000001000
44
0.0000000001
12
1.3182919748
22
0.0000000000
32
0.0000000000
13
1.2393346087
23
-0.4493811950
33
0.0000000000
40
0.0000000000
40
0.0000000000
40
0.0000000000
40
0.0000000000
40
0.3323780949
40
0.6657184928
40
1.0000000000
40
1.0000000000
40
1.0000000000
40
1.0000000000
10
37.8029235624
20
41.5524086616
30
0.0000000000
10
37.9489806874
20
41.5524086616
30
0.0000000000
10
38.2418110768
20
41.5352436621
30
0.0000000000
10
38.6754170637
20
41.4586479930
30
0.0000000000
10
38.9572490016
20
41.3744057725
30
0.0000000000
10
39.0953445486
20
41.3243324981
30
0.0000000000
11
37.8029235624
21
41.5524086616
31
0.0000000000
11
38.2403480834
21
41.5268363662
31
0.0000000000
11
38.6731011539
21
41.4504670763
31
0.0000000000
11
39.0953445486
21
41.3243324981
31
0.0000000000
0
SPLINE
5
2A9
100
AcDbEntity
8
0
100
AcDbSpline
62
7
6
CONTINUOUS
70
0
71
3
72
8
73
4
74
2
42
0.0000001000
43
0.0000001000
44
0.0000000001
12
0.0177684341
22
0.0143601244
32
0.0000000000
13
0.0167397974
23
0.0155480270
33
0.0000000000
40
0.0000000000
40
0.0000000000
40
0.0000000000
40
0.0000000000
40
1.0000000000
40
1.0000000000
40
1.0000000000
40
1.0000000000
10
22.8259731801
20
-31.7059518458
30
0.0000000000
10
22.8318959915
20
-31.7011651377
30
0.0000000000
10
22.8376547886
20
-31.6961759626
30
0.0000000000
10
22.8432347211
20
-31.6909932870
30
0.0000000000
11
22.8259731801
21
-31.7059518458
31
0.0000000000
11
22.8432347211
21
-31.6909932870
31
0.0000000000
0
SPLINE
5
2AA
100
AcDbEntity
8
0
100
AcDbSpline
62
7
6
CONTINUOUS
70
0
71
3
72
8
73
4
74
2
42
0.0000001000
43
0.0000001000
44
0.0000000001
12
0.0953233178
22
0.0885368848
32
0.0000000000
13
0.0548835621
23
0.1179970248
33
0.0000000000
40
0.0000000000
40
0.0000000000
40
0.0000000000
40
0.0000000000
40
1.0000000000
40
1.0000000000
40
1.0000000000
40
1.0000000000
10
22.8432347211
20
-31.6909932870
30
0.0000000000
10
22.8750091603
20
-31.6614809920
30
0.0000000000
10
22.9009836742
20
-31.6256941828
30
0.0000000000
10
22.9192781949
20
-31.5863618412
30
0.0000000000
11
22.8432347211
21
-31.6909932870
31
0.0000000000
11
22.9192781949
21
-31.5863618412
31
0.0000000000
0
SPLINE
5
2AB
100
AcDbEntity
8
0
100
AcDbSpline
62
7
6
CONTINUOUS
70
0
71
3
72
13
73
9
74
7
42
0.0000001000
43
0.0000001000
44
0.0000000001
12
0.3001195946
22
0.6452427270
32
0.0000000000
13
-0.7073013993
23
-0.0003347646
33
0.0000000000
40
0.0000000000
40
0.0000000000
40
0.0000000000
40
0.0000000000
40
0.1835061923
40
0.3576168367
40
0.5244385308
40
0.6828010620
40
0.8399067596
40
1.0000000000
40
1.0000000000
40
1.0000000000
40
1.0000000000
10
22.9192781949
20
-31.5863618412
30
0.0000000000
10
22.9376361296
20
-31.5468931625
30
0.0000000000
10
22.9583413621
20
-31.4630190915
30
0.0000000000
10
22.9428157736
20
-31.3377887838
30
0.0000000000
10
22.8893898808
20
-31.2305014514
30
0.0000000000
10
22.8080611560
20
-31.1484198861
30
0.0000000000
10
22.7071270206
20
-31.0957554527
30
0.0000000000
10
22.6317927350
20
-31.0833573108
30
0.0000000000
10
22.5940480107
20
-31.0833751753
30
0.0000000000
11
22.9192781949
21
-31.5863618412
31
0.0000000000
11
22.9506458301
21
-31.4604150027
31
0.0000000000
11
22.9357179869
21
-31.3381743965
31
0.0000000000
11
22.8832105910
21
-31.2325080541
31
0.0000000000
11
22.8043822304
21
-31.1529320439
31
0.0000000000
11
22.7057958184
21
-31.1016620087
31
0.0000000000
11
22.5940480107
21
-31.0833751753
31
0.0000000000
0
SPLINE
5
2AC
100
AcDbEntity
8
0
100
AcDbSpline
62
7
6
CONTINUOUS
70
0
71
3
72
9
73
5
74
3
42
0.0000001000
43
0.0000001000
44
0.0000000001
12
-0.0665320414
22
-0.0538359733
32
0.0000000000
13
-0.0716702263
23
-0.0468328123
33
0.0000000000
40
0.0000000000
40
0.0000000000
40
0.0000000000
40
0.0000000000
40
0.1354869217
40
1.0000000000
40
1.0000000000
40
1.0000000000
40
1.0000000000
10
23.2445792984
20
-32.1215583208
30
0.0000000000
10
23.2415745579
20
-32.1239896776
30
0.0000000000
10
23.2192718564
20
-32.1417827564
30
0.0000000000
10
23.1960568277
20
-32.1584380626
30
0.0000000000
10
23.1754035451
20
-32.1719339221
30
0.0000000000
11
23.2445792984
21
-32.1215583208
31
0.0000000000
11
23.2355143619
21
-32.1287902508
31
0.0000000000
11
23.1754035451
21
-32.1719339221
31
0.0000000000
0
SPLINE
5
2AD
100
AcDbEntity
8
0
100
AcDbSpline
62
7
6
CONTINUOUS
70
0
71
3
72
8
73
4
74
2
42
0.0000001000
43
0.0000001000
44
0.0000000001
12
-0.0879538473
22
-0.0574733224
32
0.0000000000
13
-0.0941663416
23
-0.0461065874
33
0.0000000000
40
0.0000000000
40
0.0000000000
40
0.0000000000
40
0.0000000000
40
1.0000000000
40
1.0000000000
40
1.0000000000
40
1.0000000000
10
23.1754035451
20
-32.1719339221
30
0.0000000000
10
23.1460855960
20
-32.1910916963
30
0.0000000000
10
23.1155916819
20
-32.2084301281
30
0.0000000000
10
23.0842029013
20
-32.2237989905
30
0.0000000000
11
23.1754035451
21
-32.1719339221
31
0.0000000000
11
23.0842029013
21
-32.2237989905
31
0.0000000000
0
SPLINE
5
2AE
100
AcDbEntity
8
0
100
AcDbSpline
62
7
6
CONTINUOUS
70
0
71
3
72
8
73
4
74
2
42
0.0000001000
43
0.0000001000
44
0.0000000001
12
-0.0387229322
22
-0.0189598770
32
0.0000000000
13
-0.0395722263
23
-0.0169302061
33
0.0000000000
40
0.0000000000
40
0.0000000000
40
0.0000000000
40
0.0000000000
40
1.0000000000
40
1.0000000000
40
1.0000000000
40
1.0000000000
10
23.0842029013
20
-32.2237989905
30
0.0000000000
10
23.0712952572
20
-32.2301189495
30
0.0000000000
10
23.0582362907
20
-32.2361058532
30
0.0000000000
10
23.0450455486
20
-32.2417492553
30
0.0000000000
11
23.0842029013
21
-32.2237989905
31
0.0000000000
11
23.0450455486
21
-32.2417492553
31
0.0000000000
0
SPLINE
5
2AF
100
AcDbEntity
8
0
100
AcDbSpline
62
7
6
CONTINUOUS
70
0
71
3
72
9
73
5
74
3
42
0.0000001000
43
0.0000001000
44
0.0000000001
12
-0.0236455786
22
0.9688960554
32
0.0000000000
13
-0.0576302607
23
0.9674696029
33
0.0000000000
40
0.0000000000
40
0.0000000000
40
0.0000000000
40
0.0000000000
40
0.5055863259
40
1.0000000000
40
1.0000000000
40
1.0000000000
40
1.0000000000
10
41.9564021435
20
37.0557234929
30
0.0000000000
10
41.9524171831
20
37.2190103585
30
0.0000000000
10
41.9418173883
20
37.5419156217
30
0.0000000000
10
41.9255880963
20
37.8645887381
30
0.0000000000
10
41.9160903667
20
38.0240321384
30
0.0000000000
11
41.9564021435
21
37.0557234929
31
0.0000000000
11
41.9402599623
21
37.5454639890
31
0.0000000000
11
41.9160903667
21
38.0240321384
31
0.0000000000
0
SPLINE
5
2B0
100
AcDbEntity
8
0
100
AcDbSpline
62
7
6
CONTINUOUS
70
0
71
3
72
17
73
13
74
11
42
0.0000001000
43
0.0000001000
44
0.0000000001
12
-0.3211067447
22
5.3905857031
32
0.0000000000
13
-5.3708171652
23
0.5620024395
33
0.0000000000
40
0.0000000000
40
0.0000000000
40
0.0000000000
40
0.0000000000
40
0.1210738827
40
0.2430117362
40
0.3587374234
40
0.4662479708
40
0.5624254716
40
0.6478901888
40
0.7296375375
40
0.8151924700
40
0.9058354318
40
1.0000000000
40
1.0000000000
40
1.0000000000
40
1.0000000000
10
41.9160903736
20
38.0240320349
30
0.0000000000
10
41.9031311602
20
38.2415850820
30
0.0000000000
10
41.8311530389
20
38.6769244692
30
0.0000000000
10
41.5925636770
20
39.2819186578
30
0.0000000000
10
41.2521202448
20
39.8061841688
30
0.0000000000
10
40.8574588343
20
40.2277974311
30
0.0000000000
10
40.4483030406
20
40.5520237793
30
0.0000000000
10
40.0428922708
20
40.7996643026
30
0.0000000000
10
39.6314424956
20
40.9955830826
30
0.0000000000
10
39.1941611488
20
41.1538483997
30
0.0000000000
10
38.7220554250
20
41.2749157962
30
0.0000000000
10
38.3926944272
20
41.3260486014
30
0.0000000000
10
38.2241142008
20
41.3436888404
30
0.0000000000
11
41.9160903736
21
38.0240320349
31
0.0000000000
11
41.8091569335
21
38.6690441782
31
0.0000000000
11
41.5683361075
21
39.2819090606
31
0.0000000000
11
41.2290624939
21
39.8067301892
31
0.0000000000
11
40.8332736677
21
40.2314832898
31
0.0000000000
11
40.4268199238
21
40.5548139340
31
0.0000000000
11
40.0333012259
21
40.7959470048
31
0.0000000000
11
39.6349455938
21
40.9861795872
31
0.0000000000
11
39.2006701825
21
41.1438403360
31
0.0000000000
11
38.7266048742
21
41.2657314168
31
0.0000000000
11
38.2241142008
21
41.3436888404
31
0.0000000000
0
SPLINE
5
2B1
100
AcDbEntity
8
0
100
AcDbSpline
62
7
6
CONTINUOUS
70
0
71
3
72
8
73
4
74
2
42
0.0000001000
43
0.0000001000
44
0.0000000001
12
-0.1541536435
22
-0.0173727074
32
0.0000000000
13
-0.1534518613
23
-0.0233643669
33
0.0000000000
40
0.0000000000
40
0.0000000000
40
0.0000000000
40
0.0000000000
40
1.0000000000
40
1.0000000000
40
1.0000000000
40
1.0000000000
10
-41.5453137932
20
41.3436888404
30
0.0000000000
10
-41.5966983410
20
41.3378979379
30
0.0000000000
10
-41.6479953351
20
41.3311322409
30
0.0000000000
10
-41.6991459555
20
41.3233441186
30
0.0000000000
11
-41.5453137932
21
41.3436888404
31
0.0000000000
11
-41.6991459555
21
41.3233441186
31
0.0000000000
0
SPLINE
5
2B2
100
AcDbEntity
8
0
100
AcDbSpline
62
7
6
CONTINUOUS
70
0
71
3
72
9
73
5
74
3
42
0.0000001000
43
0.0000001000
44
0.0000000001
12
-0.4610322037
22
-0.0701961218
32
0.0000000000
13
-0.4481946196
23
-0.1293752133
33
0.0000000000
40
0.0000000000
40
0.0000000000
40
0.0000000000
40
0.0000000000
40
0.6652664708
40
1.0000000000
40
1.0000000000
40
1.0000000000
40
1.0000000000
10
-41.6991459555
20
41.3233441186
30
0.0000000000
10
-41.8013823779
20
41.3077777432
30
0.0000000000
10
-41.9541808036
20
41.2782393604
30
0.0000000000
10
-42.1045967902
20
41.2386127509
30
0.0000000000
10
-42.1546053791
20
41.2241773437
30
0.0000000000
11
-41.6991459555
21
41.3233441186
31
0.0000000000
11
-42.0036312980
21
41.2640111098
31
0.0000000000
11
-42.1546053791
21
41.2241773437
31
0.0000000000
0
SPLINE
5
2B3
100
AcDbEntity
8
0
100
AcDbSpline
62
7
6
CONTINUOUS
70
0
71
3
72
8
73
4
74
2
42
0.0000001000
43
0.0000001000
44
0.0000000001
12
-0.3031104275
22
-0.0874954194
32
0.0000000000
13
-0.2929419576
23
-0.1171836577
33
0.0000000000
40
0.0000000000
40
0.0000000000
40
0.0000000000
40
0.0000000000
40
1.0000000000
40
1.0000000000
40
1.0000000000
40
1.0000000000
10
-42.1546053791
20
41.2241773437
30
0.0000000000
10
-42.2556421883
20
41.1950122039
30
0.0000000000
10
-42.3552883303
20
41.1610668607
30
0.0000000000
10
-42.4529356495
20
41.1220056415
30
0.0000000000
11
-42.1546053791
21
41.2241773437
31
0.0000000000
11
-42.4529356495
21
41.1220056415
31
0.0000000000
0
SPLINE
5
2B4
100
AcDbEntity
8
0
100
AcDbSpline
62
7
6
CONTINUOUS
70
0
71
3
72
9
73
5
74
3
42
0.0000001000
43
0.0000001000
44
0.0000000001
12
-0.7635346551
22
-0.3054317803
32
0.0000000000
13
-0.6432328885
23
-0.5130612465
33
0.0000000000
40
0.0000000000
40
0.0000000000
40
0.0000000000
40
0.0000000000
40
0.5916984609
40
1.0000000000
40
1.0000000000
40
1.0000000000
40
1.0000000000
10
-42.4529356495
20
41.1220056415
30
0.0000000000
10
-42.6035297429
20
41.0617644700
30
0.0000000000
10
-42.8500066057
20
40.9393895354
30
0.0000000000
10
-43.0750936465
20
40.7817484554
30
0.0000000000
10
-43.1626379726
20
40.7119205565
30
0.0000000000
11
-42.4529356495
21
41.1220056415
31
0.0000000000
11
-42.8877209757
21
40.9045994223
31
0.0000000000
11
-43.1626379726
21
40.7119205565
31
0.0000000000
0
SPLINE
5
2B5
100
AcDbEntity
8
0
100
AcDbSpline
62
7
6
CONTINUOUS
70
0
71
3
72
9
73
5
74
3
42
0.0000001000
43
0.0000001000
44
0.0000000001
12
-0.1787864590
22
-0.1426052759
32
0.0000000000
13
-0.1659351854
23
-0.1573797853
33
0.0000000000
40
0.0000000000
40
0.0000000000
40
0.0000000000
40
0.0000000000
40
0.7503620814
40
1.0000000000
40
1.0000000000
40
1.0000000000
40
1.0000000000
10
-43.1626379726
20
40.7119205565
30
0.0000000000
10
-43.2073561658
20
40.6762520260
30
0.0000000000
10
-43.2654358784
20
40.6268173558
30
0.0000000000
10
-43.3213077817
20
40.5749497103
30
0.0000000000
10
-43.3351156865
20
40.5618537230
30
0.0000000000
11
-43.1626379726
21
40.7119205565
31
0.0000000000
11
-43.2932747018
21
40.6006943517
31
0.0000000000
11
-43.3351156865
21
40.5618537230
31
0.0000000000
0
SPLINE
5
2B6
100
AcDbEntity
8
0
100
AcDbSpline
62
7
6
CONTINUOUS
70
0
71
3
72
10
73
6
74
4
42
0.0000001000
43
0.0000001000
44
0.0000000001
12
0.9520627456
22
0.9039130866
32
0.0000000000
13
1.3088144826
23
0.0000000000
33
0.0000000000
40
0.0000000000
40
0.0000000000
40
0.0000000000
40
0.0000000000
40
0.2967272901
40
0.6475207259
40
1.0000000000
40
1.0000000000
40
1.0000000000
40
1.0000000000
10
-25.8338110912
20
21.6138376114
30
0.0000000000
10
-25.7396434250
20
21.7032428383
30
0.0000000000
10
-25.5119063231
20
21.8749400392
30
0.0000000000
10
-25.1051139797
20
22.0459864968
30
0.0000000000
10
-24.7967090535
20
22.0866139039
30
0.0000000000
10
-24.6429323939
20
22.0866139039
30
0.0000000000
11
-25.8338110912
21
21.6138376114
31
0.0000000000
11
-25.5234313589
21
21.8478065275
31
0.0000000000
11
-25.1002467414
21
22.0258772847
31
0.0000000000
11
-24.6429323939
21
22.0866139039
31
0.0000000000
0
SPLINE
5
2B7
100
AcDbEntity
8
0
100
AcDbSpline
62
7
6
CONTINUOUS
70
0
71
3
72
11
73
7
74
5
42
0.0000001000
43
0.0000001000
44
0.0000000001
12
2.9789811961
22
2.0439516314
32
0.0000000000
13
-0.0878826924
23
3.6010619696
33
0.0000000000
40
0.0000000000
40
0.0000000000
40
0.0000000000
40
0.0000000000
40
0.1974340855
40
0.4635879138
40
0.7309536900
40
1.0000000000
40
1.0000000000
40
1.0000000000
40
1.0000000000
10
42.2282447033
20
-41.2868288647
30
0.0000000000
10
42.4242955127
20
-41.1523136243
30
0.0000000000
10
42.8533099925
20
-40.7905930407
30
0.0000000000
10
43.3807080002
20
-40.0757897151
30
0.0000000000
10
43.7323395874
20
-39.1668984064
30
0.0000000000
10
43.8007457842
20
-38.5176978624
30
0.0000000000
10
43.7928642795
20
-38.1947470508
30
0.0000000000
11
42.2282447033
21
-41.2868288647
31
0.0000000000
11
42.7725704087
21
-40.8275940516
31
0.0000000000
11
43.3422070618
21
-40.0564510175
31
0.0000000000
11
43.6902103005
21
-39.1584359344
31
0.0000000000
11
43.7928642795
21
-38.1947470508
31
0.0000000000
0
SPLINE
5
2B8
100
AcDbEntity
8
0
100
AcDbSpline
62
7
6
CONTINUOUS
70
0
71
3
72
8
73
4
74
2
42
0.0000001000
43
0.0000001000
44
0.0000000001
12
0.0638334561
22
0.2189286281
32
0.0000000000
13
0.0638800466
23
0.2189150420
33
0.0000000000
40
0.0000000000
40
0.0000000000
40
0.0000000000
40
0.0000000000
40
1.0000000000
40
1.0000000000
40
1.0000000000
40
1.0000000000
10
12.6914802400
20
-32.5240637934
30
0.0000000000
10
12.7127580587
20
-32.4510875841
30
0.0000000000
10
12.7340436470
20
-32.3781136393
30
0.0000000000
10
12.7553369958
20
-32.3051419586
30
0.0000000000
11
12.6914802400
21
-32.5240637934
31
0.0000000000
11
12.7553369958
21
-32.3051419586
31
0.0000000000
0
SPLINE
5
2B9
100
AcDbEntity
8
0
100
AcDbSpline
62
7
6
CONTINUOUS
70
0
71
3
72
10
73
6
74
4
42
0.0000001000
43
0.0000001000
44
0.0000000001
12
0.5118822445
22
1.7542054042
32
0.0000000000
13
0.5148588165
23
1.7533340600
33
0.0000000000
40
0.0000000000
40
0.0000000000
40
0.0000000000
40
0.0000000000
40
0.2497267263
40
0.6246616367
40
1.0000000000
40
1.0000000000
40
1.0000000000
40
1.0000000000
10
12.7553369958
20
-32.3051419586
30
0.0000000000
10
12.7979472216
20
-32.1591179677
30
0.0000000000
10
12.9046093568
20
-31.7938790402
30
0.0000000000
10
13.0756717817
20
-31.2092709897
30
0.0000000000
10
13.2042943030
20
-30.7707369060
30
0.0000000000
10
13.2687097248
20
-30.5513723939
30
0.0000000000
11
12.7553369958
21
-32.3051419586
31
0.0000000000
11
12.8832608323
21
-31.8670971818
31
0.0000000000
11
13.0756724300
21
-31.2095272576
31
0.0000000000
11
13.2687097248
21
-30.5513723939
31
0.0000000000
0
SPLINE
5
2BA
100
AcDbEntity
8
0
100
AcDbSpline
62
7
6
CONTINUOUS
70
0
71
3
72
10
73
6
74
4
42
0.0000001000
43
0.0000001000
44
0.0000000001
12
-1.0038678341
22
2.8612990839
32
0.0000000000
13
-0.9909396385
23
2.8658021057
33
0.0000000000
40
0.0000000000
40
0.0000000000
40
0.0000000000
40
0.0000000000
40
0.3330672019
40
0.6664064825
40
1.0000000000
40
1.0000000000
40
1.0000000000
40
1.0000000000
10
12.4321143263
20
-33.4149306419
30
0.0000000000
10
12.3206625094
20
-33.0972623487
30
0.0000000000
10
12.0981473139
20
-32.4614979185
30
0.0000000000
10
11.7656813201
20
-31.5069772948
30
0.0000000000
10
11.5449063802
20
-30.8700433955
30
0.0000000000
10
11.4347160337
20
-30.5513723939
30
0.0000000000
11
12.4321143263
21
-33.4149306419
31
0.0000000000
11
12.0984773919
21
-32.4616739797
31
0.0000000000
11
11.7660050467
21
-31.5071368354
31
0.0000000000
11
11.4347160337
21
-30.5513723939
31
0.0000000000
0
SPLINE
5
2BB
100
AcDbEntity
8
0
100
AcDbSpline
62
7
6
CONTINUOUS
70
0
71
3
72
10
73
6
74
4
42
0.0000001000
43
0.0000001000
44
0.0000000001
12
0.0746445231
22
-2.8637150439
32
0.0000000000
13
0.0862010593
23
-2.8633904180
33
0.0000000000
40
0.0000000000
40
0.0000000000
40
0.0000000000
40
0.0000000000
40
0.1271521385
40
0.8418351294
40
1.0000000000
40
1.0000000000
40
1.0000000000
40
1.0000000000
10
14.2207273203
20
-30.5513724965
30
0.0000000000
10
14.2238910572
20
-30.6727483272
30
0.0000000000
10
14.2450422294
20
-31.4763350775
30
0.0000000000
10
14.2717821534
20
-32.4308583304
30
0.0000000000
10
14.2965949341
20
-33.2639679318
30
0.0000000000
10
14.3011395939
20
-33.4149305235
30
0.0000000000
11
14.2207273203
21
-30.5513724965
31
0.0000000000
11
14.2303114852
21
-30.9154975994
31
0.0000000000
11
14.2876508705
21
-32.9620383325
31
0.0000000000
11
14.3011395939
21
-33.4149305235
31
0.0000000000
0
SPLINE
5
2BC
100
AcDbEntity
8
0
100
AcDbSpline
62
7
6
CONTINUOUS
70
0
71
3
72
9
73
5
74
3
42
0.0000001000
43
0.0000001000
44
0.0000000001
12
0.0517797714
22
-1.8873660348
32
0.0000000000
13
0.0568124007
23
-1.8872195033
33
0.0000000000
40
0.0000000000
40
0.0000000000
40
0.0000000000
40
0.0000000000
40
0.7600272214
40
1.0000000000
40
1.0000000000
40
1.0000000000
40
1.0000000000
10
17.6117433032
20
-31.5276310907
30
0.0000000000
10
17.6248613151
20
-32.0057809450
30
0.0000000000
10
17.6427587281
20
-32.6348843953
30
0.0000000000
10
17.6614949127
20
-33.2639634237
30
0.0000000000
10
17.6660393892
20
-33.4149238597
30
0.0000000000
11
17.6117433032
21
-31.5276310907
31
0.0000000000
11
17.6525508664
21
-32.9620383325
31
0.0000000000
11
17.6660393892
21
-33.4149238597
31
0.0000000000
0
SPLINE
5
2BD
100
AcDbEntity
8
0
100
AcDbSpline
62
7
6
CONTINUOUS
70
0
71
3
72
8
73
4
74
2
42
0.0000001000
43
0.0000001000
44
0.0000000001
12
0.0533135862
22
0.2070889026
32
0.0000000000
13
0.0533575277
23
0.2070775886
33
0.0000000000
40
0.0000000000
40
0.0000000000
40
0.0000000000
40
0.0000000000
40
1.0000000000
40
1.0000000000
40
1.0000000000
40
1.0000000000
10
16.8110680417
20
-32.4172588937
30
0.0000000000
10
16.8288392371
20
-32.3482292595
30
0.0000000000
10
16.8466177600
20
-32.2792015110
30
0.0000000000
10
16.8644036026
20
-32.2101756481
30
0.0000000000
11
16.8110680417
21
-32.4172588937
31
0.0000000000
11
16.8644036026
21
-32.2101756481
31
0.0000000000
0
SPLINE
5
2BE
100
AcDbEntity
8
0
100
AcDbSpline
62
7
6
CONTINUOUS
70
0
71
3
72
10
73
6
74
4
42
0.0000001000
43
0.0000001000
44
0.0000000001
12
0.4275161484
22
1.6591663253
32
0.0000000000
13
0.4303238662
23
1.6584403004
33
0.0000000000
40
0.0000000000
40
0.0000000000
40
0.0000000000
40
0.0000000000
40
0.2497450566
40
0.6246842980
40
1.0000000000
40
1.0000000000
40
1.0000000000
40
1.0000000000
10
16.8644036026
20
-32.2101756481
30
0.0000000000
10
16.8999936175
20
-32.0720527855
30
0.0000000000
10
16.9890878025
20
-31.7265866207
30
0.0000000000
10
17.1320034557
20
-31.1736370289
30
0.0000000000
10
17.2394897707
20
-30.7588519557
30
0.0000000000
10
17.2933255387
20
-30.5513723939
30
0.0000000000
11
16.8644036026
21
-32.2101756481
31
0.0000000000
11
16.9712615117
21
-31.7958297111
31
0.0000000000
11
17.1320153725
21
-31.1738621984
31
0.0000000000
11
17.2933255387
21
-30.5513723939
31
0.0000000000
0
SPLINE
5
2BF
100
AcDbEntity
8
0
100
AcDbSpline
62
7
6
CONTINUOUS
70
0
71
3
72
10
73
6
74
4
42
0.0000001000
43
0.0000001000
44
0.0000000001
12
0.0746443485
22
-2.8637083636
32
0.0000000000
13
0.0862008307
23
-2.8633837392
33
0.0000000000
40
0.0000000000
40
0.0000000000
40
0.0000000000
40
0.0000000000
40
0.1271524710
40
0.8418371290
40
1.0000000000
40
1.0000000000
40
1.0000000000
40
1.0000000000
10
15.3631289326
20
-30.5513723939
30
0.0000000000
10
15.3662926704
20
-30.6727482588
30
0.0000000000
10
15.3874438434
20
-31.4763350433
30
0.0000000000
10
15.4141837051
20
-32.4308560695
30
0.0000000000
10
15.4389964145
20
-33.2639634103
30
0.0000000000
10
15.4435410047
20
-33.4149237413
30
0.0000000000
11
15.3631289326
21
-30.5513723939
31
0.0000000000
11
15.3727131002
21
-30.9154975994
31
0.0000000000
11
15.4300524855
21
-32.9620383325
31
0.0000000000
11
15.4435410047
21
-33.4149237413
31
0.0000000000
0
SPLINE
5
2C0
100
AcDbEntity
8
0
100
AcDbSpline
62
7
6
CONTINUOUS
70
0
71
3
72
10
73
6
74
4
42
0.0000001000
43
0.0000001000
44
0.0000000001
12
-0.5971507688
22
1.8864060834
32
0.0000000000
13
-0.5915348905
23
1.8881746279
33
0.0000000000
40
0.0000000000
40
0.0000000000
40
0.0000000000
40
0.0000000000
40
0.3331487480
40
0.6664849157
40
1.0000000000
40
1.0000000000
40
1.0000000000
40
1.0000000000
10
16.5547961036
20
-33.4149237413
30
0.0000000000
10
16.4884827600
20
-33.2054391329
30
0.0000000000
10
16.3560269912
20
-32.7862861180
30
0.0000000000
10
16.1579133940
20
-32.1571882515
30
0.0000000000
10
16.0262170240
20
-31.7375427721
30
0.0000000000
10
15.9604550877
20
-31.5276311987
30
0.0000000000
11
16.5547961036
21
-33.4149237413
31
0.0000000000
11
16.3561681912
21
-32.7863711989
31
0.0000000000
11
16.1580527666
21
-32.1572681303
31
0.0000000000
11
15.9604550877
21
-31.5276311987
31
0.0000000000
0
SPLINE
5
2C1
100
AcDbEntity
8
0
100
AcDbSpline
62
7
6
CONTINUOUS
70
0
71
3
72
8
73
4
74
2
42
0.0000001000
43
0.0000001000
44
0.0000000001
12
-0.0340248076
22
0.0976443457
32
0.0000000000
13
-0.0340104442
23
0.0976493504
33
0.0000000000
40
0.0000000000
40
0.0000000000
40
0.0000000000
40
0.0000000000
40
1.0000000000
40
1.0000000000
40
1.0000000000
40
1.0000000000
10
20.0645462307
20
-32.3092045895
30
0.0000000000
10
20.0532046282
20
-32.2766564743
30
0.0000000000
10
20.0418654233
20
-32.2441075234
30
0.0000000000
10
20.0305286086
20
-32.2115577399
30
0.0000000000
11
20.0645462307
21
-32.3092045895
31
0.0000000000
11
20.0305286086
21
-32.2115577399
31
0.0000000000
0
SPLINE
5
2C2
100
AcDbEntity
8
0
100
AcDbSpline
62
7
6
CONTINUOUS
70
0
71
3
72
10
73
6
74
4
42
0.0000001000
43
0.0000001000
44
0.0000000001
12
-0.2342308206
22
0.6725136352
32
0.0000000000
13
-0.2335586149
23
0.6727473817
33
0.0000000000
40
0.0000000000
40
0.0000000000
40
0.0000000000
40
0.0000000000
40
0.2886439098
40
0.7172168436
40
1.0000000000
40
1.0000000000
40
1.0000000000
40
1.0000000000
10
20.0305286086
20
-32.2115577399
30
0.0000000000
10
20.0079921753
20
-32.1468520849
30
0.0000000000
10
19.9520175478
20
-31.9860645409
30
0.0000000000
10
19.8740541296
20
-31.7618538176
30
0.0000000000
10
19.8186507739
20
-31.6023405559
30
0.0000000000
10
19.7966352931
20
-31.5389266799
30
0.0000000000
11
20.0305286086
21
-32.2115577399
31
0.0000000000
11
19.9629475851
21
-32.0174309290
31
0.0000000000
11
19.8627083307
21
-31.7291590726
31
0.0000000000
11
19.7966352931
21
-31.5389266799
31
0.0000000000
0
SPLINE
5
2C3
100
AcDbEntity
8
0
100
AcDbSpline
62
7
6
CONTINUOUS
70
0
71
3
72
8
73
4
74
2
42
0.0000001000
43
0.0000001000
44
0.0000000001
12
-0.0328177759
22
0.0945290450
32
0.0000000000
13
-0.0328047041
23
0.0945335814
33
0.0000000000
40
0.0000000000
40
0.0000000000
40
0.0000000000
40
0.0000000000
40
1.0000000000
40
1.0000000000
40
1.0000000000
40
1.0000000000
10
19.7966352931
20
-31.5389266799
30
0.0000000000
10
19.7856960345
20
-31.5074169982
30
0.0000000000
10
19.7747589588
20
-31.4759065588
30
0.0000000000
10
19.7638240574
20
-31.4443953650
30
0.0000000000
11
19.7966352931
21
-31.5389266799
31
0.0000000000
11
19.7638240574
21
-31.4443953650
31
0.0000000000
0
SPLINE
5
2C4
100
AcDbEntity
8
0
100
AcDbSpline
62
7
6
CONTINUOUS
70
0
71
3
72
10
73
6
74
4
42
0.0000001000
43
0.0000001000
44
0.0000000001
12
-0.8670569136
22
0.0007943121
32
0.0000000000
13
-0.8670572552
23
0.0002011269
33
0.0000000000
40
0.0000000000
40
0.0000000000
40
0.0000000000
40
0.0000000000
40
0.3526147783
40
0.6991648208
40
1.0000000000
40
1.0000000000
40
1.0000000000
40
1.0000000000
10
20.2543253593
20
-32.8530661729
30
0.0000000000
10
20.1524129988
20
-32.8529728109
30
0.0000000000
10
19.9503410881
20
-32.8528015846
30
0.0000000000
10
19.6613220510
20
-32.8526185544
30
0.0000000000
10
19.4742153718
20
-32.8525486339
30
0.0000000000
10
19.3872682636
20
-32.8525284652
30
0.0000000000
11
20.2543253593
21
-32.8530661729
31
0.0000000000
11
19.9485882561
21
-32.8528111023
31
0.0000000000
11
19.6481095778
21
-32.8526241053
31
0.0000000000
11
19.3872682636
21
-32.8525284652
31
0.0000000000
0
SPLINE
5
2C5
100
AcDbEntity
8
0
100
AcDbSpline
62
7
6
CONTINUOUS
70
0
71
3
72
8
73
4
74
2
42
0.0000001000
43
0.0000001000
44
0.0000000001
12
-0.0343976870
22
0.0000079791
32
0.0000000000
13
-0.0343976873
23
0.0000066806
33
0.0000000000
40
0.0000000000
40
0.0000000000
40
0.0000000000
40
0.0000000000
40
1.0000000000
40
1.0000000000
40
1.0000000000
40
1.0000000000
10
19.3872682636
20
-32.8525284652
30
0.0000000000
10
19.3758023679
20
-32.8525258055
30
0.0000000000
10
19.3643364722
20
-32.8525233601
30
0.0000000000
10
19.3528705764
20
-32.8525211332
30
0.0000000000
11
19.3872682636
21
-32.8525284652
31
0.0000000000
11
19.3528705764
21
-32.8525211332
31
0.0000000000
0
SPLINE
5
2C6
100
AcDbEntity
8
0
100
AcDbSpline
62
7
6
CONTINUOUS
70
0
71
3
72
9
73
5
74
3
42
0.0000001000
43
0.0000001000
44
0.0000000001
12
-0.1970707621
22
0.5624924669
32
0.0000000000
13
-0.1965801617
23
0.5626641099
33
0.0000000000
40
0.0000000000
40
0.0000000000
40
0.0000000000
40
0.0000000000
40
0.5026309582
40
1.0000000000
40
1.0000000000
40
1.0000000000
40
1.0000000000
10
20.4511496070
20
-33.4156449312
30
0.0000000000
10
20.4181316516
20
-33.3214028886
30
0.0000000000
10
20.3524831437
20
-33.1338907713
30
0.0000000000
10
20.2869163215
20
-32.9463500760
30
0.0000000000
10
20.2543253593
20
-32.8530661729
30
0.0000000000
11
20.4511496070
21
-33.4156449312
31
0.0000000000
11
20.3521583437
21
-33.1328968783
31
0.0000000000
11
20.2543253593
21
-32.8530661729
31
0.0000000000
0
SPLINE
5
2C7
100
AcDbEntity
8
0
100
AcDbSpline
62
7
6
CONTINUOUS
70
0
71
3
72
8
73
4
74
2
42
0.0000001000
43
0.0000001000
44
0.0000000001
12
-0.0962411717
22
0.0000979399
32
0.0000000000
13
-0.0962411700
23
0.0000995706
33
0.0000000000
40
0.0000000000
40
0.0000000000
40
0.0000000000
40
0.0000000000
40
1.0000000000
40
1.0000000000
40
1.0000000000
40
1.0000000000
10
21.0216487710
20
-33.4162340304
30
0.0000000000
10
20.9895683804
20
-33.4162013837
30
0.0000000000
10
20.9574879902
20
-33.4161684025
30
0.0000000000
10
20.9254076002
20
-33.4161352123
30
0.0000000000
11
21.0216487710
21
-33.4162340304
31
0.0000000000
11
20.9254076002
21
-33.4161352123
31
0.0000000000
0
SPLINE
5
2C8
100
AcDbEntity
8
0
100
AcDbSpline
62
7
6
CONTINUOUS
70
0
71
3
72
9
73
5
74
3
42
0.0000001000
43
0.0000001000
44
0.0000000001
12
-0.4742579928
22
0.0004906648
32
0.0000000000
13
-0.4742580106
23
0.0004731255
33
0.0000000000
40
0.0000000000
40
0.0000000000
40
0.0000000000
40
0.0000000000
40
0.4029299906
40
1.0000000000
40
1.0000000000
40
1.0000000000
40
1.0000000000
10
20.9254076002
20
-33.4161352123
30
0.0000000000
10
20.8617100107
20
-33.4160693111
30
0.0000000000
10
20.7036240152
20
-33.4159037115
30
0.0000000000
10
20.5455380186
20
-33.4157390942
30
0.0000000000
10
20.4511496070
20
-33.4156449312
30
0.0000000000
11
20.9254076002
21
-33.4161352123
31
0.0000000000
11
20.7343148331
21
-33.4159360205
31
0.0000000000
11
20.4511496070
21
-33.4156449312
31
0.0000000000
0
SPLINE
5
2C9
100
AcDbEntity
8
0
100
AcDbSpline
62
7
6
CONTINUOUS
70
0
71
3
72
8
73
4
74
2
42
0.0000001000
43
0.0000001000
44
0.0000000001
12
0.0550936694
22
0.1883619454
32
0.0000000000
13
0.0551241771
23
0.1883530214
33
0.0000000000
40
0.0000000000
40
0.0000000000
40
0.0000000000
40
0.0000000000
40
1.0000000000
40
1.0000000000
40
1.0000000000
40
1.0000000000
10
19.1308787407
20
-31.6560452874
30
0.0000000000
10
19.1492432972
20
-31.5932579723
30
0.0000000000
10
19.1676128642
20
-31.5304721223
30
0.0000000000
10
19.1859875899
20
-31.4676877818
30
0.0000000000
11
19.1308787407
21
-31.6560452874
31
0.0000000000
11
19.1859875899
21
-31.4676877818
31
0.0000000000
0
SPLINE
5
2CA
100
AcDbEntity
8
0
100
AcDbSpline
62
7
6
CONTINUOUS
70
0
71
3
72
9
73
5
74
3
42
0.0000001000
43
0.0000001000
44
0.0000000001
12
0.2681931821
22
0.9163854931
32
0.0000000000
13
0.2689732195
23
0.9161568349
33
0.0000000000
40
0.0000000000
40
0.0000000000
40
0.0000000000
40
0.0000000000
40
0.4055390505
40
1.0000000000
40
1.0000000000
40
1.0000000000
40
1.0000000000
10
19.1859875899
20
-31.4676877818
30
0.0000000000
10
19.2222418594
20
-31.3438110809
30
0.0000000000
10
19.3116891069
20
-31.0383637406
30
0.0000000000
10
19.4012653822
20
-30.7329542068
30
0.0000000000
10
19.4545634073
20
-30.5514143861
30
0.0000000000
11
19.1859875899
21
-31.4676877818
31
0.0000000000
11
19.2948117832
21
-31.0960756499
31
0.0000000000
11
19.4545634073
21
-30.5514143861
31
0.0000000000
0
SPLINE
5
2CB
100
AcDbEntity
8
0
100
AcDbSpline
62
7
6
CONTINUOUS
70
0
71
3
72
9
73
5
74
3
42
0.0000001000
43
0.0000001000
44
0.0000000001
12
0.5113137128
22
1.7593176171
32
0.0000000000
13
0.5143212456
23
1.7584407431
33
0.0000000000
40
0.0000000000
40
0.0000000000
40
0.0000000000
40
0.0000000000
40
0.5004289898
40
1.0000000000
40
1.0000000000
40
1.0000000000
40
1.0000000000
10
18.6180569789
20
-33.4149237413
30
0.0000000000
10
18.7033490471
20
-33.1214525620
30
0.0000000000
10
18.8740383615
20
-32.5350863938
30
0.0000000000
10
19.0452320793
20
-31.9488672936
30
0.0000000000
10
19.1308787407
20
-31.6560452874
30
0.0000000000
11
18.6180569789
21
-33.4149237413
31
0.0000000000
11
18.8743111268
21
-32.5346201337
31
0.0000000000
11
19.1308787407
21
-31.6560452874
31
0.0000000000
0
SPLINE
5
2CC
100
AcDbEntity
8
0
100
AcDbSpline
62
7
6
CONTINUOUS
70
0
71
3
72
10
73
6
74
4
42
0.0000001000
43
0.0000001000
44
0.0000000001
12
-0.6606634230
22
-0.0003126909
32
0.0000000000
13
-0.6606634842
23
0.0001333864
33
0.0000000000
40
0.0000000000
40
0.0000000000
40
0.0000000000
40
0.0000000000
40
0.3535503228
40
0.7042303879
40
1.0000000000
40
1.0000000000
40
1.0000000000
40
1.0000000000
10
22.5940479882
20
-31.0833741837
30
0.0000000000
10
22.5161887327
20
-31.0834110344
30
0.0000000000
10
22.3611023025
20
-31.0834633702
30
0.0000000000
10
22.1408811360
20
-31.0834834116
30
0.0000000000
10
21.9985192344
20
-31.0834670524
30
0.0000000000
10
21.9333845069
20
-31.0834539018
30
0.0000000000
11
22.5940479882
21
-31.0833741837
31
0.0000000000
11
22.3604702092
21
-31.0834539500
31
0.0000000000
11
22.1287886921
21
-31.0834758854
31
0.0000000000
11
21.9333845069
21
-31.0834539018
31
0.0000000000
0
SPLINE
5
2CD
100
AcDbEntity
8
0
100
AcDbSpline
62
7
6
CONTINUOUS
70
0
71
3
72
8
73
4
74
2
42
0.0000001000
43
0.0000001000
44
0.0000000001
12
-0.0343878802
22
0.0000069428
32
0.0000000000
13
-0.0343878799
23
0.0000079879
33
0.0000000000
40
0.0000000000
40
0.0000000000
40
0.0000000000
40
0.0000000000
40
1.0000000000
40
1.0000000000
40
1.0000000000
40
1.0000000000
10
21.9333845069
20
-31.0834539018
30
0.0000000000
10
21.9219218802
20
-31.0834515875
30
0.0000000000
10
21.9104592535
20
-31.0834490978
30
0.0000000000
10
21.8989966269
20
-31.0834464351
30
0.0000000000
11
21.9333845069
21
-31.0834539018
31
0.0000000000
11
21.8989966269
21
-31.0834464351
31
0.0000000000
0
SPLINE
5
2CE
100
AcDbEntity
8
0
100
AcDbSpline
62
7
6
CONTINUOUS
70
0
71
3
72
10
73
6
74
4
42
0.0000001000
43
0.0000001000
44
0.0000000001
12
-0.0862305035
22
2.8638710855
32
0.0000000000
13
-0.0729446670
23
2.8642402779
33
0.0000000000
40
0.0000000000
40
0.0000000000
40
0.0000000000
40
0.0000000000
40
0.3491220707
40
0.6824763538
40
1.0000000000
40
1.0000000000
40
1.0000000000
40
1.0000000000
10
21.4020050236
20
-33.4165887189
30
0.0000000000
10
21.3919700329
20
-33.0833085177
30
0.0000000000
10
21.3728392032
20
-32.4317856681
30
0.0000000000
10
21.3462612339
20
-31.4770988842
30
0.0000000000
10
21.3299377149
20
-30.8556878528
30
0.0000000000
10
21.3222171627
20
-30.5525331806
30
0.0000000000
11
21.4020050236
21
-33.4165887189
31
0.0000000000
11
21.3726567989
21
-32.4167256164
31
0.0000000000
11
21.3460963686
21
-31.4619786399
31
0.0000000000
11
21.3222171627
21
-30.5525331806
31
0.0000000000
0
SPLINE
5
2CF
100
AcDbEntity
8
0
100
AcDbSpline
62
7
6
CONTINUOUS
70
0
71
3
72
8
73
4
74
2
42
0.0000001000
43
0.0000001000
44
0.0000000001
12
-0.0961611102
22
0.0000530001
32
0.0000000000
13
-0.0961611063
23
0.0000598856
33
0.0000000000
40
0.0000000000
40
0.0000000000
40
0.0000000000
40
0.0000000000
40
1.0000000000
40
1.0000000000
40
1.0000000000
40
1.0000000000
10
21.9727021927
20
-33.4170094855
30
0.0000000000
10
21.9406484893
20
-33.4169918188
30
0.0000000000
10
21.9085947865
20
-33.4169729560
30
0.0000000000
10
21.8765410844
20
-33.4169529941
30
0.0000000000
11
21.9727021927
21
-33.4170094855
31
0.0000000000
11
21.8765410844
21
-33.4169529941
31
0.0000000000
0
SPLINE
5
2D0
100
AcDbEntity
8
0
100
AcDbSpline
62
7
6
CONTINUOUS
70
0
71
3
72
9
73
5
74
3
42
0.0000001000
43
0.0000001000
44
0.0000000001
12
-0.4745361100
22
0.0002955235
32
0.0000000000
13
-0.4745360140
23
0.0004217735
33
0.0000000000
40
0.0000000000
40
0.0000000000
40
0.0000000000
40
0.0000000000
40
0.4026423346
40
1.0000000000
40
1.0000000000
40
1.0000000000
40
1.0000000000
10
21.8765410844
20
-33.4169529941
30
0.0000000000
10
21.8128516420
20
-33.4169133307
30
0.0000000000
10
21.6546729452
20
-33.4168040470
30
0.0000000000
10
21.4964942654
20
-33.4166727021
30
0.0000000000
10
21.4020050236
20
-33.4165887189
30
0.0000000000
11
21.8765410844
21
-33.4169529941
31
0.0000000000
11
21.6854727652
21
-33.4168217496
31
0.0000000000
11
21.4020050236
21
-33.4165887189
31
0.0000000000
0
SPLINE
5
2D1
100
AcDbEntity
8
0
100
AcDbSpline
62
7
6
CONTINUOUS
70
0
71
3
72
9
73
5
74
3
42
0.0000001000
43
0.0000001000
44
0.0000000001
12
-0.3331873814
22
-0.0000195161
32
0.0000000000
13
-0.3331873681
23
0.0000997514
33
0.0000000000
40
0.0000000000
40
0.0000000000
40
0.0000000000
40
0.0000000000
40
0.7510207646
40
1.0000000000
40
1.0000000000
40
1.0000000000
40
1.0000000000
10
22.4388682116
20
-32.3108929538
30
0.0000000000
10
22.3554579977
20
-32.3108978395
30
0.0000000000
10
22.2443955358
20
-32.3108886622
30
0.0000000000
10
22.1333330783
20
-32.3108600149
30
0.0000000000
10
22.1056808329
20
-32.3108517363
30
0.0000000000
11
22.4388682116
21
-32.3108929538
31
0.0000000000
11
22.1886375701
21
-32.3108730731
31
0.0000000000
11
22.1056808329
21
-32.3108517363
31
0.0000000000
0
SPLINE
5
2D2
100
AcDbEntity
8
0
100
AcDbSpline
62
7
6
CONTINUOUS
70
0
71
3
72
8
73
4
74
2
42
0.0000001000
43
0.0000001000
44
0.0000000001
12
-0.1652332647
22
0.0000494684
32
0.0000000000
13
-0.1652332544
23
0.0000753075
33
0.0000000000
40
0.0000000000
40
0.0000000000
40
0.0000000000
40
0.0000000000
40
1.0000000000
40
1.0000000000
40
1.0000000000
40
1.0000000000
10
22.1056808329
20
-32.3108517363
30
0.0000000000
10
22.0506030780
20
-32.3108352468
30
0.0000000000
10
21.9955253245
20
-32.3108142104
30
0.0000000000
10
21.9404475731
20
-32.3107891079
30
0.0000000000
11
22.1056808329
21
-32.3108517363
31
0.0000000000
11
21.9404475731
21
-32.3107891079
31
0.0000000000
0
SPLINE
5
2D3
100
AcDbEntity
8
0
100
AcDbSpline
62
7
6
CONTINUOUS
70
0
71
3
72
10
73
6
74
4
42
0.0000001000
43
0.0000001000
44
0.0000000001
12
-0.6060838713
22
1.1054523808
32
0.0000000000
13
-0.6036108798
23
1.1068046490
33
0.0000000000
40
0.0000000000
40
0.0000000000
40
0.0000000000
40
0.0000000000
40
0.3378945439
40
0.6712305590
40
1.0000000000
40
1.0000000000
40
1.0000000000
40
1.0000000000
10
23.0437115480
20
-33.4170243098
30
0.0000000000
10
22.9754474036
20
-33.2925155338
30
0.0000000000
10
22.8399349426
20
-33.0451256953
30
0.0000000000
10
22.6383249813
20
-32.6764126634
30
0.0000000000
10
22.5050178155
20
-32.4321874691
30
0.0000000000
10
22.4388682116
20
-32.3108929538
30
0.0000000000
11
23.0437115480
21
-33.4170243098
31
0.0000000000
11
22.8390616929
21
-33.0434198462
31
0.0000000000
11
22.6374499093
21
-32.6747039968
31
0.0000000000
11
22.4388682116
21
-32.3108929538
31
0.0000000000
0
SPLINE
5
2D4
100
AcDbEntity
8
0
100
AcDbSpline
62
7
6
CONTINUOUS
70
0
71
3
72
8
73
4
74
2
42
0.0000001000
43
0.0000001000
44
0.0000000001
12
-0.1424452679
22
-0.0002197671
32
0.0000000000
13
-0.1424453129
23
-0.0001890303
33
0.0000000000
40
0.0000000000
40
0.0000000000
40
0.0000000000
40
0.0000000000
40
1.0000000000
40
1.0000000000
40
1.0000000000
40
1.0000000000
10
23.6879361160
20
-33.4163335580
30
0.0000000000
10
23.6404543600
20
-33.4164068137
30
0.0000000000
10
23.5929725957
20
-33.4164748542
30
0.0000000000
10
23.5454908248
20
-33.4165378643
30
0.0000000000
11
23.6879361160
21
-33.4163335580
31
0.0000000000
11
23.5454908248
21
-33.4165378643
31
0.0000000000
0
SPLINE
5
2D5
100
AcDbEntity
8
0
100
AcDbSpline
62
7
6
CONTINUOUS
70
0
71
3
72
10
73
6
74
4
42
0.0000001000
43
0.0000001000
44
0.0000000001
12
-0.5017790819
22
-0.0006658798
32
0.0000000000
13
-0.5017794222
23
-0.0003146175
33
0.0000000000
40
0.0000000000
40
0.0000000000
40
0.0000000000
40
0.0000000000
40
0.1422457296
40
0.5702047927
40
1.0000000000
40
1.0000000000
40
1.0000000000
40
1.0000000000
10
23.5454908248
20
-33.4165378643
30
0.0000000000
10
23.5216988476
20
-33.4165694372
30
0.0000000000
10
23.4263265617
20
-33.4166909369
30
0.0000000000
10
23.2590668140
20
-33.4168690805
30
0.0000000000
10
23.1155990116
20
-33.4169792361
30
0.0000000000
10
23.0437115480
20
-33.4170243098
30
0.0000000000
11
23.5454908248
21
-33.4165378643
31
0.0000000000
11
23.4741148883
21
-33.4166288171
31
0.0000000000
11
23.2593739172
21
-33.4168581370
31
0.0000000000
11
23.0437115480
21
-33.4170243098
31
0.0000000000
0
SPLINE
5
2D6
100
AcDbEntity
8
0
100
AcDbSpline
62
7
6
CONTINUOUS
70
0
71
3
72
9
73
5
74
3
42
0.0000001000
43
0.0000001000
44
0.0000000001
12
0.0205564393
22
-0.8423161564
32
0.0000000000
13
-0.3711802882
23
-0.7589008471
33
0.0000000000
40
0.0000000000
40
0.0000000000
40
0.0000000000
40
0.0000000000
40
0.5506392512
40
1.0000000000
40
1.0000000000
40
1.0000000000
40
1.0000000000
10
21.9717083730
20
-23.6637708720
30
0.0000000000
10
21.9754814337
20
-23.8183749845
30
0.0000000000
10
21.9456522459
20
-24.1014651983
30
0.0000000000
10
21.8496441567
20
-24.3679828690
30
0.0000000000
10
21.7940462059
20
-24.4816562866
30
0.0000000000
11
21.9717083730
21
-23.6637708720
31
0.0000000000
11
21.9225655103
21
-24.1251112967
31
0.0000000000
11
21.7940462059
21
-24.4816562866
31
0.0000000000
0
SPLINE
5
2D7
100
AcDbEntity
8
0
100
AcDbSpline
62
7
6
CONTINUOUS
70
0
71
3
72
10
73
6
74
4
42
0.0000001000
43
0.0000001000
44
0.0000000001
12
-0.3884898042
22
-0.7942912134
32
0.0000000000
13
-0.7293013517
23
-0.5003914390
33
0.0000000000
40
0.0000000000
40
0.0000000000
40
0.0000000000
40
0.0000000000
40
0.0934797544
40
0.6139286851
40
1.0000000000
40
1.0000000000
40
1.0000000000
40
1.0000000000
10
21.7940462059
20
-24.4816562866
30
0.0000000000
10
21.7819408954
20
-24.5064063358
30
0.0000000000
10
21.6985612669
20
-24.6670565905
30
0.0000000000
10
21.5219217456
20
-24.9064631018
30
0.0000000000
10
21.3165424737
20
-25.0796272106
30
0.0000000000
10
21.2226883631
20
-25.1440228042
30
0.0000000000
11
21.7940462059
21
-24.4816562866
31
0.0000000000
11
21.7559682149
21
-24.5550121339
31
0.0000000000
11
21.4832698171
21
-24.9241763519
31
0.0000000000
11
21.2226883631
21
-25.1440228042
31
0.0000000000
0
SPLINE
5
2D8
100
AcDbEntity
8
0
100
AcDbSpline
62
7
6
CONTINUOUS
70
0
71
3
72
13
73
9
74
7
42
0.0000001000
43
0.0000001000
44
0.0000000001
12
2.8064237955
22
0.0000000000
32
0.0000000000
13
0.0684694313
23
-2.8055884333
33
0.0000000000
40
0.0000000000
40
0.0000000000
40
0.0000000000
40
0.0000000000
40
0.1654307707
40
0.3318870479
40
0.4990750254
40
0.6665095169
40
0.8336413710
40
1.0000000000
40
1.0000000000
40
1.0000000000
40
1.0000000000
10
19.0825318398
20
22.0866139039
30
0.0000000000
10
19.2372881236
20
22.0866139039
30
0.0000000000
10
19.5492337827
20
22.0452622687
30
0.0000000000
10
19.9852810401
20
21.8649818550
30
0.0000000000
10
20.3630132280
20
21.5787507411
30
0.0000000000
10
20.6565673239
20
21.2059093196
30
0.0000000000
10
20.8462221150
20
20.7720389535
30
0.0000000000
10
20.8948898480
20
20.4597093286
30
0.0000000000
10
20.8986866749
20
20.3041313801
30
0.0000000000
11
19.0825318398
21
22.0866139039
31
0.0000000000
11
19.5428107004
21
22.0258772847
31
0.0000000000
11
19.9746868303
21
21.8478065275
31
0.0000000000
11
20.3487285850
21
21.5645368600
31
0.0000000000
11
20.6394456371
21
21.1953726420
31
0.0000000000
11
20.8270260999
21
20.7654718048
31
0.0000000000
11
20.8986866749
21
20.3041313801
31
0.0000000000
0
SPLINE
5
2D9
100
AcDbEntity
8
0
100
AcDbSpline
62
7
6
CONTINUOUS
70
0
71
3
72
9
73
5
74
3
42
0.0000001000
43
0.0000001000
44
0.0000000001
12
-0.4965632470
22
0.0000000000
32
0.0000000000
13
-0.4929585249
23
-0.0597239569
33
0.0000000000
40
0.0000000000
40
0.0000000000
40
0.0000000000
40
0.0000000000
40
0.5021809433
40
1.0000000000
40
1.0000000000
40
1.0000000000
40
1.0000000000
10
-41.1235441844
20
41.3058630577
30
0.0000000000
10
-41.2066657177
20
41.3058630577
30
0.0000000000
10
-41.3722246979
20
41.3010649881
30
0.0000000000
10
-41.5372055022
20
41.2863113621
30
0.0000000000
10
-41.6190068848
20
41.2764007875
30
0.0000000000
11
-41.1235441844
21
41.3058630577
31
0.0000000000
11
-41.3728010397
21
41.2985334105
31
0.0000000000
11
-41.6190068848
21
41.2764007875
31
0.0000000000
0
SPLINE
5
2DA
100
AcDbEntity
8
0
100
AcDbSpline
62
7
6
CONTINUOUS
70
0
71
3
72
9
73
5
74
3
42
0.0000001000
43
0.0000001000
44
0.0000000001
12
-0.5067755551
22
0.0581509576
32
0.0000000000
13
-0.5101009675
23
0.0000000000
33
0.0000000000
40
0.0000000000
40
0.0000000000
40
0.0000000000
40
0.0000000000
40
0.5045467219
40
1.0000000000
40
1.0000000000
40
1.0000000000
40
1.0000000000
10
38.1504211091
20
41.2764007875
30
0.0000000000
10
38.0651904608
20
41.2861807458
30
0.0000000000
10
37.8956904204
20
41.3008674966
30
0.0000000000
10
37.7256236337
20
41.3058630577
30
0.0000000000
10
37.6413799015
20
41.3058630577
30
0.0000000000
11
38.1504211091
21
41.2764007875
31
0.0000000000
11
37.8940048062
21
41.2985339889
31
0.0000000000
11
37.6413799015
21
41.3058630577
31
0.0000000000
0
SPLINE
5
2DB
100
AcDbEntity
8
0
100
AcDbSpline
62
7
6
CONTINUOUS
70
0
71
3
72
8
73
4
74
2
42
0.0000001000
43
0.0000001000
44
0.0000000001
12
-0.0185982375
22
0.0572837297
32
0.0000000000
13
-0.0194698249
23
0.0569918265
33
0.0000000000
40
0.0000000000
40
0.0000000000
40
0.0000000000
40
0.0000000000
40
1.0000000000
40
1.0000000000
40
1.0000000000
40
1.0000000000
10
-41.5262844192
20
41.2865488409
30
0.0000000000
10
-41.5324838316
20
41.3056434175
30
0.0000000000
10
-41.5388238515
20
41.3246915649
30
0.0000000000
10
-41.5453137932
20
41.3436888404
30
0.0000000000
11
-41.5262844192
21
41.2865488409
31
0.0000000000
11
-41.5453137932
21
41.3436888404
31
0.0000000000
0
SPLINE
5
2DC
100
AcDbEntity
8
0
100
AcDbSpline
62
7
6
CONTINUOUS
70
0
71
3
72
9
73
5
74
3
42
0.0000001000
43
0.0000001000
44
0.0000000001
12
0.0736930176
22
0.0672881341
32
0.0000000000
13
0.0736931657
23
0.0672879718
33
0.0000000000
40
0.0000000000
40
0.0000000000
40
0.0000000000
40
0.0000000000
40
0.4999567714
40
1.0000000000
40
1.0000000000
40
1.0000000000
40
1.0000000000
10
38.1504211091
20
41.2764007875
30
0.0000000000
10
38.1627022169
20
41.2876145069
30
0.0000000000
10
38.1872665684
20
41.3100438714
30
0.0000000000
10
38.2118309447
20
41.3324732088
30
0.0000000000
10
38.2241142008
20
41.3436888404
30
0.0000000000
11
38.1504211091
21
41.2764007875
31
0.0000000000
11
38.1872644508
21
41.3100419254
31
0.0000000000
11
38.2241142008
21
41.3436888404
31
0.0000000000
0
SPLINE
5
2DD
100
AcDbEntity
8
0
100
AcDbSpline
62
7
6
CONTINUOUS
70
0
71
3
72
10
73
6
74
4
42
0.0000001000
43
0.0000001000
44
0.0000000001
12
0.8325707233
22
2.8647029358
32
0.0000000000
13
0.8405390236
23
2.8623750749
33
0.0000000000
40
0.0000000000
40
0.0000000000
40
0.0000000000
40
0.0000000000
40
0.3328015599
40
0.6661411313
40
1.0000000000
40
1.0000000000
40
1.0000000000
40
1.0000000000
10
13.0377552757
20
-33.3870748121
30
0.0000000000
10
13.1301155542
20
-33.0692822768
30
0.0000000000
10
13.3152820484
20
-32.4332696229
30
0.0000000000
10
13.5941376950
20
-31.4787566598
30
0.0000000000
10
13.7807794722
20
-30.8420796520
30
0.0000000000
10
13.8743199413
20
-30.5235365506
30
0.0000000000
11
13.0377552757
21
-33.3870748121
31
0.0000000000
11
13.3152799399
21
-32.4338263087
31
0.0000000000
11
13.5941400878
21
-31.4792954067
31
0.0000000000
11
13.8743199413
21
-30.5235365506
31
0.0000000000
0
SPLINE
5
2DE
100
AcDbEntity
8
0
100
AcDbSpline
62
9
6
CONTINUOUS
70
0
71
3
72
12
73
8
74
6
42
0.0000001000
43
0.0000001000
44
0.0000000001
12
-0.4888389471
22
-13.7606443880
32
0.0000000000
13
0.4432198262
23
-13.7621892762
33
0.0000000000
40
0.0000000000
40
0.0000000000
40
0.0000000000
40
0.0000000000
40
0.2226834939
40
0.4384851258
40
0.6411014618
40
0.8278342262
40
1.0000000000
40
1.0000000000
40
1.0000000000
40
1.0000000000
10
-2.8105940886
20
39.6872414364
30
0.0000000000
10
-2.8468795435
20
38.6658186463
30
0.0000000000
10
-2.9134737450
20
36.6543245258
30
0.0000000000
10
-2.9667429151
20
33.7121809091
30
0.0000000000
10
-2.9788769200
20
30.9346228148
30
0.0000000000
10
-2.9628848842
20
28.3574507247
30
0.0000000000
10
-2.9357357019
20
26.7102697252
30
0.0000000000
10
-2.9102999404
20
25.9204770699
30
0.0000000000
11
-2.8105940886
21
39.6872414364
31
0.0000000000
11
-2.9067402711
21
36.6225479337
31
0.0000000000
11
-2.9608221926
21
33.6515974357
31
0.0000000000
11
-2.9740782055
21
30.8617388470
31
0.0000000000
11
-2.9578875880
21
28.2906057925
31
0.0000000000
11
-2.9102999404
21
25.9204770699
31
0.0000000000
0
SPLINE
5
2DF
100
AcDbEntity
8
0
100
AcDbSpline
62
7
6
CONTINUOUS
70
0
71
3
72
10
73
6
74
4
42
0.0000001000
43
0.0000001000
44
0.0000000001
12
-1.1691013592
22
-0.9459771412
32
0.0000000000
13
-1.5005650593
23
0.0000000000
33
0.0000000000
40
0.0000000000
40
0.0000000000
40
0.0000000000
40
0.0000000000
40
0.3272493483
40
0.6628852310
40
1.0000000000
40
1.0000000000
40
1.0000000000
40
1.0000000000
10
21.6459169600
20
-25.4516708452
30
0.0000000000
10
21.5183877407
20
-25.5548609795
30
0.0000000000
10
21.2364194801
20
-25.7347063309
30
0.0000000000
10
20.7610354957
20
-25.9032707389
30
0.0000000000
10
20.4232597560
20
-25.9413874301
30
0.0000000000
10
20.2546388749
20
-25.9413874301
30
0.0000000000
11
21.6459169600
21
-25.4516708452
31
0.0000000000
11
21.2319060446
21
-25.7158324839
31
0.0000000000
11
20.7572680407
21
-25.8842828277
31
0.0000000000
11
20.2546388749
21
-25.9413874301
31
0.0000000000
0
SPLINE
5
2E0
100
AcDbEntity
8
0
100
AcDbSpline
62
9
6
CONTINUOUS
70
0
71
3
72
15
73
11
74
9
42
0.0000001000
43
0.0000001000
44
0.0000000001
12
14.3607830990
22
-0.7200195489
32
0.0000000000
13
14.3788219047
23
0.0000067576
33
0.0000000000
40
0.0000000000
40
0.0000000000
40
0.0000000000
40
0.0000000000
40
0.0206904285
40
0.1602752408
40
0.3021316162
40
0.4459346034
40
0.5913637669
40
0.7381035376
40
0.8858435784
40
1.0000000000
40
1.0000000000
40
1.0000000000
40
1.0000000000
10
-44.0841164401
20
-1.3676680000
30
0.0000000000
10
-43.9850728547
20
-1.3726338377
30
0.0000000000
10
-43.2178227655
20
-1.4106176281
30
0.0000000000
10
-41.7711485724
20
-1.4752529918
30
0.0000000000
10
-39.7343365190
20
-1.5501651607
30
0.0000000000
10
-37.6690187813
20
-1.6105630185
30
0.0000000000
10
-35.5799200824
20
-1.6565582046
30
0.0000000000
10
-33.4716847021
20
-1.6882839515
30
0.0000000000
10
-31.5131682654
20
-1.7045326632
30
0.0000000000
10
-30.2579121648
20
-1.7076488294
30
0.0000000000
10
-29.7107672128
20
-1.7076485723
30
0.0000000000
11
-44.0841164401
21
-1.3676680000
31
0.0000000000
11
-43.7869763980
21
-1.3823791359
31
0.0000000000
11
-41.7819199626
21
-1.4721523591
31
0.0000000000
11
-39.7435765127
21
-1.5472821925
31
0.0000000000
11
-37.6767465632
21
-1.6078610117
31
0.0000000000
11
-35.5861556763
21
-1.6540035053
31
0.0000000000
11
-33.4764509368
21
-1.6858459484
31
0.0000000000
11
-31.3521969412
21
-1.7035457340
31
0.0000000000
11
-29.7107672128
21
-1.7076485723
31
0.0000000000
0
SPLINE
5
2E1
100
AcDbEntity
8
0
100
AcDbSpline
62
9
6
CONTINUOUS
70
0
71
3
72
10
73
6
74
4
42
0.0000001000
43
0.0000001000
44
0.0000000001
12
0.2401191967
22
-13.0580098983
32
0.0000000000
13
0.5821709165
23
-13.0472355983
33
0.0000000000
40
0.0000000000
40
0.0000000000
40
0.0000000000
40
0.0000000000
40
0.3343262044
40
0.6702061307
40
1.0000000000
40
1.0000000000
40
1.0000000000
40
1.0000000000
10
-22.2097795546
20
-29.3361417499
30
0.0000000000
10
-22.1830201748
20
-30.7913533788
30
0.0000000000
10
-22.1290216304
20
-33.7086100427
30
0.0000000000
10
-21.9800740519
20
-38.0595716994
30
0.0000000000
10
-21.8662895948
20
-40.9552991655
30
0.0000000000
10
-21.8022907951
20
-42.3895986029
30
0.0000000000
11
-22.2097795546
21
-29.3361417499
31
0.0000000000
11
-22.1177431131
21
-33.7015445762
31
0.0000000000
11
-21.9754418564
21
-38.0859007496
31
0.0000000000
11
-21.8022907951
21
-42.3895986029
31
0.0000000000
0
SPLINE
5
2E2
100
AcDbEntity
8
0
100
AcDbSpline
62
7
6
CONTINUOUS
70
0
71
3
72
16
73
12
74
10
42
0.0000001000
43
0.0000001000
44
0.0000000001
12
1.6502634084
22
1.3959131644
32
0.0000000000
13
-2.1514015576
23
-0.0012982548
33
0.0000000000
40
0.0000000000
40
0.0000000000
40
0.0000000000
40
0.0000000000
40
0.1200566642
40
0.2419871326
40
0.3644582923
40
0.4823666389
40
0.5930506303
40
0.6967035726
40
0.7959801228
40
0.8953546736
40
1.0000000000
40
1.0000000000
40
1.0000000000
40
1.0000000000
10
23.2932387477
20
-32.0819130931
30
0.0000000000
10
23.3592804543
20
-32.0260502004
30
0.0000000000
10
23.4747048563
20
-31.8929358611
30
0.0000000000
10
23.5797223031
20
-31.6490093107
30
0.0000000000
10
23.6062588994
20
-31.3865142288
30
0.0000000000
10
23.5574043761
20
-31.1360506855
30
0.0000000000
10
23.4491201475
20
-30.9207248558
30
0.0000000000
10
23.2994766842
20
-30.7498413541
30
0.0000000000
10
23.1203532457
20
-30.6241582231
30
0.0000000000
10
22.9162069745
20
-30.5436519032
30
0.0000000000
10
22.7692021456
20
-30.5246764992
30
0.0000000000
10
22.6941574395
20
-30.5247217847
30
0.0000000000
11
23.2932387477
21
-32.0819130931
31
0.0000000000
11
23.4625631639
21
-31.8868668442
31
0.0000000000
11
23.5664938241
21
-31.6460122000
31
0.0000000000
11
23.5933395028
21
-31.3838986897
31
0.0000000000
11
23.5450410798
21
-31.1348708966
31
0.0000000000
11
23.4381839891
21
-30.9220671435
31
0.0000000000
11
23.2912803590
21
-30.7542936629
31
0.0000000000
11
23.1164142212
21
-30.6316565640
31
0.0000000000
11
22.9174579315
21
-30.5533972087
31
0.0000000000
11
22.6941574395
21
-30.5247217847
31
0.0000000000
0
SPLINE
5
2E3
100
AcDbEntity
8
0
100
AcDbSpline
62
7
6
CONTINUOUS
70
0
71
3
72
10
73
6
74
4
42
0.0000001000
43
0.0000001000
44
0.0000000001
12
-0.0296084593
22
0.9858316564
32
0.0000000000
13
-0.0280759395
23
0.9858765049
33
0.0000000000
40
0.0000000000
40
0.0000000000
40
0.0000000000
40
0.0000000000
40
0.3798565995
40
0.7538886761
40
1.0000000000
40
1.0000000000
40
1.0000000000
40
1.0000000000
10
22.0071116820
20
-33.3891604265
30
0.0000000000
10
22.0033626924
20
-33.2643355396
30
0.0000000000
10
21.9959941937
20
-33.0165975969
30
0.0000000000
10
21.9864106868
20
-32.6879785636
30
0.0000000000
10
21.9805668575
20
-32.4841847683
30
0.0000000000
10
21.9782635886
20
-32.4033063110
30
0.0000000000
11
22.0071116820
21
-33.3891604265
31
0.0000000000
11
21.9959737221
21
-33.0146825078
31
0.0000000000
11
21.9852208873
21
-32.6459403253
31
0.0000000000
11
21.9782635886
21
-32.4033063110
31
0.0000000000
0
SPLINE
5
2E4
100
AcDbEntity
8
0
100
AcDbSpline
62
7
6
CONTINUOUS
70
0
71
3
72
8
73
4
74
2
42
0.0000001000
43
0.0000001000
44
0.0000000001
12
-0.0026342851
22
0.0925019728
32
0.0000000000
13
-0.0026203510
23
0.0925023676
33
0.0000000000
40
0.0000000000
40
0.0000000000
40
0.0000000000
40
0.0000000000
40
1.0000000000
40
1.0000000000
40
1.0000000000
40
1.0000000000
10
21.9782635886
20
-32.4033063110
30
0.0000000000
10
21.9773854936
20
-32.3724723201
30
0.0000000000
10
21.9765097131
20
-32.3416382633
30
0.0000000000
10
21.9756362627
20
-32.3108041408
30
0.0000000000
11
21.9782635886
21
-32.4033063110
31
0.0000000000
11
21.9756362627
21
-32.3108041408
31
0.0000000000
0
SPLINE
5
2E5
100
AcDbEntity
8
0
100
AcDbSpline
62
9
6
CONTINUOUS
70
0
71
3
72
9
73
5
74
3
42
0.0000001000
43
0.0000001000
44
0.0000000001
12
0.0558768847
22
-1.7312433499
32
0.0000000000
13
0.0638844170
23
-1.7309663872
33
0.0000000000
40
0.0000000000
40
0.0000000000
40
0.0000000000
40
0.0000000000
40
0.5065021958
40
1.0000000000
40
1.0000000000
40
1.0000000000
40
1.0000000000
10
19.1306181784
20
-31.6571718406
30
0.0000000000
10
19.1400521000
20
-31.9494646933
30
0.0000000000
10
19.1593574375
20
-32.5265240662
30
0.0000000000
10
19.1799923610
20
-33.1035373998
30
0.0000000000
10
19.1905013008
20
-33.3882801036
30
0.0000000000
11
19.1306181784
21
-31.6571718406
31
0.0000000000
11
19.1599495896
21
-32.5340165611
31
0.0000000000
11
19.1905013008
21
-33.3882801036
31
0.0000000000
0
SPLINE
5
2E6
100
AcDbEntity
8
0
100
AcDbSpline
62
9
6
CONTINUOUS
70
0
71
3
72
8
73
4
74
2
42
0.0000001000
43
0.0000001000
44
0.0000000001
12
0.0007337606
22
-0.0198814504
32
0.0000000000
13
0.0007348190
23
-0.0198814110
33
0.0000000000
40
0.0000000000
40
0.0000000000
40
0.0000000000
40
0.0000000000
40
1.0000000000
40
1.0000000000
40
1.0000000000
40
1.0000000000
10
19.1905013008
20
-33.3882801036
30
0.0000000000
10
19.1907458877
20
-33.3949072537
30
0.0000000000
10
19.1909906509
20
-33.4015343972
30
0.0000000000
10
19.1912355906
20
-33.4081615342
30
0.0000000000
11
19.1905013008
21
-33.3882801036
31
0.0000000000
11
19.1912355906
21
-33.4081615342
31
0.0000000000
0
SPLINE
5
2E7
100
AcDbEntity
8
0
100
AcDbSpline
62
7
6
CONTINUOUS
70
0
71
3
72
10
73
6
74
4
42
0.0000001000
43
0.0000001000
44
0.0000000001
12
0.6824851502
22
-1.9737536294
32
0.0000000000
13
0.6886125842
23
-1.9716242235
33
0.0000000000
40
0.0000000000
40
0.0000000000
40
0.0000000000
40
0.0000000000
40
0.3335132250
40
0.6668495497
40
1.0000000000
40
1.0000000000
40
1.0000000000
40
1.0000000000
10
12.0059330899
20
-30.5513723939
30
0.0000000000
10
12.0818056977
20
-30.7707967067
30
0.0000000000
10
12.2337374186
20
-31.2094505804
30
0.0000000000
10
12.4622531235
20
-31.8670147662
30
0.0000000000
10
12.6150097092
20
-32.3051146275
30
0.0000000000
10
12.6914802400
20
-32.5240637934
30
0.0000000000
11
12.0059330899
21
-30.5513723939
31
0.0000000000
11
12.2338912514
21
-31.2095275515
31
0.0000000000
11
12.4624091347
21
-31.8670974755
31
0.0000000000
11
12.6914802400
21
-32.5240637934
31
0.0000000000
0
SPLINE
5
2E8
100
AcDbEntity
8
0
100
AcDbSpline
62
7
6
CONTINUOUS
70
0
71
3
72
10
73
6
74
4
42
0.0000001000
43
0.0000001000
44
0.0000000001
12
-0.8405489594
22
-2.8623899711
32
0.0000000000
13
-0.8325931880
23
-2.8647142062
33
0.0000000000
40
0.0000000000
40
0.0000000000
40
0.0000000000
40
0.0000000000
40
0.3338585820
40
0.6671980066
40
1.0000000000
40
1.0000000000
40
1.0000000000
40
1.0000000000
10
13.8399267810
20
-30.5513723939
30
0.0000000000
10
13.7463852864
20
-30.8699168795
30
0.0000000000
10
13.5597409623
20
-31.5065966525
30
0.0000000000
10
13.2808799303
20
-32.4611139774
30
0.0000000000
10
13.0957088377
20
-33.0971295419
30
0.0000000000
10
13.0033459468
20
-33.4149237413
30
0.0000000000
11
13.8399267810
21
-30.5513723939
31
0.0000000000
11
13.5597431604
21
-31.5071352011
31
0.0000000000
11
13.2808777474
21
-32.4616700443
31
0.0000000000
11
13.0033459468
21
-33.4149237413
31
0.0000000000
0
SPLINE
5
2E9
100
AcDbEntity
8
0
100
AcDbSpline
62
7
6
CONTINUOUS
70
0
71
3
72
10
73
6
74
4
42
0.0000001000
43
0.0000001000
44
0.0000000001
12
-0.6394326693
22
1.1648313857
32
0.0000000000
13
-0.6365850915
23
1.1663900398
33
0.0000000000
40
0.0000000000
40
0.0000000000
40
0.0000000000
40
0.0000000000
40
0.3395911593
40
0.6754891467
40
1.0000000000
40
1.0000000000
40
1.0000000000
40
1.0000000000
10
23.7223457332
20
-33.3884843954
30
0.0000000000
10
23.6499638394
20
-33.2566289152
30
0.0000000000
10
23.5060967578
20
-32.9942917864
30
0.0000000000
10
23.2934342724
20
-32.6057505467
30
0.0000000000
10
23.1531967695
20
-32.3490414512
30
0.0000000000
10
23.0843371790
20
-32.2228727088
30
0.0000000000
11
23.7223457332
21
-33.3884843954
31
0.0000000000
11
23.5053647403
21
-32.9928275938
31
0.0000000000
11
23.2910661240
21
-32.6012969362
31
0.0000000000
11
23.0843371790
21
-32.2228727088
31
0.0000000000
0
SPLINE
5
2EA
100
AcDbEntity
8
0
100
AcDbSpline
62
7
6
CONTINUOUS
70
0
71
3
72
10
73
6
74
4
42
0.0000001000
43
0.0000001000
44
0.0000000001
12
0.0746514627
22
-2.8636953628
32
0.0000000000
13
0.0862261112
23
-2.8633701546
33
0.0000000000
40
0.0000000000
40
0.0000000000
40
0.0000000000
40
0.0000000000
40
0.1263073802
40
0.8398783844
40
1.0000000000
40
1.0000000000
40
1.0000000000
40
1.0000000000
10
14.8263301505
20
-30.5235366404
30
0.0000000000
10
14.8294731608
20
-30.6441052600
30
0.0000000000
10
14.8505760700
20
-31.4458186850
30
0.0000000000
10
14.8773158114
20
-32.4003354407
30
0.0000000000
10
14.9021561643
20
-33.2342455567
30
0.0000000000
10
14.9067583858
20
-33.3870747084
30
0.0000000000
11
14.8263301505
21
-30.5235366404
31
0.0000000000
11
14.8358510471
21
-30.8852401380
31
0.0000000000
11
14.8931008273
21
-32.9285827193
31
0.0000000000
11
14.9067583858
21
-33.3870747084
31
0.0000000000
0
SPLINE
5
2EB
100
AcDbEntity
8
0
100
AcDbSpline
62
7
6
CONTINUOUS
70
0
71
3
72
10
73
6
74
4
42
0.0000001000
43
0.0000001000
44
0.0000000001
12
0.0746443438
22
-2.8637081701
32
0.0000000000
13
0.0862008245
23
-2.8633835458
33
0.0000000000
40
0.0000000000
40
0.0000000000
40
0.0000000000
40
0.0000000000
40
0.1271524482
40
0.8418371545
40
1.0000000000
40
1.0000000000
40
1.0000000000
40
1.0000000000
10
14.7919369902
20
-30.5513724837
30
0.0000000000
10
14.7951007272
20
-30.6727483186
30
0.0000000000
10
14.8162518996
20
-31.4763350732
30
0.0000000000
10
14.8429917594
20
-32.4308560350
30
0.0000000000
10
14.8678044677
20
-33.2639633412
30
0.0000000000
10
14.8723490569
20
-33.4149236376
30
0.0000000000
11
14.7919369902
21
-30.5513724837
31
0.0000000000
11
14.8015211555
21
-30.9154975994
31
0.0000000000
11
14.8588605408
21
-32.9620383325
31
0.0000000000
11
14.8723490569
21
-33.4149236376
31
0.0000000000
0
SPLINE
5
2EC
100
AcDbEntity
8
0
100
AcDbSpline
62
7
6
CONTINUOUS
70
0
71
3
72
10
73
6
74
4
42
0.0000001000
43
0.0000001000
44
0.0000000001
12
-0.4875713658
22
-1.8868147275
32
0.0000000000
13
-0.4839189508
23
-1.8877547779
33
0.0000000000
40
0.0000000000
40
0.0000000000
40
0.0000000000
40
0.0000000000
40
0.3336745289
40
0.6670107588
40
1.0000000000
40
1.0000000000
40
1.0000000000
40
1.0000000000
10
17.6117393661
20
-31.5276311987
30
0.0000000000
10
17.5575093175
20
-31.7374918705
30
0.0000000000
10
17.4492390336
20
-32.1570353006
30
0.0000000000
10
17.2873227575
20
-32.7861302593
30
0.0000000000
10
17.1797045247
20
-33.2053818444
30
0.0000000000
10
17.1259912566
20
-33.4149158548
30
0.0000000000
11
17.6117393661
21
-31.5276311987
31
0.0000000000
11
17.4492517853
21
-32.1572655241
31
0.0000000000
11
17.2873343214
21
-32.7863659638
31
0.0000000000
11
17.1259912566
21
-33.4149158548
31
0.0000000000
0
SPLINE
5
2ED
100
AcDbEntity
8
0
100
AcDbSpline
62
7
6
CONTINUOUS
70
0
71
3
72
10
73
6
74
4
42
0.0000001000
43
0.0000001000
44
0.0000000001
12
0.0746514674
22
-2.8636955563
32
0.0000000000
13
0.0862261174
23
-2.8633703480
33
0.0000000000
40
0.0000000000
40
0.0000000000
40
0.0000000000
40
0.0000000000
40
0.1263074030
40
0.8398783590
40
1.0000000000
40
1.0000000000
40
1.0000000000
40
1.0000000000
10
18.1912335899
20
-30.5235365506
30
0.0000000000
10
18.1943766009
20
-30.6441052002
30
0.0000000000
10
18.2154795109
20
-31.4458186550
30
0.0000000000
10
18.2422192541
20
-32.4003354752
30
0.0000000000
10
18.2670596081
20
-33.2342456258
30
0.0000000000
10
18.2716618306
20
-33.3870748121
30
0.0000000000
11
18.1912335899
21
-30.5235365506
31
0.0000000000
11
18.2007544889
21
-30.8852401380
31
0.0000000000
11
18.2580042690
21
-32.9285827193
31
0.0000000000
11
18.2716618306
21
-33.3870748121
31
0.0000000000
0
SPLINE
5
2EE
100
AcDbEntity
8
0
100
AcDbSpline
62
7
6
CONTINUOUS
70
0
71
3
72
14
73
10
74
8
42
0.0000001000
43
0.0000001000
44
0.0000000001
12
-3.5886216593
22
0.0000000000
32
0.0000000000
13
-0.0875530220
23
3.5875534675
33
0.0000000000
40
0.0000000000
40
0.0000000000
40
0.0000000000
40
0.0000000000
40
0.1417346853
40
0.2842404590
40
0.4273650989
40
0.5708363893
40
0.7143155313
40
0.8574622231
40
1.0000000000
40
1.0000000000
40
1.0000000000
40
1.0000000000
10
-23.4708253589
20
-25.9413874301
30
0.0000000000
10
-23.6403694127
20
-25.9413874301
30
0.0000000000
10
-23.9815764264
20
-25.9026748739
30
0.0000000000
10
-24.4679316575
20
-25.7326193684
30
0.0000000000
10
-24.9072223288
20
-25.4590725069
30
0.0000000000
10
-25.2772610202
20
-25.0957904988
30
0.0000000000
10
-25.5597371782
20
-24.6608073168
30
0.0000000000
10
-25.7405199905
20
-24.1761010065
30
0.0000000000
10
-25.7873077771
20
-23.8342248373
30
0.0000000000
10
-25.7914676481
20
-23.6637708720
30
0.0000000000
11
-23.4708253589
21
-25.9413874301
31
0.0000000000
11
-23.9762417615
21
-25.8842828277
31
0.0000000000
11
-24.4591017120
21
-25.7158324839
31
0.0000000000
11
-24.8951925964
21
-25.4444832021
31
0.0000000000
11
-25.2626469965
21
-25.0838415685
31
0.0000000000
11
-25.5430392146
21
-24.6519916605
31
0.0000000000
11
-25.7223092139
21
-24.1705882357
31
0.0000000000
11
-25.7914676481
21
-23.6637708720
31
0.0000000000
0
SPLINE
5
2EF
100
AcDbEntity
8
0
100
AcDbSpline
62
7
6
CONTINUOUS
70
0
71
3
72
12
73
8
74
6
42
0.0000001000
43
0.0000001000
44
0.0000000001
12
-0.0495823548
22
2.0316757187
32
0.0000000000
13
1.5833649158
23
1.2811780645
33
0.0000000000
40
0.0000000000
40
0.0000000000
40
0.0000000000
40
0.0000000000
40
0.2503395997
40
0.4993105024
40
0.7471720277
40
0.9944078630
40
1.0000000000
40
1.0000000000
40
1.0000000000
40
1.0000000000
10
-26.8644893462
20
20.3041313801
30
0.0000000000
10
-26.8686268218
20
20.4736676755
30
0.0000000000
10
-26.8390742254
20
20.8139891157
30
0.0000000000
10
-26.6821925580
20
21.2995961331
30
0.0000000000
10
-26.4206154637
20
21.7356841247
30
0.0000000000
10
-26.1824025371
20
21.9813217932
30
0.0000000000
10
-26.0492455212
20
22.0896431789
30
0.0000000000
10
-26.0462940567
20
22.0920313533
30
0.0000000000
11
-26.8644893462
21
20.3041313801
31
0.0000000000
11
-26.8200683227
21
20.8109487438
31
0.0000000000
11
-26.6642952970
21
21.2923521686
31
0.0000000000
11
-26.4049813792
21
21.7242020766
31
0.0000000000
11
-26.0551296518
21
22.0848437102
31
0.0000000000
11
-26.0462940567
21
22.0920313533
31
0.0000000000
0
SPLINE
5
2F0
100
AcDbEntity
8
0
100
AcDbSpline
62
7
6
CONTINUOUS
70
0
71
3
72
10
73
6
74
4
42
0.0000001000
43
0.0000001000
44
0.0000000001
12
0.0746443485
22
-2.8637083636
32
0.0000000000
13
0.0862008307
23
-2.8633837392
33
0.0000000000
40
0.0000000000
40
0.0000000000
40
0.0000000000
40
0.0000000000
40
0.1271524710
40
0.8418371290
40
1.0000000000
40
1.0000000000
40
1.0000000000
40
1.0000000000
10
18.1568404296
20
-30.5513723939
30
0.0000000000
10
18.1600041674
20
-30.6727482588
30
0.0000000000
10
18.1811553405
20
-31.4763350433
30
0.0000000000
10
18.2078952021
20
-32.4308560695
30
0.0000000000
10
18.2327079115
20
-33.2639634103
30
0.0000000000
10
18.2372525018
20
-33.4149237413
30
0.0000000000
11
18.1568404296
21
-30.5513723939
31
0.0000000000
11
18.1664245972
21
-30.9154975994
31
0.0000000000
11
18.2237639825
21
-32.9620383325
31
0.0000000000
11
18.2372525018
21
-33.4149237413
31
0.0000000000
0
SPLINE
5
2F1
100
AcDbEntity
8
0
100
AcDbSpline
62
9
6
CONTINUOUS
70
0
71
3
72
14
73
10
74
8
42
0.0000001000
43
0.0000001000
44
0.0000000001
12
-1.4753475063
22
-0.1410439088
32
0.0000000000
13
-0.0632237340
23
1.6486704307
33
0.0000000000
40
0.0000000000
40
0.0000000000
40
0.0000000000
40
0.0000000000
40
0.2030006028
40
0.4165802606
40
0.6197522400
40
0.7926434585
40
0.9187526516
40
0.9878982801
40
1.0000000000
40
1.0000000000
40
1.0000000000
40
1.0000000000
10
23.9118780606
20
-23.7741968675
30
0.0000000000
10
23.8120459162
20
-23.7837408670
30
0.0000000000
10
23.6067888173
20
-23.7974237949
30
0.0000000000
10
23.2998249932
20
-23.8056487452
30
0.0000000000
10
23.0111715115
20
-23.7980298532
30
0.0000000000
10
22.7557305922
20
-23.7875097111
30
0.0000000000
10
22.5935741825
20
-23.7456977145
30
0.0000000000
10
22.4664230013
20
-23.7404306956
30
0.0000000000
10
22.4556208985
20
-23.6945830772
30
0.0000000000
10
22.4553658599
20
-23.6879324945
30
0.0000000000
11
23.9118780606
21
-23.7741968675
31
0.0000000000
11
23.6117459367
21
-23.7951399559
31
0.0000000000
11
23.2953006793
21
-23.8029199183
31
0.0000000000
11
22.9942478170
21
-23.7967573829
31
0.0000000000
11
22.7387523345
21
-23.7772698252
31
0.0000000000
11
22.5544144448
21
-23.7464098654
31
0.0000000000
11
22.4597044910
21
-23.7072696189
31
0.0000000000
11
22.4553658599
21
-23.6879324945
31
0.0000000000
0
SPLINE
5
2F2
100
AcDbEntity
8
0
100
AcDbSpline
62
9
6
CONTINUOUS
70
0
71
3
72
14
73
10
74
8
42
0.0000001000
43
0.0000001000
44
0.0000000001
12
-0.2926108864
22
1.6945662436
32
0.0000000000
13
1.3367031414
23
1.0818505427
33
0.0000000000
40
0.0000000000
40
0.0000000000
40
0.0000000000
40
0.0000000000
40
0.1497380044
40
0.3245140028
40
0.5076476712
40
0.6815367339
40
0.8295975866
40
0.9382667012
40
1.0000000000
40
1.0000000000
40
1.0000000000
40
1.0000000000
10
20.1556740227
20
-27.6367745183
30
0.0000000000
10
20.1410690326
20
-27.5521941957
30
0.0000000000
10
20.1195396409
20
-27.3671572421
30
0.0000000000
10
20.1042208906
20
-27.0765041490
30
0.0000000000
10
20.1046034407
20
-26.7713237299
30
0.0000000000
10
20.1207722521
20
-26.4827325055
30
0.0000000000
10
20.1500370980
20
-26.2355811027
30
0.0000000000
10
20.1901195766
20
-26.0612126677
30
0.0000000000
10
20.2271325101
20
-25.9636494977
30
0.0000000000
10
20.2546388749
20
-25.9413874301
30
0.0000000000
11
20.1556740227
21
-27.6367745183
31
0.0000000000
11
20.1236996531
21
-27.3812713482
31
0.0000000000
11
20.1071099239
21
-27.0811770354
31
0.0000000000
11
20.1075496684
21
-26.7662526072
31
0.0000000000
11
20.1249752711
21
-26.4677334677
31
0.0000000000
11
20.1576583944
21
-26.2152278821
31
0.0000000000
11
20.2023574016
21
-26.0337803160
31
0.0000000000
11
20.2546388749
21
-25.9413874301
31
0.0000000000
0
SPLINE
5
2F3
100
AcDbEntity
8
0
100
AcDbSpline
62
9
6
CONTINUOUS
70
0
71
3
72
14
73
10
74
8
42
0.0000001000
43
0.0000001000
44
0.0000000001
12
-0.2926108861
22
1.6945662421
32
0.0000000000
13
1.3367031402
23
1.0818505417
33
0.0000000000
40
0.0000000000
40
0.0000000000
40
0.0000000000
40
0.0000000000
40
0.1497371628
40
0.3245132293
40
0.5076470542
40
0.6815363171
40
0.8295973657
40
0.9382666292
40
1.0000000000
40
1.0000000000
40
1.0000000000
40
1.0000000000
10
-23.5697902111
20
-27.6367745183
30
0.0000000000
10
-23.5843951191
20
-27.5521946712
30
0.0000000000
10
-23.6059245094
20
-27.3671581670
30
0.0000000000
10
-23.6212433149
20
-27.0765054299
30
0.0000000000
10
-23.6208608266
20
-26.7713247672
30
0.0000000000
10
-23.6046920475
20
-26.4827332251
30
0.0000000000
10
-23.5754272090
20
-26.2355815019
30
0.0000000000
10
-23.5353447083
20
-26.0612128380
30
0.0000000000
10
-23.4983317558
20
-25.9636495237
30
0.0000000000
10
-23.4708253589
20
-25.9413874301
30
0.0000000000
11
-23.5697902111
21
-27.6367745183
31
0.0000000000
11
-23.6017644545
21
-27.3812727912
31
0.0000000000
11
-23.6183542749
21
-27.0811783665
31
0.0000000000
11
-23.6179145962
21
-26.7662536693
31
0.0000000000
11
-23.6004890277
21
-26.4677341832
31
0.0000000000
11
-23.5678059063
21
-26.2152282578
31
0.0000000000
11
-23.5231068742
21
-26.0337804345
31
0.0000000000
11
-23.4708253589
21
-25.9413874301
31
0.0000000000
0
SPLINE
5
2F4
100
AcDbEntity
8
0
100
AcDbSpline
62
9
6
CONTINUOUS
70
0
71
3
72
14
73
10
74
8
42
0.0000001000
43
0.0000001000
44
0.0000000001
12
1.7234463053
22
-0.2157258442
32
0.0000000000
13
1.3501126188
23
1.0927034015
33
0.0000000000
40
0.0000000000
40
0.0000000000
40
0.0000000000
40
0.0000000000
40
0.1435092092
40
0.3146891742
40
0.4968195348
40
0.6720037541
40
0.8230883032
40
0.9355829302
40
1.0000000000
40
1.0000000000
40
1.0000000000
40
1.0000000000
10
-27.5121117716
20
-23.7741968675
30
0.0000000000
10
-27.4296682995
20
-23.7845164160
30
0.0000000000
10
-27.2478042341
20
-23.7983292939
30
0.0000000000
10
-26.9602064402
20
-23.8051454611
30
0.0000000000
10
-26.6540654602
20
-23.7991718777
30
0.0000000000
10
-26.3606044490
20
-23.7806327373
30
0.0000000000
10
-26.1068077236
20
-23.7530454783
30
0.0000000000
10
-25.9227507396
20
-23.7164805171
30
0.0000000000
10
-25.8204577478
20
-23.6872337891
30
0.0000000000
10
-25.7914676481
20
-23.6637708720
30
0.0000000000
11
-27.5121117716
21
-23.7741968675
31
0.0000000000
11
-27.2637327085
21
-23.7951399709
31
0.0000000000
11
-26.9665128607
21
-23.8029199190
31
0.0000000000
11
-26.6502315493
21
-23.7967573740
31
0.0000000000
11
-26.3465796133
21
-23.7772698121
31
0.0000000000
11
-26.0859824501
21
-23.7464098532
31
0.0000000000
11
-25.8945514434
21
-23.7072696118
31
0.0000000000
11
-25.7914676481
21
-23.6637708720
31
0.0000000000
0
SPLINE
5
2F5
100
AcDbEntity
8
0
100
AcDbSpline
62
9
6
CONTINUOUS
70
0
71
3
72
14
73
10
74
8
42
0.0000001000
43
0.0000001000
44
0.0000000001
12
1.7181953453
22
-0.2107297870
32
0.0000000000
13
1.3455844018
23
1.0890385234
33
0.0000000000
40
0.0000000000
40
0.0000000000
40
0.0000000000
40
0.0000000000
40
0.1443164780
40
0.3158306821
40
0.4979127546
40
0.6728061327
40
0.8235174544
40
0.9357070299
40
1.0000000000
40
1.0000000000
40
1.0000000000
40
1.0000000000
10
-28.5793441879
20
20.1929880763
30
0.0000000000
10
-28.4966895543
20
20.1828508161
30
0.0000000000
10
-28.3147643733
20
20.1692985412
30
0.0000000000
10
-28.0274935515
20
20.1627679393
30
0.0000000000
10
-27.7223884338
20
20.1689390661
30
0.0000000000
10
-27.4303305314
20
20.1875665098
30
0.0000000000
10
-27.1779674052
20
20.2151564417
30
0.0000000000
10
-26.9949815142
20
20.2516103223
30
0.0000000000
10
-26.8933265521
20
20.2807922064
30
0.0000000000
10
-26.8644893462
20
20.3041313801
30
0.0000000000
11
-28.5793441879
21
20.1929880763
31
0.0000000000
11
-28.3303695870
21
20.1724303384
31
0.0000000000
11
-28.0335603106
21
20.1649691672
31
0.0000000000
11
-27.7184280685
21
20.1713461596
31
0.0000000000
11
-27.4163093235
21
20.1909271932
31
0.0000000000
11
-27.1572464880
21
20.2217651479
31
0.0000000000
11
-26.9670005342
21
20.2607935257
31
0.0000000000
11
-26.8644893462
21
20.3041313801
31
0.0000000000
0
SPLINE
5
2F6
100
AcDbEntity
8
0
100
AcDbSpline
62
9
6
CONTINUOUS
70
0
71
3
72
14
73
10
74
8
42
0.0000001000
43
0.0000001000
44
0.0000000001
12
-0.1457591236
22
-1.5124819919
32
0.0000000000
13
1.6055133922
23
-0.1745109784
33
0.0000000000
40
0.0000000000
40
0.0000000000
40
0.0000000000
40
0.0000000000
40
0.1954968748
40
0.4029684492
40
0.6024158761
40
0.7747240914
40
0.9039207996
40
0.9802614977
40
1.0000000000
40
1.0000000000
40
1.0000000000
40
1.0000000000
10
-24.8310161959
20
24.0572726016
30
0.0000000000
10
-24.8405146803
20
23.9587107674
30
0.0000000000
10
-24.8525798002
20
23.7548917074
30
0.0000000000
10
-24.8546573334
20
23.4492880247
30
0.0000000000
10
-24.8388713795
20
23.1573229172
30
0.0000000000
10
-24.8153800509
20
22.9013035328
30
0.0000000000
10
-24.7656671150
20
22.7221865390
30
0.0000000000
10
-24.7437364132
20
22.5997475916
30
0.0000000000
10
-24.6893181905
20
22.5771056327
30
0.0000000000
10
-24.6787547139
20
22.5759574376
30
0.0000000000
11
-24.8310161959
21
24.0572726016
31
0.0000000000
11
-24.8497086764
21
23.7608059113
31
0.0000000000
11
-24.8514372909
21
23.4455598293
31
0.0000000000
11
-24.8360302010
21
23.1428935052
31
0.0000000000
11
-24.8050200914
21
22.8829159392
31
0.0000000000
11
-24.7614918229
21
22.6914894885
31
0.0000000000
11
-24.7097755520
21
22.5876571009
31
0.0000000000
11
-24.6787547139
21
22.5759574376
31
0.0000000000
0
SPLINE
5
2F7
100
AcDbEntity
8
0
100
AcDbSpline
62
9
6
CONTINUOUS
70
0
71
3
72
14
73
10
74
8
42
0.0000001000
43
0.0000001000
44
0.0000000001
12
-1.4680719074
22
-0.1381755109
32
0.0000000000
13
-0.0580671540
23
1.6399439344
33
0.0000000000
40
0.0000000000
40
0.0000000000
40
0.0000000000
40
0.0000000000
40
0.2037766358
40
0.4176268350
40
0.6206985346
40
0.7932824679
40
0.9190418236
40
0.9879414179
40
1.0000000000
40
1.0000000000
40
1.0000000000
40
1.0000000000
10
22.8312945103
20
20.1929880763
30
0.0000000000
10
22.7315749255
20
20.1836024294
30
0.0000000000
10
22.5268336666
20
20.1701797583
30
0.0000000000
10
22.2209476239
20
20.1622581418
30
0.0000000000
10
21.9338468590
20
20.1700438180
30
0.0000000000
10
21.6800502711
20
20.1807756232
30
0.0000000000
10
21.5192425548
20
20.2222917691
30
0.0000000000
10
21.3930133276
20
20.2279664395
30
0.0000000000
10
21.3825170009
20
20.2733577360
30
0.0000000000
10
21.3822835984
20
20.2799495356
30
0.0000000000
11
22.8312945103
21
20.1929880763
31
0.0000000000
11
22.5315176751
21
20.1724302862
31
0.0000000000
11
22.2162709770
21
20.1649691655
31
0.0000000000
11
21.9168974555
21
20.1713461918
31
0.0000000000
11
21.6631665045
21
20.1909272401
31
0.0000000000
11
21.4803088680
21
20.2217651913
31
0.0000000000
11
21.3865077206
21
20.2607935512
31
0.0000000000
11
21.3822835984
21
20.2799495356
31
0.0000000000
0
SPLINE
5
2F8
100
AcDbEntity
8
0
100
AcDbSpline
62
9
6
CONTINUOUS
70
0
71
3
72
14
73
10
74
8
42
0.0000001000
43
0.0000001000
44
0.0000000001
12
-0.1457591235
22
-1.5124819909
32
0.0000000000
13
1.6055133734
23
-0.1745110175
33
0.0000000000
40
0.0000000000
40
0.0000000000
40
0.0000000000
40
0.0000000000
40
0.1954968058
40
0.4029683913
40
0.6024158341
40
0.7747240662
40
0.9039207886
40
0.9802614955
40
1.0000000000
40
1.0000000000
40
1.0000000000
40
1.0000000000
10
18.8944480378
20
24.0572726016
30
0.0000000000
10
18.8849495568
20
23.9587108023
30
0.0000000000
10
18.8728844362
20
23.7548917719
30
0.0000000000
10
18.8708068982
20
23.4492881108
30
0.0000000000
10
18.8865928492
20
23.1573229811
30
0.0000000000
10
18.9100841756
20
22.9013035730
30
0.0000000000
10
18.9597971148
20
22.7221865586
30
0.0000000000
10
18.9817278134
20
22.5997475984
30
0.0000000000
10
19.0361460423
20
22.5771056334
30
0.0000000000
10
19.0467095200
20
22.5759574379
30
0.0000000000
11
18.8944480378
21
24.0572726016
31
0.0000000000
11
18.8757555608
21
23.7608060164
31
0.0000000000
11
18.8740269409
21
23.4455599177
31
0.0000000000
11
18.8894340275
21
23.1428935696
31
0.0000000000
11
18.9204441359
21
22.8829159780
31
0.0000000000
11
18.9639724054
21
22.6914895054
31
0.0000000000
11
19.0156886786
21
22.5876571041
31
0.0000000000
11
19.0467095200
21
22.5759574379
31
0.0000000000
0
SPLINE
5
2F9
100
AcDbEntity
8
0
100
AcDbSpline
62
9
6
CONTINUOUS
70
0
71
3
72
16
73
12
74
10
42
0.0000001000
43
0.0000001000
44
0.0000000001
12
-0.2554588011
22
8.8662485564
32
0.0000000000
13
-8.8698465077
23
0.0380209626
33
0.0000000000
40
0.0000000000
40
0.0000000000
40
0.0000000000
40
0.0000000000
40
0.1165981170
40
0.2353242628
40
0.3533166699
40
0.4727492475
40
0.5907324584
40
0.7064234993
40
0.8156959825
40
0.9132197265
40
1.0000000000
40
1.0000000000
40
1.0000000000
40
1.0000000000
10
24.6744066297
20
20.2714104854
30
0.0000000000
10
24.6644779579
20
20.6160064475
30
0.0000000000
10
24.5839616194
20
21.3112791120
30
0.0000000000
10
24.2811642713
20
22.3167142661
30
0.0000000000
10
23.7992104019
20
23.2594894080
30
0.0000000000
10
23.1539208011
20
24.0966082841
30
0.0000000000
10
22.3697194991
20
24.7948694297
30
0.0000000000
10
21.4977005162
20
25.3229935034
30
0.0000000000
10
20.6046433885
20
25.6698383689
30
0.0000000000
10
19.7529849104
20
25.8529337557
30
0.0000000000
10
19.2075675915
20
25.8914680925
30
0.0000000000
10
18.9509916896
20
25.8925679157
30
0.0000000000
11
24.6744066297
21
20.2714104854
31
0.0000000000
11
24.5549451060
21
21.2987047690
31
0.0000000000
11
24.2509873253
21
22.3069771513
31
0.0000000000
11
23.7740448547
21
23.2385694829
31
0.0000000000
11
23.1269426180
21
24.0773178589
31
0.0000000000
11
22.3454554456
21
24.7733390236
31
0.0000000000
11
21.4679008231
21
25.3052461774
31
0.0000000000
11
20.5645035962
21
25.6563840450
31
0.0000000000
11
19.7188068007
21
25.8382394483
31
0.0000000000
11
18.9509916896
21
25.8925679157
31
0.0000000000
0
SPLINE
5
2FA
100
AcDbEntity
8
0
100
AcDbSpline
62
9
6
CONTINUOUS
70
0
71
3
72
10
73
6
74
4
42
0.0000001000
43
0.0000001000
44
0.0000000001
12
-1.8453254803
22
0.0013501142
32
0.0000000000
13
-1.8378078372
23
-0.1664040400
33
0.0000000000
40
0.0000000000
40
0.0000000000
40
0.0000000000
40
0.0000000000
40
0.3416406779
40
0.6798716406
40
1.0000000000
40
1.0000000000
40
1.0000000000
40
1.0000000000
10
24.6744066297
20
20.2714104854
30
0.0000000000
10
24.4642605470
20
20.2715642367
30
0.0000000000
10
24.0460370354
20
20.2657419079
30
0.0000000000
10
23.4314005709
20
20.2398668520
30
0.0000000000
10
23.0273990073
20
20.2107466615
30
0.0000000000
10
22.8312875380
20
20.1929897774
30
0.0000000000
11
24.6744066297
21
20.2714104854
31
0.0000000000
11
24.0440278282
21
20.2627407734
31
0.0000000000
11
23.4204456318
21
20.2362087360
31
0.0000000000
11
22.8312875380
21
20.1929897774
31
0.0000000000
0
SPLINE
5
2FB
100
AcDbEntity
8
0
100
AcDbSpline
62
9
6
CONTINUOUS
70
0
71
3
72
16
73
12
74
10
42
0.0000001000
43
0.0000001000
44
0.0000000001
12
-0.1424764562
22
6.0911680660
32
0.0000000000
13
-6.0928318910
23
-0.0052437388
33
0.0000000000
40
0.0000000000
40
0.0000000000
40
0.0000000000
40
0.0000000000
40
0.1162613365
40
0.2348785965
40
0.3530253282
40
0.4727108234
40
0.5909418763
40
0.7068475966
40
0.8161398453
40
0.9134805980
40
1.0000000000
40
1.0000000000
40
1.0000000000
40
1.0000000000
10
22.8312945103
20
20.1929880763
30
0.0000000000
10
22.8257730092
20
20.4290438563
30
0.0000000000
10
22.7707257792
20
20.9060211948
30
0.0000000000
10
22.5590745982
20
21.5950869408
30
0.0000000000
10
22.2231147259
20
22.2408178747
30
0.0000000000
10
21.7767917153
20
22.8148775803
30
0.0000000000
10
21.2379475326
20
23.2961608981
30
0.0000000000
10
20.6402393703
20
23.6627634855
30
0.0000000000
10
20.0280211819
20
23.9046350802
30
0.0000000000
10
19.4440744746
20
24.0318048140
30
0.0000000000
10
19.0701640950
20
24.0574238300
30
0.0000000000
10
18.8944480378
20
24.0572726016
30
0.0000000000
11
22.8312945103
21
20.1929880763
31
0.0000000000
11
22.7502632235
21
20.8966991639
31
0.0000000000
11
22.5384102765
21
21.5876664013
31
0.0000000000
11
22.2063134922
21
22.2263318097
31
0.0000000000
11
21.7587465950
21
22.8020499073
31
0.0000000000
11
21.2214215526
21
23.2818451687
31
0.0000000000
11
20.6193210117
21
23.6508781909
31
0.0000000000
11
19.9999115854
21
23.8953248439
31
0.0000000000
11
19.4203692346
21
24.0213240904
31
0.0000000000
11
18.8944480378
21
24.0572726016
31
0.0000000000
0
SPLINE
5
2FC
100
AcDbEntity
8
0
100
AcDbSpline
62
9
6
CONTINUOUS
70
0
71
3
72
25
73
21
74
19
42
0.0000001000
43
0.0000001000
44
0.0000000001
12
-21.8635479230
22
0.0924168906
32
0.0000000000
13
-21.8637421955
23
0.0067727398
33
0.0000000000
40
0.0000000000
40
0.0000000000
40
0.0000000000
40
0.0000000000
40
0.0444629573
40
0.0932593819
40
0.1465478719
40
0.2044841936
40
0.2672350811
40
0.3351190125
40
0.4085520889
40
0.4861733487
40
0.5628815244
40
0.6342895399
40
0.6993451767
40
0.7576922633
40
0.8095604461
40
0.8557711650
40
0.8971309330
40
0.9344345130
40
0.9684671480
40
1.0000000000
40
1.0000000000
40
1.0000000000
40
1.0000000000
10
18.9509926452
20
25.8925686240
30
0.0000000000
10
18.6269533127
20
25.8939383334
30
0.0000000000
10
17.9472923788
20
25.8966719721
30
0.0000000000
10
16.8792699537
20
25.9002554808
30
0.0000000000
10
15.7130529575
20
25.9033696514
30
0.0000000000
10
14.4451356781
20
25.9060263828
30
0.0000000000
10
13.0708471308
20
25.9082654096
30
0.0000000000
10
11.5836189897
20
25.9101802491
30
0.0000000000
10
9.9880165275
20
25.9118783058
30
0.0000000000
10
8.3281035029
20
25.9133736428
30
0.0000000000
10
6.6829488227
20
25.9147115871
30
0.0000000000
10
5.1293712243
20
25.9158817228
30
0.0000000000
10
3.7096075848
20
25.9168831183
30
0.0000000000
10
2.4322485087
20
25.9177407985
30
0.0000000000
10
1.2922295199
20
25.9184587126
30
0.0000000000
10
0.2760126010
20
25.9190508426
30
0.0000000000
10
-0.6340587828
20
25.9195348267
30
0.0000000000
10
-1.4553773686
20
25.9199275736
30
0.0000000000
10
-2.2050782595
20
25.9202412156
30
0.0000000000
10
-2.6829138894
20
25.9204066893
30
0.0000000000
10
-2.9127226050
20
25.9204778772
30
0.0000000000
11
18.9509926452
21
25.8925686240
31
0.0000000000
11
17.9788736795
21
25.8964419370
31
0.0000000000
11
16.9120072124
21
25.9000292045
31
0.0000000000
11
15.7469255885
21
25.9031722187
31
0.0000000000
11
14.4802235732
21
25.9058583802
31
0.0000000000
11
13.1082561602
21
25.9081293975
31
0.0000000000
11
11.6240605902
21
25.9100751090
31
0.0000000000
11
10.0185395918
21
25.9118033224
31
0.0000000000
11
8.3214490054
21
25.9133547165
31
0.0000000000
11
6.6443217085
21
25.9147256078
31
0.0000000000
11
5.0830756360
21
25.9159035582
31
0.0000000000
11
3.6607162507
21
25.9169091350
31
0.0000000000
11
2.3850308169
21
25.9177631135
31
0.0000000000
11
1.2509984098
21
25.9184752702
31
0.0000000000
11
0.2406592874
21
25.9190624015
31
0.0000000000
11
-0.6636199348
21
25.9195420499
31
0.0000000000
11
-1.4792157360
21
25.9199304665
31
0.0000000000
11
-2.2232964665
21
25.9202395604
31
0.0000000000
11
-2.9127226050
21
25.9204778772
31
0.0000000000
0
SPLINE
5
2FD
100
AcDbEntity
8
0
100
AcDbSpline
62
9
6
CONTINUOUS
70
0
71
3
72
10
73
6
74
4
42
0.0000001000
43
0.0000001000
44
0.0000000001
12
0.0446337916
22
-1.8365156721
32
0.0000000000
13
-0.1707192978
23
-1.8291082283
33
0.0000000000
40
0.0000000000
40
0.0000000000
40
0.0000000000
40
0.0000000000
40
0.3441357592
40
0.6823154970
40
1.0000000000
40
1.0000000000
40
1.0000000000
40
1.0000000000
10
18.9509926452
20
25.8925686240
30
0.0000000000
10
18.9561126731
20
25.6818983856
30
0.0000000000
10
18.9585827198
20
25.2639767645
30
0.0000000000
10
18.9401571889
20
24.6517826039
30
0.0000000000
10
18.9125263312
20
24.2509657092
30
0.0000000000
10
18.8944480395
20
24.0572725964
30
0.0000000000
11
18.9509926452
21
25.8925686240
31
0.0000000000
11
18.9547778245
21
25.2603826160
31
0.0000000000
11
18.9356463020
21
24.6394214798
31
0.0000000000
11
18.8944480395
21
24.0572725964
31
0.0000000000
0
SPLINE
5
2FE
100
AcDbEntity
8
0
100
AcDbSpline
62
9
6
CONTINUOUS
70
0
71
3
72
25
73
21
74
19
42
0.0000001000
43
0.0000001000
44
0.0000000001
12
-21.8523471244
22
-0.0067727319
32
0.0000000000
13
-21.8521526413
23
-0.0924427104
33
0.0000000000
40
0.0000000000
40
0.0000000000
40
0.0000000000
40
0.0000000000
40
0.0320753684
40
0.0671938243
40
0.1054952039
40
0.1471228235
40
0.1922324427
40
0.2409904348
40
0.2935830031
40
0.3504013725
40
0.4121524672
40
0.4795196727
40
0.5520337894
40
0.6280177584
40
0.7046858346
40
0.7771587909
40
0.8422456719
40
0.9004163159
40
0.9526574238
40
1.0000000000
40
1.0000000000
40
1.0000000000
40
1.0000000000
10
-2.9127224455
20
25.9204761983
30
0.0000000000
10
-3.1463631404
20
25.9204037857
30
0.0000000000
10
-3.6358107254
20
25.9202321621
30
0.0000000000
10
-4.4042499666
20
25.9199091181
30
0.0000000000
10
-5.2422688846
20
25.9195050863
30
0.0000000000
10
-6.1530645628
20
25.9190172440
30
0.0000000000
10
-7.1400273813
20
25.9184394226
30
0.0000000000
10
-8.2068601164
20
25.9177673004
30
0.0000000000
10
-9.3589807003
20
25.9169967163
30
0.0000000000
10
-10.6057445042
20
25.9161249367
30
0.0000000000
10
-11.9601284165
20
25.9151251903
30
0.0000000000
10
-13.4288418845
20
25.9139651551
30
0.0000000000
10
-15.0012291499
20
25.9126256427
30
0.0000000000
10
-16.6413648355
20
25.9110298249
30
0.0000000000
10
-18.2812003651
20
25.9091096604
30
0.0000000000
10
-19.8416596741
20
25.9067944261
30
0.0000000000
10
-21.2673805328
20
25.9039931677
30
0.0000000000
10
-22.5457288334
20
25.9007146301
30
0.0000000000
10
-23.6948235628
20
25.8969355106
30
0.0000000000
10
-24.4201968939
20
25.8940274700
30
0.0000000000
10
-24.7650426280
20
25.8925686447
30
0.0000000000
11
-2.9127224455
21
25.9204761983
31
0.0000000000
11
-3.6136445215
21
25.9202321563
31
0.0000000000
11
-4.3810651797
21
25.9199113107
31
0.0000000000
11
-5.2180401653
21
25.9195096159
31
0.0000000000
11
-6.1277012728
21
25.9190235774
31
0.0000000000
11
-7.1134522108
21
25.9184479445
31
0.0000000000
11
-8.1789286188
21
25.9177782643
31
0.0000000000
11
-9.3281994782
21
25.9170117070
31
0.0000000000
11
-10.5698139643
21
25.9161423413
31
0.0000000000
11
-11.9192200151
21
25.9151442708
31
0.0000000000
11
-13.3913511867
21
25.9139800984
31
0.0000000000
11
-14.9759543243
21
25.9126159437
31
0.0000000000
11
-16.6363816643
21
25.9109801330
31
0.0000000000
11
-18.3117579707
21
25.9089840970
31
0.0000000000
11
-19.8954604212
21
25.9065807940
31
0.0000000000
11
-21.3177587775
21
25.9037440077
31
0.0000000000
11
-22.5889196553
21
25.9004422109
31
0.0000000000
11
-23.7305043158
21
25.8966743869
31
0.0000000000
11
-24.7650426280
21
25.8925686447
31
0.0000000000
0
SPLINE
5
2FF
100
AcDbEntity
8
0
100
AcDbSpline
62
9
6
CONTINUOUS
70
0
71
3
72
10
73
6
74
4
42
0.0000001000
43
0.0000001000
44
0.0000000001
12
0.0454210041
22
-1.8669567582
32
0.0000000000
13
-0.1781543746
23
-1.8589920988
33
0.0000000000
40
0.0000000000
40
0.0000000000
40
0.0000000000
40
0.0000000000
40
0.3436777728
40
0.6820097320
40
1.0000000000
40
1.0000000000
40
1.0000000000
40
1.0000000000
10
-2.9127224455
20
25.9204761983
30
0.0000000000
10
-2.9075190490
20
25.7065990181
30
0.0000000000
10
-2.9052172872
20
25.2819335318
30
0.0000000000
10
-2.9247347354
20
24.6596110203
30
0.0000000000
10
-2.9536599838
20
24.2519168469
30
0.0000000000
10
-2.9725437696
20
24.0548697150
30
0.0000000000
11
-2.9127224455
21
25.9204761983
31
0.0000000000
11
-2.9091638872
21
25.2786646616
31
0.0000000000
11
-2.9294142395
21
24.6471512103
31
0.0000000000
11
-2.9725437696
21
24.0548697150
31
0.0000000000
0
SPLINE
5
300
100
AcDbEntity
8
0
100
AcDbSpline
62
9
6
CONTINUOUS
70
0
71
3
72
16
73
12
74
10
42
0.0000001000
43
0.0000001000
44
0.0000000001
12
-8.7334876427
22
-0.0369955168
32
0.0000000000
13
0.1684842841
23
-8.7319406846
33
0.0000000000
40
0.0000000000
40
0.0000000000
40
0.0000000000
40
0.0000000000
40
0.0869699954
40
0.1843985136
40
0.2926072351
40
0.4074536758
40
0.5246404606
40
0.6437453521
40
0.7621953903
40
0.8818184731
40
1.0000000000
40
1.0000000000
40
1.0000000000
40
1.0000000000
10
-24.7650437876
20
25.8925678007
30
0.0000000000
10
-25.0182275809
20
25.8914953007
30
0.0000000000
10
-25.5555482329
20
25.8539206182
30
0.0000000000
10
-26.3914445199
20
25.6743159633
30
0.0000000000
10
-27.2645812823
20
25.3325124349
30
0.0000000000
10
-28.1123553259
20
24.8090273598
30
0.0000000000
10
-28.8684309140
20
24.1113830319
30
0.0000000000
10
-29.4794830794
20
23.2704842619
30
0.0000000000
10
-29.9196498104
20
22.3214660641
30
0.0000000000
10
-30.1747322508
20
21.3103229525
30
0.0000000000
10
-30.2211214908
20
20.6153963679
30
0.0000000000
10
-30.2144842475
20
20.2714116735
30
0.0000000000
11
-24.7650437876
21
25.8925678007
31
0.0000000000
11
-25.5227270956
21
25.8392324861
31
0.0000000000
11
-26.3545422562
21
25.6600353449
31
0.0000000000
11
-27.2342789679
21
25.3148121408
31
0.0000000000
11
-28.0872841786
21
24.7871482663
31
0.0000000000
11
-28.8392702407
21
24.0928973728
31
0.0000000000
11
-29.4513391094
21
23.2518210142
31
0.0000000000
11
-29.8877749979
21
22.3139000090
31
0.0000000000
11
-30.1444174009
21
21.3011768622
31
0.0000000000
11
-30.2144842475
21
20.2714116735
31
0.0000000000
0
SPLINE
5
301
100
AcDbEntity
8
0
100
AcDbSpline
62
9
6
CONTINUOUS
70
0
71
3
72
10
73
6
74
4
42
0.0000001000
43
0.0000001000
44
0.0000000001
12
0.0367242161
22
-1.8370330456
32
0.0000000000
13
-0.1817529666
23
-1.8283886178
33
0.0000000000
40
0.0000000000
40
0.0000000000
40
0.0000000000
40
0.0000000000
40
0.3440658734
40
0.6822408214
40
1.0000000000
40
1.0000000000
40
1.0000000000
40
1.0000000000
10
-24.7650437876
20
25.8925678007
30
0.0000000000
10
-24.7608319377
20
25.6818810076
30
0.0000000000
10
-24.7602803309
20
25.2639170132
30
0.0000000000
10
-24.7818467760
20
24.6517077875
30
0.0000000000
10
-24.8117643099
20
24.2509329091
30
0.0000000000
10
-24.8310155344
20
24.0572704874
30
0.0000000000
11
-24.7650437876
21
25.8925678007
31
0.0000000000
11
-24.7641580361
21
25.2603817557
31
0.0000000000
11
-24.7864791726
21
24.6394201259
31
0.0000000000
11
-24.8310155344
21
24.0572704874
31
0.0000000000
0
SPLINE
5
302
100
AcDbEntity
8
0
100
AcDbSpline
62
9
6
CONTINUOUS
70
0
71
3
72
16
73
12
74
10
42
0.0000001000
43
0.0000001000
44
0.0000000001
12
-5.9984651947
22
0.0052433416
32
0.0000000000
13
0.1508247074
23
-5.9965710279
33
0.0000000000
40
0.0000000000
40
0.0000000000
40
0.0000000000
40
0.0000000000
40
0.0867456562
40
0.1839886476
40
0.2921818658
40
0.4072132626
40
0.5246548782
40
0.6440240710
40
0.7626364865
40
0.8821428274
40
1.0000000000
40
1.0000000000
40
1.0000000000
40
1.0000000000
10
-24.8310161959
20
24.0572726016
30
0.0000000000
10
-25.0044631291
20
24.0574242140
30
0.0000000000
10
-25.3728488832
20
24.0325038398
30
0.0000000000
10
-25.9459304115
20
23.9077926462
30
0.0000000000
10
-26.5442368478
20
23.6693839693
30
0.0000000000
10
-27.1249617133
20
23.3059032999
30
0.0000000000
10
-27.6442194684
20
22.8250065990
30
0.0000000000
10
-28.0670795361
20
22.2483864480
30
0.0000000000
10
-28.3746592577
20
21.5983777645
30
0.0000000000
10
-28.5537496547
20
20.9052875991
30
0.0000000000
10
-28.5852694458
20
20.4285677119
30
0.0000000000
10
-28.5793441879
20
20.1929880763
30
0.0000000000
11
-24.8310161959
21
24.0572726016
31
0.0000000000
11
-25.3501608845
21
24.0220086422
31
0.0000000000
11
-25.9201072492
21
23.8978698482
31
0.0000000000
11
-26.5229589027
21
23.6575316513
31
0.0000000000
11
-27.1078271679
21
23.2914089921
31
0.0000000000
11
-27.6247120705
21
22.8127571625
31
0.0000000000
11
-28.0482605772
21
22.2354281363
31
0.0000000000
11
-28.3527798733
21
21.5923963436
31
0.0000000000
11
-28.5322986713
21
20.8983834122
31
0.0000000000
11
-28.5793441879
21
20.1929880763
31
0.0000000000
0
SPLINE
5
303
100
AcDbEntity
8
0
100
AcDbSpline
62
9
6
CONTINUOUS
70
0
71
3
72
20
73
16
74
14
42
0.0000001000
43
0.0000001000
44
0.0000000001
12
0.4292327504
22
-21.9813898973
32
0.0000000000
13
0.5596044452
23
-21.9784573034
33
0.0000000000
40
0.0000000000
40
0.0000000000
40
0.0000000000
40
0.0000000000
40
0.0783578101
40
0.1636104150
40
0.2565396927
40
0.3550237892
40
0.4546433624
40
0.5492845493
40
0.6348555102
40
0.7116944474
40
0.7807643814
40
0.8430999669
40
0.8997231787
40
0.9516417766
40
1.0000000000
40
1.0000000000
40
1.0000000000
40
1.0000000000
10
-30.2144811527
20
20.2714139718
30
0.0000000000
10
-30.2032699066
20
19.6972761134
30
0.0000000000
10
-30.1794484904
20
18.4984892838
30
0.0000000000
10
-30.1401744462
20
16.6188412283
30
0.0000000000
10
-30.0961002640
20
14.5917661227
30
0.0000000000
10
-30.0485247914
20
12.4594539667
30
0.0000000000
10
-29.9997042426
20
10.3146209492
30
0.0000000000
10
-29.9524049366
20
8.2644121946
30
0.0000000000
10
-29.9083440781
20
6.3811217464
30
0.0000000000
10
-29.8681256902
20
4.6851923885
30
0.0000000000
10
-29.8314971359
20
3.1595069119
30
0.0000000000
10
-29.7979734792
20
1.7819411391
30
0.0000000000
10
-29.7670918222
20
0.5300423854
30
0.0000000000
10
-29.7383705430
20
-0.6194449675
30
0.0000000000
10
-29.7197688221
20
-1.3540908850
30
0.0000000000
10
-29.7107483298
20
-1.7083706011
30
0.0000000000
11
-30.2144811527
21
20.2714139718
31
0.0000000000
11
-30.1801711623
21
18.5490137346
31
0.0000000000
11
-30.1410962451
21
16.6750930912
31
0.0000000000
11
-30.0967971994
21
14.6324692987
31
0.0000000000
11
-30.0485489804
21
12.4677769114
31
0.0000000000
11
-29.9987585803
21
10.2781488075
31
0.0000000000
11
-29.9507534624
21
8.1979612306
31
0.0000000000
11
-29.9067420233
21
6.3171488635
31
0.0000000000
11
-29.8666889715
21
4.6282751164
31
0.0000000000
11
-29.8302255590
21
3.1101703777
31
0.0000000000
11
-29.7968755148
21
1.7400921939
31
0.0000000000
11
-29.7661727429
21
0.4955766898
31
0.0000000000
11
-29.7376529669
21
-0.6455274710
31
0.0000000000
11
-29.7107483298
21
-1.7083706011
31
0.0000000000
0
SPLINE
5
304
100
AcDbEntity
8
0
100
AcDbSpline
62
9
6
CONTINUOUS
70
0
71
3
72
10
73
6
74
4
42
0.0000001000
43
0.0000001000
44
0.0000000001
12
1.6377874285
22
0.0012002106
32
0.0000000000
13
1.6265004408
23
-0.1919516022
33
0.0000000000
40
0.0000000000
40
0.0000000000
40
0.0000000000
40
0.0000000000
40
0.3691879904
40
0.7073584055
40
1.0000000000
40
1.0000000000
40
1.0000000000
40
1.0000000000
10
-30.2144811527
20
20.2714139718
30
0.0000000000
10
-30.0129306696
20
20.2715616729
30
0.0000000000
10
-29.6267212264
20
20.2663961455
30
0.0000000000
10
-29.0812815918
20
20.2413086250
30
0.0000000000
10
-28.7380047323
20
20.2117124198
30
0.0000000000
10
-28.5793441715
20
20.1929880788
30
0.0000000000
11
-30.2144811527
21
20.2714139718
31
0.0000000000
11
-29.6098917215
21
20.2627426820
31
0.0000000000
11
-29.0566762722
21
20.2362088625
31
0.0000000000
11
-28.5793441715
21
20.1929880788
31
0.0000000000
0
SPLINE
5
305
100
AcDbEntity
8
0
100
AcDbSpline
62
9
6
CONTINUOUS
70
0
71
3
72
18
73
14
74
12
42
0.0000001000
43
0.0000001000
44
0.0000000001
12
0.5270062806
22
-21.9727889027
32
0.0000000000
13
0.5279353413
23
-21.9727666000
33
0.0000000000
40
0.0000000000
40
0.0000000000
40
0.0000000000
40
0.0000000000
40
0.0578950014
40
0.1214042548
40
0.1907561341
40
0.2661697637
40
0.3478489302
40
0.4359639392
40
0.5308046906
40
0.6332389376
40
0.7443431197
40
0.8656124401
40
1.0000000000
40
1.0000000000
40
1.0000000000
40
1.0000000000
10
-29.7107497648
20
-1.7083707001
30
0.0000000000
10
-29.7005794217
20
-2.1324089146
30
0.0000000000
10
-29.6788660420
20
-3.0215963795
30
0.0000000000
10
-29.6434991258
20
-4.4186988758
30
0.0000000000
10
-29.6035217966
20
-5.9440731294
30
0.0000000000
10
-29.5586281450
20
-7.6024831130
30
0.0000000000
10
-29.5085587748
20
-9.3982683833
30
0.0000000000
10
-29.4529653556
20
-11.3362845680
30
0.0000000000
10
-29.3916067054
20
-13.4262568030
30
0.0000000000
10
-29.3240531548
20
-15.6845464261
30
0.0000000000
10
-29.2502512197
20
-18.1363613285
30
0.0000000000
10
-29.1709606847
20
-20.8222177309
30
0.0000000000
10
-29.1205114992
20
-22.6945821384
30
0.0000000000
10
-29.0968621851
20
-23.6788709679
30
0.0000000000
11
-29.7107497648
21
-1.7083707001
31
0.0000000000
11
-29.6796892701
21
-2.9804720463
31
0.0000000000
11
-29.6443837882
21
-4.3759022279
31
0.0000000000
11
-29.6044757019
21
-5.8996721590
31
0.0000000000
11
-29.5596553717
21
-7.5565903726
31
0.0000000000
11
-29.5096417156
21
-9.3511287918
31
0.0000000000
11
-29.4541693333
21
-11.2870234806
31
0.0000000000
11
-29.3930541524
21
-13.3706424971
31
0.0000000000
11
-29.3258850350
21
-15.6210536828
31
0.0000000000
11
-29.2527171412
21
-18.0619281009
31
0.0000000000
11
-29.1748816037
21
-20.7261828570
31
0.0000000000
11
-29.0968621851
21
-23.6788709679
31
0.0000000000
0
SPLINE
5
306
100
AcDbEntity
8
0
100
AcDbSpline
62
9
6
CONTINUOUS
70
0
71
3
72
10
73
6
74
4
42
0.0000001000
43
0.0000001000
44
0.0000000001
12
1.6724420175
22
-0.0001663469
32
0.0000000000
13
1.6601308917
23
-0.2025530839
33
0.0000000000
40
0.0000000000
40
0.0000000000
40
0.0000000000
40
0.0000000000
40
0.3690100838
40
0.7073476363
40
1.0000000000
40
1.0000000000
40
1.0000000000
40
1.0000000000
10
-29.7107497648
20
-1.7083707001
30
0.0000000000
10
-29.5050337751
20
-1.7083911613
30
0.0000000000
10
-29.1106610657
20
-1.7141559337
30
0.0000000000
10
-28.5537303533
20
-1.7409229794
30
0.0000000000
10
-28.2031753238
20
-1.7722215488
30
0.0000000000
10
-28.0412282473
20
-1.7919807617
30
0.0000000000
11
-29.7107497648
21
-1.7083707001
31
0.0000000000
11
-29.0936767611
21
-1.7179898273
31
0.0000000000
11
-28.5285348860
21
-1.7462885456
31
0.0000000000
11
-28.0412282473
21
-1.7919807617
31
0.0000000000
0
SPLINE
5
307
100
AcDbEntity
8
0
100
AcDbSpline
62
9
6
CONTINUOUS
70
0
71
3
72
16
73
12
74
10
42
0.0000001000
43
0.0000001000
44
0.0000000001
12
0.2131865415
22
-8.8609737709
32
0.0000000000
13
8.8633010562
23
0.0648001304
33
0.0000000000
40
0.0000000000
40
0.0000000000
40
0.0000000000
40
0.0000000000
40
0.0975324516
40
0.2078628324
40
0.3283432349
40
0.4475660903
40
0.5571367449
40
0.6594581336
40
0.7686519306
40
0.8817075503
40
1.0000000000
40
1.0000000000
40
1.0000000000
40
1.0000000000
10
-29.0968645081
20
-23.6788725592
30
0.0000000000
10
-29.0899336394
20
-23.9669500578
30
0.0000000000
10
-29.0288352594
20
-24.5807009277
30
0.0000000000
10
-28.7808733206
20
-25.5230424704
30
0.0000000000
10
-28.3478756794
20
-26.4683715131
30
0.0000000000
10
-27.7570749911
20
-27.3209119811
30
0.0000000000
10
-27.0699352324
20
-28.0232730194
30
0.0000000000
10
-26.3034489783
20
-28.5890839682
30
0.0000000000
10
-25.4392815397
20
-29.0177814263
30
0.0000000000
10
-24.4639646992
20
-29.2875667158
30
0.0000000000
10
-23.7781481809
20
-29.3441439582
30
0.0000000000
10
-23.4286609828
20
-29.3415888361
30
0.0000000000
11
-29.0968645081
21
-23.6788725592
31
0.0000000000
11
-29.0114882723
21
-24.5391289380
31
0.0000000000
11
-28.7631273765
21
-25.4849828022
31
0.0000000000
11
-28.3187976352
21
-26.4560360272
31
0.0000000000
11
-27.7169091222
21
-27.3246106229
31
0.0000000000
11
-27.0372169969
21
-28.0183081815
31
0.0000000000
11
-26.3062265013
21
-28.5551266157
31
0.0000000000
11
-25.4387523361
21
-28.9843227777
31
0.0000000000
11
-24.4734149512
21
-29.2531602327
31
0.0000000000
11
-23.4286609828
21
-29.3415888361
31
0.0000000000
0
SPLINE
5
308
100
AcDbEntity
8
0
100
AcDbSpline
62
9
6
CONTINUOUS
70
0
71
3
72
10
73
6
74
4
42
0.0000001000
43
0.0000001000
44
0.0000000001
12
1.5883543736
22
-0.0153457152
32
0.0000000000
13
1.5745420766
23
-0.2095766117
33
0.0000000000
40
0.0000000000
40
0.0000000000
40
0.0000000000
40
0.0000000000
40
0.3696366477
40
0.7075636046
40
1.0000000000
40
1.0000000000
40
1.0000000000
40
1.0000000000
10
-29.0968645081
20
-23.6788725592
30
0.0000000000
10
-28.9011598461
20
-23.6807633388
30
0.0000000000
10
-28.5265522075
20
-23.6898280622
30
0.0000000000
10
-27.9978754729
20
-23.7205332353
30
0.0000000000
10
-27.6655914799
20
-23.7537668766
30
0.0000000000
10
-27.5121070102
20
-23.7741961529
30
0.0000000000
11
-29.0968645081
21
-23.6788725592
31
0.0000000000
11
-28.5099101131
21
-23.6936896493
31
0.0000000000
11
-27.9741057122
21
-23.7259184216
31
0.0000000000
11
-27.5121070102
21
-23.7741961529
31
0.0000000000
0
SPLINE
5
309
100
AcDbEntity
8
0
100
AcDbSpline
62
9
6
CONTINUOUS
70
0
71
3
72
16
73
12
74
10
42
0.0000001000
43
0.0000001000
44
0.0000000001
12
0.1404661637
22
-6.0929443680
32
0.0000000000
13
6.0945609170
23
-0.0053891756
33
0.0000000000
40
0.0000000000
40
0.0000000000
40
0.0000000000
40
0.0000000000
40
0.0968644817
40
0.2067310151
40
0.3275659957
40
0.4482040035
40
0.5590232778
40
0.6609068432
40
0.7689335979
40
0.8819482681
40
1.0000000000
40
1.0000000000
40
1.0000000000
40
1.0000000000
10
-27.5121117716
20
-23.7741968675
30
0.0000000000
10
-27.5075763775
20
-23.9709268337
30
0.0000000000
10
-27.4654830285
20
-24.3907006671
30
0.0000000000
10
-27.2920692636
20
-25.0364309005
30
0.0000000000
10
-26.9857227528
20
-25.6857251678
30
0.0000000000
10
-26.5646912880
20
-26.2694145981
30
0.0000000000
10
-26.0768807868
20
-26.7436848342
30
0.0000000000
10
-25.5406084334
20
-27.1183172587
30
0.0000000000
10
-24.9462386679
20
-27.4033506441
30
0.0000000000
10
-24.2801478070
20
-27.5917525777
30
0.0000000000
10
-23.8096147015
20
-27.6365624511
30
0.0000000000
10
-23.5697902111
20
-27.6367745183
30
0.0000000000
11
-27.5121117716
21
-23.7741968675
31
0.0000000000
11
-27.4533442117
21
-24.3616112173
31
0.0000000000
11
-27.2799538775
21
-25.0083604795
31
0.0000000000
11
-26.9660092825
21
-25.6745266887
31
0.0000000000
11
-26.5360879459
21
-26.2709657743
31
0.0000000000
11
-26.0517579286
21
-26.7416917576
31
0.0000000000
11
-25.5425454950
21
-27.0970282366
31
0.0000000000
11
-24.9488860884
21
-27.3816812318
31
0.0000000000
11
-24.2860610672
21
-27.5689619734
31
0.0000000000
11
-23.5697902111
21
-27.6367745183
31
0.0000000000
0
SPLINE
5
30A
100
AcDbEntity
8
0
100
AcDbSpline
62
9
6
CONTINUOUS
70
0
71
3
72
10
73
6
74
4
42
0.0000001000
43
0.0000001000
44
0.0000000001
12
1.2193910293
22
0.0091741131
32
0.0000000000
13
1.2194253845
23
-0.0006151228
33
0.0000000000
40
0.0000000000
40
0.0000000000
40
0.0000000000
40
0.0000000000
40
0.3434272209
40
0.6768106945
40
1.0000000000
40
1.0000000000
40
1.0000000000
40
1.0000000000
10
-23.4286602992
20
-29.3415882862
30
0.0000000000
10
-23.2890696084
20
-29.3405380728
30
0.0000000000
10
-23.0139701429
20
-29.3385216390
30
0.0000000000
10
-22.6074994970
20
-29.3364925663
30
0.0000000000
10
-22.3406185126
20
-29.3360749958
30
0.0000000000
10
-22.2092500982
20
-29.3361412628
30
0.0000000000
11
-23.4286602992
21
-29.3415882862
31
0.0000000000
11
-23.0098866318
21
-29.3386573068
31
0.0000000000
11
-22.6033549844
21
-29.3367077033
31
0.0000000000
11
-22.2092500982
21
-29.3361412628
31
0.0000000000
0
SPLINE
5
30B
100
AcDbEntity
8
0
100
AcDbSpline
62
9
6
CONTINUOUS
70
0
71
3
72
10
73
6
74
4
42
0.0000001000
43
0.0000001000
44
0.0000000001
12
-0.0368359176
22
1.7114769094
32
0.0000000000
13
-0.2842175859
23
1.6881144689
33
0.0000000000
40
0.0000000000
40
0.0000000000
40
0.0000000000
40
0.0000000000
40
0.3653185955
40
0.7036103483
40
1.0000000000
40
1.0000000000
40
1.0000000000
40
1.0000000000
10
-23.4286602992
20
-29.3415882862
30
0.0000000000
10
-23.4331459144
20
-29.1331768392
30
0.0000000000
10
-23.4490633227
20
-28.7318695753
30
0.0000000000
10
-23.4949017038
20
-28.1629450174
30
0.0000000000
10
-23.5417104939
20
-27.8035544043
30
0.0000000000
10
-23.5697902110
20
-27.6367745178
30
0.0000000000
11
-23.4286602992
21
-29.3415882862
31
0.0000000000
11
-23.4540782262
21
-28.7167259041
31
0.0000000000
11
-23.5018555506
21
-28.1395874964
31
0.0000000000
11
-23.5697902110
21
-27.6367745178
31
0.0000000000
0
SPLINE
5
30C
100
AcDbEntity
8
0
100
AcDbSpline
62
9
6
CONTINUOUS
70
0
71
3
72
10
73
6
74
4
42
0.0000001000
43
0.0000001000
44
0.0000000001
12
-0.0418443980
22
1.7060547367
32
0.0000000000
13
-0.2909667353
23
1.6815802321
33
0.0000000000
40
0.0000000000
40
0.0000000000
40
0.0000000000
40
0.0000000000
40
0.3652908003
40
0.7035477026
40
1.0000000000
40
1.0000000000
40
1.0000000000
40
1.0000000000
10
-22.2092488468
20
-29.3361284846
30
0.0000000000
10
-22.2143439713
20
-29.1283931179
30
0.0000000000
10
-22.2314864280
20
-28.7284151992
30
0.0000000000
10
-22.2792440602
20
-28.1614203656
30
0.0000000000
10
-22.3274055928
20
-27.8033204439
30
0.0000000000
10
-22.3561581786
20
-27.6371510029
30
0.0000000000
11
-22.2092488468
21
-29.3361284846
31
0.0000000000
11
-22.2365817196
21
-28.7133344577
31
0.0000000000
11
-22.2863100538
21
-28.1382220440
31
0.0000000000
11
-22.3561581786
21
-27.6371510029
31
0.0000000000
0
SPLINE
5
30D
100
AcDbEntity
8
0
100
AcDbSpline
62
9
6
CONTINUOUS
70
0
71
3
72
10
73
6
74
4
42
0.0000001000
43
0.0000001000
44
0.0000000001
12
1.2197083130
22
0.0006124097
32
0.0000000000
13
1.2196739396
23
-0.0091774227
33
0.0000000000
40
0.0000000000
40
0.0000000000
40
0.0000000000
40
0.0000000000
40
0.3245332129
40
0.6577967793
40
1.0000000000
40
1.0000000000
40
1.0000000000
40
1.0000000000
10
19.0881445027
20
-29.3361405996
30
0.0000000000
10
19.2200897886
20
-29.3360743505
30
0.0000000000
10
19.4875303401
20
-29.3364935087
30
0.0000000000
10
19.8940952646
20
-29.3385286980
30
0.0000000000
10
20.1687121785
20
-29.3405415418
30
0.0000000000
10
20.3078376286
20
-29.3415883897
30
0.0000000000
11
19.0881445027
21
-29.3361405996
31
0.0000000000
11
19.4839799982
21
-29.3367117793
31
0.0000000000
11
19.8904596949
21
-29.3386658445
31
0.0000000000
11
20.3078376286
21
-29.3415883897
31
0.0000000000
0
SPLINE
5
30E
100
AcDbEntity
8
0
100
AcDbSpline
62
9
6
CONTINUOUS
70
0
71
3
72
10
73
6
74
4
42
0.0000001000
43
0.0000001000
44
0.0000000001
12
-0.0429860138
22
1.7059612800
32
0.0000000000
13
-0.2897321146
23
1.6817273822
33
0.0000000000
40
0.0000000000
40
0.0000000000
40
0.0000000000
40
0.0000000000
40
0.3653056908
40
0.7035617928
40
1.0000000000
40
1.0000000000
40
1.0000000000
40
1.0000000000
10
19.0886126230
20
-29.3361284846
30
0.0000000000
10
19.0833782778
20
-29.1283960299
30
0.0000000000
10
19.0660767670
20
-28.7284393013
30
0.0000000000
10
19.0187565020
20
-28.1614328461
30
0.0000000000
10
18.9708013018
20
-27.8033270863
30
0.0000000000
10
18.9421720789
20
-27.6371510029
30
0.0000000000
11
19.0886126230
21
-29.3361284846
31
0.0000000000
11
19.0611004634
21
-28.7133407030
31
0.0000000000
11
19.0116875071
21
-28.1382245634
31
0.0000000000
11
18.9421720789
21
-27.6371510029
31
0.0000000000
0
SPLINE
5
30F
100
AcDbEntity
8
0
100
AcDbSpline
62
9
6
CONTINUOUS
70
0
71
3
72
16
73
12
74
10
42
0.0000001000
43
0.0000001000
44
0.0000000001
12
8.7316188415
22
-0.0635655357
32
0.0000000000
13
-0.2252858316
23
8.7289434907
33
0.0000000000
40
0.0000000000
40
0.0000000000
40
0.0000000000
40
0.0000000000
40
0.1186297404
40
0.2318489909
40
0.3403542136
40
0.4417632140
40
0.5491646728
40
0.6672614158
40
0.7887768638
40
0.9004732757
40
1.0000000000
40
1.0000000000
40
1.0000000000
40
1.0000000000
10
20.3078346162
20
-29.3415907604
30
0.0000000000
10
20.6531111750
20
-29.3441043481
30
0.0000000000
10
21.3302611742
20
-29.2890956927
30
0.0000000000
10
22.2905133082
20
-29.0222603854
30
0.0000000000
10
23.1356784387
20
-28.5960892082
30
0.0000000000
10
23.8739740962
20
-28.0339068948
30
0.0000000000
10
24.5273384463
20
-27.3360955802
30
0.0000000000
10
25.0827971665
20
-26.4858644306
30
0.0000000000
10
25.4780158220
20
-25.5361740268
30
0.0000000000
10
25.6848681141
20
-24.5852610688
30
0.0000000000
10
25.7160709461
20
-23.9684599789
30
0.0000000000
10
25.7085969591
20
-23.6788722615
30
0.0000000000
11
20.3078346162
21
-29.3415907604
31
0.0000000000
11
21.3400347365
21
-29.2546258634
31
0.0000000000
11
22.2919150624
21
-28.9876416500
31
0.0000000000
11
23.1380388574
21
-28.5613335601
31
0.0000000000
11
23.8438743464
21
-28.0266508332
31
0.0000000000
11
24.4856064538
21
-27.3427839079
31
0.0000000000
11
25.0496367909
21
-26.4795055329
31
0.0000000000
11
25.4571937657
21
-25.4998451999
31
0.0000000000
11
25.6644398014
21
-24.5468021574
31
0.0000000000
11
25.7085969591
21
-23.6788722615
31
0.0000000000
0
SPLINE
5
310
100
AcDbEntity
8
0
100
AcDbSpline
62
9
6
CONTINUOUS
70
0
71
3
72
10
73
6
74
4
42
0.0000001000
43
0.0000001000
44
0.0000000001
12
-0.0452977163
22
1.7122961769
32
0.0000000000
13
-0.2985073344
23
1.6866841589
33
0.0000000000
40
0.0000000000
40
0.0000000000
40
0.0000000000
40
0.0000000000
40
0.3651888652
40
0.7034689800
40
1.0000000000
40
1.0000000000
40
1.0000000000
40
1.0000000000
10
20.3078346162
20
-29.3415907604
30
0.0000000000
10
20.3023205423
20
-29.1331535945
30
0.0000000000
10
20.2842361110
20
-28.7317727478
30
0.0000000000
10
20.2347416489
20
-28.1628053126
30
0.0000000000
10
20.1851820852
20
-27.8034782492
30
0.0000000000
10
20.1556765237
20
-27.6367601912
30
0.0000000000
11
20.3078346162
21
-29.3415907604
31
0.0000000000
11
20.2790348477
21
-28.7167238245
31
0.0000000000
11
20.2275242064
21
-28.1395795542
31
0.0000000000
11
20.1556765237
21
-27.6367601912
31
0.0000000000
0
SPLINE
5
311
100
AcDbEntity
8
0
100
AcDbSpline
62
9
6
CONTINUOUS
70
0
71
3
72
16
73
12
74
10
42
0.0000001000
43
0.0000001000
44
0.0000000001
12
6.0012696587
22
0.0051862388
32
0.0000000000
13
-0.1569966090
23
5.9992179888
33
0.0000000000
40
0.0000000000
40
0.0000000000
40
0.0000000000
40
0.0000000000
40
0.1184101658
40
0.2315692825
40
0.3390180939
40
0.4399833996
40
0.5485960864
40
0.6680543420
40
0.7898770720
40
0.9011064743
40
1.0000000000
40
1.0000000000
40
1.0000000000
40
1.0000000000
10
20.1556740227
20
-27.6367745183
30
0.0000000000
10
20.3925444678
20
-27.6365698171
30
0.0000000000
10
20.8569315043
20
-27.5928446053
30
0.0000000000
10
21.5125988024
20
-27.4064186831
30
0.0000000000
10
22.0937330826
20
-27.1228962827
30
0.0000000000
10
22.6107819758
20
-26.7508838033
30
0.0000000000
10
23.0754154217
20
-26.2800143266
30
0.0000000000
10
23.4714016368
20
-25.6977098657
30
0.0000000000
10
23.7507329426
20
-25.0452602842
30
0.0000000000
10
23.8953349690
20
-24.3937129539
30
0.0000000000
10
23.9170533767
20
-23.9719581404
30
0.0000000000
10
23.9118780606
20
-23.7741968675
30
0.0000000000
11
20.1556740227
21
-27.6367745183
31
0.0000000000
11
20.8631404629
21
-27.5699906644
31
0.0000000000
11
21.5162792468
21
-27.3840211125
31
0.0000000000
11
22.0956874944
21
-27.1010172108
31
0.0000000000
11
22.5876657526
21
-26.7473270275
31
0.0000000000
11
23.0455984641
21
-26.2834741763
31
0.0000000000
11
23.4486565874
21
-25.6906066780
31
0.0000000000
11
23.7364069784
21
-25.0185246592
31
0.0000000000
11
23.8811453949
21
-24.3668875521
31
0.0000000000
11
23.9118780606
21
-23.7741968675
31
0.0000000000
0
SPLINE
5
312
100
AcDbEntity
8
0
100
AcDbSpline
62
9
6
CONTINUOUS
70
0
71
3
72
18
73
14
74
12
42
0.0000001000
43
0.0000001000
44
0.0000000001
12
-0.5693101807
22
21.9695617446
32
0.0000000000
13
-0.5437747960
23
21.9702086085
33
0.0000000000
40
0.0000000000
40
0.0000000000
40
0.0000000000
40
0.0000000000
40
0.1429460404
40
0.2704017973
40
0.3849679295
40
0.4885304959
40
0.5825795795
40
0.6683535407
40
0.7466264739
40
0.8181402457
40
0.8836668869
40
0.9439866234
40
1.0000000000
40
1.0000000000
40
1.0000000000
40
1.0000000000
10
25.7085981739
20
-23.6788709913
30
0.0000000000
10
25.6814712952
20
-22.6320503711
30
0.0000000000
10
25.6370211339
20
-20.6516711704
30
0.0000000000
10
25.5815951650
20
-17.8320783441
30
0.0000000000
10
25.5331507842
20
-15.3009123267
30
0.0000000000
10
25.4888262596
20
-13.0144381059
30
0.0000000000
10
25.4474266042
20
-10.9388682297
30
0.0000000000
10
25.4084910853
20
-9.0485493409
30
0.0000000000
10
25.3716847301
20
-7.3233077867
30
0.0000000000
10
25.3369100431
20
-5.7463817508
30
0.0000000000
10
25.3039348680
20
-4.3009671795
30
0.0000000000
10
25.2725199849
20
-2.9690973729
30
0.0000000000
10
25.2517560189
20
-2.1171351037
30
0.0000000000
10
25.2416031314
20
-1.7069265806
30
0.0000000000
11
25.7085981739
21
-23.6788709913
31
0.0000000000
11
25.6360170895
21
-20.5381934382
31
0.0000000000
11
25.5799940704
21
-17.7376666052
31
0.0000000000
11
25.5314997499
21
-15.2203209968
31
0.0000000000
11
25.4872527153
21
-12.9447631456
31
0.0000000000
11
25.4459832010
21
-10.8782644165
31
0.0000000000
11
25.4071176278
21
-8.9936161848
31
0.0000000000
11
25.3704135726
21
-7.2738084899
31
0.0000000000
11
25.3357350656
21
-5.7025374732
31
0.0000000000
11
25.3028717402
21
-4.2628376414
31
0.0000000000
11
25.2715964182
21
-2.9375635801
31
0.0000000000
11
25.2416031314
21
-1.7069265806
31
0.0000000000
0
SPLINE
5
313
100
AcDbEntity
8
0
100
AcDbSpline
62
9
6
CONTINUOUS
70
0
71
3
72
10
73
6
74
4
42
0.0000001000
43
0.0000001000
44
0.0000000001
12
-1.7997010170
22
-0.0171745613
32
0.0000000000
13
-1.7905479633
23
-0.1820898324
33
0.0000000000
40
0.0000000000
40
0.0000000000
40
0.0000000000
40
0.0000000000
40
0.3425190826
40
0.6805170389
40
1.0000000000
40
1.0000000000
40
1.0000000000
40
1.0000000000
10
25.7085981739
20
-23.6788709913
30
0.0000000000
10
25.5031208601
20
-23.6808318629
30
0.0000000000
10
25.0949110483
20
-23.6906911119
30
0.0000000000
10
24.4957386659
20
-23.7221881994
30
0.0000000000
10
24.1025612601
20
-23.7548053372
30
0.0000000000
10
23.9118780716
20
-23.7741968702
30
0.0000000000
11
25.7085981739
21
-23.6788709913
31
0.0000000000
11
25.0923162811
21
-23.6936889555
31
0.0000000000
11
24.4848476942
21
-23.7259185030
31
0.0000000000
11
23.9118780716
21
-23.7741968702
31
0.0000000000
0
SPLINE
5
314
100
AcDbEntity
8
0
100
AcDbSpline
62
9
6
CONTINUOUS
70
0
71
3
72
20
73
16
74
14
42
0.0000001000
43
0.0000001000
44
0.0000000001
12
-0.5191129062
22
21.9795474215
32
0.0000000000
13
-0.6293038316
23
21.9766685317
33
0.0000000000
40
0.0000000000
40
0.0000000000
40
0.0000000000
40
0.0000000000
40
0.0464299764
40
0.0981363336
40
0.1551721510
40
0.2175982481
40
0.2854901019
40
0.3589305588
40
0.4379511899
40
0.5226062639
40
0.6137181062
40
0.7123547225
40
0.8145235160
40
0.9123542918
40
1.0000000000
40
1.0000000000
40
1.0000000000
40
1.0000000000
10
25.2416035975
20
-1.7069266792
30
0.0000000000
10
25.2335694642
20
-1.3667567231
30
0.0000000000
10
25.2165060394
20
-0.6477612595
30
0.0000000000
10
25.1892024958
20
0.4890991851
30
0.0000000000
10
25.1587448258
20
1.7431461495
30
0.0000000000
10
25.1250192849
20
3.1157650396
30
0.0000000000
10
25.0879327064
20
4.6085599401
30
0.0000000000
10
25.0474433352
20
6.2229218013
30
0.0000000000
10
25.0034411677
20
7.9600843905
30
0.0000000000
10
24.9556721667
20
9.8266988269
30
0.0000000000
10
24.9037584806
20
11.8370111224
30
0.0000000000
10
24.8477520556
20
13.9756107323
30
0.0000000000
10
24.7893842208
20
16.1634052938
30
0.0000000000
10
24.7314792913
20
18.2706355702
30
0.0000000000
10
24.6927960261
20
19.6293604972
30
0.0000000000
10
24.6744107661
20
20.2714140567
30
0.0000000000
11
25.2416035975
21
-1.7069266792
31
0.0000000000
11
25.2173777385
21
-0.6864197343
31
0.0000000000
11
25.1900914832
21
0.4500520025
31
0.0000000000
11
25.1596476029
21
1.7036534362
31
0.0000000000
11
25.1259432909
21
3.0757195233
31
0.0000000000
11
25.0888860275
21
4.5679078056
31
0.0000000000
11
25.0484041401
21
6.1820383958
31
0.0000000000
11
25.0044137663
21
7.9188034235
31
0.0000000000
11
24.9568133325
21
9.7793937252
31
0.0000000000
11
24.9050652704
21
11.7818807166
31
0.0000000000
11
24.8482557535
21
13.9497292487
31
0.0000000000
11
24.7882305811
21
16.1951771656
31
0.0000000000
11
24.7290546085
21
18.3452387870
31
0.0000000000
11
24.6744107661
21
20.2714140567
31
0.0000000000
0
SPLINE
5
315
100
AcDbEntity
8
0
100
AcDbSpline
62
9
6
CONTINUOUS
70
0
71
3
72
10
73
6
74
4
42
0.0000001000
43
0.0000001000
44
0.0000000001
12
-1.8783510591
22
-0.0012089616
32
0.0000000000
13
-1.8699821751
23
-0.1771181173
33
0.0000000000
40
0.0000000000
40
0.0000000000
40
0.0000000000
40
0.0000000000
40
0.3411422079
40
0.6795427109
40
1.0000000000
40
1.0000000000
40
1.0000000000
40
1.0000000000
10
25.2416035975
20
-1.7069266792
30
0.0000000000
10
25.0280086550
20
-1.7070641552
30
0.0000000000
10
24.6025136359
20
-1.7138131562
30
0.0000000000
10
23.9769492190
20
-1.7419048664
30
0.0000000000
10
23.5655112498
20
-1.7730611647
30
0.0000000000
10
23.3657614436
20
-1.7919807619
30
0.0000000000
11
25.2416035975
21
-1.7069266792
31
0.0000000000
11
24.6008970430
21
-1.7169504598
31
0.0000000000
11
23.9659145261
21
-1.7457454559
31
0.0000000000
11
23.3657614436
21
-1.7919807619
31
0.0000000000
0
SPLINE
5
316
100
AcDbEntity
8
0
100
AcDbSpline
62
7
6
CONTINUOUS
70
0
71
3
72
10
73
6
74
4
42
0.0000001000
43
0.0000001000
44
0.0000000001
12
0.5816883791
22
-1.8667415494
32
0.0000000000
13
0.5871613538
23
-1.8650273261
33
0.0000000000
40
0.0000000000
40
0.0000000000
40
0.0000000000
40
0.0000000000
40
0.3335142461
40
0.6668503432
40
1.0000000000
40
1.0000000000
40
1.0000000000
40
1.0000000000
10
16.2266448083
20
-30.5513723939
30
0.0000000000
10
16.2913119287
20
-30.7589006941
30
0.0000000000
10
16.4208141341
20
-31.1737833719
30
0.0000000000
10
16.6156218492
20
-31.7957458632
30
0.0000000000
10
16.7458638405
20
-32.2101478225
30
0.0000000000
10
16.8110680417
20
-32.4172588937
30
0.0000000000
11
16.2266448083
21
-30.5513723939
31
0.0000000000
11
16.4209501313
21
-31.1738624966
31
0.0000000000
11
16.6157595820
21
-31.7958300091
31
0.0000000000
11
16.8110680417
21
-32.4172588937
31
0.0000000000
0
SPLINE
5
317
100
AcDbEntity
8
0
100
AcDbSpline
62
7
6
CONTINUOUS
70
0
71
3
72
9
73
5
74
3
42
0.0000001000
43
0.0000001000
44
0.0000000001
12
-0.6949463194
22
-0.0002611423
32
0.0000000000
13
-0.6949463221
23
0.0002539371
33
0.0000000000
40
0.0000000000
40
0.0000000000
40
0.0000000000
40
0.0000000000
40
0.5024403827
40
1.0000000000
40
1.0000000000
40
1.0000000000
40
1.0000000000
10
22.6470757818
20
-31.7531211444
30
0.0000000000
10
22.5306860835
20
-31.7531648806
30
0.0000000000
10
22.2990372902
20
-31.7532033019
30
0.0000000000
10
22.0673885006
20
-31.7531561066
30
0.0000000000
10
21.9521294252
20
-31.7531139903
30
0.0000000000
11
22.6470757818
21
-31.7531211444
31
0.0000000000
11
22.2979066677
21
-31.7531818758
31
0.0000000000
11
21.9521294252
21
-31.7531139903
31
0.0000000000
0
SPLINE
5
318
100
AcDbEntity
8
0
100
AcDbSpline
62
7
6
CONTINUOUS
70
0
71
3
72
9
73
5
74
3
42
0.0000001000
43
0.0000001000
44
0.0000000001
12
0.0480189523
22
-1.7364586237
32
0.0000000000
13
0.0522857480
23
-1.7363343758
33
0.0000000000
40
0.0000000000
40
0.0000000000
40
0.0000000000
40
0.0000000000
40
0.7359450072
40
1.0000000000
40
1.0000000000
40
1.0000000000
40
1.0000000000
10
15.9990081459
20
-31.6506783124
30
0.0000000000
10
16.0107879153
20
-32.0766576638
30
0.0000000000
10
16.0273175873
20
-32.6554619651
30
0.0000000000
10
16.0445583918
20
-33.2342455584
30
0.0000000000
10
16.0491604961
20
-33.3870748121
30
0.0000000000
11
15.9990081459
21
-31.6506783124
31
0.0000000000
11
16.0355029345
21
-32.9285827193
31
0.0000000000
11
16.0491604961
21
-33.3870748121
31
0.0000000000
0
SPLINE
5
319
100
AcDbEntity
8
0
100
AcDbSpline
62
7
6
CONTINUOUS
70
0
71
3
72
9
73
5
74
3
42
0.0000001000
43
0.0000001000
44
0.0000000001
12
0.0517797655
22
-1.8873658083
32
0.0000000000
13
0.0568123936
23
-1.8872192769
33
0.0000000000
40
0.0000000000
40
0.0000000000
40
0.0000000000
40
0.0000000000
40
0.7600272553
40
1.0000000000
40
1.0000000000
40
1.0000000000
40
1.0000000000
10
15.9604550877
20
-31.5276311987
30
0.0000000000
10
15.9735730988
20
-32.0057810171
30
0.0000000000
10
15.9914705097
20
-32.6348843918
30
0.0000000000
10
16.0102066919
20
-33.2639633447
30
0.0000000000
10
16.0147511673
20
-33.4149237413
30
0.0000000000
11
15.9604550877
21
-31.5276311987
31
0.0000000000
11
16.0012626480
21
-32.9620383325
31
0.0000000000
11
16.0147511673
21
-33.4149237413
31
0.0000000000
0
SPLINE
5
31A
100
AcDbEntity
8
0
100
AcDbSpline
62
7
6
CONTINUOUS
70
0
71
3
72
9
73
5
74
3
42
0.0000001000
43
0.0000001000
44
0.0000000001
12
-0.0160209397
22
0.5832771700
32
0.0000000000
13
-0.0154331491
23
0.5832930258
33
0.0000000000
40
0.0000000000
40
0.0000000000
40
0.0000000000
40
0.0000000000
40
0.6041837082
40
1.0000000000
40
1.0000000000
40
1.0000000000
40
1.0000000000
10
21.9521294252
20
-31.7531139903
30
0.0000000000
10
21.9489028950
20
-31.6356451358
30
0.0000000000
10
21.9436207663
20
-31.4412178097
30
0.0000000000
10
21.9384369880
20
-31.2467878414
30
0.0000000000
10
21.9364007574
20
-31.1698288806
30
0.0000000000
11
21.9521294252
21
-31.7531139903
31
0.0000000000
11
21.9425560444
21
-31.4007045256
31
0.0000000000
11
21.9364007574
21
-31.1698288806
31
0.0000000000
0
SPLINE
5
31B
100
AcDbEntity
8
0
100
AcDbSpline
62
7
6
CONTINUOUS
70
0
71
3
72
8
73
4
74
2
42
0.0000001000
43
0.0000001000
44
0.0000000001
12
-0.0022853685
22
0.0863750808
32
0.0000000000
13
-0.0022722445
23
0.0863754262
33
0.0000000000
40
0.0000000000
40
0.0000000000
40
0.0000000000
40
0.0000000000
40
1.0000000000
40
1.0000000000
40
1.0000000000
40
1.0000000000
10
21.9364007574
20
-31.1698288806
30
0.0000000000
10
21.9356389679
20
-31.1410371870
30
0.0000000000
10
21.9348793609
20
-31.1122454358
30
0.0000000000
10
21.9341219461
20
-31.0834536270
30
0.0000000000
11
21.9364007574
21
-31.1698288806
31
0.0000000000
11
21.9341219461
21
-31.0834536270
31
0.0000000000
0
SPLINE
5
31C
100
AcDbEntity
8
0
100
AcDbSpline
62
7
6
CONTINUOUS
70
0
71
3
72
9
73
5
74
3
42
0.0000001000
43
0.0000001000
44
0.0000000001
12
-0.0736931657
22
-0.0672879718
32
0.0000000000
13
-0.0736930176
23
-0.0672881341
33
0.0000000000
40
0.0000000000
40
0.0000000000
40
0.0000000000
40
0.0000000000
40
0.5000430925
40
1.0000000000
40
1.0000000000
40
1.0000000000
40
1.0000000000
10
-41.5453137932
20
41.3436888404
30
0.0000000000
10
-41.5575970460
20
41.3324732119
30
0.0000000000
10
-41.5821614222
20
41.3100438744
30
0.0000000000
10
-41.6067257738
20
41.2876145100
30
0.0000000000
10
-41.6190068848
20
41.2764007875
30
0.0000000000
11
-41.5453137932
21
41.3436888404
31
0.0000000000
11
-41.5821635331
21
41.3100419346
31
0.0000000000
11
-41.6190068848
21
41.2764007875
31
0.0000000000
0
SPLINE
5
31D
100
AcDbEntity
8
0
100
AcDbSpline
62
7
6
CONTINUOUS
70
0
71
3
72
9
73
5
74
3
42
0.0000001000
43
0.0000001000
44
0.0000000001
12
0.5532313569
22
-0.0002100832
32
0.0000000000
13
0.5532312124
23
-0.0004516442
33
0.0000000000
40
0.0000000000
40
0.0000000000
40
0.0000000000
40
0.0000000000
40
0.4957533709
40
1.0000000000
40
1.0000000000
40
1.0000000000
40
1.0000000000
10
19.5113149425
20
-32.3088632722
30
0.0000000000
10
19.6027370459
20
-32.3088979887
30
0.0000000000
10
19.7871474892
20
-32.3089929590
30
0.0000000000
10
19.9715579060
20
-32.3091286762
30
0.0000000000
10
20.0645462307
20
-32.3092045895
30
0.0000000000
11
19.5113149425
21
-32.3088632722
31
0.0000000000
11
19.7855812372
21
-32.3090021668
31
0.0000000000
11
20.0645462307
21
-32.3092045895
31
0.0000000000
0
SPLINE
5
31E
100
AcDbEntity
8
0
100
AcDbSpline
62
7
6
CONTINUOUS
70
0
71
3
72
10
73
6
74
4
42
0.0000001000
43
0.0000001000
44
0.0000000001
12
-0.2528620567
22
-0.8643647579
32
0.0000000000
13
-0.2521677047
23
-0.8645675816
33
0.0000000000
40
0.0000000000
40
0.0000000000
40
0.0000000000
40
0.0000000000
40
0.3271553960
40
0.6604903446
40
1.0000000000
40
1.0000000000
40
1.0000000000
40
1.0000000000
10
19.7638240574
20
-31.4443953650
30
0.0000000000
10
19.7362489953
20
-31.5386558965
30
0.0000000000
10
19.6806044294
20
-31.7289651510
30
0.0000000000
10
19.5964345787
20
-32.0171210883
30
0.0000000000
10
19.5398527327
20
-32.2110202583
30
0.0000000000
10
19.5113149425
20
-32.3088632722
30
0.0000000000
11
19.7638240574
21
-31.4443953650
31
0.0000000000
11
19.6811376000
21
-31.7271882865
31
0.0000000000
11
19.5969669141
21
-32.0153454920
31
0.0000000000
11
19.5113149425
21
-32.3088632722
31
0.0000000000
0
SPLINE
5
31F
100
AcDbEntity
8
0
100
AcDbSpline
62
7
6
CONTINUOUS
70
0
71
3
72
9
73
5
74
3
42
0.0000001000
43
0.0000001000
44
0.0000000001
12
-0.1637410028
22
-0.5623548831
32
0.0000000000
13
-0.1634697763
23
-0.5624337852
33
0.0000000000
40
0.0000000000
40
0.0000000000
40
0.0000000000
40
0.0000000000
40
0.4936236463
40
1.0000000000
40
1.0000000000
40
1.0000000000
40
1.0000000000
10
19.3528705764
20
-32.8525211332
30
0.0000000000
10
19.3259284328
20
-32.9450516892
30
0.0000000000
10
19.2713704052
20
-33.1325098128
30
0.0000000000
10
19.2168591999
20
-33.3199815572
30
0.0000000000
10
19.1892667901
20
-33.4149159470
30
0.0000000000
11
19.3528705764
21
-32.8525211332
31
0.0000000000
11
19.2720775767
21
-33.1301225331
31
0.0000000000
11
19.1892667901
21
-33.4149159470
31
0.0000000000
0
SPLINE
5
320
100
AcDbEntity
8
0
100
AcDbSpline
62
9
6
CONTINUOUS
70
0
71
3
72
9
73
5
74
3
42
0.0000001000
43
0.0000001000
44
0.0000000001
12
0.0664020219
22
-2.2130158039
32
0.0000000000
13
0.0792979031
23
-2.2125914088
33
0.0000000000
40
0.0000000000
40
0.0000000000
40
0.0000000000
40
0.0000000000
40
0.5176964218
40
1.0000000000
40
1.0000000000
40
1.0000000000
40
1.0000000000
10
19.0891409522
20
-29.3361417552
30
0.0000000000
10
19.1005996486
20
-29.7180318762
30
0.0000000000
10
19.1239474538
20
-30.4556678003
30
0.0000000000
10
19.1494359123
20
-31.1932324494
30
0.0000000000
10
19.1621844665
20
-31.5489460340
30
0.0000000000
11
19.0891409522
21
-29.3361417552
31
0.0000000000
11
19.1253475146
21
-30.4817557308
31
0.0000000000
11
19.1621844665
21
-31.5489460340
31
0.0000000000
0
SPLINE
5
321
100
AcDbEntity
8
0
100
AcDbSpline
62
9
6
CONTINUOUS
70
0
71
3
72
8
73
4
74
2
42
0.0000001000
43
0.0000001000
44
0.0000000001
12
0.0011072870
22
-0.0335617017
32
0.0000000000
13
0.0011088850
23
-0.0335616480
33
0.0000000000
40
0.0000000000
40
0.0000000000
40
0.0000000000
40
0.0000000000
40
1.0000000000
40
1.0000000000
40
1.0000000000
40
1.0000000000
10
19.2257091414
20
-33.3800927535
30
0.0000000000
10
19.2260782370
20
-33.3912799874
30
0.0000000000
10
19.2264476002
20
-33.4024672124
30
0.0000000000
10
19.2268172285
20
-33.4136544284
30
0.0000000000
11
19.2257091414
21
-33.3800927535
31
0.0000000000
11
19.2268172285
21
-33.4136544284
31
0.0000000000
0
SPLINE
5
322
100
AcDbEntity
8
0
100
AcDbSpline
62
9
6
CONTINUOUS
70
0
71
3
72
10
73
6
74
4
42
0.0000001000
43
0.0000001000
44
0.0000000001
12
0.2966123120
22
-8.9773038651
32
0.0000000000
13
0.3783648122
23
-8.9742302231
33
0.0000000000
40
0.0000000000
40
0.0000000000
40
0.0000000000
40
0.0000000000
40
0.3345978028
40
0.6696947152
40
1.0000000000
40
1.0000000000
40
1.0000000000
40
1.0000000000
10
19.2268172285
20
-33.4136544284
30
0.0000000000
10
19.2598991711
20
-34.4149164777
30
0.0000000000
10
19.3303646060
20
-36.4187912449
30
0.0000000000
10
19.4387329829
20
-39.4109008119
30
0.0000000000
10
19.5197250105
20
-41.4015200456
30
0.0000000000
10
19.5613836428
20
-42.3895986022
30
0.0000000000
11
19.2268172285
21
-33.4136544284
31
0.0000000000
11
19.3308383778
21
-36.4172791255
31
0.0000000000
11
19.4415052122
21
-39.4251524071
31
0.0000000000
11
19.5613836428
21
-42.3895986022
31
0.0000000000
0
SPLINE
5
323
100
AcDbEntity
8
0
100
AcDbSpline
62
7
6
CONTINUOUS
70
0
71
3
72
10
73
6
74
4
42
0.0000001000
43
0.0000001000
44
0.0000000001
12
0.9897921314
22
-2.8667672678
32
0.0000000000
13
1.0027956507
23
-2.8622445588
33
0.0000000000
40
0.0000000000
40
0.0000000000
40
0.0000000000
40
0.0000000000
40
0.3208556230
40
0.6542040871
40
1.0000000000
40
1.0000000000
40
1.0000000000
40
1.0000000000
10
20.0254719790
20
-30.5516815907
30
0.0000000000
10
20.1313321026
20
-30.8582877233
30
0.0000000000
10
20.3475931620
20
-31.4832934470
30
0.0000000000
10
20.6795780863
20
-32.4381711947
30
0.0000000000
10
20.9060612251
20
-33.0863165403
30
0.0000000000
10
21.0216487710
20
-33.4162340304
30
0.0000000000
11
20.0254719790
21
-30.5516815907
31
0.0000000000
11
20.3436858506
21
-31.4712810192
31
0.0000000000
11
20.6756908435
21
-32.4261999948
31
0.0000000000
11
21.0216487710
21
-33.4162340304
31
0.0000000000
0
SPLINE
5
324
100
AcDbEntity
8
0
100
AcDbSpline
62
7
6
CONTINUOUS
70
0
71
3
72
9
73
5
74
3
42
0.0000001000
43
0.0000001000
44
0.0000000001
12
0.5709086135
22
-0.0001612027
32
0.0000000000
13
0.5709085271
23
-0.0003529998
33
0.0000000000
40
0.0000000000
40
0.0000000000
40
0.0000000000
40
0.0000000000
40
0.4948072434
40
1.0000000000
40
1.0000000000
40
1.0000000000
40
1.0000000000
10
19.4545634073
20
-30.5514143861
30
0.0000000000
10
19.5487266464
20
-30.5514409742
30
0.0000000000
10
19.7390295121
20
-30.5515152480
30
0.0000000000
10
19.9293323615
20
-30.5516221464
30
0.0000000000
10
20.0254719790
20
-30.5516815907
30
0.0000000000
11
19.4545634073
21
-30.5514143861
31
0.0000000000
11
19.7370531152
21
-30.5515224643
31
0.0000000000
11
20.0254719790
21
-30.5516815907
31
0.0000000000
0
SPLINE
5
325
100
AcDbEntity
8
0
100
AcDbSpline
62
7
6
CONTINUOUS
70
0
71
3
72
9
73
5
74
3
42
0.0000001000
43
0.0000001000
44
0.0000000001
12
0.1533194740
22
0.5275224434
32
0.0000000000
13
0.1535584402
23
0.5274529320
33
0.0000000000
40
0.0000000000
40
0.0000000000
40
0.0000000000
40
0.0000000000
40
0.5399666547
40
1.0000000000
40
1.0000000000
40
1.0000000000
40
1.0000000000
10
19.2236761191
20
-33.3870670177
30
0.0000000000
10
19.2512719203
20
-33.2921188413
30
0.0000000000
10
19.3023983570
20
-33.1162838229
30
0.0000000000
10
19.3535661010
20
-32.9404608207
30
0.0000000000
10
19.3771134353
20
-32.8595788418
30
0.0000000000
11
19.2236761191
21
-33.3870670177
31
0.0000000000
11
19.3064971060
21
-33.1022322514
31
0.0000000000
11
19.3771134353
21
-32.8595788418
31
0.0000000000
0
SPLINE
5
326
100
AcDbEntity
8
0
100
AcDbSpline
62
7
6
CONTINUOUS
70
0
71
3
72
9
73
5
74
3
42
0.0000001000
43
0.0000001000
44
0.0000000001
12
0.2291717835
22
0.0000860845
32
0.0000000000
13
0.1792696535
23
0.1448824641
33
0.0000000000
40
0.0000000000
40
0.0000000000
40
0.0000000000
40
0.0000000000
40
0.5385845138
40
1.0000000000
40
1.0000000000
40
1.0000000000
40
1.0000000000
10
22.6126794950
20
-31.7809615377
30
0.0000000000
10
22.6538222862
20
-31.7809460831
30
0.0000000000
10
22.7309405140
20
-31.7670200854
30
0.0000000000
10
22.7984005820
20
-31.7282355167
30
0.0000000000
10
22.8259731801
20
-31.7059518458
30
0.0000000000
11
22.6126794950
21
-31.7809615377
31
0.0000000000
11
22.7340900786
21
-31.7587346225
31
0.0000000000
11
22.8259731801
21
-31.7059518458
31
0.0000000000
0
SPLINE
5
327
100
AcDbEntity
8
0
100
AcDbSpline
62
7
6
CONTINUOUS
70
0
71
3
72
10
73
6
74
4
42
0.0000001000
43
0.0000001000
44
0.0000000001
12
0.6949468105
22
-0.0002531668
32
0.0000000000
13
0.6949468076
23
0.0002610449
33
0.0000000000
40
0.0000000000
40
0.0000000000
40
0.0000000000
40
0.0000000000
40
0.3312373391
40
0.6645709200
40
1.0000000000
40
1.0000000000
40
1.0000000000
40
1.0000000000
10
21.9177326098
20
-31.7809527918
30
0.0000000000
10
21.9944633872
20
-31.7809807446
30
0.0000000000
10
22.1484105410
20
-31.7810202824
30
0.0000000000
10
22.3800594952
20
-31.7810252502
30
0.0000000000
10
22.5349776629
20
-31.7809887399
30
0.0000000000
10
22.6126794523
20
-31.7809595526
30
0.0000000000
11
21.9177326098
21
-31.7809527918
31
0.0000000000
11
22.1479249500
21
-31.7810111557
31
0.0000000000
11
22.3795740742
21
-31.7810153439
31
0.0000000000
11
22.6126794523
21
-31.7809595526
31
0.0000000000
0
SPLINE
5
328
100
AcDbEntity
8
0
100
AcDbSpline
62
7
6
CONTINUOUS
70
0
71
3
72
10
73
6
74
4
42
0.0000001000
43
0.0000001000
44
0.0000000001
12
0.0183124698
22
-0.6975176418
32
0.0000000000
13
0.0191540825
23
-0.6974950382
33
0.0000000000
40
0.0000000000
40
0.0000000000
40
0.0000000000
40
0.0000000000
40
0.3286699073
40
0.6620052496
40
1.0000000000
40
1.0000000000
40
1.0000000000
40
1.0000000000
10
21.8989966269
20
-31.0834464351
30
0.0000000000
10
21.9010028795
20
-31.1598641214
30
0.0000000000
10
21.9050749510
20
-31.3137834205
30
0.0000000000
10
21.9113195680
20
-31.5462855767
30
0.0000000000
10
21.9155746167
20
-31.7023695714
30
0.0000000000
10
21.9177326098
20
-31.7809527918
30
0.0000000000
11
21.8989966269
21
-31.0834464351
31
0.0000000000
11
21.9050615104
21
-31.3126982782
31
0.0000000000
11
21.9113059668
21
-31.5452018353
31
0.0000000000
11
21.9177326098
21
-31.7809527918
31
0.0000000000
0
SPLINE
5
329
100
AcDbEntity
8
0
100
AcDbSpline
62
7
6
CONTINUOUS
70
0
71
3
72
9
73
5
74
3
42
0.0000001000
43
0.0000001000
44
0.0000000001
12
-0.1366833988
22
-0.0962851083
32
0.0000000000
13
-0.1658832190
23
-0.0200081838
33
0.0000000000
40
0.0000000000
40
0.0000000000
40
0.0000000000
40
0.0000000000
40
0.5040186658
40
1.0000000000
40
1.0000000000
40
1.0000000000
40
1.0000000000
10
22.8427093037
20
-31.6914504584
30
0.0000000000
10
22.8197456423
20
-31.7076269557
30
0.0000000000
10
22.7701453134
20
-31.7340164184
30
0.0000000000
10
22.7154514022
20
-31.7473389028
30
0.0000000000
10
22.6880264088
20
-31.7506467980
30
0.0000000000
11
22.8427093037
21
-31.6914504584
31
0.0000000000
11
22.7684527118
21
-31.7309090518
31
0.0000000000
11
22.6880264088
21
-31.7506467980
31
0.0000000000
0
SPLINE
5
32A
100
AcDbEntity
8
0
100
AcDbSpline
62
7
6
CONTINUOUS
70
0
71
3
72
8
73
4
74
2
42
0.0000001000
43
0.0000001000
44
0.0000000001
12
-0.0408472368
22
-0.0049268336
32
0.0000000000
13
-0.0409370446
23
-0.0000153831
33
0.0000000000
40
0.0000000000
40
0.0000000000
40
0.0000000000
40
0.0000000000
40
1.0000000000
40
1.0000000000
40
1.0000000000
40
1.0000000000
10
22.6880264088
20
-31.7506467980
30
0.0000000000
10
22.6744106632
20
-31.7522890759
30
0.0000000000
10
22.6607215060
20
-31.7531180018
30
0.0000000000
10
22.6470758245
20
-31.7531231295
30
0.0000000000
11
22.6880264088
21
-31.7506467980
31
0.0000000000
11
22.6470758245
21
-31.7531231295
31
0.0000000000
0
SPLINE
5
32B
100
AcDbEntity
8
0
100
AcDbSpline
62
7
6
CONTINUOUS
70
0
71
3
72
10
73
6
74
4
42
0.0000001000
43
0.0000001000
44
0.0000000001
12
1.3375478876
22
-0.0006860842
32
0.0000000000
13
1.3375478208
23
0.0008058724
33
0.0000000000
40
0.0000000000
40
0.0000000000
40
0.0000000000
40
0.0000000000
40
0.3357819445
40
0.6691320555
40
1.0000000000
40
1.0000000000
40
1.0000000000
40
1.0000000000
10
21.3222171627
20
-30.5525331806
30
0.0000000000
10
21.4719253062
20
-30.5526099722
30
0.0000000000
10
21.7702573830
20
-30.5527277466
30
0.0000000000
10
22.2161067460
20
-30.5527520405
30
0.0000000000
10
22.5122479312
20
-30.5526476967
30
0.0000000000
10
22.6597651639
20
-30.5525588176
30
0.0000000000
11
21.3222171627
21
-30.5525331806
31
0.0000000000
11
21.7713416203
21
-30.5527026102
31
0.0000000000
11
22.2172134154
21
-30.5527217552
31
0.0000000000
11
22.6597651639
21
-30.5525588176
31
0.0000000000
0
SPLINE
5
32C
100
AcDbEntity
8
0
100
AcDbSpline
62
7
6
CONTINUOUS
70
0
71
3
72
10
73
6
74
4
42
0.0000001000
43
0.0000001000
44
0.0000000001
12
-1.0028228737
22
2.8622271362
32
0.0000000000
13
-0.9897987052
23
2.8667571258
33
0.0000000000
40
0.0000000000
40
0.0000000000
40
0.0000000000
40
0.0000000000
40
0.3457511399
40
0.6790995742
40
1.0000000000
40
1.0000000000
40
1.0000000000
40
1.0000000000
10
21.0560590636
20
-33.3883843212
30
0.0000000000
10
20.9404833464
20
-33.0585115562
30
0.0000000000
10
20.7140097806
20
-32.4104126274
30
0.0000000000
10
20.3820189908
20
-31.4555395440
30
0.0000000000
10
20.1657407954
20
-30.8304935699
30
0.0000000000
10
20.0598651867
20
-30.5238457091
30
0.0000000000
11
21.0560590636
21
-33.3883843212
31
0.0000000000
11
20.7101376689
21
-32.3984840857
31
0.0000000000
11
20.3781268636
21
-31.4435698526
31
0.0000000000
11
20.0598651867
21
-30.5238457091
31
0.0000000000
0
SPLINE
5
32D
100
AcDbEntity
8
0
100
AcDbSpline
62
7
6
CONTINUOUS
70
0
71
3
72
9
73
5
74
3
42
0.0000001000
43
0.0000001000
44
0.0000000001
12
-0.5709085692
22
0.0003530374
32
0.0000000000
13
-0.5709086557
23
0.0001611497
33
0.0000000000
40
0.0000000000
40
0.0000000000
40
0.0000000000
40
0.0000000000
40
0.5052110731
40
1.0000000000
40
1.0000000000
40
1.0000000000
40
1.0000000000
10
20.0598651867
20
-30.5238457091
30
0.0000000000
10
19.9637220764
20
-30.5237862563
30
0.0000000000
10
19.7734192130
20
-30.5236793659
30
0.0000000000
10
19.5831163333
20
-30.5236051170
30
0.0000000000
10
19.4889565729
20
-30.5235785386
30
0.0000000000
11
20.0598651867
21
-30.5238457091
31
0.0000000000
11
19.7714358446
21
-30.5236865832
31
0.0000000000
11
19.4889565729
21
-30.5235785386
31
0.0000000000
0
SPLINE
5
32E
100
AcDbEntity
8
0
100
AcDbSpline
62
7
6
CONTINUOUS
70
0
71
3
72
10
73
6
74
4
42
0.0000001000
43
0.0000001000
44
0.0000000001
12
0.0312786359
22
-1.1062485288
32
0.0000000000
13
0.0332124463
23
-1.1061921596
33
0.0000000000
40
0.0000000000
40
0.0000000000
40
0.0000000000
40
0.0000000000
40
0.3274071941
40
0.6607440813
40
1.0000000000
40
1.0000000000
40
1.0000000000
40
1.0000000000
10
21.9404475731
20
-32.3107891079
30
0.0000000000
10
21.9438611899
20
-32.4315203502
30
0.0000000000
10
21.9508223758
20
-32.6751673727
30
0.0000000000
10
21.9615723202
20
-33.0439076053
30
0.0000000000
10
21.9689463530
20
-33.2919154064
30
0.0000000000
10
21.9727021927
20
-33.4170094855
30
0.0000000000
11
21.9404475731
21
-32.3107891079
31
0.0000000000
11
21.9507947150
21
-32.6729798137
31
0.0000000000
11
21.9615439858
21
-33.0417239821
31
0.0000000000
11
21.9727021927
21
-33.4170094855
31
0.0000000000
0
SPLINE
5
32F
100
AcDbEntity
8
0
100
AcDbSpline
62
7
6
CONTINUOUS
70
0
71
3
72
10
73
6
74
4
42
0.0000001000
43
0.0000001000
44
0.0000000001
12
0.1973407463
22
0.6766019433
32
0.0000000000
13
0.1977616158
23
0.6764790516
33
0.0000000000
40
0.0000000000
40
0.0000000000
40
0.0000000000
40
0.0000000000
40
0.4338432097
40
0.8597796483
40
1.0000000000
40
1.0000000000
40
1.0000000000
40
1.0000000000
10
19.5457160817
20
-32.2810209713
30
0.0000000000
10
19.5742543960
20
-32.1831745851
30
0.0000000000
10
19.6308362441
20
-31.9892724445
30
0.0000000000
10
19.6967058072
20
-31.7637645298
30
0.0000000000
10
19.7340213748
20
-31.6360984334
30
0.0000000000
10
19.7432647759
20
-31.6044797232
30
0.0000000000
11
19.5457160817
21
-32.2810209713
31
0.0000000000
11
19.6313696895
21
-31.9874930925
31
0.0000000000
11
19.7155388570
21
-31.6993371061
31
0.0000000000
11
19.7432647759
21
-31.6044797232
31
0.0000000000
0
SPLINE
5
330
100
AcDbEntity
8
0
100
AcDbSpline
62
7
6
CONTINUOUS
70
0
71
3
72
8
73
4
74
2
42
0.0000001000
43
0.0000001000
44
0.0000000001
12
0.0347993852
22
0.1190375342
32
0.0000000000
13
0.0348130594
23
0.1190335356
33
0.0000000000
40
0.0000000000
40
0.0000000000
40
0.0000000000
40
0.0000000000
40
1.0000000000
40
1.0000000000
40
1.0000000000
40
1.0000000000
10
19.7432647759
20
-31.6044797232
30
0.0000000000
10
19.7548645709
20
-31.5648005452
30
0.0000000000
10
19.7664666255
20
-31.5251220277
30
0.0000000000
10
19.7780709786
20
-31.4854441825
30
0.0000000000
11
19.7432647759
21
-31.6044797232
31
0.0000000000
11
19.7780709786
21
-31.4854441825
31
0.0000000000
0
SPLINE
5
331
100
AcDbEntity
8
0
100
AcDbSpline
62
7
6
CONTINUOUS
70
0
71
3
72
8
73
4
74
2
42
0.0000001000
43
0.0000001000
44
0.0000000001
12
-0.1423977602
22
0.0001124429
32
0.0000000000
13
-0.1423977704
23
0.0000988739
33
0.0000000000
40
0.0000000000
40
0.0000000000
40
0.0000000000
40
0.0000000000
40
1.0000000000
40
1.0000000000
40
1.0000000000
40
1.0000000000
10
20.0548344537
20
-32.2813265252
30
0.0000000000
10
20.0073685336
20
-32.2812890443
30
0.0000000000
10
19.9599026119
20
-32.2812536339
30
0.0000000000
10
19.9124366884
20
-32.2812206759
30
0.0000000000
11
20.0548344537
21
-32.2813265252
31
0.0000000000
11
19.9124366884
21
-32.2812206759
31
0.0000000000
0
SPLINE
5
332
100
AcDbEntity
8
0
100
AcDbSpline
62
7
6
CONTINUOUS
70
0
71
3
72
9
73
5
74
3
42
0.0000001000
43
0.0000001000
44
0.0000000001
12
-0.3667205740
22
0.0002546325
32
0.0000000000
13
-0.3667206354
23
0.0001390391
33
0.0000000000
40
0.0000000000
40
0.0000000000
40
0.0000000000
40
0.0000000000
40
0.2521479748
40
1.0000000000
40
1.0000000000
40
1.0000000000
40
1.0000000000
10
19.9124366884
20
-32.2812206759
30
0.0000000000
10
19.8816140717
20
-32.2811992742
30
0.0000000000
10
19.7593738775
20
-32.2811184979
30
0.0000000000
10
19.6371336716
20
-32.2810556315
30
0.0000000000
10
19.5457160817
20
-32.2810209713
30
0.0000000000
11
19.9124366884
21
-32.2812206759
31
0.0000000000
11
19.8199688362
21
-32.2811596777
31
0.0000000000
11
19.5457160817
21
-32.2810209713
31
0.0000000000
0
SPLINE
5
333
100
AcDbEntity
8
0
100
AcDbSpline
62
7
6
CONTINUOUS
70
0
71
3
72
10
73
6
74
4
42
0.0000001000
43
0.0000001000
44
0.0000000001
12
0.6414474499
22
-1.1753733599
32
0.0000000000
13
0.6443341935
23
-1.1737933435
33
0.0000000000
40
0.0000000000
40
0.0000000000
40
0.0000000000
40
0.0000000000
40
0.3296483842
40
0.6629844598
40
1.0000000000
40
1.0000000000
40
1.0000000000
40
1.0000000000
10
23.0450455486
20
-32.2417492553
30
0.0000000000
10
23.1155295871
20
-32.3709025649
30
0.0000000000
10
23.2573916397
20
-32.6305964359
30
0.0000000000
10
23.4716850916
20
-33.0221265642
30
0.0000000000
10
23.6155525705
20
-33.2844713588
30
0.0000000000
10
23.6879361160
20
-33.4163335580
30
0.0000000000
11
23.0450455486
21
-32.2417492553
31
0.0000000000
11
23.2566547745
21
-32.6291234014
31
0.0000000000
11
23.4709498959
21
-33.0206567512
31
0.0000000000
11
23.6879361160
21
-33.4163335580
31
0.0000000000
0
SPLINE
5
334
100
AcDbEntity
8
0
100
AcDbSpline
62
7
6
CONTINUOUS
70
0
71
3
72
17
73
13
74
11
42
0.0000001000
43
0.0000001000
44
0.0000000001
12
2.1711260535
22
0.0013081032
32
0.0000000000
13
-1.6936145016
23
-1.3704281916
33
0.0000000000
40
0.0000000000
40
0.0000000000
40
0.0000000000
40
0.0000000000
40
0.0948628331
40
0.1887212725
40
0.2849361574
40
0.3854762009
40
0.4901160514
40
0.5951276843
40
0.6985926102
40
0.8010980279
40
0.9032232797
40
1.0000000000
40
1.0000000000
40
1.0000000000
40
1.0000000000
10
22.6597651198
20
-30.5525569476
30
0.0000000000
10
22.7284181759
20
-30.5525155842
30
0.0000000000
10
22.8655339527
20
-30.5686798135
30
0.0000000000
10
23.0609459037
20
-30.6396541161
30
0.0000000000
10
23.2388038588
20
-30.7554029027
30
0.0000000000
10
23.3903722944
20
-30.9151491514
30
0.0000000000
10
23.5020328049
20
-31.1126178242
30
0.0000000000
10
23.5614758108
20
-31.3338370607
30
0.0000000000
10
23.5632069830
20
-31.5613516959
30
0.0000000000
10
23.5075842899
20
-31.7798411803
30
0.0000000000
10
23.3999608363
20
-31.9724734843
30
0.0000000000
10
23.2992134507
20
-32.0773498056
30
0.0000000000
10
23.2445792984
20
-32.1215583208
30
0.0000000000
11
22.6597651198
21
-30.5525569476
31
0.0000000000
11
22.8643209525
21
-30.5765591516
31
0.0000000000
11
23.0559093574
21
-30.6459823208
31
0.0000000000
11
23.2310227921
21
-30.7598782071
31
0.0000000000
11
23.3812696450
21
-30.9182268377
31
0.0000000000
11
23.4930135879
21
-31.1160321141
31
0.0000000000
11
23.5520220778
21
-31.3362571115
31
0.0000000000
11
23.5535398603
21
-31.5608874210
31
0.0000000000
11
23.4984510728
21
-31.7765137588
31
0.0000000000
11
23.3902146219
21
-31.9700277380
31
0.0000000000
11
23.2445792984
21
-32.1215583208
31
0.0000000000
0
SPLINE
5
335
100
AcDbEntity
8
0
100
AcDbSpline
62
9
6
CONTINUOUS
70
0
71
3
72
15
73
11
74
9
42
0.0000001000
43
0.0000001000
44
0.0000000001
12
15.2185127721
22
-0.0000071706
32
0.0000000000
13
15.2033920228
23
0.6782344679
33
0.0000000000
40
0.0000000000
40
0.0000000000
40
0.0000000000
40
0.0000000000
40
0.1085240025
40
0.2509863417
40
0.3947995790
40
0.5396953648
40
0.6853966245
40
0.8316177830
40
0.9780649184
40
1.0000000000
40
1.0000000000
40
1.0000000000
40
1.0000000000
10
25.2416207375
20
-1.7076485722
30
0.0000000000
10
25.7921453769
20
-1.7076488316
30
0.0000000000
10
27.0653601360
20
-1.7044685474
30
0.0000000000
10
29.0680610826
20
-1.6880838133
30
0.0000000000
10
31.2551062982
20
-1.6562383196
30
0.0000000000
10
33.4583313190
20
-1.6101167301
30
0.0000000000
10
35.6734275361
20
-1.5495839768
30
0.0000000000
10
37.8959528959
20
-1.4745265320
30
0.0000000000
10
39.4906039327
20
-1.4102694168
30
0.0000000000
10
40.3439497336
20
-1.3726269689
30
0.0000000000
10
40.4551122820
20
-1.3676679261
30
0.0000000000
11
25.2416207375
21
-1.7076485722
31
0.0000000000
11
26.8931895595
21
-1.7035457340
31
0.0000000000
11
29.0611822382
21
-1.6858459484
31
0.0000000000
11
31.2495741753
21
-1.6540035053
31
0.0000000000
11
33.4541897148
21
-1.6078610117
31
0.0000000000
11
35.6707185270
21
-1.5472821925
31
0.0000000000
11
37.8947184615
21
-1.4721523591
31
0.0000000000
11
40.1216172766
21
-1.3823791359
31
0.0000000000
11
40.4551122820
21
-1.3676679261
31
0.0000000000
0
SPLINE
5
336
100
AcDbEntity
8
0
100
AcDbSpline
62
9
6
CONTINUOUS
70
0
71
3
72
13
73
9
74
7
42
0.0000001000
43
0.0000001000
44
0.0000000001
12
2.8948350972
22
1.9936827783
32
0.0000000000
13
-0.0933362560
23
3.5099237961
33
0.0000000000
40
0.0000000000
40
0.0000000000
40
0.0000000000
40
0.0000000000
40
0.0639496552
40
0.2459291309
40
0.4425029052
40
0.6428573445
40
0.8338716805
40
1.0000000000
40
1.0000000000
40
1.0000000000
40
1.0000000000
10
40.6910894108
20
-42.3417482536
30
0.0000000000
10
40.7527973129
20
-42.2992498115
30
0.0000000000
10
40.9850622064
20
-42.1284710700
30
0.0000000000
10
41.3647942868
20
-41.7723034203
30
0.0000000000
10
41.7675174033
20
-41.2221343973
30
0.0000000000
10
42.0594275887
20
-40.5938558130
30
0.0000000000
10
42.2145382552
20
-39.9559941976
30
0.0000000000
10
42.2387441448
20
-39.5364203669
30
0.0000000000
10
42.2335755464
20
-39.3420544529
30
0.0000000000
11
40.6910894108
21
-42.3417482536
31
0.0000000000
11
40.8721553654
21
-42.2085966225
31
0.0000000000
11
41.3380557092
21
-41.7713248421
31
0.0000000000
11
41.7454983973
21
-41.2142158196
31
0.0000000000
11
42.0416776387
21
-40.5761262302
31
0.0000000000
11
42.1999621463
21
-39.9243890180
31
0.0000000000
11
42.2335755464
21
-39.3420544529
31
0.0000000000
0
SPLINE
5
337
100
AcDbEntity
8
0
100
AcDbSpline
62
7
6
CONTINUOUS
70
0
71
3
72
10
73
6
74
4
42
0.0000001000
43
0.0000001000
44
0.0000000001
12
0.4300630633
22
1.6777098435
32
0.0000000000
13
0.4329540376
23
1.6769661463
33
0.0000000000
40
0.0000000000
40
0.0000000000
40
0.0000000000
40
0.0000000000
40
0.3746762508
40
0.7497435226
40
1.0000000000
40
1.0000000000
40
1.0000000000
40
1.0000000000
10
17.1604005854
20
-33.3870669257
30
0.0000000000
10
17.2141120575
20
-33.1775342477
30
0.0000000000
10
17.3217269961
20
-32.7582850511
30
0.0000000000
10
17.4656243007
20
-32.1991878598
30
0.0000000000
10
17.5557947028
20
-31.8496195526
30
0.0000000000
10
17.5919112203
20
-31.7097290058
30
0.0000000000
11
17.1604005854
21
-33.3870669257
31
0.0000000000
11
17.3217385833
21
-32.7585211128
31
0.0000000000
11
17.4836518718
21
-32.1294239235
31
0.0000000000
11
17.5919112203
21
-31.7097290058
31
0.0000000000
0
SPLINE
5
338
100
AcDbEntity
8
0
100
AcDbSpline
62
9
6
CONTINUOUS
70
0
71
3
72
12
73
8
74
6
42
0.0000001000
43
0.0000001000
44
0.0000000001
12
0.0460070524
22
-0.9144134915
32
0.0000000000
13
0.9404280158
23
-0.0407825109
33
0.0000000000
40
0.0000000000
40
0.0000000000
40
0.0000000000
40
0.0000000000
40
0.3068893237
40
0.5738332627
40
0.7841943880
40
0.9341748303
40
1.0000000000
40
1.0000000000
40
1.0000000000
40
1.0000000000
10
-40.4723035698
20
-42.1924691657
30
0.0000000000
10
-40.4675972120
20
-42.2860104117
30
0.0000000000
10
-40.4497029723
20
-42.4604852196
30
0.0000000000
10
-40.3950343900
20
-42.6950636469
30
0.0000000000
10
-40.3184837065
20
-42.8703006257
30
0.0000000000
10
-40.2311612210
20
-42.9754059268
30
0.0000000000
10
-40.1630750498
20
-42.9926335045
30
0.0000000000
10
-40.1424404385
20
-42.9935283430
30
0.0000000000
11
-40.4723035698
21
-42.1924691657
31
0.0000000000
11
-40.4421336517
21
-42.4718234329
31
0.0000000000
11
-40.3832784697
21
-42.7090370737
31
0.0000000000
11
-40.3009386247
21
-42.8831492518
31
0.0000000000
11
-40.2023898862
21
-42.9787749461
31
0.0000000000
11
-40.1424404385
21
-42.9935283430
31
0.0000000000
0
SPLINE
5
339
100
AcDbEntity
8
0
100
AcDbSpline
62
9
6
CONTINUOUS
70
0
71
3
72
30
73
26
74
24
42
0.0000001000
43
0.0000001000
44
0.0000000001
12
18.6602160351
22
-0.6642055969
32
0.0000000000
13
18.6720333288
23
0.0017091409
33
0.0000000000
40
0.0000000000
40
0.0000000000
40
0.0000000000
40
0.0000000000
40
0.0207411768
40
0.0434785624
40
0.0684845234
40
0.0960128888
40
0.1263091101
40
0.1596079406
40
0.1961149630
40
0.2359377936
40
0.2791257906
40
0.3257896263
40
0.3764570973
40
0.4318165388
40
0.4919035011
40
0.5559260921
40
0.6222225680
40
0.6870942619
40
0.7469590681
40
0.8010651102
40
0.8497718895
40
0.8935361676
40
0.9328345324
40
0.9681515865
40
1.0000000000
40
1.0000000000
40
1.0000000000
40
1.0000000000
10
-40.4723035698
20
-42.1924691657
30
0.0000000000
10
-40.3432919566
20
-42.1970613009
30
0.0000000000
10
-40.0728454298
20
-42.2064993748
30
0.0000000000
10
-39.6468331620
20
-42.2206930897
30
0.0000000000
10
-39.1785718639
20
-42.2354022100
30
0.0000000000
10
-38.6632573348
20
-42.2506002421
30
0.0000000000
10
-38.0963150286
20
-42.2660830383
30
0.0000000000
10
-37.4734702662
20
-42.2815628042
30
0.0000000000
10
-36.7913097795
20
-42.2968065563
30
0.0000000000
10
-36.0475785301
20
-42.3117370338
30
0.0000000000
10
-35.2406069943
20
-42.3259854768
30
0.0000000000
10
-34.3661162508
20
-42.3394495766
30
0.0000000000
10
-33.4158505844
20
-42.3520796610
30
0.0000000000
10
-32.3820197663
20
-42.3636386564
30
0.0000000000
10
-31.2650469636
20
-42.3736685163
30
0.0000000000
10
-30.0799855677
20
-42.3819240475
30
0.0000000000
10
-28.8651288439
20
-42.3876826489
30
0.0000000000
10
-27.6761418775
20
-42.3911264049
30
0.0000000000
10
-26.5630243898
20
-42.3925352848
30
0.0000000000
10
-25.5505168877
20
-42.3925699719
30
0.0000000000
10
-24.6382195296
20
-42.3919979395
30
0.0000000000
10
-23.8180856326
20
-42.3911271664
30
0.0000000000
10
-23.0812895194
20
-42.3903223397
30
0.0000000000
10
-22.4186576532
20
-42.3897760724
30
0.0000000000
10
-22.0006190439
20
-42.3896167983
30
0.0000000000
10
-21.8023941646
20
-42.3895986538
30
0.0000000000
11
-40.4723035698
21
-42.1924691657
31
0.0000000000
11
-40.0852589809
21
-42.2059688873
31
0.0000000000
11
-39.6609408198
21
-42.2200947008
31
0.0000000000
11
-39.1942592788
21
-42.2347672962
31
0.0000000000
11
-38.6804719529
21
-42.2499145045
31
0.0000000000
11
-38.1149905912
21
-42.2653524687
31
0.0000000000
11
-37.4934261152
21
-42.2808190411
31
0.0000000000
11
-36.8119370466
21
-42.2960988424
31
0.0000000000
11
-36.0685137352
21
-42.3110292410
31
0.0000000000
11
-35.2622325012
21
-42.3253116561
31
0.0000000000
11
-34.3910277921
21
-42.3387728866
31
0.0000000000
11
-33.4450469991
21
-42.3513735959
31
0.0000000000
11
-32.4114384394
21
-42.3629460504
31
0.0000000000
11
-31.2895384785
21
-42.3730840960
31
0.0000000000
11
-30.0941353735
21
-42.3813896772
31
0.0000000000
11
-28.8562596620
21
-42.3873401621
31
0.0000000000
11
-27.6449783824
21
-42.3908742504
31
0.0000000000
11
-26.5271816812
21
-42.3923396407
31
0.0000000000
11
-25.5169118629
21
-42.3924539302
31
0.0000000000
11
-24.6074574162
21
-42.3919092359
31
0.0000000000
11
-23.7902897592
21
-42.3910932643
31
0.0000000000
11
-23.0565097767
21
-42.3903297889
31
0.0000000000
11
-22.3970687676
21
-42.3898095227
31
0.0000000000
11
-21.8023941646
21
-42.3895986538
31
0.0000000000
0
SPLINE
5
33A
100
AcDbEntity
8
0
100
AcDbSpline
62
9
6
CONTINUOUS
70
0
71
3
72
11
73
7
74
5
42
0.0000001000
43
0.0000001000
44
0.0000000001
12
-0.5912495506
22
0.0274259102
32
0.0000000000
13
-0.0699358197
23
0.6441917073
33
0.0000000000
40
0.0000000000
40
0.0000000000
40
0.0000000000
40
0.0000000000
40
0.4444402233
40
0.7735295045
40
0.9606679618
40
1.0000000000
40
1.0000000000
40
1.0000000000
40
1.0000000000
10
-43.0960647579
20
-39.4885617434
30
0.0000000000
10
-43.1836564520
20
-39.4844986842
30
0.0000000000
10
-43.3402839833
20
-39.4784189812
30
0.0000000000
10
-43.5147216621
20
-39.4343656114
30
0.0000000000
10
-43.6411164770
20
-39.4252131599
30
0.0000000000
10
-43.6593976420
20
-39.3744020248
30
0.0000000000
10
-43.6603145481
20
-39.3659562339
30
0.0000000000
11
-43.0960647579
21
-39.4885617434
31
0.0000000000
11
-43.3583025533
21
-39.4678094284
31
0.0000000000
11
-43.5501325836
21
-39.4340203923
31
0.0000000000
11
-43.6520450215
21
-39.3906311076
31
0.0000000000
11
-43.6603145481
21
-39.3659562339
31
0.0000000000
0
SPLINE
5
33B
100
AcDbEntity
8
0
100
AcDbSpline
62
9
6
CONTINUOUS
70
0
71
3
72
18
73
14
74
12
42
0.0000001000
43
0.0000001000
44
0.0000000001
12
0.1288287898
22
-4.1297178103
32
0.0000000000
13
4.1291128833
23
-0.1469450467
33
0.0000000000
40
0.0000000000
40
0.0000000000
40
0.0000000000
40
0.0000000000
40
0.1031989794
40
0.2283725516
40
0.3552428934
40
0.4707851279
40
0.5734284279
40
0.6641807800
40
0.7452589708
40
0.8189484809
40
0.8861894321
40
0.9467607493
40
1.0000000000
40
1.0000000000
40
1.0000000000
40
1.0000000000
10
-43.0960647579
20
-39.4885617434
30
0.0000000000
10
-43.0916330913
20
-39.6306226311
30
0.0000000000
10
-43.0567183910
20
-39.9446817994
30
0.0000000000
10
-42.9199938590
20
-40.4173139549
30
0.0000000000
10
-42.6916940529
20
-40.8723897359
30
0.0000000000
10
-42.4068964620
20
-41.2555429808
30
0.0000000000
10
-42.1016088579
20
-41.5541664021
30
0.0000000000
10
-41.7959417731
20
-41.7784844603
30
0.0000000000
10
-41.4992796793
20
-41.9424995414
30
0.0000000000
10
-41.2155124892
20
-42.0581266032
30
0.0000000000
10
-40.9480308331
20
-42.1340519594
30
0.0000000000
10
-40.7020568808
20
-42.1772707428
30
0.0000000000
10
-40.5455805372
20
-42.1898614225
30
0.0000000000
10
-40.4723035786
20
-42.1924691706
30
0.0000000000
11
-43.0960647579
21
-39.4885617434
31
0.0000000000
11
-43.0492591828
21
-39.9123749776
31
0.0000000000
11
-42.9059632906
21
-40.4093101256
31
0.0000000000
11
-42.6710937668
21
-40.8779413484
31
0.0000000000
11
-42.3862878604
21
-41.2610676962
31
0.0000000000
11
-42.0830235400
21
-41.5575243234
31
0.0000000000
11
-41.7806313447
21
-41.7792378842
31
0.0000000000
11
-41.4873838197
21
-41.9411827908
31
0.0000000000
11
-41.2053720487
21
-42.0559357830
31
0.0000000000
11
-40.9380755478
21
-42.1316802267
31
0.0000000000
11
-40.6915702242
21
-42.1748920471
31
0.0000000000
11
-40.4723035786
21
-42.1924691706
31
0.0000000000
0
SPLINE
5
33C
100
AcDbEntity
8
0
100
AcDbSpline
62
9
6
CONTINUOUS
70
0
71
3
72
11
73
7
74
5
42
0.0000001000
43
0.0000001000
44
0.0000000001
12
-0.5422452458
22
0.0273469158
32
0.0000000000
13
-0.0534117786
23
0.5979058194
33
0.0000000000
40
0.0000000000
40
0.0000000000
40
0.0000000000
40
0.0000000000
40
0.4510412673
40
0.7808803673
40
0.9647473478
40
1.0000000000
40
1.0000000000
40
1.0000000000
40
1.0000000000
10
-44.0841277626
20
-1.3672086890
30
0.0000000000
10
-44.1656527569
20
-1.3630971599
30
0.0000000000
10
-44.3113814678
20
-1.3577723209
30
0.0000000000
10
-44.4700408192
20
-1.3165292089
30
0.0000000000
10
-44.5880607221
20
-1.3115524114
30
0.0000000000
10
-44.6026461416
20
-1.2660216300
30
0.0000000000
10
-44.6032737772
20
-1.2589957080
30
0.0000000000
11
-44.0841277626
21
-1.3672086890
31
0.0000000000
11
-44.3282260451
21
-1.3475849075
31
0.0000000000
11
-44.5047486722
21
-1.3174226094
31
0.0000000000
11
-44.5971112452
21
-1.2795448263
31
0.0000000000
11
-44.6032737772
21
-1.2589957080
31
0.0000000000
0
SPLINE
5
33D
100
AcDbEntity
8
0
100
AcDbSpline
62
9
6
CONTINUOUS
70
0
71
3
72
34
73
30
74
28
42
0.0000001000
43
0.0000001000
44
0.0000000001
12
0.9333068407
22
-38.1227538321
32
0.0000000000
13
1.1866177898
23
-38.1157101419
33
0.0000000000
40
0.0000000000
40
0.0000000000
40
0.0000000000
40
0.0000000000
40
0.0463442312
40
0.0970380866
40
0.1524673880
40
0.2121946037
40
0.2773671900
40
0.3477073458
40
0.4157103827
40
0.4786674704
40
0.5359748382
40
0.5871655204
40
0.6328294606
40
0.6738604912
40
0.7111525007
40
0.7454094807
40
0.7769294332
40
0.8058953632
40
0.8324740306
40
0.8568271735
40
0.8791109180
40
0.8994734795
40
0.9180572725
40
0.9350019348
40
0.9504459448
40
0.9645275939
40
0.9773861101
40
0.9891612259
40
1.0000000000
40
1.0000000000
40
1.0000000000
40
1.0000000000
10
-44.0841277626
20
-1.3672086890
30
0.0000000000
10
-44.0697099666
20
-1.9561319285
30
0.0000000000
10
-44.0392329447
20
-3.1892445740
30
0.0000000000
10
-43.9906579438
20
-5.1267085387
30
0.0000000000
10
-43.9372480278
20
-7.2342210198
30
0.0000000000
10
-43.8787590578
20
-9.5257086551
30
0.0000000000
10
-43.8151295589
20
-12.0066645082
30
0.0000000000
10
-43.7486333084
20
-14.5927786301
30
0.0000000000
10
-43.6828860662
20
-17.1507406310
30
0.0000000000
10
-43.6214255027
20
-19.5430932190
30
0.0000000000
10
-43.5655494535
20
-21.7218103279
30
0.0000000000
10
-43.5154303432
20
-23.6807828170
30
0.0000000000
10
-43.4706214284
20
-25.4329285577
30
0.0000000000
10
-43.4303385683
20
-27.0084608034
30
0.0000000000
10
-43.3937609197
20
-28.4390420519
30
0.0000000000
10
-43.3602260441
20
-29.7487625424
30
0.0000000000
10
-43.3292877362
20
-30.9526787647
30
0.0000000000
10
-43.3007200955
20
-32.0590216363
30
0.0000000000
10
-43.2743352782
20
-33.0742903674
30
0.0000000000
10
-43.2499626990
20
-34.0046428169
30
0.0000000000
10
-43.2274239267
20
-34.8560008088
30
0.0000000000
10
-43.2065654771
20
-35.6340410808
30
0.0000000000
10
-43.1872442859
20
-36.3442309612
30
0.0000000000
10
-43.1693258021
20
-36.9919141701
30
0.0000000000
10
-43.1526805179
20
-37.5823821134
30
0.0000000000
10
-43.1371832155
20
-38.1209210869
30
0.0000000000
10
-43.1227280712
20
-38.6128339007
30
0.0000000000
10
-43.1091860787
20
-39.0635341999
30
0.0000000000
10
-43.1003516678
20
-39.3508524653
30
0.0000000000
10
-43.0960645070
20
-39.4885616565
30
0.0000000000
11
-44.0841277626
21
-1.3672086890
31
0.0000000000
11
-44.0404990013
21
-3.1339691778
31
0.0000000000
11
-43.9920832222
21
-5.0665312314
31
0.0000000000
11
-43.9385705109
21
-7.1796045118
31
0.0000000000
11
-43.8804807307
21
-9.4565118105
31
0.0000000000
11
-43.8167875664
21
-11.9409984276
31
0.0000000000
11
-43.7478741472
21
-14.6224769631
31
0.0000000000
11
-43.6812436223
21
-17.2148606386
31
0.0000000000
11
-43.6195995979
21
-19.6148858118
31
0.0000000000
11
-43.5635798691
21
-21.7995369695
31
0.0000000000
11
-43.5136372209
21
-23.7510125142
31
0.0000000000
11
-43.4691176845
21
-25.4918000863
31
0.0000000000
11
-43.4291236110
21
-27.0559734367
31
0.0000000000
11
-43.3927658872
21
-28.4776086693
31
0.0000000000
11
-43.3593143423
21
-29.7835420305
31
0.0000000000
11
-43.3284279322
21
-30.9851325675
31
0.0000000000
11
-43.2999048822
21
-32.0893561306
31
0.0000000000
11
-43.2735635040
21
-33.1025693728
31
0.0000000000
11
-43.2492291295
21
-34.0309375542
31
0.0000000000
11
-43.2267280982
21
-34.8804118492
31
0.0000000000
11
-43.2059058997
21
-35.6566421360
31
0.0000000000
11
-43.1866208939
21
-36.3650573325
31
0.0000000000
11
-43.1687392417
21
-37.0109806075
31
0.0000000000
11
-43.1521323710
21
-37.5996910286
31
0.0000000000
11
-43.1366790820
21
-38.1364607223
31
0.0000000000
11
-43.1222672422
21
-38.6265978144
31
0.0000000000
11
-43.1087740402
21
-39.0754293805
31
0.0000000000
11
-43.0960645070
21
-39.4885616565
31
0.0000000000
0
SPLINE
5
33E
100
AcDbEntity
8
0
100
AcDbSpline
62
9
6
CONTINUOUS
70
0
71
3
72
11
73
7
74
5
42
0.0000001000
43
0.0000001000
44
0.0000000001
12
-0.5683785887
22
0.0066913934
32
0.0000000000
13
-0.1124119837
23
0.6320681148
33
0.0000000000
40
0.0000000000
40
0.0000000000
40
0.0000000000
40
0.0000000000
40
0.4648324447
40
0.8052580374
40
0.9870177935
40
1.0000000000
40
1.0000000000
40
1.0000000000
40
1.0000000000
10
-44.8757386818
20
36.9153668515
30
0.0000000000
10
-44.9638056181
20
36.9164036437
30
0.0000000000
10
-45.1214156817
20
36.9039894756
30
0.0000000000
10
-45.2930126800
20
36.9586044758
30
0.0000000000
10
-45.4163351744
20
36.9000022720
30
0.0000000000
10
-45.4387642394
20
36.9499474608
30
0.0000000000
10
-45.4392506912
20
36.9526826737
30
0.0000000000
11
-44.8757386818
21
36.9153668515
31
0.0000000000
11
-45.1398965567
21
36.9210553482
31
0.0000000000
11
-45.3331549791
21
36.9308016478
31
0.0000000000
11
-45.4356740794
21
36.9436051318
31
0.0000000000
11
-45.4392506912
21
36.9526826737
31
0.0000000000
0
SPLINE
5
33F
100
AcDbEntity
8
0
100
AcDbSpline
62
9
6
CONTINUOUS
70
0
71
3
72
17
73
13
74
11
42
0.0000001000
43
0.0000001000
44
0.0000000001
12
-0.1691525477
22
-38.2909487439
32
0.0000000000
13
0.9473879210
23
-38.2796006303
33
0.0000000000
40
0.0000000000
40
0.0000000000
40
0.0000000000
40
0.0000000000
40
0.0669498582
40
0.1410018291
40
0.2221143852
40
0.3104591517
40
0.4064724398
40
0.5104967070
40
0.6230550145
40
0.7456640736
40
0.8762043153
40
1.0000000000
40
1.0000000000
40
1.0000000000
40
1.0000000000
10
-44.8757386818
20
36.9153668515
30
0.0000000000
10
-44.8795135949
20
36.0608423217
30
0.0000000000
10
-44.8715466407
20
34.2610757616
30
0.0000000000
10
-44.8303397703
20
31.4263429194
30
0.0000000000
10
-44.7696275418
20
28.3188310133
30
0.0000000000
10
-44.6956352069
20
24.9312316970
30
0.0000000000
10
-44.6118599026
20
21.2513380531
30
0.0000000000
10
-44.5199951730
20
17.2624928290
30
0.0000000000
10
-44.4203291257
20
12.9342747742
30
0.0000000000
10
-44.3128764926
20
8.2677023854
30
0.0000000000
10
-44.2010220012
20
3.4577621442
30
0.0000000000
10
-44.1232233375
20
0.2124073513
30
0.0000000000
10
-44.0841291587
20
-1.3672091056
30
0.0000000000
11
-44.8757386818
21
36.9153668515
31
0.0000000000
11
-44.8678465816
21
34.3517803964
31
0.0000000000
11
-44.8293948527
21
31.5164932343
31
0.0000000000
11
-44.7702892494
21
28.4111486423
31
0.0000000000
11
-44.6972739047
21
25.0290987838
31
0.0000000000
11
-44.6140315118
21
21.3535655248
31
0.0000000000
11
-44.5225052768
21
17.3713904525
31
0.0000000000
11
-44.4232830725
21
13.0625262824
31
0.0000000000
11
-44.3150335356
21
8.3689113979
31
0.0000000000
11
-44.1984075766
21
3.3717136618
31
0.0000000000
11
-44.0841291587
21
-1.3672091056
31
0.0000000000
0
SPLINE
5
340
100
AcDbEntity
8
0
100
AcDbSpline
62
9
6
CONTINUOUS
70
0
71
3
72
11
73
7
74
5
42
0.0000001000
43
0.0000001000
44
0.0000000001
12
0.0476509797
22
0.9429822332
32
0.0000000000
13
0.8369418292
23
0.4370520364
33
0.0000000000
40
0.0000000000
40
0.0000000000
40
0.0000000000
40
0.0000000000
40
0.3346656241
40
0.6273630446
40
0.8526523639
40
1.0000000000
40
1.0000000000
40
1.0000000000
40
1.0000000000
10
-42.2389925532
20
39.6486142388
30
0.0000000000
10
-42.2336768382
20
39.7538088180
30
0.0000000000
10
-42.2147194422
20
39.9504709386
30
0.0000000000
10
-42.1590446808
20
40.2147425912
30
0.0000000000
10
-42.0868434427
20
40.4096832286
30
0.0000000000
10
-42.0132280315
20
40.5103959141
30
0.0000000000
10
-41.9721208982
20
40.5318621089
30
0.0000000000
11
-42.2389925532
21
39.6486142388
31
0.0000000000
11
-42.2071888350
21
39.9629960614
31
0.0000000000
11
-42.1474944288
21
40.2328326407
31
0.0000000000
11
-42.0662583850
21
40.4294244257
31
0.0000000000
11
-41.9721208982
21
40.5318621089
31
0.0000000000
0
SPLINE
5
341
100
AcDbEntity
8
0
100
AcDbSpline
62
9
6
CONTINUOUS
70
0
71
3
72
11
73
7
74
5
42
0.0000001000
43
0.0000001000
44
0.0000000001
12
-2.6080888505
22
0.0394755233
32
0.0000000000
13
-1.8951800709
23
-1.7989605837
33
0.0000000000
40
0.0000000000
40
0.0000000000
40
0.0000000000
40
0.0000000000
40
0.2419682674
40
0.5000767486
40
0.7675387120
40
1.0000000000
40
1.0000000000
40
1.0000000000
40
1.0000000000
10
-41.9721212870
20
40.5318761880
30
0.0000000000
10
-42.1824795338
20
40.5350601293
30
0.0000000000
10
-42.6189231668
20
40.5007111266
30
0.0000000000
10
-43.2656815672
20
40.3194283623
30
0.0000000000
10
-43.8553686313
20
40.0144827428
30
0.0000000000
10
-44.1979096069
20
39.7428115337
30
0.0000000000
10
-44.3447616070
20
39.6034153023
30
0.0000000000
11
-41.9721212870
21
40.5318761880
31
0.0000000000
11
-42.6013110333
21
40.4822090110
31
0.0000000000
11
-43.2495961148
21
40.3005832480
31
0.0000000000
11
-43.8693270002
21
39.9802062400
31
0.0000000000
11
-44.3447616070
21
39.6034153023
31
0.0000000000
0
SPLINE
5
342
100
AcDbEntity
8
0
100
AcDbSpline
62
9
6
CONTINUOUS
70
0
71
3
72
15
73
11
74
9
42
0.0000001000
43
0.0000001000
44
0.0000000001
12
-4.1987536686
22
-0.0112453647
32
0.0000000000
13
-0.0192378232
23
-4.1987246557
33
0.0000000000
40
0.0000000000
40
0.0000000000
40
0.0000000000
40
0.0000000000
40
0.1118680019
40
0.2326615407
40
0.3592359566
40
0.4880685045
40
0.6165996846
40
0.7453016120
40
0.8732831383
40
1.0000000000
40
1.0000000000
40
1.0000000000
40
1.0000000000
10
-42.2389925532
20
39.6486142388
30
0.0000000000
10
-42.3955612810
20
39.6481949066
30
0.0000000000
10
-42.7219042390
20
39.6153839796
30
0.0000000000
10
-43.2057749121
20
39.4673814598
30
0.0000000000
10
-43.6719425987
20
39.2150400441
30
0.0000000000
10
-44.0875687696
20
38.8689590209
30
0.0000000000
10
-44.4299028828
20
38.4465157892
30
0.0000000000
10
-44.6835770811
20
37.9668706092
30
0.0000000000
10
-44.8392284309
20
37.4499754513
30
0.0000000000
10
-44.8749243204
20
37.0927167770
30
0.0000000000
10
-44.8757369060
20
36.9153670398
30
0.0000000000
11
-42.2389925532
21
39.6486142388
31
0.0000000000
11
-42.7063884349
21
39.6020677993
31
0.0000000000
11
-43.1916299552
21
39.4544994700
31
0.0000000000
11
-43.6593204921
21
39.2020875353
31
0.0000000000
11
-44.0752669492
21
38.8562515279
31
0.0000000000
11
-44.4150959183
21
38.4370106732
31
0.0000000000
11
-44.6677539827
21
37.9593236911
31
0.0000000000
11
-44.8226469568
21
37.4447664765
31
0.0000000000
11
-44.8757369060
21
36.9153670398
31
0.0000000000
0
SPLINE
5
343
100
AcDbEntity
8
0
100
AcDbSpline
62
9
6
CONTINUOUS
70
0
71
3
72
11
73
7
74
5
42
0.0000001000
43
0.0000001000
44
0.0000000001
12
0.0305756178
22
0.7903204941
32
0.0000000000
13
0.5844706336
23
0.5328559188
33
0.0000000000
40
0.0000000000
40
0.0000000000
40
0.0000000000
40
0.0000000000
40
0.3516962389
40
0.6499581715
40
0.8705590034
40
1.0000000000
40
1.0000000000
40
1.0000000000
40
1.0000000000
10
-2.8093470837
20
39.6872415211
30
0.0000000000
10
-2.8057626404
20
39.7798924362
30
0.0000000000
10
-2.7947385411
20
39.9506357445
30
0.0000000000
10
-2.7657873503
20
40.1798141510
30
0.0000000000
10
-2.7273898040
20
40.3438315392
30
0.0000000000
10
-2.6921795331
20
40.4344619276
30
0.0000000000
10
-2.6669613793
20
40.4574530614
30
0.0000000000
11
-2.8093470837
21
39.6872415211
31
0.0000000000
11
-2.7907312825
21
39.9647785721
31
0.0000000000
11
-2.7587517324
21
40.1984997306
31
0.0000000000
11
-2.7162403776
21
40.3677172941
31
0.0000000000
11
-2.6669613793
21
40.4574530614
31
0.0000000000
0
SPLINE
5
344
100
AcDbEntity
8
0
100
AcDbSpline
62
9
6
CONTINUOUS
70
0
71
3
72
25
73
21
74
19
42
0.0000001000
43
0.0000001000
44
0.0000000001
12
-39.3055832415
22
0.0007928727
32
0.0000000000
13
-39.2968122359
23
0.8303148030
33
0.0000000000
40
0.0000000000
40
0.0000000000
40
0.0000000000
40
0.0000000000
40
0.0513338548
40
0.1071611297
40
0.1677584256
40
0.2345272163
40
0.3081392781
40
0.3858573349
40
0.4646167512
40
0.5403271575
40
0.6087085929
40
0.6689665430
40
0.7230649491
40
0.7723802506
40
0.8170454671
40
0.8568224565
40
0.8928542060
40
0.9270159815
40
0.9616211514
40
1.0000000000
40
1.0000000000
40
1.0000000000
40
1.0000000000
10
-2.6669613793
20
40.4574530614
30
0.0000000000
10
-3.3395304130
20
40.4574666284
30
0.0000000000
10
-4.7435406468
20
40.4575056210
30
0.0000000000
10
-6.9414882326
20
40.4575833070
30
0.0000000000
10
-9.3416622056
20
40.4576546461
30
0.0000000000
10
-11.9748499884
20
40.4576676352
30
0.0000000000
10
-14.8323516002
20
40.4575826185
30
0.0000000000
10
-17.8469527166
20
40.4573640962
30
0.0000000000
10
-20.8890460301
20
40.4569529118
30
0.0000000000
10
-23.8088122192
20
40.4564991727
30
0.0000000000
10
-26.4861747948
20
40.4562486750
30
0.0000000000
10
-28.8803799745
20
40.4564109460
30
0.0000000000
10
-31.0247831691
20
40.4573581369
30
0.0000000000
10
-32.9648917503
20
40.4594264974
30
0.0000000000
10
-34.7173607697
20
40.4630156983
30
0.0000000000
10
-36.2957848460
20
40.4685579948
30
0.0000000000
10
-37.7365824919
20
40.4765154157
30
0.0000000000
10
-39.1095962005
20
40.4878298133
30
0.0000000000
10
-40.5133086185
20
40.5046301565
30
0.0000000000
10
-41.4693991517
20
40.5212540126
30
0.0000000000
10
-41.9721212870
20
40.5318761880
30
0.0000000000
11
-2.6669613793
21
40.4574530614
31
0.0000000000
11
-4.6846684802
21
40.4575064257
31
0.0000000000
11
-6.8789920801
21
40.4575791261
31
0.0000000000
11
-9.2608041382
21
40.4576428789
31
0.0000000000
11
-11.8851904001
21
40.4576527613
31
0.0000000000
11
-14.7785554249
21
40.4575641698
31
0.0000000000
11
-17.8333089656
21
40.4573333871
31
0.0000000000
11
-20.9289937326
21
40.4569368646
31
0.0000000000
11
-23.9048353817
21
40.4565164821
31
0.0000000000
11
-26.5926075755
21
40.4563155543
31
0.0000000000
11
-28.9610814357
21
40.4565719722
31
0.0000000000
11
-31.0874505865
21
40.4576173369
31
0.0000000000
11
-33.0258160179
21
40.4598243838
31
0.0000000000
11
-34.7814043430
21
40.4635997773
31
0.0000000000
11
-36.3448517920
21
40.4692803581
31
0.0000000000
11
-37.7610779636
21
40.4773092435
31
0.0000000000
11
-39.1037789112
21
40.4886107226
31
0.0000000000
11
-40.4638540943
21
40.5052030020
31
0.0000000000
11
-41.9721212870
21
40.5318761880
31
0.0000000000
0
SPLINE
5
345
100
AcDbEntity
8
0
100
AcDbSpline
62
9
6
CONTINUOUS
70
0
71
3
72
25
73
21
74
19
42
0.0000001000
43
0.0000001000
44
0.0000000001
12
-39.4296872405
22
-0.0008404392
32
0.0000000000
13
-39.4295589549
23
-0.1005843369
33
0.0000000000
40
0.0000000000
40
0.0000000000
40
0.0000000000
40
0.0000000000
40
0.0511737794
40
0.1068254876
40
0.1672299203
40
0.2337841557
40
0.3071589960
40
0.3846254217
40
0.4631311501
40
0.5386081686
40
0.6067928595
40
0.6669036563
40
0.7209091144
40
0.7701925375
40
0.8149055585
40
0.8548211462
40
0.8910935720
40
0.9256234772
40
0.9607779606
40
1.0000000000
40
1.0000000000
40
1.0000000000
40
1.0000000000
10
-2.8093470837
20
39.6872415211
30
0.0000000000
10
-3.4819357892
20
39.6872271850
30
0.0000000000
10
-4.8859676445
20
39.6871819693
30
0.0000000000
10
-7.0839087936
20
39.6870615039
30
0.0000000000
10
-9.4839987949
20
39.6868579730
30
0.0000000000
10
-12.1170279654
20
39.6864951173
30
0.0000000000
10
-14.9743067793
20
39.6858799468
30
0.0000000000
10
-17.9886667372
20
39.6849948281
30
0.0000000000
10
-21.0306560039
20
39.6837736580
30
0.0000000000
10
-23.9506530295
20
39.6820428036
30
0.0000000000
10
-26.6288811822
20
39.6802747224
30
0.0000000000
10
-29.0249034213
20
39.6782273261
30
0.0000000000
10
-31.1725016331
20
39.6759658606
30
0.0000000000
10
-33.1177232318
20
39.6736936056
30
0.0000000000
10
-34.8777576852
20
39.6709695425
30
0.0000000000
10
-36.4667845997
20
39.6678068465
30
0.0000000000
10
-37.9219708579
20
39.6640695771
30
0.0000000000
10
-39.3145782314
20
39.6595018129
30
0.0000000000
10
-40.7459489458
20
39.6538200444
30
0.0000000000
10
-41.7234893638
20
39.6499290603
30
0.0000000000
10
-42.2389919355
20
39.6486140194
30
0.0000000000
11
-2.8093470837
21
39.6872415211
31
0.0000000000
11
-4.8271131997
21
39.6871765817
31
0.0000000000
11
-7.0214426468
21
39.6870544077
31
0.0000000000
11
-9.4031705268
21
39.6868448049
31
0.0000000000
11
-12.0273831890
21
39.6864752314
31
0.0000000000
11
-14.9205301258
21
39.6858547772
31
0.0000000000
11
-17.9750069288
21
39.6849443240
31
0.0000000000
11
-21.0704629766
21
39.6836570323
31
0.0000000000
11
-24.0464977226
21
39.6819508582
31
0.0000000000
11
-26.7349981325
21
39.6801121116
31
0.0000000000
11
-29.1051471763
21
39.6780761409
31
0.0000000000
11
-31.2345643427
21
39.6758577902
31
0.0000000000
11
-33.1777928639
21
39.6734945137
31
0.0000000000
11
-34.9408111377
21
39.6707345276
31
0.0000000000
11
-36.5146670613
21
39.6675527056
31
0.0000000000
11
-37.9448726387
21
39.6638369223
31
0.0000000000
11
-39.3063686883
21
39.6593736954
31
0.0000000000
11
-40.6924886715
21
39.6540298676
31
0.0000000000
11
-42.2389919355
21
39.6486140194
31
0.0000000000
0
SPLINE
5
346
100
AcDbEntity
8
0
100
AcDbSpline
62
9
6
CONTINUOUS
70
0
71
3
72
11
73
7
74
5
42
0.0000001000
43
0.0000001000
44
0.0000000001
12
-0.0134710683
22
0.8841078368
32
0.0000000000
13
0.2366930556
23
0.8519416260
33
0.0000000000
40
0.0000000000
40
0.0000000000
40
0.0000000000
40
0.0000000000
40
0.3555645635
40
0.6607620419
40
0.8832960645
40
1.0000000000
40
1.0000000000
40
1.0000000000
40
1.0000000000
10
36.7713266597
20
39.6486141945
30
0.0000000000
10
36.7697300481
20
39.7534000002
30
0.0000000000
10
36.7684904959
20
39.9480467032
30
0.0000000000
10
36.7697994201
20
40.2087827009
30
0.0000000000
10
36.7789517277
20
40.3977571285
30
0.0000000000
10
36.7835951286
20
40.4987345411
30
0.0000000000
10
36.7928027989
20
40.5318761880
30
0.0000000000
11
36.7713266597
21
39.6486141945
31
0.0000000000
11
36.7690384723
21
39.9629997737
31
0.0000000000
11
36.7721670514
21
40.2328404402
31
0.0000000000
11
36.7803796535
21
40.4294358883
31
0.0000000000
11
36.7928027989
21
40.5318761880
31
0.0000000000
0
SPLINE
5
347
100
AcDbEntity
8
0
100
AcDbSpline
62
9
6
CONTINUOUS
70
0
71
3
72
25
73
21
74
19
42
0.0000001000
43
0.0000001000
44
0.0000000001
12
-39.4521305072
22
-0.7967338686
32
0.0000000000
13
-39.4601746800
23
-0.0007986111
33
0.0000000000
40
0.0000000000
40
0.0000000000
40
0.0000000000
40
0.0000000000
40
0.0402527626
40
0.0762405981
40
0.1116183727
40
0.1487471723
40
0.1895011741
40
0.2348336140
40
0.2844366211
40
0.3383184337
40
0.3975424780
40
0.4635742803
40
0.5359259200
40
0.6120410059
40
0.6890990093
40
0.7637859815
40
0.8327669284
40
0.8945560270
40
0.9498942623
40
1.0000000000
40
1.0000000000
40
1.0000000000
40
1.0000000000
10
36.7928027989
20
40.5318761880
30
0.0000000000
10
36.2634503850
20
40.5211859416
30
0.0000000000
10
35.2607605570
20
40.5043984466
30
0.0000000000
10
33.7926951842
20
40.4874013507
30
0.0000000000
10
32.3656687170
20
40.4760291619
30
0.0000000000
10
30.8759278871
20
40.4681039029
30
0.0000000000
10
29.2552379524
20
40.4626617384
30
0.0000000000
10
27.4704644679
20
40.4591996810
30
0.0000000000
10
25.5130135835
20
40.4572440344
30
0.0000000000
10
23.3728402853
20
40.4563820047
30
0.0000000000
10
21.0165724934
20
40.4562578586
30
0.0000000000
10
18.4173638604
20
40.4565075315
30
0.0000000000
10
15.5959807677
20
40.4569439830
30
0.0000000000
10
12.6295657274
20
40.4573498931
30
0.0000000000
10
9.6324331242
20
40.4575758642
30
0.0000000000
10
6.7291386385
20
40.4576672905
30
0.0000000000
10
4.0266820339
20
40.4576557624
30
0.0000000000
10
1.5787269441
20
40.4575825527
30
0.0000000000
10
-0.6209551280
20
40.4575050241
30
0.0000000000
10
-2.0079009918
20
40.4574663997
30
0.0000000000
10
-2.6669613793
20
40.4574530614
30
0.0000000000
11
36.7928027989
21
40.5318761880
31
0.0000000000
11
35.2046508026
21
40.5049026390
31
0.0000000000
11
33.7846631094
21
40.4881697513
31
0.0000000000
11
32.3886961318
21
40.4768141770
31
0.0000000000
11
30.9236090532
21
40.4688143404
31
0.0000000000
11
29.3154587381
21
40.4632238433
31
0.0000000000
11
27.5266364614
21
40.4595764827
31
0.0000000000
11
25.5692942514
21
40.4574867452
31
0.0000000000
11
23.4431087288
21
40.4565285101
31
0.0000000000
11
21.1061176042
21
40.4563173636
31
0.0000000000
11
18.5004911597
21
40.4565238479
31
0.0000000000
11
15.6454828470
21
40.4569280428
31
0.0000000000
11
12.6419682872
21
40.4573176296
31
0.0000000000
11
9.6012460214
21
40.4575556173
31
0.0000000000
11
6.6540850535
21
40.4576513932
31
0.0000000000
11
3.9320848383
21
40.4576430868
31
0.0000000000
11
1.4938762116
21
40.4575777260
31
0.0000000000
11
-0.6897802170
21
40.4575054239
31
0.0000000000
11
-2.6669613793
21
40.4574530614
31
0.0000000000
0
SPLINE
5
348
100
AcDbEntity
8
0
100
AcDbSpline
62
9
6
CONTINUOUS
70
0
71
3
72
25
73
21
74
19
42
0.0000001000
43
0.0000001000
44
0.0000000001
12
-39.5805973637
22
0.0965579373
32
0.0000000000
13
-39.5807151324
23
0.0008448724
33
0.0000000000
40
0.0000000000
40
0.0000000000
40
0.0000000000
40
0.0000000000
40
0.0411027613
40
0.0776314825
40
0.1133634922
40
0.1507168460
40
0.1915934502
40
0.2369598517
40
0.2865221048
40
0.3403071969
40
0.3993860892
40
0.4652310232
40
0.5373646714
40
0.6132409851
40
0.6900561532
40
0.7645091289
40
0.8332748038
40
0.8948730744
40
0.9500426133
40
1.0000000000
40
1.0000000000
40
1.0000000000
40
1.0000000000
10
36.7713266597
20
39.6486141945
30
0.0000000000
10
36.2290360443
20
39.6499371271
30
0.0000000000
10
35.2048065917
20
39.6538772493
30
0.0000000000
10
33.7091485409
20
39.6596567732
30
0.0000000000
10
32.2629544625
20
39.6642793132
30
0.0000000000
10
30.7593936814
20
39.6680377516
30
0.0000000000
10
29.1287192521
20
39.6712020524
30
0.0000000000
10
27.3369648123
20
39.6738986270
30
0.0000000000
10
25.3749006059
20
39.6761512439
30
0.0000000000
10
23.2319195511
20
39.6783834736
30
0.0000000000
10
20.8741114267
20
39.6803575650
30
0.0000000000
10
18.2742200658
20
39.6820716491
30
0.0000000000
10
15.4527106460
20
39.6837409599
30
0.0000000000
10
12.4864644033
20
39.6849522073
30
0.0000000000
10
9.4896178449
20
39.6858434305
30
0.0000000000
10
6.5865859453
20
39.6864800015
30
0.0000000000
10
3.8843192316
20
39.6868563942
30
0.0000000000
10
1.4364699072
20
39.6870630518
30
0.0000000000
10
-0.7632309225
20
39.6871828443
30
0.0000000000
10
-2.1502305542
20
39.6872270529
30
0.0000000000
10
-2.8093469179
20
39.6872411221
30
0.0000000000
11
36.7713266597
21
39.6486141945
31
0.0000000000
11
35.1444592700
21
39.6541143639
31
0.0000000000
11
33.6986365213
21
39.6595346862
31
0.0000000000
11
32.2843452331
21
39.6640503709
31
0.0000000000
11
30.8058775080
21
39.6677899674
31
0.0000000000
11
29.1879554168
21
39.6709757861
31
0.0000000000
11
27.3923228900
21
39.6737132226
31
0.0000000000
11
25.4306148654
21
39.6760539010
31
0.0000000000
11
23.3017635784
21
39.6782416029
31
0.0000000000
11
20.9633796057
21
39.6802172222
31
0.0000000000
11
18.3571906320
21
39.6819889006
31
0.0000000000
11
15.5020897194
21
39.6836267304
31
0.0000000000
11
12.4988512276
21
39.6848919526
31
0.0000000000
11
9.4584520804
21
39.6858125003
31
0.0000000000
11
6.5115501299
21
39.6864556079
31
0.0000000000
11
3.7897555667
21
39.6868433095
31
0.0000000000
11
1.3516519744
21
39.6870573655
31
0.0000000000
11
-0.8319978273
21
39.6871779621
31
0.0000000000
11
-2.8093469179
21
39.6872411221
31
0.0000000000
0
SPLINE
5
349
100
AcDbEntity
8
0
100
AcDbSpline
62
9
6
CONTINUOUS
70
0
71
3
72
11
73
7
74
5
42
0.0000001000
43
0.0000001000
44
0.0000000001
12
0.8913999756
22
0.0095337457
32
0.0000000000
13
0.8661528670
23
0.2108649328
33
0.0000000000
40
0.0000000000
40
0.0000000000
40
0.0000000000
40
0.0000000000
40
0.3480406723
40
0.6499272900
40
0.8748107588
40
1.0000000000
40
1.0000000000
40
1.0000000000
40
1.0000000000
10
39.5775861801
20
36.9153670682
30
0.0000000000
10
39.6810006624
20
36.9164731119
30
0.0000000000
10
39.8740472192
20
36.9200729386
30
0.0000000000
10
40.1340732625
20
36.9283324105
30
0.0000000000
10
40.3270092701
20
36.9410554874
30
0.0000000000
10
40.4313028257
20
36.9493520398
30
0.0000000000
10
40.4674471658
20
36.9581513801
30
0.0000000000
11
39.5775861801
21
36.9153670682
31
0.0000000000
11
39.8877952112
21
36.9210559416
31
0.0000000000
11
40.1567357816
21
36.9308022635
31
0.0000000000
11
40.3567991049
21
36.9436055214
31
0.0000000000
11
40.4674471658
21
36.9581513801
31
0.0000000000
0
SPLINE
5
34A
100
AcDbEntity
8
0
100
AcDbSpline
62
9
6
CONTINUOUS
70
0
71
3
72
15
73
11
74
9
42
0.0000001000
43
0.0000001000
44
0.0000000001
12
-0.0652113970
22
5.6828472152
32
0.0000000000
13
-5.6826104544
23
-0.0833271914
33
0.0000000000
40
0.0000000000
40
0.0000000000
40
0.0000000000
40
0.0000000000
40
0.1261472204
40
0.2527735893
40
0.3800919129
40
0.5073698488
40
0.6355658484
40
0.7626446909
40
0.8853476661
40
1.0000000000
40
1.0000000000
40
1.0000000000
40
1.0000000000
10
40.4674674832
20
36.9581513337
30
0.0000000000
10
40.4647254044
20
37.1971097938
30
0.0000000000
10
40.4109184686
20
37.6767687431
30
0.0000000000
10
40.1878562742
20
38.3662538421
30
0.0000000000
10
39.8310329266
20
38.9997490874
30
0.0000000000
10
39.3540516483
20
39.5522688138
30
0.0000000000
10
38.7775623457
20
39.9993727512
30
0.0000000000
10
38.1317235503
20
40.3195415729
30
0.0000000000
10
37.4612074411
20
40.5007239779
30
0.0000000000
10
37.0099776493
20
40.5350607403
30
0.0000000000
10
36.7928027989
20
40.5318761880
30
0.0000000000
11
40.4674674832
21
36.9581513337
31
0.0000000000
11
40.3874757933
21
37.6705973396
31
0.0000000000
11
40.1662178374
21
38.3553855024
31
0.0000000000
11
39.8112538009
21
38.9859138261
31
0.0000000000
11
39.3386521308
21
39.5335277223
31
0.0000000000
11
38.7628927386
21
39.9799690876
31
0.0000000000
11
38.1157633084
21
40.3006264943
31
0.0000000000
11
37.4425137538
21
40.4823667121
31
0.0000000000
11
36.7928027989
21
40.5318761880
31
0.0000000000
0
SPLINE
5
34B
100
AcDbEntity
8
0
100
AcDbSpline
62
9
6
CONTINUOUS
70
0
71
3
72
15
73
11
74
9
42
0.0000001000
43
0.0000001000
44
0.0000000001
12
-0.0956950507
22
4.3129740014
32
0.0000000000
13
-4.3140216444
23
0.0109330076
33
0.0000000000
40
0.0000000000
40
0.0000000000
40
0.0000000000
40
0.0000000000
40
0.1241026618
40
0.2498264605
40
0.3774978562
40
0.5060453367
40
0.6357804721
40
0.7638486404
40
0.8864553752
40
1.0000000000
40
1.0000000000
40
1.0000000000
40
1.0000000000
10
39.5775861801
20
36.9153670682
30
0.0000000000
10
39.5736275099
20
37.0937842528
30
0.0000000000
10
39.5284006899
20
37.4531651573
30
0.0000000000
10
39.3524002946
20
37.9703296427
30
0.0000000000
10
39.0755630675
20
38.4487463829
30
0.0000000000
10
38.7091783654
20
38.8700172076
30
0.0000000000
10
38.2698217313
20
39.2154895642
30
0.0000000000
10
37.7805731678
20
39.4677286807
30
0.0000000000
10
37.2748818007
20
39.6155491051
30
0.0000000000
10
36.9346046074
20
39.6482004899
30
0.0000000000
10
36.7713266177
20
39.6486142846
30
0.0000000000
11
39.5775861801
21
36.9153670682
31
0.0000000000
11
39.5111122184
21
37.4466075768
31
0.0000000000
11
39.3371781326
21
37.9603387015
31
0.0000000000
11
39.0619170533
21
38.4374013509
31
0.0000000000
11
38.6982843054
21
38.8560972273
31
0.0000000000
11
38.2582040267
21
39.2018909035
31
0.0000000000
11
37.7668547062
21
39.4545205442
31
0.0000000000
11
37.2589575755
21
39.6021933049
31
0.0000000000
11
36.7713266177
21
39.6486142846
31
0.0000000000
0
SPLINE
5
34C
100
AcDbEntity
8
0
100
AcDbSpline
62
9
6
CONTINUOUS
70
0
71
3
72
11
73
7
74
5
42
0.0000001000
43
0.0000001000
44
0.0000000001
12
0.8465538174
22
0.0379042668
32
0.0000000000
13
0.6803824170
23
0.5051434112
33
0.0000000000
40
0.0000000000
40
0.0000000000
40
0.0000000000
40
0.0000000000
40
0.3458657409
40
0.6441698827
40
0.8681301252
40
1.0000000000
40
1.0000000000
40
1.0000000000
40
1.0000000000
10
40.4551220906
20
-1.3681267988
30
0.0000000000
10
40.5527200784
20
-1.3637568696
30
0.0000000000
10
40.7341110594
20
-1.3517384264
30
0.0000000000
10
40.9787736522
20
-1.3243163752
30
0.0000000000
10
41.1584269144
20
-1.2887593229
30
0.0000000000
10
41.2578859811
20
-1.2597038656
30
0.0000000000
10
41.2877932958
20
-1.2374994661
30
0.0000000000
11
40.4551220906
21
-1.3681267988
31
0.0000000000
11
40.7475481343
21
-1.3484498980
31
0.0000000000
11
40.9985016895
21
-1.3180884117
31
0.0000000000
11
41.1844053491
21
-1.2799055734
31
0.0000000000
11
41.2877932958
21
-1.2374994661
31
0.0000000000
0
SPLINE
5
34D
100
AcDbEntity
8
0
100
AcDbSpline
62
9
6
CONTINUOUS
70
0
71
3
72
17
73
13
74
11
42
0.0000001000
43
0.0000001000
44
0.0000000001
12
-0.9442020790
22
38.1929684882
32
0.0000000000
13
-0.2465299686
23
38.2038425094
33
0.0000000000
40
0.0000000000
40
0.0000000000
40
0.0000000000
40
0.0000000000
40
0.1186790502
40
0.2504339994
40
0.3826076650
40
0.5017791447
40
0.6077334048
40
0.7027060985
40
0.7883410721
40
0.8660617507
40
0.9366077130
40
1.0000000000
40
1.0000000000
40
1.0000000000
40
1.0000000000
10
41.2877932958
20
-1.2374994661
30
0.0000000000
10
41.2504409605
20
0.2734022754
30
0.0000000000
10
41.1761062617
20
3.4617851620
30
0.0000000000
10
41.0681515663
20
8.3330511679
30
0.0000000000
10
40.9600826128
20
13.2105877102
30
0.0000000000
10
40.8573856800
20
17.7595935890
30
0.0000000000
10
40.7637499858
20
21.8349329811
30
0.0000000000
10
40.6795034669
20
25.4832920437
30
0.0000000000
10
40.6049774982
20
28.7722280898
30
0.0000000000
10
40.5417431989
20
31.7502686204
30
0.0000000000
10
40.4930667598
20
34.4452849333
30
0.0000000000
10
40.4726768494
20
36.1508750178
30
0.0000000000
10
40.4674674832
20
36.9581513337
30
0.0000000000
11
41.2877932958
21
-1.2374994661
31
0.0000000000
11
41.1808124667
21
3.2953284069
31
0.0000000000
11
41.0682739471
21
8.3277203530
31
0.0000000000
11
40.9560440213
21
13.3761200672
31
0.0000000000
11
40.8532652300
21
17.9278630703
31
0.0000000000
11
40.7604555608
21
21.9747431230
31
0.0000000000
11
40.6770328145
21
25.6021813623
31
0.0000000000
11
40.6035089530
21
28.8730082653
31
0.0000000000
11
40.5414482469
21
31.8416500191
31
0.0000000000
11
40.4943102470
21
34.5364207220
31
0.0000000000
11
40.4674674832
21
36.9581513337
31
0.0000000000
0
SPLINE
5
34E
100
AcDbEntity
8
0
100
AcDbSpline
62
9
6
CONTINUOUS
70
0
71
3
72
17
73
13
74
11
42
0.0000001000
43
0.0000001000
44
0.0000000001
12
-0.9427105664
22
38.2819587767
32
0.0000000000
13
-0.8409582397
23
38.2843291731
33
0.0000000000
40
0.0000000000
40
0.0000000000
40
0.0000000000
40
0.0000000000
40
0.1186510010
40
0.2501745349
40
0.3820128648
40
0.5008533310
40
0.6065265593
40
0.7012972971
40
0.7868509309
40
0.8646816963
40
0.9356607607
40
1.0000000000
40
1.0000000000
40
1.0000000000
40
1.0000000000
10
40.4551220906
20
-1.3681267988
30
0.0000000000
10
40.4178375732
20
0.1459374439
30
0.0000000000
10
40.3451791605
20
3.3384732355
30
0.0000000000
10
40.2410260025
20
8.2135713199
30
0.0000000000
10
40.1355096655
20
13.0910604603
30
0.0000000000
10
40.0335059944
20
17.6385801636
30
0.0000000000
10
39.9389234228
20
21.7129958179
30
0.0000000000
10
39.8520591039
20
25.3625848686
30
0.0000000000
10
39.7724925861
20
28.6568508920
30
0.0000000000
10
39.7002378484
20
31.6475157265
30
0.0000000000
10
39.6355499743
20
34.3674923388
30
0.0000000000
10
39.5956228671
20
36.0943049644
30
0.0000000000
10
39.5775873293
20
36.9153665032
30
0.0000000000
11
40.4551220906
21
-1.3681267988
31
0.0000000000
11
40.3499187152
21
3.1742248218
31
0.0000000000
11
40.2408864384
21
8.2095494086
31
0.0000000000
11
40.1312161577
21
13.2569176481
31
0.0000000000
11
40.0291086011
21
17.8065970443
31
0.0000000000
11
39.9352764194
21
21.8521135797
31
0.0000000000
11
39.8490361089
21
25.4801980981
31
0.0000000000
11
39.7701082720
21
28.7554007921
31
0.0000000000
11
39.6983214808
21
31.7349535555
31
0.0000000000
11
39.6338485805
21
34.4522301586
31
0.0000000000
11
39.5775873293
21
36.9153665032
31
0.0000000000
0
SPLINE
5
34F
100
AcDbEntity
8
0
100
AcDbSpline
62
9
6
CONTINUOUS
70
0
71
3
72
11
73
7
74
5
42
0.0000001000
43
0.0000001000
44
0.0000000001
12
0.8991389744
22
0.0378386202
32
0.0000000000
13
0.6959991410
23
0.5704978984
33
0.0000000000
40
0.0000000000
40
0.0000000000
40
0.0000000000
40
0.0000000000
40
0.3431200623
40
0.6417650018
40
0.8670583983
40
1.0000000000
40
1.0000000000
40
1.0000000000
40
1.0000000000
10
41.3514741562
20
-39.4885616566
30
0.0000000000
10
41.4543116965
20
-39.4842339267
30
0.0000000000
10
41.6462127825
20
-39.4715048510
30
0.0000000000
10
41.9057174050
20
-39.4410111690
30
0.0000000000
10
42.0966030258
20
-39.4008886365
30
0.0000000000
10
42.2027331328
20
-39.3673354210
30
0.0000000000
10
42.2335755464
20
-39.3420544529
30
0.0000000000
11
41.3514741562
21
-39.4885616566
31
0.0000000000
11
41.6595617278
21
-39.4678095801
31
0.0000000000
11
41.9261902506
21
-39.4340206320
31
0.0000000000
11
42.1242424461
21
-39.3906312949
31
0.0000000000
11
42.2335755464
21
-39.3420544529
31
0.0000000000
0
SPLINE
5
350
100
AcDbEntity
8
0
100
AcDbSpline
62
9
6
CONTINUOUS
70
0
71
3
72
33
73
29
74
27
42
0.0000001000
43
0.0000001000
44
0.0000000001
12
-1.0464737424
22
38.1019277109
32
0.0000000000
13
-0.9273532899
23
38.1050130357
33
0.0000000000
40
0.0000000000
40
0.0000000000
40
0.0000000000
40
0.0000000000
40
0.0118569794
40
0.0248745926
40
0.0391964586
40
0.0549565051
40
0.0722879826
40
0.0913227248
40
0.1121934272
40
0.1350351859
40
0.1599882724
40
0.1871998202
40
0.2168198847
40
0.2490040101
40
0.2839223603
40
0.3217746847
40
0.3628120280
40
0.4073154829
40
0.4555908557
40
0.5080551510
40
0.5654818037
40
0.6287831432
40
0.6983355321
40
0.7701328791
40
0.8381749709
40
0.8984755198
40
0.9519436426
40
1.0000000000
40
1.0000000000
40
1.0000000000
40
1.0000000000
10
42.2335755464
20
-39.3420544529
30
0.0000000000
10
42.2294395405
20
-39.1914631953
30
0.0000000000
10
42.2208402923
20
-38.8755377499
30
0.0000000000
10
42.2075136224
20
-38.3777081418
30
0.0000000000
10
42.1930923324
20
-37.8302999657
30
0.0000000000
10
42.1774656194
20
-37.2280950692
30
0.0000000000
10
42.1605232358
20
-36.5660250726
30
0.0000000000
10
42.1421501639
20
-35.8390373779
30
0.0000000000
10
42.1222263273
20
-35.0420560492
30
0.0000000000
10
42.1006225264
20
-34.1698981292
30
0.0000000000
10
42.0771978419
20
-33.2171974414
30
0.0000000000
10
42.0517996847
20
-32.1783979566
30
0.0000000000
10
42.0242662865
20
-31.0477497560
30
0.0000000000
10
41.9944199978
20
-29.8192105991
30
0.0000000000
10
41.9620584011
20
-28.4861072709
30
0.0000000000
10
41.9269366623
20
-27.0405538505
30
0.0000000000
10
41.8887881393
20
-25.4732551352
30
0.0000000000
10
41.8473048408
20
-23.7735690369
30
0.0000000000
10
41.8021076802
20
-21.9287459917
30
0.0000000000
10
41.7526463411
20
-19.9197833504
30
0.0000000000
10
41.6982307860
20
-17.7199734503
30
0.0000000000
10
41.6381625673
20
-15.3031253662
30
0.0000000000
10
41.5732215431
20
-12.7037561518
30
0.0000000000
10
41.5065922510
20
-10.0441770264
30
0.0000000000
10
41.4429129596
20
-7.5021095035
30
0.0000000000
10
41.3852480903
20
-5.1928450840
30
0.0000000000
10
41.3342814385
20
-3.1374199722
30
0.0000000000
10
41.3026483695
20
-1.8478955074
30
0.0000000000
10
41.2877932958
20
-1.2374994661
30
0.0000000000
11
42.2335755464
21
-39.3420544529
31
0.0000000000
11
42.2212737850
21
-38.8902777744
31
0.0000000000
11
42.2079904879
21
-38.3942724148
31
0.0000000000
11
42.1936077832
21
-37.8485654400
31
0.0000000000
11
42.1780177541
21
-37.2480531781
31
0.0000000000
11
42.1611100909
21
-36.5876578596
31
0.0000000000
11
42.1427710577
21
-35.8623558082
31
0.0000000000
11
42.1228811048
21
-35.0670906294
31
0.0000000000
11
42.1013121377
21
-34.1967146099
31
0.0000000000
11
42.0779240954
21
-33.2458829844
31
0.0000000000
11
42.0525637992
21
-32.2089896667
31
0.0000000000
11
42.0250697795
21
-31.0803173482
31
0.0000000000
11
41.9952673878
21
-29.8539397695
31
0.0000000000
11
41.9629585891
21
-28.5233738110
31
0.0000000000
11
41.9279094531
21
-27.0810091982
31
0.0000000000
11
41.8898432004
21
-25.5172809436
31
0.0000000000
11
41.8484489398
21
-23.8214792325
31
0.0000000000
11
41.8033757023
21
-21.9819529666
31
0.0000000000
11
41.7541612284
21
-19.9828140568
31
0.0000000000
11
41.7000358317
21
-17.7945920669
31
0.0000000000
11
41.6400863623
21
-15.3825243664
31
0.0000000000
11
41.5739038674
21
-12.7322711687
31
0.0000000000
11
41.5053984247
21
-9.9964798252
31
0.0000000000
11
41.4404860225
21
-7.4037797959
31
0.0000000000
11
41.3831520240
21
-5.1060614457
31
0.0000000000
11
41.3326718595
21
-3.0686799374
31
0.0000000000
11
41.2877932958
21
-1.2374994661
31
0.0000000000
0
SPLINE
5
351
100
AcDbEntity
8
0
100
AcDbSpline
62
9
6
CONTINUOUS
70
0
71
3
72
25
73
21
74
19
42
0.0000001000
43
0.0000001000
44
0.0000000001
12
-0.4419168163
22
19.3739173788
32
0.0000000000
13
-0.4557260601
23
19.3735974960
33
0.0000000000
40
0.0000000000
40
0.0000000000
40
0.0000000000
40
0.0000000000
40
0.0234380155
40
0.0491532425
40
0.0774270326
40
0.1085213794
40
0.1426966159
40
0.1802112434
40
0.2213257793
40
0.2663056683
40
0.3154268234
40
0.3689793448
40
0.4272589637
40
0.4905718101
40
0.5592527428
40
0.6336962457
40
0.7143987779
40
0.8019125577
40
0.8968381384
40
1.0000000000
40
1.0000000000
40
1.0000000000
40
1.0000000000
10
41.3514741562
20
-39.4885616566
30
0.0000000000
10
41.3480216051
20
-39.3371995982
30
0.0000000000
10
41.3407824347
20
-39.0197692803
30
0.0000000000
10
41.3293870240
20
-38.5197474073
30
0.0000000000
10
41.3168784554
20
-37.9702808234
30
0.0000000000
10
41.3031459577
20
-37.3661792248
30
0.0000000000
10
41.2880592351
20
-36.7024003935
30
0.0000000000
10
41.2715152596
20
-35.9739110304
30
0.0000000000
10
41.2534011096
20
-35.1756450317
30
0.0000000000
10
41.2335991710
20
-34.3024239002
30
0.0000000000
10
41.2119768444
20
-33.3488783324
30
0.0000000000
10
41.1884082697
20
-32.3094431829
30
0.0000000000
10
41.1627435279
20
-31.1783586089
30
0.0000000000
10
41.1348119485
20
-29.9495760405
30
0.0000000000
10
41.1044075373
20
-28.6164096439
30
0.0000000000
10
41.0713077551
20
-27.1709441924
30
0.0000000000
10
41.0352933030
20
-25.6038599543
30
0.0000000000
10
40.9960334153
20
-23.9045082757
30
0.0000000000
10
40.9531153969
20
-22.0601229620
30
0.0000000000
10
40.9231258981
20
-20.7808984446
30
0.0000000000
10
40.9074547152
20
-20.1146929831
30
0.0000000000
11
41.3514741562
21
-39.4885616566
31
0.0000000000
11
41.3411189507
21
-39.0344754254
31
0.0000000000
11
41.3297655515
21
-38.5362705001
31
0.0000000000
11
41.3172959742
21
-37.9884958545
31
0.0000000000
11
41.3035985837
21
-37.3860755528
31
0.0000000000
11
41.2885513448
21
-36.7239660847
31
0.0000000000
11
41.2720453162
21
-35.9971591445
31
0.0000000000
11
41.2539694523
21
-35.2006074003
31
0.0000000000
11
41.2342058107
21
-34.3291681591
31
0.0000000000
11
41.2126259703
21
-33.3774960569
31
0.0000000000
11
41.1890978194
21
-32.3399708025
31
0.0000000000
11
41.1634737268
21
-31.2108633085
31
0.0000000000
11
41.1355852539
21
-29.9842433915
31
0.0000000000
11
41.1052364987
21
-28.6536246175
31
0.0000000000
11
41.0722142629
21
-27.2113651871
31
0.0000000000
11
41.0362739490
21
-25.6478473276
31
0.0000000000
11
40.9970940663
21
-23.9523742058
31
0.0000000000
11
40.9543020117
21
-22.1133132685
31
0.0000000000
11
40.9074547152
21
-20.1146929831
31
0.0000000000
0
SPLINE
5
352
100
AcDbEntity
8
0
100
AcDbSpline
62
9
6
CONTINUOUS
70
0
71
3
72
15
73
11
74
9
42
0.0000001000
43
0.0000001000
44
0.0000000001
12
-0.4409827543
22
18.7468374824
32
0.0000000000
13
-0.4534468840
23
18.7465401146
33
0.0000000000
40
0.0000000000
40
0.0000000000
40
0.0000000000
40
0.0000000000
40
0.1166974231
40
0.2453341658
40
0.3866828379
40
0.5326143820
40
0.6709341293
40
0.7935415509
40
0.9022833126
40
1.0000000000
40
1.0000000000
40
1.0000000000
40
1.0000000000
10
40.9074547152
20
-20.1146929831
30
0.0000000000
10
40.8903008649
20
-19.3854571080
30
0.0000000000
10
40.8541047335
20
-17.8523803348
30
0.0000000000
10
40.7965611985
20
-15.4360368590
30
0.0000000000
10
40.7340616145
20
-12.8370266981
30
0.0000000000
10
40.6696490494
20
-10.1775197818
30
0.0000000000
10
40.6077431045
20
-7.6351319921
30
0.0000000000
10
40.5513661747
20
-5.3251397072
30
0.0000000000
10
40.5012250633
20
-3.2688673162
30
0.0000000000
10
40.4698913076
20
-1.9787432081
30
0.0000000000
10
40.4551215318
20
-1.3681266079
30
0.0000000000
11
40.9074547152
21
-20.1146929831
31
0.0000000000
11
40.8557954534
21
-17.9269900207
31
0.0000000000
11
40.7983636567
21
-15.5154746066
31
0.0000000000
11
40.7346754512
21
-12.8656662682
31
0.0000000000
11
40.6684363132
21
-10.1299563416
31
0.0000000000
11
40.6053266697
21
-7.5369490891
31
0.0000000000
11
40.5492601775
21
-5.2384955713
31
0.0000000000
11
40.4995798493
21
-3.1999727988
31
0.0000000000
11
40.4551215318
21
-1.3681266079
31
0.0000000000
0
SPLINE
5
353
100
AcDbEntity
8
0
100
AcDbSpline
62
9
6
CONTINUOUS
70
0
71
3
72
12
73
8
74
6
42
0.0000001000
43
0.0000001000
44
0.0000000001
12
0.0158625649
22
-0.7940285625
32
0.0000000000
13
-0.2808221071
23
-0.0719311702
33
0.0000000000
40
0.0000000000
40
0.0000000000
40
0.0000000000
40
0.0000000000
40
0.3518006261
40
0.6505046977
40
0.8697372988
40
0.9901829341
40
1.0000000000
40
1.0000000000
40
1.0000000000
40
1.0000000000
10
38.6682760665
20
-42.1924691455
30
0.0000000000
10
38.6701362200
20
-42.2855823940
30
0.0000000000
10
38.6705664298
20
-42.4614014209
30
0.0000000000
10
38.6826076809
20
-42.6785112423
30
0.0000000000
10
38.6616727200
20
-42.8774696263
30
0.0000000000
10
38.6929620678
20
-42.9243712446
30
0.0000000000
10
38.6700486952
20
-42.9881185451
30
0.0000000000
10
38.6691297455
20
-42.9883539294
30
0.0000000000
11
38.6682760665
21
-42.1924691455
31
0.0000000000
11
38.6731097823
21
-42.4718228104
31
0.0000000000
11
38.6756736055
21
-42.7090358440
31
0.0000000000
11
38.6757409914
21
-42.8831475111
31
0.0000000000
11
38.6733059865
21
-42.9787728706
31
0.0000000000
11
38.6691297455
21
-42.9883539294
31
0.0000000000
0
SPLINE
5
354
100
AcDbEntity
8
0
100
AcDbSpline
62
9
6
CONTINUOUS
70
0
71
3
72
17
73
13
74
11
42
0.0000001000
43
0.0000001000
44
0.0000000001
12
4.2101896836
22
0.1401189119
32
0.0000000000
13
-0.0958725204
23
4.2114295603
33
0.0000000000
40
0.0000000000
40
0.0000000000
40
0.0000000000
40
0.0000000000
40
0.0682140690
40
0.1437948096
40
0.2274888996
40
0.3203521479
40
0.4233340587
40
0.5369650644
40
0.6589868577
40
0.7823814338
40
0.8990869288
40
1.0000000000
40
1.0000000000
40
1.0000000000
40
1.0000000000
10
38.6682760665
20
-42.1924691455
30
0.0000000000
10
38.7640074564
20
-42.1892831184
30
0.0000000000
10
38.9656068500
20
-42.1722343270
30
0.0000000000
10
39.2798397668
20
-42.1113417894
30
0.0000000000
10
39.6179627320
20
-42.0033365203
30
0.0000000000
10
39.9743067175
20
-41.8358359208
30
0.0000000000
10
40.3382018282
20
-41.5952154050
30
0.0000000000
10
40.6890075440
20
-41.2707543084
30
0.0000000000
10
40.9934072546
20
-40.8650264977
30
0.0000000000
10
41.2154582791
20
-40.4037654474
30
0.0000000000
10
41.3348410422
20
-39.9369309872
30
0.0000000000
10
41.3546991610
20
-39.6302245320
30
0.0000000000
10
41.3514742308
20
-39.4885617683
30
0.0000000000
11
38.6682760665
21
-42.1924691455
31
0.0000000000
11
38.9546095428
21
-42.1682826115
31
0.0000000000
11
39.2671877654
21
-42.1077504837
31
0.0000000000
11
39.6030375661
21
-42.0004861361
31
0.0000000000
11
39.9570525185
21
-41.8340477345
31
0.0000000000
11
40.3188306955
21
-41.5946513230
31
0.0000000000
11
40.6700063426
21
-41.2693768715
31
0.0000000000
11
40.9780100770
21
-40.8578558286
31
0.0000000000
11
41.2028744605
21
-40.3892084768
31
0.0000000000
11
41.3241701673
21
-39.9127823916
31
0.0000000000
11
41.3514742308
21
-39.4885617683
31
0.0000000000
0
SPLINE
5
355
100
AcDbEntity
8
0
100
AcDbSpline
62
9
6
CONTINUOUS
70
0
71
3
72
12
73
8
74
6
42
0.0000001000
43
0.0000001000
44
0.0000000001
12
0.0343005923
22
-0.7926258896
32
0.0000000000
13
0.8290713761
23
-0.0854752547
33
0.0000000000
40
0.0000000000
40
0.0000000000
40
0.0000000000
40
0.0000000000
40
0.3377647518
40
0.6239577165
40
0.8367318744
40
0.9638265405
40
1.0000000000
40
1.0000000000
40
1.0000000000
40
1.0000000000
10
19.5614869887
20
-42.3895985901
30
0.0000000000
10
19.5653488324
20
-42.4788389524
30
0.0000000000
10
19.5775092599
20
-42.6428067811
30
0.0000000000
10
19.6029462519
20
-42.8651374098
30
0.0000000000
10
19.6479382968
20
-43.0204776714
30
0.0000000000
10
19.6727301740
20
-43.1242120099
30
0.0000000000
10
19.7202914454
20
-43.1444396145
30
0.0000000000
10
19.7302882387
20
-43.1454702598
30
0.0000000000
11
19.5614869887
21
-42.3895985901
31
0.0000000000
11
19.5805093708
21
-42.6568942202
31
0.0000000000
11
19.6119847359
21
-42.8817582812
31
0.0000000000
11
19.6533048531
21
-43.0454312434
31
0.0000000000
11
19.7010225387
21
-43.1342584747
31
0.0000000000
11
19.7302882387
21
-43.1454702598
31
0.0000000000
0
SPLINE
5
356
100
AcDbEntity
8
0
100
AcDbSpline
62
9
6
CONTINUOUS
70
0
71
3
72
30
73
26
74
24
42
0.0000001000
43
0.0000001000
44
0.0000000001
12
19.1087936040
22
-0.0017491194
32
0.0000000000
13
19.0982262812
23
0.6354124433
33
0.0000000000
40
0.0000000000
40
0.0000000000
40
0.0000000000
40
0.0000000000
40
0.0326009602
40
0.0684218545
40
0.1079020879
40
0.1514730748
40
0.1995651967
40
0.2525978851
40
0.3109658454
40
0.3743183759
40
0.4410672065
40
0.5087942501
40
0.5737281416
40
0.6324991695
40
0.6847077559
40
0.7316070566
40
0.7740434398
40
0.8125135522
40
0.8474829288
40
0.8793078903
40
0.9082268602
40
0.9344897079
40
0.9583581605
40
0.9801015142
40
1.0000000000
40
1.0000000000
40
1.0000000000
40
1.0000000000
10
19.5615046157
20
-42.3895986579
30
0.0000000000
10
19.7691596224
20
-42.3896176656
30
0.0000000000
10
20.2049793128
20
-42.3897898314
30
0.0000000000
10
20.8922719910
20
-42.3903730348
30
0.0000000000
10
21.6494390970
20
-42.3912112206
30
0.0000000000
10
22.4847690194
20
-42.3920735741
30
0.0000000000
10
23.4064229548
20
-42.3925996522
30
0.0000000000
10
24.4223279207
20
-42.3924775822
30
0.0000000000
10
25.5354347135
20
-42.3909229828
30
0.0000000000
10
26.7359037795
20
-42.3873572093
30
0.0000000000
10
27.9959773656
20
-42.3812630235
30
0.0000000000
10
29.2661067465
20
-42.3722933814
30
0.0000000000
10
30.4854009011
20
-42.3610888666
30
0.0000000000
10
31.6058263265
20
-42.3482270982
30
0.0000000000
10
32.6113590599
20
-42.3345382226
30
0.0000000000
10
33.5128288703
20
-42.3203924308
30
0.0000000000
10
34.3267700729
20
-42.3057871408
30
0.0000000000
10
35.0647037556
20
-42.2909298754
30
0.0000000000
10
35.7350315618
20
-42.2760579168
30
0.0000000000
10
36.3445046764
20
-42.2611346899
30
0.0000000000
10
36.8985082895
20
-42.2464374402
30
0.0000000000
10
37.4018249742
20
-42.2321768621
30
0.0000000000
10
37.8594329955
20
-42.2184841000
30
0.0000000000
10
38.2765008559
20
-42.2053582976
30
0.0000000000
10
38.5416008078
20
-42.1966837538
30
0.0000000000
10
38.6682760693
20
-42.1924691720
30
0.0000000000
11
19.5615046157
21
-42.3895986579
31
0.0000000000
11
20.1844695965
21
-42.3898266004
31
0.0000000000
11
20.8689634502
21
-42.3903813081
31
0.0000000000
11
21.6233826698
21
-42.3911734520
31
0.0000000000
11
22.4559712752
21
-42.3919829565
31
0.0000000000
11
23.3749535750
21
-42.3924810305
31
0.0000000000
11
24.3883442565
21
-42.3922763970
31
0.0000000000
11
25.5036844332
21
-42.3906867740
31
0.0000000000
11
26.7142694201
21
-42.3870547979
31
0.0000000000
11
27.9897438308
21
-42.3808234987
31
0.0000000000
11
29.2838937696
21
-42.3716992637
31
0.0000000000
11
30.5246491069
21
-42.3602310618
31
0.0000000000
11
31.6476183845
21
-42.3473243044
31
0.0000000000
11
32.6451686474
21
-42.3337139080
31
0.0000000000
11
33.5412464583
21
-42.3195933883
31
0.0000000000
11
34.3520236489
21
-42.3050236078
31
0.0000000000
11
35.0869919746
21
-42.2902177400
31
0.0000000000
11
35.7550490611
21
-42.2753457510
31
0.0000000000
11
36.3630035888
21
-42.2604647604
31
0.0000000000
11
36.9154159940
21
-42.2458148098
31
0.0000000000
11
37.4170661419
21
-42.2316058156
31
0.0000000000
11
37.8729591856
21
-42.2179561766
31
0.0000000000
11
38.2882432077
21
-42.2048983881
31
0.0000000000
11
38.6682760693
21
-42.1924691720
31
0.0000000000
0
SPLINE
5
357
100
AcDbEntity
8
0
100
AcDbSpline
62
9
6
CONTINUOUS
70
0
71
3
72
12
73
8
74
6
42
0.0000001000
43
0.0000001000
44
0.0000000001
12
0.0342311903
22
-0.7926393528
32
0.0000000000
13
0.8290854836
23
-0.0854732053
33
0.0000000000
40
0.0000000000
40
0.0000000000
40
0.0000000000
40
0.0000000000
40
0.3377589478
40
0.6239490956
40
0.8367227823
40
0.9638212794
40
1.0000000000
40
1.0000000000
40
1.0000000000
40
1.0000000000
10
-21.8023941509
20
-42.3895985901
30
0.0000000000
10
-21.7985401873
20
-42.4788389347
30
0.0000000000
10
-21.7863914139
20
-42.6428078969
30
0.0000000000
10
-21.7609435382
20
-42.8651378020
30
0.0000000000
10
-21.7159492135
20
-43.0204795992
30
0.0000000000
10
-21.6911428460
20
-43.1242143328
30
0.0000000000
10
-21.6435797711
20
-43.1444399262
30
0.0000000000
10
-21.6335813537
20
-43.1454706966
30
0.0000000000
11
-21.8023941509
21
-42.3895985901
31
0.0000000000
11
-21.7833865471
21
-42.6568941947
31
0.0000000000
11
-21.7519058372
21
-42.8817582717
31
0.0000000000
11
-21.7105781937
21
-43.0454312421
31
0.0000000000
11
-21.6628512819
21
-43.1342584750
31
0.0000000000
11
-21.6335813537
21
-43.1454706966
31
0.0000000000
0
SPLINE
5
358
100
AcDbEntity
8
0
100
AcDbSpline
62
7
6
CONTINUOUS
70
0
71
3
72
10
73
6
74
4
42
0.0000001000
43
0.0000001000
44
0.0000000001
12
-0.5720559102
22
1.8174761944
32
0.0000000000
13
-0.5668507508
23
1.8191063278
33
0.0000000000
40
0.0000000000
40
0.0000000000
40
0.0000000000
40
0.0000000000
40
0.3156893174
40
0.6577532442
40
1.0000000000
40
1.0000000000
40
1.0000000000
40
1.0000000000
10
16.8304897835
20
-32.3418297210
30
0.0000000000
10
16.7702924702
20
-32.1505771146
30
0.0000000000
10
16.6450490483
20
-31.7520366687
30
0.0000000000
10
16.4552090775
20
-31.1459457588
30
0.0000000000
10
16.3257055788
20
-30.7310642969
30
0.0000000000
10
16.2610379686
20
-30.5235365506
30
0.0000000000
11
16.8304897835
21
-32.3418297210
31
0.0000000000
11
16.6501575754
21
-31.7679902161
31
0.0000000000
11
16.4553452369
21
-31.1460248424
31
0.0000000000
11
16.2610379686
21
-30.5235365506
31
0.0000000000
0
SPLINE
5
359
100
AcDbEntity
8
0
100
AcDbSpline
62
7
6
CONTINUOUS
70
0
71
3
72
10
73
6
74
4
42
0.0000001000
43
0.0000001000
44
0.0000000001
12
-1.3375476379
22
-0.0008071379
32
0.0000000000
13
-1.3375477050
23
0.0006869798
33
0.0000000000
40
0.0000000000
40
0.0000000000
40
0.0000000000
40
0.0000000000
40
0.3288101893
40
0.6621575405
40
1.0000000000
40
1.0000000000
40
1.0000000000
40
1.0000000000
10
22.6941574836
20
-30.5247236546
30
0.0000000000
10
22.5475577196
20
-30.5248121197
30
0.0000000000
10
22.2523352543
20
-30.5249167246
30
0.0000000000
10
21.8064859518
20
-30.5248933421
30
0.0000000000
10
21.5072364669
20
-30.5247752337
30
0.0000000000
10
21.3566096648
20
-30.5246978701
30
0.0000000000
11
22.6941574836
21
-30.5247236546
31
0.0000000000
11
22.2543581416
21
-30.5248863959
31
0.0000000000
11
21.8084900987
21
-30.5248681854
31
0.0000000000
11
21.3566096648
21
-30.5246978701
31
0.0000000000
0
SPLINE
5
35A
100
AcDbEntity
8
0
100
AcDbSpline
62
7
6
CONTINUOUS
70
0
71
3
72
10
73
6
74
4
42
0.0000001000
43
0.0000001000
44
0.0000000001
12
-0.6741769952
22
1.9306464007
32
0.0000000000
13
-0.6682928288
23
1.9326910668
33
0.0000000000
40
0.0000000000
40
0.0000000000
40
0.0000000000
40
0.0000000000
40
0.3189841131
40
0.6594016983
40
1.0000000000
40
1.0000000000
40
1.0000000000
40
1.0000000000
10
12.7115595453
20
-32.4552076086
30
0.0000000000
10
12.6398756284
20
-32.2499257653
30
0.0000000000
10
12.4918977645
20
-31.8254964088
30
0.0000000000
10
12.2681324998
20
-31.1816129333
30
0.0000000000
10
12.1161993844
20
-30.7429603156
30
0.0000000000
10
12.0403262502
20
-30.5235365506
30
0.0000000000
11
12.7115595453
21
-32.4552076086
31
0.0000000000
11
12.4968075451
21
-31.8392574894
31
0.0000000000
11
12.2682865238
21
-31.1816898792
31
0.0000000000
11
12.0403262502
21
-30.5235365506
31
0.0000000000
0
ENDSEC
0
SECTION
2
OBJECTS
0
DICTIONARY
5
C
100
AcDbDictionary
280
0
281
1
3
ACAD_GROUP
350
D
3
ACAD_MLINESTYLE
350
17
3
ACAD_LAYOUT
350
1A
3
ACAD_PLOTSETTINGS
350
19
3
ACAD_PLOTSTYLENAME
350
E
0
DICTIONARY
5
D
102
{ACAD_REACTORS
330
C
102
}
100
AcDbDictionary
280
0
281
1
0
ACDBDICTIONARYWDFLT
5
E
102
{ACAD_REACTORS
330
C
102
}
100
AcDbDictionary
281
1
3
Normal
350
F
100
AcDbDictionaryWithDefault
340
F
0
DICTIONARY
5
17
102
{ACAD_REACTORS
330
C
102
}
100
AcDbDictionary
280
0
281
1
3
Standard
350
18
0
DICTIONARY
5
19
102
{ACAD_REACTORS
330
C
102
}
100
AcDbDictionary
281
1
0
DICTIONARY
5
1A
102
{ACAD_REACTORS
330
C
102
}
100
AcDbDictionary
281
1
3
Layout1
350
1E
3
Model
350
22
0
ACDBPLACEHOLDER
5
F
102
{ACAD_REACTORS
330
E
102
}
0
MLINESTYLE
5
18
102
{ACAD_REACTORS
330
17
102
}
100
AcDbMlineStyle
2
STANDARD
70
0
3

62
256
51
90.0
52
90.0
71
2
49
0.5
62
256
6
BYLAYER
49
-0.5
62
256
6
BYLAYER
0
LAYOUT
5
1E
102
{ACAD_REACTORS
330
1A
102
}
100
AcDbPlotSettings
1

2

4

6

40
0.0
41
0.0
42
0.0
43
0.0
44
0.0
45
0.0
46
0.0
47
0.0
48
0.0
49
0.0
140
0.0
141
0.0
142
1.0
143
1.0
70
0
72
0
73
0
74
0
7

75
0
147
1.0
148
0.0
149
0.0
100
AcDbLayout
1
Layout1
70
0
71
0
10
0.0
20
0.0
11
0.0
21
0.0
12
0.0
22
0.0
32
0.0
14
0.0
24
0.0
34
0.0
15
0.0
25
0.0
35
0.0
146
0.0
13
0.0
23
0.0
33
0.0
16
0.0
26
0.0
36
0.0
17
0.0
27
0.0
37
0.0
76
0
330
1B
331
0
345
0
346
0
0
LAYOUT
5
22
102
{ACAD_REACTORS
330
1A
102
}
100
AcDbPlotSettings
1

2

4

6

40
0.0
41
0.0
42
0.0
43
0.0
44
0.0
45
0.0
46
0.0
47
0.0
48
0.0
49
0.0
140
0.0
141
0.0
142
1.0
143
1.0
70
0
72
0
73
0
74
0
7

75
0
147
1.0
148
0.0
149
0.0
100
AcDbLayout
1
Model
70
0
71
0
10
0.0
20
0.0
11
0.0
21
0.0
12
0.0
22
0.0
32
0.0
14
0.0
24
0.0
34
0.0
15
0.0
25
0.0
35
0.0
146
0.0
13
0.0
23
0.0
33
0.0
16
0.0
26
0.0
36
0.0
17
0.0
27
0.0
37
0.0
76
0
330
1F
331
0
345
0
346
0
0
ENDSEC
0
EOF
