  0
SECTION
  2
HEADER
  9
$ACADVER
  1
AC1024
  9
$DWGCODEPAGE
  3
ANSI_1252
  9
$EXTMAX
 10
297.0
 20
210.0
 30
0.0
  9
$EXTMIN
 10
0.0
 20
0.0
 30
0.0
  9
$LIMMIN
 10
0.0
 20
0.0
  9
$LIMMAX
 10
297.0
 20
210.0
  9
$VIEWCTR
 10
148.5
 20
105.0
  9
$VIEWSIZE
 40
210.0
  9
$CLAYER
  8
0
  9
$LTSCALE
 40
16.335
  9
$CELTYPE
  6
BYLAYER
  9
$DIMSCALE
 40
1.0
  9
$DIMASZ
 40
3.0
  9
$DIMEXO
 40
0.5
  9
$DIMDLI
 40
11.286
  9
$DIMEXE
 40
1.5
  9
$DIMCEN
 40
2.673
  9
$DIMLFAC
 40
1.0
  9
$DIMBLK
  1
_FILLED
  9
$DIMALT
 70
0
  9
$DIMALTF
 40
0.0393700787
  9
$DIMTXT
 40
3.0
  9
$DIMTOL
 70
1
  9
$DIMLIM
 70
0
  9
$DIMTFAC
 40
1.0
  9
$DIMTP
 40
0.01
  9
$DIMTM
 40
0.01
  9
$DIMGAP
 40
0.625
  9
$DIMDSEP
 70
44
  9
$AUNITS
 70
0
  9
$PDMODE
 70
3
  9
$PDSIZE
 40
3.0
  9
$HANDSEED
  5
504
  9
$TILEMODE
 70
1
  9
$MEASUREMENT
 70
1
  9
$INSUNITS
 70
4
  0
ENDSEC
  0
SECTION
  2
CLASSES
  0
CLASS
  1
ACDBDICTIONARYWDFLT
  2
AcDbDictionaryWithDefault
  3
AutoCAD 2000
 90
0
 91
1
280
0
281
0
  0
CLASS
  1
ACDBPLACEHOLDER
  2
AcDbPlaceHolder
  3
AutoCAD 2000
 90
0
 91
1
280
0
281
0
  0
CLASS
  1
LAYOUT
  2
AcDbLayout
  3
AutoCAD 2000
 90
0
 91
0
280
0
281
0
  0
ENDSEC
  0
SECTION
  2
TABLES
  0
TABLE
  2
VPORT
  5
8
100
AcDbSymbolTable
 70
2
  0
VPORT
  5
1F4
100
AcDbSymbolTableRecord
100
AcDbViewportTableRecord
  2
*ACTIVE
 70
0
 10
0.0
 20
0.0
 11
1.0
 21
1.0
 12
148.5
 22
105.0
 13
0.0
 23
0.0
 14
1.0
 24
1.0
 15
0.0
 25
0.0
 16
0.0
 26
0.0
 36
1.0
 17
0.0
 27
0.0
 37
0.0
 40
210.0
 41
1.4142857143
 42
50.0
 43
0.0
 44
0.0
 50
0.0
 51
0.0
 71
0
 72
100
 73
1
 74
1
 75
0
 76
0
 77
0
 78
0
  0
ENDTAB
  0
TABLE
  2
LTYPE
  5
5
100
AcDbSymbolTable
 70
6
  0
LTYPE
  5
14
100
AcDbSymbolTableRecord
100
AcDbLinetypeTableRecord
  2
BYBLOCK
 70
0
  3

 72
65
 73
0
 40
0.0
  0
LTYPE
  5
15
100
AcDbSymbolTableRecord
100
AcDbLinetypeTableRecord
  2
BYLAYER
 70
0
  3

 72
65
 73
0
 40
0.0
  0
LTYPE
  5
16
100
AcDbSymbolTableRecord
100
AcDbLinetypeTableRecord
  2
CONTINUOUS
 70
64
  3
Solid line
 72
65
 73
0
 40
0.0
  0
LTYPE
  5
1F5
100
AcDbSymbolTableRecord
100
AcDbLinetypeTableRecord
  2
CENTER
 70
64
  3
____ _ ____ _ ____ _ ____ _ ____ _ ____ _ ____
 72
65
 73
4
 40
0.6
 49
0.375
 74
0
 49
-0.075
 74
0
 49
0.075
 74
0
 49
-0.075
 74
0
  0
LTYPE
  5
1F6
100
AcDbSymbolTableRecord
100
AcDbLinetypeTableRecord
  2
HIDDEN
 70
64
  3
- - - - - - - - - - - - - - - - - - - -
 72
65
 73
2
 40
0.2
 49
0.1
 74
0
 49
-0.1
 74
0
  0
LTYPE
  5
1F7
100
AcDbSymbolTableRecord
100
AcDbLinetypeTableRecord
  2
PHANTOM
 70
64
  3
_____ _ _ _____ _ _ _____ _ _ _____
 72
65
 73
6
 40
0.8
 49
0.45
 74
0
 49
-0.05
 74
0
 49
0.1
 74
0
 49
-0.05
 74
0
 49
0.1
 74
0
 49
-0.05
 74
0
  0
LTYPE
  5
1F8
100
AcDbSymbolTableRecord
100
AcDbLinetypeTableRecord
  2
DOT
 70
64
  3
. . . . . . . . . . . . . . . . . . . .
 72
65
 73
2
 40
0.2
 49
0.1
 74
0
 49
-0.1
 74
0
  0
LTYPE
  5
1F9
100
AcDbSymbolTableRecord
100
AcDbLinetypeTableRecord
  2
DASHED
 70
64
  3
- - - - - - - - - - - - - - - - - - - -
 72
65
 73
2
 40
0.2
 49
0.1
 74
0
 49
-0.1
 74
0
  0
ENDTAB
  0
TABLE
  2
LAYER
  5
2
100
AcDbSymbolTable
 70
36
  0
LAYER
  5
10
100
AcDbSymbolTableRecord
100
AcDbLayerTableRecord
  2
0
 70
0
 62
7
  6
CONTINUOUS
370
-3
390
F
  0
LAYER
  5
1FA
100
AcDbSymbolTableRecord
100
AcDbLayerTableRecord
  2
DEFAULT_1
 70
0
 62
7
  6
CENTER
370
-3
390
F
  0
LAYER
  5
1FB
100
AcDbSymbolTableRecord
100
AcDbLayerTableRecord
  2
DEFAULT_2
 70
0
 62
7
  6
HIDDEN
370
-3
390
F
  0
LAYER
  5
1FC
100
AcDbSymbolTableRecord
100
AcDbLayerTableRecord
  2
DEFAULT_3
 70
0
 62
7
  6
PHANTOM
370
-3
390
F
  0
LAYER
  5
1FD
100
AcDbSymbolTableRecord
100
AcDbLayerTableRecord
  2
ASSI
 70
0
 62
7
  6
CONTINUOUS
370
-3
390
F
  0
LAYER
  5
1FE
100
AcDbSymbolTableRecord
100
AcDbLayerTableRecord
  2
COLOR9
 70
0
 62
7
  6
CONTINUOUS
370
-3
390
F
  0
LAYER
  5
1FF
100
AcDbSymbolTableRecord
100
AcDbLayerTableRecord
  2
COLORE_TOP
 70
0
 62
7
  6
CONTINUOUS
370
-3
390
F
  0
LAYER
  5
200
100
AcDbSymbolTableRecord
100
AcDbLayerTableRecord
  2
COORDINATE
 70
0
 62
7
  6
CONTINUOUS
370
-3
390
F
  0
LAYER
  5
201
100
AcDbSymbolTableRecord
100
AcDbLayerTableRecord
  2
COORD_ORIGINE
 70
0
 62
7
  6
CONTINUOUS
370
-3
390
F
  0
LAYER
  5
202
100
AcDbSymbolTableRecord
100
AcDbLayerTableRecord
  2
COPY
 70
0
 62
7
  6
CONTINUOUS
370
-3
390
F
  0
LAYER
  5
203
100
AcDbSymbolTableRecord
100
AcDbLayerTableRecord
  2
COPY_GEOMETRY
 70
0
 62
7
  6
CONTINUOUS
370
-3
390
F
  0
LAYER
  5
204
100
AcDbSymbolTableRecord
100
AcDbLayerTableRecord
  2
COPY_PUBLISH
 70
0
 62
7
  6
CONTINUOUS
370
-3
390
F
  0
LAYER
  5
205
100
AcDbSymbolTableRecord
100
AcDbLayerTableRecord
  2
COSMETICHE
 70
0
 62
7
  6
CONTINUOUS
370
-3
390
F
  0
LAYER
  5
206
100
AcDbSymbolTableRecord
100
AcDbLayerTableRecord
  2
COSMETICI
 70
0
 62
7
  6
CONTINUOUS
370
-3
390
F
  0
LAYER
  5
207
100
AcDbSymbolTableRecord
100
AcDbLayerTableRecord
  2
CURVE
 70
0
 62
7
  6
CONTINUOUS
370
-3
390
F
  0
LAYER
  5
208
100
AcDbSymbolTableRecord
100
AcDbLayerTableRecord
  2
DRAFT
 70
0
 62
7
  6
CONTINUOUS
370
-3
390
F
  0
LAYER
  5
209
100
AcDbSymbolTableRecord
100
AcDbLayerTableRecord
  2
GENERICI
 70
0
 62
7
  6
CONTINUOUS
370
-3
390
F
  0
LAYER
  5
20A
100
AcDbSymbolTableRecord
100
AcDbLayerTableRecord
  2
IGES
 70
0
 62
7
  6
CONTINUOUS
370
-3
390
F
  0
LAYER
  5
20B
100
AcDbSymbolTableRecord
100
AcDbLayerTableRecord
  2
IMPIANTO
 70
0
 62
7
  6
CONTINUOUS
370
-3
390
F
  0
LAYER
  5
20C
100
AcDbSymbolTableRecord
100
AcDbLayerTableRecord
  2
IMPORTED
 70
0
 62
7
  6
CONTINUOUS
370
-3
390
F
  0
LAYER
  5
20D
100
AcDbSymbolTableRecord
100
AcDbLayerTableRecord
  2
IMPORT_IGES
 70
0
 62
7
  6
CONTINUOUS
370
-3
390
F
  0
LAYER
  5
20E
100
AcDbSymbolTableRecord
100
AcDbLayerTableRecord
  2
INCISIONI_LASER
 70
0
 62
7
  6
CONTINUOUS
370
-3
390
F
  0
LAYER
  5
20F
100
AcDbSymbolTableRecord
100
AcDbLayerTableRecord
  2
INTFCLR_3
 70
0
 62
7
  6
CONTINUOUS
370
-3
390
F
  0
LAYER
  5
210
100
AcDbSymbolTableRecord
100
AcDbLayerTableRecord
  2
INTF_1
 70
0
 62
7
  6
CONTINUOUS
370
-3
390
F
  0
LAYER
  5
211
100
AcDbSymbolTableRecord
100
AcDbLayerTableRecord
  2
INTF_11
 70
0
 62
7
  6
CONTINUOUS
370
-3
390
F
  0
LAYER
  5
212
100
AcDbSymbolTableRecord
100
AcDbLayerTableRecord
  2
INTF_12
 70
0
 62
7
  6
CONTINUOUS
370
-3
390
F
  0
LAYER
  5
213
100
AcDbSymbolTableRecord
100
AcDbLayerTableRecord
  2
INTF_16
 70
0
 62
7
  6
CONTINUOUS
370
-3
390
F
  0
LAYER
  5
214
100
AcDbSymbolTableRecord
100
AcDbLayerTableRecord
  2
INTF_2
 70
0
 62
7
  6
CONTINUOUS
370
-3
390
F
  0
LAYER
  5
215
100
AcDbSymbolTableRecord
100
AcDbLayerTableRecord
  2
INTF_6
 70
0
 62
7
  6
CONTINUOUS
370
-3
390
F
  0
LAYER
  5
216
100
AcDbSymbolTableRecord
100
AcDbLayerTableRecord
  2
INTF_YELLOW
 70
0
 62
7
  6
CONTINUOUS
370
-3
390
F
  0
LAYER
  5
217
100
AcDbSymbolTableRecord
100
AcDbLayerTableRecord
  2
NOTE
 70
0
 62
7
  6
CONTINUOUS
370
-3
390
F
  0
LAYER
  5
218
100
AcDbSymbolTableRecord
100
AcDbLayerTableRecord
  2
PIANI
 70
0
 62
7
  6
CONTINUOUS
370
-3
390
F
  0
LAYER
  5
219
100
AcDbSymbolTableRecord
100
AcDbLayerTableRecord
  2
PIANI_ORIGINE
 70
0
 62
7
  6
CONTINUOUS
370
-3
390
F
  0
LAYER
  5
21A
100
AcDbSymbolTableRecord
100
AcDbLayerTableRecord
  2
PIANI_RIFERIMENTO
 70
0
 62
7
  6
CONTINUOUS
370
-3
390
F
  0
LAYER
  5
21B
100
AcDbSymbolTableRecord
100
AcDbLayerTableRecord
  2
PIANI_SFORMO
 70
0
 62
7
  6
CONTINUOUS
370
-3
390
F
  0
LAYER
  5
21C
100
AcDbSymbolTableRecord
100
AcDbLayerTableRecord
  2
PUNTI
 70
0
 62
7
  6
CONTINUOUS
370
-3
390
F
  0
LAYER
  5
21D
100
AcDbSymbolTableRecord
100
AcDbLayerTableRecord
  2
RACCORDO
 70
0
 62
7
  6
CONTINUOUS
370
-3
390
F
  0
LAYER
  5
21E
100
AcDbSymbolTableRecord
100
AcDbLayerTableRecord
  2
RGB__255__255__255__
 70
0
 62
7
  6
CONTINUOUS
370
-3
390
F
  0
LAYER
  5
21F
100
AcDbSymbolTableRecord
100
AcDbLayerTableRecord
  2
RINTRACCIABILITA
 70
0
 62
7
  6
CONTINUOUS
370
-3
390
F
  0
LAYER
  5
220
100
AcDbSymbolTableRecord
100
AcDbLayerTableRecord
  2
SIMBOLI
 70
0
 62
7
  6
CONTINUOUS
370
-3
390
F
  0
LAYER
  5
221
100
AcDbSymbolTableRecord
100
AcDbLayerTableRecord
  2
SMUSSO
 70
0
 62
7
  6
CONTINUOUS
370
-3
390
F
  0
LAYER
  5
222
100
AcDbSymbolTableRecord
100
AcDbLayerTableRecord
  2
SUPERFICI
 70
0
 62
7
  6
CONTINUOUS
370
-3
390
F
  0
LAYER
  5
223
100
AcDbSymbolTableRecord
100
AcDbLayerTableRecord
  2
TRASH
 70
0
 62
7
  6
CONTINUOUS
370
-3
390
F
  0
LAYER
  5
224
100
AcDbSymbolTableRecord
100
AcDbLayerTableRecord
  2
XSEC_DATUMS
 70
0
 62
7
  6
CONTINUOUS
370
-3
390
F
  0
ENDTAB
  0
TABLE
  2
STYLE
  5
3
100
AcDbSymbolTable
 70
1
  0
STYLE
  5
11
100
AcDbSymbolTableRecord
100
AcDbTextStyleTableRecord
  2
STANDARD
 70
0
 40
0.0
 41
0.8
 50
0.0
 71
0
 42
0.2
  3
txt
  4

  0
STYLE
  5
225
100
AcDbSymbolTableRecord
100
AcDbTextStyleTableRecord
  2
TEXTSTYLE_1
 70
0
 40
0.0
 41
0.8
 50
0.0
 71
0
 42
0.2
  3
gdt
  4

  0
ENDTAB
  0
TABLE
  2
VIEW
  5
6
100
AcDbSymbolTable
 70
0
  0
ENDTAB
  0
TABLE
  2
UCS
  5
7
100
AcDbSymbolTable
 70
0
  0
ENDTAB
  0
TABLE
  2
APPID
  5
9
100
AcDbSymbolTable
 70
1
  0
APPID
  5
226
100
AcDbSymbolTableRecord
100
AcDbRegAppTableRecord
  2
ACAD
 70
0
  0
ENDTAB
  0
TABLE
  2
BLOCK_RECORD
  5
1
100
AcDbSymbolTable
 70
0
  0
BLOCK_RECORD
  5
227
100
AcDbSymbolTableRecord
100
AcDbBlockTableRecord
  2
*Model_Space
  0
BLOCK_RECORD
  5
228
100
AcDbSymbolTableRecord
100
AcDbBlockTableRecord
  2
*Paper_Space
  0
BLOCK_RECORD
  5
229
100
AcDbSymbolTableRecord
100
AcDbBlockTableRecord
  2
_FILLED
  0
ENDTAB
  0
TABLE
  2
DIMSTYLE
  5
A
100
AcDbSymbolTable
 70
1
100
AcDbDimStyleTable
 71
0
  0
DIMSTYLE
105
22A
100
AcDbSymbolTableRecord
100
AcDbDimStyleTableRecord
  2
STANDARD
 70
0
  3

  4

 40
1.0
 41
3.0
 42
0.5
 43
0.38
 44
1.5
 45
0.0
 46
0.0
 47
0.01
 48
0.01
140
3.0
141
0.09
142
0.0
143
25.4
144
1.0
145
0.0
146
1.0
147
0.625
 71
1
 72
0
 73
0
 74
0
 75
0
 76
0
 77
1
 78
8
 79
2
170
0
171
1
172
0
173
0
174
0
175
0
176
0
177
0
178
0
270
2
179
2
271
2
272
2
273
2
274
2
275
0
280
0
281
0
282
0
283
1
284
8
285
0
286
0
287
3
288
0
340
11
278
44
341
229
342
229
343
229
344
229
  0
ENDTAB
  0
ENDSEC
  0
SECTION
  2
BLOCKS
  0
BLOCK
  5
20
100
AcDbEntity
  8
0
100
AcDbBlockBegin
  2
*Model_Space
 70
0
 10
0.0
 20
0.0
 30
0.0
  3
*Model_Space
  1

  0
ENDBLK
  5
21
100
AcDbEntity
  8
0
100
AcDbBlockEnd
  0
BLOCK
  5
1C
100
AcDbEntity
  8
0
100
AcDbBlockBegin
  2
*Paper_Space
 70
0
 10
0.0
 20
0.0
 30
0.0
  3
*Paper_Space
  1

  0
ENDBLK
  5
1D
100
AcDbEntity
  8
0
100
AcDbBlockEnd
  0
BLOCK
  5
22B
100
AcDbEntity
  8
0
100
AcDbBlockBegin
  2
_FILLED
 70
64
 10
0.0
 20
0.0
  3
_FILLED
  1

  0
SOLID
  5
22C
100
AcDbEntity
  8
0
  6
BYBLOCK
 62
0
100
AcDbTrace
 10
0.0
 20
0.0
 11
-1.0
 21
0.1333333333
 12
-1.0
 22
-0.1333333333
 13
-1.0
 23
-0.1333333333
  0
ENDBLK
  5
22D
100
AcDbEntity
  8
0
  6
BYBLOCK
 62
0
100
AcDbBlockEnd
  0
ENDSEC
  0
SECTION
  2
ENTITIES
  0
LWPOLYLINE
  5
22E
100
AcDbEntity
  8
RACCORDO
100
AcDbPolyline
 62
7
  6
CONTINUOUS
 90
41
 70
0
 10
-20.823400571
 20
-15.6851978689
 10
-20.8228907972
 20
-15.6904086351
 10
-20.8222028946
 20
-15.6956055837
 10
-20.8213403204
 20
-15.7007826724
 10
-20.8203065317
 20
-15.7059338589
 10
-20.8191049856
 20
-15.7110531009
 10
-20.8177391392
 20
-15.7161343561
 10
-20.8162124495
 20
-15.7211715821
 10
-20.8145283737
 20
-15.7261587367
 10
-20.8126903688
 20
-15.7310897776
 10
-20.810701892
 20
-15.7359586623
 10
-20.808626402
 20
-15.7406311009
 10
-20.8064165986
 20
-15.7452380917
 10
-20.8040773306
 20
-15.7497787425
 10
-20.8016134466
 20
-15.7542521609
 10
-20.7990297951
 20
-15.7586574547
 10
-20.7963312247
 20
-15.7629937316
 10
-20.7935225841
 20
-15.7672600993
 10
-20.7906087219
 20
-15.7714556656
 10
-20.7875944866
 20
-15.7755795381
 10
-20.7844847269
 20
-15.7796308245
 10
-20.7812842913
 20
-15.7836086327
 10
-20.7772484399
 20
-15.7883786134
 10
-20.7730897006
 20
-15.7930386311
 10
-20.7688138752
 20
-15.7975902339
 10
-20.7644267654
 20
-15.8020349703
 10
-20.7599341729
 20
-15.8063743886
 10
-20.7553418994
 20
-15.8106100372
 10
-20.7506557467
 20
-15.8147434643
 10
-20.7458815165
 20
-15.8187762183
 10
-20.7410250105
 20
-15.8227098476
 10
-20.7360920304
 20
-15.8265459006
 10
-20.7298723769
 20
-15.8311725786
 10
-20.723549808
 20
-15.8356542112
 10
-20.7171302264
 20
-15.8399936128
 10
-20.7106195349
 20
-15.8441935976
 10
-20.7040236362
 20
-15.8482569799
 10
-20.6973484331
 20
-15.8521865741
 10
-20.6905998282
 20
-15.8559851944
 10
-20.6837837244
 20
-15.8596556552
 10
-20.6769060242
 20
-15.8632007707
  0
LWPOLYLINE
  5
22F
100
AcDbEntity
  8
RACCORDO
100
AcDbPolyline
 62
7
  6
CONTINUOUS
 90
58
 70
0
 10
-5.2960553463
 20
-23.1686150734
 10
-5.2951407656
 20
-23.1781074928
 10
-5.2940204987
 20
-23.1876017176
 10
-5.2926880343
 20
-23.197086424
 10
-5.291136861
 20
-23.2065502883
 10
-5.2893604674
 20
-23.2159819867
 10
-5.2873523423
 20
-23.2253701953
 10
-5.2851059741
 20
-23.2347035906
 10
-5.2826148516
 20
-23.2439708487
 10
-5.2798724633
 20
-23.2531606459
 10
-5.2768722979
 20
-23.2622616584
 10
-5.273607844
 20
-23.2712625625
 10
-5.2700725902
 20
-23.2801520344
 10
-5.2662600252
 20
-23.2889187503
 10
-5.2621636376
 20
-23.2975513866
 10
-5.2582772154
 20
-23.3051060743
 10
-5.2541583827
 20
-23.3125335495
 10
-5.2498043525
 20
-23.3198215986
 10
-5.2452123378
 20
-23.326958008
 10
-5.2403795517
 20
-23.3339305642
 10
-5.2353032073
 20
-23.3407270534
 10
-5.2299805177
 20
-23.3473352621
 10
-5.2247310757
 20
-23.3533864248
 10
-5.2192645916
 20
-23.3592464054
 10
-5.2135858236
 20
-23.3649025201
 10
-5.2076995299
 20
-23.3703420852
 10
-5.2016104686
 20
-23.3755524168
 10
-5.195323398
 20
-23.3805208312
 10
-5.1888430763
 20
-23.3852346445
 10
-5.1823125268
 20
-23.3895948894
 10
-5.1756129519
 20
-23.3936933478
 10
-5.1687562545
 20
-23.3975247913
 10
-5.1617543375
 20
-23.4010839918
 10
-5.1546191039
 20
-23.4043657208
 10
-5.1473624565
 20
-23.40736475
 10
-5.1399962982
 20
-23.4100758512
 10
-5.1323472667
 20
-23.4125511193
 10
-5.1246072258
 20
-23.4147219158
 10
-5.1167876437
 20
-23.4165915504
 10
-5.1088999884
 20
-23.418163333
 10
-5.1009557282
 20
-23.4194405734
 10
-5.092966331
 20
-23.4204265814
 10
-5.0849432649
 20
-23.4211246668
 10
-5.0766758837
 20
-23.4215464115
 10
-5.0683931075
 20
-23.4216766283
 10
-5.0601029794
 20
-23.421524266
 10
-5.0518135426
 20
-23.4210982736
 10
-5.0435328403
 20
-23.4204075998
 10
-5.0352689155
 20
-23.4194611935
 10
-5.0270298116
 20
-23.4182680036
 10
-5.0188235715
 20
-23.416836979
 10
-5.0106582385
 20
-23.4151770684
 10
-5.0025418558
 20
-23.4132972208
 10
-4.9944824664
 20
-23.4112063849
 10
-4.9864881136
 20
-23.4089135097
 10
-4.9785668406
 20
-23.406427544
 10
-4.9707266904
 20
-23.4037574367
 10
-4.9629757062
 20
-23.4009121365
  0
LWPOLYLINE
  5
230
100
AcDbEntity
  8
0
100
AcDbPolyline
 62
7
  6
CONTINUOUS
 90
16
 70
0
 10
1.2365610627
 20
-21.7891425412
 10
1.2362710541
 20
-21.7861170741
 10
1.2359495952
 20
-21.7830935607
 10
1.2355965708
 20
-21.7800725567
 10
1.2352118653
 20
-21.7770546177
 10
1.2347953634
 20
-21.7740402993
 10
1.2343469497
 20
-21.7710301571
 10
1.2338665089
 20
-21.7680247469
 10
1.2333539254
 20
-21.765024624
 10
1.232809084
 20
-21.7620303443
 10
1.2322318692
 20
-21.7590424633
 10
1.2316221657
 20
-21.7560615366
 10
1.230979858
 20
-21.7530881198
 10
1.2303048308
 20
-21.7501227686
 10
1.2295969687
 20
-21.7471660385
 10
1.2288561563
 20
-21.7442184852
  0
LWPOLYLINE
  5
231
100
AcDbEntity
  8
RACCORDO
100
AcDbPolyline
 62
7
  6
CONTINUOUS
 90
41
 70
0
 10
-5.9921511588
 20
-23.2055782319
 10
-5.9907100553
 20
-23.2211428631
 10
-5.9890000127
 20
-23.2366886774
 10
-5.987013553
 20
-23.2522076803
 10
-5.984743198
 20
-23.267691877
 10
-5.9821814694
 20
-23.2831332732
 10
-5.9793208892
 20
-23.2985238741
 10
-5.9761539792
 20
-23.3138556852
 10
-5.9726732612
 20
-23.329120712
 10
-5.968871257
 20
-23.3443109598
 10
-5.9647404885
 20
-23.3594184341
 10
-5.9606976424
 20
-23.3730598537
 10
-5.9563712077
 20
-23.3866156382
 10
-5.9517549397
 20
-23.4000750209
 10
-5.9468425938
 20
-23.413427235
 10
-5.9416279252
 20
-23.4266615141
 10
-5.9361046893
 20
-23.4397670913
 10
-5.9302666414
 20
-23.4527332001
 10
-5.9241075368
 20
-23.4655490738
 10
-5.9176211308
 20
-23.4782039458
 10
-5.9108011788
 20
-23.4906870493
 10
-5.9042648994
 20
-23.5019470151
 10
-5.8974429343
 20
-23.5130408128
 10
-5.8903339996
 20
-23.5239550545
 10
-5.8829368114
 20
-23.5346763523
 10
-5.8752500857
 20
-23.5451913183
 10
-5.8672725387
 20
-23.5554865647
 10
-5.8590028865
 20
-23.5655487034
 10
-5.8504398451
 20
-23.5753643467
 10
-5.8415821306
 20
-23.5849201067
 10
-5.8324284592
 20
-23.5942025953
 10
-5.823488331
 20
-23.6027285228
 10
-5.8142914455
 20
-23.6109861259
 10
-5.804847579
 20
-23.6189641252
 10
-5.7951665076
 20
-23.626651241
 10
-5.7852580075
 20
-23.634036194
 10
-5.7751318548
 20
-23.6411077046
 10
-5.7647978258
 20
-23.6478544933
 10
-5.7542656964
 20
-23.6542652806
 10
-5.7435452431
 20
-23.6603287869
 10
-5.7326462417
 20
-23.6660337328
  0
LINE
  5
232
100
AcDbEntity
  8
DRAFT
100
AcDbLine
 62
7
  6
CONTINUOUS
 10
-1.693345862
 20
-12.787969027
 11
-1.4323310341
 21
-15.9216848486
  0
LINE
  5
233
100
AcDbEntity
  8
RACCORDO
100
AcDbLine
 62
7
  6
CONTINUOUS
 10
-1.4185514465
 20
-6.2287570487
 11
-1.4021082295
 21
-6.4261725358
  0
LINE
  5
234
100
AcDbEntity
  8
0
100
AcDbLine
 62
7
  6
CONTINUOUS
 10
-0.8341969748
 20
-2.9761010253
 11
0.3169220267
 21
-16.796311379
  0
LINE
  5
235
100
AcDbEntity
  8
RACCORDO
100
AcDbLine
 62
7
  6
CONTINUOUS
 10
-20.8234404781
 20
-15.6849558843
 11
-20.8234209993
 21
-15.6851994943
  0
LWPOLYLINE
  5
236
100
AcDbEntity
  8
RACCORDO
100
AcDbPolyline
 62
7
  6
CONTINUOUS
 90
13
 70
0
 10
-20.6769060497
 20
-15.8632007865
 10
-20.7373520238
 20
-15.0513738364
 10
-20.7902358892
 20
-14.2390011772
 10
-20.835670612
 20
-13.4261293
 10
-20.8747618579
 20
-12.5892235187
 10
-20.9061866779
 20
-11.7519278719
 10
-20.9300463969
 20
-10.9143318539
 10
-20.9464423402
 20
-10.076524959
 10
-20.9554758328
 20
-9.2385966814
 10
-20.9572481999
 20
-8.4006365154
 10
-20.9518607665
 20
-7.5627339553
 10
-20.9394148578
 20
-6.7249784954
 10
-20.9200117989
 20
-5.8874596298
  0
LINE
  5
237
100
AcDbEntity
  8
RACCORDO
100
AcDbLine
 62
7
  6
CONTINUOUS
 10
-20.8980281178
 20
-14.6666434217
 11
-20.8234404781
 21
-15.6849558843
  0
LINE
  5
238
100
AcDbEntity
  8
RACCORDO
100
AcDbLine
 62
7
  6
CONTINUOUS
 10
-20.9653628512
 20
-13.5644685044
 11
-20.8980281178
 21
-14.6666434217
  0
LINE
  5
239
100
AcDbEntity
  8
RACCORDO
100
AcDbLine
 62
7
  6
CONTINUOUS
 10
-21.01941454
 20
-12.4542673758
 11
-20.9653628512
 21
-13.5644685044
  0
LINE
  5
23A
100
AcDbEntity
  8
RACCORDO
100
AcDbLine
 62
7
  6
CONTINUOUS
 10
-21.0601708328
 20
-11.3363071584
 11
-21.01941454
 21
-12.4542673758
  0
LINE
  5
23B
100
AcDbEntity
  8
RACCORDO
100
AcDbLine
 62
7
  6
CONTINUOUS
 10
-21.0876274183
 20
-10.2108130622
 11
-21.0601708328
 21
-11.3363071584
  0
LINE
  5
23C
100
AcDbEntity
  8
RACCORDO
100
AcDbLine
 62
7
  6
CONTINUOUS
 10
-21.1017816122
 20
-9.0779933208
 11
-21.0876274183
 21
-10.2108130622
  0
LWPOLYLINE
  5
23D
100
AcDbEntity
  8
0
100
AcDbPolyline
 62
7
  6
CONTINUOUS
 90
43
 70
0
 10
-15.2470095041
 20
25.3043713778
 10
-15.2469702569
 20
25.2998085282
 10
-15.2468507598
 20
25.2952444796
 10
-15.2466483795
 20
25.290681503
 10
-15.2463604827
 20
25.2861218694
 10
-15.2459844362
 20
25.2815678497
 10
-15.2455176065
 20
25.2770217149
 10
-15.2449573606
 20
25.272485736
 10
-15.244301065
 20
25.267962184
 10
-15.2435460866
 20
25.2634533298
 10
-15.2426897919
 20
25.2589614444
 10
-15.2418334314
 20
25.2549497425
 10
-15.2408909126
 20
25.250956851
 10
-15.2398596769
 20
25.2469861075
 10
-15.2387371658
 20
25.2430408491
 10
-15.2375208206
 20
25.2391244132
 10
-15.2362080827
 20
25.235240137
 10
-15.2347963936
 20
25.2313913579
 10
-15.2332831947
 20
25.2275814131
 10
-15.2316659274
 20
25.2238136399
 10
-15.2299420331
 20
25.2200913756
 10
-15.2284544644
 20
25.2170900012
 10
-15.2268933134
 20
25.2141247664
 10
-15.2252577164
 20
25.2111992786
 10
-15.2235468097
 20
25.2083171451
 10
-15.2217597299
 20
25.2054819735
 10
-15.2198956132
 20
25.2026973712
 10
-15.217953596
 20
25.1999669456
 10
-15.2159328147
 20
25.1972943042
 10
-15.2138324056
 20
25.1946830544
 10
-15.2116515052
 20
25.1921368036
 10
-15.2093892497
 20
25.1896591594
 10
-15.2072098828
 20
25.1874175173
 10
-15.2049617119
 20
25.1852416846
 10
-15.202647187
 20
25.1831348871
 10
-15.2002687578
 20
25.1811003507
 10
-15.1978288744
 20
25.1791413014
 10
-15.1953299867
 20
25.177260965
 10
-15.1927745446
 20
25.1754625673
 10
-15.1901649979
 20
25.1737493344
 10
-15.1875037967
 20
25.172124492
 10
-15.1847933909
 20
25.1705912661
 10
-15.1820362302
 20
25.1691528825
  0
LWPOLYLINE
  5
23E
100
AcDbEntity
  8
0
100
AcDbPolyline
 62
7
  6
CONTINUOUS
 90
43
 70
0
 10
-13.5684714337
 20
24.4651023426
 10
-13.5684321914
 20
24.4605397754
 10
-13.5683127091
 20
24.4559760094
 10
-13.5681103542
 20
24.4514133153
 10
-13.5678224939
 20
24.4468539635
 10
-13.5674464955
 20
24.4423002245
 10
-13.5669797261
 20
24.4377543689
 10
-13.5664195531
 20
24.433218667
 10
-13.5657633437
 20
24.4286953895
 10
-13.5650084651
 20
24.4241868067
 10
-13.5641522845
 20
24.4196951893
 10
-13.5632960319
 20
24.4156836932
 10
-13.5623536321
 20
24.4116910038
 10
-13.561322527
 20
24.4077204577
 10
-13.5602001584
 20
24.4037753915
 10
-13.5589839682
 20
24.3998591415
 10
-13.5576713984
 20
24.3959750443
 10
-13.5562598907
 20
24.3921264363
 10
-13.5547468872
 20
24.3883166541
 10
-13.5531298296
 20
24.384549034
 10
-13.5514061599
 20
24.3808269126
 10
-13.5499187785
 20
24.3778256326
 10
-13.5483578241
 20
24.3748604843
 10
-13.5467224329
 20
24.3719350742
 10
-13.5450117411
 20
24.369053009
 10
-13.5432248849
 20
24.3662178952
 10
-13.5413610004
 20
24.3634333396
 10
-13.5394192238
 20
24.3607029488
 10
-13.5373986914
 20
24.3580303293
 10
-13.5352985392
 20
24.3554190877
 10
-13.5331179036
 20
24.3528728308
 10
-13.5308559206
 20
24.3503951651
 10
-13.5286768288
 20
24.3481535034
 10
-13.5264289395
 20
24.345977636
 10
-13.5241147013
 20
24.3438707888
 10
-13.5217365631
 20
24.3418361873
 10
-13.5192969738
 20
24.3398770573
 10
-13.5167983822
 20
24.3379966245
 10
-13.5142432371
 20
24.3361981146
 10
-13.5116339873
 20
24.3344847533
 10
-13.5089730817
 20
24.3328597663
 10
-13.5062629691
 20
24.3313263794
 10
-13.5035060983
 20
24.3298878183
  0
LINE
  5
23F
100
AcDbEntity
  8
0
100
AcDbLine
 62
7
  6
CONTINUOUS
 10
-6.4985653952
 20
22.145395523
 11
-6.5071260996
 21
23.3530419741
  0
LINE
  5
240
100
AcDbEntity
  8
RACCORDO
100
AcDbLine
 62
7
  6
CONTINUOUS
 10
-21.1026315789
 20
-7.9380752693
 11
-21.1017816122
 21
-9.0779933208
  0
LINE
  5
241
100
AcDbEntity
  8
0
100
AcDbLine
 62
7
  6
CONTINUOUS
 10
-15.4145314094
 20
24.3431154908
 11
-15.4145314094
 21
23.7633597859
  0
LINE
  5
242
100
AcDbEntity
  8
0
100
AcDbLine
 62
7
  6
CONTINUOUS
 10
-15.3202328088
 20
25.7327336595
 11
-15.3202328088
 21
25.3927597254
  0
LINE
  5
243
100
AcDbEntity
  8
0
100
AcDbLine
 62
7
  6
CONTINUOUS
 10
-15.2470095041
 20
25.6443453119
 11
-15.2470095041
 21
25.3043713778
  0
LINE
  5
244
100
AcDbEntity
  8
0
100
AcDbLine
 62
7
  6
CONTINUOUS
 10
-14.6172398545
 20
24.8867547511
 11
-14.6172398545
 21
24.4328010091
  0
LINE
  5
245
100
AcDbEntity
  8
0
100
AcDbLine
 62
7
  6
CONTINUOUS
 10
-14.5440165498
 20
24.8501430987
 11
-14.5440165498
 21
24.3410689546
  0
LINE
  5
246
100
AcDbEntity
  8
0
100
AcDbLine
 62
7
  6
CONTINUOUS
 10
-13.5684714337
 20
24.4651023426
 11
-13.5684714337
 21
24.8050762767
  0
LINE
  5
247
100
AcDbEntity
  8
0
100
AcDbLine
 62
7
  6
CONTINUOUS
 10
-13.215949474
 20
24.4645896187
 11
-13.215949474
 21
24.8045635528
  0
LINE
  5
248
100
AcDbEntity
  8
0
100
AcDbLine
 62
7
  6
CONTINUOUS
 10
-12.8572508256
 20
23.4976860925
 11
-12.8572508256
 21
24.1784141593
  0
LINE
  5
249
100
AcDbEntity
  8
0
100
AcDbLine
 62
7
  6
CONTINUOUS
 10
-12.5047288659
 20
23.5084539741
 11
-12.5047288659
 21
24.3160860958
  0
LINE
  5
24A
100
AcDbEntity
  8
0
100
AcDbLine
 62
7
  6
CONTINUOUS
 10
-11.6146686832
 20
24.0051348954
 11
-11.6146686832
 21
25.6072855563
  0
LINE
  5
24B
100
AcDbEntity
  8
0
100
AcDbLine
 62
7
  6
CONTINUOUS
 10
-11.0864015114
 20
25.8707243764
 11
-11.0864015114
 21
25.5231928596
  0
LINE
  5
24C
100
AcDbEntity
  8
0
100
AcDbLine
 62
7
  6
CONTINUOUS
 10
-11.0142036544
 20
25.9585970085
 11
-11.0142036544
 21
25.6110654918
  0
LINE
  5
24D
100
AcDbEntity
  8
DRAFT
100
AcDbLine
 62
7
  6
CONTINUOUS
 10
-10.7307852067
 20
21.4214866845
 11
-10.7307852067
 21
21.5915149967
  0
LINE
  5
24E
100
AcDbEntity
  8
0
100
AcDbLine
 62
7
  6
CONTINUOUS
 10
-10.6892591273
 20
23.8598530091
 11
-10.6892591273
 21
22.4136902433
  0
LINE
  5
24F
100
AcDbEntity
  8
0
100
AcDbLine
 62
7
  6
CONTINUOUS
 10
-10.0298492529
 20
22.0839853061
 11
-10.0298492529
 21
23.5301480719
  0
LINE
  5
250
100
AcDbEntity
  8
RACCORDO
100
AcDbLine
 62
7
  6
CONTINUOUS
 10
-9.7235560803
 20
20.9178721214
 11
-9.7235560803
 21
21.0879004335
  0
LINE
  5
251
100
AcDbEntity
  8
0
100
AcDbLine
 62
7
  6
CONTINUOUS
 10
-9.3165716443
 20
23.7134541029
 11
-9.3165716443
 21
22.4798397512
  0
LINE
  5
252
100
AcDbEntity
  8
0
100
AcDbLine
 62
7
  6
CONTINUOUS
 10
-7.6920826809
 20
21.6675952695
 11
-7.6920826809
 21
22.9012096212
  0
LINE
  5
253
100
AcDbEntity
  8
0
100
AcDbLine
 62
7
  6
CONTINUOUS
 10
-7.4104794718
 20
21.675978983
 11
-7.4104794718
 21
22.9005952544
  0
LINE
  5
254
100
AcDbEntity
  8
0
100
AcDbLine
 62
7
  6
CONTINUOUS
 10
-7.1952513008
 20
23.0078676318
 11
-7.1952513008
 21
21.7954262042
  0
LINE
  5
255
100
AcDbEntity
  8
0
100
AcDbLine
 62
7
  6
CONTINUOUS
 10
-6.0498917832
 20
22.1215355286
 11
-6.0498917832
 21
20.8905820499
  0
LINE
  5
256
100
AcDbEntity
  8
0
100
AcDbLine
 62
7
  6
CONTINUOUS
 10
-5.9913131394
 20
22.0508248504
 11
-5.9913131394
 21
20.8172104988
  0
LWPOLYLINE
  5
257
100
AcDbEntity
  8
RACCORDO
100
AcDbPolyline
 62
7
  6
CONTINUOUS
 90
45
 70
0
 10
-21.0664483311
 20
-5.7115851804
 10
-21.0664786089
 20
-5.7160054044
 10
-21.0663339778
 20
-5.7204304975
 10
-21.0660185277
 20
-5.724853975
 10
-21.065536348
 20
-5.7292693519
 10
-21.0648915283
 20
-5.7336701433
 10
-21.0640881583
 20
-5.7380498641
 10
-21.0631303274
 20
-5.7424020296
 10
-21.0620221253
 20
-5.7467201547
 10
-21.0607676415
 20
-5.7509977546
 10
-21.0593709657
 20
-5.7552283442
 10
-21.0578361874
 20
-5.7594054387
 10
-21.0561247798
 20
-5.7636245374
 10
-21.054278526
 20
-5.7677805919
 10
-21.0523032913
 20
-5.7718735365
 10
-21.0502049412
 20
-5.7759033052
 10
-21.0479893413
 20
-5.7798698323
 10
-21.0456623571
 20
-5.7837730519
 10
-21.043229854
 20
-5.7876128981
 10
-21.0406976976
 20
-5.7913893051
 10
-21.0380717533
 20
-5.7951022071
 10
-21.0353578867
 20
-5.7987515382
 10
-21.0325619631
 20
-5.8023372326
 10
-21.0296898482
 20
-5.8058592244
 10
-21.0259168461
 20
-5.8102676027
 10
-21.0220344113
 20
-5.8145742323
 10
-21.0180479565
 20
-5.8187815013
 10
-21.0139628944
 20
-5.822891798
 10
-21.0097846377
 20
-5.8269075105
 10
-21.0055185994
 20
-5.8308310268
 10
-21.001170192
 20
-5.8346647353
 10
-20.9967448284
 20
-5.8384110241
 10
-20.9922479213
 20
-5.8420722812
 10
-20.9876848834
 20
-5.8456508949
 10
-20.9830611276
 20
-5.8491492533
 10
-20.9770830019
 20
-5.8534983579
 10
-20.9710196346
 20
-5.8577239351
 10
-20.9648757574
 20
-5.8618291354
 10
-20.9586561019
 20
-5.8658171093
 10
-20.9523653998
 20
-5.8696910073
 10
-20.9460083828
 20
-5.8734539801
 10
-20.9395897825
 20
-5.8771091782
 10
-20.9331143306
 20
-5.8806597521
 10
-20.9265867587
 20
-5.8841088524
 10
-20.9200117984
 20
-5.8874596295
  0
LINE
  5
258
100
AcDbEntity
  8
RACCORDO
100
AcDbLine
 62
7
  6
CONTINUOUS
 10
-21.0901812879
 20
-6.7913357459
 11
-21.1026315789
 21
-7.9380752693
  0
LWPOLYLINE
  5
259
100
AcDbEntity
  8
0
100
AcDbPolyline
 62
7
  6
CONTINUOUS
 90
43
 70
0
 10
-15.2470095041
 20
25.6443453119
 10
-15.2468870628
 20
25.6525489613
 10
-15.2465245561
 20
25.6607499934
 10
-15.2459292095
 20
25.668943227
 10
-15.2451082489
 20
25.6771234812
 10
-15.2440688999
 20
25.6852855747
 10
-15.2428183883
 20
25.6934243264
 10
-15.2413639398
 20
25.7015345553
 10
-15.23971278
 20
25.7096110802
 10
-15.2378721348
 20
25.7176487199
 10
-15.2358492297
 20
25.7256422935
 10
-15.2336512905
 20
25.7335866197
 10
-15.230838056
 20
25.7429009074
 10
-15.2277943971
 20
25.7521355377
 10
-15.2245240296
 20
25.7612867962
 10
-15.2210306691
 20
25.7703509688
 10
-15.2173180315
 20
25.7793243412
 10
-15.2133898324
 20
25.7882031989
 10
-15.2092497877
 20
25.7969838277
 10
-15.204901613
 20
25.8056625133
 10
-15.2003490241
 20
25.8142355414
 10
-15.1955957368
 20
25.8226991976
 10
-15.1907635799
 20
25.8308536551
 10
-15.1857422302
 20
25.8388931632
 10
-15.1805303011
 20
25.8468105907
 10
-15.1751264059
 20
25.854598806
 10
-15.1695291579
 20
25.8622506779
 10
-15.1637371704
 20
25.8697590747
 10
-15.1577490567
 20
25.8771168653
 10
-15.1515634301
 20
25.884316918
 10
-15.1451789039
 20
25.8913521016
 10
-15.1385940915
 20
25.8982152846
 10
-15.1331214541
 20
25.9036337607
 10
-15.1275174601
 20
25.9089230168
 10
-15.1217826597
 20
25.9140709966
 10
-15.1159176031
 20
25.9190656437
 10
-15.1099228404
 20
25.9238949019
 10
-15.1037989218
 20
25.9285467147
 10
-15.0975463976
 20
25.9330090259
 10
-15.0911658179
 20
25.937269779
 10
-15.084657733
 20
25.9413169178
 10
-15.078022693
 20
25.9451383859
 10
-15.0712612481
 20
25.9487221269
  0
LWPOLYLINE
  5
25A
100
AcDbEntity
  8
0
100
AcDbPolyline
 62
7
  6
CONTINUOUS
 90
43
 70
0
 10
-13.5684714337
 20
24.8050762767
 10
-13.5683489924
 20
24.8132799261
 10
-13.5679864857
 20
24.8214809582
 10
-13.5673911391
 20
24.8296741918
 10
-13.5665701785
 20
24.837854446
 10
-13.5655308295
 20
24.8460165395
 10
-13.5642803179
 20
24.8541552912
 10
-13.5628258694
 20
24.8622655201
 10
-13.5611747096
 20
24.870342045
 10
-13.5593340644
 20
24.8783796847
 10
-13.5573111593
 20
24.8863732583
 10
-13.5551132201
 20
24.8943175845
 10
-13.5522999856
 20
24.9036318722
 10
-13.5492563267
 20
24.9128665025
 10
-13.5459859592
 20
24.922017761
 10
-13.5424925987
 20
24.9310819336
 10
-13.5387799611
 20
24.940055306
 10
-13.534851762
 20
24.9489341637
 10
-13.5307117173
 20
24.9577147925
 10
-13.5263635426
 20
24.9663934781
 10
-13.5218109537
 20
24.9749665062
 10
-13.5170576664
 20
24.9834301624
 10
-13.5122255095
 20
24.9915846199
 10
-13.5072041598
 20
24.999624128
 10
-13.5019922307
 20
25.0075415555
 10
-13.4965883355
 20
25.0153297708
 10
-13.4909910875
 20
25.0229816427
 10
-13.4851991
 20
25.0304900395
 10
-13.4792109863
 20
25.0378478301
 10
-13.4730253597
 20
25.0450478828
 10
-13.4666408335
 20
25.0520830664
 10
-13.4600560211
 20
25.0589462494
 10
-13.4545833837
 20
25.0643647255
 10
-13.4489793897
 20
25.0696539816
 10
-13.4432445893
 20
25.0748019614
 10
-13.4373795327
 20
25.0797966085
 10
-13.43138477
 20
25.0846258667
 10
-13.4252608514
 20
25.0892776795
 10
-13.4190083272
 20
25.0937399906
 10
-13.4126277475
 20
25.0980007438
 10
-13.4061196626
 20
25.1020478825
 10
-13.3994846226
 20
25.1058693506
 10
-13.3927231777
 20
25.1094530916
  0
LWPOLYLINE
  5
25B
100
AcDbEntity
  8
0
100
AcDbPolyline
 62
7
  6
CONTINUOUS
 90
43
 70
0
 10
-7.6920826809
 20
22.9012096212
 10
-7.6919847243
 20
22.907772514
 10
-7.6916947092
 20
22.914333311
 10
-7.691218418
 20
22.920887868
 10
-7.6905616328
 20
22.9274320407
 10
-7.689730136
 20
22.9339616847
 10
-7.6887297098
 20
22.9404726559
 10
-7.6875661364
 20
22.94696081
 10
-7.6862451981
 20
22.9534220026
 10
-7.6847726772
 20
22.9598520896
 10
-7.6831543559
 20
22.9662469267
 10
-7.6813960165
 20
22.9726023695
 10
-7.6791454422
 20
22.980053828
 10
-7.6767105384
 20
22.9874415644
 10
-7.6740942749
 20
22.9947626058
 10
-7.6712996216
 20
23.0020139794
 10
-7.6683295482
 20
23.0091927123
 10
-7.6651870244
 20
23.0162958317
 10
-7.6618750201
 20
23.0233203646
 10
-7.6583965051
 20
23.0302633383
 10
-7.6547544491
 20
23.0371217798
 10
-7.6509518219
 20
23.0438927163
 10
-7.6470860873
 20
23.0504162818
 10
-7.6430689866
 20
23.0568478812
 10
-7.6388994132
 20
23.0631818112
 10
-7.6345762603
 20
23.0694123684
 10
-7.6300984211
 20
23.0755338497
 10
-7.6254647887
 20
23.0815405515
 10
-7.6206742564
 20
23.0874267707
 10
-7.6157257175
 20
23.0931868039
 10
-7.6106180651
 20
23.0988149478
 10
-7.6053501925
 20
23.1043054991
 10
-7.6009720834
 20
23.1086402794
 10
-7.5964888956
 20
23.1128716894
 10
-7.591901068
 20
23.1169900828
 10
-7.5872090395
 20
23.1209858131
 10
-7.5824132489
 20
23.1248492342
 10
-7.5775141349
 20
23.1285706997
 10
-7.5725121366
 20
23.1321405633
 10
-7.5674076927
 20
23.1355491787
 10
-7.5622012421
 20
23.1387868997
 10
-7.5568932237
 20
23.14184408
 10
-7.5514840761
 20
23.1447110732
  0
LWPOLYLINE
  5
25C
100
AcDbEntity
  8
0
100
AcDbPolyline
 62
7
  6
CONTINUOUS
 90
43
 70
0
 10
-11.0142039125
 20
25.9585970262
 10
-11.0142460443
 20
25.9563535676
 10
-11.014371252
 20
25.9541099109
 10
-11.0145777184
 20
25.9518689711
 10
-11.0148636263
 20
25.9496336633
 10
-11.0152271586
 20
25.9474069024
 10
-11.0156664981
 20
25.9451916035
 10
-11.0161798277
 20
25.9429906817
 10
-11.0167653301
 20
25.9408070518
 10
-11.0174211882
 20
25.938643629
 10
-11.0181455848
 20
25.9365033283
 10
-11.0189367027
 20
25.9343890647
 10
-11.0198835835
 20
25.9320919049
 10
-11.0209059766
 20
25.9298301092
 10
-11.0220005557
 20
25.9276038736
 10
-11.0231639944
 20
25.9254133944
 10
-11.0243929664
 20
25.9232588676
 10
-11.0256841453
 20
25.9211404893
 10
-11.0270342049
 20
25.9190584557
 10
-11.0284398188
 20
25.9170129629
 10
-11.0298976607
 20
25.915004207
 10
-11.0314044042
 20
25.9130323841
 10
-11.032956723
 20
25.9110976904
 10
-11.0349844536
 20
25.9086996422
 10
-11.037076651
 20
25.906360256
 10
-11.0392299518
 20
25.9040782689
 10
-11.0414409927
 20
25.9018524178
 10
-11.0437064104
 20
25.8996814395
 10
-11.0460228416
 20
25.8975640711
 10
-11.048386923
 20
25.8954990494
 10
-11.0507952912
 20
25.8934851115
 10
-11.0532445829
 20
25.8915209942
 10
-11.0557314349
 20
25.8896054346
 10
-11.0586341749
 20
25.8874607558
 10
-11.0615797693
 20
25.8853771261
 10
-11.0645658367
 20
25.8833530331
 10
-11.0675899957
 20
25.8813869646
 10
-11.0706498647
 20
25.8794774082
 10
-11.0737430624
 20
25.8776228516
 10
-11.0768672074
 20
25.8758217825
 10
-11.0800199182
 20
25.8740726884
 10
-11.0831988133
 20
25.8723740572
 10
-11.0864015114
 20
25.8707243764
  0
LWPOLYLINE
  5
25D
100
AcDbEntity
  8
0
100
AcDbPolyline
 62
7
  6
CONTINUOUS
 90
43
 70
0
 10
-11.0142039134
 20
25.6110547889
 10
-11.0142464218
 20
25.6088115361
 10
-11.014371989
 20
25.6065681002
 10
-11.0145787974
 20
25.6043273947
 10
-11.0148650291
 20
25.6020923329
 10
-11.0152288666
 20
25.5998658283
 10
-11.0156684922
 20
25.5976507943
 10
-11.016182088
 20
25.5954501444
 10
-11.0167678365
 20
25.5932667918
 10
-11.0174239198
 20
25.5911036502
 10
-11.0181485204
 20
25.5889636329
 10
-11.0189398205
 20
25.5868496533
 10
-11.0198868905
 20
25.584552773
 10
-11.020909449
 20
25.582291256
 10
-11.0220041709
 20
25.5800652977
 10
-11.0231677309
 20
25.5778750936
 10
-11.024396804
 20
25.5757208393
 10
-11.0256880648
 20
25.5736027301
 10
-11.0270381883
 20
25.5715209616
 10
-11.0284438492
 20
25.5694757292
 10
-11.0299017224
 20
25.5674672286
 10
-11.0314084827
 20
25.565495655
 10
-11.032960805
 20
25.5635612041
 10
-11.0349884991
 20
25.5611634802
 10
-11.0370806402
 20
25.5588244058
 10
-11.0392338661
 20
25.5565427183
 10
-11.0414448149
 20
25.5543171548
 10
-11.0437101245
 20
25.5521464528
 10
-11.046026433
 20
25.5500293493
 10
-11.0483903784
 20
25.5479645818
 10
-11.0507985986
 20
25.5459508875
 10
-11.0532477316
 20
25.5439870037
 10
-11.0557344154
 20
25.5420716675
 10
-11.0586368991
 20
25.5399272722
 10
-11.0615822256
 20
25.5378439116
 10
-11.0645680145
 20
25.5358200739
 10
-11.0675918851
 20
25.5338542474
 10
-11.0706514568
 20
25.5319449201
 10
-11.073744349
 20
25.5300905803
 10
-11.0768681812
 20
25.5282897162
 10
-11.0800205727
 20
25.5265408159
 10
-11.083199143
 20
25.5248423676
 10
-11.0864015114
 20
25.5231928596
  0
LINE
  5
25E
100
AcDbEntity
  8
RACCORDO
100
AcDbLine
 62
7
  6
CONTINUOUS
 10
-21.066469039
 20
-5.7115844578
 11
-21.0901812879
 21
-6.7913357459
  0
LINE
  5
25F
100
AcDbEntity
  8
RACCORDO
100
AcDbLine
 62
7
  6
CONTINUOUS
 10
-21.0147993072
 20
-3.9215563836
 11
-21.0664690576
 21
-5.7115846164
  0
LINE
  5
260
100
AcDbEntity
  8
RACCORDO
100
AcDbLine
 62
7
  6
CONTINUOUS
 10
-20.9547032764
 20
-2.048455599
 11
-21.0147993072
 21
-3.9215563836
  0
LINE
  5
261
100
AcDbEntity
  8
RACCORDO
100
AcDbLine
 62
7
  6
CONTINUOUS
 10
-20.8883617435
 20
-0.1723993067
 11
-20.9547032764
 21
-2.048455599
  0
LWPOLYLINE
  5
262
100
AcDbEntity
  8
RACCORDO
100
AcDbPolyline
 62
7
  6
CONTINUOUS
 90
46
 70
0
 10
-20.3634130725
 20
11.0695990023
 10
-20.3635531825
 20
11.0656830338
 10
-20.3635395326
 20
11.0617583933
 10
-20.3633757901
 20
11.0578305431
 10
-20.3630656225
 20
11.053904946
 10
-20.362612697
 20
11.0499870644
 10
-20.3620206809
 20
11.0460823611
 10
-20.3612932415
 20
11.0421962984
 10
-20.3604340461
 20
11.0383343392
 10
-20.359446762
 20
11.0345019458
 10
-20.3583350565
 20
11.030704581
 10
-20.357102597
 20
11.0269477072
 10
-20.3557530507
 20
11.0232367872
 10
-20.3540806802
 20
11.0190775629
 10
-20.352268171
 20
11.0149845629
 10
-20.3503221011
 20
11.0109575005
 10
-20.3482490488
 20
11.0069960891
 10
-20.3460555921
 20
11.003100042
 10
-20.3437483093
 20
10.9992690726
 10
-20.3413337784
 20
10.9955028942
 10
-20.3388185777
 20
10.9918012202
 10
-20.3362092852
 20
10.988163764
 10
-20.3335124791
 20
10.9845902388
 10
-20.3307347376
 20
10.9810803581
 10
-20.3278826387
 20
10.9776338352
 10
-20.3240712765
 20
10.9732452189
 10
-20.320150838
 20
10.9689605065
 10
-20.3161269008
 20
10.9647769119
 10
-20.3120050425
 20
10.960691649
 10
-20.3077908408
 20
10.9567019319
 10
-20.3034898732
 20
10.9528049744
 10
-20.2991077174
 20
10.9489979906
 10
-20.2946499509
 20
10.9452781942
 10
-20.2901221515
 20
10.9416427994
 10
-20.2855298966
 20
10.93808902
 10
-20.280878764
 20
10.93461407
 10
-20.2747994273
 20
10.930243565
 10
-20.268636132
 20
10.9259961976
 10
-20.2623936234
 20
10.9218685519
 10
-20.2560766468
 20
10.917857212
 10
-20.2496899473
 20
10.9139587617
 10
-20.2432382704
 20
10.9101697852
 10
-20.2367263611
 20
10.9064868664
 10
-20.2301589647
 20
10.9029065894
 10
-20.2235408266
 20
10.8994255382
 10
-20.2168766918
 20
10.8960402968
  0
LINE
  5
263
100
AcDbEntity
  8
RACCORDO
100
AcDbLine
 62
7
  6
CONTINUOUS
 10
-20.815776048
 20
1.7065739956
 11
-20.8883617435
 21
-0.1723993067
  0
LINE
  5
264
100
AcDbEntity
  8
RACCORDO
100
AcDbLine
 62
7
  6
CONTINUOUS
 10
-20.7369475383
 20
3.5884321096
 11
-20.815776048
 21
1.7065739956
  0
LINE
  5
265
100
AcDbEntity
  8
RACCORDO
100
AcDbLine
 62
7
  6
CONTINUOUS
 10
-20.6518775126
 20
5.4731452696
 11
-20.7369475383
 21
3.5884321096
  0
LINE
  5
266
100
AcDbEntity
  8
RACCORDO
100
AcDbLine
 62
7
  6
CONTINUOUS
 10
-20.560567429
 20
7.3606811808
 11
-20.6518775126
 21
5.4731452696
  0
LINE
  5
267
100
AcDbEntity
  8
RACCORDO
100
AcDbLine
 62
7
  6
CONTINUOUS
 10
-20.4630192926
 20
9.2510009943
 11
-20.560567429
 21
7.3606811808
  0
LINE
  5
268
100
AcDbEntity
  8
RACCORDO
100
AcDbLine
 62
7
  6
CONTINUOUS
 10
-20.3634325243
 20
11.069600204
 11
-20.4630192926
 21
9.2510009943
  0
LWPOLYLINE
  5
269
100
AcDbEntity
  8
RACCORDO
100
AcDbPolyline
 62
7
  6
CONTINUOUS
 90
13
 70
0
 10
-20.2168767173
 20
10.8960402863
 10
-20.1642374259
 20
11.7676291424
 10
-20.1045535221
 20
12.6387784869
 10
-20.0379137296
 20
13.509464823
 10
-19.9626559226
 20
14.3994184889
 10
-19.880297682
 20
15.28879954
 10
-19.7909212504
 20
16.1775442194
 10
-19.6946088699
 20
17.0655887699
 10
-19.5914427831
 20
17.9528694344
 10
-19.4815052322
 20
18.8393224559
 10
-19.3648784596
 20
19.7248840773
 10
-19.2416447077
 20
20.6094905414
 10
-19.1118862189
 20
21.4930780913
  0
LINE
  5
26A
100
AcDbEntity
  8
RACCORDO
100
AcDbLine
 62
7
  6
CONTINUOUS
 10
-20.2962966806
 20
12.1624915036
 11
-20.3634325065
 21
11.0696000945
  0
LINE
  5
26B
100
AcDbEntity
  8
RACCORDO
100
AcDbLine
 62
7
  6
CONTINUOUS
 10
-20.2113774426
 20
13.3421098142
 11
-20.2962966806
 21
12.1624915036
  0
LINE
  5
26C
100
AcDbEntity
  8
RACCORDO
100
AcDbLine
 62
7
  6
CONTINUOUS
 10
-20.1132389076
 20
14.5269513652
 11
-20.2113774426
 21
13.3421098142
  0
LINE
  5
26D
100
AcDbEntity
  8
RACCORDO
100
AcDbLine
 62
7
  6
CONTINUOUS
 10
-20.0019047105
 20
15.7167310824
 11
-20.1132389076
 21
14.5269513652
  0
LINE
  5
26E
100
AcDbEntity
  8
RACCORDO
100
AcDbLine
 62
7
  6
CONTINUOUS
 10
-19.877400371
 20
16.9112092165
 11
-20.0019047105
 21
15.7167310824
  0
LINE
  5
26F
100
AcDbEntity
  8
RACCORDO
100
AcDbLine
 62
7
  6
CONTINUOUS
 10
-19.7397507809
 20
18.11016348
 11
-19.877400371
 21
16.9112092165
  0
LWPOLYLINE
  5
270
100
AcDbEntity
  8
RACCORDO
100
AcDbPolyline
 62
7
  6
CONTINUOUS
 90
48
 70
0
 10
-19.2598858247
 20
21.6540587333
 10
-19.2602604216
 20
21.6509930114
 10
-19.2604842214
 20
21.6479081383
 10
-19.2605622771
 20
21.6448096447
 10
-19.2604996417
 20
21.6417030613
 10
-19.2603013683
 20
21.6385939187
 10
-19.2599725097
 20
21.6354877475
 10
-19.259518119
 20
21.6323900785
 10
-19.2589432491
 20
21.6293064422
 10
-19.2582529532
 20
21.6262423693
 10
-19.2574522841
 20
21.6232033905
 10
-19.2565462949
 20
21.6201950364
 10
-19.2555400385
 20
21.6172228376
 10
-19.254438568
 20
21.6142923249
 10
-19.2529528681
 20
21.610734363
 10
-19.2513365932
 20
21.6072466391
 10
-19.2495968791
 20
21.6038272733
 10
-19.2477408619
 20
21.6004743856
 10
-19.2457756773
 20
21.5971860959
 10
-19.2437084612
 20
21.5939605245
 10
-19.2415463494
 20
21.5907957911
 10
-19.2392964779
 20
21.5876900159
 10
-19.2369659824
 20
21.5846413188
 10
-19.2345619989
 20
21.5816478199
 10
-19.2320916633
 20
21.5787076392
 10
-19.2295621113
 20
21.5758188967
 10
-19.2269804789
 20
21.5729797124
 10
-19.2229951257
 20
21.568781693
 10
-19.218912547
 20
21.5646885588
 10
-19.2147380462
 20
21.5606964302
 10
-19.2104769269
 20
21.556801427
 10
-19.2061344927
 20
21.5529996696
 10
-19.2017160471
 20
21.549287278
 10
-19.1972268936
 20
21.5456603724
 10
-19.1926723358
 20
21.5421150728
 10
-19.1880576773
 20
21.5386474994
 10
-19.1833882215
 20
21.5352537723
 10
-19.178669272
 20
21.5319300116
 10
-19.1722722814
 20
21.527577384
 10
-19.1658003636
 20
21.523339517
 10
-19.159258035
 20
21.5192123631
 10
-19.1526498119
 20
21.5151918744
 10
-19.1459802108
 20
21.5112740033
 10
-19.1392537482
 20
21.5074547021
 10
-19.1324749403
 20
21.503729923
 10
-19.1256483038
 20
21.5000956184
 10
-19.1187783549
 20
21.4965477406
 10
-4.4271313281
 20
14.1507006459
  0
LINE
  5
271
100
AcDbEntity
  8
RACCORDO
100
AcDbLine
 62
7
  6
CONTINUOUS
 10
-19.5889841065
 20
19.3133525207
 11
-19.7397507809
 21
18.11016348
  0
LINE
  5
272
100
AcDbEntity
  8
RACCORDO
100
AcDbLine
 62
7
  6
CONTINUOUS
 10
-19.4251403277
 20
20.5204849918
 11
-19.5889841065
 21
19.3133525207
  0
LINE
  5
273
100
AcDbEntity
  8
RACCORDO
100
AcDbLine
 62
7
  6
CONTINUOUS
 10
-5.5791770725
 20
-23.7217153362
 11
-5.5163267878
 21
-23.7336067149
  0
LWPOLYLINE
  5
274
100
AcDbEntity
  8
0
100
AcDbPolyline
 62
7
  6
CONTINUOUS
 90
23
 70
0
 10
-0.2010708733
 20
-22.1353470399
 10
-0.2138060996
 20
-22.1325729616
 10
-0.226495985
 20
-22.1295929286
 10
-0.2391428945
 20
-22.1264274852
 10
-0.251749193
 20
-22.1230971755
 10
-0.2643172454
 20
-22.1196225437
 10
-0.2768494168
 20
-22.1160241339
 10
-0.295403642
 20
-22.1104856265
 10
-0.3138893779
 20
-22.1047335111
 10
-0.3323120892
 20
-22.098781968
 10
-0.3506772411
 20
-22.0926451774
 10
-0.3689902982
 20
-22.0863373197
 10
-0.3861776858
 20
-22.0802546273
 10
-0.4033161783
 20
-22.0740229756
 10
-0.420398168
 20
-22.0676323177
 10
-0.4374160473
 20
-22.0610726067
 10
-0.4543622084
 20
-22.0543337956
 10
-0.4712290435
 20
-22.0474058376
 10
-0.4880089451
 20
-22.0402786858
 10
-0.5046943054
 20
-22.0329422932
 10
-0.5212775167
 20
-22.025386613
 10
-0.5377509712
 20
-22.0176015981
 10
-0.5541070613
 20
-22.0095772018
  0
LINE
  5
275
100
AcDbEntity
  8
RACCORDO
100
AcDbLine
 62
7
  6
CONTINUOUS
 10
-5.6402185768
 20
-23.7043718767
 11
-5.5791770725
 21
-23.7217153362
  0
LINE
  5
276
100
AcDbEntity
  8
RACCORDO
100
AcDbLine
 62
7
  6
CONTINUOUS
 10
-5.6991027202
 20
-23.6817526886
 11
-5.6402185768
 21
-23.7043718767
  0
LINE
  5
277
100
AcDbEntity
  8
RACCORDO
100
AcDbLine
 62
7
  6
CONTINUOUS
 10
-5.7327373126
 20
-23.6659871334
 11
-5.6991027202
 21
-23.6817526886
  0
LWPOLYLINE
  5
278
100
AcDbEntity
  8
0
100
AcDbPolyline
 62
7
  6
CONTINUOUS
 90
39
 70
0
 10
-1.264813441
 20
-23.3263047273
 10
-1.25713493
 20
-23.3299904623
 10
-1.2493418744
 20
-23.3334352902
 10
-1.2414440219
 20
-23.3366476295
 10
-1.2334511203
 20
-23.3396358988
 10
-1.2253729173
 20
-23.3424085166
 10
-1.2172191606
 20
-23.3449739014
 10
-1.208999598
 20
-23.3473404719
 10
-1.2007239772
 20
-23.3495166466
 10
-1.1924020458
 20
-23.351510844
 10
-1.1840435518
 20
-23.3533314826
 10
-1.1735628034
 20
-23.3553728254
 10
-1.1630448213
 20
-23.357160532
 10
-1.15249422
 20
-23.3586986863
 10
-1.1419156137
 20
-23.3599913724
 10
-1.1313136168
 20
-23.3610426743
 10
-1.1206928435
 20
-23.3618566762
 10
-1.1100579082
 20
-23.3624374619
 10
-1.0994134253
 20
-23.3627891156
 10
-1.088764009
 20
-23.3629157212
 10
-1.0781051469
 20
-23.3628198454
 10
-1.0674505636
 20
-23.3624986628
 10
-1.0568048575
 20
-23.3619482093
 10
-1.0461726269
 20
-23.361164521
 10
-1.0355584704
 20
-23.3601436338
 10
-1.0249669861
 20
-23.3588815837
 10
-1.0144027726
 20
-23.3573744066
 10
-1.0038704282
 20
-23.3556181384
 10
-0.9933745513
 20
-23.3536088152
 10
-0.98498866
 20
-23.3518110109
 10
-0.9766387968
 20
-23.3498395956
 10
-0.9683345832
 20
-23.3476862291
 10
-0.9600856406
 20
-23.3453425711
 10
-0.9519015905
 20
-23.3428002815
 10
-0.9437920546
 20
-23.3400510201
 10
-0.9357666542
 20
-23.3370864465
 10
-0.9278350108
 20
-23.3338982207
 10
-0.9200067461
 20
-23.3304780023
 10
-0.9122914814
 20
-23.3268174511
  0
LWPOLYLINE
  5
279
100
AcDbEntity
  8
0
100
AcDbPolyline
 62
7
  6
CONTINUOUS
 90
39
 70
0
 10
-1.264813441
 20
-22.9863307932
 10
-1.2571349237
 20
-22.9900165311
 10
-1.2493418616
 20
-22.9934613615
 10
-1.2414440024
 20
-22.9966737028
 10
-1.233451094
 20
-22.9996619738
 10
-1.225372884
 20
-23.002434593
 10
-1.2172191203
 20
-23.0049999789
 10
-1.2089995506
 20
-23.0073665502
 10
-1.2007239226
 20
-23.0095427254
 10
-1.1924019841
 20
-23.0115369231
 10
-1.1840434828
 20
-23.0133575618
 10
-1.173562734
 20
-23.0153989028
 10
-1.1630447517
 20
-23.0171866077
 10
-1.1524941501
 20
-23.0187247605
 10
-1.1419155436
 20
-23.0200174451
 10
-1.1313135465
 20
-23.0210687457
 10
-1.1206927732
 20
-23.0218827461
 10
-1.1100578379
 20
-23.0224635305
 10
-1.0994133549
 20
-23.0228151829
 10
-1.0887639386
 20
-23.0229417872
 10
-1.078105078
 20
-23.0228459101
 10
-1.0674504963
 20
-23.0225247262
 10
-1.0568047918
 20
-23.0219742716
 10
-1.0461725629
 20
-23.0211905821
 10
-1.035558408
 20
-23.0201696938
 10
-1.0249669255
 20
-23.0189076425
 10
-1.0144027137
 20
-23.0174004642
 10
-1.0038703711
 20
-23.015644195
 10
-0.993374496
 20
-23.0136348706
 10
-0.9849886105
 20
-23.0118370663
 10
-0.976638753
 20
-23.0098656512
 10
-0.9683345451
 20
-23.0077122851
 10
-0.9600856082
 20
-23.0053686278
 10
-0.9519015638
 20
-23.002826339
 10
-0.9437920334
 20
-23.0000770787
 10
-0.9357666385
 20
-22.9971125065
 10
-0.9278350005
 20
-22.9939242823
 10
-0.920006741
 20
-22.9905040659
 10
-0.9122914814
 20
-22.986843517
  0
LWPOLYLINE
  5
27A
100
AcDbEntity
  8
0
100
AcDbPolyline
 62
7
  6
CONTINUOUS
 90
20
 70
0
 10
1.1512577597
 20
-21.616760801
 10
1.1500870262
 20
-21.6161858082
 10
1.148907384
 20
-21.6156270521
 10
1.1477191968
 20
-21.6150845957
 10
1.1465228279
 20
-21.6145585019
 10
1.1453186409
 20
-21.6140488339
 10
1.1441069993
 20
-21.6135556546
 10
1.1428882666
 20
-21.6130790271
 10
1.1416628063
 20
-21.6126190143
 10
1.1404309819
 20
-21.6121756792
 10
1.139193157
 20
-21.611749085
 10
1.137949695
 20
-21.6113392946
 10
1.1367009595
 20
-21.610946371
 10
1.1354473139
 20
-21.6105703772
 10
1.1341891217
 20
-21.6102113763
 10
1.1329267466
 20
-21.6098694313
 10
1.1316605519
 20
-21.6095446051
 10
1.1303909012
 20
-21.6092369609
 10
1.129118158
 20
-21.6089465615
 10
1.1278426859
 20
-21.6086734701
  0
LINE
  5
27B
100
AcDbEntity
  8
RACCORDO
100
AcDbLine
 62
7
  6
CONTINUOUS
 10
-20.4231235402
 20
-16.3208043791
 11
-20.4239926976
 21
-16.3203712422
  0
LINE
  5
27C
100
AcDbEntity
  8
ASSI
100
AcDbLine
 62
7
  6
CONTINUOUS
 10
-20.4240266006
 20
-16.3203542907
 11
-5.7318344345
 21
-23.6664503738
  0
LINE
  5
27D
100
AcDbEntity
  8
RACCORDO
100
AcDbLine
 62
7
  6
CONTINUOUS
 10
-20.6769060497
 20
-15.8632007865
 11
-5.9921511588
 21
-23.2055782319
  0
LINE
  5
27E
100
AcDbEntity
  8
0
100
AcDbLine
 62
7
  6
CONTINUOUS
 10
-2.6412906504
 20
-22.7407979245
 11
-1.1998401446
 21
-23.4615231774
  0
LINE
  5
27F
100
AcDbEntity
  8
0
100
AcDbLine
 62
7
  6
CONTINUOUS
 10
-2.5246150209
 20
-22.6964039373
 11
-1.264813441
 21
-23.3263047273
  0
LINE
  5
280
100
AcDbEntity
  8
0
100
AcDbLine
 62
7
  6
CONTINUOUS
 10
-1.264813441
 20
-22.9863307932
 11
-2.1702233734
 21
-22.5336258269
  0
LINE
  5
281
100
AcDbEntity
  8
0
100
AcDbLine
 62
7
  6
CONTINUOUS
 10
-1.1764250934
 20
-22.7546366193
 11
-2.0874611461
 21
-22.2991185929
  0
LINE
  5
282
100
AcDbEntity
  8
0
100
AcDbLine
 62
7
  6
CONTINUOUS
 10
-0.5535928329
 20
-22.009834316
 11
-2.0483790038
 21
-21.2624412306
  0
LINE
  5
283
100
AcDbEntity
  8
0
100
AcDbLine
 62
7
  6
CONTINUOUS
 10
-0.0363622392
 20
-21.5745368856
 11
-0.5535928329
 21
-21.3159215888
  0
LINE
  5
284
100
AcDbEntity
  8
0
100
AcDbLine
 62
7
  6
CONTINUOUS
 10
0.6889893095
 20
-21.3892467819
 11
1.1278426859
 21
-21.6086734701
  0
LINE
  5
285
100
AcDbEntity
  8
0
100
AcDbLine
 62
7
  6
CONTINUOUS
 10
0.6889893095
 20
-21.3856266323
 11
1.1512577371
 21
-21.6167608462
  0
LINE
  5
286
100
AcDbEntity
  8
SUPERFICI
100
AcDbLine
 62
7
  6
CONTINUOUS
 10
-16.1756878823
 20
-11.3270826135
 11
-15.2918043857
 21
-11.7690243618
  0
LINE
  5
287
100
AcDbEntity
  8
DRAFT
100
AcDbLine
 62
7
  6
CONTINUOUS
 10
-16.1756878823
 20
-11.3270826135
 11
-15.2918043857
 21
-11.7690243618
  0
LINE
  5
288
100
AcDbEntity
  8
SUPERFICI
100
AcDbLine
 62
7
  6
CONTINUOUS
 10
-14.1604334555
 20
-12.3347098269
 11
-13.099773258
 21
-12.8650399257
  0
LINE
  5
289
100
AcDbEntity
  8
DRAFT
100
AcDbLine
 62
7
  6
CONTINUOUS
 10
-14.1604334555
 20
-12.3347098269
 11
-13.099773258
 21
-12.8650399257
  0
LINE
  5
28A
100
AcDbEntity
  8
SUPERFICI
100
AcDbLine
 62
7
  6
CONTINUOUS
 10
-11.9684025073
 20
-13.430725301
 11
-11.0845190108
 21
-13.8726670492
  0
LINE
  5
28B
100
AcDbEntity
  8
DRAFT
100
AcDbLine
 62
7
  6
CONTINUOUS
 10
-11.9684025073
 20
-13.430725301
 11
-11.0845190108
 21
-13.8726670492
  0
LINE
  5
28C
100
AcDbEntity
  8
SUPERFICI
100
AcDbLine
 62
7
  6
CONTINUOUS
 10
-16.175686605
 20
-10.4598681532
 11
-15.291803092
 21
-10.9018099097
  0
LINE
  5
28D
100
AcDbEntity
  8
DRAFT
100
AcDbLine
 62
7
  6
CONTINUOUS
 10
-16.175686605
 20
-10.4598681532
 11
-15.291803092
 21
-10.9018099097
  0
LINE
  5
28E
100
AcDbEntity
  8
SUPERFICI
100
AcDbLine
 62
7
  6
CONTINUOUS
 10
-14.1604321782
 20
-11.4674953665
 11
-13.0997719643
 21
-11.9978254735
  0
LINE
  5
28F
100
AcDbEntity
  8
DRAFT
100
AcDbLine
 62
7
  6
CONTINUOUS
 10
-14.1604321782
 20
-11.4674953665
 11
-13.0997719643
 21
-11.9978254735
  0
LINE
  5
290
100
AcDbEntity
  8
SUPERFICI
100
AcDbLine
 62
7
  6
CONTINUOUS
 10
-11.9684012301
 20
-12.5635108406
 11
-11.0845177171
 21
-13.0054525971
  0
LINE
  5
291
100
AcDbEntity
  8
DRAFT
100
AcDbLine
 62
7
  6
CONTINUOUS
 10
-11.9684012301
 20
-12.5635108406
 11
-11.0845177171
 21
-13.0054525971
  0
LINE
  5
292
100
AcDbEntity
  8
DRAFT
100
AcDbLine
 62
7
  6
CONTINUOUS
 10
-1.4323310341
 20
-15.9216848486
 11
0.3169220267
 21
-16.796311379
  0
LINE
  5
293
100
AcDbEntity
  8
RACCORDO
100
AcDbLine
 62
7
  6
CONTINUOUS
 10
-20.9200117989
 20
-5.8874596298
 11
-6.2713513137
 21
-13.2117898724
  0
LINE
  5
294
100
AcDbEntity
  8
DRAFT
100
AcDbLine
 62
7
  6
CONTINUOUS
 10
-1.2730897126
 20
-2.7566546564
 11
-0.8341969748
 21
-2.9761010253
  0
LINE
  5
295
100
AcDbEntity
  8
RACCORDO
100
AcDbLine
 62
7
  6
CONTINUOUS
 10
-20.2168767173
 20
10.8960402863
 11
-5.5682162321
 21
3.5717100437
  0
LINE
  5
296
100
AcDbEntity
  8
RACCORDO
100
AcDbLine
 62
7
  6
CONTINUOUS
 10
-5.7326506293
 20
-23.6660411682
 11
-5.7318703835
 21
-23.6664323993
  0
LINE
  5
297
100
AcDbEntity
  8
RACCORDO
100
AcDbLine
 62
7
  6
CONTINUOUS
 10
-20.4873542695
 20
-16.2843072476
 11
-20.4232062711
 21
-16.3207517806
  0
LWPOLYLINE
  5
298
100
AcDbEntity
  8
RACCORDO
100
AcDbPolyline
 62
7
  6
CONTINUOUS
 90
40
 70
0
 10
-20.4420163411
 20
-16.3107135133
 10
-20.4519705593
 20
-16.3048055196
 10
-20.4617408141
 20
-16.2985750803
 10
-20.4713199842
 20
-16.2920338218
 10
-20.4807009485
 20
-16.2851933705
 10
-20.4898765856
 20
-16.2780653531
 10
-20.4988397744
 20
-16.2706613959
 10
-20.5075833935
 20
-16.2629931254
 10
-20.5161003217
 20
-16.2550721682
 10
-20.5243834379
 20
-16.2469101506
 10
-20.5324256206
 20
-16.2385186992
 10
-20.5407386132
 20
-16.2293203886
 10
-20.548771489
 20
-16.2198858404
 10
-20.5565268039
 20
-16.210227021
 10
-20.5640071137
 20
-16.2003558966
 10
-20.5712149742
 20
-16.1902844338
 10
-20.5781529411
 20
-16.1800245988
 10
-20.5848235703
 20
-16.1695883581
 10
-20.5912294176
 20
-16.158987678
 10
-20.5973730387
 20
-16.148234525
 10
-20.6032569895
 20
-16.1373408654
 10
-20.6094261999
 20
-16.1252223648
 10
-20.6152911694
 20
-16.1129578769
 10
-20.6208580708
 20
-16.1005566008
 10
-20.6261330767
 20
-16.0880277353
 10
-20.6311223596
 20
-16.0753804793
 10
-20.6358320923
 20
-16.0626240319
 10
-20.6402684474
 20
-16.0497675918
 10
-20.6444375976
 20
-16.0368203581
 10
-20.6483457155
 20
-16.0237915296
 10
-20.6519989737
 20
-16.0106903054
 10
-20.6561345815
 20
-15.9945589651
 10
-20.6599064808
 20
-15.9783420455
 10
-20.6633239587
 20
-15.9620487537
 10
-20.6663963021
 20
-15.9456882968
 10
-20.6691327982
 20
-15.929269882
 10
-20.6715427339
 20
-15.9128027165
 10
-20.6736353964
 20
-15.8962960073
 10
-20.6754200727
 20
-15.8797589616
 10
-20.6769060497
 20
-15.8632007865
  0
LINE
  5
299
100
AcDbEntity
  8
RACCORDO
100
AcDbLine
 62
7
  6
CONTINUOUS
 10
-20.5483711959
 20
-16.2401466715
 11
-20.4873542695
 21
-16.2843072476
  0
LINE
  5
29A
100
AcDbEntity
  8
RACCORDO
100
AcDbLine
 62
7
  6
CONTINUOUS
 10
-20.6041616163
 20
-16.18960498
 11
-20.5483711959
 21
-16.2401466715
  0
LINE
  5
29B
100
AcDbEntity
  8
0
100
AcDbLine
 62
7
  6
CONTINUOUS
 10
9.1458485714
 20
22.0306172416
 11
9.3597410254
 21
21.833083974
  0
LINE
  5
29C
100
AcDbEntity
  8
RACCORDO
100
AcDbLine
 62
7
  6
CONTINUOUS
 10
12.3378963716
 20
22.30741748
 11
12.3403458512
 21
22.3049382947
  0
LINE
  5
29D
100
AcDbEntity
  8
RACCORDO
100
AcDbLine
 62
7
  6
CONTINUOUS
 10
-20.654969686
 20
-16.1324114586
 11
-20.6041616163
 21
-16.18960498
  0
LWPOLYLINE
  5
29E
100
AcDbEntity
  8
RACCORDO
100
AcDbPolyline
 62
7
  6
CONTINUOUS
 90
37
 70
0
 10
17.250901695
 20
22.8913545495
 10
17.2501975346
 20
22.8923207351
 10
17.24932103
 20
22.8931271408
 10
17.2483015739
 20
22.8937886115
 10
17.247168559
 20
22.8943199922
 10
17.2459513779
 20
22.8947361279
 10
17.2446794234
 20
22.8950518636
 10
17.243382088
 20
22.8952820444
 10
17.2420887646
 20
22.8954415152
 10
17.2400158303
 20
22.895582811
 10
17.2380072358
 20
22.8955985056
 10
17.2360364246
 20
22.8955150109
 10
17.2340768401
 20
22.8953587389
 10
17.2306318538
 20
22.8949709407
 10
17.2271639345
 20
22.8944640449
 10
17.2236968422
 20
22.8938601772
 10
17.2180640646
 20
22.8927082616
 10
17.2124873336
 20
22.8913836326
 10
17.2069567589
 20
22.8899142979
 10
17.2014624501
 20
22.8883282647
 10
17.1959945169
 20
22.8866535404
 10
17.1867619022
 20
22.8836707162
 10
17.1775732906
 20
22.8805361744
 10
17.1684252781
 20
22.8772727078
 10
17.1593144603
 20
22.8739031091
 10
17.145062576
 20
22.8684359547
 10
17.1308865636
 20
22.8627831335
 10
17.1167788202
 20
22.8569648567
 10
17.1027317431
 20
22.851001335
 10
17.0887377295
 20
22.8449127795
 10
17.0747891766
 20
22.838719401
 10
17.0608784816
 20
22.8324414104
 10
17.0351951053
 20
22.8206402962
 10
17.0096082434
 20
22.8086355573
 10
16.9841106237
 20
22.7964444897
 10
16.9586949739
 20
22.7840843896
 10
16.9333540217
 20
22.7715725532
  0
LINE
  5
29F
100
AcDbEntity
  8
RACCORDO
100
AcDbLine
 62
7
  6
CONTINUOUS
 10
-20.7001659292
 20
-16.0689186796
 11
-20.654969686
 21
-16.1324114586
  0
LWPOLYLINE
  5
2A0
100
AcDbEntity
  8
0
100
AcDbPolyline
 62
7
  6
CONTINUOUS
 90
32
 70
0
 10
-0.9122914814
 20
-22.986843517
 10
-0.9169312455
 20
-22.9795710195
 10
-0.9217570775
 20
-22.9724197173
 10
-0.92675509
 20
-22.9653837004
 10
-0.9319113951
 20
-22.9584570589
 10
-0.9372121054
 20
-22.9516338828
 10
-0.9426433332
 20
-22.9449082623
 10
-0.9481911909
 20
-22.9382742875
 10
-0.9538417909
 20
-22.9317260484
 10
-0.9595812455
 20
-22.925257635
 10
-0.9686366153
 20
-22.9153691739
 10
-0.9778652478
 20
-22.9056542332
 10
-0.9872599555
 20
-22.8961084131
 10
-0.9968135509
 20
-22.886727314
 10
-1.0065188464
 20
-22.8775065361
 10
-1.0163686545
 20
-22.8684416796
 10
-1.0263557877
 20
-22.8595283449
 10
-1.0368192682
 20
-22.850469073
 10
-1.04742123
 20
-22.8415708115
 10
-1.0581610489
 20
-22.83283731
 10
-1.0690381004
 20
-22.8242723182
 10
-1.0800517602
 20
-22.8158795859
 10
-1.0912014041
 20
-22.8076628627
 10
-1.1024864076
 20
-22.7996258985
 10
-1.1114031952
 20
-22.793472342
 10
-1.1204058844
 20
-22.7874440212
 10
-1.1294980312
 20
-22.7815540176
 10
-1.1386831917
 20
-22.775815413
 10
-1.1479649221
 20
-22.7702412892
 10
-1.1573467785
 20
-22.7648447279
 10
-1.1668323169
 20
-22.7596388106
 10
-1.1764250934
 20
-22.7546366193
  0
LWPOLYLINE
  5
2A1
100
AcDbEntity
  8
0
100
AcDbPolyline
 62
7
  6
CONTINUOUS
 90
49
 70
0
 10
-11.0864015114
 20
25.5231928596
 10
-11.0848859166
 20
25.520691253
 10
-11.0833991156
 20
25.5181667403
 10
-11.0819433769
 20
25.5156212051
 10
-11.0805209689
 20
25.513056531
 10
-11.0791341602
 20
25.5104746015
 10
-11.0777852191
 20
25.5078773004
 10
-11.0764764143
 20
25.5052665112
 10
-11.0752100142
 20
25.5026441174
 10
-11.0739882873
 20
25.5000120028
 10
-11.0732779717
 20
25.4984285067
 10
-11.0725866722
 20
25.4968396863
 10
-11.071916509
 20
25.4952430385
 10
-11.0712696021
 20
25.4936360598
 10
-11.0706480716
 20
25.4920162471
 10
-11.0700540376
 20
25.4903810969
 10
-11.0694896203
 20
25.4887281062
 10
-11.0689569397
 20
25.4870547714
 10
-11.0684581159
 20
25.4853585894
 10
-11.0679952691
 20
25.4836370569
 10
-11.0675705194
 20
25.4818876706
 10
-11.0671859867
 20
25.4801079272
 10
-11.0669783091
 20
25.4790393842
 10
-11.0667867667
 20
25.4779608956
 10
-11.0666126584
 20
25.4768740308
 10
-11.0664572829
 20
25.4757803598
 10
-11.0663219389
 20
25.4746814522
 10
-11.0662079251
 20
25.4735788777
 10
-11.0661165404
 20
25.472474206
 10
-11.0660490835
 20
25.471369007
 10
-11.0660068531
 20
25.4702648503
 10
-11.0659911479
 20
25.4691633056
 10
-11.0660032668
 20
25.4680659427
 10
-11.0660445085
 20
25.4669743312
 10
-11.0661161716
 20
25.4658900411
 10
-11.066219555
 20
25.4648146418
 10
-11.0663559575
 20
25.4637497033
 10
-11.0665266776
 20
25.4626967951
 10
-11.0667330143
 20
25.4616574871
 10
-11.0669762663
 20
25.4606333489
 10
-11.0672577322
 20
25.4596259504
 10
-11.0675787109
 20
25.4586368611
 10
-11.0679405011
 20
25.4576676509
 10
-11.0683444015
 20
25.4567198894
 10
-11.0687917109
 20
25.4557951465
 10
-11.0692837281
 20
25.4548949918
 10
-11.0698217518
 20
25.454020995
 10
-11.0704070807
 20
25.4531747259
 10
-11.0710410135
 20
25.4523577542
  0
LWPOLYLINE
  5
2A2
100
AcDbEntity
  8
0
100
AcDbPolyline
 62
7
  6
CONTINUOUS
 90
49
 70
0
 10
1.2172564812
 20
19.3713638633
 10
1.218772076
 20
19.3688622567
 10
1.220258877
 20
19.3663377439
 10
1.2217146157
 20
19.3637922087
 10
1.2231370237
 20
19.3612275346
 10
1.2245238325
 20
19.3586456052
 10
1.2258727735
 20
19.356048304
 10
1.2271815783
 20
19.3534375148
 10
1.2284479785
 20
19.3508151211
 10
1.2296697054
 20
19.3481830065
 10
1.230380021
 20
19.3465995104
 10
1.2310713204
 20
19.34501069
 10
1.2317414837
 20
19.3434140421
 10
1.2323883906
 20
19.3418070635
 10
1.2330099211
 20
19.3401872507
 10
1.233603955
 20
19.3385521006
 10
1.2341683723
 20
19.3368991099
 10
1.2347010529
 20
19.3352257751
 10
1.2351998767
 20
19.3335295931
 10
1.2356627235
 20
19.3318080606
 10
1.2360874733
 20
19.3300586743
 10
1.2364720059
 20
19.3282789309
 10
1.2366796835
 20
19.3272103879
 10
1.2368712259
 20
19.3261318993
 10
1.2370453342
 20
19.3250450345
 10
1.2372007097
 20
19.3239513635
 10
1.2373360537
 20
19.3228524559
 10
1.2374500675
 20
19.3217498814
 10
1.2375414522
 20
19.3206452097
 10
1.2376089091
 20
19.3195400107
 10
1.2376511395
 20
19.318435854
 10
1.2376668447
 20
19.3173343093
 10
1.2376547258
 20
19.3162369464
 10
1.2376134841
 20
19.3151453349
 10
1.237541821
 20
19.3140610448
 10
1.2374384376
 20
19.3129856455
 10
1.2373020351
 20
19.311920707
 10
1.237131315
 20
19.3108677988
 10
1.2369249783
 20
19.3098284908
 10
1.2366817263
 20
19.3088043526
 10
1.2364002604
 20
19.3077969541
 10
1.2360792817
 20
19.3068078648
 10
1.2357174915
 20
19.3058386546
 10
1.2353135911
 20
19.3048908931
 10
1.2348662817
 20
19.3039661502
 10
1.2343742645
 20
19.3030659955
 10
1.2338362408
 20
19.3021919987
 10
1.2332509119
 20
19.3013457296
 10
1.2326169791
 20
19.3005287579
  0
LINE
  5
2A3
100
AcDbEntity
  8
0
100
AcDbLine
 62
7
  6
CONTINUOUS
 10
2.7979679982
 20
14.8399582341
 11
2.0970320445
 21
16.0488939256
  0
LINE
  5
2A4
100
AcDbEntity
  8
DRAFT
100
AcDbLine
 62
7
  6
CONTINUOUS
 10
2.0970320445
 20
16.0595821121
 11
2.3960960907
 21
15.5437729322
  0
LINE
  5
2A5
100
AcDbEntity
  8
DRAFT
100
AcDbLine
 62
7
  6
CONTINUOUS
 10
8.9212459116
 20
19.8070960808
 11
8.1685518276
 21
21.1053013418
  0
LINE
  5
2A6
100
AcDbEntity
  8
RACCORDO
100
AcDbLine
 62
7
  6
CONTINUOUS
 10
16.5138108118
 20
23.4951775529
 11
16.9333540227
 21
22.7715725514
  0
LINE
  5
2A7
100
AcDbEntity
  8
RACCORDO
100
AcDbLine
 62
7
  6
CONTINUOUS
 10
16.9040751761
 20
23.489567739
 11
17.2509129466
 21
22.8913610731
  0
LWPOLYLINE
  5
2A8
100
AcDbEntity
  8
RACCORDO
100
AcDbPolyline
 62
7
  6
CONTINUOUS
 90
29
 70
0
 10
16.9333540227
 20
22.7715725514
 10
16.9575415555
 20
22.7289671898
 10
16.9809584445
 20
22.685909976
 10
17.0035925989
 20
22.642414354
 10
17.0254319279
 20
22.598493768
 10
17.0464643407
 20
22.5541616624
 10
17.0666777466
 20
22.5094314813
 10
17.0860600547
 20
22.4643166689
 10
17.1045991744
 20
22.4188306695
 10
17.1222830147
 20
22.3729869272
 10
17.1390994849
 20
22.3267988863
 10
17.1550364943
 20
22.2802799909
 10
17.170081952
 20
22.2334436853
 10
17.1842237673
 20
22.1863034138
 10
17.194968939
 20
22.1480428152
 10
17.2050988775
 20
22.1096060247
 10
17.2145949358
 20
22.0710061209
 10
17.223438467
 20
22.0322561823
 10
17.2316108242
 20
21.9933692876
 10
17.2390933606
 20
21.9543585153
 10
17.2458674291
 20
21.9152369441
 10
17.2519143829
 20
21.8760176526
 10
17.2572155751
 20
21.8367137193
 10
17.2617523587
 20
21.7973382229
 10
17.2655060868
 20
21.757904242
 10
17.2684581126
 20
21.7184248551
 10
17.2705897891
 20
21.6789131409
 10
17.2718824694
 20
21.639382178
 10
17.2723175066
 20
21.599845045
  0
LINE
  5
2A9
100
AcDbEntity
  8
RACCORDO
100
AcDbLine
 62
7
  6
CONTINUOUS
 10
-20.7390580898
 20
-15.9997497681
 11
-20.7001659292
 21
-16.0689186796
  0
LWPOLYLINE
  5
2AA
100
AcDbEntity
  8
0
100
AcDbPolyline
 62
7
  6
CONTINUOUS
 90
31
 70
0
 10
1.2143308837
 20
-21.7027568265
 10
1.2125852994
 20
-21.698994368
 10
1.2107720709
 20
-21.6952603763
 10
1.208891021
 20
-21.6915569813
 10
1.2069419727
 20
-21.6878863125
 10
1.2049247492
 20
-21.6842504995
 10
1.2028391733
 20
-21.6806516722
 10
1.2006850681
 20
-21.6770919601
 10
1.1984622566
 20
-21.6735734929
 10
1.1961705617
 20
-21.6700984003
 10
1.1938098065
 20
-21.6666688119
 10
1.191379814
 20
-21.6632868574
 10
1.1888804071
 20
-21.6599546665
 10
1.186311409
 20
-21.6566743689
 10
1.1836726425
 20
-21.6534480941
 10
1.1809639307
 20
-21.650277972
 10
1.1783662968
 20
-21.6473647157
 10
1.1757083828
 20
-21.6445046284
 10
1.1729912937
 20
-21.6416998585
 10
1.1702161346
 20
-21.6389525548
 10
1.1673840107
 20
-21.6362648656
 10
1.1644960268
 20
-21.6336389397
 10
1.1615532882
 20
-21.6310769256
 10
1.1585568999
 20
-21.6285809718
 10
1.1555079668
 20
-21.626153227
 10
1.1524075942
 20
-21.6237958397
 10
1.149256887
 20
-21.6215109584
 10
1.1460569503
 20
-21.6193007318
 10
1.1428088892
 20
-21.6171673084
 10
1.1395138088
 20
-21.6151128368
 10
1.1361728141
 20
-21.6131394655
  0
LINE
  5
2AB
100
AcDbEntity
  8
RACCORDO
100
AcDbLine
 62
7
  6
CONTINUOUS
 10
-20.7715643567
 20
-15.9244894895
 11
-20.7390580898
 21
-15.9997497681
  0
LINE
  5
2AC
100
AcDbEntity
  8
0
100
AcDbLine
 62
7
  6
CONTINUOUS
 10
7.5760718962
 20
24.6115082475
 11
7.9906494078
 21
23.5359297073
  0
LINE
  5
2AD
100
AcDbEntity
  8
RACCORDO
100
AcDbLine
 62
7
  6
CONTINUOUS
 10
11.9936899276
 20
25.601223301
 11
12.0028053863
 21
25.5773295
  0
LINE
  5
2AE
100
AcDbEntity
  8
0
100
AcDbLine
 62
7
  6
CONTINUOUS
 10
9.135353736
 20
22.0358646593
 11
8.9338543781
 21
22.6315890851
  0
LINE
  5
2AF
100
AcDbEntity
  8
RACCORDO
100
AcDbLine
 62
7
  6
CONTINUOUS
 10
-20.7971668065
 20
-15.8430600222
 11
-20.7715643567
 21
-15.9244894895
  0
LWPOLYLINE
  5
2B0
100
AcDbEntity
  8
DRAFT
100
AcDbPolyline
 62
7
  6
CONTINUOUS
 90
36
 70
0
 10
-15.291803092
 20
-10.9018099097
 10
-15.2828746645
 20
-10.9314308082
 10
-15.2744411498
 20
-10.9612140493
 10
-15.2665143357
 20
-10.9911465428
 10
-15.2591060104
 20
-11.0212151987
 10
-15.2522279619
 20
-11.0514069267
 10
-15.2458919781
 20
-11.0817086369
 10
-15.240109847
 20
-11.112107239
 10
-15.2348933566
 20
-11.142589643
 10
-15.2305162407
 20
-11.171318178
 10
-15.2266669396
 20
-11.2001122759
 10
-15.223362767
 20
-11.2289749839
 10
-15.2206210363
 20
-11.257909349
 10
-15.2184590611
 20
-11.2869184184
 10
-15.2168941547
 20
-11.3160052391
 10
-15.2159436306
 20
-11.3451728583
 10
-15.2156248024
 20
-11.374424323
 10
-15.2158005902
 20
-11.3957530063
 10
-15.216332151
 20
-11.4171114302
 10
-15.2172318713
 20
-11.4384833607
 10
-15.2185121374
 20
-11.4598525641
 10
-15.2201853357
 20
-11.4812028066
 10
-15.2222638527
 20
-11.5025178543
 10
-15.2247600748
 20
-11.5237814734
 10
-15.2276863883
 20
-11.5449774301
 10
-15.2310551797
 20
-11.5660894906
 10
-15.2348788354
 20
-11.5871014211
 10
-15.2391697417
 20
-11.6079969876
 10
-15.2439402852
 20
-11.6287599565
 10
-15.2492028521
 20
-11.6493740938
 10
-15.2549698289
 20
-11.6698231658
 10
-15.2612536021
 20
-11.6900909386
 10
-15.2680665579
 20
-11.7101611785
 10
-15.2754210829
 20
-11.7300176515
 10
-15.2833295633
 20
-11.7496441239
 10
-15.2918043857
 20
-11.7690243618
  0
LWPOLYLINE
  5
2B1
100
AcDbEntity
  8
DRAFT
100
AcDbPolyline
 62
7
  6
CONTINUOUS
 90
36
 70
0
 10
-13.0997719643
 20
-11.9978254735
 10
-13.0908435387
 20
-12.0274463717
 10
-13.0824100256
 20
-12.0572296125
 10
-13.0744832133
 20
-12.0871621056
 10
-13.0670748895
 20
-12.117230761
 10
-13.0601968425
 20
-12.1474224885
 10
-13.05386086
 20
-12.1777241981
 10
-13.0480787302
 20
-12.2081227997
 10
-13.042862241
 20
-12.238605203
 10
-13.0384851259
 20
-12.2673337376
 10
-13.0346358257
 20
-12.296127835
 10
-13.0313316539
 20
-12.3249905425
 10
-13.0285899238
 20
-12.3539249071
 10
-13.026427949
 20
-12.3829339759
 10
-13.0248630429
 20
-12.4120207961
 10
-13.0239125191
 20
-12.4411884146
 10
-13.023593691
 20
-12.4704398787
 10
-13.0237694787
 20
-12.4917685622
 10
-13.0243010394
 20
-12.5131269862
 10
-13.0252007595
 20
-12.5344989168
 10
-13.0264810254
 20
-12.5558681204
 10
-13.0281542234
 20
-12.577218363
 10
-13.03023274
 20
-12.5985334108
 10
-13.0327289616
 20
-12.6197970302
 10
-13.0356552745
 20
-12.6409929871
 10
-13.0390240652
 20
-12.6621050478
 10
-13.0428477201
 20
-12.6831169786
 10
-13.0471386256
 20
-12.7040125455
 10
-13.051909168
 20
-12.7247755148
 10
-13.0571717338
 20
-12.7453896526
 10
-13.0629387094
 20
-12.7658387252
 10
-13.0692224812
 20
-12.7861064987
 10
-13.0760354355
 20
-12.8061767393
 10
-13.0833899589
 20
-12.8260332132
 10
-13.0912984376
 20
-12.8456596866
 10
-13.099773258
 20
-12.8650399257
  0
LWPOLYLINE
  5
2B2
100
AcDbEntity
  8
DRAFT
100
AcDbPolyline
 62
7
  6
CONTINUOUS
 90
36
 70
0
 10
-11.0845177171
 20
-13.0054525971
 10
-11.0755892896
 20
-13.0350734956
 10
-11.0671557748
 20
-13.0648567367
 10
-11.0592289608
 20
-13.0947892303
 10
-11.0518206355
 20
-13.1248578861
 10
-11.0449425869
 20
-13.1550496142
 10
-11.0386066031
 20
-13.1853513244
 10
-11.0328244721
 20
-13.2157499265
 10
-11.0276079817
 20
-13.2462323305
 10
-11.0232308657
 20
-13.2749608655
 10
-11.0193815647
 20
-13.3037549634
 10
-11.0160773921
 20
-13.3326176713
 10
-11.0133356614
 20
-13.3615520364
 10
-11.0111736862
 20
-13.3905611058
 10
-11.0096087798
 20
-13.4196479265
 10
-11.0086582557
 20
-13.4488155457
 10
-11.0083394275
 20
-13.4780670105
 10
-11.0085152153
 20
-13.4993956938
 10
-11.0090467761
 20
-13.5207541176
 10
-11.0099464964
 20
-13.5421260481
 10
-11.0112267625
 20
-13.5634952515
 10
-11.0128999608
 20
-13.584845494
 10
-11.0149784778
 20
-13.6061605417
 10
-11.0174746999
 20
-13.6274241608
 10
-11.0204010134
 20
-13.6486201175
 10
-11.0237698048
 20
-13.669732178
 10
-11.0275934605
 20
-13.6907441085
 10
-11.0318843668
 20
-13.711639675
 10
-11.0366549103
 20
-13.7324026439
 10
-11.0419174772
 20
-13.7530167812
 10
-11.047684454
 20
-13.7734658532
 10
-11.0539682272
 20
-13.793733626
 10
-11.060781183
 20
-13.8138038659
 10
-11.068135708
 20
-13.8336603389
 10
-11.0760441884
 20
-13.8532868113
 10
-11.0845190108
 20
-13.8726670492
  0
LWPOLYLINE
  5
2B3
100
AcDbEntity
  8
DRAFT
100
AcDbPolyline
 62
7
  6
CONTINUOUS
 90
34
 70
0
 10
-16.1905185591
 20
-11.2782804074
 10
-16.1977405775
 20
-11.2525449115
 10
-16.2045842362
 20
-11.2266924169
 10
-16.2110373353
 20
-11.2007282177
 10
-16.2170876746
 20
-11.1746576083
 10
-16.222723054
 20
-11.1484858827
 10
-16.2279312737
 20
-11.1222183353
 10
-16.2327001334
 20
-11.0958602602
 10
-16.2370174331
 20
-11.0694169515
 10
-16.2408709728
 20
-11.0428937036
 10
-16.2442485524
 20
-11.0162958107
 10
-16.2471379718
 20
-10.9896285668
 10
-16.2495270311
 20
-10.9628972663
 10
-16.2514035301
 20
-10.9361072033
 10
-16.2527552687
 20
-10.909263672
 10
-16.253570047
 20
-10.8823719667
 10
-16.2538356649
 20
-10.8554373815
 10
-16.2536402268
 20
-10.8336730031
 10
-16.2530665953
 20
-10.8118990659
 10
-16.2521022479
 20
-10.7901304944
 10
-16.2507346618
 20
-10.7683822132
 10
-16.2489513145
 20
-10.7466691468
 10
-16.2467396832
 20
-10.7250062198
 10
-16.2440872454
 20
-10.7034083566
 10
-16.2409814785
 20
-10.6818904819
 10
-16.2374098597
 20
-10.6604675201
 10
-16.2333598664
 20
-10.6391543959
 10
-16.2288189761
 20
-10.6179660337
 10
-16.223774666
 20
-10.596917358
 10
-16.2182144135
 20
-10.5760232935
 10
-16.2121256961
 20
-10.5552987645
 10
-16.2054959909
 20
-10.5347586958
 10
-16.1983127755
 20
-10.5144180118
 10
-16.1905635271
 20
-10.494291637
  0
LWPOLYLINE
  5
2B4
100
AcDbEntity
  8
DRAFT
100
AcDbPolyline
 62
7
  6
CONTINUOUS
 90
34
 70
0
 10
-14.1752641354
 20
-12.28590762
 10
-14.1824861552
 20
-12.2601721239
 10
-14.1893298153
 20
-12.234319629
 10
-14.1957829157
 20
-12.2083554296
 10
-14.2018332562
 20
-12.1822848199
 10
-14.2074686369
 20
-12.156113094
 10
-14.2126768576
 20
-12.1298455462
 10
-14.2174457183
 20
-12.1034874706
 10
-14.221763019
 20
-12.0770441616
 10
-14.2256165595
 20
-12.0505209132
 10
-14.2289941398
 20
-12.0239230197
 10
-14.2318835599
 20
-11.9972557753
 10
-14.2342726197
 20
-11.9705244742
 10
-14.2361491191
 20
-11.9437344106
 10
-14.2375008581
 20
-11.9168908787
 10
-14.2383156365
 20
-11.8899991727
 10
-14.2385812544
 20
-11.8630645868
 10
-14.2383858163
 20
-11.8413002085
 10
-14.2378121847
 20
-11.8195262713
 10
-14.2368478371
 20
-11.7977576999
 10
-14.2354802507
 20
-11.7760094189
 10
-14.2336969031
 20
-11.7542963526
 10
-14.2314852714
 20
-11.7326334257
 10
-14.2288328331
 20
-11.7110355627
 10
-14.2257270655
 20
-11.6895176882
 10
-14.222155446
 20
-11.6680947267
 10
-14.2181054519
 20
-11.6467816028
 10
-14.2135645606
 20
-11.6255932409
 10
-14.2085202495
 20
-11.6045445657
 10
-14.2029599958
 20
-11.5836505016
 10
-14.1968712771
 20
-11.5629259733
 10
-14.1902415705
 20
-11.5423859052
 10
-14.1830583535
 20
-11.522045222
 10
-14.1753091034
 20
-11.5019188481
  0
LWPOLYLINE
  5
2B5
100
AcDbEntity
  8
DRAFT
100
AcDbPolyline
 62
7
  6
CONTINUOUS
 90
34
 70
0
 10
-11.9832331842
 20
-13.3819230948
 10
-11.9904552026
 20
-13.3561875989
 10
-11.9972988613
 20
-13.3303351043
 10
-12.0037519604
 20
-13.3043709052
 10
-12.0098022997
 20
-13.2783002957
 10
-12.0154376791
 20
-13.2521285702
 10
-12.0206458988
 20
-13.2258610228
 10
-12.0254147585
 20
-13.1995029476
 10
-12.0297320582
 20
-13.173059639
 10
-12.0335855979
 20
-13.1465363911
 10
-12.0369631775
 20
-13.1199384982
 10
-12.0398525969
 20
-13.0932712543
 10
-12.0422416562
 20
-13.0665399538
 10
-12.0441181552
 20
-13.0397498908
 10
-12.0454698938
 20
-13.0129063595
 10
-12.0462846721
 20
-12.9860146542
 10
-12.04655029
 20
-12.959080069
 10
-12.0463548519
 20
-12.9373156906
 10
-12.0457812204
 20
-12.9155417534
 10
-12.044816873
 20
-12.8937731819
 10
-12.0434492869
 20
-12.8720249007
 10
-12.0416659396
 20
-12.8503118343
 10
-12.0394543083
 20
-12.8286489073
 10
-12.0368018705
 20
-12.8070510441
 10
-12.0336961035
 20
-12.7855331694
 10
-12.0301244848
 20
-12.7641102076
 10
-12.0260744915
 20
-12.7427970834
 10
-12.0215336011
 20
-12.7216087211
 10
-12.0164892911
 20
-12.7005600455
 10
-12.0109290386
 20
-12.6796659809
 10
-12.0048403211
 20
-12.658941452
 10
-11.998210616
 20
-12.6384013832
 10
-11.9910274005
 20
-12.6180606992
 10
-11.9832781521
 20
-12.5979343244
  0
LWPOLYLINE
  5
2B6
100
AcDbEntity
  8
0
100
AcDbPolyline
 62
7
  6
CONTINUOUS
 90
17
 70
0
 10
1.2288561563
 20
-21.7442184852
 10
1.2281465593
 20
-21.7415193175
 10
1.227408802
 20
-21.7388276881
 10
1.2266426613
 20
-21.7361437293
 10
1.2258479141
 20
-21.7334675737
 10
1.2250416793
 20
-21.7308544893
 10
1.2242077339
 20
-21.7282495191
 10
1.2233460175
 20
-21.7256531664
 10
1.2224564694
 20
-21.7230659344
 10
1.2215390292
 20
-21.7204883266
 10
1.2205936363
 20
-21.7179208462
 10
1.2196202303
 20
-21.7153639966
 10
1.2186187505
 20
-21.7128182811
 10
1.2175891365
 20
-21.710284203
 10
1.2165313277
 20
-21.7077622657
 10
1.2154452636
 20
-21.7052529724
 10
1.2143308837
 20
-21.7027568265
  0
LINE
  5
2B7
100
AcDbEntity
  8
RACCORDO
100
AcDbLine
 62
7
  6
CONTINUOUS
 10
-20.8151018874
 20
-15.7561410235
 11
-20.7971668065
 21
-15.8430600222
  0
LINE
  5
2B8
100
AcDbEntity
  8
RACCORDO
100
AcDbLine
 62
7
  6
CONTINUOUS
 10
-20.8234100253
 20
-15.6851986113
 11
-20.8151018874
 21
-15.7561410235
  0
LWPOLYLINE
  5
2B9
100
AcDbEntity
  8
ASSI
100
AcDbPolyline
 62
7
  6
CONTINUOUS
 90
25
 70
0
 10
-1.8998896531
 20
-17.7235598317
 10
-1.8982526845
 20
-17.7384213414
 10
-1.8967974966
 20
-17.7532994885
 10
-1.8955269441
 20
-17.7681956263
 10
-1.8944438819
 20
-17.7831111081
 10
-1.8935511649
 20
-17.7980472872
 10
-1.8928516477
 20
-17.8130055169
 10
-1.8923819246
 20
-17.8267719187
 10
-1.8920819613
 20
-17.8405536076
 10
-1.8919559348
 20
-17.8543461043
 10
-1.8920080221
 20
-17.8681449295
 10
-1.8922424003
 20
-17.8819456041
 10
-1.8926632464
 20
-17.8957436487
 10
-1.8932747375
 20
-17.9095345842
 10
-1.8940810506
 20
-17.9233139313
 10
-1.8950863627
 20
-17.9370772108
 10
-1.8962948508
 20
-17.9508199435
 10
-1.8977106921
 20
-17.96453765
 10
-1.8993380635
 20
-17.9782258512
 10
-1.9011811421
 20
-17.9918800679
 10
-1.9032441049
 20
-18.0054958207
 10
-1.905531129
 20
-18.0190686305
 10
-1.9080463914
 20
-18.0325940181
 10
-1.9107940691
 20
-18.0460675041
 10
-1.9137783392
 20
-18.0594846093
  0
LWPOLYLINE
  5
2BA
100
AcDbEntity
  8
0
100
AcDbPolyline
 62
7
  6
CONTINUOUS
 90
46
 70
0
 10
-3.4938200722
 20
26.716403112
 10
-3.4938231377
 20
26.7166238541
 10
-3.4938308557
 20
26.7168452617
 10
-3.4938432897
 20
26.7170671246
 10
-3.493860503
 20
26.7172892326
 10
-3.4938825589
 20
26.7175113755
 10
-3.4939095207
 20
26.7177333428
 10
-3.4939414519
 20
26.7179549245
 10
-3.4939784156
 20
26.7181759102
 10
-3.4940204753
 20
26.7183960898
 10
-3.4940676943
 20
26.7186152529
 10
-3.4941201358
 20
26.7188331893
 10
-3.4941778633
 20
26.7190496887
 10
-3.49424094
 20
26.719264541
 10
-3.4943094293
 20
26.7194775358
 10
-3.4943833946
 20
26.7196884629
 10
-3.4944628991
 20
26.7198971121
 10
-3.4945480061
 20
26.7201032731
 10
-3.4946387791
 20
26.7203067356
 10
-3.4947352812
 20
26.7205072894
 10
-3.494837576
 20
26.7207047243
 10
-3.4949457266
 20
26.72089883
 10
-3.4950597965
 20
26.7210893963
 10
-3.4951788957
 20
26.7212748801
 10
-3.4953036782
 20
26.7214566503
 10
-3.4954339326
 20
26.7216346881
 10
-3.4955694476
 20
26.7218089743
 10
-3.4957100117
 20
26.7219794901
 10
-3.4958554137
 20
26.7221462164
 10
-3.4960054421
 20
26.7223091343
 10
-3.4961598857
 20
26.7224682249
 10
-3.4963185331
 20
26.7226234691
 10
-3.4964811729
 20
26.7227748479
 10
-3.4966475937
 20
26.7229223425
 10
-3.4968175843
 20
26.7230659338
 10
-3.4969909332
 20
26.7232056028
 10
-3.4971674291
 20
26.7233413306
 10
-3.4973468606
 20
26.7234730983
 10
-3.4975290164
 20
26.7236008868
 10
-3.4977136852
 20
26.7237246772
 10
-3.4979006555
 20
26.7238444504
 10
-3.4980897161
 20
26.7239601877
 10
-3.4982806555
 20
26.7240718698
 10
-3.4984732625
 20
26.724179478
 10
-3.4986673256
 20
26.7242829932
 10
-3.4988626334
 20
26.7243823964
  0
LWPOLYLINE
  5
2BB
100
AcDbEntity
  8
0
100
AcDbPolyline
 62
7
  6
CONTINUOUS
 90
46
 70
0
 10
2.096626354
 20
23.921179776
 10
2.0966232955
 20
23.9214000368
 10
2.0966156146
 20
23.9216209595
 10
2.0966032472
 20
23.9218423351
 10
2.0965861296
 20
23.9220639549
 10
2.0965641976
 20
23.9222856101
 10
2.0965373874
 20
23.9225070917
 10
2.096505635
 20
23.922728191
 10
2.0964688765
 20
23.9229486991
 10
2.096427048
 20
23.9231684073
 10
2.0963800854
 20
23.9233871066
 10
2.0963279248
 20
23.9236045882
 10
2.0962705024
 20
23.9238206434
 10
2.0962077541
 20
23.9240350632
 10
2.096139616
 20
23.9242476389
 10
2.0960660242
 20
23.9244581616
 10
2.0959869146
 20
23.9246664225
 10
2.0959022235
 20
23.9248722127
 10
2.0958118868
 20
23.9250753234
 10
2.0957158405
 20
23.9252755459
 10
2.0956140208
 20
23.9254726712
 10
2.0955063637
 20
23.9256664905
 10
2.0953928052
 20
23.9258567951
 10
2.0952743422
 20
23.9260418759
 10
2.095150222
 20
23.9262232748
 10
2.0950206543
 20
23.9264009718
 10
2.0948858487
 20
23.9265749474
 10
2.0947460148
 20
23.9267451815
 10
2.0946013623
 20
23.9269116544
 10
2.0944521008
 20
23.9270743463
 10
2.0942984399
 20
23.9272332374
 10
2.0941405893
 20
23.9273883079
 10
2.0939787587
 20
23.927539538
 10
2.0938131576
 20
23.9276869078
 10
2.0936439958
 20
23.9278303976
 10
2.0934714828
 20
23.9279699876
 10
2.0932958282
 20
23.9281056579
 10
2.0931172418
 20
23.9282373887
 10
2.0929359331
 20
23.9283651603
 10
2.0927521119
 20
23.9284889527
 10
2.0925659876
 20
23.9286087463
 10
2.0923777701
 20
23.9287245212
 10
2.0921876688
 20
23.9288362576
 10
2.0919958935
 20
23.9289439357
 10
2.0918026538
 20
23.9290475357
 10
2.0916081594
 20
23.9291470378
  0
LWPOLYLINE
  5
2BC
100
AcDbEntity
  8
0
100
AcDbPolyline
 62
7
  6
CONTINUOUS
 90
43
 70
0
 10
-1.264813441
 20
-23.3263047273
 10
-1.264774192
 20
-23.330867597
 10
-1.2646546899
 20
-23.3354316643
 10
-1.2644523025
 20
-23.3399946588
 10
-1.2641643973
 20
-23.34455431
 10
-1.263788342
 20
-23.3491083476
 10
-1.2633215042
 20
-23.3536545012
 10
-1.2627612516
 20
-23.3581905002
 10
-1.2621049518
 20
-23.3627140744
 10
-1.2613499724
 20
-23.3672229533
 10
-1.2604936811
 20
-23.3717148665
 10
-1.2596373425
 20
-23.3757265299
 10
-1.2586948509
 20
-23.3797193851
 10
-1.2576636463
 20
-23.3836900934
 10
-1.2565411686
 20
-23.3876353165
 10
-1.2553248576
 20
-23.3915517159
 10
-1.2540121531
 20
-23.3954359531
 10
-1.2526004952
 20
-23.3992846897
 10
-1.2510873236
 20
-23.4030945872
 10
-1.2494700781
 20
-23.4068623071
 10
-1.2477461988
 20
-23.4105845109
 10
-1.2462586269
 20
-23.4135858492
 10
-1.2446974677
 20
-23.4165510441
 10
-1.2430618594
 20
-23.4194764902
 10
-1.2413509399
 20
-23.4223585823
 10
-1.2395638474
 20
-23.4251937148
 10
-1.2376997199
 20
-23.4279782825
 10
-1.2357576955
 20
-23.43070868
 10
-1.2337369121
 20
-23.4333813018
 10
-1.2316365078
 20
-23.4359925427
 10
-1.2294556207
 20
-23.4385387973
 10
-1.2271933889
 20
-23.4410164602
 10
-1.2250140144
 20
-23.4432581731
 10
-1.2227658408
 20
-23.4454340839
 10
-1.2204513152
 20
-23.4475409613
 10
-1.2180728846
 20
-23.4495755745
 10
-1.215632996
 20
-23.4515346921
 10
-1.2131340964
 20
-23.4534150831
 10
-1.210578633
 20
-23.4552135164
 10
-1.2079690528
 20
-23.456926761
 10
-1.2053078027
 20
-23.4585515856
 10
-1.2025973299
 20
-23.4600847592
 10
-1.1998400813
 20
-23.4615230507
  0
LWPOLYLINE
  5
2BD
100
AcDbEntity
  8
0
100
AcDbPolyline
 62
7
  6
CONTINUOUS
 90
43
 70
0
 10
-1.264813441
 20
18.3132733462
 10
-1.2647741954
 20
18.3087105878
 10
-1.264654703
 20
18.3041466305
 10
-1.2644523309
 20
18.2995837451
 10
-1.2641644458
 20
18.2950242025
 10
-1.2637884147
 20
18.2904702735
 10
-1.2633216045
 20
18.2859242288
 10
-1.262761382
 20
18.2813883394
 10
-1.2621051142
 20
18.276864876
 10
-1.2613501679
 20
18.2723561095
 10
-1.2604939101
 20
18.2678643106
 10
-1.2596375835
 20
18.2638526711
 10
-1.258695102
 20
18.259859841
 10
-1.2576639073
 20
18.2558891573
 10
-1.2565414407
 20
18.2519439571
 10
-1.255325144
 20
18.2480275774
 10
-1.2540124585
 20
18.2441433553
 10
-1.252600826
 20
18.2402946279
 10
-1.2510876879
 20
18.2364847321
 10
-1.2494704858
 20
18.2327170049
 10
-1.2477466613
 20
18.2289947836
 10
-1.2462591509
 20
18.2259934376
 10
-1.2446980609
 20
18.2230282287
 10
-1.2430625279
 20
18.220102764
 10
-1.241351688
 20
18.2172206508
 10
-1.2395646775
 20
18.2143854963
 10
-1.2377006328
 20
18.2116009075
 10
-1.2357586903
 20
18.2088704918
 10
-1.2337379861
 20
18.2061978562
 10
-1.2316376567
 20
18.203586608
 10
-1.2294568383
 20
18.2010403544
 10
-1.2271946672
 20
18.1985627025
 10
-1.2250153857
 20
18.1963210535
 10
-1.2227673021
 20
18.1941452092
 10
-1.2204528661
 20
18.1920383955
 10
-1.2180745271
 20
18.1900038381
 10
-1.2156347349
 20
18.1880447629
 10
-1.2131359389
 20
18.1861643959
 10
-1.2105805887
 20
18.1843659627
 10
-1.207971134
 20
18.1826526893
 10
-1.2053100242
 20
18.1810278015
 10
-1.202599709
 20
18.1794945252
 10
-1.1998426378
 20
18.1780560862
  0
LWPOLYLINE
  5
2BE
100
AcDbEntity
  8
0
100
AcDbPolyline
 62
7
  6
CONTINUOUS
 90
42
 70
0
 10
-2.9433515114
 20
19.1525423814
 10
-2.9433206291
 20
19.1484816373
 10
-2.943226604
 20
19.1444119181
 10
-2.9430673688
 20
19.1403360373
 10
-2.9428408565
 20
19.1362568087
 10
-2.9425449998
 20
19.1321770459
 10
-2.9421777315
 20
19.1280995624
 10
-2.9417369844
 20
19.124027172
 10
-2.9412206914
 20
19.1199626882
 10
-2.9406267852
 20
19.1159089247
 10
-2.9399531986
 20
19.1118686951
 10
-2.9391978645
 20
19.1078448131
 10
-2.9383587157
 20
19.1038400922
 10
-2.9374336849
 20
19.0998573461
 10
-2.9364207049
 20
19.0958993885
 10
-2.9353177087
 20
19.091969033
 10
-2.9341226289
 20
19.0880690931
 10
-2.9328333984
 20
19.0842023826
 10
-2.93144795
 20
19.080371715
 10
-2.9299642165
 20
19.076579904
 10
-2.9283801307
 20
19.0728297633
 10
-2.9269340198
 20
19.0696362612
 10
-2.9254105364
 20
19.0664793479
 10
-2.9238082558
 20
19.0633626259
 10
-2.9221257536
 20
19.0602896975
 10
-2.9203616052
 20
19.057264165
 10
-2.918514386
 20
19.0542896309
 10
-2.9165826714
 20
19.0513696976
 10
-2.914565037
 20
19.0485079672
 10
-2.9124600581
 20
19.0457080424
 10
-2.9102663103
 20
19.0429735253
 10
-2.9083498499
 20
19.0407247647
 10
-2.9063709721
 20
19.0385279347
 10
-2.9043311927
 20
19.0363860489
 10
-2.9022320272
 20
19.0343021205
 10
-2.9000749914
 20
19.0322791629
 10
-2.897861601
 20
19.0303201895
 10
-2.8955933716
 20
19.0284282137
 10
-2.893271819
 20
19.0266062487
 10
-2.8908984588
 20
19.0248573079
 10
-2.8884748067
 20
19.0231844048
 10
-2.8860023784
 20
19.0215905526
  0
LINE
  5
2BF
100
AcDbEntity
  8
0
100
AcDbLine
 62
7
  6
CONTINUOUS
 10
-3.9493527385
 20
24.0677646097
 11
-3.9571151972
 21
25.1610437411
  0
LINE
  5
2C0
100
AcDbEntity
  8
0
100
AcDbLine
 62
7
  6
CONTINUOUS
 10
-0.1219372272
 20
25.8225882092
 11
-0.1186297442
 21
25.3567561541
  0
LINE
  5
2C1
100
AcDbEntity
  8
0
100
AcDbLine
 62
7
  6
CONTINUOUS
 10
-2.9662365778
 20
25.2879412346
 11
-2.9645503741
 21
24.7187724472
  0
LINE
  5
2C2
100
AcDbEntity
  8
RACCORDO
100
AcDbLine
 62
7
  6
CONTINUOUS
 10
-2.4148292069
 20
22.720503428
 11
-2.4148291714
 21
22.7204044517
  0
LINE
  5
2C3
100
AcDbEntity
  8
0
100
AcDbLine
 62
7
  6
CONTINUOUS
 10
-5.0677601298
 20
21.0491035103
 11
-5.0677601298
 21
19.6029407446
  0
LINE
  5
2C4
100
AcDbEntity
  8
0
100
AcDbLine
 62
7
  6
CONTINUOUS
 10
-4.4083502554
 20
19.2732358074
 11
-4.4083502554
 21
20.7193985732
  0
LINE
  5
2C5
100
AcDbEntity
  8
DRAFT
100
AcDbLine
 62
7
  6
CONTINUOUS
 10
-4.366824176
 20
18.4095344814
 11
-4.366824176
 21
18.2395061692
  0
LINE
  5
2C6
100
AcDbEntity
  8
RACCORDO
100
AcDbLine
 62
7
  6
CONTINUOUS
 10
-3.6739739511
 20
23.129806724
 11
-3.6739739511
 21
22.2648881961
  0
LINE
  5
2C7
100
AcDbEntity
  8
0
100
AcDbLine
 62
7
  6
CONTINUOUS
 10
-3.493820439
 20
25.4680991169
 11
-3.493820439
 21
26.715865708
  0
LINE
  5
2C8
100
AcDbEntity
  8
0
100
AcDbLine
 62
7
  6
CONTINUOUS
 10
-3.3415193433
 20
19.8685602254
 11
-3.3415193433
 21
21.2542008715
  0
LINE
  5
2C9
100
AcDbEntity
  8
RACCORDO
100
AcDbLine
 62
7
  6
CONTINUOUS
 10
-3.2611027348
 20
23.2420671493
 11
-3.2611027348
 21
22.2594824894
  0
LINE
  5
2CA
100
AcDbEntity
  8
0
100
AcDbLine
 62
7
  6
CONTINUOUS
 10
-3.0165748161
 20
19.5809046632
 11
-3.0165748161
 21
19.2409307291
  0
LINE
  5
2CB
100
AcDbEntity
  8
0
100
AcDbLine
 62
7
  6
CONTINUOUS
 10
-2.9433515114
 20
19.4925163156
 11
-2.9433515114
 21
19.1525423814
  0
LINE
  5
2CC
100
AcDbEntity
  8
RACCORDO
100
AcDbLine
 62
7
  6
CONTINUOUS
 10
-2.5026971362
 20
22.8628643499
 11
-2.5026971362
 21
22.5967881646
  0
LINE
  5
2CD
100
AcDbEntity
  8
0
100
AcDbLine
 62
7
  6
CONTINUOUS
 10
-2.3135818618
 20
18.7349257548
 11
-2.3135818618
 21
18.2809720128
  0
LINE
  5
2CE
100
AcDbEntity
  8
0
100
AcDbLine
 62
7
  6
CONTINUOUS
 10
-2.2403585571
 20
18.6983141024
 11
-2.2403585571
 21
18.1892399582
  0
LINE
  5
2CF
100
AcDbEntity
  8
RACCORDO
100
AcDbLine
 62
7
  6
CONTINUOUS
 10
-1.4323310341
 20
-15.9216848486
 11
-1.4323310341
 21
-16.26818734
  0
LINE
  5
2D0
100
AcDbEntity
  8
0
100
AcDbLine
 62
7
  6
CONTINUOUS
 10
-1.264813441
 20
-23.3263047273
 11
-1.264813441
 21
-22.9863307932
  0
LINE
  5
2D1
100
AcDbEntity
  8
0
100
AcDbLine
 62
7
  6
CONTINUOUS
 10
-1.264813441
 20
18.3132733462
 11
-1.264813441
 21
18.6532472804
  0
LINE
  5
2D2
100
AcDbEntity
  8
0
100
AcDbLine
 62
7
  6
CONTINUOUS
 10
-0.9122914814
 20
-23.3268174511
 11
-0.9122914814
 21
-22.986843517
  0
LINE
  5
2D3
100
AcDbEntity
  8
0
100
AcDbLine
 62
7
  6
CONTINUOUS
 10
-0.9122914814
 20
18.3127606224
 11
-0.9122914814
 21
18.6527345565
  0
LINE
  5
2D4
100
AcDbEntity
  8
0
100
AcDbLine
 62
7
  6
CONTINUOUS
 10
-0.5535928329
 20
-22.009834316
 11
-0.5535928329
 21
-21.3159215888
  0
LINE
  5
2D5
100
AcDbEntity
  8
0
100
AcDbLine
 62
7
  6
CONTINUOUS
 10
-0.5535928329
 20
17.3458570961
 11
-0.5535928329
 21
18.0265854838
  0
LINE
  5
2D6
100
AcDbEntity
  8
0
100
AcDbLine
 62
7
  6
CONTINUOUS
 10
-0.2010708733
 20
-22.1353470399
 11
-0.2010708733
 21
-21.4921825686
  0
LINE
  5
2D7
100
AcDbEntity
  8
0
100
AcDbLine
 62
7
  6
CONTINUOUS
 10
-0.2010708733
 20
17.3566249778
 11
-0.2010708733
 21
18.1642570995
  0
LINE
  5
2D8
100
AcDbEntity
  8
0
100
AcDbLine
 62
7
  6
CONTINUOUS
 10
0.3169220267
 20
16.4773887727
 11
0.3169220267
 21
11.9557320267
  0
LINE
  5
2D9
100
AcDbEntity
  8
0
100
AcDbLine
 62
7
  6
CONTINUOUS
 10
0.3169220267
 20
-16.796311379
 11
0.3169220267
 21
-21.317968125
  0
LINE
  5
2DA
100
AcDbEntity
  8
0
100
AcDbLine
 62
7
  6
CONTINUOUS
 10
0.6889893095
 20
-22.5467828515
 11
0.6889893095
 21
-21.3784230567
  0
LINE
  5
2DB
100
AcDbEntity
  8
0
100
AcDbLine
 62
7
  6
CONTINUOUS
 10
0.6889893095
 20
17.853305899
 11
0.6889893095
 21
19.45545656
  0
LINE
  5
2DC
100
AcDbEntity
  8
0
100
AcDbLine
 62
7
  6
CONTINUOUS
 10
1.2172564812
 20
19.71889538
 11
1.2172564812
 21
19.3713638633
  0
LINE
  5
2DD
100
AcDbEntity
  8
0
100
AcDbLine
 62
7
  6
CONTINUOUS
 10
1.2894543382
 20
19.8067680122
 11
1.2894543382
 21
19.4592364955
  0
LINE
  5
2DE
100
AcDbEntity
  8
0
100
AcDbLine
 62
7
  6
CONTINUOUS
 10
1.3960960907
 20
17.0667544623
 11
1.3960960907
 21
-20.865187535
  0
LINE
  5
2DF
100
AcDbEntity
  8
0
100
AcDbLine
 62
7
  6
CONTINUOUS
 10
1.9657913229
 20
22.5152354955
 11
1.9657913229
 21
22.9896368708
  0
LINE
  5
2E0
100
AcDbEntity
  8
0
100
AcDbLine
 62
7
  6
CONTINUOUS
 10
1.9657913229
 20
23.3458127373
 11
1.9657913229
 21
23.8989834604
  0
LINE
  5
2E1
100
AcDbEntity
  8
ASSI
100
AcDbLine
 62
7
  6
CONTINUOUS
 10
2.0269384491
 20
-16.9659515281
 11
2.0269384491
 21
-16.1550106677
  0
LINE
  5
2E2
100
AcDbEntity
  8
ASSI
100
AcDbLine
 62
7
  6
CONTINUOUS
 10
2.0269384491
 20
12.9985274428
 11
2.0269384491
 21
13.8094683032
  0
LINE
  5
2E3
100
AcDbEntity
  8
0
100
AcDbLine
 62
7
  6
CONTINUOUS
 10
2.0272469904
 20
13.8093140325
 11
2.0272469904
 21
12.9983731721
  0
LINE
  5
2E4
100
AcDbEntity
  8
0
100
AcDbLine
 62
7
  6
CONTINUOUS
 10
2.0272469904
 20
-16.9661057988
 11
2.0272469904
 21
-16.1551649384
  0
LINE
  5
2E5
100
AcDbEntity
  8
0
100
AcDbLine
 62
7
  6
CONTINUOUS
 10
2.096626174
 20
22.6728776881
 11
2.096626174
 21
23.9207473627
  0
LINE
  5
2E6
100
AcDbEntity
  8
0
100
AcDbLine
 62
7
  6
CONTINUOUS
 10
2.0970320445
 20
17.4183548782
 11
2.0970320445
 21
14.4864499272
  0
LINE
  5
2E7
100
AcDbEntity
  8
0
100
AcDbLine
 62
7
  6
CONTINUOUS
 10
2.0970320445
 20
-17.5716053913
 11
2.0970320445
 21
-20.5035103423
  0
LINE
  5
2E8
100
AcDbEntity
  8
ASSI
100
AcDbLine
 62
7
  6
CONTINUOUS
 10
2.7979679982
 20
14.8399582341
 11
2.7979679982
 21
14.2300360097
  0
LINE
  5
2E9
100
AcDbEntity
  8
ASSI
100
AcDbLine
 62
7
  6
CONTINUOUS
 10
2.7979679982
 20
13.3625651058
 11
2.7979679982
 21
-15.7344429613
  0
LINE
  5
2EA
100
AcDbEntity
  8
ASSI
100
AcDbLine
 62
7
  6
CONTINUOUS
 10
2.7979679982
 20
-16.6019138652
 11
2.7979679982
 21
-17.2118360896
  0
LINE
  5
2EB
100
AcDbEntity
  8
0
100
AcDbLine
 62
7
  6
CONTINUOUS
 10
2.7982765396
 20
14.229881739
 11
2.7982765396
 21
13.3624108351
  0
LINE
  5
2EC
100
AcDbEntity
  8
0
100
AcDbLine
 62
7
  6
CONTINUOUS
 10
2.7982765396
 20
-16.6020681358
 11
2.7982765396
 21
-15.734597232
  0
LINE
  5
2ED
100
AcDbEntity
  8
DRAFT
100
AcDbLine
 62
7
  6
CONTINUOUS
 10
2.810309653
 20
-16.4961407899
 11
2.810309653
 21
14.1119212797
  0
LINE
  5
2EE
100
AcDbEntity
  8
0
100
AcDbLine
 62
7
  6
CONTINUOUS
 10
1.2894543382
 20
-21.8403676439
 11
1.2894541932
 21
-22.1880337844
  0
LWPOLYLINE
  5
2EF
100
AcDbEntity
  8
0
100
AcDbPolyline
 62
7
  6
CONTINUOUS
 90
43
 70
0
 10
1.2172564812
 20
-21.9282402761
 10
1.2172390387
 20
-22.2802918998
 10
1.2171421961
 20
-22.2848135639
 10
1.2169633502
 20
-22.2893345558
 10
1.2166998974
 20
-22.293852646
 10
1.2163492347
 20
-22.298365605
 10
1.2159087586
 20
-22.3028712033
 10
1.2153758659
 20
-22.3073672116
 10
1.2147479533
 20
-22.3118514004
 10
1.2140224174
 20
-22.3163215401
 10
1.2131966549
 20
-22.3207754015
 10
1.2123679921
 20
-22.324756545
 10
1.2114539889
 20
-22.3287195097
 10
1.2104521257
 20
-22.3326610232
 10
1.2093598831
 20
-22.336577813
 10
1.2081747413
 20
-22.3404666068
 10
1.2068941807
 20
-22.3443241323
 10
1.2055156818
 20
-22.3481471172
 10
1.2040367248
 20
-22.3519322889
 10
1.2024547902
 20
-22.3556763753
 10
1.2007673584
 20
-22.3593761039
 10
1.1993085157
 20
-22.3623637607
 10
1.1977767017
 20
-22.3653160948
 10
1.1961710683
 20
-22.3682295865
 10
1.1944907673
 20
-22.3711007156
 10
1.1927349504
 20
-22.3739259624
 10
1.1909027694
 20
-22.3767018069
 10
1.1889933762
 20
-22.3794247292
 10
1.1870059226
 20
-22.3820912093
 10
1.1849395602
 20
-22.3846977274
 10
1.1827934409
 20
-22.3872407635
 10
1.1805667165
 20
-22.3897167978
 10
1.1784186341
 20
-22.3919609566
 10
1.1762021734
 20
-22.3941406876
 10
1.1739197065
 20
-22.3962528182
 10
1.1715736055
 20
-22.3982941758
 10
1.1691662424
 20
-22.4002615876
 10
1.1666999893
 20
-22.4021518812
 10
1.1641772181
 20
-22.4039618839
 10
1.1616003011
 20
-22.4056884231
 10
1.1589716101
 20
-22.4073283261
 10
1.1562935174
 20
-22.4088784203
 10
1.1535683949
 20
-22.4103355332
  0
LWPOLYLINE
  5
2F0
100
AcDbEntity
  8
0
100
AcDbPolyline
 62
7
  6
CONTINUOUS
 90
43
 70
0
 10
1.3960960907
 20
-20.8649746875
 10
1.3960441887
 20
-20.8742244876
 10
1.3958718109
 20
-20.8834750912
 10
1.3955539496
 20
-20.8927214781
 10
1.3950655972
 20
-20.901958628
 10
1.3943817459
 20
-20.911181521
 10
1.3935272889
 20
-20.9199677275
 10
1.3924722655
 20
-20.9287330982
 10
1.3912170375
 20
-20.9374743629
 10
1.3897619666
 20
-20.9461882513
 10
1.3881074148
 20
-20.9548714932
 10
1.3864001876
 20
-20.9628668732
 10
1.384518442
 20
-20.9708264587
 10
1.3824577838
 20
-20.9787434332
 10
1.380213819
 20
-20.9866109803
 10
1.3777821535
 20
-20.9944222834
 10
1.3751583933
 20
-21.0021705259
 10
1.3723381444
 20
-21.0098488915
 10
1.3693170126
 20
-21.0174505634
 10
1.3660906039
 20
-21.0249687254
 10
1.3626545244
 20
-21.0323965607
 10
1.359680173
 20
-21.0384095152
 10
1.3565605141
 20
-21.0443504688
 10
1.3532939285
 20
-21.0502126266
 10
1.3498787968
 20
-21.0559891935
 10
1.3463134999
 20
-21.0616733748
 10
1.3425964185
 20
-21.0672583753
 10
1.3387259333
 20
-21.0727374003
 10
1.3347004251
 20
-21.0781036547
 10
1.3305182747
 20
-21.0833503437
 10
1.3261778627
 20
-21.0884706723
 10
1.32167757
 20
-21.0934578456
 10
1.3173503127
 20
-21.0979683116
 10
1.3128879743
 20
-21.1023513605
 10
1.3082950308
 20
-21.1066005109
 10
1.3035759582
 20
-21.1107092812
 10
1.2987352327
 20
-21.1146711896
 10
1.2937773301
 20
-21.1184797546
 10
1.2887067266
 20
-21.1221284945
 10
1.2835278983
 20
-21.1256109279
 10
1.278245321
 20
-21.1289205729
 10
1.272863471
 20
-21.1320509482
 10
1.2673868243
 20
-21.1349955719
  0
LWPOLYLINE
  5
2F1
100
AcDbEntity
  8
RACCORDO
100
AcDbPolyline
 62
7
  6
CONTINUOUS
 90
44
 70
0
 10
-3.3719442147
 20
14.5762527101
 10
-3.3718434413
 20
14.5928540746
 10
-3.372216246
 20
14.6094605608
 10
-3.3730492484
 20
14.6260616842
 10
-3.3743290682
 20
14.6426469602
 10
-3.376042325
 20
14.6592059044
 10
-3.3781756382
 20
14.6757280324
 10
-3.3807156276
 20
14.6922028596
 10
-3.3836489126
 20
14.7086199016
 10
-3.386962113
 20
14.7249686738
 10
-3.3906418482
 20
14.7412386919
 10
-3.3946747379
 20
14.7574194714
 10
-3.3998400631
 20
14.7762737454
 10
-3.4054665046
 20
14.7949828407
 10
-3.4115476443
 20
14.8135387994
 10
-3.4180770639
 20
14.8319336635
 10
-3.4250483455
 20
14.8501594749
 10
-3.4324550708
 20
14.8682082755
 10
-3.4402908219
 20
14.8860721073
 10
-3.4485491805
 20
14.9037430124
 10
-3.4572237287
 20
14.9212130326
 10
-3.4663080483
 20
14.93847421
 10
-3.4754931942
 20
14.954985039
 10
-3.4850611135
 20
14.9712774408
 10
-3.4950161788
 20
14.987336377
 10
-3.505362763
 20
15.0031468091
 10
-3.5161052387
 20
15.0186936989
 10
-3.5272479786
 20
15.0339620079
 10
-3.5387953556
 20
15.0489366979
 10
-3.5507517424
 20
15.0636027305
 10
-3.5631215116
 20
15.0779450672
 10
-3.575909036
 20
15.0919486698
 10
-3.5855763204
 20
15.102014192
 10
-3.5954713367
 20
15.1118689061
 10
-3.605593778
 20
15.1214931164
 10
-3.6159433374
 20
15.1308671269
 10
-3.6265197079
 20
15.1399712421
 10
-3.6373225826
 20
15.148785766
 10
-3.6483516548
 20
15.1572910029
 10
-3.6596066174
 20
15.1654672571
 10
-3.6710871635
 20
15.1732948328
 10
-3.6827929862
 20
15.1807540341
 10
-3.6947237787
 20
15.1878251653
 10
-3.706879234
 20
15.1944885307
  0
LINE
  5
2F2
100
AcDbEntity
  8
0
100
AcDbLine
 62
7
  6
CONTINUOUS
 10
-2.5217700153
 20
24.0373284631
 11
-2.5178561384
 21
24.5885661745
  0
LWPOLYLINE
  5
2F3
100
AcDbEntity
  8
0
100
AcDbPolyline
 62
7
  6
CONTINUOUS
 90
43
 70
0
 10
0.6889893095
 20
-22.5467828515
 10
0.6889505897
 20
-22.5513147367
 10
0.6888327139
 20
-22.5558477882
 10
0.6886331074
 20
-22.560379787
 10
0.6883491954
 20
-22.5649085144
 10
0.6879784032
 20
-22.5694317515
 10
0.687518156
 20
-22.5739472795
 10
0.6869658792
 20
-22.5784528795
 10
0.686318998
 20
-22.5829463327
 10
0.6855749376
 20
-22.5874254203
 10
0.6847311233
 20
-22.5918879234
 10
0.6838865955
 20
-22.5958769712
 10
0.6829571249
 20
-22.59984762
 10
0.6819402022
 20
-22.6037966182
 10
0.6808333182
 20
-22.6077207144
 10
0.6796339635
 20
-22.6116166569
 10
0.6783396289
 20
-22.6154811944
 10
0.6769478051
 20
-22.6193110752
 10
0.6754559827
 20
-22.6231030478
 10
0.6738616525
 20
-22.6268538608
 10
0.6721623052
 20
-22.6305602625
 10
0.6706951948
 20
-22.6335511454
 10
0.669155515
 20
-22.6365067368
 10
0.6675423858
 20
-22.6394235226
 10
0.6658549273
 20
-22.6422979889
 10
0.6640922595
 20
-22.6451266217
 10
0.6622535024
 20
-22.6479059068
 10
0.6603377761
 20
-22.6506323303
 10
0.6583442006
 20
-22.6533023781
 10
0.6562718959
 20
-22.6559125362
 10
0.6541199822
 20
-22.6584592905
 10
0.6518875793
 20
-22.6609391271
 10
0.6497382794
 20
-22.6631828488
 10
0.6475208876
 20
-22.6653624029
 10
0.6452377307
 20
-22.6674745756
 10
0.6428911358
 20
-22.6695161527
 10
0.6404834297
 20
-22.6714839205
 10
0.6380169396
 20
-22.6733746649
 10
0.6354939922
 20
-22.6751851719
 10
0.6329169146
 20
-22.6769122276
 10
0.6302880337
 20
-22.678552618
 10
0.6276096765
 20
-22.6801031292
 10
0.62488417
 20
-22.6815605471
  0
LWPOLYLINE
  5
2F4
100
AcDbEntity
  8
0
100
AcDbPolyline
 62
7
  6
CONTINUOUS
 90
27
 70
0
 10
-5.9913131394
 20
22.0508248504
 10
-5.991276031
 20
22.0548109212
 10
-5.9911659446
 20
22.0587958363
 10
-5.9909847391
 20
22.0627788244
 10
-5.9907342731
 20
22.0667591144
 10
-5.9904164054
 20
22.0707359353
 10
-5.9900329946
 20
22.0747085158
 10
-5.9895858995
 20
22.0786760847
 10
-5.9889701756
 20
22.0834114165
 10
-5.9882676192
 20
22.0881371207
 10
-5.9874797513
 20
22.0928518337
 10
-5.9866080931
 20
22.0975541919
 10
-5.9856541658
 20
22.1022428316
 10
-5.9846194904
 20
22.1069163891
 10
-5.9835055882
 20
22.1115735008
 10
-5.9823139803
 20
22.1162128029
 10
-5.9810461878
 20
22.1208329319
 10
-5.9797037319
 20
22.1254325241
 10
-5.9782881337
 20
22.1300102157
 10
-5.9768009144
 20
22.1345646432
 10
-5.975243595
 20
22.1390944429
 10
-5.9736176968
 20
22.143598251
 10
-5.9719247409
 20
22.148074704
 10
-5.9701662484
 20
22.1525224381
 10
-5.9683437405
 20
22.1569400898
 10
-5.9664587384
 20
22.1613262953
 10
-5.964512763
 20
22.165679691
  0
LWPOLYLINE
  5
2F5
100
AcDbEntity
  8
0
100
AcDbPolyline
 62
7
  6
CONTINUOUS
 90
33
 70
0
 10
-1.264813441
 20
-22.9863307932
 10
-1.2647207169
 20
-22.9791306342
 10
-1.264445238
 20
-22.9719330221
 10
-1.2639910446
 20
-22.9647408411
 10
-1.2633621769
 20
-22.9575569757
 10
-1.2625626751
 20
-22.95038431
 10
-1.2615965795
 20
-22.9432257285
 10
-1.2604679304
 20
-22.9360841154
 10
-1.2591807679
 20
-22.9289623551
 10
-1.2577391323
 20
-22.9218633319
 10
-1.2561470639
 20
-22.9147899301
 10
-1.2544086029
 20
-22.9077450341
 10
-1.2525277895
 20
-22.9007315281
 10
-1.250508664
 20
-22.8937522965
 10
-1.2483552666
 20
-22.8868102236
 10
-1.2460716375
 20
-22.8799081938
 10
-1.2436618171
 20
-22.8730490912
 10
-1.2411298455
 20
-22.8662358004
 10
-1.2379503564
 20
-22.8581621128
 10
-1.2346035921
 20
-22.8501618413
 10
-1.2310907645
 20
-22.8422389363
 10
-1.2274130858
 20
-22.8343973483
 10
-1.223571768
 20
-22.8266410277
 10
-1.2195680231
 20
-22.8189739249
 10
-1.2154030633
 20
-22.8113999903
 10
-1.2110781006
 20
-22.8039231743
 10
-1.206594347
 20
-22.7965474274
 10
-1.2019530147
 20
-22.7892766999
 10
-1.1971553156
 20
-22.7821149424
 10
-1.1922024619
 20
-22.7750661051
 10
-1.1870956656
 20
-22.7681341386
 10
-1.1818361387
 20
-22.7613229932
 10
-1.1764250934
 20
-22.7546366193
  0
LWPOLYLINE
  5
2F6
100
AcDbEntity
  8
0
100
AcDbPolyline
 62
7
  6
CONTINUOUS
 90
44
 70
0
 10
-0.9122914814
 20
-23.3268174511
 10
-0.9123529594
 20
-23.3314168789
 10
-0.9124953253
 20
-23.3360171288
 10
-0.9127212287
 20
-23.3406158993
 10
-0.9130333195
 20
-23.3452108888
 10
-0.9134342473
 20
-23.3497997959
 10
-0.9139266621
 20
-23.354380319
 10
-0.9145132135
 20
-23.3589501567
 10
-0.9151965513
 20
-23.3635070075
 10
-0.9159793253
 20
-23.3680485698
 10
-0.9168641852
 20
-23.3725725422
 10
-0.9176625397
 20
-23.3762437232
 10
-0.9185323696
 20
-23.3798991537
 10
-0.9194756216
 20
-23.383536288
 10
-0.9204942421
 20
-23.3871525806
 10
-0.9215901778
 20
-23.3907454859
 10
-0.9227653753
 20
-23.3943124583
 10
-0.9240217811
 20
-23.3978509521
 10
-0.9253613418
 20
-23.4013584219
 10
-0.9267860039
 20
-23.404832322
 10
-0.9282977141
 20
-23.4082701068
 10
-0.9298984189
 20
-23.4116692307
 10
-0.9314108898
 20
-23.4146818128
 10
-0.9329973563
 20
-23.417657591
 10
-0.9346586976
 20
-23.4205928911
 10
-0.9363957928
 20
-23.4234840389
 10
-0.9382095213
 20
-23.4263273604
 10
-0.9401007622
 20
-23.4291191813
 10
-0.9420703948
 20
-23.4318558276
 10
-0.9441192981
 20
-23.4345336252
 10
-0.9462483515
 20
-23.4371488998
 10
-0.9484584341
 20
-23.4396979774
 10
-0.9507504252
 20
-23.4421771839
 10
-0.9529551777
 20
-23.4444163283
 10
-0.9552289987
 20
-23.446588607
 10
-0.9575693883
 20
-23.448690733
 10
-0.9599738469
 20
-23.4507194191
 10
-0.9624398745
 20
-23.4526713781
 10
-0.9649649713
 20
-23.4545433229
 10
-0.9675466377
 20
-23.4563319663
 10
-0.9701823737
 20
-23.4580340211
 10
-0.9728696796
 20
-23.4596462002
 10
-0.9756060555
 20
-23.4611652165
 10
-0.9783890017
 20
-23.4625877827
  0
LWPOLYLINE
  5
2F7
100
AcDbEntity
  8
0
100
AcDbPolyline
 62
7
  6
CONTINUOUS
 90
43
 70
0
 10
-2.9433515114
 20
19.4925163156
 10
-2.9432290701
 20
19.500719965
 10
-2.9428665634
 20
19.5089209971
 10
-2.9422712168
 20
19.5171142307
 10
-2.9414502562
 20
19.5252944849
 10
-2.9404109073
 20
19.5334565784
 10
-2.9391603957
 20
19.5415953301
 10
-2.9377059471
 20
19.549705559
 10
-2.9360547874
 20
19.5577820839
 10
-2.9342141421
 20
19.5658197236
 10
-2.932191237
 20
19.5738132972
 10
-2.9299932978
 20
19.5817576234
 10
-2.9271800634
 20
19.5910719111
 10
-2.9241364045
 20
19.6003065414
 10
-2.920866037
 20
19.6094577999
 10
-2.9173726765
 20
19.6185219725
 10
-2.9136600388
 20
19.6274953449
 10
-2.9097318398
 20
19.6363742026
 10
-2.905591795
 20
19.6451548314
 10
-2.9012436203
 20
19.653833517
 10
-2.8966910315
 20
19.6624065451
 10
-2.8919377442
 20
19.6708702013
 10
-2.8871055872
 20
19.6790246588
 10
-2.8820842375
 20
19.6870641669
 10
-2.8768723084
 20
19.6949815944
 10
-2.8714684132
 20
19.7027698097
 10
-2.8658711652
 20
19.7104216816
 10
-2.8600791777
 20
19.7179300784
 10
-2.854091064
 20
19.725287869
 10
-2.8479054374
 20
19.7324879217
 10
-2.8415209113
 20
19.7395231053
 10
-2.8349360988
 20
19.7463862883
 10
-2.8294634615
 20
19.7518047644
 10
-2.8238594675
 20
19.7570940205
 10
-2.8181246671
 20
19.7622420003
 10
-2.8122596104
 20
19.7672366474
 10
-2.8062648477
 20
19.7720659056
 10
-2.8001409291
 20
19.7767177184
 10
-2.7938884049
 20
19.7811800295
 10
-2.7875078252
 20
19.7854407827
 10
-2.7809997403
 20
19.7894879214
 10
-2.7743647003
 20
19.7933093895
 10
-2.7676032554
 20
19.7968931305
  0
LWPOLYLINE
  5
2F8
100
AcDbEntity
  8
0
100
AcDbPolyline
 62
7
  6
CONTINUOUS
 90
43
 70
0
 10
-1.264813441
 20
18.6532472804
 10
-1.2646909998
 20
18.6614509278
 10
-1.2643284932
 20
18.6696519578
 10
-1.263733147
 20
18.6778451895
 10
-1.2629121868
 20
18.6860254416
 10
-1.2618728384
 20
18.6941875331
 10
-1.2606223274
 20
18.7023262829
 10
-1.2591678796
 20
18.7104365098
 10
-1.2575167206
 20
18.7185130327
 10
-1.2556760763
 20
18.7265506706
 10
-1.2536531721
 20
18.7345442423
 10
-1.251455234
 20
18.7424885667
 10
-1.2486420008
 20
18.7518028523
 10
-1.2455983434
 20
18.7610374806
 10
-1.2423279773
 20
18.7701887372
 10
-1.2388346183
 20
18.7792529079
 10
-1.2351219823
 20
18.7882262784
 10
-1.2311937849
 20
18.7971051343
 10
-1.227053742
 20
18.8058857614
 10
-1.2227055691
 20
18.8145644453
 10
-1.2181529822
 20
18.8231374718
 10
-1.2133996969
 20
18.8316011264
 10
-1.2085675415
 20
18.8397555831
 10
-1.2035461934
 20
18.8477950905
 10
-1.1983342659
 20
18.8557125173
 10
-1.1929303724
 20
18.8635007321
 10
-1.1873331262
 20
18.8711526034
 10
-1.1815411405
 20
18.8786609999
 10
-1.1755530287
 20
18.8860187902
 10
-1.1693674041
 20
18.8932188428
 10
-1.16298288
 20
18.9002540264
 10
-1.1563980697
 20
18.9071172097
 10
-1.1509254295
 20
18.9125356906
 10
-1.1453214325
 20
18.9178249515
 10
-1.1395866288
 20
18.9229729359
 10
-1.1337215688
 20
18.9279675875
 10
-1.1277268025
 20
18.93279685
 10
-1.1216028802
 20
18.9374486669
 10
-1.1153503521
 20
18.9419109819
 10
-1.1089697683
 20
18.9461717386
 10
-1.1024616791
 20
18.9502188807
 10
-1.0958266346
 20
18.9540403517
 10
-1.089065185
 20
18.9576240953
  0
LWPOLYLINE
  5
2F9
100
AcDbEntity
  8
0
100
AcDbPolyline
 62
7
  6
CONTINUOUS
 90
43
 70
0
 10
1.2894540801
 20
19.8067680299
 10
1.2894119483
 20
19.8045245713
 10
1.2892867406
 20
19.8022809146
 10
1.2890802742
 20
19.8000399748
 10
1.2887943663
 20
19.7978046669
 10
1.288430834
 20
19.7955779061
 10
1.2879914945
 20
19.7933626072
 10
1.2874781649
 20
19.7911616853
 10
1.2868926625
 20
19.7889780555
 10
1.2862368044
 20
19.7868146327
 10
1.2855124078
 20
19.784674332
 10
1.2847212899
 20
19.7825600684
 10
1.2837744091
 20
19.7802629086
 10
1.282752016
 20
19.7780011129
 10
1.2816574369
 20
19.7757748773
 10
1.2804939982
 20
19.7735843981
 10
1.2792650262
 20
19.7714298712
 10
1.2779738473
 20
19.769311493
 10
1.2766237877
 20
19.7672294593
 10
1.2752181738
 20
19.7651839665
 10
1.2737603319
 20
19.7631752106
 10
1.2722535884
 20
19.7612033877
 10
1.2707012696
 20
19.759268694
 10
1.268673539
 20
19.7568706458
 10
1.2665813416
 20
19.7545312596
 10
1.2644280408
 20
19.7522492725
 10
1.2622169999
 20
19.7500234214
 10
1.2599515822
 20
19.7478524431
 10
1.257635151
 20
19.7457350747
 10
1.2552710696
 20
19.743670053
 10
1.2528627014
 20
19.7416561151
 10
1.2504134097
 20
19.7396919979
 10
1.2479265577
 20
19.7377764382
 10
1.2450238177
 20
19.7356317594
 10
1.2420782233
 20
19.7335481297
 10
1.2390921559
 20
19.7315240368
 10
1.2360679969
 20
19.7295579683
 10
1.2330081279
 20
19.7276484119
 10
1.2299149302
 20
19.7257938553
 10
1.2267907852
 20
19.7239927861
 10
1.2236380744
 20
19.7222436921
 10
1.2204591793
 20
19.7205450608
 10
1.2172564812
 20
19.71889538
  0
LWPOLYLINE
  5
2FA
100
AcDbEntity
  8
0
100
AcDbPolyline
 62
7
  6
CONTINUOUS
 90
43
 70
0
 10
1.2894540792
 20
19.4592257926
 10
1.2894115708
 20
19.4569825398
 10
1.2892860036
 20
19.4547391039
 10
1.2890791953
 20
19.4524983984
 10
1.2887929635
 20
19.4502633366
 10
1.288429126
 20
19.448036832
 10
1.2879895005
 20
19.445821798
 10
1.2874759046
 20
19.443621148
 10
1.2868901562
 20
19.4414377955
 10
1.2862340728
 20
19.4392746539
 10
1.2855094722
 20
19.4371346366
 10
1.2847181721
 20
19.435020657
 10
1.2837711021
 20
19.4327237767
 10
1.2827485436
 20
19.4304622597
 10
1.2816538217
 20
19.4282363014
 10
1.2804902617
 20
19.4260460973
 10
1.2792611886
 20
19.4238918429
 10
1.2779699278
 20
19.4217737337
 10
1.2766198043
 20
19.4196919652
 10
1.2752141434
 20
19.4176467329
 10
1.2737562702
 20
19.4156382322
 10
1.2722495099
 20
19.4136666587
 10
1.2706971876
 20
19.4117322078
 10
1.2686694935
 20
19.4093344838
 10
1.2665773524
 20
19.4069954095
 10
1.2644241265
 20
19.4047137219
 10
1.2622131777
 20
19.4024881585
 10
1.2599478681
 20
19.4003174564
 10
1.2576315596
 20
19.398200353
 10
1.2552676142
 20
19.3961355855
 10
1.252859394
 20
19.3941218912
 10
1.250410261
 20
19.3921580073
 10
1.2479235772
 20
19.3902426712
 10
1.2450210935
 20
19.3880982759
 10
1.242075767
 20
19.3860149153
 10
1.2390899781
 20
19.3839910776
 10
1.2360661075
 20
19.3820252511
 10
1.2330065358
 20
19.3801159238
 10
1.2299136436
 20
19.378261584
 10
1.2267898114
 20
19.3764607199
 10
1.2236374199
 20
19.3747118196
 10
1.2204588496
 20
19.3730133713
 10
1.2172564812
 20
19.3713638633
  0
LWPOLYLINE
  5
2FB
100
AcDbEntity
  8
0
100
AcDbPolyline
 62
7
  6
CONTINUOUS
 90
42
 70
0
 10
1.2894539359
 20
-22.1880337842
 10
1.2894070871
 20
-22.1902746474
 10
1.2892773755
 20
-22.1925155207
 10
1.2890666252
 20
-22.1947535092
 10
1.28877666
 20
-22.1969857179
 10
1.288409304
 20
-22.1992092518
 10
1.2879663811
 20
-22.2014212159
 10
1.2874497152
 20
-22.2036187153
 10
1.2868611303
 20
-22.205798855
 10
1.2862024504
 20
-22.2079587399
 10
1.2854754994
 20
-22.2100954752
 10
1.2846821013
 20
-22.2122061657
 10
1.2837328521
 20
-22.2144998074
 10
1.2827083894
 20
-22.2167580957
 10
1.2816120249
 20
-22.2189808423
 10
1.2804470705
 20
-22.2211678591
 10
1.2792168381
 20
-22.2233189581
 10
1.2779246395
 20
-22.2254339512
 10
1.2765737866
 20
-22.2275126501
 10
1.2751675911
 20
-22.2295548669
 10
1.2737093651
 20
-22.2315604135
 10
1.2722024202
 20
-22.2335291016
 10
1.2706500684
 20
-22.2354607432
 10
1.2686228149
 20
-22.2378547107
 10
1.2665313447
 20
-22.2401901747
 10
1.2643790045
 20
-22.2424683937
 10
1.2621691411
 20
-22.2446906266
 10
1.2599051014
 20
-22.2468581319
 10
1.257590232
 20
-22.2489721686
 10
1.2552278798
 20
-22.2510339951
 10
1.2528213916
 20
-22.2530448703
 10
1.250374114
 20
-22.2550060528
 10
1.247889394
 20
-22.2569188014
 10
1.2449898524
 20
-22.2590599469
 10
1.242047599
 20
-22.2611402214
 10
1.239065005
 20
-22.263161131
 10
1.2360444415
 20
-22.2651241817
 10
1.2329882794
 20
-22.2670308797
 10
1.2298988901
 20
-22.2688827311
 10
1.2267786445
 20
-22.270681242
 10
1.2236299137
 20
-22.2724279185
 10
1.2204550689
 20
-22.2741242668
  0
LWPOLYLINE
  5
2FC
100
AcDbEntity
  8
RACCORDO
100
AcDbPolyline
 62
7
  6
CONTINUOUS
 90
14
 70
0
 10
-6.2735770078
 20
-13.2972798844
 10
-6.2914487891
 20
-14.139767617
 10
-6.3018839853
 20
-14.9823964129
 10
-6.3047894808
 20
-15.8251566199
 10
-6.3010681995
 20
-16.5640114695
 10
-6.2914175883
 20
-17.3028851115
 10
-6.2757659333
 20
-18.0417027748
 10
-6.2540415207
 20
-18.7803896882
 10
-6.2261726366
 20
-19.5188710803
 10
-6.1920875672
 20
-20.2570721802
 10
-6.1517145985
 20
-20.9949182164
 10
-6.1049820168
 20
-21.732334418
 10
-6.0518181082
 20
-22.4692460135
 10
-5.9921511588
 20
-23.2055782319
  0
LWPOLYLINE
  5
2FD
100
AcDbEntity
  8
0
100
AcDbPolyline
 62
7
  6
CONTINUOUS
 90
43
 70
0
 10
1.2894537996
 20
-21.8405553147
 10
1.289405095
 20
-21.8427951537
 10
1.289273612
 20
-21.845034929
 10
1.289061177
 20
-21.8472717537
 10
1.2887696166
 20
-21.8495027406
 10
1.2884007575
 20
-21.8517250026
 10
1.2879564261
 20
-21.8539356525
 10
1.2874384492
 20
-21.8561318034
 10
1.2868486532
 20
-21.8583105681
 10
1.2861888648
 20
-21.8604690595
 10
1.2854609106
 20
-21.8626043904
 10
1.284666617
 20
-21.8647136739
 10
1.2837164379
 20
-21.8670059289
 10
1.2826911627
 20
-21.8692628348
 10
1.2815940976
 20
-21.8714842065
 10
1.2804285488
 20
-21.8736698592
 10
1.2791978223
 20
-21.8758196077
 10
1.2779052244
 20
-21.8779332671
 10
1.2765540611
 20
-21.8800106526
 10
1.2751476386
 20
-21.882051579
 10
1.2736892631
 20
-21.8840558614
 10
1.2721822407
 20
-21.8860233149
 10
1.2706298776
 20
-21.8879537544
 10
1.2686028141
 20
-21.8903461146
 10
1.2665116322
 20
-21.8926800337
 10
1.2643596722
 20
-21.8949567685
 10
1.2621502743
 20
-21.8971775761
 10
1.2598867788
 20
-21.8993437135
 10
1.2575725259
 20
-21.9014564376
 10
1.2552108561
 20
-21.9035170055
 10
1.2528051095
 20
-21.9055266741
 10
1.2503586265
 20
-21.9074867005
 10
1.2478747473
 20
-21.9093983416
 10
1.2449764665
 20
-21.9115380955
 10
1.2420355301
 20
-21.9136170484
 10
1.2390543051
 20
-21.9156367039
 10
1.2360351586
 20
-21.9175985659
 10
1.2329804576
 20
-21.9195041379
 10
1.2298925691
 20
-21.9213549235
 10
1.2267738602
 20
-21.9231524265
 10
1.2236266978
 20
-21.9248981505
 10
1.2204534492
 20
-21.9265935991
 10
1.2172564812
 20
-21.9282402761
  0
LWPOLYLINE
  5
2FE
100
AcDbEntity
  8
RACCORDO
100
AcDbPolyline
 62
7
  6
CONTINUOUS
 90
14
 70
0
 10
-5.5738046515
 20
-13.2302976291
 10
-5.5924499173
 20
-14.0754390407
 10
-5.6035771879
 20
-14.920729306
 10
-5.6070917069
 20
-15.7661587817
 10
-5.6038358661
 20
-16.5072138313
 10
-5.5945865596
 20
-17.2482922065
 10
-5.5792706876
 20
-17.9893177085
 10
-5.55781515
 20
-18.7302141384
 10
-5.5301468468
 20
-19.4709052976
 10
-5.4961926779
 20
-20.2113149872
 10
-5.4558795435
 20
-20.9513670084
 10
-5.4091343434
 20
-21.6909851623
 10
-5.3558839777
 20
-22.4300932503
 10
-5.2960553463
 20
-23.1686150734
  0
LINE
  5
2FF
100
AcDbEntity
  8
RACCORDO
100
AcDbLine
 62
7
  6
CONTINUOUS
 10
-6.2713513137
 20
-13.2117898724
 11
-6.2735770078
 21
-13.2972798844
  0
LINE
  5
300
100
AcDbEntity
  8
RACCORDO
100
AcDbLine
 62
7
  6
CONTINUOUS
 10
-6.0570322389
 20
-6.6313221569
 11
-6.0891315791
 21
-7.4793191685
  0
LINE
  5
301
100
AcDbEntity
  8
RACCORDO
100
AcDbLine
 62
7
  6
CONTINUOUS
 10
-4.9318232149
 20
18.5220056886
 11
-4.9255718946
 21
18.6712217314
  0
LINE
  5
302
100
AcDbEntity
  8
RACCORDO
100
AcDbLine
 62
7
  6
CONTINUOUS
 10
-2.0922077156
 20
-22.3086117319
 11
-0.4934879012
 21
15.852069724
  0
LINE
  5
303
100
AcDbEntity
  8
RACCORDO
100
AcDbLine
 62
7
  6
CONTINUOUS
 10
-5.7967695648
 20
-0.719487575
 11
-5.8429616001
 21
-1.6712735582
  0
LINE
  5
304
100
AcDbEntity
  8
RACCORDO
100
AcDbLine
 62
7
  6
CONTINUOUS
 10
-4.9428741554
 20
2.2589371728
 11
-4.9553101228
 21
2.031248317
  0
LINE
  5
305
100
AcDbEntity
  8
RACCORDO
100
AcDbLine
 62
7
  6
CONTINUOUS
 10
-2.4148341356
 20
22.7204463008
 11
-2.4151767216
 21
22.7155759481
  0
LWPOLYLINE
  5
306
100
AcDbEntity
  8
RACCORDO
100
AcDbPolyline
 62
7
  6
CONTINUOUS
 90
44
 70
0
 10
-4.9629757062
 20
-23.4009121365
 10
-4.9636990995
 20
-23.4109764219
 10
-4.9646082085
 20
-23.4210316617
 10
-4.965708219
 20
-23.4310721906
 10
-4.9670043167
 20
-23.4410923431
 10
-4.9685016872
 20
-23.4510864538
 10
-4.9702055164
 20
-23.4610488571
 10
-4.97212099
 20
-23.4709738877
 10
-4.9742532937
 20
-23.4808558802
 10
-4.9766076132
 20
-23.490689169
 10
-4.9791891343
 20
-23.5004680887
 10
-4.9814749576
 20
-23.5084270046
 10
-4.9839204476
 20
-23.5163394978
 10
-4.9865295924
 20
-23.5241993636
 10
-4.9893063801
 20
-23.5320003971
 10
-4.9922547987
 20
-23.5397363933
 10
-4.9953788363
 20
-23.5474011475
 10
-4.998682481
 20
-23.5549884547
 10
-5.0021697209
 20
-23.5624921102
 10
-5.005844544
 20
-23.5699059089
 10
-5.0097109385
 20
-23.5772236462
 10
-5.0137728924
 20
-23.584439117
 10
-5.0175844585
 20
-23.5908163675
 10
-5.021557628
 20
-23.5970978771
 10
-5.0256935604
 20
-23.6032751198
 10
-5.029993415
 20
-23.6093395698
 10
-5.0344583515
 20
-23.6152827012
 10
-5.0390895292
 20
-23.6210959882
 10
-5.0438881076
 20
-23.6267709049
 10
-5.0488552461
 20
-23.6322989255
 10
-5.0539921043
 20
-23.637671524
 10
-5.0592998415
 20
-23.6428801746
 10
-5.0647796172
 20
-23.6479163514
 10
-5.0700302557
 20
-23.6524379208
 10
-5.0754242526
 20
-23.6567958447
 10
-5.0809551524
 20
-23.6609830399
 10
-5.0866164998
 20
-23.6649924232
 10
-5.0924018392
 20
-23.6688169112
 10
-5.0983047151
 20
-23.6724494208
 10
-5.1043186722
 20
-23.6758828688
 10
-5.1104372549
 20
-23.6791101717
 10
-5.1166540077
 20
-23.6821242466
 10
-5.1229624753
 20
-23.6849180099
 10
-5.129356202
 20
-23.6874843786
  0
LINE
  5
307
100
AcDbEntity
  8
RACCORDO
100
AcDbLine
 62
7
  6
CONTINUOUS
 10
-19.25989718
 20
21.6541631871
 11
-19.4251403277
 21
20.5204849918
  0
LWPOLYLINE
  5
308
100
AcDbEntity
  8
RACCORDO
100
AcDbPolyline
 62
7
  6
CONTINUOUS
 90
35
 70
0
 10
-19.1118862189
 20
21.4930780913
 10
-19.106855284
 20
21.523764079
 10
-19.1011318063
 20
21.5543412504
 10
-19.0947320779
 20
21.5847971824
 10
-19.0876723906
 20
21.6151194523
 10
-19.0799690365
 20
21.645295637
 10
-19.0716383077
 20
21.6753133136
 10
-19.0626964962
 20
21.7051600593
 10
-19.0531598939
 20
21.7348234511
 10
-19.0430447928
 20
21.764291066
 10
-19.030558874
 20
21.7983352538
 10
-19.0173201934
 20
21.8320838317
 10
-19.0033379874
 20
21.8655233774
 10
-18.9886214924
 20
21.8986404687
 10
-18.9731799447
 20
21.9314216834
 10
-18.9570225806
 20
21.9638535991
 10
-18.9401586364
 20
21.9959227936
 10
-18.9225973485
 20
22.0276158448
 10
-18.9046971944
 20
22.0583301464
 10
-18.886132242
 20
22.0886479866
 10
-18.8669000458
 20
22.1185478889
 10
-18.8469981601
 20
22.1480083767
 10
-18.826424139
 20
22.1770079732
 10
-18.805175537
 20
22.2055252021
 10
-18.7832499083
 20
22.2335385865
 10
-18.7606448072
 20
22.26102665
 10
-18.7414374135
 20
22.2833418544
 10
-18.7217621263
 20
22.3052538725
 10
-18.7016173334
 20
22.326733407
 10
-18.6810014232
 20
22.3477511607
 10
-18.6599127836
 20
22.3682778363
 10
-18.6383498029
 20
22.3882841366
 10
-18.6163108691
 20
22.4077407644
 10
-18.5937943703
 20
22.4266184225
 10
-18.5707986947
 20
22.4448878135
  0
LINE
  5
309
100
AcDbEntity
  8
RACCORDO
100
AcDbLine
 62
7
  6
CONTINUOUS
 10
-19.2431800534
 20
21.742502466
 11
-19.2598993997
 21
21.6540607727
  0
LINE
  5
30A
100
AcDbEntity
  8
0
100
AcDbLine
 62
7
  6
CONTINUOUS
 10
1.2172564812
 20
-21.9282402761
 11
0.6889893095
 21
-21.819737999
  0
LINE
  5
30B
100
AcDbEntity
  8
0
100
AcDbLine
 62
7
  6
CONTINUOUS
 10
1.1278426859
 20
-21.6086734701
 11
0.6889893095
 21
-21.5185361434
  0
LINE
  5
30C
100
AcDbEntity
  8
DRAFT
100
AcDbLine
 62
7
  6
CONTINUOUS
 10
-0.6367460416
 20
12.4325660608
 11
0.3169220267
 21
11.9557320267
  0
LINE
  5
30D
100
AcDbEntity
  8
RACCORDO
100
AcDbLine
 62
7
  6
CONTINUOUS
 10
-18.4094606849
 20
22.545779253
 11
-3.7068792373
 21
15.1944885292
  0
LINE
  5
30E
100
AcDbEntity
  8
RACCORDO
100
AcDbLine
 62
7
  6
CONTINUOUS
 10
-15.6779076366
 20
23.8950478995
 11
-0.8284229238
 21
16.4703055431
  0
LINE
  5
30F
100
AcDbEntity
  8
DRAFT
100
AcDbLine
 62
7
  6
CONTINUOUS
 10
-4.9255718946
 20
18.6712217314
 11
-9.1237792405
 21
20.7703254044
  0
LINE
  5
310
100
AcDbEntity
  8
DRAFT
100
AcDbLine
 62
7
  6
CONTINUOUS
 10
-10.7307852067
 20
21.5915149967
 11
-4.366824176
 21
18.4095344814
  0
LINE
  5
311
100
AcDbEntity
  8
0
100
AcDbLine
 62
7
  6
CONTINUOUS
 10
-0.0363622392
 20
17.0872417993
 11
-0.5535928329
 21
17.3458570961
  0
LINE
  5
312
100
AcDbEntity
  8
0
100
AcDbLine
 62
7
  6
CONTINUOUS
 10
-2.2403585571
 20
18.1892399582
 11
-4.4083502554
 21
19.2732358074
  0
LINE
  5
313
100
AcDbEntity
  8
0
100
AcDbLine
 62
7
  6
CONTINUOUS
 10
-5.0677601298
 20
19.6029407446
 11
-10.0298492529
 21
22.0839853061
  0
LINE
  5
314
100
AcDbEntity
  8
0
100
AcDbLine
 62
7
  6
CONTINUOUS
 10
-10.6892591273
 20
22.4136902433
 11
-12.8572508256
 21
23.4976860925
  0
LINE
  5
315
100
AcDbEntity
  8
0
100
AcDbLine
 62
7
  6
CONTINUOUS
 10
-14.5440165498
 20
24.3410689546
 11
-15.0612471435
 21
24.5996842514
  0
LINE
  5
316
100
AcDbEntity
  8
0
100
AcDbLine
 62
7
  6
CONTINUOUS
 10
-15.1820362076
 20
25.1691529277
 11
-13.5034981372
 21
24.3298838925
  0
LINE
  5
317
100
AcDbEntity
  8
0
100
AcDbLine
 62
7
  6
CONTINUOUS
 10
-2.878378215
 20
19.0173239313
 11
-1.1998401446
 21
18.1780548961
  0
LINE
  5
318
100
AcDbEntity
  8
0
100
AcDbLine
 62
7
  6
CONTINUOUS
 10
-15.2470095041
 20
25.3043713778
 11
-13.5684714337
 21
24.4651023426
  0
LINE
  5
319
100
AcDbEntity
  8
0
100
AcDbLine
 62
7
  6
CONTINUOUS
 10
-2.9433515114
 20
19.1525423814
 11
-1.264813441
 21
18.3132733462
  0
LINE
  5
31A
100
AcDbEntity
  8
0
100
AcDbLine
 62
7
  6
CONTINUOUS
 10
-5.0677601298
 20
20.355433994
 11
-5.9913131394
 21
20.8172104988
  0
LINE
  5
31B
100
AcDbEntity
  8
0
100
AcDbLine
 62
7
  6
CONTINUOUS
 10
-7.6920826809
 20
21.6675952695
 11
-9.3165716443
 21
22.4798397512
  0
LINE
  5
31C
100
AcDbEntity
  8
0
100
AcDbLine
 62
7
  6
CONTINUOUS
 10
-1.264813441
 20
18.6532472804
 11
-2.9433515114
 21
19.4925163156
  0
LINE
  5
31D
100
AcDbEntity
  8
0
100
AcDbLine
 62
7
  6
CONTINUOUS
 10
-13.5684714337
 20
24.8050762767
 11
-15.2470095041
 21
25.6443453119
  0
LINE
  5
31E
100
AcDbEntity
  8
0
100
AcDbLine
 62
7
  6
CONTINUOUS
 10
-7.1952513008
 20
21.7954262042
 11
-6.0498917832
 21
21.2227464454
  0
LINE
  5
31F
100
AcDbEntity
  8
0
100
AcDbLine
 62
7
  6
CONTINUOUS
 10
1.0425471874
 20
17.6765269601
 11
0.6889893095
 21
17.853305899
  0
LINE
  5
320
100
AcDbEntity
  8
0
100
AcDbLine
 62
7
  6
CONTINUOUS
 10
-2.9897037445
 20
19.692652426
 11
-3.3415193433
 21
19.8685602254
  0
LINE
  5
321
100
AcDbEntity
  8
0
100
AcDbLine
 62
7
  6
CONTINUOUS
 10
-10.6892591273
 20
23.5424301174
 11
-11.6146686832
 21
24.0051348954
  0
LINE
  5
322
100
AcDbEntity
  8
0
100
AcDbLine
 62
7
  6
CONTINUOUS
 10
-1.089065185
 20
18.9576240953
 11
-2.7676032554
 21
19.7968931305
  0
LINE
  5
323
100
AcDbEntity
  8
0
100
AcDbLine
 62
7
  6
CONTINUOUS
 10
-13.3927231777
 20
25.1094530916
 11
-15.0712612481
 21
25.9487221269
  0
LINE
  5
324
100
AcDbEntity
  8
0
100
AcDbLine
 62
7
  6
CONTINUOUS
 10
-10.6892591273
 20
23.8598530091
 11
-10.0298492529
 21
23.5301480719
  0
LINE
  5
325
100
AcDbEntity
  8
0
100
AcDbLine
 62
7
  6
CONTINUOUS
 10
-5.0677601298
 20
21.0491035103
 11
-4.4083502554
 21
20.7193985732
  0
LWPOLYLINE
  5
326
100
AcDbEntity
  8
0
100
AcDbPolyline
 62
7
  6
CONTINUOUS
 90
44
 70
0
 10
-2.9433515114
 20
19.1525423814
 10
-2.9460651885
 20
19.1539166956
 10
-2.9487670247
 20
19.1553218732
 10
-2.951454853
 20
19.1567595794
 10
-2.9541265065
 20
19.1582314797
 10
-2.9567798184
 20
19.1597392394
 10
-2.9594126217
 20
19.1612845237
 10
-2.9620227495
 20
19.162868998
 10
-2.9646080349
 20
19.1644943276
 10
-2.9671663111
 20
19.1661621778
 10
-2.9696954111
 20
19.167874214
 10
-2.972193168
 20
19.1696321015
 10
-2.9746574149
 20
19.1714375056
 10
-2.9770859848
 20
19.1732920916
 10
-2.979476711
 20
19.1751975249
 10
-2.9818274265
 20
19.1771554707
 10
-2.9841359643
 20
19.1791675945
 10
-2.9864001576
 20
19.1812355614
 10
-2.9886178395
 20
19.183361037
 10
-2.9907868431
 20
19.1855456864
 10
-2.9929050014
 20
19.187791175
 10
-2.9949701476
 20
19.1900991681
 10
-2.9964526083
 20
19.1918359748
 10
-2.9979027425
 20
19.1936063687
 10
-2.999318029
 20
19.1954092744
 10
-3.0006959469
 20
19.197243617
 10
-3.0020339754
 20
19.1991083213
 10
-3.0033295933
 20
19.2010023122
 10
-3.0045802798
 20
19.2029245146
 10
-3.0057835139
 20
19.2048738533
 10
-3.0069367746
 20
19.2068492532
 10
-3.008037541
 20
19.2088496393
 10
-3.0090832921
 20
19.2108739364
 10
-3.0100715069
 20
19.2129210693
 10
-3.0109996645
 20
19.214989963
 10
-3.011865244
 20
19.2170795424
 10
-3.0126657243
 20
19.2191887322
 10
-3.0133985846
 20
19.2213164575
 10
-3.0140613038
 20
19.2234616431
 10
-3.0146513609
 20
19.2256232138
 10
-3.0151662351
 20
19.2278000946
 10
-3.0156034054
 20
19.2299912103
 10
-3.0159603508
 20
19.2321954859
 10
-3.0162345503
 20
19.2344118461
  0
LWPOLYLINE
  5
327
100
AcDbEntity
  8
0
100
AcDbPolyline
 62
7
  6
CONTINUOUS
 90
43
 70
0
 10
-15.2470095041
 20
25.6443453119
 10
-15.2502547701
 20
25.6459977909
 10
-15.2534762015
 20
25.6476998771
 10
-15.2566713932
 20
25.6494531163
 10
-15.2598379397
 20
25.6512590544
 10
-15.262973436
 20
25.6531192373
 10
-15.2660754767
 20
25.6550352108
 10
-15.2691416566
 20
25.6570085209
 10
-15.2721695704
 20
25.6590407134
 10
-15.2751568128
 20
25.6611333342
 10
-15.2781009786
 20
25.6632879291
 10
-15.280621946
 20
25.6652115717
 10
-15.2831051644
 20
25.6671844771
 10
-15.2855472215
 20
25.6692079538
 10
-15.2879447046
 20
25.6712833105
 10
-15.2902942012
 20
25.6734118557
 10
-15.2925922989
 20
25.675594898
 10
-15.2948355849
 20
25.677833746
 10
-15.2970206469
 20
25.6801297084
 10
-15.2991440723
 20
25.6824840936
 10
-15.3012024484
 20
25.6848982104
 10
-15.3027765188
 20
25.6868438633
 10
-15.3043046517
 20
25.6888272629
 10
-15.3057834435
 20
25.6908482328
 10
-15.3072094906
 20
25.692906597
 10
-15.3085793892
 20
25.6950021791
 10
-15.3098897358
 20
25.6971348028
 10
-15.3111371266
 20
25.699304292
 10
-15.3123181581
 20
25.7015104704
 10
-15.3134294265
 20
25.7037531618
 10
-15.3144675282
 20
25.7060321898
 10
-15.3154290595
 20
25.7083473783
 10
-15.3162315345
 20
25.7104760309
 10
-15.3169664631
 20
25.7126312606
 10
-15.3176319744
 20
25.7148100941
 10
-15.3182261977
 20
25.7170095578
 10
-15.3187472622
 20
25.7192266782
 10
-15.3191932972
 20
25.721458482
 10
-15.3195624317
 20
25.7237019955
 10
-15.3198527952
 20
25.7259542454
 10
-15.3200625166
 20
25.7282122581
 10
-15.3201897253
 20
25.7304730602
 10
-15.3202325505
 20
25.7327336781
  0
LWPOLYLINE
  5
328
100
AcDbEntity
  8
0
100
AcDbPolyline
 62
7
  6
CONTINUOUS
 90
43
 70
0
 10
-2.9433515114
 20
19.4925163156
 10
-2.9465967774
 20
19.4941687946
 10
-2.9498182088
 20
19.4958708808
 10
-2.9530134005
 20
19.49762412
 10
-2.9561799471
 20
19.4994300581
 10
-2.9593154434
 20
19.501290241
 10
-2.9624174841
 20
19.5032062145
 10
-2.9654836639
 20
19.5051795246
 10
-2.9685115777
 20
19.5072117171
 10
-2.9714988202
 20
19.5093043379
 10
-2.974442986
 20
19.5114589328
 10
-2.9769639533
 20
19.5133825754
 10
-2.9794471718
 20
19.5153554808
 10
-2.9818892289
 20
19.5173789575
 10
-2.984286712
 20
19.5194543142
 10
-2.9866362086
 20
19.5215828593
 10
-2.9889343063
 20
19.5237659017
 10
-2.9911775923
 20
19.5260047497
 10
-2.9933626543
 20
19.528300712
 10
-2.9954860796
 20
19.5306550973
 10
-2.9975444558
 20
19.533069214
 10
-2.9991185262
 20
19.5350148669
 10
-3.0006466591
 20
19.5369982665
 10
-3.0021254509
 20
19.5390192365
 10
-3.0035514979
 20
19.5410776006
 10
-3.0049213966
 20
19.5431731827
 10
-3.0062317431
 20
19.5453058065
 10
-3.007479134
 20
19.5474752957
 10
-3.0086601654
 20
19.5496814741
 10
-3.0097714338
 20
19.5519241655
 10
-3.0108095355
 20
19.5542031935
 10
-3.0117710669
 20
19.556518382
 10
-3.0125735418
 20
19.5586470346
 10
-3.0133084704
 20
19.5608022643
 10
-3.0139739817
 20
19.5629810978
 10
-3.0145682051
 20
19.5651805615
 10
-3.0150892696
 20
19.5673976819
 10
-3.0155353046
 20
19.5696294857
 10
-3.0159044391
 20
19.5718729992
 10
-3.0161948025
 20
19.5741252491
 10
-3.016404524
 20
19.5763832618
 10
-3.0165317327
 20
19.5786440639
 10
-3.0165745579
 20
19.5809046818
  0
LWPOLYLINE
  5
329
100
AcDbEntity
  8
0
100
AcDbPolyline
 62
7
  6
CONTINUOUS
 90
43
 70
0
 10
-5.9913131394
 20
22.0508248504
 10
-5.993909369
 20
22.0521468393
 10
-5.9964865333
 20
22.0535085111
 10
-5.9990427073
 20
22.0549111034
 10
-6.0015759656
 20
22.0563558544
 10
-6.004084383
 20
22.0578440019
 10
-6.0065660345
 20
22.0593767839
 10
-6.0090189947
 20
22.0609554382
 10
-6.0114413384
 20
22.0625812028
 10
-6.0138311405
 20
22.0642553155
 10
-6.0161864757
 20
22.0659790144
 10
-6.0182031998
 20
22.0675179181
 10
-6.0201897221
 20
22.0690962349
 10
-6.0221433136
 20
22.0707150106
 10
-6.0240612452
 20
22.0723752908
 10
-6.025940788
 20
22.074078121
 10
-6.0277792128
 20
22.0758245469
 10
-6.0295737908
 20
22.0776156142
 10
-6.0313217927
 20
22.0794523685
 10
-6.0330204897
 20
22.0813358553
 10
-6.0346671526
 20
22.0832671204
 10
-6.0359264174
 20
22.0848236579
 10
-6.0371489345
 20
22.0864103899
 10
-6.0383319816
 20
22.0880271756
 10
-6.0394728358
 20
22.0896738746
 10
-6.0405687748
 20
22.0913503465
 10
-6.0416170758
 20
22.0930564505
 10
-6.0426150163
 20
22.0947920464
 10
-6.0435598738
 20
22.0965569934
 10
-6.0444489256
 20
22.0983511511
 10
-6.0452794491
 20
22.100174379
 10
-6.0460487218
 20
22.1020265366
 10
-6.0466907435
 20
22.1037294497
 10
-6.0472787316
 20
22.1054536255
 10
-6.047811187
 20
22.1071966853
 10
-6.0482866108
 20
22.1089562502
 10
-6.048703504
 20
22.1107299414
 10
-6.0490603676
 20
22.1125153801
 10
-6.0493557028
 20
22.1143101876
 10
-6.0495880105
 20
22.1161119849
 10
-6.0497557918
 20
22.1179183934
 10
-6.0498575478
 20
22.1197270343
 10
-6.0498917794
 20
22.1215355286
  0
LWPOLYLINE
  5
32A
100
AcDbEntity
  8
0
100
AcDbPolyline
 62
7
  6
CONTINUOUS
 90
44
 70
0
 10
-15.2470095041
 20
25.3043713778
 10
-15.2504796316
 20
25.3061421052
 10
-15.2539225346
 20
25.3079720418
 10
-15.2573351271
 20
25.3098618857
 10
-15.2607143236
 20
25.3118123348
 10
-15.2640570381
 20
25.3138240873
 10
-15.2673601849
 20
25.3158978413
 10
-15.2706206783
 20
25.3180342949
 10
-15.2738354323
 20
25.3202341461
 10
-15.2770013613
 20
25.3224980931
 10
-15.2792342097
 20
25.3241576169
 10
-15.2814385233
 20
25.3258527311
 10
-15.2836123291
 20
25.3275858723
 10
-15.2857536543
 20
25.3293594769
 10
-15.2878605261
 20
25.3311759814
 10
-15.2899309714
 20
25.3330378222
 10
-15.2919630176
 20
25.3349474359
 10
-15.2939546917
 20
25.3369072588
 10
-15.2959040209
 20
25.3389197275
 10
-15.2978090322
 20
25.3409872785
 10
-15.2996677528
 20
25.3431123482
 10
-15.301086898
 20
25.3448146357
 10
-15.3024742133
 20
25.3465522174
 10
-15.3038273575
 20
25.3483237553
 10
-15.3051439893
 20
25.3501279117
 10
-15.3064217673
 20
25.3519633486
 10
-15.3076583505
 20
25.3538287282
 10
-15.3088513974
 20
25.3557227126
 10
-15.3099985668
 20
25.3576439638
 10
-15.3110975174
 20
25.3595911441
 10
-15.3121459079
 20
25.3615629155
 10
-15.3131413972
 20
25.3635579402
 10
-15.3140816438
 20
25.3655748802
 10
-15.3149643066
 20
25.3676123977
 10
-15.3157870442
 20
25.3696691549
 10
-15.3165475153
 20
25.3717438138
 10
-15.3172433788
 20
25.3738350366
 10
-15.3178722933
 20
25.3759414853
 10
-15.3184319176
 20
25.3780618222
 10
-15.3189199104
 20
25.3801947092
 10
-15.3193339303
 20
25.3823388087
 10
-15.3196716362
 20
25.3844927825
 10
-15.3199306868
 20
25.386655293
 10
-15.3201087407
 20
25.3888250022
  0
LWPOLYLINE
  5
32B
100
AcDbEntity
  8
0
100
AcDbPolyline
 62
7
  6
CONTINUOUS
 90
44
 70
0
 10
-7.336670862
 20
23.2517766309
 10
-7.3316864915
 20
23.2491793665
 10
-7.326787154
 20
23.2464193796
 10
-7.3219732207
 20
23.2435042344
 10
-7.3172450625
 20
23.2404414952
 10
-7.3126030506
 20
23.2372387262
 10
-7.308047556
 20
23.2339034916
 10
-7.3035789498
 20
23.2304433558
 10
-7.2991976031
 20
23.2268658829
 10
-7.2949038869
 20
23.2231786373
 10
-7.2906981723
 20
23.2193891831
 10
-7.2865808303
 20
23.2155050847
 10
-7.282552232
 20
23.2115339062
 10
-7.2772515914
 20
23.2060426273
 10
-7.2721123997
 20
23.2004120613
 10
-7.2671335004
 20
23.1946480117
 10
-7.2623137367
 20
23.188756282
 10
-7.2576519519
 20
23.1827426758
 10
-7.2531469894
 20
23.1766129966
 10
-7.2487976923
 20
23.170373048
 10
-7.244602904
 20
23.1640286334
 10
-7.2405614678
 20
23.1575855565
 10
-7.236672227
 20
23.1510496206
 10
-7.2328433351
 20
23.1442596956
 10
-7.2291761018
 20
23.1373813238
 10
-7.2256735121
 20
23.1304175144
 10
-7.2223385509
 20
23.1233712767
 10
-7.2191742033
 20
23.1162456197
 10
-7.2161834543
 20
23.1090435527
 10
-7.2133692889
 20
23.1017680849
 10
-7.210734692
 20
23.0944222254
 10
-7.2082826487
 20
23.0870089834
 10
-7.206016144
 20
23.079531368
 10
-7.204245121
 20
23.073152698
 10
-7.2026150721
 20
23.0667342265
 10
-7.2011318328
 20
23.0602801399
 10
-7.1998012384
 20
23.053794624
 10
-7.1986291241
 20
23.0472818652
 10
-7.1976213253
 20
23.0407460495
 10
-7.1967836774
 20
23.034191363
 10
-7.1961220157
 20
23.0276219919
 10
-7.1956421754
 20
23.0210421222
 10
-7.195349992
 20
23.0144559401
 10
-7.1952513008
 20
23.0078676318
  0
LWPOLYLINE
  5
32C
100
AcDbEntity
  8
0
100
AcDbPolyline
 62
7
  6
CONTINUOUS
 90
44
 70
0
 10
-11.7914423869
 20
25.9121750951
 10
-11.7852118831
 20
25.9089284852
 10
-11.7790876787
 20
25.9054784593
 10
-11.773070237
 20
25.901834474
 10
-11.7671600212
 20
25.898005986
 10
-11.7613574947
 20
25.8940024519
 10
-11.7556631206
 20
25.8898333286
 10
-11.7500773621
 20
25.8855080726
 10
-11.7446006825
 20
25.8810361407
 10
-11.7392335451
 20
25.8764269896
 10
-11.733976413
 20
25.8716900759
 10
-11.7288297495
 20
25.8668348563
 10
-11.7237940179
 20
25.8618707876
 10
-11.717168229
 20
25.8550065496
 10
-11.7107442549
 20
25.8479682058
 10
-11.7045206496
 20
25.8407630105
 10
-11.6984959671
 20
25.8333982179
 10
-11.6926687612
 20
25.825881082
 10
-11.687037586
 20
25.8182188572
 10
-11.6816009954
 20
25.8104187976
 10
-11.6763575433
 20
25.8024881574
 10
-11.6713057838
 20
25.7944341907
 10
-11.6664442707
 20
25.7862641518
 10
-11.6616582129
 20
25.7777766538
 10
-11.6570742284
 20
25.7691785995
 10
-11.6526960476
 20
25.7604737505
 10
-11.6485274011
 20
25.7516658683
 10
-11.6445720192
 20
25.7427587148
 10
-11.6408336326
 20
25.7337560513
 10
-11.6373159716
 20
25.7246616396
 10
-11.6340227668
 20
25.7154792413
 10
-11.6309577485
 20
25.706212618
 10
-11.6281246474
 20
25.6968655313
 10
-11.625910894
 20
25.6888921591
 10
-11.6238733531
 20
25.6808690375
 10
-11.6220193195
 20
25.672801399
 10
-11.6203560879
 20
25.6646944757
 10
-11.6188909531
 20
25.6565535001
 10
-11.6176312099
 20
25.6483837044
 10
-11.616584153
 20
25.640190321
 10
-11.6157570771
 20
25.6319785821
 10
-11.615157277
 20
25.6237537202
 10
-11.6147920475
 20
25.6155209675
 10
-11.6146686832
 20
25.6072855563
  0
LWPOLYLINE
  5
32D
100
AcDbEntity
  8
0
100
AcDbPolyline
 62
7
  6
CONTINUOUS
 90
44
 70
0
 10
0.5122156058
 20
19.7603460988
 10
0.5184461096
 20
19.7570994889
 10
0.524570314
 20
19.753649463
 10
0.5305877557
 20
19.7500054776
 10
0.5364979714
 20
19.7461769896
 10
0.542300498
 20
19.7421734556
 10
0.5479948721
 20
19.7380043322
 10
0.5535806306
 20
19.7336790763
 10
0.5590573101
 20
19.7292071444
 10
0.5644244476
 20
19.7245979932
 10
0.5696815796
 20
19.7198610795
 10
0.5748282431
 20
19.71500586
 10
0.5798639747
 20
19.7100417912
 10
0.5864897636
 20
19.7031775532
 10
0.5929137377
 20
19.6961392095
 10
0.599137343
 20
19.6889340142
 10
0.6051620255
 20
19.6815692216
 10
0.6109892314
 20
19.6740520857
 10
0.6166204066
 20
19.6663898609
 10
0.6220569972
 20
19.6585898013
 10
0.6273004493
 20
19.6506591611
 10
0.6323522088
 20
19.6426051944
 10
0.6372137219
 20
19.6344351554
 10
0.6419997797
 20
19.6259476575
 10
0.6465837642
 20
19.6173496032
 10
0.650961945
 20
19.6086447541
 10
0.6551305916
 20
19.599836872
 10
0.6590859734
 20
19.5909297184
 10
0.6628243601
 20
19.5819270549
 10
0.6663420211
 20
19.5728326433
 10
0.6696352259
 20
19.5636502449
 10
0.6727002442
 20
19.5543836217
 10
0.6755333453
 20
19.545036535
 10
0.6777470987
 20
19.5370631627
 10
0.6797846396
 20
19.5290400412
 10
0.6816386732
 20
19.5209724026
 10
0.6833019048
 20
19.5128654794
 10
0.6847670396
 20
19.5047245038
 10
0.6860267828
 20
19.4965547081
 10
0.6870738397
 20
19.4883613247
 10
0.6879009156
 20
19.4801495858
 10
0.6885007157
 20
19.4719247239
 10
0.6888659452
 20
19.4636919712
 10
0.6889893095
 20
19.45545656
  0
LWPOLYLINE
  5
32E
100
AcDbEntity
  8
0
100
AcDbPolyline
 62
7
  6
CONTINUOUS
 90
43
 70
0
 10
1.0428118247
 20
17.6763946414
 10
1.0547360607
 20
17.6701459899
 10
1.0664311516
 20
17.6634661668
 10
1.0779039739
 20
17.6563927182
 10
1.089161404
 20
17.6489631901
 10
1.1002103183
 20
17.6412151285
 10
1.1110575934
 20
17.6331860796
 10
1.1249205334
 20
17.6223359222
 10
1.1384516445
 20
17.6110915444
 10
1.1516508652
 20
17.5994734137
 10
1.1645181336
 20
17.587501998
 10
1.1770533884
 20
17.5751977651
 10
1.1902246161
 20
17.5615505953
 10
1.203011992
 20
17.5475494265
 10
1.215419325
 20
17.533204893
 10
1.2274504242
 20
17.518527629
 10
1.2391090987
 20
17.5035282687
 10
1.2503991574
 20
17.4882174463
 10
1.2613244094
 20
17.4726057961
 10
1.2718886637
 20
17.4567039522
 10
1.2820957293
 20
17.4405225489
 10
1.2919494153
 20
17.4240722204
 10
1.30083525
 20
17.4084731148
 10
1.3094041277
 20
17.3926599299
 10
1.3176440974
 20
17.3766439492
 10
1.325543208
 20
17.3604364566
 10
1.3330895084
 20
17.3440487356
 10
1.3402710477
 20
17.3274920698
 10
1.3470758748
 20
17.3107777431
 10
1.3534920387
 20
17.293917039
 10
1.3595075883
 20
17.2769212412
 10
1.3651105725
 20
17.2598016334
 10
1.3702890404
 20
17.2425694992
 10
1.3750310409
 20
17.2252361224
 10
1.379324623
 20
17.2078127865
 10
1.3831578355
 20
17.1903107753
 10
1.3865187276
 20
17.1727413723
 10
1.3893953481
 20
17.1551158614
 10
1.391775746
 20
17.1374455261
 10
1.3936479702
 20
17.1197416501
 10
1.3950000698
 20
17.1020155172
 10
1.3958200936
 20
17.0842784108
 10
1.3960960907
 20
17.0665416148
  0
LWPOLYLINE
  5
32F
100
AcDbEntity
  8
0
100
AcDbPolyline
 62
7
  6
CONTINUOUS
 90
43
 70
0
 10
-13.3927231777
 20
25.1094530916
 10
-13.3859608743
 20
25.1058764555
 10
-13.3793255705
 20
25.1020608388
 10
-13.3728176832
 20
25.0980185046
 10
-13.3664376295
 20
25.0937617154
 10
-13.3601858262
 20
25.0893027343
 10
-13.3540626904
 20
25.084653824
 10
-13.348068639
 20
25.0798272474
 10
-13.342204089
 20
25.0748352672
 10
-13.3364694573
 20
25.0696901464
 10
-13.330865161
 20
25.0644041478
 10
-13.325391617
 20
25.0589895341
 10
-13.3187848207
 20
25.0521109459
 10
-13.3123782839
 20
25.0450605147
 10
-13.3061704913
 20
25.0378453792
 10
-13.3001599278
 20
25.0304726782
 10
-13.2943450781
 20
25.0229495505
 10
-13.2887244272
 20
25.0152831348
 10
-13.2832964598
 20
25.00748057
 10
-13.2780596608
 20
24.9995489949
 10
-13.273012515
 20
24.9914955481
 10
-13.2681535071
 20
24.9833273685
 10
-13.2633669938
 20
24.9748416482
 10
-13.2587802902
 20
24.9662465128
 10
-13.2543970867
 20
24.9575456164
 10
-13.2502210736
 20
24.9487426132
 10
-13.2462559414
 20
24.9398411572
 10
-13.2425053802
 20
24.9308449026
 10
-13.2389730804
 20
24.9217575035
 10
-13.2356627325
 20
24.9125826138
 10
-13.2325780267
 20
24.9033238878
 10
-13.2297226533
 20
24.8939849796
 10
-13.2274904234
 20
24.886027643
 10
-13.2254321954
 20
24.8780206617
 10
-13.2235553103
 20
24.869969125
 10
-13.2218671088
 20
24.8618781223
 10
-13.2203749318
 20
24.8537527427
 10
-13.2190861203
 20
24.8455980756
 10
-13.218008015
 20
24.8374192103
 10
-13.2171479569
 20
24.829221236
 10
-13.2165132868
 20
24.8210092422
 10
-13.2161113455
 20
24.812788318
 10
-13.215949474
 20
24.8045635528
  0
LWPOLYLINE
  5
330
100
AcDbEntity
  8
0
100
AcDbPolyline
 62
7
  6
CONTINUOUS
 90
43
 70
0
 10
-1.089065185
 20
18.9576240953
 10
-1.0823028863
 20
18.9540474618
 10
-1.075667587
 20
18.9502318481
 10
-1.0691597041
 20
18.9461895171
 10
-1.0627796544
 20
18.9419327316
 10
-1.0565278551
 20
18.9374737543
 10
-1.050404723
 20
18.9328248481
 10
-1.0444106752
 20
18.9279982758
 10
-1.0385461286
 20
18.9230063002
 10
-1.0328115002
 20
18.917861184
 10
-1.0272072069
 20
18.9125751901
 10
-1.0217336658
 20
18.9071605814
 10
-1.0151268674
 20
18.9002819934
 10
-1.0087203285
 20
18.8932315622
 10
-1.0025125339
 20
18.8860164265
 10
-0.9965019685
 20
18.8786437253
 10
-0.990687117
 20
18.8711205972
 10
-0.9850664644
 20
18.8634541811
 10
-0.9796384953
 20
18.8556516157
 10
-0.9744016946
 20
18.8477200398
 10
-0.9693545472
 20
18.8396665924
 10
-0.9644955378
 20
18.831498412
 10
-0.9597090224
 20
18.8230126901
 10
-0.9551223169
 20
18.814417553
 10
-0.9507391116
 20
18.8057166549
 10
-0.9465630967
 20
18.79691365
 10
-0.9425979627
 20
18.7880121923
 10
-0.9388473999
 20
18.7790159358
 10
-0.9353150986
 20
18.7699285348
 10
-0.9320047492
 20
18.7607536432
 10
-0.928920042
 20
18.7514949152
 10
-0.9260646673
 20
18.7421560049
 10
-0.9238324364
 20
18.7341986664
 10
-0.9217742074
 20
18.7261916833
 10
-0.9198973214
 20
18.7181401447
 10
-0.9182091191
 20
18.71004914
 10
-0.9167169414
 20
18.7019237584
 10
-0.9154281292
 20
18.6937690894
 10
-0.9143500234
 20
18.685590222
 10
-0.9134899648
 20
18.6773922458
 10
-0.9128552944
 20
18.6691802499
 10
-0.912453353
 20
18.6609593237
 10
-0.9122914814
 20
18.6527345565
  0
LWPOLYLINE
  5
331
100
AcDbEntity
  8
0
100
AcDbPolyline
 62
7
  6
CONTINUOUS
 90
43
 70
0
 10
-7.5514840761
 20
23.1447110732
 10
-7.546087478
 20
23.1418403479
 10
-7.5407928896
 20
23.138778832
 10
-7.5356005891
 20
23.1355363553
 10
-7.5305108545
 20
23.1321227475
 10
-7.5255239641
 20
23.1285478382
 10
-7.5206401959
 20
23.1248214572
 10
-7.5158598282
 20
23.1209534342
 10
-7.5111831389
 20
23.1169535989
 10
-7.5066104064
 20
23.112831781
 10
-7.5021419086
 20
23.1085978103
 10
-7.4977779238
 20
23.1042615163
 10
-7.4925064769
 20
23.0987491945
 10
-7.487395236
 20
23.0931000584
 10
-7.4824429463
 20
23.0873198065
 10
-7.477648353
 20
23.0814141373
 10
-7.4730102011
 20
23.0753887492
 10
-7.4685272359
 20
23.0692493409
 10
-7.4641982025
 20
23.0630016107
 10
-7.4600218461
 20
23.0566512573
 10
-7.4559969119
 20
23.0502039791
 10
-7.452122145
 20
23.0436654747
 10
-7.4483036527
 20
23.0368704172
 10
-7.4446447068
 20
23.0299883151
 10
-7.4411482267
 20
23.0230220823
 10
-7.4378171316
 20
23.0159746327
 10
-7.434654341
 20
23.0088488802
 10
-7.4316627741
 20
23.0016477387
 10
-7.4288453505
 20
22.9943741223
 10
-7.4262049893
 20
22.9870309447
 10
-7.4237446101
 20
22.9796211201
 10
-7.421467132
 20
22.9721475621
 10
-7.4196865193
 20
22.9657794541
 10
-7.4180446847
 20
22.9593718847
 10
-7.4165474845
 20
22.9529288977
 10
-7.4152007751
 20
22.9464545372
 10
-7.4140104125
 20
22.9399528474
 10
-7.4129822531
 20
22.933427872
 10
-7.4121221531
 20
22.9268836553
 10
-7.4114359688
 20
22.9203242411
 10
-7.4109295563
 20
22.9137536736
 10
-7.4106087719
 20
22.9071759967
 10
-7.4104794718
 20
22.9005952544
  0
LWPOLYLINE
  5
332
100
AcDbEntity
  8
RACCORDO
100
AcDbPolyline
 62
7
  6
CONTINUOUS
 90
37
 70
0
 10
-3.8467810811
 20
23.3511261118
 10
-3.8409946143
 20
23.3477268259
 10
-3.8353012821
 20
23.3441707938
 10
-3.8296992052
 20
23.3404668465
 10
-3.8241865045
 20
23.3366238153
 10
-3.8187613006
 20
23.3326505314
 10
-3.8134217143
 20
23.328555826
 10
-3.8081658662
 20
23.3243485303
 10
-3.802991877
 20
23.3200374755
 10
-3.7978978675
 20
23.3156314927
 10
-3.7928819585
 20
23.3111394133
 10
-3.7858956495
 20
23.3046314642
 10
-3.7790619092
 20
23.2979731157
 10
-3.7723798372
 20
23.2911695399
 10
-3.7658485334
 20
23.2842259093
 10
-3.7594670973
 20
23.2771473961
 10
-3.7532346287
 20
23.2699391727
 10
-3.7471502273
 20
23.2626064114
 10
-3.7412129928
 20
23.2551542847
 10
-3.735431524
 20
23.2475984096
 10
-3.729801291
 20
23.2399289262
 10
-3.7243276953
 20
23.2321460819
 10
-3.719016138
 20
23.2242501244
 10
-3.7138720204
 20
23.2162413011
 10
-3.7089007438
 20
23.2081198597
 10
-3.7041077094
 20
23.1998860477
 10
-3.6994983185
 20
23.1915401127
 10
-3.696374096
 20
23.1856100656
 10
-3.6933523813
 20
23.1796251179
 10
-3.6904423828
 20
23.1735855831
 10
-3.6876533088
 20
23.1674917745
 10
-3.6849943678
 20
23.1613440055
 10
-3.682474768
 20
23.1551425897
 10
-3.680103718
 20
23.1488878403
 10
-3.6778904259
 20
23.1425800708
 10
-3.6758441003
 20
23.1362195947
 10
-3.6739739495
 20
23.1298067253
  0
LWPOLYLINE
  5
333
100
AcDbEntity
  8
RACCORDO
100
AcDbPolyline
 62
7
  6
CONTINUOUS
 90
58
 70
0
 10
17.5251078496
 20
21.2025714027
 10
17.6092162361
 20
21.1410444765
 10
17.6912822832
 20
21.0767145408
 10
17.7713076047
 20
21.0097513393
 10
17.8492938142
 20
20.9403246157
 10
17.9252425254
 20
20.8686041135
 10
17.999155352
 20
20.7947595766
 10
18.0710339077
 20
20.7189607485
 10
18.1462820651
 20
20.635192251
 10
18.2191788908
 20
20.5494391823
 10
18.2897375864
 20
20.4617928849
 10
18.357971353
 20
20.3723447015
 10
18.4238933922
 20
20.2811859746
 10
18.4875169052
 20
20.188408047
 10
18.5488550936
 20
20.0941022612
 10
18.6194701133
 20
19.979006296
 10
18.6867677445
 20
19.8619385493
 10
18.7507041962
 20
19.7429969221
 10
18.8112356774
 20
19.6222793151
 10
18.8683183971
 20
19.4998836293
 10
18.9219085644
 20
19.3759077656
 10
18.9642055539
 20
19.2705665883
 10
19.003934294
 20
19.1642309327
 10
19.041024184
 20
19.0569532229
 10
19.0754046231
 20
18.9487858832
 10
19.1070050108
 20
18.839781338
 10
19.1357547461
 20
18.7299920114
 10
19.1615832285
 20
18.6194703277
 10
19.1830151257
 20
18.515524279
 10
19.2017035738
 20
18.4110453735
 10
19.2175204405
 20
18.306095115
 10
19.2303375931
 20
18.2007350071
 10
19.2400268992
 20
18.0950265537
 10
19.2464602263
 20
17.9890312583
 10
19.2495094418
 20
17.8828106247
 10
19.2492500492
 20
17.7876011888
 10
19.2460033918
 20
17.6924185768
 10
19.2395967936
 20
17.597420904
 10
19.229857579
 20
17.5027662854
 10
19.2166130722
 20
17.4086128361
 10
19.1996905973
 20
17.3151186714
 10
19.1789174787
 20
17.2224419064
 10
19.1596276861
 20
17.1497922576
 10
19.1376953268
 20
17.0779051063
 10
19.1129977758
 20
17.0069319519
 10
19.0854124079
 20
16.9370242939
 10
19.0569800378
 20
16.8729344611
 10
19.0258559058
 20
16.8101023457
 10
18.9919665875
 20
16.7487271808
 10
18.9552386584
 20
16.6890081994
 10
18.9180544527
 20
16.6345487628
 10
18.878282678
 20
16.581943639
 10
18.8359107353
 20
16.5314064871
 10
18.7909260257
 20
16.4831509658
 10
18.7453980335
 20
16.4392685467
 10
18.6975885905
 20
16.3978816096
 10
18.6476250522
 20
16.3591961768
 10
18.5956347741
 20
16.3234182708
  0
LWPOLYLINE
  5
334
100
AcDbEntity
  8
RACCORDO
100
AcDbPolyline
 62
7
  6
CONTINUOUS
 90
13
 70
0
 10
12.2505629984
 20
22.3878261538
 10
12.258266694
 20
22.3812862656
 10
12.2659229666
 20
22.3746907221
 10
12.2735312935
 20
22.3680390844
 10
12.2808814046
 20
22.3615183392
 10
12.2881845666
 20
22.3549440679
 10
12.2954396394
 20
22.3483161758
 10
12.3026454833
 20
22.3416345681
 10
12.3098009583
 20
22.3348991502
 10
12.3169049245
 20
22.3281098271
 10
12.323956242
 20
22.3212665042
 10
12.330953771
 20
22.3143690868
 10
12.3378963716
 20
22.30741748
  0
LWPOLYLINE
  5
335
100
AcDbEntity
  8
RACCORDO
100
AcDbPolyline
 62
7
  6
CONTINUOUS
 90
42
 70
0
 10
17.5253121213
 20
19.1978773309
 10
17.5387160045
 20
19.1532658162
 10
17.5510611862
 20
19.1083286056
 10
17.5623635909
 20
19.0630959797
 10
17.5726391432
 20
19.0175982192
 10
17.5819037675
 20
18.9718656049
 10
17.5901733884
 20
18.9259284175
 10
17.5974639305
 20
18.8798169377
 10
17.6037913181
 20
18.8335614461
 10
17.6091714759
 20
18.7871922235
 10
17.6141053608
 20
18.7349741166
 10
17.6178714249
 20
18.6826742867
 10
17.6204783356
 20
18.6303164309
 10
17.6219347603
 20
18.5779242462
 10
17.6222493664
 20
18.5255214296
 10
17.6214308212
 20
18.4731316783
 10
17.6194877921
 20
18.4207786893
 10
17.6164289464
 20
18.3684861596
 10
17.6122661276
 20
18.3163831602
 10
17.6069714862
 20
18.2643916887
 10
17.6005159091
 20
18.2125394537
 10
17.592870283
 20
18.1608541642
 10
17.5859251713
 20
18.119934823
 10
17.5781717028
 20
18.0791592229
 10
17.569570865
 20
18.0385482697
 10
17.5600836455
 20
17.9981228691
 10
17.5496710319
 20
17.9579039269
 10
17.5404510741
 20
17.9252544514
 10
17.5305147787
 20
17.892812463
 10
17.5197881919
 20
17.8606340035
 10
17.5081973596
 20
17.8287751145
 10
17.4956683281
 20
17.7972918377
 10
17.4821271434
 20
17.7662402147
 10
17.4716856502
 20
17.7441577203
 10
17.4606002499
 20
17.7223896284
 10
17.4487916521
 20
17.7009968115
 10
17.436180566
 20
17.6800401421
 10
17.4261117607
 20
17.664604177
 10
17.4154996495
 20
17.649534048
 10
17.4043002539
 20
17.6349141423
 10
17.3924695955
 20
17.6208288471
 10
17.3799636958
 20
17.6073625495
  0
LINE
  5
336
100
AcDbEntity
  8
ASSI
100
AcDbLine
 62
7
  6
CONTINUOUS
 10
7.3293436643
 20
22.436691769
 11
7.32950332
 21
22.4194361311
  0
LINE
  5
337
100
AcDbEntity
  8
RACCORDO
100
AcDbLine
 62
7
  6
CONTINUOUS
 10
7.1590163573
 20
21.5054790716
 11
7.1590163573
 21
21.4815124684
  0
LINE
  5
338
100
AcDbEntity
  8
ASSI
100
AcDbLine
 62
7
  6
CONTINUOUS
 10
7.1892457167
 20
-15.2235006061
 11
7.1892457167
 21
-15.4387627155
  0
LINE
  5
339
100
AcDbEntity
  8
ASSI
100
AcDbLine
 62
7
  6
CONTINUOUS
 10
7.1892457167
 20
21.5214596174
 11
7.1892457167
 21
22.1229766991
  0
LINE
  5
33A
100
AcDbEntity
  8
ASSI
100
AcDbLine
 62
7
  6
CONTINUOUS
 10
7.3295758165
 20
22.4205849075
 11
7.3295758165
 21
21.697722851
  0
LINE
  5
33B
100
AcDbEntity
  8
ASSI
100
AcDbLine
 62
7
  6
CONTINUOUS
 10
7.3295758165
 20
-15.3890469117
 11
7.3295758165
 21
-15.1492917377
  0
LINE
  5
33C
100
AcDbEntity
  8
0
100
AcDbLine
 62
7
  6
CONTINUOUS
 10
7.9906494078
 20
23.5359297073
 11
7.9906494078
 21
23.2146054251
  0
LINE
  5
33D
100
AcDbEntity
  8
DRAFT
100
AcDbLine
 62
7
  6
CONTINUOUS
 10
8.6733596058
 20
23.1142347263
 11
8.6733596058
 21
23.5472474282
  0
LINE
  5
33E
100
AcDbEntity
  8
0
100
AcDbLine
 62
7
  6
CONTINUOUS
 10
9.6408233182
 20
22.2781046151
 11
9.6408233182
 21
21.8122298486
  0
LINE
  5
33F
100
AcDbEntity
  8
RACCORDO
100
AcDbLine
 62
7
  6
CONTINUOUS
 10
10.0581564991
 20
23.0072198388
 11
10.0581564991
 21
23.465951405
  0
LINE
  5
340
100
AcDbEntity
  8
0
100
AcDbLine
 62
7
  6
CONTINUOUS
 10
10.0905679796
 20
22.1563567819
 11
10.0905679796
 21
21.8031712281
  0
LINE
  5
341
100
AcDbEntity
  8
RACCORDO
100
AcDbLine
 62
7
  6
CONTINUOUS
 10
10.1991694205
 20
23.0081501169
 11
10.1991694205
 21
23.4769473021
  0
LINE
  5
342
100
AcDbEntity
  8
0
100
AcDbLine
 62
7
  6
CONTINUOUS
 10
12.0028053863
 20
25.5773295
 11
12.0028053863
 21
25.1694782327
  0
LINE
  5
343
100
AcDbEntity
  8
0
100
AcDbLine
 62
7
  6
CONTINUOUS
 10
0.3169220267
 20
11.9557320267
 11
-0.8341969748
 21
-2.9761010253
  0
LWPOLYLINE
  5
344
100
AcDbEntity
  8
RACCORDO
100
AcDbPolyline
 62
7
  6
CONTINUOUS
 90
13
 70
0
 10
-4.4271313281
 20
14.1507006459
 10
-4.5633775749
 20
13.2600552413
 10
-4.6925608204
 20
12.3683438819
 10
-4.8146110739
 20
11.4755683312
 10
-4.9271291348
 20
10.6004305
 10
-5.0326548066
 20
9.7243495757
 10
-5.1311008109
 20
8.8474009577
 10
-5.2223798694
 20
7.9696600453
 10
-5.3064047037
 20
7.0912022378
 10
-5.3830880355
 20
6.2121029346
 10
-5.4523425864
 20
5.3324375349
 10
-5.514081078
 20
4.4522814382
 10
-5.5682162321
 20
3.5717100437
  0
LWPOLYLINE
  5
345
100
AcDbEntity
  8
RACCORDO
100
AcDbPolyline
 62
7
  6
CONTINUOUS
 90
13
 70
0
 10
-3.7365268993
 20
14.056587088
 10
-3.8720303954
 20
13.1708966119
 10
-4.0005091473
 20
12.2841458364
 10
-4.1218934868
 20
11.3963365098
 10
-4.2337975004
 20
10.5260646611
 10
-4.3387468805
 20
9.6548547138
 10
-4.4366548402
 20
8.7827816735
 10
-4.5274345927
 20
7.9099205456
 10
-4.610999351
 20
7.0363463358
 10
-4.6872623282
 20
6.1621340495
 10
-4.7561367376
 20
5.2873586923
 10
-4.8175357921
 20
4.4120952696
 10
-4.8713727049
 20
3.536418787
  0
LINE
  5
346
100
AcDbEntity
  8
RACCORDO
100
AcDbLine
 62
7
  6
CONTINUOUS
 10
-19.2203144428
 20
21.8287329418
 11
-19.2431800534
 21
21.742502466
  0
LINE
  5
347
100
AcDbEntity
  8
RACCORDO
100
AcDbLine
 62
7
  6
CONTINUOUS
 10
-5.5163267878
 20
-23.7336067149
 11
-5.4517448915
 21
-23.7399141085
  0
LWPOLYLINE
  5
348
100
AcDbEntity
  8
RACCORDO
100
AcDbPolyline
 62
7
  6
CONTINUOUS
 90
46
 70
0
 10
-2.3822377665
 20
22.6188544545
 10
-2.3851250029
 20
22.6200929605
 10
-2.3880316155
 20
22.6212886781
 10
-2.3909573258
 20
22.6224393394
 10
-2.3939018552
 20
22.6235426766
 10
-2.3968649251
 20
22.6245964218
 10
-2.3998462568
 20
22.6255983071
 10
-2.4028455718
 20
22.6265460648
 10
-2.4058625915
 20
22.6274374268
 10
-2.4088970372
 20
22.6282701255
 10
-2.4119486303
 20
22.6290418929
 10
-2.4143524727
 20
22.6296025533
 10
-2.4167659937
 20
22.6301217902
 10
-2.4191885061
 20
22.6305970153
 10
-2.421619323
 20
22.6310256401
 10
-2.4240577571
 20
22.6314050764
 10
-2.4265031213
 20
22.6317327359
 10
-2.4289547285
 20
22.6320060303
 10
-2.4314118916
 20
22.6322223712
 10
-2.4338739235
 20
22.6323791703
 10
-2.4363401371
 20
22.6324738393
 10
-2.4388098452
 20
22.6325037899
 10
-2.4407294345
 20
22.6324806272
 10
-2.4426490557
 20
22.6324149056
 10
-2.4445670475
 20
22.6323046538
 10
-2.4464817489
 20
22.6321479004
 10
-2.4483914986
 20
22.6319426739
 10
-2.4502946355
 20
22.6316870031
 10
-2.4521894986
 20
22.6313789166
 10
-2.4540744266
 20
22.631016443
 10
-2.4559477584
 20
22.6305976109
 10
-2.4578078329
 20
22.6301204489
 10
-2.4596529889
 20
22.6295829858
 10
-2.4614815653
 20
22.62898325
 10
-2.4630878981
 20
22.6283979062
 10
-2.4646771773
 20
22.6277622681
 10
-2.4662466976
 20
22.6270765774
 10
-2.4677937542
 20
22.6263410758
 10
-2.469315642
 20
22.6255560052
 10
-2.4708096559
 20
22.6247216072
 10
-2.4722730908
 20
22.6238381236
 10
-2.4737032419
 20
22.6229057962
 10
-2.4750974039
 20
22.6219248667
 10
-2.4764528719
 20
22.6208955768
 10
-2.4777669409
 20
22.6198181683
 10
-2.4790369057
 20
22.6186928829
  0
LINE
  5
349
100
AcDbEntity
  8
RACCORDO
100
AcDbLine
 62
7
  6
CONTINUOUS
 10
2.5757271218
 20
24.0378977977
 11
2.5514110686
 21
24.0491065855
  0
LWPOLYLINE
  5
34A
100
AcDbEntity
  8
0
100
AcDbPolyline
 62
7
  6
CONTINUOUS
 90
38
 70
0
 10
2.0916081594
 20
23.9291470378
 10
2.0909025812
 20
23.9294796378
 10
2.0901853743
 20
23.9297794073
 10
2.0894572545
 20
23.9300477331
 10
2.0887189379
 20
23.9302860017
 10
2.0879711404
 20
23.9304955999
 10
2.0872145781
 20
23.9306779144
 10
2.0864499669
 20
23.9308343317
 10
2.0856780228
 20
23.9309662385
 10
2.0848994617
 20
23.9310750216
 10
2.0841149998
 20
23.9311620676
 10
2.0833253529
 20
23.931228763
 10
2.082531237
 20
23.9312764947
 10
2.0817333681
 20
23.9313066492
 10
2.0809324623
 20
23.9313206133
 10
2.0801292354
 20
23.9313197736
 10
2.0793244035
 20
23.9313055167
 10
2.0785186825
 20
23.9312792293
 10
2.0777127885
 20
23.9312422981
 10
2.0769074374
 20
23.9311961098
 10
2.0761033452
 20
23.931142051
 10
2.0753012279
 20
23.9310815083
 10
2.0734145438
 20
23.9309177006
 10
2.0715418211
 20
23.930726567
 10
2.0696819715
 20
23.930509289
 10
2.0678339072
 20
23.9302670478
 10
2.06599654
 20
23.9300010248
 10
2.0641687819
 20
23.9297124014
 10
2.0623495449
 20
23.9294023588
 10
2.0605377408
 20
23.9290720784
 10
2.0587322816
 20
23.9287227416
 10
2.0569320792
 20
23.9283555297
 10
2.0551360457
 20
23.9279716241
 10
2.0533430929
 20
23.927572206
 10
2.0515521327
 20
23.9271584569
 10
2.0497620772
 20
23.926731558
 10
2.0479718382
 20
23.9262926907
 10
2.0461803278
 20
23.9258430364
  0
LWPOLYLINE
  5
34B
100
AcDbEntity
  8
0
100
AcDbPolyline
 62
7
  6
CONTINUOUS
 90
35
 70
0
 10
-3.4988626334
 20
26.7243823964
 10
-3.4993135339
 20
26.7245969861
 10
-3.4997708204
 20
26.7247962551
 10
-3.5002341013
 20
26.7249807808
 10
-3.500702985
 20
26.7251511407
 10
-3.5011770799
 20
26.7253079123
 10
-3.5016559944
 20
26.7254516729
 10
-3.5021393369
 20
26.7255830001
 10
-3.5026267159
 20
26.7257024712
 10
-3.5031177396
 20
26.7258106637
 10
-3.5036120164
 20
26.725908155
 10
-3.5041091549
 20
26.7259955225
 10
-3.5046087634
 20
26.7260733438
 10
-3.5051104503
 20
26.7261421962
 10
-3.5056138239
 20
26.7262026572
 10
-3.5061184927
 20
26.7262553043
 10
-3.5066240651
 20
26.7263007148
 10
-3.5071301495
 20
26.7263394662
 10
-3.5076363542
 20
26.7263721359
 10
-3.5081422877
 20
26.7263993014
 10
-3.5091231105
 20
26.7264379376
 10
-3.5101015803
 20
26.7264588357
 10
-3.5110778443
 20
26.7264628399
 10
-3.5120520494
 20
26.7264507942
 10
-3.5130243428
 20
26.7264235428
 10
-3.5139948714
 20
26.7263819299
 10
-3.5149637825
 20
26.7263267997
 10
-3.515931223
 20
26.7262589963
 10
-3.5168973399
 20
26.7261793638
 10
-3.5178622804
 20
26.7260887465
 10
-3.5188261916
 20
26.7259879884
 10
-3.5197892204
 20
26.7258779337
 10
-3.5207515139
 20
26.7257594266
 10
-3.5217132192
 20
26.7256333113
 10
-3.5226744834
 20
26.7255004318
  0
LWPOLYLINE
  5
34C
100
AcDbEntity
  8
0
100
AcDbPolyline
 62
7
  6
CONTINUOUS
 90
39
 70
0
 10
-1.264813441
 20
18.3132733462
 10
-1.2571349247
 20
18.3095876088
 10
-1.2493418636
 20
18.3061427788
 10
-1.2414440056
 20
18.3029304378
 10
-1.2334510983
 20
18.2999421671
 10
-1.2253728895
 20
18.2971695481
 10
-1.2172191269
 20
18.2946041624
 10
-1.2089995583
 20
18.2922375912
 10
-1.2007239315
 20
18.2900614161
 10
-1.1924019941
 20
18.2880672185
 10
-1.184043494
 20
18.2862465798
 10
-1.1735627469
 20
18.2842052387
 10
-1.1630447662
 20
18.2824175338
 10
-1.1524941662
 20
18.2808793809
 10
-1.1419155614
 20
18.279586696
 10
-1.1313135659
 20
18.2785353952
 10
-1.1206927942
 20
18.2777213944
 10
-1.1100578605
 20
18.2771406097
 10
-1.0994133791
 20
18.2767889569
 10
-1.0887639645
 20
18.2766623521
 10
-1.078105105
 20
18.2767582287
 10
-1.0674505243
 20
18.2770794121
 10
-1.0568048208
 20
18.2776298662
 10
-1.0461725929
 20
18.278413555
 10
-1.0355584389
 20
18.2794344427
 10
-1.0249669573
 20
18.2806964932
 10
-1.0144027465
 20
18.2822036706
 10
-1.0038704047
 20
18.2839599389
 10
-0.9933745304
 20
18.2859692622
 10
-0.9849886413
 20
18.2877670666
 10
-0.9766387803
 20
18.2897384818
 10
-0.9683345688
 20
18.2918918482
 10
-0.9600856284
 20
18.2942355059
 10
-0.9519015804
 20
18.2967777952
 10
-0.9437920466
 20
18.2995270562
 10
-0.9357666482
 20
18.3024916292
 10
-0.9278350069
 20
18.3056798544
 10
-0.9200067442
 20
18.3091000721
 10
-0.9122914814
 20
18.3127606224
  0
LWPOLYLINE
  5
34D
100
AcDbEntity
  8
0
100
AcDbPolyline
 62
7
  6
CONTINUOUS
 90
39
 70
0
 10
-13.5684714337
 20
24.4651023426
 10
-13.5607929164
 20
24.4614166047
 10
-13.5529998542
 20
24.4579717743
 10
-13.545101995
 20
24.4547594329
 10
-13.5371090866
 20
24.4517711619
 10
-13.5290308767
 20
24.4489985427
 10
-13.5208771129
 20
24.4464331568
 10
-13.5126575432
 20
24.4440665855
 10
-13.5043819152
 20
24.4418904103
 10
-13.4960599767
 20
24.4398962126
 10
-13.4877014754
 20
24.4380755739
 10
-13.4772207266
 20
24.4360342329
 10
-13.4667027443
 20
24.434246528
 10
-13.4561521427
 20
24.4327083752
 10
-13.4455735363
 20
24.4314156906
 10
-13.4349715392
 20
24.43036439
 10
-13.4243507658
 20
24.4295503896
 10
-13.4137158305
 20
24.4289696052
 10
-13.4030713476
 20
24.4286179528
 10
-13.3924219313
 20
24.4284913485
 10
-13.3817630707
 20
24.4285872256
 10
-13.371108489
 20
24.4289084095
 10
-13.3604627845
 20
24.4294588641
 10
-13.3498305556
 20
24.4302425536
 10
-13.3392164007
 20
24.4312634419
 10
-13.3286249182
 20
24.4325254932
 10
-13.3180607064
 20
24.4340326715
 10
-13.3075283638
 20
24.4357889407
 10
-13.2970324887
 20
24.4377982651
 10
-13.2886466032
 20
24.4395960694
 10
-13.2802967457
 20
24.4415674845
 10
-13.2719925378
 20
24.4437208506
 10
-13.2637436009
 20
24.4460645079
 10
-13.2555595565
 20
24.4486067967
 10
-13.2474500261
 20
24.451356057
 10
-13.2394246311
 20
24.4543206292
 10
-13.2314929932
 20
24.4575088534
 10
-13.2236647336
 20
24.4609290698
 10
-13.215949474
 20
24.4645896187
  0
LWPOLYLINE
  5
34E
100
AcDbEntity
  8
0
100
AcDbPolyline
 62
7
  6
CONTINUOUS
 90
39
 70
0
 10
-1.264813441
 20
18.6532472804
 10
-1.25713493
 20
18.6495615454
 10
-1.2493418744
 20
18.6461167175
 10
-1.2414440219
 20
18.6429043782
 10
-1.2334511203
 20
18.6399161089
 10
-1.2253729173
 20
18.6371434911
 10
-1.2172191606
 20
18.6345781062
 10
-1.208999598
 20
18.6322115357
 10
-1.2007239772
 20
18.6300353611
 10
-1.1924020458
 20
18.6280411637
 10
-1.1840435518
 20
18.626220525
 10
-1.1735628034
 20
18.6241791822
 10
-1.1630448213
 20
18.6223914757
 10
-1.15249422
 20
18.6208533214
 10
-1.1419156137
 20
18.6195606353
 10
-1.1313136168
 20
18.6185093333
 10
-1.1206928435
 20
18.6176953315
 10
-1.1100579082
 20
18.6171145458
 10
-1.0994134253
 20
18.6167628921
 10
-1.088764009
 20
18.6166362864
 10
-1.0781051469
 20
18.6167321623
 10
-1.0674505636
 20
18.6170533449
 10
-1.0568048575
 20
18.6176037983
 10
-1.0461726269
 20
18.6183874866
 10
-1.0355584704
 20
18.6194083738
 10
-1.0249669861
 20
18.620670424
 10
-1.0144027726
 20
18.6221776011
 10
-1.0038704282
 20
18.6239338692
 10
-0.9933745513
 20
18.6259431924
 10
-0.98498866
 20
18.6277409967
 10
-0.9766387968
 20
18.629712412
 10
-0.9683345832
 20
18.6318657785
 10
-0.9600856406
 20
18.6342094365
 10
-0.9519015905
 20
18.6367517261
 10
-0.9437920546
 20
18.6395009875
 10
-0.9357666542
 20
18.6424655611
 10
-0.9278350108
 20
18.6456537869
 10
-0.9200067461
 20
18.6490740053
 10
-0.9122914814
 20
18.6527345565
  0
LWPOLYLINE
  5
34F
100
AcDbEntity
  8
0
100
AcDbPolyline
 62
7
  6
CONTINUOUS
 90
39
 70
0
 10
-13.5684714337
 20
24.8050762767
 10
-13.5607929154
 20
24.8013905383
 10
-13.5529998523
 20
24.7979457076
 10
-13.5451019921
 20
24.7947333659
 10
-13.5371090827
 20
24.7917450947
 10
-13.5290308717
 20
24.7889724753
 10
-13.520877107
 20
24.7864070892
 10
-13.5126575362
 20
24.7840405178
 10
-13.5043819071
 20
24.7818643425
 10
-13.4960599675
 20
24.7798701448
 10
-13.4877014652
 20
24.7780495061
 10
-13.4772207153
 20
24.7760081651
 10
-13.4667027318
 20
24.7742204603
 10
-13.4561521291
 20
24.7726823077
 10
-13.4455735216
 20
24.7713896233
 10
-13.4349715234
 20
24.7703383229
 10
-13.4243507489
 20
24.7695243227
 10
-13.4137158125
 20
24.7689435386
 10
-13.4030713285
 20
24.7685918866
 10
-13.3924219111
 20
24.7684652826
 10
-13.3817630499
 20
24.7685611601
 10
-13.3711084675
 20
24.7688823444
 10
-13.3604627623
 20
24.7694327995
 10
-13.3498305328
 20
24.7702164894
 10
-13.3392163773
 20
24.7712373783
 10
-13.3286248942
 20
24.7724994301
 10
-13.3180606818
 20
24.774006609
 10
-13.3075283387
 20
24.7757628789
 10
-13.2970324631
 20
24.777772204
 10
-13.2886465803
 20
24.7795700083
 10
-13.2802967255
 20
24.7815414233
 10
-13.2719925202
 20
24.7836947892
 10
-13.2637435859
 20
24.7860384463
 10
-13.2555595442
 20
24.7885807346
 10
-13.2474500163
 20
24.7913299945
 10
-13.2394246239
 20
24.794294566
 10
-13.2314929884
 20
24.7974827895
 10
-13.2236647313
 20
24.800903005
 10
-13.215949474
 20
24.8045635528
  0
LWPOLYLINE
  5
350
100
AcDbEntity
  8
0
100
AcDbPolyline
 62
7
  6
CONTINUOUS
 90
39
 70
0
 10
-7.6920826809
 20
22.9012096212
 10
-7.6859522405
 20
22.8982667538
 10
-7.6797304969
 20
22.8955158837
 10
-7.6734252123
 20
22.8929503067
 10
-7.6670441487
 20
22.8905633188
 10
-7.660595068
 20
22.8883482156
 10
-7.6540857325
 20
22.886298293
 10
-7.6475239041
 20
22.8844068469
 10
-7.6409173449
 20
22.8826671731
 10
-7.6342738169
 20
22.8810725673
 10
-7.6276010822
 20
22.8796163256
 10
-7.619234035
 20
22.877982941
 10
-7.610837197
 20
22.8765517649
 10
-7.6024142442
 20
22.8753195338
 10
-7.5939688529
 20
22.8742829846
 10
-7.5855046994
 20
22.8734388539
 10
-7.5770254597
 20
22.8727838786
 10
-7.5685348103
 20
22.8723147952
 10
-7.5600364271
 20
22.8720283405
 10
-7.5515339865
 20
22.8719212512
 10
-7.5430202532
 20
22.8719915303
 10
-7.5345097948
 20
22.8722414839
 10
-7.5260062685
 20
22.8726742319
 10
-7.5175133315
 20
22.8732928945
 10
-7.5090346408
 20
22.8741005919
 10
-7.5005738536
 20
22.8751004441
 10
-7.4921346271
 20
22.8762955714
 10
-7.4837206184
 20
22.8776890938
 10
-7.4753354846
 20
22.8792841315
 10
-7.4686299886
 20
22.8807130007
 10
-7.4619530599
 20
22.8822802958
 10
-7.4553123103
 20
22.8839926274
 10
-7.4487153516
 20
22.885856606
 10
-7.4421697957
 20
22.8878788421
 10
-7.4356832544
 20
22.8900659463
 10
-7.4292633396
 20
22.8924245291
 10
-7.422917663
 20
22.894961201
 10
-7.4166538365
 20
22.8976825726
 10
-7.4104794718
 20
22.9005952544
  0
LWPOLYLINE
  5
351
100
AcDbEntity
  8
RACCORDO
100
AcDbPolyline
 62
7
  6
CONTINUOUS
 90
39
 70
0
 10
-3.2611027348
 20
22.2594824894
 10
-3.2700217775
 20
22.2637688906
 10
-3.2790703622
 20
22.2677836373
 10
-3.2882376522
 20
22.2715360329
 10
-3.297512811
 20
22.275035381
 10
-3.3068850019
 20
22.278290985
 10
-3.316343388
 20
22.2813121484
 10
-3.3258771329
 20
22.2841081748
 10
-3.3354753997
 20
22.2866883677
 10
-3.3451273519
 20
22.2890620305
 10
-3.3548221527
 20
22.2912384669
 10
-3.3669760783
 20
22.2936915534
 10
-3.3791747417
 20
22.2958564921
 10
-3.3914129518
 20
22.2977382359
 10
-3.4036855178
 20
22.2993417378
 10
-3.4159872488
 20
22.3006719508
 10
-3.4283129538
 20
22.3017338277
 10
-3.440657442
 20
22.3025323216
 10
-3.4530155224
 20
22.3030723854
 10
-3.4653820042
 20
22.3033589721
 10
-3.4778444928
 20
22.3033949207
 10
-3.4903052176
 20
22.3031748313
 10
-3.5027591561
 20
22.3026949308
 10
-3.5152012858
 20
22.3019514461
 10
-3.5276265841
 20
22.3009406043
 10
-3.5400300286
 20
22.2996586323
 10
-3.5524065967
 20
22.2981017572
 10
-3.5647512659
 20
22.2962662059
 10
-3.5770590137
 20
22.2941482054
 10
-3.5870345075
 20
22.2922141911
 10
-3.5969726219
 20
22.2900824368
 10
-3.6068637076
 20
22.2877444293
 10
-3.6166981151
 20
22.2851916557
 10
-3.626466195
 20
22.2824156029
 10
-3.6361582978
 20
22.2794077579
 10
-3.6457647743
 20
22.2761596078
 10
-3.6552759749
 20
22.2726626394
 10
-3.6646822504
 20
22.2689083399
 10
-3.6739739511
 20
22.2648881961
  0
LWPOLYLINE
  5
352
100
AcDbEntity
  8
0
100
AcDbPolyline
 62
7
  6
CONTINUOUS
 90
41
 70
0
 10
1.1512576738
 20
20.0303746833
 10
1.1488714954
 20
20.0315224234
 10
1.1464491486
 20
20.0325989122
 10
1.1439929332
 20
20.0336046935
 10
1.1415051491
 20
20.0345403112
 10
1.1389880962
 20
20.0354063093
 10
1.1364440744
 20
20.0362032317
 10
1.1338753835
 20
20.0369316223
 10
1.1312843235
 20
20.0375920249
 10
1.1286731943
 20
20.0381849835
 10
1.1260442957
 20
20.0387110421
 10
1.1233999276
 20
20.0391707444
 10
1.1207423899
 20
20.0395646345
 10
1.1180739825
 20
20.0398932562
 10
1.1153970053
 20
20.0401571535
 10
1.1127137582
 20
20.0403568702
 10
1.1100265411
 20
20.0404929502
 10
1.1073376538
 20
20.0405659376
 10
1.1046493962
 20
20.0405763761
 10
1.1019640683
 20
20.0405248097
 10
1.0992839699
 20
20.0404117823
 10
1.0961991232
 20
20.0402058139
 10
1.0931250542
 20
20.0399208587
 10
1.0900625067
 20
20.0395591097
 10
1.0870122247
 20
20.0391227598
 10
1.0839749519
 20
20.0386140022
 10
1.0809514322
 20
20.0380350296
 10
1.0779424093
 20
20.0373880352
 10
1.0749486273
 20
20.0366752118
 10
1.0719708298
 20
20.0358987525
 10
1.0690097607
 20
20.0350608502
 10
1.0660661639
 20
20.0341636979
 10
1.0631407832
 20
20.0332094886
 10
1.0602343624
 20
20.0322004153
 10
1.0573476454
 20
20.0311386709
 10
1.054481376
 20
20.0300264484
 10
1.0516362981
 20
20.0288659408
 10
1.0488131554
 20
20.0276593411
 10
1.0460126919
 20
20.0264088422
 10
1.0432356513
 20
20.0251166372
 10
1.0404827775
 20
20.0237849189
  0
LWPOLYLINE
  5
353
100
AcDbEntity
  8
0
100
AcDbPolyline
 62
7
  6
CONTINUOUS
 90
41
 70
0
 10
-0.5396218883
 20
20.8758144652
 10
-0.5420080678
 20
20.8769622054
 10
-0.5444304157
 20
20.8780386941
 10
-0.5468866322
 20
20.8790444754
 10
-0.5493744174
 20
20.879980093
 10
-0.5518914714
 20
20.880846091
 10
-0.5544354944
 20
20.8816430131
 10
-0.5570041864
 20
20.8823714034
 10
-0.5595952475
 20
20.8830318058
 10
-0.5622063779
 20
20.8836247641
 10
-0.5648352776
 20
20.8841508222
 10
-0.5674796468
 20
20.8846105241
 10
-0.5701371856
 20
20.8850044137
 10
-0.5728055941
 20
20.8853330349
 10
-0.5754825724
 20
20.8855969316
 10
-0.5781658206
 20
20.8857966477
 10
-0.5808530389
 20
20.8859327271
 10
-0.5835419272
 20
20.8860057137
 10
-0.5862301858
 20
20.8860161515
 10
-0.5889155148
 20
20.8859645844
 10
-0.5915956142
 20
20.8858515562
 10
-0.5946804592
 20
20.8856455871
 10
-0.5977545265
 20
20.8853606313
 10
-0.6008170723
 20
20.8849988818
 10
-0.6038673526
 20
20.8845625315
 10
-0.6069046237
 20
20.8840537735
 10
-0.6099281417
 20
20.8834748007
 10
-0.6129371628
 20
20.8828278061
 10
-0.6159309432
 20
20.8821149827
 10
-0.6189087389
 20
20.8813385234
 10
-0.6218698063
 20
20.8805006212
 10
-0.6248134014
 20
20.8796034691
 10
-0.6277387804
 20
20.8786492601
 10
-0.6306451996
 20
20.877640187
 10
-0.6335319149
 20
20.876578443
 10
-0.6363981827
 20
20.875466221
 10
-0.6392432591
 20
20.8743057139
 10
-0.6420664002
 20
20.8730991147
 10
-0.6448668622
 20
20.8718486164
 10
-0.6476439013
 20
20.870556412
 10
-1.1848466523
 20
20.6088772279
  0
LWPOLYLINE
  5
354
100
AcDbEntity
  8
0
100
AcDbPolyline
 62
7
  6
CONTINUOUS
 90
41
 70
0
 10
-11.1524003189
 20
26.1822036797
 10
-11.1547864973
 20
26.1833514198
 10
-11.1572088441
 20
26.1844279085
 10
-11.1596650595
 20
26.1854336898
 10
-11.1621528436
 20
26.1863693076
 10
-11.1646698965
 20
26.1872353057
 10
-11.1672139183
 20
26.188032228
 10
-11.1697826091
 20
26.1887606186
 10
-11.1723736691
 20
26.1894210212
 10
-11.1749847984
 20
26.1900139798
 10
-11.177613697
 20
26.1905400384
 10
-11.1802580651
 20
26.1909997407
 10
-11.1829156027
 20
26.1913936308
 10
-11.1855840101
 20
26.1917222525
 10
-11.1882609873
 20
26.1919861498
 10
-11.1909442344
 20
26.1921858665
 10
-11.1936314516
 20
26.1923219465
 10
-11.1963203389
 20
26.1923949339
 10
-11.1990085964
 20
26.1924053724
 10
-11.2016939243
 20
26.192353806
 10
-11.2043740227
 20
26.1922407786
 10
-11.2074588695
 20
26.1920348102
 10
-11.2105329385
 20
26.191749855
 10
-11.2135954859
 20
26.191388106
 10
-11.216645768
 20
26.1909517561
 10
-11.2196830408
 20
26.1904429985
 10
-11.2227065605
 20
26.1898640259
 10
-11.2257155833
 20
26.1892170315
 10
-11.2287093654
 20
26.1885042081
 10
-11.2316871628
 20
26.1877277488
 10
-11.2346482319
 20
26.1868898465
 10
-11.2375918287
 20
26.1859926942
 10
-11.2405172094
 20
26.1850384849
 10
-11.2434236302
 20
26.1840294116
 10
-11.2463103472
 20
26.1829676672
 10
-11.2491766166
 20
26.1818554447
 10
-11.2520216945
 20
26.1806949371
 10
-11.2548448372
 20
26.1794883374
 10
-11.2576453007
 20
26.1782378385
 10
-11.2604223413
 20
26.1769456335
 10
-11.2631752151
 20
26.1756139152
  0
LWPOLYLINE
  5
355
100
AcDbEntity
  8
0
100
AcDbPolyline
 62
7
  6
CONTINUOUS
 90
41
 70
0
 10
-5.8507145346
 20
22.2943263024
 10
-5.8529783756
 20
22.2954177984
 10
-5.8552621918
 20
22.2964766808
 10
-5.8575653604
 20
22.2975011035
 10
-5.8598872583
 20
22.2984892206
 10
-5.8622272628
 20
22.2994391859
 10
-5.8645847508
 20
22.3003491535
 10
-5.8669590996
 20
22.3012172774
 10
-5.8693496862
 20
22.3020417114
 10
-5.8717558876
 20
22.3028206097
 10
-5.8741770811
 20
22.3035521261
 10
-5.8766126436
 20
22.3042344147
 10
-5.8790619524
 20
22.3048656294
 10
-5.8815243843
 20
22.3054439241
 10
-5.8839993167
 20
22.3059674529
 10
-5.8864861265
 20
22.3064343698
 10
-5.8889841909
 20
22.3068428287
 10
-5.891492887
 20
22.3071909835
 10
-5.8940115918
 20
22.3074769883
 10
-5.8965396825
 20
22.3076989971
 10
-5.8990765361
 20
22.3078551637
 10
-5.9012743772
 20
22.3079357685
 10
-5.9034763484
 20
22.307965408
 10
-5.9056805049
 20
22.307943631
 10
-5.907884902
 20
22.3078699864
 10
-5.9100875949
 20
22.307744023
 10
-5.9122866389
 20
22.3075652898
 10
-5.9144800894
 20
22.3073333354
 10
-5.9166660015
 20
22.3070477089
 10
-5.9188424306
 20
22.306707959
 10
-5.921007432
 20
22.3063136347
 10
-5.9231590609
 20
22.3058642847
 10
-5.9252953726
 20
22.305359458
 10
-5.9274144224
 20
22.3047987033
 10
-5.9295142655
 20
22.3041815696
 10
-5.9315929573
 20
22.3035076057
 10
-5.933648553
 20
22.3027763605
 10
-5.9356791079
 20
22.3019873828
 10
-5.9376826773
 20
22.3011402214
 10
-5.9396573165
 20
22.3002344253
 10
-5.9416010806
 20
22.2992695433
  0
LWPOLYLINE
  5
356
100
AcDbEntity
  8
0
100
AcDbPolyline
 62
7
  6
CONTINUOUS
 90
41
 70
0
 10
-5.6396181771
 20
22.4032502884
 10
-5.6418150935
 20
22.4043287799
 10
-5.6440312928
 20
22.4053760104
 10
-5.6462662121
 20
22.406390245
 10
-5.6485192887
 20
22.407369749
 10
-5.6507899598
 20
22.4083127873
 10
-5.6530776625
 20
22.4092176251
 10
-5.655381834
 20
22.4100825275
 10
-5.6577019115
 20
22.4109057596
 10
-5.6600373322
 20
22.4116855866
 10
-5.6623875332
 20
22.4124202736
 10
-5.6647519517
 20
22.4131080856
 10
-5.667130025
 20
22.4137472877
 10
-5.6695211901
 20
22.4143361452
 10
-5.6719248844
 20
22.4148729231
 10
-5.6743405448
 20
22.4153558865
 10
-5.6767676087
 20
22.4157833006
 10
-5.6792055133
 20
22.4161534304
 10
-5.6816536956
 20
22.416464541
 10
-5.6841115929
 20
22.4167148976
 10
-5.6865786423
 20
22.4169027654
 10
-5.6887197777
 20
22.4170136551
 10
-5.6908655283
 20
22.4170759932
 10
-5.6930140802
 20
22.4170893012
 10
-5.6951636193
 20
22.4170531008
 10
-5.6973123316
 20
22.4169669135
 10
-5.699458403
 20
22.4168302608
 10
-5.7016000195
 20
22.4166426643
 10
-5.703735367
 20
22.4164036455
 10
-5.7058626316
 20
22.4161127261
 10
-5.7079799992
 20
22.4157694275
 10
-5.7100856557
 20
22.4153732714
 10
-5.712177787
 20
22.4149237792
 10
-5.7142545793
 20
22.4144204726
 10
-5.7163142183
 20
22.413862873
 10
-5.7183548901
 20
22.4132505021
 10
-5.7203747807
 20
22.4125828814
 10
-5.722372076
 20
22.4118595325
 10
-5.7243449619
 20
22.4110799768
 10
-5.7262916244
 20
22.4102437361
 10
-5.7282102494
 20
22.4093503318
  0
LINE
  5
357
100
AcDbEntity
  8
RACCORDO
100
AcDbLine
 62
7
  6
CONTINUOUS
 10
2.5514110686
 20
24.0491065855
 11
2.5420506767
 21
24.053704093
  0
LINE
  5
358
100
AcDbEntity
  8
0
100
AcDbLine
 62
7
  6
CONTINUOUS
 10
-6.0498917832
 20
21.921058717
 11
-6.4985653952
 21
22.145395523
  0
LINE
  5
359
100
AcDbEntity
  8
0
100
AcDbLine
 62
7
  6
CONTINUOUS
 10
1.7434831412
 20
18.0281273759
 11
0.6889893095
 21
18.5553742918
  0
LINE
  5
35A
100
AcDbEntity
  8
0
100
AcDbLine
 62
7
  6
CONTINUOUS
 10
-10.9116757289
 20
24.355706811
 11
-11.6146686832
 21
24.7072032881
  0
LINE
  5
35B
100
AcDbEntity
  8
0
100
AcDbLine
 62
7
  6
CONTINUOUS
 10
-6.4993456799
 20
22.2554691734
 11
-6.0498917832
 21
22.0307422251
  0
LINE
  5
35C
100
AcDbEntity
  8
0
100
AcDbLine
 62
7
  6
CONTINUOUS
 10
-4.5363140648
 20
21.3233253131
 11
-5.9913131394
 21
22.0508248504
  0
LINE
  5
35D
100
AcDbEntity
  8
0
100
AcDbLine
 62
7
  6
CONTINUOUS
 10
-7.6920826809
 20
22.9012096212
 11
-9.3165716443
 21
23.7134541029
  0
LINE
  5
35E
100
AcDbEntity
  8
0
100
AcDbLine
 62
7
  6
CONTINUOUS
 10
-4.2274525567
 20
21.4826953134
 11
-5.8507145346
 21
22.2943263024
  0
LINE
  5
35F
100
AcDbEntity
  8
0
100
AcDbLine
 62
7
  6
CONTINUOUS
 10
-7.5514840761
 20
23.1447110732
 11
-9.1747460541
 21
23.9563420621
  0
LINE
  5
360
100
AcDbEntity
  8
0
100
AcDbLine
 62
7
  6
CONTINUOUS
 10
-9.6347696958
 20
24.4008260478
 11
-7.336670862
 21
23.2517766309
  0
LINE
  5
361
100
AcDbEntity
  8
0
100
AcDbLine
 62
7
  6
CONTINUOUS
 10
-5.6396181771
 20
22.4032502884
 11
-3.3415193433
 21
21.2542008715
  0
LINE
  5
362
100
AcDbEntity
  8
0
100
AcDbLine
 62
7
  6
CONTINUOUS
 10
0.5122156058
 20
19.7603460988
 11
-1.1848466523
 21
20.6088772279
  0
LINE
  5
363
100
AcDbEntity
  8
0
100
AcDbLine
 62
7
  6
CONTINUOUS
 10
-11.7914423869
 20
25.9121750951
 11
-13.4885046449
 21
26.7607062242
  0
LINE
  5
364
100
AcDbEntity
  8
0
100
AcDbLine
 62
7
  6
CONTINUOUS
 10
-8.2947173211
 20
24.418811411
 11
-6.6497690767
 21
23.5963372888
  0
LINE
  5
365
100
AcDbEntity
  8
0
100
AcDbLine
 62
7
  6
CONTINUOUS
 10
-4.9406218421
 20
22.7417636715
 11
-3.2956735977
 21
21.9192895493
  0
LINE
  5
366
100
AcDbEntity
  8
0
100
AcDbLine
 62
7
  6
CONTINUOUS
 10
-12.9567893653
 20
27.0224117077
 11
-11.2631752151
 21
26.1756139152
  0
LINE
  5
367
100
AcDbEntity
  8
0
100
AcDbLine
 62
7
  6
CONTINUOUS
 10
-0.6531504088
 20
20.8705917309
 11
1.0404827775
 21
20.0237849189
  0
LINE
  5
368
100
AcDbEntity
  8
0
100
AcDbLine
 62
7
  6
CONTINUOUS
 10
-12.8432798067
 20
27.0276435819
 11
-11.1524002556
 21
26.1822038063
  0
LINE
  5
369
100
AcDbEntity
  8
0
100
AcDbLine
 62
7
  6
CONTINUOUS
 10
-0.5396218141
 20
20.8758145855
 11
1.1512577371
 21
20.03037481
  0
LINE
  5
36A
100
AcDbEntity
  8
RACCORDO
100
AcDbLine
 62
7
  6
CONTINUOUS
 10
-3.0051859693
 20
22.1315241067
 11
-3.2611027348
 21
22.2594824894
  0
LINE
  5
36B
100
AcDbEntity
  8
RACCORDO
100
AcDbLine
 62
7
  6
CONTINUOUS
 10
-3.2611027348
 20
23.2420671493
 11
-2.5026971362
 21
22.8628643499
  0
LINE
  5
36C
100
AcDbEntity
  8
RACCORDO
100
AcDbLine
 62
7
  6
CONTINUOUS
 10
-3.1586623873
 20
23.4597827327
 11
-2.4002567886
 21
23.0805799334
  0
LINE
  5
36D
100
AcDbEntity
  8
RACCORDO
100
AcDbLine
 62
7
  6
CONTINUOUS
 10
-3.8718494284
 20
24.060134114
 11
-1.4297153967
 21
22.8390670981
  0
LINE
  5
36E
100
AcDbEntity
  8
RACCORDO
100
AcDbLine
 62
7
  6
CONTINUOUS
 10
-0.8223585181
 20
23.1384485209
 11
-2.9021070163
 21
24.17832277
  0
LINE
  5
36F
100
AcDbEntity
  8
RACCORDO
100
AcDbLine
 62
7
  6
CONTINUOUS
 10
-0.7728339409
 20
23.1628604259
 11
-2.8138984157
 21
24.1833926633
  0
LINE
  5
370
100
AcDbEntity
  8
0
100
AcDbLine
 62
7
  6
CONTINUOUS
 10
-2.5178561384
 20
24.5885661745
 11
-0.2156975819
 21
23.4374868962
  0
LINE
  5
371
100
AcDbEntity
  8
0
100
AcDbLine
 62
7
  6
CONTINUOUS
 10
-1.8726674119
 20
25.2647139283
 11
0.7901609288
 21
23.933299758
  0
LINE
  5
372
100
AcDbEntity
  8
0
100
AcDbLine
 62
7
  6
CONTINUOUS
 10
1.9329727259
 20
23.8845100054
 11
1.3165009011
 21
24.1927459177
  0
LINE
  5
373
100
AcDbEntity
  8
0
100
AcDbLine
 62
7
  6
CONTINUOUS
 10
-3.6820744651
 20
26.6920336009
 11
-4.2985462899
 21
27.0002695132
  0
LINE
  5
374
100
AcDbEntity
  8
0
100
AcDbLine
 62
7
  6
CONTINUOUS
 10
2.0915835562
 20
23.9291593319
 11
1.5765954687
 21
24.1866533757
  0
LINE
  5
375
100
AcDbEntity
  8
0
100
AcDbLine
 62
7
  6
CONTINUOUS
 10
-3.5227934708
 20
26.7363478455
 11
-4.0140563056
 21
26.9819792629
  0
LINE
  5
376
100
AcDbEntity
  8
DRAFT
100
AcDbLine
 62
7
  6
CONTINUOUS
 10
8.1685518276
 20
21.1053013418
 11
7.2926742688
 21
21.5432401212
  0
LINE
  5
377
100
AcDbEntity
  8
0
100
AcDbLine
 62
7
  6
CONTINUOUS
 10
2.7877236026
 20
23.9035794807
 11
-0.1186297442
 21
25.3567561541
  0
LINE
  5
378
100
AcDbEntity
  8
RACCORDO
100
AcDbLine
 62
7
  6
CONTINUOUS
 10
2.5471678888
 20
24.0512123925
 11
-0.1188246615
 21
25.3842086677
  0
LINE
  5
379
100
AcDbEntity
  8
0
100
AcDbLine
 62
7
  6
CONTINUOUS
 10
-3.7903369135
 20
27.8198057764
 11
-0.831100974
 21
26.3401878066
  0
LINE
  5
37A
100
AcDbEntity
  8
0
100
AcDbLine
 62
7
  6
CONTINUOUS
 10
3.4193886356
 20
24.2149430018
 11
6.3786245751
 21
22.7353250321
  0
LINE
  5
37B
100
AcDbEntity
  8
0
100
AcDbLine
 62
7
  6
CONTINUOUS
 10
-3.5016857318
 20
27.923389669
 11
-0.3866038225
 21
26.3658487144
  0
LINE
  5
37C
100
AcDbEntity
  8
0
100
AcDbLine
 62
7
  6
CONTINUOUS
 10
3.8610911605
 20
24.2420012229
 11
6.9761730698
 21
22.6844602683
  0
LINE
  5
37D
100
AcDbEntity
  8
0
100
AcDbLine
 62
7
  6
CONTINUOUS
 10
9.1458485714
 20
22.0306172416
 11
8.4388796313
 21
22.3841017117
  0
LINE
  5
37E
100
AcDbEntity
  8
0
100
AcDbLine
 62
7
  6
CONTINUOUS
 10
9.6408233182
 20
22.2781046151
 11
8.9338543781
 21
22.6315890851
  0
LINE
  5
37F
100
AcDbEntity
  8
DRAFT
100
AcDbLine
 62
7
  6
CONTINUOUS
 10
8.6733596058
 20
23.1142347263
 11
8.2347491333
 21
23.3335399625
  0
LINE
  5
380
100
AcDbEntity
  8
RACCORDO
100
AcDbLine
 62
7
  6
CONTINUOUS
 10
12.9032725858
 20
22.8744983517
 11
12.176775197
 21
23.2377470461
  0
LINE
  5
381
100
AcDbEntity
  8
DRAFT
100
AcDbLine
 62
7
  6
CONTINUOUS
 10
12.7204429254
 20
22.9815730345
 11
12.4163235414
 21
23.1336327265
  0
LINE
  5
382
100
AcDbEntity
  8
RACCORDO
100
AcDbLine
 62
7
  6
CONTINUOUS
 10
12.3441995975
 20
22.3941221623
 11
12.4569897727
 21
22.3376603663
  0
LWPOLYLINE
  5
383
100
AcDbEntity
  8
RACCORDO
100
AcDbPolyline
 62
7
  6
CONTINUOUS
 90
58
 70
0
 10
-2.4002567886
 20
23.0805799334
 10
-2.3925280341
 20
23.0766010269
 10
-2.3848775377
 20
23.07241261
 10
-2.3773186233
 20
23.0680155941
 10
-2.3698646147
 20
23.0634108911
 10
-2.3625288358
 20
23.0585994125
 10
-2.3553246105
 20
23.0535820701
 10
-2.3482652627
 20
23.0483597755
 10
-2.3413641162
 20
23.0429334404
 10
-2.3346344949
 20
23.0373039765
 10
-2.3280897226
 20
23.0314722953
 10
-2.3217431233
 20
23.0254393087
 10
-2.3156080208
 20
23.0192059282
 10
-2.3096977389
 20
23.0127730655
 10
-2.3040256016
 20
23.0061416323
 10
-2.2986049327
 20
22.9993125402
 10
-2.2935575236
 20
22.9924423819
 10
-2.2887732192
 20
22.9853919786
 10
-2.2842616947
 20
22.9781693897
 10
-2.2800326252
 20
22.9707826747
 10
-2.2760956859
 20
22.963239893
 10
-2.2724605519
 20
22.9555491041
 10
-2.2691368985
 20
22.9477183673
 10
-2.2661879492
 20
22.9399113018
 10
-2.2635498875
 20
22.9319909362
 10
-2.2612246984
 20
22.9239708274
 10
-2.2592143666
 20
22.9158645319
 10
-2.2575208768
 20
22.9076856064
 10
-2.2561462138
 20
22.8994476076
 10
-2.2550923625
 20
22.8911640921
 10
-2.2543463415
 20
22.8826505349
 10
-2.2539314279
 20
22.874115297
 10
-2.2538404293
 20
22.8655701929
 10
-2.2540661533
 20
22.857027037
 10
-2.2546014073
 20
22.8484976435
 10
-2.2554389989
 20
22.839993827
 10
-2.2565717356
 20
22.8315274018
 10
-2.2580815649
 20
22.8226301814
 10
-2.2599018299
 20
22.8137935827
 10
-2.2620212108
 20
22.8050232455
 10
-2.2644283878
 20
22.7963248096
 10
-2.2671120412
 20
22.7877039148
 10
-2.2700608511
 20
22.7791662007
 10
-2.2732634977
 20
22.7707173072
 10
-2.2771128391
 20
22.7614252124
 10
-2.2812503781
 20
22.7522528487
 10
-2.2856639575
 20
22.7432029592
 10
-2.2903414199
 20
22.7342782869
 10
-2.2952706079
 20
22.7254815747
 10
-2.3004393644
 20
22.7168155656
 10
-2.3058355319
 20
22.7082830025
 10
-2.3114469531
 20
22.6998866285
 10
-2.3172614708
 20
22.6916291864
 10
-2.3232669276
 20
22.6835134194
 10
-2.3294511661
 20
22.6755420703
 10
-2.3358020292
 20
22.6677178821
 10
-2.3423073594
 20
22.6600435977
 10
-2.3489549994
 20
22.6525219603
  0
LWPOLYLINE
  5
384
100
AcDbEntity
  8
RACCORDO
100
AcDbPolyline
 62
7
  6
CONTINUOUS
 90
43
 70
0
 10
-2.5026971362
 20
22.8628643499
 10
-2.4989493484
 20
22.8609345569
 10
-2.495239555
 20
22.8589066567
 10
-2.4915715586
 20
22.8567821293
 10
-2.4879491615
 20
22.854562455
 10
-2.4843761662
 20
22.8522491137
 10
-2.4808563753
 20
22.8498435856
 10
-2.4773935911
 20
22.8473473509
 10
-2.4739916163
 20
22.8447618896
 10
-2.4706542532
 20
22.8420886819
 10
-2.4673853043
 20
22.8393292079
 10
-2.4641885721
 20
22.8364849476
 10
-2.4610678591
 20
22.8335573813
 10
-2.4580269677
 20
22.830547989
 10
-2.4550697004
 20
22.8274582508
 10
-2.4521998598
 20
22.8242896468
 10
-2.4494212481
 20
22.8210436573
 10
-2.4467376681
 20
22.8177217622
 10
-2.444152922
 20
22.8143254417
 10
-2.4416708124
 20
22.8108561759
 10
-2.4392951418
 20
22.8073154449
 10
-2.4370297126
 20
22.8037047289
 10
-2.4349321994
 20
22.8001225714
 10
-2.4329423086
 20
22.7964791299
 10
-2.4310594815
 20
22.7927781037
 10
-2.4292831594
 20
22.7890231921
 10
-2.4276127836
 20
22.7852180944
 10
-2.4260477953
 20
22.7813665097
 10
-2.4245876359
 20
22.7774721375
 10
-2.4232317467
 20
22.7735386769
 10
-2.4219795688
 20
22.7695698273
 10
-2.4208305437
 20
22.7655692879
 10
-2.4197841126
 20
22.761540758
 10
-2.4188397167
 20
22.7574879369
 10
-2.4179967975
 20
22.7534145237
 10
-2.417254796
 20
22.7493242179
 10
-2.4166131537
 20
22.7452207187
 10
-2.4160713119
 20
22.7411077254
 10
-2.4156287117
 20
22.7369889371
 10
-2.4152847945
 20
22.7328680533
 10
-2.4150390016
 20
22.7287487732
 10
-2.4148907743
 20
22.724634796
 10
-2.4148395538
 20
22.720529821
  0
LWPOLYLINE
  5
385
100
AcDbEntity
  8
0
100
AcDbPolyline
 62
7
  6
CONTINUOUS
 90
44
 70
0
 10
-11.2631752151
 20
26.1756139152
 10
-11.2569181729
 20
26.1723895407
 10
-11.2507670299
 20
26.1689600457
 10
-11.2447223913
 20
26.1653348948
 10
-11.2387848621
 20
26.1615235524
 10
-11.2329550473
 20
26.1575354831
 10
-11.227233552
 20
26.1533801513
 10
-11.2216209813
 20
26.1490670217
 10
-11.2161179401
 20
26.1446055587
 10
-11.2107250336
 20
26.1400052268
 10
-11.2054428668
 20
26.1352754905
 10
-11.2002720448
 20
26.1304258144
 10
-11.1952131726
 20
26.1254656629
 10
-11.1885687458
 20
26.1186156264
 10
-11.1821276452
 20
26.1115892516
 10
-11.1758884961
 20
26.1043939063
 10
-11.169849924
 20
26.0970369582
 10
-11.1640105544
 20
26.0895257749
 10
-11.1583690126
 20
26.0818677242
 10
-11.1529239242
 20
26.0740701735
 10
-11.1476739145
 20
26.0661404907
 10
-11.142617609
 20
26.0580860435
 10
-11.1377536331
 20
26.0499141993
 10
-11.1329680651
 20
26.0414250227
 10
-11.1283868058
 20
26.032824164
 10
-11.1240136246
 20
26.0241154928
 10
-11.1198522909
 20
26.0153028786
 10
-11.1159065741
 20
26.0063901911
 10
-11.1121802437
 20
25.9973812996
 10
-11.108677069
 20
25.9882800739
 10
-11.1054008195
 20
25.9790903835
 10
-11.1023552646
 20
25.9698160979
 10
-11.0995441737
 20
25.9604610866
 10
-11.0973486708
 20
25.9524718073
 10
-11.095331573
 20
25.9444326847
 10
-11.0935001262
 20
25.9363490932
 10
-11.0918615765
 20
25.9282264068
 10
-11.09042317
 20
25.9200699998
 10
-11.0891921525
 20
25.9118852462
 10
-11.0881757701
 20
25.9036775203
 10
-11.0873812688
 20
25.8954521962
 10
-11.0868158946
 20
25.8872146481
 10
-11.0864868935
 20
25.8789702501
 10
-11.0864015114
 20
25.8707243764
  0
LWPOLYLINE
  5
386
100
AcDbEntity
  8
0
100
AcDbPolyline
 62
7
  6
CONTINUOUS
 90
44
 70
0
 10
1.0404827775
 20
20.0237849189
 10
1.0467398197
 20
20.0205605444
 10
1.0528909627
 20
20.0171310494
 10
1.0589356013
 20
20.0135058984
 10
1.0648731305
 20
20.009694556
 10
1.0707029453
 20
20.0057064867
 10
1.0764244406
 20
20.001551155
 10
1.0820370114
 20
19.9972380253
 10
1.0875400525
 20
19.9927765623
 10
1.092932959
 20
19.9881762304
 10
1.0982151258
 20
19.9834464941
 10
1.1033859479
 20
19.978596818
 10
1.1084448201
 20
19.9736366665
 10
1.1150892469
 20
19.96678663
 10
1.1215303475
 20
19.9597602552
 10
1.1277694966
 20
19.9525649099
 10
1.1338080687
 20
19.9452079618
 10
1.1396474383
 20
19.9376967785
 10
1.1452889801
 20
19.9300387278
 10
1.1507340685
 20
19.9222411771
 10
1.1559840782
 20
19.9143114944
 10
1.1610403837
 20
19.9062570471
 10
1.1659043596
 20
19.8980852029
 10
1.1706899276
 20
19.8895960263
 10
1.1752711869
 20
19.8809951676
 10
1.1796443681
 20
19.8722864964
 10
1.1838057018
 20
19.8634738823
 10
1.1877514186
 20
19.8545611947
 10
1.191477749
 20
19.8455523033
 10
1.1949809237
 20
19.8364510776
 10
1.1982571732
 20
19.8272613872
 10
1.2013027281
 20
19.8179871015
 10
1.204113819
 20
19.8086320903
 10
1.2063093219
 20
19.8006428109
 10
1.2083264197
 20
19.7926036884
 10
1.2101578665
 20
19.7845200969
 10
1.2117964162
 20
19.7763974105
 10
1.2132348227
 20
19.7682410035
 10
1.2144658402
 20
19.7600562499
 10
1.2154822226
 20
19.751848524
 10
1.2162767239
 20
19.7436231999
 10
1.2168420981
 20
19.7353856517
 10
1.2171710992
 20
19.7271412537
 10
1.2172564812
 20
19.71889538
  0
LWPOLYLINE
  5
387
100
AcDbEntity
  8
DRAFT
100
AcDbPolyline
 62
7
  6
CONTINUOUS
 90
15
 70
0
 10
12.7204429254
 20
22.9815730345
 10
12.7026918835
 20
22.9918514462
 10
12.6848532809
 20
23.0019777954
 10
12.6669296261
 20
23.0119545961
 10
12.6489234279
 20
23.021784362
 10
12.6261536995
 20
23.0339473359
 10
12.6032621052
 20
23.0458846256
 10
12.5802534897
 20
23.0575993513
 10
12.5571326977
 20
23.0690946329
 10
12.5339045739
 20
23.0803735907
 10
12.5105739629
 20
23.0914393448
 10
12.4871457094
 20
23.1022950153
 10
12.4636246582
 20
23.1129437223
 10
12.440015654
 20
23.123388586
 10
12.4163235414
 20
23.1336327265
  0
LWPOLYLINE
  5
388
100
AcDbEntity
  8
RACCORDO
100
AcDbPolyline
 62
7
  6
CONTINUOUS
 90
59
 70
0
 10
17.5250855341
 20
21.2806447417
 10
17.6120525819
 20
21.2233457023
 10
17.6969755634
 20
21.1629307043
 10
17.7798431309
 20
21.0995893701
 10
17.8606439371
 20
21.0335113219
 10
17.9393666346
 20
20.9648861822
 10
18.015999876
 20
20.8939035731
 10
18.0905323138
 20
20.8207531171
 10
18.1682572468
 20
20.7399430293
 10
18.2435593734
 20
20.6569538955
 10
18.3164537915
 20
20.5718899921
 10
18.3869555986
 20
20.4848555956
 10
18.4550798925
 20
20.3959549826
 10
18.5208417709
 20
20.3052924295
 10
18.5842563316
 20
20.2129722127
 10
18.6575048819
 20
20.0997523909
 10
18.7273315754
 20
19.9843908007
 10
18.7936955362
 20
19.8669975939
 10
18.8565558889
 20
19.7476829219
 10
18.9158717578
 20
19.6265569363
 10
18.9716022671
 20
19.5037297888
 10
19.0159013147
 20
19.3985985559
 10
19.0575379471
 20
19.29238664
 10
19.0964436873
 20
19.1851514485
 10
19.1325500587
 20
19.0769503888
 10
19.1657885843
 20
18.9678408681
 10
19.1960907875
 20
18.8578802939
 10
19.2233881913
 20
18.7471260734
 10
19.2463534248
 20
18.641769509
 10
19.2664460527
 20
18.5358224506
 10
19.283538988
 20
18.4293521249
 10
19.2975051441
 20
18.3224257587
 10
19.3082174341
 20
18.2151105788
 10
19.3155487714
 20
18.1074738119
 10
19.319372069
 20
17.999582685
 10
19.3198117766
 20
17.9131172702
 10
19.3178133628
 20
17.8266443749
 10
19.3132666681
 20
17.7402763602
 10
19.3060615335
 20
17.6541255871
 10
19.2960877997
 20
17.5683044167
 10
19.2832353074
 20
17.4829252101
 10
19.2673938974
 20
17.3981003285
 10
19.2484534104
 20
17.3139421328
 10
19.2279544718
 20
17.2363724877
 10
19.20456973
 20
17.1596348955
 10
19.1781898125
 20
17.083887426
 10
19.148705347
 20
17.0092881493
 10
19.1174911274
 20
16.9391356545
 10
19.0832827439
 20
16.8703856395
 10
19.046028939
 20
16.8032444721
 10
19.0056784554
 20
16.7379185199
 10
18.9637467256
 20
16.6767732871
 10
18.9188906649
 20
16.6177334044
 10
18.871119916
 20
16.5610200439
 10
18.8204441219
 20
16.506854378
 10
18.7680110217
 20
16.45647019
 10
18.7129584754
 20
16.4089592314
 10
18.6554464166
 20
16.3645368169
 10
18.5956347794
 20
16.3234182613
  0
LWPOLYLINE
  5
389
100
AcDbEntity
  8
RACCORDO
100
AcDbPolyline
 62
7
  6
CONTINUOUS
 90
28
 70
0
 10
17.5249116863
 20
21.9124413117
 10
17.5245223704
 20
21.9487000113
 10
17.5233615748
 20
21.9849602617
 10
17.5214400274
 20
22.0212074548
 10
17.5187684563
 20
22.0574269826
 10
17.5153575893
 20
22.0936042371
 10
17.5112181546
 20
22.1297246105
 10
17.50636088
 20
22.1657734947
 10
17.5007964935
 20
22.2017362818
 10
17.4945357231
 20
22.2375983638
 10
17.4875892968
 20
22.2733451327
 10
17.4799679426
 20
22.3089619805
 10
17.4716823884
 20
22.3444342993
 10
17.4627433623
 20
22.3797474811
 10
17.4531615921
 20
22.414886918
 10
17.4419092192
 20
22.4532643477
 10
17.4299040682
 20
22.4914016303
 10
17.4171557506
 20
22.5292858253
 10
17.4036738779
 20
22.5669039924
 10
17.3894680617
 20
22.6042431911
 10
17.3745479135
 20
22.6412904811
 10
17.3589230448
 20
22.6780329219
 10
17.3426030671
 20
22.7144575732
 10
17.3255975919
 20
22.7505514946
 10
17.3079162307
 20
22.7863017457
 10
17.2895685951
 20
22.821695386
 10
17.2705642965
 20
22.8567194753
 10
17.2509129466
 20
22.8913610731
  0
LINE
  5
38A
100
AcDbEntity
  8
RACCORDO
100
AcDbLine
 62
7
  6
CONTINUOUS
 10
17.5249113225
 20
15.6685452159
 11
17.5249116481
 21
15.6680861482
  0
LINE
  5
38B
100
AcDbEntity
  8
RACCORDO
100
AcDbLine
 62
7
  6
CONTINUOUS
 10
17.2723175066
 20
21.599845045
 11
17.2723175066
 21
17.6249527404
  0
LINE
  5
38C
100
AcDbEntity
  8
RACCORDO
100
AcDbLine
 62
7
  6
CONTINUOUS
 10
17.2723175066
 20
15.9244900516
 11
17.2723175066
 21
-9.0082170246
  0
LINE
  5
38D
100
AcDbEntity
  8
RACCORDO
100
AcDbLine
 62
7
  6
CONTINUOUS
 10
17.5249116863
 20
21.9124413117
 11
17.5249116863
 21
18.506755865
  0
LINE
  5
38E
100
AcDbEntity
  8
RACCORDO
100
AcDbLine
 62
7
  6
CONTINUOUS
 10
17.5249116863
 20
15.6677951956
 11
17.5249116863
 21
-8.6956207579
  0
LINE
  5
38F
100
AcDbEntity
  8
RACCORDO
100
AcDbLine
 62
7
  6
CONTINUOUS
 10
17.5249115362
 20
18.5057373623
 11
17.5249114484
 21
18.5054897822
  0
LWPOLYLINE
  5
390
100
AcDbEntity
  8
RACCORDO
100
AcDbPolyline
 62
7
  6
CONTINUOUS
 90
46
 70
0
 10
17.5249119827
 20
18.5054906256
 10
17.5246092241
 20
18.4636249073
 10
17.5237297131
 20
18.4217601646
 10
17.5222635368
 20
18.3799080079
 10
17.5202007822
 20
18.3380800475
 10
17.5175315363
 20
18.296287894
 10
17.5142458863
 20
18.2545431577
 10
17.5103334242
 20
18.212887919
 10
17.5057641783
 20
18.1713035941
 10
17.500506768
 20
18.1298021552
 10
17.4961001114
 20
18.0987969615
 10
17.4912661303
 20
18.0678546097
 10
17.4859807196
 20
18.0369847851
 10
17.4802197741
 20
18.0061971727
 10
17.475274819
 20
17.9817558478
 10
17.4699829708
 20
17.9573871138
 10
17.4643139472
 20
17.9331053285
 10
17.4582374656
 20
17.9089248495
 10
17.4517232435
 20
17.8848600345
 10
17.4459876907
 20
17.8650818125
 10
17.4398964458
 20
17.8454108727
 10
17.433413133
 20
17.825865788
 10
17.4265929311
 20
17.8067240988
 10
17.4193019196
 20
17.7877562889
 10
17.411486438
 20
17.7689956171
 10
17.4054102016
 20
17.7554443561
 10
17.3989784493
 20
17.7420585603
 10
17.3921442041
 20
17.7288753986
 10
17.3848604892
 20
17.7159320404
 10
17.3790451196
 20
17.7063650173
 10
17.3729148656
 20
17.6969954714
 10
17.36643666
 20
17.6878636508
 10
17.3595774358
 20
17.679009804
 10
17.3523041257
 20
17.6704741794
 10
17.346593151
 20
17.6643479076
 10
17.34062052
 20
17.6584718178
 10
17.3343730655
 20
17.6528968855
 10
17.3278376199
 20
17.6476740856
 10
17.3210010162
 20
17.6428543936
 10
17.3138500869
 20
17.6384887844
 10
17.3073448159
 20
17.635087062
 10
17.3006253529
 20
17.6321018752
 10
17.2937272941
 20
17.6295645367
 10
17.2866862359
 20
17.6275063595
 10
17.2795377746
 20
17.6259586564
 10
17.2723175066
 20
17.6249527404
  0
LWPOLYLINE
  5
391
100
AcDbEntity
  8
RACCORDO
100
AcDbPolyline
 62
7
  6
CONTINUOUS
 90
43
 70
0
 10
17.5249085088
 20
-8.6956207581
 10
17.524763233
 20
-8.7035741342
 10
17.524327336
 20
-8.7115282366
 10
17.5236071129
 20
-8.719473005
 10
17.5226088592
 20
-8.7273983787
 10
17.5213388702
 20
-8.7352942976
 10
17.5198034412
 20
-8.743150701
 10
17.5180088676
 20
-8.7509575287
 10
17.5159614447
 20
-8.7587047201
 10
17.5136674679
 20
-8.7663822148
 10
17.5111332324
 20
-8.7739799525
 10
17.5083650336
 20
-8.7814878727
 10
17.5050605084
 20
-8.78962656
 10
17.5014922805
 20
-8.7976437144
 10
17.497671692
 20
-8.805538465
 10
17.493610085
 20
-8.8133099411
 10
17.4893188013
 20
-8.8209572718
 10
17.4848091831
 20
-8.8284795863
 10
17.4800925723
 20
-8.8358760138
 10
17.475180311
 20
-8.8431456834
 10
17.4700837411
 20
-8.8502877243
 10
17.4648142046
 20
-8.8573012657
 10
17.4593830437
 20
-8.8641854367
 10
17.4522993933
 20
-8.8727053293
 10
17.4449872722
 20
-8.8810212423
 10
17.4374585296
 20
-8.8891374682
 10
17.4297250152
 20
-8.8970582991
 10
17.4217985784
 20
-8.9047880273
 10
17.4136910687
 20
-8.9123309451
 10
17.4054143356
 20
-8.9196913448
 10
17.3969802285
 20
-8.9268735186
 10
17.388400597
 20
-8.9338817587
 10
17.3796872905
 20
-8.9407203575
 10
17.36953531
 20
-8.9483657744
 10
17.3592311534
 20
-8.9557984817
 10
17.3487831371
 20
-8.9630235996
 10
17.3381995771
 20
-8.9700462483
 10
17.3274887897
 20
-8.9768715482
 10
17.316659091
 20
-8.9835046194
 10
17.3057187972
 20
-8.9899505822
 10
17.2946762243
 20
-8.9962145569
 10
17.2835396888
 20
-9.0023016637
 10
17.2723175066
 20
-9.0082170228
  0
LWPOLYLINE
  5
392
100
AcDbEntity
  8
RACCORDO
100
AcDbPolyline
 62
7
  6
CONTINUOUS
 90
43
 70
0
 10
17.5249114776
 20
21.9124413117
 10
17.5247636763
 20
21.9044879701
 10
17.5243260379
 20
21.8965339114
 10
17.523604758
 20
21.8885891938
 10
17.5226060327
 20
21.8806638756
 10
17.5213360577
 20
21.8727680153
 10
17.5198010288
 20
21.8649116712
 10
17.5180071419
 20
21.8571049015
 10
17.5159605929
 20
21.8493577647
 10
17.5136675775
 20
21.8416803191
 10
17.5111342917
 20
21.834082623
 10
17.5083669313
 20
21.8265747348
 10
17.5050632239
 20
21.8184363462
 10
17.5014956022
 20
21.8104194743
 10
17.4976754324
 20
21.8025249963
 10
17.4936140808
 20
21.7947537892
 10
17.4893229136
 20
21.78710673
 10
17.484813297
 20
21.7795846959
 10
17.4800965972
 20
21.7721885638
 10
17.4751841806
 20
21.7649192109
 10
17.4700874133
 20
21.7577775143
 10
17.4648176616
 20
21.7507643509
 10
17.4593862917
 20
21.7438805979
 10
17.4523007822
 20
21.7353593844
 10
17.4449867544
 20
21.7270422914
 10
17.4374560702
 20
21.7189249992
 10
17.4297205919
 20
21.7110031879
 10
17.4217921815
 20
21.7032725379
 10
17.4136827012
 20
21.6957287294
 10
17.405404013
 20
21.6883674426
 10
17.396967979
 20
21.6811843578
 10
17.3883864614
 20
21.6741751552
 10
17.3796713223
 20
21.6673355149
 10
17.3695206046
 20
21.659691209
 10
17.3592178695
 20
21.6522593791
 10
17.3487714016
 20
21.6450349516
 10
17.3381894853
 20
21.638012853
 10
17.3274804052
 20
21.6311880096
 10
17.3166524459
 20
21.6245553478
 10
17.3057138918
 20
21.6181097941
 10
17.2946730276
 20
21.6118462748
 10
17.2835381376
 20
21.6057597163
 10
17.2723175066
 20
21.599845045
  0
LINE
  5
393
100
AcDbEntity
  8
ASSI
100
AcDbLine
 62
7
  6
CONTINUOUS
 10
7.3294958228
 20
-15.3881898455
 11
7.3293436643
 21
-15.3899138267
  0
LINE
  5
394
100
AcDbEntity
  8
RACCORDO
100
AcDbLine
 62
7
  6
CONTINUOUS
 10
-2.4151767216
 20
22.7155759481
 11
-2.4167597157
 21
22.7077588705
  0
LINE
  5
395
100
AcDbEntity
  8
RACCORDO
100
AcDbLine
 62
7
  6
CONTINUOUS
 10
-19.1911166101
 20
21.9142694597
 11
-19.2203144428
 21
21.8287329418
  0
LINE
  5
396
100
AcDbEntity
  8
RACCORDO
100
AcDbLine
 62
7
  6
CONTINUOUS
 10
-5.4517448915
 20
-23.7399141085
 11
-5.3858495021
 21
-23.7404605263
  0
LWPOLYLINE
  5
397
100
AcDbEntity
  8
0
100
AcDbPolyline
 62
7
  6
CONTINUOUS
 90
37
 70
0
 10
-12.8532215403
 20
27.0319174178
 10
-12.8557539547
 20
27.032795647
 10
-12.8583132516
 20
27.0336000746
 10
-12.8608972812
 20
27.0343316219
 10
-12.8635038934
 20
27.0349912102
 10
-12.8661309385
 20
27.035579761
 10
-12.8687762663
 20
27.0360981955
 10
-12.8714377269
 20
27.0365474353
 10
-12.8741131705
 20
27.0369284016
 10
-12.876800447
 20
27.0372420159
 10
-12.8794974065
 20
27.0374891995
 10
-12.8822018991
 20
27.0376708738
 10
-12.8849117748
 20
27.0377879602
 10
-12.8876248836
 20
27.03784138
 10
-12.8903390756
 20
27.0378320547
 10
-12.8930522009
 20
27.0377609055
 10
-12.8957621095
 20
27.037628854
 10
-12.8984666514
 20
27.0374368214
 10
-12.9011636768
 20
27.0371857291
 10
-12.9042442286
 20
27.0368264861
 10
-12.9073114396
 20
27.0363929139
 10
-12.9103646754
 20
27.0358871042
 10
-12.9134033016
 20
27.0353111484
 10
-12.9164266836
 20
27.034667138
 10
-12.9194341872
 20
27.0339571647
 10
-12.9224251777
 20
27.0331833199
 10
-12.9253990209
 20
27.0323476953
 10
-12.9283550821
 20
27.0314523822
 10
-12.9312927271
 20
27.0304994723
 10
-12.9342113213
 20
27.029491057
 10
-12.9371102303
 20
27.028429228
 10
-12.9399888197
 20
27.0273160768
 10
-12.9428464549
 20
27.0261536949
 10
-12.9456825017
 20
27.0249441738
 10
-12.9484963255
 20
27.023689605
 10
-12.9512872918
 20
27.0223920802
 10
-13.4885046449
 20
26.7607062242
  0
LINE
  5
398
100
AcDbEntity
  8
RACCORDO
100
AcDbLine
 62
7
  6
CONTINUOUS
 10
2.6434197551
 20
24.0119166624
 11
2.6063796408
 21
24.0253237106
  0
LINE
  5
399
100
AcDbEntity
  8
RACCORDO
100
AcDbLine
 62
7
  6
CONTINUOUS
 10
2.6063796408
 20
24.0253237106
 11
2.5757271218
 21
24.0378977977
  0
LINE
  5
39A
100
AcDbEntity
  8
DRAFT
100
AcDbLine
 62
7
  6
CONTINUOUS
 10
15.1150429591
 20
23.6133594463
 11
12.0028053863
 21
25.1694782327
  0
LINE
  5
39B
100
AcDbEntity
  8
RACCORDO
100
AcDbLine
 62
7
  6
CONTINUOUS
 10
16.5138108118
 20
23.4951775529
 11
15.7081388757
 21
23.8980135209
  0
LINE
  5
39C
100
AcDbEntity
  8
RACCORDO
100
AcDbLine
 62
7
  6
CONTINUOUS
 10
11.0064757966
 20
26.2488450604
 11
10.0353169629
 21
26.7344244773
  0
LINE
  5
39D
100
AcDbEntity
  8
RACCORDO
100
AcDbLine
 62
7
  6
CONTINUOUS
 10
16.8440861893
 20
23.545859657
 11
16.0183272892
 21
23.9587391071
  0
LINE
  5
39E
100
AcDbEntity
  8
RACCORDO
100
AcDbLine
 62
7
  6
CONTINUOUS
 10
11.4790585681
 20
26.2283734676
 11
10.4267025554
 21
26.7545514739
  0
LWPOLYLINE
  5
39F
100
AcDbEntity
  8
RACCORDO
100
AcDbPolyline
 62
7
  6
CONTINUOUS
 90
30
 70
0
 10
16.8460142355
 20
23.5448782379
 10
16.8483866416
 20
23.543659704
 10
16.8507380175
 20
23.5423962695
 10
16.8530671256
 20
23.5410882443
 10
16.8553727285
 20
23.5397359381
 10
16.8576535888
 20
23.5383396609
 10
16.859908469
 20
23.5368997224
 10
16.8621361317
 20
23.5354164326
 10
16.8643353394
 20
23.5338901011
 10
16.8665048548
 20
23.5323210379
 10
16.8686434403
 20
23.5307095527
 10
16.8707498585
 20
23.5290559555
 10
16.872822872
 20
23.527360556
 10
16.8748612433
 20
23.5256236641
 10
16.8768637351
 20
23.5238455895
 10
16.8788291097
 20
23.5220266422
 10
16.8808750103
 20
23.5200501756
 10
16.8828771708
 20
23.5180293914
 10
16.8848351315
 20
23.5159657447
 10
16.8867484325
 20
23.5138606903
 10
16.8886166142
 20
23.5117156831
 10
16.8904392167
 20
23.5095321782
 10
16.8922157804
 20
23.5073116303
 10
16.8939458455
 20
23.5050554945
 10
16.8956289522
 20
23.5027652256
 10
16.8972646407
 20
23.5004422786
 10
16.8988524514
 20
23.4980881083
 10
16.9003919244
 20
23.4957041698
 10
16.9018826
 20
23.4932919179
 10
16.9033240185
 20
23.4908528075
  0
LINE
  5
3A0
100
AcDbEntity
  8
RACCORDO
100
AcDbLine
 62
7
  6
CONTINUOUS
 10
-2.4167597157
 20
22.7077588705
 11
-2.420182076
 21
22.6974872633
  0
LWPOLYLINE
  5
3A1
100
AcDbEntity
  8
0
100
AcDbPolyline
 62
7
  6
CONTINUOUS
 90
48
 70
0
 10
-13.215949474
 20
24.4645896187
 10
-13.2187271482
 20
24.4576096544
 10
-13.2216753014
 20
24.4506920426
 10
-13.2247936471
 20
24.4438430024
 10
-13.228081899
 20
24.4370687531
 10
-13.2315397704
 20
24.4303755138
 10
-13.235166975
 20
24.4237695039
 10
-13.2389632264
 20
24.4172569426
 10
-13.2429282379
 20
24.410844049
 10
-13.2470617233
 20
24.4045370424
 10
-13.2513633959
 20
24.398342142
 10
-13.2558329695
 20
24.392265567
 10
-13.2598003309
 20
24.3871525014
 10
-13.2638903289
 20
24.3821365819
 10
-13.2681022732
 20
24.3772233177
 10
-13.2724354736
 20
24.3724182177
 10
-13.2768892399
 20
24.3677267911
 10
-13.281462882
 20
24.363154547
 10
-13.2861557096
 20
24.3587069945
 10
-13.2909670325
 20
24.3543896427
 10
-13.2958961605
 20
24.3502080006
 10
-13.3009424034
 20
24.3461675774
 10
-13.3061050711
 20
24.3422738822
 10
-13.3113834732
 20
24.338532424
 10
-13.3163321696
 20
24.3352353757
 10
-13.3213744884
 20
24.332077813
 10
-13.3265070118
 20
24.3290661621
 10
-13.3317263221
 20
24.3262068493
 10
-13.3370290013
 20
24.323506301
 10
-13.3424116319
 20
24.3209709434
 10
-13.3478707959
 20
24.3186072028
 10
-13.3534030757
 20
24.3164215055
 10
-13.3590050534
 20
24.3144202778
 10
-13.3646733113
 20
24.3126099461
 10
-13.3704044316
 20
24.3109969365
 10
-13.3761949965
 20
24.3095876754
 10
-13.3816784444
 20
24.3084557837
 10
-13.3872026226
 20
24.3075108632
 10
-13.3927589328
 20
24.3067548383
 10
-13.398338777
 20
24.3061896334
 10
-13.4039335568
 20
24.3058171729
 10
-13.4095346743
 20
24.3056393812
 10
-13.4151335312
 20
24.3056581827
 10
-13.4207215293
 20
24.3058755018
 10
-13.4262900705
 20
24.306293263
 10
-13.4318305566
 20
24.3069133905
 10
-13.4373343894
 20
24.3077378088
 10
-13.4427929708
 20
24.3087684423
  0
LINE
  5
3A2
100
AcDbEntity
  8
RACCORDO
100
AcDbLine
 62
7
  6
CONTINUOUS
 10
-19.1557811266
 20
21.9984095422
 11
-19.1911166101
 21
21.9142694597
  0
LINE
  5
3A3
100
AcDbEntity
  8
RACCORDO
100
AcDbLine
 62
7
  6
CONTINUOUS
 10
-5.3858495021
 20
-23.7404605263
 11
-5.3191419744
 21
-23.7351167407
  0
LINE
  5
3A4
100
AcDbEntity
  8
0
100
AcDbLine
 62
7
  6
CONTINUOUS
 10
-1.1391349749
 20
18.1569394616
 11
-0.514837089
 21
18.0265854838
  0
LINE
  5
3A5
100
AcDbEntity
  8
0
100
AcDbLine
 62
7
  6
CONTINUOUS
 10
-0.9122914814
 20
18.3127606224
 11
-0.2010708733
 21
18.1642570995
  0
LINE
  5
3A6
100
AcDbEntity
  8
0
100
AcDbLine
 62
7
  6
CONTINUOUS
 10
10.0905679796
 20
22.1563567819
 11
9.6408233182
 21
22.2781046151
  0
LWPOLYLINE
  5
3A7
100
AcDbEntity
  8
RACCORDO
100
AcDbPolyline
 62
7
  6
CONTINUOUS
 90
36
 70
0
 10
11.4115299177
 20
22.8443183137
 10
11.3355672576
 20
22.8649329385
 10
11.2591930498
 20
22.8840291063
 10
11.1824507297
 20
22.9016434531
 10
11.1053837327
 20
22.917812615
 10
11.0280354944
 20
22.9325732279
 10
10.9271067982
 20
22.9497140982
 10
10.8258277009
 20
22.9645830262
 10
10.7242498497
 20
22.9772275045
 10
10.6224248916
 20
22.9876950255
 10
10.5182398257
 20
22.9961813651
 10
10.4138977861
 20
23.0024634968
 10
10.3094456292
 20
23.0065578694
 10
10.2049302113
 20
23.0084809316
 10
10.1002059647
 20
23.0082421152
 10
9.9955103835
 20
23.0058293454
 10
9.8908885982
 20
23.001231458
 10
9.7863857393
 20
22.9944372887
 10
9.6838282774
 20
22.9856029146
 10
9.5814814209
 20
22.9745950333
 10
9.4793972726
 20
22.9613728493
 10
9.3776279354
 20
22.9458955675
 10
9.2798124516
 20
22.9287858865
 10
9.1824087531
 20
22.9094711648
 10
9.0854872304
 20
22.8878825742
 10
8.9891182739
 20
22.8639512862
 10
8.9165062822
 20
22.8442106835
 10
8.8442994271
 20
22.8230330349
 10
8.7725451301
 20
22.8003660442
 10
8.7012908127
 20
22.7761574156
 10
8.6305838963
 20
22.7503548528
 10
8.5652211417
 20
22.7248206072
 10
8.5004578761
 20
22.6977967465
 10
8.4363768184
 20
22.6692238675
 10
8.3730606875
 20
22.6390425674
 10
8.3105922025
 20
22.6071934431
  0
LINE
  5
3A8
100
AcDbEntity
  8
RACCORDO
100
AcDbLine
 62
7
  6
CONTINUOUS
 10
2.734732896
 20
23.9851391504
 11
2.6862444681
 21
23.9983758624
  0
LWPOLYLINE
  5
3A9
100
AcDbEntity
  8
RACCORDO
100
AcDbPolyline
 62
7
  6
CONTINUOUS
 90
36
 70
0
 10
11.4836192901
 20
22.8231768381
 10
11.4815304075
 20
22.8237798758
 10
11.4794239379
 20
22.8243245991
 10
11.4773014191
 20
22.8248118792
 10
11.4751643885
 20
22.8252425873
 10
11.4730143839
 20
22.8256175946
 10
11.4708529429
 20
22.8259377724
 10
11.4686816032
 20
22.8262039919
 10
11.4665019024
 20
22.8264171242
 10
11.4643153781
 20
22.8265780407
 10
11.4621235681
 20
22.8266876125
 10
11.45992801
 20
22.8267467109
 10
11.4577302414
 20
22.8267562071
 10
11.4555318
 20
22.8267169722
 10
11.4533342234
 20
22.8266298776
 10
11.4511390494
 20
22.8264957944
 10
11.4489478154
 20
22.8263155939
 10
11.4467620592
 20
22.8260901473
 10
11.4445833185
 20
22.8258203258
 10
11.4419565315
 20
22.8254355273
 10
11.4393427403
 20
22.8249887541
 10
11.4367424016
 20
22.8244818085
 10
11.4341559721
 20
22.8239164929
 10
11.4315839087
 20
22.8232946095
 10
11.4290266682
 20
22.8226179607
 10
11.4264847072
 20
22.8218883488
 10
11.4239584826
 20
22.8211075762
 10
11.4214484511
 20
22.8202774452
 10
11.4189550696
 20
22.8193997581
 10
11.4164787947
 20
22.8184763173
 10
11.4140200833
 20
22.8175089251
 10
11.4115793921
 20
22.8164993838
 10
11.4091571779
 20
22.8154494958
 10
11.4067538974
 20
22.8143610633
 10
11.4043700075
 20
22.8132358888
 10
11.402005965
 20
22.8120757746
  0
LINE
  5
3AA
100
AcDbEntity
  8
RACCORDO
100
AcDbLine
 62
7
  6
CONTINUOUS
 10
2.6862444681
 20
23.9983758624
 11
2.6434197551
 21
24.0119166624
  0
LWPOLYLINE
  5
3AB
100
AcDbEntity
  8
SUPERFICI
100
AcDbPolyline
 62
7
  6
CONTINUOUS
 90
33
 70
0
 10
-15.2772927618
 20
-11.7347699393
 10
-15.2697030491
 20
-11.714644784
 10
-15.2626726274
 20
-11.6943067512
 10
-15.2561886932
 20
-11.6737715844
 10
-15.2502384429
 20
-11.6530550268
 10
-15.244809073
 20
-11.6321728216
 10
-15.2398877798
 20
-11.6111407123
 10
-15.2354617598
 20
-11.589974442
 10
-15.2315182095
 20
-11.5686897541
 10
-15.2280443253
 20
-11.5473023919
 10
-15.2250273036
 20
-11.5258280986
 10
-15.2224543409
 20
-11.5042826176
 10
-15.2203126335
 20
-11.4826816922
 10
-15.218589378
 20
-11.4610410656
 10
-15.2172717707
 20
-11.4393764812
 10
-15.2163470081
 20
-11.4177036821
 10
-15.2158022866
 20
-11.3960384119
 10
-15.2156248027
 20
-11.3743964136
 10
-15.2158848134
 20
-11.3482392192
 10
-15.2166519447
 20
-11.3221380675
 10
-15.2179136283
 20
-11.2960917951
 10
-15.2196572956
 20
-11.2700992386
 10
-15.2218703781
 20
-11.2441592344
 10
-15.2245403072
 20
-11.2182706191
 10
-15.2276545146
 20
-11.1924322292
 10
-15.2312004316
 20
-11.1666429012
 10
-15.2360545024
 20
-11.1354873745
 10
-15.2415093062
 20
-11.1044161471
 10
-15.2475512381
 20
-11.073443313
 10
-15.254166693
 20
-11.0425829664
 10
-15.2613420658
 20
-11.0118492014
 10
-15.2690637517
 20
-10.9812561123
 10
-15.2773181453
 20
-10.950817793
  0
LWPOLYLINE
  5
3AC
100
AcDbEntity
  8
SUPERFICI
100
AcDbPolyline
 62
7
  6
CONTINUOUS
 90
33
 70
0
 10
-13.0852616371
 20
-12.8307855009
 10
-13.0776719262
 20
-12.8106603447
 10
-13.0706415061
 20
-12.7903223112
 10
-13.0641575733
 20
-12.7697871437
 10
-13.0582073243
 20
-12.7490705855
 10
-13.0527779556
 20
-12.7281883798
 10
-13.0478566635
 20
-12.7071562701
 10
-13.0434306445
 20
-12.6859899994
 10
-13.039487095
 20
-12.6647053112
 10
-13.0360132115
 20
-12.6433179488
 10
-13.0329961904
 20
-12.6218436553
 10
-13.0304232282
 20
-12.6002981741
 10
-13.0282815212
 20
-12.5786972486
 10
-13.026558266
 20
-12.5570566218
 10
-13.025240659
 20
-12.5353920373
 10
-13.0243158966
 20
-12.5137192381
 10
-13.0237711752
 20
-12.4920539677
 10
-13.0235936914
 20
-12.4704119694
 10
-13.023853702
 20
-12.4442547755
 10
-13.0246208331
 20
-12.4181536243
 10
-13.0258825164
 20
-12.3921073524
 10
-13.0276261833
 20
-12.3661147964
 10
-13.0298392653
 20
-12.3401747926
 10
-13.0325091939
 20
-12.3142861777
 10
-13.0356234006
 20
-12.2884477882
 10
-13.0391693169
 20
-12.2626584606
 10
-13.0440233865
 20
-12.2315029345
 10
-13.0494781892
 20
-12.2004317077
 10
-13.0555201197
 20
-12.1694588742
 10
-13.0621355732
 20
-12.1385985282
 10
-13.0693109446
 20
-12.1078647637
 10
-13.0770326288
 20
-12.077271675
 10
-13.0852870207
 20
-12.0468333561
  0
LWPOLYLINE
  5
3AD
100
AcDbEntity
  8
SUPERFICI
100
AcDbPolyline
 62
7
  6
CONTINUOUS
 90
33
 70
0
 10
-11.0700073868
 20
-13.8384126268
 10
-11.0624176741
 20
-13.8182874715
 10
-11.0553872525
 20
-13.7979494387
 10
-11.0489033183
 20
-13.7774142719
 10
-11.042953068
 20
-13.7566977143
 10
-11.037523698
 20
-13.7358155091
 10
-11.0326024049
 20
-13.7147833998
 10
-11.0281763849
 20
-13.6936171295
 10
-11.0242328346
 20
-13.6723324416
 10
-11.0207589504
 20
-13.6509450794
 10
-11.0177419287
 20
-13.6294707861
 10
-11.015168966
 20
-13.6079253051
 10
-11.0130272586
 20
-13.5863243796
 10
-11.0113040031
 20
-13.564683753
 10
-11.0099863958
 20
-13.5430191686
 10
-11.0090616332
 20
-13.5213463696
 10
-11.0085169117
 20
-13.4996810993
 10
-11.0083394278
 20
-13.478039101
 10
-11.0085994385
 20
-13.4518819066
 10
-11.0093665698
 20
-13.4257807549
 10
-11.0106282534
 20
-13.3997344825
 10
-11.0123719207
 20
-13.373741926
 10
-11.0145850032
 20
-13.3478019218
 10
-11.0172549323
 20
-13.3219133065
 10
-11.0203691397
 20
-13.2960749166
 10
-11.0239150567
 20
-13.2702855886
 10
-11.0287691275
 20
-13.2391300619
 10
-11.0342239313
 20
-13.2080588345
 10
-11.0402658632
 20
-13.1770860004
 10
-11.0468813181
 20
-13.1462256538
 10
-11.0540566909
 20
-13.1154918889
 10
-11.0617783768
 20
-13.0848987997
 10
-11.0700327704
 20
-13.0544604805
  0
LWPOLYLINE
  5
3AE
100
AcDbEntity
  8
0
100
AcDbPolyline
 62
7
  6
CONTINUOUS
 90
48
 70
0
 10
-0.9122914814
 20
18.3127606224
 10
-0.9150691546
 20
18.3057806605
 10
-0.9180173067
 20
18.298863051
 10
-0.9211356512
 20
18.2920140131
 10
-0.9244239017
 20
18.2852397661
 10
-0.9278817716
 20
18.278546529
 10
-0.9315089747
 20
18.2719405212
 10
-0.9353052243
 20
18.2654279619
 10
-0.939270234
 20
18.2590150703
 10
-0.9434037174
 20
18.2527080655
 10
-0.947705388
 20
18.2465131668
 10
-0.9521749594
 20
18.2404365935
 10
-0.956142321
 20
18.2353235265
 10
-0.9602323192
 20
18.2303076056
 10
-0.9644442638
 20
18.22539434
 10
-0.9687774646
 20
18.2205892387
 10
-0.9732312313
 20
18.2158978108
 10
-0.9778048738
 20
18.2113255654
 10
-0.9824977019
 20
18.2068780116
 10
-0.9873090253
 20
18.2025606586
 10
-0.9922381539
 20
18.1983790153
 10
-0.9972843975
 20
18.1943385909
 10
-1.0024470658
 20
18.1904448946
 10
-1.0077254688
 20
18.1867034353
 10
-1.012674166
 20
18.183406386
 10
-1.0177164858
 20
18.1802488224
 10
-1.0228490101
 20
18.1772371706
 10
-1.0280683214
 20
18.174377857
 10
-1.0333710017
 20
18.1716773079
 10
-1.0387536334
 20
18.1691419496
 10
-1.0442127986
 20
18.1667782084
 10
-1.0497450795
 20
18.1645925105
 10
-1.0553470584
 20
18.1625912824
 10
-1.0610153175
 20
18.1607809502
 10
-1.0667464391
 20
18.1591679403
 10
-1.0725370052
 20
18.157758679
 10
-1.0780204543
 20
18.1566267871
 10
-1.0835446336
 20
18.1556818665
 10
-1.089100945
 20
18.1549258416
 10
-1.0946807903
 20
18.1543606368
 10
-1.1002755714
 20
18.1539881764
 10
-1.10587669
 20
18.153810385
 10
-1.111475548
 20
18.1538291868
 10
-1.1170635472
 20
18.1540465063
 10
-1.1226320895
 20
18.1544642678
 10
-1.1281725767
 20
18.1550843959
 10
-1.1336764106
 20
18.1559088148
 10
-1.139134993
 20
18.1569394491
  0
LWPOLYLINE
  5
3AF
100
AcDbEntity
  8
SUPERFICI
100
AcDbPolyline
 62
7
  6
CONTINUOUS
 90
36
 70
0
 10
-16.175686605
 20
-10.4598681532
 10
-16.1843296844
 20
-10.4792486653
 10
-16.192402287
 20
-10.4988836337
 10
-16.1999162623
 20
-10.518756318
 10
-16.2068834598
 20
-10.538849978
 10
-16.2133157287
 20
-10.5591478734
 10
-16.2192249186
 20
-10.579633264
 10
-16.2246228788
 20
-10.6002894095
 10
-16.2295214588
 20
-10.6210995696
 10
-16.2339325078
 20
-10.642047004
 10
-16.2378678754
 20
-10.6631149725
 10
-16.2413394109
 20
-10.6842867348
 10
-16.2443589637
 20
-10.7055455507
 10
-16.2469383833
 20
-10.7268746798
 10
-16.2490895189
 20
-10.7482573818
 10
-16.2508242202
 20
-10.7696769166
 10
-16.2521543363
 20
-10.7911165439
 10
-16.2530917168
 20
-10.8125595233
 10
-16.253648211
 20
-10.8339891146
 10
-16.2538356683
 20
-10.8553885776
 10
-16.253513316
 20
-10.88461801
 10
-16.2525395974
 20
-10.9137621555
 10
-16.2509328169
 20
-10.9428235986
 10
-16.248711279
 20
-10.971804924
 10
-16.2458932884
 20
-11.0007087161
 10
-16.2424971494
 20
-11.0295375595
 10
-16.2385411667
 20
-11.0582940387
 10
-16.2340436446
 20
-11.0869807381
 10
-16.2286876262
 20
-11.1173997912
 10
-16.222752796
 20
-11.1477295235
 10
-16.2162516383
 20
-11.1779565498
 10
-16.2091966373
 20
-11.2080674851
 10
-16.201600277
 20
-11.2380489442
 10
-16.1934750416
 20
-11.2678875421
 10
-16.1848334154
 20
-11.2975698935
 10
-16.1756878823
 20
-11.3270826135
  0
LINE
  5
3B0
100
AcDbEntity
  8
RACCORDO
100
AcDbLine
 62
7
  6
CONTINUOUS
 10
-2.420182076
 20
22.6974872633
 11
-2.4259458147
 21
22.6849309142
  0
LWPOLYLINE
  5
3B1
100
AcDbEntity
  8
0
100
AcDbPolyline
 62
7
  6
CONTINUOUS
 90
33
 70
0
 10
-5.964512763
 20
22.165679691
 10
-5.9620544551
 20
22.1709524799
 10
-5.9595029957
 20
22.1761836454
 10
-5.9568584344
 20
22.1813710267
 10
-5.9541208206
 20
22.1865124631
 10
-5.9512902037
 20
22.1916057938
 10
-5.9483666333
 20
22.1966488581
 10
-5.9453501588
 20
22.2016394953
 10
-5.9422408297
 20
22.2065755446
 10
-5.9390386955
 20
22.2114548452
 10
-5.9357438056
 20
22.2162752365
 10
-5.9323562095
 20
22.2210345576
 10
-5.9288759566
 20
22.2257306479
 10
-5.9253030966
 20
22.2303613465
 10
-5.9216376787
 20
22.2349244928
 10
-5.9178797525
 20
22.2394179259
 10
-5.9148288012
 20
22.2429357341
 10
-5.9117195226
 20
22.2464048801
 10
-5.9085519279
 20
22.2498220519
 10
-5.9053260287
 20
22.2531839376
 10
-5.9020418363
 20
22.256487225
 10
-5.898699362
 20
22.2597286024
 10
-5.8952986173
 20
22.2629047576
 10
-5.8918396134
 20
22.2660123786
 10
-5.8883223618
 20
22.2690481536
 10
-5.8847468739
 20
22.2720087705
 10
-5.8811131609
 20
22.2748909173
 10
-5.8774212344
 20
22.277691282
 10
-5.8736711055
 20
22.2804065527
 10
-5.8698627859
 20
22.2830334173
 10
-5.8659962867
 20
22.285568564
 10
-5.8620716193
 20
22.2880086806
 10
-5.8580887952
 20
22.2903504552
  0
LINE
  5
3B2
100
AcDbEntity
  8
RACCORDO
100
AcDbLine
 62
7
  6
CONTINUOUS
 10
-19.1150061391
 20
22.0795398722
 11
-19.1557811266
 21
21.9984095422
  0
LINE
  5
3B3
100
AcDbEntity
  8
RACCORDO
100
AcDbLine
 62
7
  6
CONTINUOUS
 10
2.891220846
 20
23.9545958651
 11
2.8466845199
 21
23.9614724515
  0
LWPOLYLINE
  5
3B4
100
AcDbEntity
  8
RACCORDO
100
AcDbPolyline
 62
7
  6
CONTINUOUS
 90
26
 70
0
 10
-2.9393416277
 20
24.2152619528
 10
-2.9700153749
 20
24.2201711709
 10
-3.0007826787
 20
24.22452122
 10
-3.0316334149
 20
24.2283151592
 10
-3.0625574591
 20
24.2315560477
 10
-3.0935446869
 20
24.2342469444
 10
-3.124584974
 20
24.2363909084
 10
-3.155668196
 20
24.2379909988
 10
-3.1867842286
 20
24.2390502748
 10
-3.2179229474
 20
24.2395717953
 10
-3.2490742282
 20
24.2395586195
 10
-3.2802279465
 20
24.2390138064
 10
-3.311373978
 20
24.2379404151
 10
-3.3394105526
 20
24.2365221115
 10
-3.3674222944
 20
24.234669852
 10
-3.3953988189
 20
24.2323759771
 10
-3.4233297415
 20
24.2296328272
 10
-3.4512046776
 20
24.2264327429
 10
-3.4790132428
 20
24.2227680646
 10
-3.5067450524
 20
24.2186311329
 10
-3.534389722
 20
24.2140142882
 10
-3.5619368669
 20
24.208909871
 10
-3.5893761026
 20
24.2033102219
 10
-3.6166970447
 20
24.1972076812
 10
-3.6438893085
 20
24.1905945896
 10
-3.6709425094
 20
24.1834632875
  0
LWPOLYLINE
  5
3B5
100
AcDbEntity
  8
0
100
AcDbPolyline
 62
7
  6
CONTINUOUS
 90
44
 70
0
 10
-12.818567344
 20
24.1784315175
 10
-12.8115627108
 20
24.1771040005
 10
-12.8045141017
 20
24.1760350509
 10
-12.7974270164
 20
24.1752181745
 10
-12.7903069544
 20
24.1746468774
 10
-12.7831594154
 20
24.1743146654
 10
-12.7759898988
 20
24.1742150445
 10
-12.7688039044
 20
24.1743415205
 10
-12.7616069317
 20
24.1746875995
 10
-12.7544044802
 20
24.1752467874
 10
-12.7472020495
 20
24.17601259
 10
-12.7400051393
 20
24.1769785134
 10
-12.7328192492
 20
24.1781380634
 10
-12.7256498786
 20
24.1794847461
 10
-12.7185025272
 20
24.1810120672
 10
-12.7113826945
 20
24.1827135328
 10
-12.7042958803
 20
24.1845826488
 10
-12.6972475839
 20
24.1866129211
 10
-12.6902433051
 20
24.1887978557
 10
-12.6832885434
 20
24.1911309584
 10
-12.6763887984
 20
24.1936057353
 10
-12.6695495697
 20
24.1962156921
 10
-12.6627763568
 20
24.198954335
 10
-12.6560746593
 20
24.2018151698
 10
-12.6494499769
 20
24.2047917024
 10
-12.6409666943
 20
24.2088219923
 10
-12.6326195041
 20
24.213034351
 10
-12.6244052859
 20
24.2174266067
 10
-12.6163209195
 20
24.2219965874
 10
-12.6083632845
 20
24.2267421213
 10
-12.6005292606
 20
24.2316610364
 10
-12.5928157275
 20
24.2367511607
 10
-12.5852195647
 20
24.2420103224
 10
-12.577737652
 20
24.2474363496
 10
-12.5703668691
 20
24.2530270703
 10
-12.5624449304
 20
24.2593161574
 10
-12.5546602754
 20
24.2657946606
 10
-12.5470214425
 20
24.2724582736
 10
-12.5395369702
 20
24.2793026899
 10
-12.532215397
 20
24.2863236031
 10
-12.5250652615
 20
24.2935167067
 10
-12.5180951022
 20
24.3008776943
 10
-12.5113134575
 20
24.3084022595
 10
-12.5047288659
 20
24.3160860958
  0
LINE
  5
3B6
100
AcDbEntity
  8
RACCORDO
100
AcDbLine
 62
7
  6
CONTINUOUS
 10
2.8466845199
 20
23.9614724515
 11
2.7886244634
 21
23.972641417
  0
LINE
  5
3B7
100
AcDbEntity
  8
0
100
AcDbLine
 62
7
  6
CONTINUOUS
 10
-13.4427929675
 20
24.3087684579
 11
-12.8184935453
 21
24.1784141593
  0
LINE
  5
3B8
100
AcDbEntity
  8
0
100
AcDbLine
 62
7
  6
CONTINUOUS
 10
-13.215949474
 20
24.4645896187
 11
-12.5047288659
 21
24.3160860958
  0
LWPOLYLINE
  5
3B9
100
AcDbEntity
  8
RACCORDO
100
AcDbPolyline
 62
7
  6
CONTINUOUS
 90
32
 70
0
 10
-2.9021070163
 20
24.17832277
 10
-2.9283766832
 20
24.183896106
 10
-2.954756571
 20
24.1889604892
 10
-2.9812349886
 20
24.1935245128
 10
-3.0078002451
 20
24.19759677
 10
-3.0344406495
 20
24.2011858542
 10
-3.0611445107
 20
24.2043003586
 10
-3.0879001378
 20
24.2069488764
 10
-3.1146958398
 20
24.209140001
 10
-3.1462241719
 20
24.2111397389
 10
-3.1777805556
 20
24.2125194318
 10
-3.2093538386
 20
24.2132789219
 10
-3.2409328684
 20
24.2134180514
 10
-3.2725064925
 20
24.2129366622
 10
-3.3040635586
 20
24.2118345967
 10
-3.3355929142
 20
24.2101116968
 10
-3.3623292367
 20
24.2081601013
 10
-3.3890286384
 20
24.2057513742
 10
-3.4156822074
 20
24.2028759388
 10
-3.4422810315
 20
24.1995242187
 10
-3.468816199
 20
24.1956866374
 10
-3.4952787978
 20
24.1913536182
 10
-3.521659916
 20
24.1865155848
 10
-3.5479506416
 20
24.1811629606
 10
-3.5719038726
 20
24.1758076932
 10
-3.5957540818
 20
24.1699956992
 10
-3.6194812918
 20
24.1637085914
 10
-3.6430655249
 20
24.1569279827
 10
-3.6664868037
 20
24.149635486
 10
-3.6897251508
 20
24.1418127142
 10
-3.7127605885
 20
24.1334412801
 10
-3.7355731393
 20
24.1245027968
  0
LWPOLYLINE
  5
3BA
100
AcDbEntity
  8
0
100
AcDbPolyline
 62
7
  6
CONTINUOUS
 90
21
 70
0
 10
1.4692398511
 20
24.2255396991
 10
1.4746506393
 20
24.2243324022
 10
1.4800430418
 20
24.2230440696
 10
1.4854166528
 20
24.2216769186
 10
1.4907710664
 20
24.2202331669
 10
1.4961058767
 20
24.2187150319
 10
1.5016163263
 20
24.2170646132
 10
1.507104762
 20
24.2153384415
 10
1.5125706824
 20
24.2135383519
 10
1.5180135861
 20
24.2116661792
 10
1.5234329717
 20
24.2097237584
 10
1.5288283378
 20
24.2077129243
 10
1.534199183
 20
24.2056355119
 10
1.5395450058
 20
24.2034933561
 10
1.5448653049
 20
24.2012882917
 10
1.5501595787
 20
24.1990221537
 10
1.555427326
 20
24.196696777
 10
1.5606680453
 20
24.1943139965
 10
1.5658812351
 20
24.1918756472
 10
1.5710663941
 20
24.1893835638
 10
1.5762230209
 20
24.1868395814
  0
LINE
  5
3BB
100
AcDbEntity
  8
RACCORDO
100
AcDbLine
 62
7
  6
CONTINUOUS
 10
2.7886244634
 20
23.972641417
 11
2.734732896
 21
23.9851391504
  0
LWPOLYLINE
  5
3BC
100
AcDbEntity
  8
0
100
AcDbPolyline
 62
7
  6
CONTINUOUS
 90
26
 70
0
 10
1.2172564812
 20
-21.9282402761
 10
1.2192993266
 20
-21.9226907023
 10
1.2212372151
 20
-21.9171040118
 10
1.2230699866
 20
-21.9114808565
 10
1.2247974814
 20
-21.9058218882
 10
1.2264195395
 20
-21.9001277588
 10
1.2279360009
 20
-21.89439912
 10
1.2292647158
 20
-21.8889847284
 10
1.2304994541
 20
-21.8835428276
 10
1.2316396476
 20
-21.8780758128
 10
1.2326847282
 20
-21.8725860793
 10
1.2336341278
 20
-21.8670760221
 10
1.2344872782
 20
-21.8615480364
 10
1.2352436114
 20
-21.8560045175
 10
1.2359025591
 20
-21.8504478605
 10
1.2364635533
 20
-21.8448804606
 10
1.2369260259
 20
-21.839304713
 10
1.2372894086
 20
-21.8337230128
 10
1.2375531335
 20
-21.8281377553
 10
1.2377166322
 20
-21.8225513356
 10
1.2377793368
 20
-21.8169661488
 10
1.2377406791
 20
-21.8113845903
 10
1.237600091
 20
-21.805809055
 10
1.2373570043
 20
-21.8002419383
 10
1.2370108509
 20
-21.7946856353
 10
1.2365610627
 20
-21.7891425412
  0
LWPOLYLINE
  5
3BD
100
AcDbEntity
  8
SUPERFICI
100
AcDbPolyline
 62
7
  6
CONTINUOUS
 90
36
 70
0
 10
-14.1604321782
 20
-11.4674953665
 10
-14.1690752595
 20
-11.4868758775
 10
-14.1771478639
 20
-11.5065108449
 10
-14.1846618408
 20
-11.5263835283
 10
-14.1916290398
 20
-11.5464771875
 10
-14.1980613101
 20
-11.5667750823
 10
-14.2039705013
 20
-11.5872604723
 10
-14.2093684626
 20
-11.6079166173
 10
-14.2142670435
 20
-11.628726777
 10
-14.2186780935
 20
-11.649674211
 10
-14.2226134618
 20
-11.6707421792
 10
-14.226084998
 20
-11.6919139413
 10
-14.2291045514
 20
-11.7131727569
 10
-14.2316839715
 20
-11.7345018858
 10
-14.2338351076
 20
-11.7558845878
 10
-14.2355698091
 20
-11.7773041224
 10
-14.2368999255
 20
-11.7987437495
 10
-14.2378373062
 20
-11.8201867288
 10
-14.2383938005
 20
-11.84161632
 10
-14.2385812579
 20
-11.8630157828
 10
-14.2382589055
 20
-11.8922452159
 10
-14.2372851866
 20
-11.921389362
 10
-14.2356784058
 20
-11.9504508058
 10
-14.2334568675
 20
-11.9794321317
 10
-14.2306388762
 20
-12.0083359243
 10
-14.2272427365
 20
-12.0371647681
 10
-14.2232867529
 20
-12.0659212477
 10
-14.2187892299
 20
-12.0946079476
 10
-14.2134332103
 20
-12.1250270014
 10
-14.2074983789
 20
-12.1553567343
 10
-14.2009972199
 20
-12.1855837612
 10
-14.1939422174
 20
-12.215694697
 10
-14.1863458555
 20
-12.2456761566
 10
-14.1782206185
 20
-12.2755147548
 10
-14.1695789904
 20
-12.3051971066
 10
-14.1604334555
 20
-12.3347098269
  0
LWPOLYLINE
  5
3BE
100
AcDbEntity
  8
SUPERFICI
100
AcDbPolyline
 62
7
  6
CONTINUOUS
 90
36
 70
0
 10
-11.9684012301
 20
-12.5635108406
 10
-11.9770443095
 20
-12.5828913527
 10
-11.9851169121
 20
-12.6025263211
 10
-11.9926308874
 20
-12.6223990054
 10
-11.9995980849
 20
-12.6424926654
 10
-12.0060303538
 20
-12.6627905608
 10
-12.0119395437
 20
-12.6832759514
 10
-12.0173375039
 20
-12.7039320969
 10
-12.0222360839
 20
-12.724742257
 10
-12.0266471329
 20
-12.7456896914
 10
-12.0305825005
 20
-12.7667576599
 10
-12.034054036
 20
-12.7879294222
 10
-12.0370735888
 20
-12.8091882381
 10
-12.0396530084
 20
-12.8305173672
 10
-12.041804144
 20
-12.8519000693
 10
-12.0435388453
 20
-12.8733196041
 10
-12.0448689614
 20
-12.8947592313
 10
-12.0458063419
 20
-12.9162022107
 10
-12.0463628361
 20
-12.937631802
 10
-12.0465502934
 20
-12.959031265
 10
-12.0462279411
 20
-12.9882606974
 10
-12.0452542225
 20
-13.0174048429
 10
-12.043647442
 20
-13.0464662861
 10
-12.0414259041
 20
-13.0754476115
 10
-12.0386079135
 20
-13.1043514036
 10
-12.0352117745
 20
-13.133180247
 10
-12.0312557917
 20
-13.1619367261
 10
-12.0267582697
 20
-13.1906234256
 10
-12.0214022512
 20
-13.2210424787
 10
-12.0154674211
 20
-13.251372211
 10
-12.0089662634
 20
-13.2815992373
 10
-12.0019112623
 20
-13.3117101726
 10
-11.994314902
 20
-13.3416916317
 10
-11.9861896666
 20
-13.3715302296
 10
-11.9775480404
 20
-13.401212581
 10
-11.9684025073
 20
-13.430725301
  0
LWPOLYLINE
  5
3BF
100
AcDbEntity
  8
0
100
AcDbPolyline
 62
7
  6
CONTINUOUS
 90
37
 70
0
 10
-3.3415193433
 20
20.3293334174
 10
-3.337588209
 20
20.3376421508
 10
-3.3339204089
 20
20.3460703565
 10
-3.3305100668
 20
20.3546105759
 10
-3.3273513069
 20
20.3632553501
 10
-3.3244382528
 20
20.3719972204
 10
-3.3217650286
 20
20.3808287282
 10
-3.3193257582
 20
20.3897424146
 10
-3.3171145653
 20
20.3987308209
 10
-3.315125574
 20
20.4077864885
 10
-3.3133529082
 20
20.4169019585
 10
-3.3117906917
 20
20.4260697722
 10
-3.3104330484
 20
20.435282471
 10
-3.3092741023
 20
20.444532596
 10
-3.3083079773
 20
20.4538126885
 10
-3.3075287971
 20
20.4631152899
 10
-3.3069306859
 20
20.4724329413
 10
-3.3065077674
 20
20.4817581841
 10
-3.3062541655
 20
20.4910835594
 10
-3.3061640043
 20
20.5004016087
 10
-3.3062904449
 20
20.5128654907
 10
-3.3066933324
 20
20.525300557
 10
-3.3073662095
 20
20.5377045375
 10
-3.3083026189
 20
20.5500751625
 10
-3.3094961034
 20
20.562410162
 10
-3.3109402057
 20
20.5747072663
 10
-3.3126284688
 20
20.5869642053
 10
-3.3145544352
 20
20.5991787093
 10
-3.3167116478
 20
20.6113485084
 10
-3.3190936494
 20
20.6234713327
 10
-3.3216939827
 20
20.6355449123
 10
-3.3245061904
 20
20.6475669774
 10
-3.3275238154
 20
20.6595352581
 10
-3.3307404005
 20
20.6714474844
 10
-3.3341494883
 20
20.6833013866
 10
-3.3377446217
 20
20.6950946948
 10
-3.3415193433
 20
20.7068251391
  0
LWPOLYLINE
  5
3C0
100
AcDbEntity
  8
RACCORDO
100
AcDbPolyline
 62
7
  6
CONTINUOUS
 90
29
 70
0
 10
-2.467835802
 20
22.9941872394
 10
-2.4701770041
 20
22.9896452832
 10
-2.4724460286
 20
22.9850684834
 10
-2.4746429613
 20
22.9804564449
 10
-2.4767678885
 20
22.9758087725
 10
-2.4788208961
 20
22.9711250712
 10
-2.4808020702
 20
22.9664049459
 10
-2.4827114967
 20
22.9616480015
 10
-2.4844388292
 20
22.9571478059
 10
-2.4861010183
 20
22.9526164947
 10
-2.4876961028
 20
22.9480557632
 10
-2.4892221217
 20
22.9434673066
 10
-2.490677114
 20
22.9388528202
 10
-2.4920591186
 20
22.9342139994
 10
-2.4933661744
 20
22.9295525394
 10
-2.4945963204
 20
22.9248701355
 10
-2.4957475954
 20
22.920168483
 10
-2.4968180384
 20
22.9154492772
 10
-2.4978056884
 20
22.9107142134
 10
-2.4987085842
 20
22.9059649869
 10
-2.4995247648
 20
22.9012032929
 10
-2.5002522692
 20
22.8964308268
 10
-2.5008891362
 20
22.8916492839
 10
-2.5014334048
 20
22.8868603594
 10
-2.5018831139
 20
22.8820657487
 10
-2.5022363024
 20
22.8772671469
 10
-2.5024910093
 20
22.8724662495
 10
-2.5026452736
 20
22.8676647518
 10
-2.502697134
 20
22.8628643489
  0
LINE
  5
3C1
100
AcDbEntity
  8
RACCORDO
100
AcDbLine
 62
7
  6
CONTINUOUS
 10
-19.0690091436
 20
22.1573884071
 11
-19.1150061391
 21
22.0795398722
  0
LINE
  5
3C2
100
AcDbEntity
  8
RACCORDO
100
AcDbLine
 62
7
  6
CONTINUOUS
 10
-5.3191419744
 20
-23.7351167407
 11
-5.2517120523
 21
-23.723726061
  0
LWPOLYLINE
  5
3C3
100
AcDbEntity
  8
RACCORDO
100
AcDbPolyline
 62
7
  6
CONTINUOUS
 90
23
 70
0
 10
2.4243346769
 20
24.086193342
 10
2.4297482553
 20
24.0856173651
 10
2.4351527827
 20
24.0849641828
 10
2.4405478081
 20
24.0842326443
 10
2.4459328804
 20
24.083421599
 10
2.4513075488
 20
24.082529896
 10
2.4566713621
 20
24.0815563847
 10
2.4621859162
 20
24.0804667786
 10
2.4676863892
 20
24.0792893207
 10
2.4731707029
 20
24.0780242318
 10
2.4786367789
 20
24.0766717326
 10
2.4840825391
 20
24.0752320439
 10
2.4895059052
 20
24.0737053863
 10
2.4949047989
 20
24.0720919807
 10
2.5002771421
 20
24.0703920479
 10
2.5056208564
 20
24.0686058085
 10
2.5109338637
 20
24.0667334833
 10
2.5162140856
 20
24.0647752931
 10
2.5214594439
 20
24.0627314586
 10
2.5266678605
 20
24.0606022006
 10
2.5318372569
 20
24.0583877398
 10
2.5369655551
 20
24.056088297
 10
2.5420506767
 20
24.053704093
  0
LWPOLYLINE
  5
3C4
100
AcDbEntity
  8
0
100
AcDbPolyline
 62
7
  6
CONTINUOUS
 90
24
 70
0
 10
-2.9645503741
 20
24.7187724472
 10
-2.9424602808
 20
24.7155795573
 10
-2.920405837
 20
24.7121206138
 10
-2.8983920137
 20
24.7083902494
 10
-2.8764237823
 20
24.7043830966
 10
-2.8545061139
 20
24.7000937881
 10
-2.8326439797
 20
24.6955169564
 10
-2.8108423508
 20
24.6906472342
 10
-2.7891061986
 20
24.6854792541
 10
-2.767440494
 20
24.6800076487
 10
-2.7458502085
 20
24.6742270506
 10
-2.7243403131
 20
24.6681320925
 10
-2.7066321104
 20
24.6628543908
 10
-2.6889897669
 20
24.6573520131
 10
-2.6714208623
 20
24.6516185737
 10
-2.6539329765
 20
24.6456476867
 10
-2.6365336893
 20
24.6394329662
 10
-2.6192305803
 20
24.6329680265
 10
-2.6020312294
 20
24.6262464815
 10
-2.5849432164
 20
24.6192619455
 10
-2.567974121
 20
24.6120080327
 10
-2.5511315231
 20
24.6044783572
 10
-2.5344230023
 20
24.596666533
 10
-2.5178561384
 20
24.5885661745
  0
LWPOLYLINE
  5
3C5
100
AcDbEntity
  8
0
100
AcDbPolyline
 62
7
  6
CONTINUOUS
 90
24
 70
0
 10
1.2694761245
 20
-22.2858102019
 10
1.2711401791
 20
-22.2817994874
 10
1.2727346654
 20
-22.2777533161
 10
1.2742591728
 20
-22.2736736308
 10
1.2757132907
 20
-22.269562374
 10
1.2770966084
 20
-22.2654214882
 10
1.2784087154
 20
-22.2612529162
 10
1.279649201
 20
-22.2570586005
 10
1.2808176547
 20
-22.2528404837
 10
1.2819136658
 20
-22.2486005083
 10
1.2829368238
 20
-22.2443406172
 10
1.283886718
 20
-22.2400627527
 10
1.2847629379
 20
-22.2357688575
 10
1.2855650728
 20
-22.2314608743
 10
1.2862927121
 20
-22.2271407456
 10
1.2869454453
 20
-22.222810414
 10
1.2875228616
 20
-22.2184718221
 10
1.2880245506
 20
-22.2141269126
 10
1.2884501017
 20
-22.209777628
 10
1.2887991041
 20
-22.2054259109
 10
1.2890711473
 20
-22.201073704
 10
1.2892658208
 20
-22.1967229498
 10
1.2893827138
 20
-22.1923755909
 10
1.2894214159
 20
-22.18803357
  0
LINE
  5
3C6
100
AcDbEntity
  8
RACCORDO
100
AcDbLine
 62
7
  6
CONTINUOUS
 10
-2.4259458147
 20
22.6849309142
 11
-2.4342645702
 21
22.6706894947
  0
LINE
  5
3C7
100
AcDbEntity
  8
RACCORDO
100
AcDbLine
 62
7
  6
CONTINUOUS
 10
-19.0178845758
 20
22.2316308671
 11
-19.0690091436
 21
22.1573884071
  0
LINE
  5
3C8
100
AcDbEntity
  8
RACCORDO
100
AcDbLine
 62
7
  6
CONTINUOUS
 10
-5.2517120523
 20
-23.723726061
 11
-5.1838283794
 21
-23.7061230717
  0
LWPOLYLINE
  5
3C9
100
AcDbEntity
  8
0
100
AcDbPolyline
 62
7
  6
CONTINUOUS
 90
27
 70
0
 10
-4.1683506549
 20
27.0274535143
 10
-4.1628422611
 20
27.0270444582
 10
-4.1573417162
 20
27.0265331161
 10
-4.1518502584
 20
27.0259222618
 10
-4.1463691257
 20
27.025214669
 10
-4.1408995561
 20
27.0244131117
 10
-4.1354427879
 20
27.0235203636
 10
-4.1300000589
 20
27.0225391986
 10
-4.1236518295
 20
27.021282562
 10
-4.1173255166
 20
27.019911675
 10
-4.1110221265
 20
27.0184295079
 10
-4.1047426655
 20
27.0168390308
 10
-4.0984881398
 20
27.0151432138
 10
-4.0922595558
 20
27.0133450271
 10
-4.0860579197
 20
27.0114474408
 10
-4.0798842377
 20
27.009453425
 10
-4.0737395163
 20
27.00736595
 10
-4.0676247616
 20
27.0051879858
 10
-4.0615409799
 20
27.0029225027
 10
-4.0554891775
 20
27.0005724707
 10
-4.0494703607
 20
26.9981408601
 10
-4.0434855358
 20
26.9956306409
 10
-4.037535709
 20
26.9930447833
 10
-4.0316218866
 20
26.9903862575
 10
-4.025745075
 20
26.9876580336
 10
-4.0199062803
 20
26.9848630818
 10
-4.0141065088
 20
26.9820043722
  0
LINE
  5
3CA
100
AcDbEntity
  8
RACCORDO
100
AcDbLine
 62
7
  6
CONTINUOUS
 10
-2.4342645702
 20
22.6706894947
 11
-2.4449431844
 21
22.6556302411
  0
LINE
  5
3CB
100
AcDbEntity
  8
RACCORDO
100
AcDbLine
 62
7
  6
CONTINUOUS
 10
-18.9625894555
 20
22.3008744948
 11
-19.0178845758
 21
22.2316308671
  0
LINE
  5
3CC
100
AcDbEntity
  8
0
100
AcDbLine
 62
7
  6
CONTINUOUS
 10
-11.6146686832
 20
24.8802407039
 11
-11.0864015114
 21
25.5231928596
  0
LINE
  5
3CD
100
AcDbEntity
  8
0
100
AcDbLine
 62
7
  6
CONTINUOUS
 10
-11.6146686832
 20
24.7907102375
 11
-11.071040939
 21
25.452357693
  0
LINE
  5
3CE
100
AcDbEntity
  8
0
100
AcDbLine
 62
7
  6
CONTINUOUS
 10
-0.1186297442
 20
25.3567561541
 11
-1.8726674119
 21
25.2647139283
  0
LWPOLYLINE
  5
3CF
100
AcDbEntity
  8
RACCORDO
100
AcDbPolyline
 62
7
  6
CONTINUOUS
 90
28
 70
0
 10
-3.928015676
 20
24.0742582071
 10
-3.9261500804
 20
24.0742701624
 10
-3.9242845628
 20
24.0742423403
 10
-3.9224195826
 20
24.0741761613
 10
-3.920555599
 20
24.0740730462
 10
-3.9186930714
 20
24.0739344158
 10
-3.916832459
 20
24.0737616909
 10
-3.9149742211
 20
24.0735562922
 10
-3.9127649849
 20
24.0732707611
 10
-3.9105604859
 20
24.0729416877
 10
-3.9083614422
 20
24.0725698534
 10
-3.9061685722
 20
24.0721560398
 10
-3.9039825939
 20
24.0717010283
 10
-3.9018042256
 20
24.0712056006
 10
-3.8996341855
 20
24.0706705381
 10
-3.8974731917
 20
24.0700966223
 10
-3.8953219624
 20
24.0694846348
 10
-3.8931812159
 20
24.068835357
 10
-3.8910516703
 20
24.0681495706
 10
-3.8889340438
 20
24.0674280569
 10
-3.8868290547
 20
24.0666715976
 10
-3.884737421
 20
24.0658809741
 10
-3.882659861
 20
24.065056968
 10
-3.8805970928
 20
24.0642003608
 10
-3.8785498348
 20
24.063311934
 10
-3.8765188049
 20
24.0623924691
 10
-3.8745047216
 20
24.0614427477
 10
-3.8725083028
 20
24.0604635512
  0
LWPOLYLINE
  5
3D0
100
AcDbEntity
  8
RACCORDO
100
AcDbPolyline
 62
7
  6
CONTINUOUS
 90
24
 70
0
 10
17.2723175066
 20
15.9244900516
 10
17.2760971979
 20
15.9307732854
 10
17.2799504194
 20
15.9370107248
 10
17.2838797572
 20
15.9432010668
 10
17.2878877979
 20
15.9493430086
 10
17.2919771276
 20
15.9554352472
 10
17.2961503326
 20
15.9614764797
 10
17.3004042953
 20
15.9674578608
 10
17.3047442387
 20
15.9733839775
 10
17.3091698918
 20
15.9792517473
 10
17.3136809836
 20
15.9850580877
 10
17.3182772431
 20
15.9907999163
 10
17.3229583994
 20
15.9964741506
 10
17.3277241814
 20
16.0020777081
 10
17.3325743181
 20
16.0076075065
 10
17.3375085385
 20
16.0130604632
 10
17.3425265717
 20
16.0184334958
 10
17.3476281466
 20
16.0237235219
 10
17.3528129923
 20
16.0289274589
 10
17.3580808377
 20
16.0340422245
 10
17.3634314118
 20
16.0390647361
 10
17.3688644437
 20
16.0439919114
 10
17.3743796624
 20
16.0488206678
 10
17.3799767968
 20
16.053547923
  0
LWPOLYLINE
  5
3D1
100
AcDbEntity
  8
RACCORDO
100
AcDbPolyline
 62
7
  6
CONTINUOUS
 90
45
 70
0
 10
7.8755147554
 20
22.1709869775
 10
7.9039786821
 20
22.2094229265
 10
7.9342817288
 20
22.2464989213
 10
7.9662582495
 20
22.2822345964
 10
7.9997425982
 20
22.3166495868
 10
8.0345691288
 20
22.3497635273
 10
8.0705721953
 20
22.3815960526
 10
8.1075861517
 20
22.4121667975
 10
8.1577644478
 20
22.4506445723
 10
8.2093002942
 20
22.4871041052
 10
8.2620779978
 20
22.5216921889
 10
8.3202109334
 20
22.5570238314
 10
8.3795005977
 20
22.590439352
 10
8.4397958395
 20
22.6220255722
 10
8.5052064513
 20
22.653864213
 10
8.5714961176
 20
22.6838058257
 10
8.638567506
 20
22.7119445826
 10
8.7103690412
 20
22.7398863138
 10
8.7828616492
 20
22.7659940396
 10
8.8559683957
 20
22.7903512022
 10
8.9505722853
 20
22.81916466
 10
9.0459605851
 20
22.8453313502
 10
9.1420330202
 20
22.8689499729
 10
9.2386893159
 20
22.8901192283
 10
9.3358291973
 20
22.9089378167
 10
9.4392154677
 20
22.9264162314
 10
9.5429754341
 20
22.9414140287
 10
9.6470521771
 20
22.9539804747
 10
9.751388777
 20
22.9641648355
 10
9.8559283145
 20
22.9720163772
 10
9.9628313879
 20
22.9776697338
 10
10.0698336658
 20
22.9809455207
 10
10.1768820897
 20
22.9818473811
 10
10.2839236014
 20
22.9803789585
 10
10.3909051425
 20
22.9765438962
 10
10.496103934
 20
22.9704531986
 10
10.6011401045
 20
22.9620301913
 10
10.7059605564
 20
22.9512322669
 10
10.8105121915
 20
22.938016818
 10
10.9147419121
 20
22.9223412373
 10
11.0132680653
 20
22.9051487562
 10
11.1113584443
 20
22.8856155528
 10
11.2089147845
 20
22.8636533599
 10
11.3058388214
 20
22.8391739105
 10
11.4020322906
 20
22.8120889374
  0
LWPOLYLINE
  5
3D2
100
AcDbEntity
  8
0
100
AcDbPolyline
 62
7
  6
CONTINUOUS
 90
45
 70
0
 10
1.9309278138
 20
22.9328673654
 10
1.9366170637
 20
22.9400349228
 10
1.9420104921
 20
22.9474184401
 10
1.9471136315
 20
22.9550071381
 10
1.9519320139
 20
22.9627902374
 10
1.9564711717
 20
22.970756959
 10
1.9607366372
 20
22.9788965234
 10
1.9647339425
 20
22.9871981516
 10
1.9684686201
 20
22.9956510643
 10
1.9719462022
 20
23.0042444823
 10
1.975172221
 20
23.0129676263
 10
1.9781522087
 20
23.0218097172
 10
1.9808916978
 20
23.0307599756
 10
1.9833962204
 20
23.0398076224
 10
1.9856713088
 20
23.0489418783
 10
1.9877224953
 20
23.0581519642
 10
1.9895553122
 20
23.0674271007
 10
1.9911752917
 20
23.0767565087
 10
1.9925879661
 20
23.086129409
 10
1.9937988676
 20
23.0955350222
 10
1.9948135286
 20
23.1049625692
 10
1.9956374813
 20
23.1144012708
 10
1.996276258
 20
23.1238403477
 10
1.9967353909
 20
23.1332690207
 10
1.9970204124
 20
23.1426765106
 10
1.9971368546
 20
23.1520520381
 10
1.9969957096
 20
23.1665072908
 10
1.9964752966
 20
23.1808661724
 10
1.9955882747
 20
23.1951350528
 10
1.9943473034
 20
23.2093203018
 10
1.9927650418
 20
23.2234282894
 10
1.9908541495
 20
23.2374653854
 10
1.9886272856
 20
23.2514379596
 10
1.9860971094
 20
23.265352382
 10
1.9832762804
 20
23.2792150224
 10
1.9801774578
 20
23.2930322507
 10
1.9761287763
 20
23.3094744607
 10
1.9717085749
 20
23.3258479935
 10
1.9669235584
 20
23.3421398251
 10
1.9617804316
 20
23.3583369316
 10
1.9562858995
 20
23.3744262892
 10
1.9504466668
 20
23.3903948739
 10
1.9442694384
 20
23.4062296618
 10
1.9377609191
 20
23.4219176291
 10
1.9309278138
 20
23.4374457519
  0
LINE
  5
3D3
100
AcDbEntity
  8
RACCORDO
100
AcDbLine
 62
7
  6
CONTINUOUS
 10
-2.4449431844
 20
22.6556302411
 11
-2.4577577387
 21
22.640260868
  0
LINE
  5
3D4
100
AcDbEntity
  8
RACCORDO
100
AcDbLine
 62
7
  6
CONTINUOUS
 10
-18.9033399907
 20
22.3648584896
 11
-18.9625894555
 21
22.3008744948
  0
LINE
  5
3D5
100
AcDbEntity
  8
0
100
AcDbLine
 62
7
  6
CONTINUOUS
 10
0.6889893095
 20
18.7284117075
 11
1.2172564812
 21
19.3713638633
  0
LINE
  5
3D6
100
AcDbEntity
  8
0
100
AcDbLine
 62
7
  6
CONTINUOUS
 10
0.6889893095
 20
18.6388812412
 11
1.2326170536
 21
19.3005286967
  0
LWPOLYLINE
  5
3D7
100
AcDbEntity
  8
RACCORDO
100
AcDbPolyline
 62
7
  6
CONTINUOUS
 90
26
 70
0
 10
7.7940076263
 20
22.2046226179
 10
7.8089846978
 20
22.2228539208
 10
7.8243483781
 20
22.2407727422
 10
7.840082444
 20
22.2583819209
 10
7.8561706721
 20
22.2756842957
 10
7.872596839
 20
22.2926827057
 10
7.8893447214
 20
22.3093799897
 10
7.906398096
 20
22.3257789866
 10
7.9237407395
 20
22.3418825353
 10
7.9413564284
 20
22.3576934747
 10
7.9592289394
 20
22.3732146437
 10
7.9773420493
 20
22.3884488812
 10
7.9956795347
 20
22.4033990261
 10
8.0142251722
 20
22.4180679172
 10
8.0367886482
 20
22.4353448028
 10
8.0596202924
 20
22.4522302764
 10
8.0827105834
 20
22.4687357468
 10
8.1060499997
 20
22.4848726229
 10
8.1296290198
 20
22.5006523136
 10
8.1534381221
 20
22.5160862277
 10
8.1790630918
 20
22.5321710027
 10
8.2049249943
 20
22.5478823331
 10
8.2310100839
 20
22.5632267997
 10
8.2573046152
 20
22.5782109831
 10
8.2837948426
 20
22.5928414642
 10
8.3104670206
 20
22.6071248236
  0
LWPOLYLINE
  5
3D8
100
AcDbEntity
  8
0
100
AcDbPolyline
 62
7
  6
CONTINUOUS
 90
44
 70
0
 10
-0.2010708733
 20
18.1642570995
 10
-0.2076552151
 20
18.1565735575
 10
-0.2144365895
 20
18.1490492969
 10
-0.2214064621
 20
18.1416886127
 10
-0.228556298
 20
18.1344957999
 10
-0.2358775626
 20
18.1274751536
 10
-0.2433617212
 20
18.1206309687
 10
-0.2510002392
 20
18.1139675403
 10
-0.2587845818
 20
18.1074891633
 10
-0.2667062144
 20
18.1012001327
 10
-0.2740767432
 20
18.0956093842
 10
-0.2815584037
 20
18.0901832862
 10
-0.2891543095
 20
18.0849240348
 10
-0.2968675737
 20
18.0798338262
 10
-0.3047013097
 20
18.0749148565
 10
-0.3126586309
 20
18.0701693218
 10
-0.3207426505
 20
18.0655994183
 10
-0.3289564819
 20
18.0612073421
 10
-0.3373032383
 20
18.0569952894
 10
-0.3457860333
 20
18.0529654563
 10
-0.3524104268
 20
18.0499893327
 10
-0.3591118076
 20
18.0471289947
 10
-0.3658846817
 20
18.0443909162
 10
-0.3727235547
 20
18.0417815711
 10
-0.3796229325
 20
18.0393074336
 10
-0.3865773208
 20
18.0369749774
 10
-0.3935812255
 20
18.0347906766
 10
-0.4006291523
 20
18.0327610052
 10
-0.407715607
 20
18.030892437
 10
-0.4148350955
 20
18.0291914461
 10
-0.4219821235
 20
18.0276645064
 10
-0.4291511967
 20
18.0263180919
 10
-0.4363368211
 20
18.0251586765
 10
-0.4435335024
 20
18.0241927343
 10
-0.4507357464
 20
18.023426739
 10
-0.4579380589
 20
18.0228671648
 10
-0.4651349457
 20
18.0225204856
 10
-0.4723209125
 20
18.0223931753
 10
-0.4794904652
 20
18.0224917079
 10
-0.4866381095
 20
18.0228225574
 10
-0.4937583513
 20
18.0233921977
 10
-0.5008456964
 20
18.0242071028
 10
-0.5078946504
 20
18.0252737466
 10
-0.5148997193
 20
18.0265986032
  0
LWPOLYLINE
  5
3D9
100
AcDbEntity
  8
RACCORDO
100
AcDbPolyline
 62
7
  6
CONTINUOUS
 90
44
 70
0
 10
-2.9021070163
 20
24.17832277
 10
-2.9009525605
 20
24.1795995803
 10
-2.8997797922
 20
24.1808594053
 10
-2.898588015
 20
24.1821013027
 10
-2.8973765327
 20
24.18332433
 10
-2.8961446488
 20
24.184527545
 10
-2.8948916669
 20
24.1857100052
 10
-2.8936168909
 20
24.1868707682
 10
-2.8923196242
 20
24.1880088918
 10
-2.8909991706
 20
24.1891234335
 10
-2.8901408724
 20
24.1898243219
 10
-2.8892724888
 20
24.1905138688
 10
-2.888393733
 20
24.1911907943
 10
-2.8875043183
 20
24.1918538184
 10
-2.8866039576
 20
24.192501661
 10
-2.8856923642
 20
24.1931330422
 10
-2.8847692512
 20
24.1937466819
 10
-2.8838343319
 20
24.1943413003
 10
-2.8828873193
 20
24.1949156172
 10
-2.8819279266
 20
24.1954683527
 10
-2.8809558669
 20
24.1959982267
 10
-2.8799708535
 20
24.1965039594
 10
-2.8789725995
 20
24.1969842706
 10
-2.8779608179
 20
24.1974378805
 10
-2.8769352221
 20
24.1978635089
 10
-2.8758955251
 20
24.198259876
 10
-2.8748414401
 20
24.1986257016
 10
-2.8739896398
 20
24.1988949243
 10
-2.8731295044
 20
24.1991429997
 10
-2.872262051
 20
24.1993690597
 10
-2.8713882964
 20
24.1995722362
 10
-2.8705092577
 20
24.199751661
 10
-2.8696259517
 20
24.1999064662
 10
-2.8687393954
 20
24.2000357834
 10
-2.8678506059
 20
24.2001387447
 10
-2.8669605999
 20
24.2002144819
 10
-2.8660703946
 20
24.2002621268
 10
-2.8651810068
 20
24.2002808115
 10
-2.8642934536
 20
24.2002696676
 10
-2.8634087517
 20
24.2002278272
 10
-2.8625279183
 20
24.2001544221
 10
-2.8616519703
 20
24.2000485842
 10
-2.8607819246
 20
24.1999094454
 10
-2.8599187981
 20
24.1997361375
  0
LINE
  5
3DA
100
AcDbEntity
  8
RACCORDO
100
AcDbLine
 62
7
  6
CONTINUOUS
 10
-2.4577577387
 20
22.640260868
 11
-2.4726010225
 21
22.6248103649
  0
LINE
  5
3DB
100
AcDbEntity
  8
RACCORDO
100
AcDbLine
 62
7
  6
CONTINUOUS
 10
-18.8401526384
 20
22.423423949
 11
-18.9033399907
 21
22.3648584896
  0
LWPOLYLINE
  5
3DC
100
AcDbEntity
  8
RACCORDO
100
AcDbPolyline
 62
7
  6
CONTINUOUS
 90
35
 70
0
 10
-3.7365268993
 20
14.056587088
 10
-3.7539328034
 20
14.0528513501
 10
-3.7714446086
 20
14.0496275849
 10
-3.7890480412
 20
14.0468874822
 10
-3.8067288275
 20
14.0446027316
 10
-3.8244726938
 20
14.0427450229
 10
-3.8422653662
 20
14.0412860458
 10
-3.860092571
 20
14.0401974899
 10
-3.8779400344
 20
14.0394510451
 10
-3.8957934827
 20
14.0390184009
 10
-3.9192036376
 20
14.0388878526
 10
-3.9425947005
 20
14.0392360624
 10
-3.9659618434
 20
14.0400505001
 10
-3.9893002381
 20
14.0413186358
 10
-4.0126050567
 20
14.0430279395
 10
-4.0358714711
 20
14.0451658811
 10
-4.0590946533
 20
14.0477199307
 10
-4.0822697753
 20
14.0506775582
 10
-4.1058210531
 20
14.0540951937
 10
-4.1293100042
 20
14.0579237123
 10
-4.1527291756
 20
14.0621682708
 10
-4.1760711141
 20
14.0668340256
 10
-4.1993283667
 20
14.0719261336
 10
-4.2224934803
 20
14.0774497512
 10
-4.2455590018
 20
14.0834100352
 10
-4.268517478
 20
14.0898121421
 10
-4.2866525661
 20
14.0952128239
 10
-4.3046988349
 20
14.1009128825
 10
-4.3226395647
 20
14.1069302324
 10
-4.3404580355
 20
14.1132827877
 10
-4.3581375277
 20
14.1199884629
 10
-4.3756613213
 20
14.1270651724
 10
-4.3930126967
 20
14.1345308304
 10
-4.4101749338
 20
14.1424033514
 10
-4.427131313
 20
14.1507006496
  0
LWPOLYLINE
  5
3DD
100
AcDbEntity
  8
RACCORDO
100
AcDbPolyline
 62
7
  6
CONTINUOUS
 90
36
 70
0
 10
17.3800502234
 20
17.6073814168
 10
17.376899689
 20
17.6067604777
 10
17.3737341203
 20
17.6061893043
 10
17.3705551086
 20
17.6056698636
 10
17.3673642451
 20
17.6052041226
 10
17.3641631213
 20
17.6047940483
 10
17.3609533283
 20
17.6044416078
 10
17.3577364576
 20
17.6041487679
 10
17.3545141004
 20
17.6039174958
 10
17.351287848
 20
17.6037497585
 10
17.3480592918
 20
17.6036475229
 10
17.3448300231
 20
17.6036127561
 10
17.3416016331
 20
17.6036474251
 10
17.3383757133
 20
17.6037534969
 10
17.3351538548
 20
17.6039329385
 10
17.331937649
 20
17.604187717
 10
17.3287286873
 20
17.6045197992
 10
17.325528561
 20
17.6049311523
 10
17.3223388613
 20
17.6054237433
 10
17.3192099865
 20
17.6059895213
 10
17.3160947055
 20
17.6066346675
 10
17.3129949605
 20
17.6073578828
 10
17.3099126939
 20
17.6081578683
 10
17.3068498479
 20
17.6090333251
 10
17.3038083649
 20
17.6099829542
 10
17.3007901871
 20
17.6110054565
 10
17.2977972569
 20
17.6120995332
 10
17.2948315166
 20
17.6132638853
 10
17.2918949085
 20
17.6144972138
 10
17.2889893749
 20
17.6157982198
 10
17.286116858
 20
17.6171656043
 10
17.2832793003
 20
17.6185980683
 10
17.280478644
 20
17.6200943129
 10
17.2777168314
 20
17.6216530391
 10
17.2749958048
 20
17.6232729479
 10
17.2723175066
 20
17.6249527404
  0
LWPOLYLINE
  5
3DE
100
AcDbEntity
  8
RACCORDO
100
AcDbPolyline
 62
7
  6
CONTINUOUS
 90
48
 70
0
 10
-3.6739739511
 20
23.129806724
 10
-3.6656209228
 20
23.1379952902
 10
-3.6570453603
 20
23.1459715421
 10
-3.6482588928
 20
23.1537320939
 10
-3.6392731493
 20
23.16127356
 10
-3.6300997587
 20
23.1685925546
 10
-3.6207503502
 20
23.1756856918
 10
-3.6112365526
 20
23.182549586
 10
-3.6015699952
 20
23.1891808514
 10
-3.5917623069
 20
23.1955761023
 10
-3.5818251166
 20
23.2017319529
 10
-3.5725076321
 20
23.2072202242
 10
-3.5630843532
 20
23.2124960238
 10
-3.553550731
 20
23.2175554185
 10
-3.5439022167
 20
23.2223944749
 10
-3.5341342615
 20
23.2270092599
 10
-3.5242423166
 20
23.2313958402
 10
-3.5142218331
 20
23.2355502825
 10
-3.5040682621
 20
23.2394686537
 10
-3.493777055
 20
23.2431470203
 10
-3.4833436628
 20
23.2465814492
 10
-3.4727635368
 20
23.2497680072
 10
-3.4647104668
 20
23.2519975914
 10
-3.456580587
 20
23.2540781755
 10
-3.4483826215
 20
23.2560031267
 10
-3.4401252939
 20
23.2577658123
 10
-3.4318173284
 20
23.2593595997
 10
-3.4234674488
 20
23.2607778561
 10
-3.4150843791
 20
23.2620139489
 10
-3.4066768431
 20
23.2630612454
 10
-3.3982535647
 20
23.2639131129
 10
-3.389823268
 20
23.2645629187
 10
-3.3813946768
 20
23.2650040301
 10
-3.372976515
 20
23.2652298144
 10
-3.3645775065
 20
23.265233639
 10
-3.3562063754
 20
23.2650088712
 10
-3.3478718454
 20
23.2645488782
 10
-3.3395826405
 20
23.2638470274
 10
-3.3313474846
 20
23.2628966862
 10
-3.3231751017
 20
23.2616912217
 10
-3.3150742157
 20
23.2602240014
 10
-3.3070535504
 20
23.2584883925
 10
-3.2991218299
 20
23.2564777624
 10
-3.291287778
 20
23.2541854784
 10
-3.2835601186
 20
23.2516049078
 10
-3.2759475756
 20
23.2487294178
 10
-3.2684588731
 20
23.2455523759
 10
-3.2611027348
 20
23.2420671493
  0
LINE
  5
3DF
100
AcDbEntity
  8
RACCORDO
100
AcDbLine
 62
7
  6
CONTINUOUS
 10
-2.4726010225
 20
22.6248103649
 11
-2.4790379594
 21
22.6186940216
  0
LINE
  5
3E0
100
AcDbEntity
  8
RACCORDO
100
AcDbLine
 62
7
  6
CONTINUOUS
 10
-2.4790381375
 20
22.6186942147
 11
-3.1646475419
 21
21.983875575
  0
LINE
  5
3E1
100
AcDbEntity
  8
RACCORDO
100
AcDbLine
 62
7
  6
CONTINUOUS
 10
-2.3822377665
 20
22.6188544545
 11
-2.9580180657
 21
22.0857284209
  0
LWPOLYLINE
  5
3E2
100
AcDbEntity
  8
0
100
AcDbPolyline
 62
7
  6
CONTINUOUS
 90
15
 70
0
 10
2.0461803278
 20
23.9258430364
 10
2.0420539539
 20
23.9247681585
 10
2.0379404517
 20
23.9236442693
 10
2.0338386751
 20
23.9224774426
 10
2.0297474781
 20
23.9212737523
 10
2.0238566431
 20
23.9194805972
 10
2.0179843921
 20
23.9176276314
 10
2.0121296397
 20
23.9157192427
 10
2.0062913006
 20
23.9137598192
 10
2.0004682893
 20
23.9117537487
 10
1.9946595203
 20
23.909705419
 10
1.9888639084
 20
23.9076192181
 10
1.9830803681
 20
23.9054995339
 10
1.977307814
 20
23.9033507543
 10
1.9657913229
 20
23.8989834604
  0
LWPOLYLINE
  5
3E3
100
AcDbEntity
  8
0
100
AcDbPolyline
 62
7
  6
CONTINUOUS
 90
23
 70
0
 10
-4.2432585012
 20
27.0213680415
 10
-4.2402826744
 20
27.0220841953
 10
-4.237296773
 20
27.0227576964
 10
-4.2343013097
 20
27.0233888543
 10
-4.2312967969
 20
27.0239779787
 10
-4.2282837471
 20
27.0245253791
 10
-4.2252626731
 20
27.0250313651
 10
-4.2217392977
 20
27.0255682597
 10
-4.2182067615
 20
27.0260502851
 10
-4.2146660669
 20
27.0264781844
 10
-4.2111182161
 20
27.0268527006
 10
-4.2075642115
 20
27.0271745769
 10
-4.2040050552
 20
27.0274445564
 10
-4.2004417496
 20
27.0276633823
 10
-4.1968752969
 20
27.0278317976
 10
-4.1933066994
 20
27.0279505454
 10
-4.1897369595
 20
27.028020369
 10
-4.1861670793
 20
27.0280420113
 10
-4.1825980612
 20
27.0280162156
 10
-4.1790309075
 20
27.0279437249
 10
-4.1754666203
 20
27.0278252824
 10
-4.171906202
 20
27.0276616311
 10
-4.1683506549
 20
27.0274535143
  0
LINE
  5
3E4
100
AcDbEntity
  8
0
100
AcDbLine
 62
7
  6
CONTINUOUS
 10
-0.5541070613
 20
-22.0095772018
 11
-1.1764250934
 21
-22.7546366193
  0
LINE
  5
3E5
100
AcDbEntity
  8
0
100
AcDbLine
 62
7
  6
CONTINUOUS
 10
-0.2010708733
 20
-22.1353470399
 11
-0.9122914814
 21
-22.986843517
  0
LINE
  5
3E6
100
AcDbEntity
  8
RACCORDO
100
AcDbLine
 62
7
  6
CONTINUOUS
 10
-3.9719531465
 20
24.058088367
 11
-6.201686091
 21
22.106639379
  0
LINE
  5
3E7
100
AcDbEntity
  8
RACCORDO
100
AcDbLine
 62
7
  6
CONTINUOUS
 10
-3.8725083028
 20
24.0604635512
 11
-5.8033398869
 21
22.3706112529
  0
LINE
  5
3E8
100
AcDbEntity
  8
RACCORDO
100
AcDbLine
 62
7
  6
CONTINUOUS
 10
-6.0460911973
 20
22.1581567524
 11
-6.1401250691
 21
22.075858868
  0
LWPOLYLINE
  5
3E9
100
AcDbEntity
  8
RACCORDO
100
AcDbPolyline
 62
7
  6
CONTINUOUS
 90
38
 70
0
 10
-3.1586623873
 20
23.4597827327
 10
-3.1638364685
 20
23.4552538888
 10
-3.1688862163
 20
23.4505844433
 10
-3.1738114597
 20
23.4457790469
 10
-3.1786120275
 20
23.4408423504
 10
-3.1832877487
 20
23.4357790043
 10
-3.1878384521
 20
23.4305936594
 10
-3.1922639667
 20
23.4252909663
 10
-3.1965641214
 20
23.4198755758
 10
-3.200738745
 20
23.4143521385
 10
-3.2047876665
 20
23.408725305
 10
-3.2087107147
 20
23.4029997262
 10
-3.2125077186
 20
23.3971800526
 10
-3.216178507
 20
23.3912709349
 10
-3.2197229089
 20
23.3852770238
 10
-3.2231407532
 20
23.37920297
 10
-3.2264318687
 20
23.3730534242
 10
-3.2295960844
 20
23.366833037
 10
-3.2326332291
 20
23.3605464592
 10
-3.2353506121
 20
23.3546274253
 10
-3.2379535967
 20
23.3486576105
 10
-3.2404384692
 20
23.342639766
 10
-3.2428015158
 20
23.3365766429
 10
-3.2450390227
 20
23.3304709924
 10
-3.2471472762
 20
23.3243255656
 10
-3.2491225624
 20
23.3181431136
 10
-3.2509611676
 20
23.3119263877
 10
-3.2526593779
 20
23.305678139
 10
-3.2542134797
 20
23.2994011185
 10
-3.2556197591
 20
23.2930980776
 10
-3.2568745023
 20
23.2867717672
 10
-3.2579739956
 20
23.2804249387
 10
-3.2589145252
 20
23.2740603431
 10
-3.2596923772
 20
23.2676807316
 10
-3.260303838
 20
23.2612888553
 10
-3.2607451937
 20
23.2548874653
 10
-3.2610127306
 20
23.248479313
 10
-3.2611027348
 20
23.2420671493
  0
LWPOLYLINE
  5
3EA
100
AcDbEntity
  8
RACCORDO
100
AcDbPolyline
 62
7
  6
CONTINUOUS
 90
25
 70
0
 10
-2.4002567886
 20
23.0805799334
 10
-2.4035481121
 20
23.0777237173
 10
-2.4067855103
 20
23.0748062965
 10
-2.409970058
 20
23.0718301032
 10
-2.4131028304
 20
23.0687975699
 10
-2.4161849025
 20
23.0657111289
 10
-2.4192173491
 20
23.0625732125
 10
-2.4224069393
 20
23.0591623858
 10
-2.4255406784
 20
23.0556970941
 10
-2.4286182613
 20
23.0521789821
 10
-2.4316393828
 20
23.0486096944
 10
-2.434603738
 20
23.0449908758
 10
-2.4375110218
 20
23.0413241708
 10
-2.440360929
 20
23.0376112242
 10
-2.4431531545
 20
23.0338536807
 10
-2.4458873934
 20
23.0300531849
 10
-2.4485633405
 20
23.0262113814
 10
-2.4511806906
 20
23.022329915
 10
-2.4537391388
 20
23.0184104303
 10
-2.45623838
 20
23.0144545719
 10
-2.458678109
 20
23.0104639847
 10
-2.4610580208
 20
23.0064403131
 10
-2.4633778103
 20
23.0023852019
 10
-2.4656371724
 20
22.9983002958
 10
-2.467835802
 20
22.9941872394
  0
LINE
  5
3EB
100
AcDbEntity
  8
RACCORDO
100
AcDbLine
 62
7
  6
CONTINUOUS
 10
-18.7738454629
 20
22.4756804358
 11
-18.8401526384
 21
22.423423949
  0
LINE
  5
3EC
100
AcDbEntity
  8
RACCORDO
100
AcDbLine
 62
7
  6
CONTINUOUS
 10
-4.7473806187
 20
22.6451430598
 11
-3.8467810811
 21
23.3511261118
  0
LWPOLYLINE
  5
3ED
100
AcDbEntity
  8
RACCORDO
100
AcDbPolyline
 62
7
  6
CONTINUOUS
 90
20
 70
0
 10
-18.5707986947
 20
22.4448878135
 10
-18.5629173388
 20
22.4509190726
 10
-18.5549792928
 20
22.4568750244
 10
-18.546983784
 20
22.4627547975
 10
-18.5389300395
 20
22.4685575201
 10
-18.5308172865
 20
22.4742823207
 10
-18.5225325373
 20
22.4800048523
 10
-18.5141868406
 20
22.4856436675
 10
-18.5057806803
 20
22.4911960183
 10
-18.4973145401
 20
22.4966591563
 10
-18.4887889038
 20
22.5020303336
 10
-18.4802042553
 20
22.5073068021
 10
-18.4715610784
 20
22.5124858134
 10
-18.4628598568
 20
22.5175646196
 10
-18.4541010745
 20
22.5225404725
 10
-18.4452852153
 20
22.527410624
 10
-18.4364127629
 20
22.5321723259
 10
-18.4274842011
 20
22.5368228301
 10
-18.4185000139
 20
22.5413593885
 10
-18.4094606849
 20
22.545779253
  0
LWPOLYLINE
  5
3EE
100
AcDbEntity
  8
RACCORDO
100
AcDbPolyline
 62
7
  6
CONTINUOUS
 90
35
 70
0
 10
17.0331614006
 20
-9.7514825525
 10
17.0461669096
 20
-9.7368197134
 10
17.0587680138
 20
-9.7217919274
 10
17.0709651381
 20
-9.7064184786
 10
17.0827587074
 20
-9.6907186506
 10
17.0941491466
 20
-9.6747117274
 10
17.1051368806
 20
-9.658416993
 10
17.1157223343
 20
-9.641853731
 10
17.1259059326
 20
-9.6250412255
 10
17.1356881004
 20
-9.6079987603
 10
17.1457998053
 20
-9.5893626814
 10
17.1554527541
 20
-9.5704949804
 10
17.1646555465
 20
-9.5514095691
 10
17.1734167822
 20
-9.5321203597
 10
17.181745061
 20
-9.5126412641
 10
17.1896489824
 20
-9.4929861943
 10
17.1971371463
 20
-9.4731690624
 10
17.2042181524
 20
-9.4532037803
 10
17.2109006005
 20
-9.43310426
 10
17.2185426059
 20
-9.4083621356
 10
17.2256152113
 20
-9.383454465
 10
17.2321321196
 20
-9.3583956255
 10
17.238107034
 20
-9.3331999941
 10
17.2435536577
 20
-9.307881948
 10
17.2484856936
 20
-9.2824558642
 10
17.2529168449
 20
-9.2569361199
 10
17.2568608147
 20
-9.2313370922
 10
17.2605907507
 20
-9.2035960794
 10
17.2637807442
 20
-9.1757903311
 10
17.2664439309
 20
-9.14793093
 10
17.2685934464
 20
-9.1200289587
 10
17.2702424261
 20
-9.0920954999
 10
17.2714040056
 20
-9.0641416362
 10
17.2720913206
 20
-9.0361784502
 10
17.2723175066
 20
-9.0082170246
  0
LWPOLYLINE
  5
3EF
100
AcDbEntity
  8
RACCORDO
100
AcDbPolyline
 62
7
  6
CONTINUOUS
 90
67
 70
0
 10
17.2723175066
 20
15.9244900516
 10
17.2778730766
 20
15.9295861035
 10
17.2835394273
 20
15.9345658494
 10
17.2893251148
 20
15.9394095575
 10
17.295238695
 20
15.944097496
 10
17.3012887238
 20
15.948609933
 10
17.3074837573
 20
15.9529271367
 10
17.3138323514
 20
15.9570293752
 10
17.3183593405
 20
15.9597533457
 10
17.3229655529
 20
15.9623453506
 10
17.3276512087
 20
15.9647877974
 10
17.3324165281
 20
15.9670630938
 10
17.3372617312
 20
15.9691536475
 10
17.3421870381
 20
15.971041866
 10
17.3471926689
 20
15.9727101571
 10
17.3522788438
 20
15.9741409283
 10
17.3568563267
 20
15.9751970124
 10
17.3614831153
 20
15.976038562
 10
17.366144949
 20
15.9766518322
 10
17.3708275668
 20
15.977023078
 10
17.3755167078
 20
15.9771385547
 10
17.3801981114
 20
15.9769845173
 10
17.3848575166
 20
15.976547221
 10
17.3894616719
 20
15.9758212672
 10
17.39401682
 20
15.9748151199
 10
17.3985099117
 20
15.9735431202
 10
17.4029278976
 20
15.9720196092
 10
17.4072577283
 20
15.970258928
 10
17.4114863544
 20
15.9682754177
 10
17.416170345
 20
15.9657605067
 10
17.4207055058
 20
15.9629956172
 10
17.4250915106
 20
15.960001757
 10
17.4293280332
 20
15.9567999337
 10
17.4334147474
 20
15.9534111552
 10
17.4373504744
 20
15.9498571178
 10
17.4411421378
 20
15.9461517184
 10
17.4447956613
 20
15.9423093799
 10
17.4483169687
 20
15.9383445251
 10
17.4517119836
 20
15.9342715767
 10
17.4558668564
 20
15.9289408632
 10
17.4598347703
 20
15.9234698874
 10
17.4636244986
 20
15.9178707052
 10
17.4672448146
 20
15.9121553724
 10
17.4707044916
 20
15.9063359451
 10
17.4740123029
 20
15.900424479
 10
17.4771770217
 20
15.8944330302
 10
17.4802074214
 20
15.8883736546
 10
17.4845268213
 20
15.8791565548
 10
17.4885720574
 20
15.8698220509
 10
17.4923527727
 20
15.8603790397
 10
17.4958786097
 20
15.8508364178
 10
17.4991592114
 20
15.841203082
 10
17.5022042206
 20
15.831487929
 10
17.50502328
 20
15.8216998556
 10
17.5076260325
 20
15.8118477584
 10
17.5100221207
 20
15.8019405342
 10
17.5122211876
 20
15.7919870797
 10
17.514232876
 20
15.7819962917
 10
17.5164903896
 20
15.7694997829
 10
17.5184742051
 20
15.7569643769
 10
17.5201868811
 20
15.744395376
 10
17.5216309763
 20
15.7317980827
 10
17.5228090493
 20
15.7191777995
 10
17.5237236587
 20
15.7065398287
 10
17.5243773632
 20
15.6938894729
 10
17.5247727214
 20
15.6812320343
 10
17.524912292
 20
15.6685728156
  0
LINE
  5
3F0
100
AcDbEntity
  8
RACCORDO
100
AcDbLine
 62
7
  6
CONTINUOUS
 10
-4.4694909557
 20
22.5061982283
 11
-3.6739739511
 21
23.129806724
  0
LWPOLYLINE
  5
3F1
100
AcDbEntity
  8
RACCORDO
100
AcDbPolyline
 62
7
  6
CONTINUOUS
 90
44
 70
0
 10
-3.8467810811
 20
23.3511261118
 10
-3.8321668063
 20
23.3622539779
 10
-3.8172332228
 20
23.3729691246
 10
-3.8019979328
 20
23.3832733314
 10
-3.7864785383
 20
23.3931683778
 10
-3.7706926415
 20
23.4026560432
 10
-3.7546578445
 20
23.411738107
 10
-3.7383917495
 20
23.4204163488
 10
-3.7219119585
 20
23.428692548
 10
-3.7052360738
 20
23.4365684841
 10
-3.6883816973
 20
23.4440459365
 10
-3.6705598145
 20
23.4514495408
 10
-3.6525712667
 20
23.4584154046
 10
-3.634425787
 20
23.4649407304
 10
-3.6161331085
 20
23.4710227208
 10
-3.5977029642
 20
23.4766585785
 10
-3.579145087
 20
23.481845506
 10
-3.5604692101
 20
23.4865807059
 10
-3.5416850664
 20
23.4908613808
 10
-3.5228023891
 20
23.4946847333
 10
-3.503830911
 20
23.498047966
 10
-3.4870843045
 20
23.5006212544
 10
-3.4702842697
 20
23.5028254626
 10
-3.453438507
 20
23.5046494026
 10
-3.4365547173
 20
23.5060818865
 10
-3.4196406012
 20
23.5071117265
 10
-3.4027038593
 20
23.5077277346
 10
-3.3857521923
 20
23.5079187229
 10
-3.3687933008
 20
23.5076735035
 10
-3.3518348857
 20
23.5069808884
 10
-3.3348846474
 20
23.5058296898
 10
-3.3179502866
 20
23.5042087197
 10
-3.3041671621
 20
23.5025314247
 10
-3.2904174486
 20
23.500523393
 10
-3.2767188936
 20
23.498173398
 10
-3.2630892449
 20
23.4954702134
 10
-3.24954625
 20
23.4924026126
 10
-3.2361076564
 20
23.4889593693
 10
-3.2227912117
 20
23.4851292569
 10
-3.2096146635
 20
23.4809010489
 10
-3.1965957594
 20
23.476263519
 10
-3.1837522469
 20
23.4712054406
 10
-3.1711018737
 20
23.4657155873
 10
-3.1586623873
 20
23.4597827327
  0
LINE
  5
3F2
100
AcDbEntity
  8
RACCORDO
100
AcDbLine
 62
7
  6
CONTINUOUS
 10
-18.7047991495
 20
22.5212538919
 11
-18.7738454629
 21
22.4756804358
  0
LWPOLYLINE
  5
3F3
100
AcDbEntity
  8
RACCORDO
100
AcDbPolyline
 62
7
  6
CONTINUOUS
 90
74
 70
0
 10
17.3799767968
 20
16.053547923
 10
17.4702931717
 20
16.1288571683
 10
17.5601197905
 20
16.2047538593
 10
17.6493901153
 20
16.2813034247
 10
17.7380376085
 20
16.3585712928
 10
17.8271180361
 20
16.4376450028
 10
17.9153682444
 20
16.5176423034
 10
17.9743692652
 20
16.5721945427
 10
18.0328787558
 20
16.6272744199
 10
18.0908389723
 20
16.6829348594
 10
18.1491066351
 20
16.7401542235
 10
18.2066246022
 20
16.7981250074
 10
18.2632700446
 20
16.85694443
 10
18.3057802388
 20
16.9024162287
 10
18.3476136477
 20
16.9485103795
 10
18.389239651
 20
16.9959741645
 10
18.4299128346
 20
17.044260028
 10
18.4568768324
 20
17.0775422836
 10
18.4832388458
 20
17.111301508
 10
18.5089069499
 20
17.1455870313
 10
18.5342864593
 20
17.1811922226
 10
18.5586624584
 20
17.2174976672
 10
18.581850507
 20
17.2546036442
 10
18.5953105329
 20
17.2776592633
 10
18.608136268
 20
17.3010753289
 10
18.6202034086
 20
17.3248775415
 10
18.6313876512
 20
17.3490916018
 10
18.6415646921
 20
17.3737432103
 10
18.6490555852
 20
17.3943170196
 10
18.6555892524
 20
17.4152093389
 10
18.6609704853
 20
17.4364267009
 10
18.6639480784
 20
17.451491839
 10
18.666179319
 20
17.4666881248
 10
18.6675800998
 20
17.4819837661
 10
18.6680663139
 20
17.4973469708
 10
18.6676665176
 20
17.5108895591
 10
18.6664105044
 20
17.524377912
 10
18.6642157008
 20
17.5377300833
 10
18.6609995332
 20
17.5508641267
 10
18.6559237119
 20
17.5656880446
 10
18.649435405
 20
17.5799625326
 10
18.6416021319
 20
17.5935404586
 10
18.633394869
 20
17.6051489616
 10
18.6242429711
 20
17.6160249124
 10
18.6142540013
 20
17.6261306864
 10
18.6040106992
 20
17.6350584316
 10
18.5931973583
 20
17.6432885486
 10
18.5819120493
 20
17.6508632217
 10
18.5645417683
 20
17.6609483162
 10
18.5464990147
 20
17.6698131272
 10
18.5279286283
 20
17.6775779121
 10
18.5089754488
 20
17.6843629286
 10
18.4829591678
 20
17.6921751245
 10
18.4565982098
 20
17.6986189165
 10
18.4299827088
 20
17.7038964813
 10
18.4026670638
 20
17.7082682874
 10
18.3752209971
 20
17.7117437131
 10
18.347685012
 20
17.7144286361
 10
18.305546821
 20
17.7172205761
 10
18.2633422135
 20
17.7186579477
 10
18.2202166694
 20
17.7189563003
 10
18.1770910473
 20
17.7182167293
 10
18.1339836743
 20
17.7165624521
 10
18.090912878
 20
17.7141166865
 10
18.0323219192
 20
17.7097044277
 10
17.9738321664
 20
17.7041891158
 10
17.9154429325
 20
17.6977079025
 10
17.8562323668
 20
17.6902663286
 10
17.7971229565
 20
17.6820527666
 10
17.7381128424
 20
17.6731503965
 10
17.6487168236
 20
17.6584854031
 10
17.5595316325
 20
17.6425917364
 10
17.4696970534
 20
17.6254631632
 10
17.3800502234
 20
17.6073814168
  0
LINE
  5
3F4
100
AcDbEntity
  8
0
100
AcDbLine
 62
7
  6
CONTINUOUS
 10
-15.295151106
 20
24.6081309938
 11
-14.7249505919
 21
24.9406101198
  0
LINE
  5
3F5
100
AcDbEntity
  8
0
100
AcDbLine
 62
7
  6
CONTINUOUS
 10
-15.0612471435
 20
24.5996842514
 11
-14.6172398545
 21
24.8585811688
  0
LINE
  5
3F6
100
AcDbEntity
  8
0
100
AcDbLine
 62
7
  6
CONTINUOUS
 10
-11.6146686832
 20
24.0051348954
 11
-12.5047288659
 21
23.5084539741
  0
LINE
  5
3F7
100
AcDbEntity
  8
0
100
AcDbLine
 62
7
  6
CONTINUOUS
 10
-3.3415193433
 20
19.8685602254
 11
-4.4083502554
 21
19.2732358074
  0
LINE
  5
3F8
100
AcDbEntity
  8
0
100
AcDbLine
 62
7
  6
CONTINUOUS
 10
-10.0298492529
 20
22.0839853061
 11
-9.3165716443
 21
22.4798397512
  0
LINE
  5
3F9
100
AcDbEntity
  8
0
100
AcDbLine
 62
7
  6
CONTINUOUS
 10
-7.1952513008
 20
21.7954262042
 11
-7.4104794718
 21
21.675978983
  0
LINE
  5
3FA
100
AcDbEntity
  8
RACCORDO
100
AcDbLine
 62
7
  6
CONTINUOUS
 10
-18.6400920357
 20
22.5565957438
 11
-18.7047991495
 21
22.5212538919
  0
LINE
  5
3FB
100
AcDbEntity
  8
0
100
AcDbLine
 62
7
  6
CONTINUOUS
 10
-15.1843469142
 20
25.955170102
 11
-13.6011752193
 21
26.7673671493
  0
LINE
  5
3FC
100
AcDbEntity
  8
0
100
AcDbLine
 62
7
  6
CONTINUOUS
 10
-15.0712612481
 20
25.9487221269
 11
-13.4885046449
 21
26.7607062242
  0
LINE
  5
3FD
100
AcDbEntity
  8
0
100
AcDbLine
 62
7
  6
CONTINUOUS
 10
-9.6347696958
 20
24.4008260478
 11
-10.6892591273
 21
23.8598530091
  0
LINE
  5
3FE
100
AcDbEntity
  8
0
100
AcDbLine
 62
7
  6
CONTINUOUS
 10
-13.3927231777
 20
25.1094530916
 11
-11.7914423869
 21
25.9121750951
  0
LINE
  5
3FF
100
AcDbEntity
  8
0
100
AcDbLine
 62
7
  6
CONTINUOUS
 10
-13.215949474
 20
24.8045635528
 11
-11.6146686832
 21
25.6072855563
  0
LINE
  5
400
100
AcDbEntity
  8
0
100
AcDbLine
 62
7
  6
CONTINUOUS
 10
-13.6011732496
 20
26.7673681598
 11
-13.5994368321
 21
26.7682363829
  0
LINE
  5
401
100
AcDbEntity
  8
0
100
AcDbLine
 62
7
  6
CONTINUOUS
 10
-11.7914423869
 20
25.9121750951
 11
-11.2631752151
 21
26.1756139152
  0
LINE
  5
402
100
AcDbEntity
  8
0
100
AcDbLine
 62
7
  6
CONTINUOUS
 10
-11.6146686832
 20
25.6072855563
 11
-11.0864015114
 21
25.8707243764
  0
LINE
  5
403
100
AcDbEntity
  8
RACCORDO
100
AcDbLine
 62
7
  6
CONTINUOUS
 10
-18.6401524369
 20
22.5565794872
 11
-15.90499904
 21
23.9076265496
  0
LINE
  5
404
100
AcDbEntity
  8
RACCORDO
100
AcDbLine
 62
7
  6
CONTINUOUS
 10
-18.4094606849
 20
22.545779253
 11
-15.6779076366
 21
23.8950478995
  0
LWPOLYLINE
  5
405
100
AcDbEntity
  8
0
100
AcDbPolyline
 62
7
  6
CONTINUOUS
 90
41
 70
0
 10
-15.1843468753
 20
25.9551700262
 10
-15.1819260375
 20
25.9563645875
 10
-15.1794669363
 20
25.9574854716
 10
-15.1769719929
 20
25.9585332512
 10
-15.1744436283
 20
25.959508499
 10
-15.1718842636
 20
25.9604117878
 10
-15.1692963197
 20
25.9612436904
 10
-15.1666822178
 20
25.9620047796
 10
-15.1640443788
 20
25.9626956281
 10
-15.1613852238
 20
25.9633168087
 10
-15.1587071739
 20
25.9638688941
 10
-15.1560126499
 20
25.9643524572
 10
-15.1533040731
 20
25.9647680707
 10
-15.1505838645
 20
25.9651163073
 10
-15.1478544449
 20
25.9653977399
 10
-15.1451182356
 20
25.9656129412
 10
-15.1423776576
 20
25.965762484
 10
-15.1396351318
 20
25.965846941
 10
-15.1368930793
 20
25.965866885
 10
-15.1341539211
 20
25.9658228888
 10
-15.1314200784
 20
25.9657155252
 10
-15.1282626611
 20
25.9655129369
 10
-15.1251163891
 20
25.9652283982
 10
-15.1219820273
 20
25.9648642154
 10
-15.1188603406
 20
25.9644226943
 10
-15.1157520936
 20
25.9639061412
 10
-15.1126580514
 20
25.963316862
 10
-15.1095789786
 20
25.9626571629
 10
-15.10651564
 20
25.96192935
 10
-15.1034688007
 20
25.9611357293
 10
-15.1004392252
 20
25.9602786069
 10
-15.0974276785
 20
25.9593602888
 10
-15.0944349254
 20
25.9583830813
 10
-15.0914617307
 20
25.9573492903
 10
-15.0885088592
 20
25.9562612219
 10
-15.0855770758
 20
25.9551211822
 10
-15.0826671452
 20
25.9539314772
 10
-15.0797798324
 20
25.9526944132
 10
-15.076915902
 20
25.951412296
 10
-15.074076119
 20
25.9500874319
 10
-15.0712612481
 20
25.9487221269
  0
LINE
  5
406
100
AcDbEntity
  8
0
100
AcDbLine
 62
7
  6
CONTINUOUS
 10
-13.5994340682
 20
26.7682377293
 11
-13.0645668774
 21
27.0287884818
  0
LINE
  5
407
100
AcDbEntity
  8
DRAFT
100
AcDbLine
 62
7
  6
CONTINUOUS
 10
17.5249116863
 20
15.6308836047
 11
18.5956347803
 21
16.3234182619
  0
LINE
  5
408
100
AcDbEntity
  8
0
100
AcDbLine
 62
7
  6
CONTINUOUS
 10
0.6889893095
 20
17.853305899
 11
-0.2010708733
 21
17.3566249778
  0
LWPOLYLINE
  5
409
100
AcDbEntity
  8
0
100
AcDbPolyline
 62
7
  6
CONTINUOUS
 90
7
 70
0
 10
2.0272469904
 20
13.8093140325
 10
2.1235495275
 20
13.8625971975
 10
2.2199737236
 20
13.9156601422
 10
2.3643063255
 20
13.9946617589
 10
2.5088215171
 20
14.0733293053
 10
2.653488516
 20
14.1517176694
 10
2.7982765396
 20
14.229881739
  0
LINE
  5
40A
100
AcDbEntity
  8
0
100
AcDbLine
 62
7
  6
CONTINUOUS
 10
1.0428118247
 20
17.6763946414
 11
-0.0363622392
 21
17.0872417993
  0
LINE
  5
40B
100
AcDbEntity
  8
0
100
AcDbLine
 62
7
  6
CONTINUOUS
 10
1.3960960907
 20
17.0665416148
 11
0.3169220267
 21
16.4773887727
  0
LINE
  5
40C
100
AcDbEntity
  8
ASSI
100
AcDbLine
 62
7
  6
CONTINUOUS
 10
1.146126583
 20
18.3268056551
 11
7.1892457167
 21
21.5214596174
  0
LINE
  5
40D
100
AcDbEntity
  8
RACCORDO
100
AcDbLine
 62
7
  6
CONTINUOUS
 10
8.3104644205
 20
22.6071260562
 11
8.3105922025
 21
22.6071934431
  0
LINE
  5
40E
100
AcDbEntity
  8
0
100
AcDbLine
 62
7
  6
CONTINUOUS
 10
7.6598185477
 20
22.264027627
 11
8.3105922025
 21
22.6071934431
  0
LINE
  5
40F
100
AcDbEntity
  8
ASSI
100
AcDbLine
 62
7
  6
CONTINUOUS
 10
0.8001899634
 20
18.7742231742
 11
7.1892457167
 21
22.1229766991
  0
LWPOLYLINE
  5
410
100
AcDbEntity
  8
0
100
AcDbPolyline
 62
7
  6
CONTINUOUS
 90
45
 70
0
 10
7.9906494078
 20
23.5359297073
 10
7.955655727
 20
23.5177990821
 10
7.9209240705
 20
23.499131272
 10
7.8864803364
 20
23.4799108321
 10
7.852350423
 20
23.4601223171
 10
7.8185602283
 20
23.4397502818
 10
7.7851356505
 20
23.4187792812
 10
7.7521025879
 20
23.3971938701
 10
7.7194869387
 20
23.3749786034
 10
7.6873146009
 20
23.3521180359
 10
7.6556114728
 20
23.3285967224
 10
7.6308914458
 20
23.3095165231
 10
7.6065089056
 20
23.2900014312
 10
7.5824916912
 20
23.2700394543
 10
7.5588676412
 20
23.2496186003
 10
7.5356645947
 20
23.2287268767
 10
7.5129103903
 20
23.2073522913
 10
7.4906328669
 20
23.1854828518
 10
7.4688598632
 20
23.1631065658
 10
7.4476192182
 20
23.1402114411
 10
7.4269387707
 20
23.1167854853
 10
7.4068463594
 20
23.0928167062
 10
7.3898965116
 20
23.0715510592
 10
7.3734468344
 20
23.0498741922
 10
7.3575328818
 20
23.0277934384
 10
7.3421902078
 20
23.0053161311
 10
7.3274543664
 20
22.9824496038
 10
7.3133609115
 20
22.9592011897
 10
7.2999453971
 20
22.9355782221
 10
7.2872433772
 20
22.9115880343
 10
7.2752904057
 20
22.8872379597
 10
7.2641220367
 20
22.8625353316
 10
7.2537738242
 20
22.8374874833
 10
7.2456732718
 20
22.81600065
 10
7.2382058918
 20
22.7942864396
 10
7.2313904784
 20
22.7723600689
 10
7.225245826
 20
22.7502367551
 10
7.2197907288
 20
22.7279317149
 10
7.215043981
 20
22.7054601654
 10
7.2111206787
 20
22.6834468298
 10
7.2078935486
 20
22.6613173021
 10
7.2053700214
 20
22.639098692
 10
7.2035575278
 20
22.6168181098
 10
7.2024634984
 20
22.5945026653
 10
7.202095364
 20
22.5721794686
  0
LINE
  5
411
100
AcDbEntity
  8
0
100
AcDbLine
 62
7
  6
CONTINUOUS
 10
-5.7299140773
 20
22.4084983673
 11
-5.9416011041
 21
22.2992696009
  0
LINE
  5
412
100
AcDbEntity
  8
0
100
AcDbLine
 62
7
  6
CONTINUOUS
 10
-5.6396181771
 20
22.4032502884
 11
-5.8507145346
 21
22.2943263024
  0
LINE
  5
413
100
AcDbEntity
  8
0
100
AcDbLine
 62
7
  6
CONTINUOUS
 10
-4.2274525567
 20
21.4826953134
 11
-5.0677601298
 21
21.0491035103
  0
LINE
  5
414
100
AcDbEntity
  8
0
100
AcDbLine
 62
7
  6
CONTINUOUS
 10
-2.8806889216
 20
19.8033411057
 11
-1.2975172266
 21
20.615538153
  0
LINE
  5
415
100
AcDbEntity
  8
0
100
AcDbLine
 62
7
  6
CONTINUOUS
 10
-2.7676032554
 20
19.7968931305
 11
-1.1848466523
 21
20.6088772279
  0
LINE
  5
416
100
AcDbEntity
  8
0
100
AcDbLine
 62
7
  6
CONTINUOUS
 10
12.0028053863
 20
25.5773295
 11
7.9906494078
 21
23.5359297073
  0
LINE
  5
417
100
AcDbEntity
  8
0
100
AcDbLine
 62
7
  6
CONTINUOUS
 10
-6.4985653952
 20
22.145395523
 11
-7.1952513008
 21
21.7954262042
  0
LINE
  5
418
100
AcDbEntity
  8
0
100
AcDbLine
 62
7
  6
CONTINUOUS
 10
-7.336670862
 20
23.2517766309
 11
-6.6497690767
 21
23.5963372888
  0
LINE
  5
419
100
AcDbEntity
  8
0
100
AcDbLine
 62
7
  6
CONTINUOUS
 10
-7.1952513008
 20
23.0078676318
 11
-6.5071260996
 21
23.3530419741
  0
LINE
  5
41A
100
AcDbEntity
  8
0
100
AcDbLine
 62
7
  6
CONTINUOUS
 10
-3.3415193433
 20
21.2542008715
 11
-4.4083502554
 21
20.7193985732
  0
LINE
  5
41B
100
AcDbEntity
  8
0
100
AcDbLine
 62
7
  6
CONTINUOUS
 10
-1.089065185
 20
18.9576240953
 11
0.5122156058
 21
19.7603460988
  0
LINE
  5
41C
100
AcDbEntity
  8
0
100
AcDbLine
 62
7
  6
CONTINUOUS
 10
-0.9122914814
 20
18.6527345565
 11
0.6889893095
 21
19.45545656
  0
LINE
  5
41D
100
AcDbEntity
  8
0
100
AcDbLine
 62
7
  6
CONTINUOUS
 10
-2.9645503741
 20
24.7187724472
 11
-1.8726674119
 21
25.2647139283
  0
LINE
  5
41E
100
AcDbEntity
  8
0
100
AcDbLine
 62
7
  6
CONTINUOUS
 10
-5.7282102894
 20
22.4093503652
 11
-5.7299115921
 21
22.4084996497
  0
LINE
  5
41F
100
AcDbEntity
  8
0
100
AcDbLine
 62
7
  6
CONTINUOUS
 10
-1.2975152569
 20
20.6155391635
 11
-1.2957788395
 21
20.6164073865
  0
LINE
  5
420
100
AcDbEntity
  8
0
100
AcDbLine
 62
7
  6
CONTINUOUS
 10
8.4388796313
 20
22.3841017117
 11
8.9338543781
 21
22.6315890851
  0
LINE
  5
421
100
AcDbEntity
  8
0
100
AcDbLine
 62
7
  6
CONTINUOUS
 10
6.3786245751
 20
22.7353250321
 11
1.0567686444
 21
20.0776193563
  0
LINE
  5
422
100
AcDbEntity
  8
0
100
AcDbLine
 62
7
  6
CONTINUOUS
 10
1.9329727259
 20
23.8845100054
 11
-3.3415193433
 21
21.2542008715
  0
LINE
  5
423
100
AcDbEntity
  8
0
100
AcDbLine
 62
7
  6
CONTINUOUS
 10
-3.3415193433
 20
19.8685602254
 11
1.9657913229
 21
22.5152354955
  0
LINE
  5
424
100
AcDbEntity
  8
0
100
AcDbLine
 62
7
  6
CONTINUOUS
 10
0.5122156058
 20
19.7603460988
 11
1.0404827775
 21
20.0237849189
  0
LINE
  5
425
100
AcDbEntity
  8
0
100
AcDbLine
 62
7
  6
CONTINUOUS
 10
0.6889893095
 20
19.45545656
 11
1.2172564812
 21
19.71889538
  0
LINE
  5
426
100
AcDbEntity
  8
0
100
AcDbLine
 62
7
  6
CONTINUOUS
 10
-10.0298492529
 20
23.5301480719
 11
-9.1747460541
 21
23.9563420621
  0
LINE
  5
427
100
AcDbEntity
  8
0
100
AcDbLine
 62
7
  6
CONTINUOUS
 10
-7.5514840761
 20
23.1447110732
 11
-7.336670862
 21
23.2517766309
  0
LINE
  5
428
100
AcDbEntity
  8
0
100
AcDbLine
 62
7
  6
CONTINUOUS
 10
-7.4104794718
 20
22.9005952544
 11
-7.1952513008
 21
23.0078676318
  0
LWPOLYLINE
  5
429
100
AcDbEntity
  8
0
100
AcDbPolyline
 62
7
  6
CONTINUOUS
 90
41
 70
0
 10
-2.8806888827
 20
19.8033410298
 10
-2.8782680448
 20
19.8045355912
 10
-2.8758089437
 20
19.8056564752
 10
-2.8733140003
 20
19.8067042548
 10
-2.8707856357
 20
19.8076795026
 10
-2.8682262709
 20
19.8085827915
 10
-2.8656383271
 20
19.8094146941
 10
-2.8630242252
 20
19.8101757833
 10
-2.8603863862
 20
19.8108666318
 10
-2.8577272312
 20
19.8114878123
 10
-2.8550491812
 20
19.8120398978
 10
-2.8523546573
 20
19.8125234609
 10
-2.8496460805
 20
19.8129390744
 10
-2.8469258718
 20
19.813287311
 10
-2.8441964523
 20
19.8135687436
 10
-2.841460243
 20
19.8137839449
 10
-2.8387196649
 20
19.8139334876
 10
-2.8359771391
 20
19.8140179446
 10
-2.8332350866
 20
19.8140378887
 10
-2.8304959285
 20
19.8139938925
 10
-2.8277620857
 20
19.8138865288
 10
-2.8246046684
 20
19.8136839405
 10
-2.8214583965
 20
19.8133994019
 10
-2.8183240347
 20
19.813035219
 10
-2.8152023479
 20
19.8125936979
 10
-2.812094101
 20
19.8120771448
 10
-2.8090000587
 20
19.8114878656
 10
-2.8059209859
 20
19.8108281665
 10
-2.8028576474
 20
19.8101003536
 10
-2.799810808
 20
19.8093067329
 10
-2.7967812325
 20
19.8084496105
 10
-2.7937696858
 20
19.8075312924
 10
-2.7907769327
 20
19.8065540849
 10
-2.787803738
 20
19.8055202939
 10
-2.7848508665
 20
19.8044322255
 10
-2.7819190831
 20
19.8032921858
 10
-2.7790091525
 20
19.8021024808
 10
-2.7761218397
 20
19.8008654168
 10
-2.7732579093
 20
19.7995832996
 10
-2.7704181263
 20
19.7982584355
 10
-2.7676032554
 20
19.7968931305
  0
LINE
  5
42A
100
AcDbEntity
  8
0
100
AcDbLine
 62
7
  6
CONTINUOUS
 10
1.3165009011
 20
24.1927459177
 11
-3.2956735977
 21
21.9192895493
  0
LINE
  5
42B
100
AcDbEntity
  8
0
100
AcDbLine
 62
7
  6
CONTINUOUS
 10
2.096626174
 20
23.5629202427
 11
3.4193886356
 21
24.2149430018
  0
LINE
  5
42C
100
AcDbEntity
  8
0
100
AcDbLine
 62
7
  6
CONTINUOUS
 10
-8.2947173211
 20
24.418811411
 11
-3.6820744651
 21
26.6920336009
  0
LINE
  5
42D
100
AcDbEntity
  8
0
100
AcDbLine
 62
7
  6
CONTINUOUS
 10
-3.9571151972
 20
25.1610437411
 11
-3.5456496285
 21
25.3638239454
  0
LINE
  5
42E
100
AcDbEntity
  8
0
100
AcDbLine
 62
7
  6
CONTINUOUS
 10
-0.831100974
 20
26.3401878066
 11
-2.9662365778
 21
25.2879412346
  0
LINE
  5
42F
100
AcDbEntity
  8
0
100
AcDbLine
 62
7
  6
CONTINUOUS
 10
-4.2985462899
 20
27.0002695132
 11
-9.6347696958
 21
24.4008260478
  0
LINE
  5
430
100
AcDbEntity
  8
0
100
AcDbLine
 62
7
  6
CONTINUOUS
 10
-1.2957760755
 20
20.6164087329
 11
-0.7609088847
 21
20.8769594855
  0
LINE
  5
431
100
AcDbEntity
  8
0
100
AcDbLine
 62
7
  6
CONTINUOUS
 10
-3.7903369135
 20
27.8198057764
 11
-10.9116757289
 21
24.355706811
  0
LINE
  5
432
100
AcDbEntity
  8
0
100
AcDbLine
 62
7
  6
CONTINUOUS
 10
-5.0289330844
 20
22.74799977
 11
-5.7282085215
 21
22.409351222
  0
LINE
  5
433
100
AcDbEntity
  8
0
100
AcDbLine
 62
7
  6
CONTINUOUS
 10
-4.9406218421
 20
22.7417636715
 11
-5.6396181771
 21
22.4032502884
  0
LWPOLYLINE
  5
434
100
AcDbEntity
  8
RACCORDO
100
AcDbPolyline
 62
7
  6
CONTINUOUS
 90
39
 70
0
 10
-2.9021070163
 20
24.17832277
 10
-2.8998941832
 20
24.1793851534
 10
-2.8976622632
 20
24.180415144
 10
-2.8954118217
 20
24.1814110123
 10
-2.8931434238
 20
24.1823710292
 10
-2.8908576349
 20
24.1832934653
 10
-2.8885550202
 20
24.1841765915
 10
-2.8862361449
 20
24.1850186783
 10
-2.8839015743
 20
24.1858179967
 10
-2.8815518738
 20
24.1865728171
 10
-2.8791876084
 20
24.1872814106
 10
-2.8768093435
 20
24.1879420476
 10
-2.8744176444
 20
24.188552999
 10
-2.8720130763
 20
24.1891125356
 10
-2.8695962044
 20
24.1896189279
 10
-2.867167594
 20
24.1900704468
 10
-2.8647278105
 20
24.1904653631
 10
-2.8622774189
 20
24.1908019473
 10
-2.8598169846
 20
24.1910784703
 10
-2.8573470729
 20
24.1912932028
 10
-2.8551931802
 20
24.1914284039
 10
-2.8530343617
 20
24.1915150408
 10
-2.8508724248
 20
24.1915525402
 10
-2.848709177
 20
24.1915403287
 10
-2.8465464259
 20
24.191477833
 10
-2.8443859789
 20
24.1913644797
 10
-2.8422296436
 20
24.1911996954
 10
-2.8400792275
 20
24.190982907
 10
-2.8379365381
 20
24.1907135409
 10
-2.835803383
 20
24.1903910239
 10
-2.8336815695
 20
24.1900147826
 10
-2.8315729053
 20
24.1895842436
 10
-2.8294791978
 20
24.1890988337
 10
-2.8274022546
 20
24.1885579795
 10
-2.8253438831
 20
24.1879611076
 10
-2.823305891
 20
24.1873076448
 10
-2.8212900856
 20
24.1865970175
 10
-2.8192982746
 20
24.1858286526
 10
-2.8173322653
 20
24.1850019767
  0
LWPOLYLINE
  5
435
100
AcDbEntity
  8
RACCORDO
100
AcDbPolyline
 62
7
  6
CONTINUOUS
 90
39
 70
0
 10
-18.6400931147
 20
22.5565979487
 10
-18.6345878213
 20
22.5592163409
 10
-18.6290006505
 20
22.5616700295
 10
-18.6233381289
 20
22.5639582882
 10
-18.6176067832
 20
22.5660803908
 10
-18.6118131401
 20
22.568035611
 10
-18.6059637261
 20
22.5698232226
 10
-18.600065068
 20
22.5714424994
 10
-18.5941236923
 20
22.572892715
 10
-18.5881461258
 20
22.5741731432
 10
-18.5825244463
 20
22.5752174725
 10
-18.5768798476
 20
22.5761145556
 10
-18.5712153929
 20
22.5768664952
 10
-18.5655341452
 20
22.5774753938
 10
-18.5598391676
 20
22.5779433541
 10
-18.5541335232
 20
22.5782724787
 10
-18.5484202749
 20
22.5784648701
 10
-18.542702486
 20
22.578522631
 10
-18.5369832194
 20
22.5784478641
 10
-18.5312655383
 20
22.5782426718
 10
-18.5246191793
 20
22.577842751
 10
-18.5179820949
 20
22.5772733798
 10
-18.5113572674
 20
22.5765388006
 10
-18.5047476795
 20
22.5756432562
 10
-18.4981563135
 20
22.5745909892
 10
-18.491586152
 20
22.5733862423
 10
-18.4850401774
 20
22.572033258
 10
-18.4785213723
 20
22.5705362789
 10
-18.472032719
 20
22.5688995479
 10
-18.4655772001
 20
22.5671273074
 10
-18.459157798
 20
22.5652238001
 10
-18.4527774952
 20
22.5631932686
 10
-18.4464392743
 20
22.5610399556
 10
-18.4401461176
 20
22.5587681037
 10
-18.4339010076
 20
22.5563819555
 10
-18.4277069269
 20
22.5538857537
 10
-18.4215668579
 20
22.551283741
 10
-18.4154837831
 20
22.5485801598
 10
-18.4094606849
 20
22.545779253
  0
LINE
  5
436
100
AcDbEntity
  8
RACCORDO
100
AcDbLine
 62
7
  6
CONTINUOUS
 10
-3.8191071458
 20
24.1330018835
 11
-3.9572219479
 21
24.0677647982
  0
LINE
  5
437
100
AcDbEntity
  8
RACCORDO
100
AcDbLine
 62
7
  6
CONTINUOUS
 10
-3.7355731393
 20
24.1245027968
 11
-3.8718494284
 21
24.060134114
  0
LWPOLYLINE
  5
438
100
AcDbEntity
  8
0
100
AcDbPolyline
 62
7
  6
CONTINUOUS
 90
40
 70
0
 10
-13.0645667955
 20
27.0287883422
 10
-13.0621732564
 20
27.0299092562
 10
-13.0597443423
 20
27.030958647
 10
-13.0572823445
 20
27.0319370833
 10
-13.0547895541
 20
27.032845134
 10
-13.0522682622
 20
27.0336833679
 10
-13.04972076
 20
27.0344523537
 10
-13.0471493385
 20
27.0351526603
 10
-13.0445562889
 20
27.0357848564
 10
-13.0419439024
 20
27.0363495109
 10
-13.0393144701
 20
27.0368471925
 10
-13.036670283
 20
27.0372784701
 10
-13.0340136324
 20
27.0376439124
 10
-13.0313468093
 20
27.0379440883
 10
-13.0286721049
 20
27.0381795665
 10
-13.0259918103
 20
27.0383509158
 10
-13.0233082167
 20
27.0384587051
 10
-13.0206236152
 20
27.0385035031
 10
-13.0179402969
 20
27.0384858786
 10
-13.015260553
 20
27.0384064005
 10
-13.0125866745
 20
27.0382656374
 10
-13.0095090129
 20
27.0380278274
 10
-13.0064429445
 20
27.0377112641
 10
-13.0033891875
 20
27.0373181472
 10
-13.0003484598
 20
27.036850676
 10
-12.9973214797
 20
27.0363110499
 10
-12.9943089651
 20
27.0357014684
 10
-12.9913116342
 20
27.0350241309
 10
-12.9883302049
 20
27.0342812369
 10
-12.9853653954
 20
27.0334749857
 10
-12.9824179238
 20
27.0326075769
 10
-12.9794885082
 20
27.0316812098
 10
-12.9765778665
 20
27.0306980839
 10
-12.9736867169
 20
27.0296603986
 10
-12.9708157775
 20
27.0285703533
 10
-12.9679657663
 20
27.0274301475
 10
-12.9651374014
 20
27.0262419806
 10
-12.9623314009
 20
27.0250080521
 10
-12.9595484828
 20
27.0237305613
 10
-12.9567893653
 20
27.0224117077
  0
LWPOLYLINE
  5
439
100
AcDbEntity
  8
0
100
AcDbPolyline
 62
7
  6
CONTINUOUS
 90
41
 70
0
 10
-13.599436761
 20
26.7682362372
 10
-13.5970367326
 20
26.7693602523
 10
-13.5946013522
 20
26.770412625
 10
-13.5921329024
 20
26.7713939474
 10
-13.589633666
 20
26.7723048112
 10
-13.5871059255
 20
26.7731458082
 10
-13.5845519638
 20
26.7739175303
 10
-13.5819740635
 20
26.7746205695
 10
-13.5793745072
 20
26.7752555174
 10
-13.5767555776
 20
26.775822966
 10
-13.5741195574
 20
26.7763235072
 10
-13.5714687293
 20
26.7767577327
 10
-13.568805376
 20
26.7771262345
 10
-13.5661317802
 20
26.7774296044
 10
-13.5634502244
 20
26.7776684342
 10
-13.5607629915
 20
26.7778433158
 10
-13.558072364
 20
26.7779548411
 10
-13.5553806246
 20
26.7780036018
 10
-13.5526900562
 20
26.7779901899
 10
-13.5500029412
 20
26.7779151972
 10
-13.5473215624
 20
26.7777792156
 10
-13.5442316676
 20
26.7775470154
 10
-13.5411531986
 20
26.7772362943
 10
-13.5380868659
 20
26.7768492364
 10
-13.5350333802
 20
26.776388026
 10
-13.531993452
 20
26.7758548472
 10
-13.528967792
 20
26.7752518843
 10
-13.5259571107
 20
26.7745813214
 10
-13.5229621188
 20
26.7738453428
 10
-13.5199835269
 20
26.7730461327
 10
-13.5170220455
 20
26.7721858753
 10
-13.5140783853
 20
26.7712667548
 10
-13.5111532569
 20
26.7702909553
 10
-13.5082473708
 20
26.7692606612
 10
-13.5053614377
 20
26.7681780566
 10
-13.5024961681
 20
26.7670453257
 10
-13.4996522728
 20
26.7658646527
 10
-13.4968304622
 20
26.7646382219
 10
-13.4940314469
 20
26.7633682174
 10
-13.4912559376
 20
26.7620568234
 10
-13.4885046449
 20
26.7607062242
  0
LWPOLYLINE
  5
43A
100
AcDbEntity
  8
RACCORDO
100
AcDbPolyline
 62
7
  6
CONTINUOUS
 90
26
 70
0
 10
-3.957337581
 20
24.0677100998
 10
-3.9562313884
 20
24.0682218215
 10
-3.9551155705
 20
24.0687124388
 10
-3.9539904271
 20
24.0691818493
 10
-3.952856258
 20
24.0696299509
 10
-3.951713363
 20
24.070056641
 10
-3.9505620417
 20
24.0704618176
 10
-3.9494173999
 20
24.0708406894
 10
-3.9482653249
 20
24.0711986669
 10
-3.9471063046
 20
24.0715359264
 10
-3.9459408271
 20
24.0718526441
 10
-3.9447693804
 20
24.0721489962
 10
-3.9435924527
 20
24.0724251588
 10
-3.9424105319
 20
24.0726813082
 10
-3.9412241062
 20
24.0729176205
 10
-3.9400336635
 20
24.0731342721
 10
-3.9388396919
 20
24.073331439
 10
-3.9376426795
 20
24.0735092975
 10
-3.9364431143
 20
24.0736680238
 10
-3.9352414844
 20
24.0738077941
 10
-3.9340382777
 20
24.0739287846
 10
-3.9328339825
 20
24.0740311715
 10
-3.9316290866
 20
24.074115131
 10
-3.9304240782
 20
24.0741808393
 10
-3.9292194454
 20
24.0742284726
 10
-3.928015676
 20
24.0742582071
  0
LWPOLYLINE
  5
43B
100
AcDbEntity
  8
RACCORDO
100
AcDbPolyline
 62
7
  6
CONTINUOUS
 90
39
 70
0
 10
17.0004648574
 20
-9.7992551276
 10
17.0258450207
 20
-9.7803317735
 10
17.0507283241
 20
-9.7607151736
 10
17.0750974628
 20
-9.7404254884
 10
17.0989351322
 20
-9.7194828781
 10
17.1222240276
 20
-9.6979075033
 10
17.1449468444
 20
-9.6757195243
 10
17.1670862778
 20
-9.6529391014
 10
17.1886250233
 20
-9.6295863952
 10
17.209545776
 20
-9.6056815659
 10
17.2298312314
 20
-9.5812447739
 10
17.2494253643
 20
-9.5563494167
 10
17.2683651402
 20
-9.5309640321
 10
17.2866460457
 20
-9.5051082317
 10
17.3042635675
 20
-9.4788016273
 10
17.3212131921
 20
-9.4520638303
 10
17.3374904063
 20
-9.4249144526
 10
17.3530906967
 20
-9.3973731057
 10
17.3680095498
 20
-9.3694594013
 10
17.3822424525
 20
-9.3411929509
 10
17.3957848912
 20
-9.3125933663
 10
17.4100206918
 20
-9.2804433413
 10
17.4234017189
 20
-9.247930573
 10
17.4359314844
 20
-9.2150795136
 10
17.4476135
 20
-9.1819146151
 10
17.4584512777
 20
-9.1484603295
 10
17.4684483293
 20
-9.1147411089
 10
17.4776081665
 20
-9.0807814051
 10
17.4859343014
 20
-9.0466056704
 10
17.4934302456
 20
-9.0122383566
 10
17.500147165
 20
-8.9774458421
 10
17.5060353415
 20
-8.9425055497
 10
17.5111050595
 20
-8.9074393251
 10
17.515366604
 20
-8.872269014
 10
17.5188302595
 20
-8.8370164619
 10
17.5215063108
 20
-8.8017035146
 10
17.5234050425
 20
-8.7663520178
 10
17.5245367394
 20
-8.730983817
 10
17.5249116863
 20
-8.6956207579
  0
LWPOLYLINE
  5
43C
100
AcDbEntity
  8
RACCORDO
100
AcDbPolyline
 62
7
  6
CONTINUOUS
 90
19
 70
0
 10
16.9333540227
 20
-9.8409810471
 10
16.9386997953
 20
-9.8370634925
 10
16.9440040284
 20
-9.8330897674
 10
16.9492665612
 20
-9.8290602743
 10
16.9544872332
 20
-9.8249754158
 10
16.959665884
 20
-9.8208355941
 10
16.9656857844
 20
-9.8159108874
 10
16.9716470094
 20
-9.810912564
 10
16.9775489067
 20
-9.8058420585
 10
16.9833908244
 20
-9.8007008051
 10
16.9891721102
 20
-9.7954902384
 10
16.9948921122
 20
-9.7902117927
 10
17.0005501782
 20
-9.7848669024
 10
17.0061456561
 20
-9.779457002
 10
17.0116778937
 20
-9.7739835258
 10
17.0171462391
 20
-9.7684479084
 10
17.0225500401
 20
-9.7628515841
 10
17.0278886446
 20
-9.7571959873
 10
17.0331614006
 20
-9.7514825525
  0
LINE
  5
43D
100
AcDbEntity
  8
0
100
AcDbLine
 62
7
  6
CONTINUOUS
 10
2.0970320445
 20
-17.7198358273
 11
2.7979679982
 21
-17.2118360896
  0
LINE
  5
43E
100
AcDbEntity
  8
DRAFT
100
AcDbLine
 62
7
  6
CONTINUOUS
 10
2.3960960907
 20
-17.5137788801
 11
2.0970320445
 21
-17.7305240138
  0
LINE
  5
43F
100
AcDbEntity
  8
DRAFT
100
AcDbLine
 62
7
  6
CONTINUOUS
 10
8.9212459116
 20
-14.1601162259
 11
8.1685518276
 21
-14.7056274029
  0
LINE
  5
440
100
AcDbEntity
  8
RACCORDO
100
AcDbLine
 62
7
  6
CONTINUOUS
 10
16.9333540227
 20
-9.8409810471
 11
16.5138108118
 21
-10.1450428376
  0
LINE
  5
441
100
AcDbEntity
  8
RACCORDO
100
AcDbLine
 62
7
  6
CONTINUOUS
 10
17.0004648574
 20
-9.7992551276
 11
16.5840840178
 21
-10.1010250056
  0
LINE
  5
442
100
AcDbEntity
  8
RACCORDO
100
AcDbLine
 62
7
  6
CONTINUOUS
 10
17.2723175066
 20
21.599845045
 11
2.810309653
 21
14.1119212797
  0
LINE
  5
443
100
AcDbEntity
  8
0
100
AcDbLine
 62
7
  6
CONTINUOUS
 10
2.0970320445
 20
14.4864499272
 11
2.7979679982
 21
14.8399582341
  0
LINE
  5
444
100
AcDbEntity
  8
0
100
AcDbLine
 62
7
  6
CONTINUOUS
 10
1.7434831412
 20
18.0281273759
 11
1.0425471874
 21
17.6765269601
  0
LINE
  5
445
100
AcDbEntity
  8
0
100
AcDbLine
 62
7
  6
CONTINUOUS
 10
2.0970320445
 20
17.4183548782
 11
1.3960960907
 21
17.0667544623
  0
LINE
  5
446
100
AcDbEntity
  8
RACCORDO
100
AcDbLine
 62
7
  6
CONTINUOUS
 10
11.4020322906
 20
22.8120889374
 11
10.0905679796
 21
22.1563567819
  0
LINE
  5
447
100
AcDbEntity
  8
RACCORDO
100
AcDbLine
 62
7
  6
CONTINUOUS
 10
12.2505629984
 20
22.3878261538
 11
11.3716703472
 21
21.9483798283
  0
LINE
  5
448
100
AcDbEntity
  8
RACCORDO
100
AcDbLine
 62
7
  6
CONTINUOUS
 10
16.9333540227
 20
22.7715725514
 11
2.3960960907
 21
15.5437729322
  0
LWPOLYLINE
  5
449
100
AcDbEntity
  8
RACCORDO
100
AcDbPolyline
 62
7
  6
CONTINUOUS
 90
39
 70
0
 10
12.2505341025
 20
22.3878117059
 10
12.2532406686
 20
22.3891352438
 10
12.2559719641
 20
22.390410446
 10
12.2587273823
 20
22.3916351942
 10
12.2615063165
 20
22.3928073699
 10
12.2643081601
 20
22.3939248546
 10
12.2671323064
 20
22.3949855301
 10
12.2699781487
 20
22.3959872778
 10
12.2728450802
 20
22.3969279794
 10
12.2757324945
 20
22.3978055164
 10
12.2784023229
 20
22.398554057
 10
12.2810877711
 20
22.3992452879
 10
12.2837876867
 20
22.3998769883
 10
12.286500917
 20
22.4004469374
 10
12.2892263097
 20
22.4009529142
 10
12.2919627123
 20
22.4013926981
 10
12.2947089723
 20
22.4017640682
 10
12.2974639371
 20
22.4020648036
 10
12.3002264544
 20
22.4022926836
 10
12.3025366752
 20
22.4024254968
 10
12.3048498687
 20
22.4025048304
 10
12.3071645505
 20
22.4025294915
 10
12.3094792361
 20
22.402498287
 10
12.3117924409
 20
22.4024100236
 10
12.3141026807
 20
22.4022635084
 10
12.3164084708
 20
22.4020575483
 10
12.3187083268
 20
22.4017909501
 10
12.3210007643
 20
22.4014625208
 10
12.3232842988
 20
22.4010710673
 10
12.3254541053
 20
22.400637734
 10
12.3276122852
 20
22.4001459992
 10
12.3297566753
 20
22.3995959669
 10
12.3318851126
 20
22.3989877413
 10
12.3339954342
 20
22.3983214266
 10
12.3360854768
 20
22.397597127
 10
12.3381530775
 20
22.3968149466
 10
12.3401960732
 20
22.3959749896
 10
12.3422123009
 20
22.3950773601
 10
12.3441995975
 20
22.3941221623
  0
LINE
  5
44A
100
AcDbEntity
  8
DRAFT
100
AcDbLine
 62
7
  6
CONTINUOUS
 10
12.0028053863
 20
25.1694782327
 11
7.9906494078
 21
23.2146054251
  0
LINE
  5
44B
100
AcDbEntity
  8
DRAFT
100
AcDbLine
 62
7
  6
CONTINUOUS
 10
8.1685518276
 20
21.1053013418
 11
1.7848563448
 21
18.0044270862
  0
LINE
  5
44C
100
AcDbEntity
  8
RACCORDO
100
AcDbLine
 62
7
  6
CONTINUOUS
 10
16.5138108118
 20
23.4951775529
 11
8.9212459116
 21
19.8070960808
  0
LINE
  5
44D
100
AcDbEntity
  8
RACCORDO
100
AcDbLine
 62
7
  6
CONTINUOUS
 10
15.7081388757
 20
23.8980135209
 11
12.2869928059
 21
22.2560477926
  0
LWPOLYLINE
  5
44E
100
AcDbEntity
  8
RACCORDO
100
AcDbPolyline
 62
7
  6
CONTINUOUS
 90
41
 70
0
 10
16.5138108118
 20
23.4951775529
 10
16.5262928494
 20
23.5011359671
 10
16.538868522
 20
23.5069241158
 10
16.5515328493
 20
23.5125301293
 10
16.5642808511
 20
23.5179421381
 10
16.5771075472
 20
23.5231482726
 10
16.5900079575
 20
23.5281366633
 10
16.6029771018
 20
23.5328954406
 10
16.6160099998
 20
23.537412735
 10
16.6249025268
 20
23.5403379876
 10
16.6338286408
 20
23.5431371609
 10
16.642794783
 20
23.545801193
 10
16.6518073942
 20
23.5483210222
 10
16.6608729155
 20
23.5506875864
 10
16.669997788
 20
23.5528918238
 10
16.6791884525
 20
23.5549246725
 10
16.6884513502
 20
23.5567770707
 10
16.6977929219
 20
23.5584399564
 10
16.7072196088
 20
23.5599042677
 10
16.7136372295
 20
23.5607757624
 10
16.7200898262
 20
23.5615455617
 10
16.7265705986
 20
23.5622067127
 10
16.7330727463
 20
23.5627522627
 10
16.7395894691
 20
23.5631752589
 10
16.7461139667
 20
23.5634687486
 10
16.7526394386
 20
23.5636257789
 10
16.7591590847
 20
23.5636393972
 10
16.7656661046
 20
23.5635026507
 10
16.7721536979
 20
23.5632085865
 10
16.7786150644
 20
23.562750252
 10
16.7850434038
 20
23.5621206944
 10
16.7914319157
 20
23.5613129608
 10
16.7977737998
 20
23.5603200986
 10
16.8040622559
 20
23.559135155
 10
16.8102904835
 20
23.5577511772
 10
16.8164516825
 20
23.5561612125
 10
16.8225390524
 20
23.5543583081
 10
16.8285457929
 20
23.5523355111
 10
16.8344651038
 20
23.550085869
 10
16.8402901848
 20
23.5476024288
 10
16.8460142355
 20
23.5448782379
  0
LINE
  5
44F
100
AcDbEntity
  8
RACCORDO
100
AcDbLine
 62
7
  6
CONTINUOUS
 10
11.0064757966
 20
26.2488450604
 11
7.5760718962
 21
24.6115082475
  0
LWPOLYLINE
  5
450
100
AcDbEntity
  8
RACCORDO
100
AcDbPolyline
 62
7
  6
CONTINUOUS
 90
41
 70
0
 10
-3.7068792373
 20
15.1944885292
 10
-3.7311597407
 20
15.182937927
 10
-3.7550674266
 20
15.170601683
 10
-3.7785983825
 20
15.1575163459
 10
-3.8017486961
 20
15.143718464
 10
-3.8245144547
 20
15.1292445861
 10
-3.846891746
 20
15.1141312606
 10
-3.8688766573
 20
15.0984150362
 10
-3.8904652762
 20
15.0821324613
 10
-3.9116536902
 20
15.0653200845
 10
-3.9324379869
 20
15.0480144545
 10
-3.9528142536
 20
15.0302521197
 10
-3.9774046127
 20
15.0077393629
 10
-4.0013720884
 20
14.9846107995
 10
-4.0247217167
 20
14.9608910626
 10
-4.0474585337
 20
14.9366047851
 10
-4.0695875755
 20
14.9117766003
 10
-4.0911138781
 20
14.886431141
 10
-4.1120424775
 20
14.8605930404
 10
-4.1323784098
 20
14.8342869316
 10
-4.152126711
 20
14.8075374475
 10
-4.1712924172
 20
14.7803692213
 10
-4.1928288409
 20
14.7483124971
 10
-4.2135771445
 20
14.7157424183
 10
-4.2335285959
 20
14.6826774613
 10
-4.2526744626
 20
14.6491361025
 10
-4.2710060123
 20
14.6151368183
 10
-4.2885145127
 20
14.5806980851
 10
-4.3051912314
 20
14.5458383792
 10
-4.3210274361
 20
14.510576177
 10
-4.3360143945
 20
14.474929955
 10
-4.348400761
 20
14.4434955675
 10
-4.3601126119
 20
14.4117984461
 10
-4.3711300012
 20
14.3798547373
 10
-4.3814329826
 20
14.3476805877
 10
-4.3910016103
 20
14.315292144
 10
-4.3998159381
 20
14.2827055529
 10
-4.4078560198
 20
14.2499369609
 10
-4.4151019094
 20
14.2170025146
 10
-4.4215336609
 20
14.1839183608
 10
-4.4271313281
 20
14.1507006459
  0
LWPOLYLINE
  5
451
100
AcDbEntity
  8
0
100
AcDbPolyline
 62
7
  6
CONTINUOUS
 90
41
 70
0
 10
-1.2957787684
 20
20.6164072409
 10
-1.29337874
 20
20.617531256
 10
-1.2909433596
 20
20.6185836287
 10
-1.2884749098
 20
20.6195649511
 10
-1.2859756734
 20
20.6204758148
 10
-1.2834479329
 20
20.6213168119
 10
-1.2808939712
 20
20.622088534
 10
-1.2783160709
 20
20.6227915731
 10
-1.2757165145
 20
20.6234265211
 10
-1.273097585
 20
20.6239939697
 10
-1.2704615648
 20
20.6244945109
 10
-1.2678107367
 20
20.6249287364
 10
-1.2651473834
 20
20.6252972382
 10
-1.2624737875
 20
20.6256006081
 10
-1.2597922318
 20
20.6258394379
 10
-1.2571049988
 20
20.6260143195
 10
-1.2544143713
 20
20.6261258447
 10
-1.251722632
 20
20.6261746055
 10
-1.2490320635
 20
20.6261611936
 10
-1.2463449485
 20
20.6260862009
 10
-1.2436635697
 20
20.6259502192
 10
-1.2405736749
 20
20.6257180191
 10
-1.2374952059
 20
20.625407298
 10
-1.2344288732
 20
20.6250202401
 10
-1.2313753875
 20
20.6245590296
 10
-1.2283354593
 20
20.6240258509
 10
-1.2253097993
 20
20.6234228879
 10
-1.222299118
 20
20.6227523251
 10
-1.2193041261
 20
20.6220163465
 10
-1.2163255342
 20
20.6212171364
 10
-1.2133640528
 20
20.620356879
 10
-1.2104203926
 20
20.6194377584
 10
-1.2074952642
 20
20.618461959
 10
-1.2045893781
 20
20.6174316649
 10
-1.201703445
 20
20.6163490603
 10
-1.1988381755
 20
20.6152163294
 10
-1.1959942801
 20
20.6140356564
 10
-1.1931724695
 20
20.6128092256
 10
-1.1903734543
 20
20.6115392211
 10
-1.187597945
 20
20.6102278271
 10
-1.1848466523
 20
20.6088772279
  0
LWPOLYLINE
  5
452
100
AcDbEntity
  8
RACCORDO
100
AcDbPolyline
 62
7
  6
CONTINUOUS
 90
39
 70
0
 10
10.0353169629
 20
26.7344244773
 10
10.046657498
 20
26.7397282836
 10
10.0580984086
 20
26.7448272665
 10
10.0696368337
 20
26.7497128284
 10
10.0812699121
 20
26.7543763716
 10
10.0929947828
 20
26.7588092986
 10
10.1048085847
 20
26.7630030116
 10
10.1167084568
 20
26.766948913
 10
10.128691538
 20
26.7706384053
 10
10.1407549673
 20
26.7740628908
 10
10.1519287977
 20
26.7769735121
 10
10.1631632893
 20
26.779643659
 10
10.1744534313
 20
26.7820647437
 10
10.1857942129
 20
26.7842281782
 10
10.1971806231
 20
26.7861253745
 10
10.2086076513
 20
26.7877477447
 10
10.2200702865
 20
26.7890867009
 10
10.2315635179
 20
26.7901336551
 10
10.2430823347
 20
26.7908800193
 10
10.2527344483
 20
26.7912673809
 10
10.2623949082
 20
26.7914340448
 10
10.2720576608
 20
26.7913757057
 10
10.2817166523
 20
26.7910880583
 10
10.2913658291
 20
26.7905667971
 10
10.3009991374
 20
26.789807617
 10
10.3106105236
 20
26.7888062125
 10
10.320193934
 20
26.7875582783
 10
10.3297433148
 20
26.7860595092
 10
10.3392526125
 20
26.7843055997
 10
10.3483197623
 20
26.7823827
 10
10.3573364643
 20
26.7802227825
 10
10.3662946217
 20
26.7778269865
 10
10.3751861379
 20
26.7751964513
 10
10.3840029162
 20
26.7723323163
 10
10.3927368599
 20
26.7692357206
 10
10.4013798723
 20
26.7659078036
 10
10.4099238567
 20
26.7623497047
 10
10.4183607165
 20
26.758562563
 10
10.426682355
 20
26.7545475179
  0
LWPOLYLINE
  5
453
100
AcDbEntity
  8
RACCORDO
100
AcDbPolyline
 62
7
  6
CONTINUOUS
 90
41
 70
0
 10
-3.3719442147
 20
14.5762527101
 10
-3.3842132565
 20
14.5705670098
 10
-3.3962999508
 20
14.5644860535
 10
-3.4082018601
 20
14.5580278076
 10
-3.4199165471
 20
14.5512102382
 10
-3.4314415744
 20
14.5440513115
 10
-3.4427745046
 20
14.5365689938
 10
-3.4539129002
 20
14.5287812512
 10
-3.4648543239
 20
14.5207060499
 10
-3.4755963383
 20
14.5123613562
 10
-3.4861365059
 20
14.5037651363
 10
-3.4964723894
 20
14.4949353564
 10
-3.5089061618
 20
14.4837744008
 10
-3.5210291486
 20
14.4722995021
 10
-3.5328434812
 20
14.460523064
 10
-3.5443512906
 20
14.44845749
 10
-3.555554708
 20
14.4361151839
 10
-3.5664558646
 20
14.4235085491
 10
-3.5770568915
 20
14.4106499894
 10
-3.58735992
 20
14.3975519083
 10
-3.5973670811
 20
14.3842267096
 10
-3.6070805061
 20
14.3706867967
 10
-3.6179748879
 20
14.3547362165
 10
-3.628472611
 20
14.3385230626
 10
-3.638568912
 20
14.3220566515
 10
-3.6482590278
 20
14.3053462999
 10
-3.657538195
 20
14.2884013243
 10
-3.6664016503
 20
14.2712310413
 10
-3.6748446304
 20
14.2538447674
 10
-3.682862372
 20
14.2362518191
 10
-3.6904501119
 20
14.2184615131
 10
-3.6967159948
 20
14.202781418
 10
-3.7026405399
 20
14.186966408
 10
-3.7082135652
 20
14.1710247974
 10
-3.7134248886
 20
14.1549649001
 10
-3.7182643282
 20
14.1387950303
 10
-3.722721702
 20
14.1225235021
 10
-3.7267868281
 20
14.1061586297
 10
-3.7304495243
 20
14.0897087271
 10
-3.7336996087
 20
14.0731821085
 10
-3.7365268993
 20
14.056587088
  0
LINE
  5
454
100
AcDbEntity
  8
RACCORDO
100
AcDbLine
 62
7
  6
CONTINUOUS
 10
9.6468594804
 20
26.766638813
 11
4.0143630201
 21
24.1653652931
  0
LINE
  5
455
100
AcDbEntity
  8
RACCORDO
100
AcDbLine
 62
7
  6
CONTINUOUS
 10
10.0353169629
 20
26.7344244773
 11
4.2343771427
 21
24.0553582318
  0
LINE
  5
456
100
AcDbEntity
  8
DRAFT
100
AcDbLine
 62
7
  6
CONTINUOUS
 10
7.2926742688
 20
21.5432401212
 11
6.800289015
 21
21.3158402939
  0
LINE
  5
457
100
AcDbEntity
  8
DRAFT
100
AcDbLine
 62
7
  6
CONTINUOUS
 10
-4.9255718946
 20
18.6712217314
 11
-5.0855170811
 21
18.5988526217
  0
LINE
  5
458
100
AcDbEntity
  8
RACCORDO
100
AcDbLine
 62
7
  6
CONTINUOUS
 10
-3.6739739511
 20
22.2648881961
 11
-3.8386215381
 21
22.1907635195
  0
LWPOLYLINE
  5
459
100
AcDbEntity
  8
RACCORDO
100
AcDbPolyline
 62
7
  6
CONTINUOUS
 90
39
 70
0
 10
9.6468652564
 20
26.7666263049
 10
9.6552568203
 20
26.7703598403
 10
9.6637560162
 20
26.7738630408
 10
9.6723547405
 20
26.7771350462
 10
9.6810448893
 20
26.7801749962
 10
9.6898183589
 20
26.7829820304
 10
9.6986670454
 20
26.7855552888
 10
9.7075828451
 20
26.787893911
 10
9.7165576543
 20
26.7899970367
 10
9.7255833691
 20
26.7918638058
 10
9.7346518859
 20
26.7934933579
 10
9.7441573778
 20
26.7949415571
 10
9.7536948021
 20
26.7961347232
 10
9.7632582681
 20
26.7970773396
 10
9.7728418855
 20
26.7977738899
 10
9.7824397638
 20
26.7982288576
 10
9.7920460125
 20
26.7984467263
 10
9.8016547411
 20
26.7984319794
 10
9.8112600591
 20
26.7981891005
 10
9.820856076
 20
26.7977225732
 10
9.8304369015
 20
26.797036881
 10
9.8418676193
 20
26.7959355114
 10
9.8532634881
 20
26.7945358609
 10
9.8646198116
 20
26.7928466968
 10
9.8759318932
 20
26.7908767867
 10
9.8871950365
 20
26.788634898
 10
9.8984045452
 20
26.7861297981
 10
9.9095557228
 20
26.7833702545
 10
9.9206438728
 20
26.7803650348
 10
9.9316642989
 20
26.7771229062
 10
9.9435575084
 20
26.7733411956
 10
9.9553626439
 20
26.7692987337
 10
9.967077139
 20
26.7650041397
 10
9.9786984279
 20
26.7604660329
 10
9.9902239442
 20
26.7556930323
 10
10.001651122
 20
26.7506937573
 10
10.0129773951
 20
26.745476827
 10
10.0242001975
 20
26.7400508606
 10
10.0353169629
 20
26.7344244773
  0
LINE
  5
45A
100
AcDbEntity
  8
RACCORDO
100
AcDbLine
 62
7
  6
CONTINUOUS
 10
-0.8284229238
 20
16.4703055431
 11
-3.7068792373
 21
15.1944885292
  0
LINE
  5
45B
100
AcDbEntity
  8
RACCORDO
100
AcDbLine
 62
7
  6
CONTINUOUS
 10
-0.4934879012
 20
15.852069724
 11
-3.3719442147
 21
14.5762527101
  0
LINE
  5
45C
100
AcDbEntity
  8
DRAFT
100
AcDbLine
 62
7
  6
CONTINUOUS
 10
-9.1237792405
 20
20.7703254044
 11
-9.2894152673
 21
20.7008017149
  0
LWPOLYLINE
  5
45D
100
AcDbEntity
  8
RACCORDO
100
AcDbPolyline
 62
7
  6
CONTINUOUS
 90
39
 70
0
 10
-3.8158419709
 20
24.1344378296
 10
-3.8139607324
 20
24.135175699
 10
-3.8120552641
 20
24.1358548036
 10
-3.81012741
 20
24.1364758177
 10
-3.8081790138
 20
24.1370394159
 10
-3.8062119194
 20
24.1375462726
 10
-3.8042279706
 20
24.1379970622
 10
-3.8022290112
 20
24.1383924591
 10
-3.800216885
 20
24.1387331379
 10
-3.7981934359
 20
24.139019773
 10
-3.7961605076
 20
24.1392530388
 10
-3.794119944
 20
24.1394336097
 10
-3.7920735889
 20
24.1395621603
 10
-3.7900232862
 20
24.1396393649
 10
-3.7879708796
 20
24.139665898
 10
-3.7859182129
 20
24.1396424341
 10
-3.78386713
 20
24.1395696475
 10
-3.7818194747
 20
24.1394482129
 10
-3.7797770908
 20
24.1392788045
 10
-3.7777418221
 20
24.1390620969
 10
-3.7753870694
 20
24.138751786
 10
-3.7730448614
 20
24.1383803302
 10
-3.7707156381
 20
24.1379495793
 10
-3.7683998398
 20
24.137461383
 10
-3.7660979064
 20
24.1369175909
 10
-3.7638102783
 20
24.1363200529
 10
-3.7615373954
 20
24.1356706186
 10
-3.759279698
 20
24.1349711378
 10
-3.7570376261
 20
24.1342234602
 10
-3.7548116198
 20
24.1334294354
 10
-3.7526021194
 20
24.1325909133
 10
-3.7504095648
 20
24.1317097435
 10
-3.7482343963
 20
24.1307877758
 10
-3.746077054
 20
24.1298268598
 10
-3.743937978
 20
24.1288288453
 10
-3.7418176084
 20
24.1277955821
 10
-3.7397163853
 20
24.1267289198
 10
-3.7376347489
 20
24.1256307081
 10
-3.7355731393
 20
24.1245027968
  0
LWPOLYLINE
  5
45E
100
AcDbEntity
  8
0
100
AcDbPolyline
 62
7
  6
CONTINUOUS
 90
36
 70
0
 10
-0.7510984376
 20
20.8810670762
 10
-0.7485592991
 20
20.8819230435
 10
-0.7459938578
 20
20.8827048074
 10
-0.7434042647
 20
20.8834133118
 10
-0.7407926709
 20
20.8840495007
 10
-0.7381612275
 20
20.8846143183
 10
-0.7355120855
 20
20.8851087085
 10
-0.7328473959
 20
20.8855336155
 10
-0.7301693098
 20
20.8858899833
 10
-0.7274799782
 20
20.8861787558
 10
-0.7247815522
 20
20.8864008772
 10
-0.7220761828
 20
20.8865572916
 10
-0.719366021
 20
20.8866489429
 10
-0.716653218
 20
20.8866767752
 10
-0.7139399246
 20
20.8866417325
 10
-0.7112282921
 20
20.886544759
 10
-0.7085204714
 20
20.8863867986
 10
-0.7058186136
 20
20.8861687954
 10
-0.7031248697
 20
20.8858916935
 10
-0.7000476808
 20
20.885502451
 10
-0.6969846092
 20
20.8850388189
 10
-0.6939362693
 20
20.8845029062
 10
-0.6909032755
 20
20.883896822
 10
-0.6878862422
 20
20.8832226753
 10
-0.6848857838
 20
20.8824825752
 10
-0.6819025148
 20
20.8816786306
 10
-0.6789370495
 20
20.8808129507
 10
-0.6759900024
 20
20.8798876444
 10
-0.6730619879
 20
20.8789048209
 10
-0.6701536203
 20
20.8778665891
 10
-0.6672655142
 20
20.876775058
 10
-0.6643982839
 20
20.8756323368
 10
-0.6615525437
 20
20.8744405345
 10
-0.6587289082
 20
20.87320176
 10
-0.6559279918
 20
20.8719181225
 10
-0.6531504088
 20
20.8705917309
  0
LWPOLYLINE
  5
45F
100
AcDbEntity
  8
RACCORDO
100
AcDbPolyline
 62
7
  6
CONTINUOUS
 90
41
 70
0
 10
-5.2960553464
 20
-23.1686150733
 10
-5.3112362206
 20
-23.1772601287
 10
-5.3266814225
 20
-23.1854416269
 10
-5.3423712162
 20
-23.1931710111
 10
-5.3582858654
 20
-23.2004597243
 10
-5.374405634
 20
-23.2073192097
 10
-5.3907107859
 20
-23.2137609103
 10
-5.4071815848
 20
-23.2197962692
 10
-5.4237982946
 20
-23.2254367294
 10
-5.4405411791
 20
-23.2306937342
 10
-5.4573905022
 20
-23.2355787265
 10
-5.4779455985
 20
-23.2410183627
 10
-5.4986169932
 20
-23.2459324144
 10
-5.5193934333
 20
-23.2503257443
 10
-5.5402636662
 20
-23.2542032151
 10
-5.5612164389
 20
-23.2575696897
 10
-5.5822404987
 20
-23.2604300307
 10
-5.6033245925
 20
-23.262789101
 10
-5.6244574676
 20
-23.2646517634
 10
-5.6456278712
 20
-23.2660228805
 10
-5.6644091231
 20
-23.2668290353
 10
-5.6832031398
 20
-23.2672447906
 10
-5.7020020558
 20
-23.2672618708
 10
-5.7207980051
 20
-23.2668720003
 10
-5.7395831222
 20
-23.2660669035
 10
-5.7583495413
 20
-23.2648383048
 10
-5.7770893968
 20
-23.2631779286
 10
-5.7957948229
 20
-23.2610774993
 10
-5.814457954
 20
-23.2585287412
 10
-5.8330709243
 20
-23.2555233789
 10
-5.8480541198
 20
-23.2527567697
 10
-5.862982825
 20
-23.2496741698
 10
-5.8778403726
 20
-23.2462626065
 10
-5.8926100949
 20
-23.2425091071
 10
-5.9072753247
 20
-23.2384006989
 10
-5.9218193943
 20
-23.2339244092
 10
-5.9362256365
 20
-23.2290672653
 10
-5.9504773836
 20
-23.2238162945
 10
-5.9645579683
 20
-23.2181585242
 10
-5.9784507232
 20
-23.2120809815
 10
-5.9921389806
 20
-23.2055706939
  0
LWPOLYLINE
  5
460
100
AcDbEntity
  8
0
100
AcDbPolyline
 62
7
  6
CONTINUOUS
 90
7
 70
0
 10
2.0272469904
 20
-16.1551649384
 10
2.1235495275
 20
-16.1018817735
 10
2.2199737236
 20
-16.0488188288
 10
2.3643063255
 20
-15.9698172121
 10
2.5088215171
 20
-15.8911496657
 10
2.653488516
 20
-15.8127613016
 10
2.7982765396
 20
-15.734597232
  0
LWPOLYLINE
  5
461
100
AcDbEntity
  8
RACCORDO
100
AcDbPolyline
 62
7
  6
CONTINUOUS
 90
16
 70
0
 10
16.5138108118
 20
-10.1450428376
 10
16.5182426218
 20
-10.1426728491
 10
16.5226524272
 20
-10.1402620099
 10
16.5270402028
 20
-10.1378107263
 10
16.5314059234
 20
-10.1353194041
 10
16.536223067
 20
-10.132509383
 10
16.5410126857
 20
-10.1296513391
 10
16.5457744269
 20
-10.1267460217
 10
16.5505079381
 20
-10.1237941803
 10
16.5552128664
 20
-10.1207965645
 10
16.5598888593
 20
-10.1177539238
 10
16.5645355641
 20
-10.1146670076
 10
16.5691526282
 20
-10.1115365654
 10
16.5737396989
 20
-10.1083633468
 10
16.5782964235
 20
-10.1051481012
 10
16.5828224495
 20
-10.1018915781
  0
LINE
  5
462
100
AcDbEntity
  8
RACCORDO
100
AcDbLine
 62
7
  6
CONTINUOUS
 10
16.5138108118
 20
-10.1450428376
 11
8.9212459116
 21
-14.1601162259
  0
LINE
  5
463
100
AcDbEntity
  8
DRAFT
100
AcDbLine
 62
7
  6
CONTINUOUS
 10
8.1685518276
 20
-14.7056274029
 11
2.0970320445
 21
-17.9163470778
  0
LINE
  5
464
100
AcDbEntity
  8
RACCORDO
100
AcDbLine
 62
7
  6
CONTINUOUS
 10
16.9333540227
 20
-9.8409810471
 11
2.3960960907
 21
-17.5137788801
  0
LINE
  5
465
100
AcDbEntity
  8
RACCORDO
100
AcDbLine
 62
7
  6
CONTINUOUS
 10
17.2723175066
 20
-9.0082170246
 11
2.810309653
 21
-16.4961407899
  0
LINE
  5
466
100
AcDbEntity
  8
0
100
AcDbLine
 62
7
  6
CONTINUOUS
 10
6.3786245751
 20
-15.9517098884
 11
2.0970320445
 21
-18.1513301477
  0
LINE
  5
467
100
AcDbEntity
  8
0
100
AcDbLine
 62
7
  6
CONTINUOUS
 10
2.0970320445
 20
-17.5716053913
 11
2.7979679982
 21
-17.2118360896
  0
LINE
  5
468
100
AcDbEntity
  8
RACCORDO
100
AcDbLine
 62
7
  6
CONTINUOUS
 10
-1.4021082295
 20
-6.4261725358
 11
-1.427309658
 21
-6.4378113907
  0
LWPOLYLINE
  5
469
100
AcDbEntity
  8
RACCORDO
100
AcDbPolyline
 62
7
  6
CONTINUOUS
 90
39
 70
0
 10
-4.8713727049
 20
3.536418787
 10
-4.8869715742
 20
3.5306171156
 10
-4.9027372262
 20
3.5252701781
 10
-4.9186540676
 20
3.5203599781
 10
-4.9347065053
 20
3.5158685194
 10
-4.9508789458
 20
3.5117778056
 10
-4.9671557959
 20
3.5080698403
 10
-4.9835214622
 20
3.5047266273
 10
-4.9999603517
 20
3.5017301702
 10
-5.0164568708
 20
3.4990624727
 10
-5.0329954263
 20
3.4967055384
 10
-5.0538606594
 20
3.4941564906
 10
-5.0747609735
 20
3.4920633338
 10
-5.0956895214
 20
3.4904177464
 10
-5.1166394556
 20
3.4892114065
 10
-5.1376039289
 20
3.4884359923
 10
-5.1585760939
 20
3.4880831819
 10
-5.1795491033
 20
3.4881446536
 10
-5.2005161097
 20
3.4886120854
 10
-5.2214702658
 20
3.4894771557
 10
-5.2424959266
 20
3.4907403302
 10
-5.2634941335
 20
3.4924026285
 10
-5.2844573026
 20
3.4944704523
 10
-5.30537785
 20
3.4969502032
 10
-5.3262481918
 20
3.4998482829
 10
-5.347060744
 20
3.5031710931
 10
-5.3678079227
 20
3.5069250354
 10
-5.388482144
 20
3.5111165116
 10
-5.409075824
 20
3.5157519232
 10
-5.4255151674
 20
3.519793728
 10
-5.4418815077
 20
3.5241400838
 10
-5.458158446
 20
3.5288062846
 10
-5.4743295831
 20
3.5338076245
 10
-5.4903785198
 20
3.5391593973
 10
-5.5062888573
 20
3.5448768969
 10
-5.5220441963
 20
3.5509754175
 10
-5.5376281378
 20
3.5574702528
 10
-5.5530242827
 20
3.5643766969
 10
-5.5682162318
 20
3.5717100438
  0
LWPOLYLINE
  5
46A
100
AcDbEntity
  8
RACCORDO
100
AcDbPolyline
 62
7
  6
CONTINUOUS
 90
74
 70
0
 10
17.3799767968
 20
16.0535479231
 10
17.3867859906
 20
16.0558448295
 10
17.393677679
 20
16.0579279914
 10
17.4006423957
 20
16.0597817485
 10
17.4076706743
 20
16.0613904402
 10
17.4147530484
 20
16.0627384062
 10
17.4218800517
 20
16.063809986
 10
17.4290422178
 20
16.0645895193
 10
17.4362300803
 20
16.0650613455
 10
17.4428532914
 20
16.0652117213
 10
17.4494775989
 20
16.0650856687
 10
17.4560903759
 20
16.0646801851
 10
17.4626789953
 20
16.0639922677
 10
17.4692308301
 20
16.0630189141
 10
17.4757332533
 20
16.0617571214
 10
17.4821736379
 20
16.060203887
 10
17.4889311639
 20
16.058234904
 10
17.4955946922
 20
16.0559464912
 10
17.5021544111
 20
16.0533512064
 10
17.5086005086
 20
16.0504616073
 10
17.5149231732
 20
16.0472902517
 10
17.5211125928
 20
16.0438496973
 10
17.5271589559
 20
16.0401525018
 10
17.5330524505
 20
16.0362112231
 10
17.5387832648
 20
16.0320384188
 10
17.5443415872
 20
16.0276466467
 10
17.5497176057
 20
16.0230484646
 10
17.5554490768
 20
16.0177297336
 10
17.5609456182
 20
16.0121859606
 10
17.5662079248
 20
16.0064298578
 10
17.5712366915
 20
16.0004741377
 10
17.5760326131
 20
15.9943315126
 10
17.5805963844
 20
15.9880146949
 10
17.5849287002
 20
15.9815363969
 10
17.5890302554
 20
15.9749093311
 10
17.5929017449
 20
15.9681462098
 10
17.596799869
 20
15.960752077
 10
17.6004310095
 20
15.9532256103
 10
17.6037922262
 20
15.9455764639
 10
17.6068805789
 20
15.9378142918
 10
17.6096931274
 20
15.9299487483
 10
17.6122269313
 20
15.9219894873
 10
17.6144790504
 20
15.9139461631
 10
17.6164465446
 20
15.9058284298
 10
17.6183131648
 20
15.8966385197
 10
17.6198166813
 20
15.8873817851
 10
17.6209564243
 20
15.8780730157
 10
17.6217317242
 20
15.8687270012
 10
17.6221419112
 20
15.8593585313
 10
17.6221863156
 20
15.8499823957
 10
17.6218642677
 20
15.8406133841
 10
17.6211547233
 20
15.8310374032
 10
17.6200657662
 20
15.8214973979
 10
17.6186032985
 20
15.8120063444
 10
17.6167732221
 20
15.8025772186
 10
17.6145814389
 20
15.7932229965
 10
17.612033851
 20
15.7839566542
 10
17.6091363603
 20
15.7747911677
 10
17.605882308
 20
15.7657012432
 10
17.6022957366
 20
15.7567300963
 10
17.598390946
 20
15.7478817403
 10
17.5941822361
 20
15.7391601883
 10
17.5896839067
 20
15.7305694537
 10
17.5849102578
 20
15.7221135497
 10
17.5798755892
 20
15.7137964896
 10
17.5745942007
 20
15.7056222865
 10
17.5690803923
 20
15.6975949538
 10
17.5633484638
 20
15.6897185046
 10
17.5574127152
 20
15.6819969522
 10
17.5512874462
 20
15.6744343099
 10
17.5449869568
 20
15.6670345909
 10
17.5385255468
 20
15.6598018085
 10
17.5319175161
 20
15.6527399758
 10
17.5251771647
 20
15.6458531062
  0
LINE
  5
46B
100
AcDbEntity
  8
0
100
AcDbLine
 62
7
  6
CONTINUOUS
 10
1.3960960907
 20
-20.865187535
 11
2.0970320445
 21
-20.5035103423
  0
LINE
  5
46C
100
AcDbEntity
  8
0
100
AcDbLine
 62
7
  6
CONTINUOUS
 10
1.2673969433
 20
-21.1349905568
 11
1.9692197916
 21
-20.7728557337
  0
LINE
  5
46D
100
AcDbEntity
  8
0
100
AcDbLine
 62
7
  6
CONTINUOUS
 10
0.6889893095
 20
-22.5467828515
 11
1.2204550689
 21
-22.2741242668
  0
LINE
  5
46E
100
AcDbEntity
  8
0
100
AcDbLine
 62
7
  6
CONTINUOUS
 10
0.6248861801
 20
-22.6815596117
 11
1.1535684437
 21
-22.4103356031
  0
LINE
  5
46F
100
AcDbEntity
  8
ASSI
100
AcDbLine
 62
7
  6
CONTINUOUS
 10
7.1892457167
 20
-15.4387627155
 11
2.0970320445
 21
-18.042876371
  0
LINE
  5
470
100
AcDbEntity
  8
0
100
AcDbLine
 62
7
  6
CONTINUOUS
 10
0.6248842064
 20
-22.6815606243
 11
0.6231477946
 21
-22.6824288445
  0
LINE
  5
471
100
AcDbEntity
  8
0
100
AcDbLine
 62
7
  6
CONTINUOUS
 10
-0.9122914814
 20
-23.3268174511
 11
0.6889893095
 21
-22.5467828515
  0
LINE
  5
472
100
AcDbEntity
  8
0
100
AcDbLine
 62
7
  6
CONTINUOUS
 10
-0.9785530739
 20
-23.4626680773
 11
0.623145029
 21
-22.6824301917
  0
LWPOLYLINE
  5
473
100
AcDbEntity
  8
0
100
AcDbPolyline
 62
7
  6
CONTINUOUS
 90
6
 70
0
 10
2.7982765396
 20
-16.6020681358
 10
2.6054955558
 20
-16.6940965724
 10
2.4611946369
 20
-16.7626540985
 10
2.3167474648
 20
-16.8309033815
 10
2.1721121969
 20
-16.8987515666
 10
2.0272469904
 20
-16.9661057988
  0
LINE
  5
474
100
AcDbEntity
  8
RACCORDO
100
AcDbLine
 62
7
  6
CONTINUOUS
 10
-1.4323310341
 20
-16.26818734
 11
-1.8471740882
 21
-16.4597756098
  0
LINE
  5
475
100
AcDbEntity
  8
RACCORDO
100
AcDbLine
 62
7
  6
CONTINUOUS
 10
-1.6216035196
 20
-16.6503053963
 11
-1.8597642129
 21
-16.7602958968
  0
LWPOLYLINE
  5
476
100
AcDbEntity
  8
RACCORDO
100
AcDbPolyline
 62
7
  6
CONTINUOUS
 90
39
 70
0
 10
-5.5738046515
 20
-13.2302976291
 10
-5.5893407519
 20
-13.2367711951
 10
-5.6050667168
 20
-13.2427845894
 10
-5.6209657357
 20
-13.2483545568
 10
-5.6370209983
 20
-13.2534978417
 10
-5.6532156944
 20
-13.2582311886
 10
-5.6695330136
 20
-13.2625713422
 10
-5.6859561455
 20
-13.2665350469
 10
-5.7024682798
 20
-13.2701390474
 10
-5.7190526063
 20
-13.2734000882
 10
-5.7356923145
 20
-13.2763349138
 10
-5.756523827
 20
-13.2795625538
 10
-5.7774075701
 20
-13.2823155929
 10
-5.7983356483
 20
-13.2846018419
 10
-5.8193001658
 20
-13.2864291116
 10
-5.8402932271
 20
-13.2878052129
 10
-5.8613069364
 20
-13.2887379567
 10
-5.8823333983
 20
-13.2892351539
 10
-5.9033647169
 20
-13.2893046152
 10
-5.9243929968
 20
-13.2889541516
 10
-5.945409519
 20
-13.288189075
 10
-5.9664068083
 20
-13.2870045224
 10
-5.9873765655
 20
-13.2853931022
 10
-6.0083104915
 20
-13.2833474229
 10
-6.0292002868
 20
-13.2808600929
 10
-6.0500376524
 20
-13.2779237206
 10
-6.070814289
 20
-13.2745309145
 10
-6.0915218974
 20
-13.270674283
 10
-6.1121521783
 20
-13.2663464346
 10
-6.1286110016
 20
-13.2625335406
 10
-6.1449972204
 20
-13.2583978234
 10
-6.1612931522
 20
-13.2539234449
 10
-6.1774811142
 20
-13.2490945668
 10
-6.193543424
 20
-13.2438953509
 10
-6.2094623989
 20
-13.2383099588
 10
-6.2252203564
 20
-13.2323225525
 10
-6.2407996139
 20
-13.2259172936
 10
-6.2561824888
 20
-13.219078344
 10
-6.2713512984
 20
-13.2117898653
  0
LINE
  5
477
100
AcDbEntity
  8
0
100
AcDbLine
 62
7
  6
CONTINUOUS
 10
0.3169220267
 20
-21.317968125
 11
1.3960960907
 21
-20.8649746875
  0
LINE
  5
478
100
AcDbEntity
  8
0
100
AcDbLine
 62
7
  6
CONTINUOUS
 10
0.1756261475
 20
-21.59391206
 11
1.2538284742
 21
-21.1413265183
  0
LINE
  5
479
100
AcDbEntity
  8
RACCORDO
100
AcDbLine
 62
7
  6
CONTINUOUS
 10
-4.9629757062
 20
-23.4009121365
 11
-2.0922077156
 21
-22.3086117319
  0
LINE
  5
47A
100
AcDbEntity
  8
RACCORDO
100
AcDbLine
 62
7
  6
CONTINUOUS
 10
-2.2548841535
 20
-22.5937738618
 11
-5.1297204161
 21
-23.6876218019
  0
LINE
  5
47B
100
AcDbEntity
  8
RACCORDO
100
AcDbLine
 62
7
  6
CONTINUOUS
 10
-5.1838283794
 20
-23.7061230717
 11
-5.1297267578
 21
-23.6876050976
  0
ARC
  5
47C
100
AcDbEntity
  8
RACCORDO
100
AcDbCircle
 62
7
  6
CONTINUOUS
 10
-23.7840275763
 20
-47.6642276622
 40
78.8191348932
100
AcDbArc
 50
62.7491355285
 51
63.4099869178
  0
ARC
  5
47D
100
AcDbEntity
  8
RACCORDO
100
AcDbCircle
 62
7
  6
CONTINUOUS
 10
10.4048734586
 20
19.277679436
 40
3.7059776187
100
AcDbArc
 50
73.0771937146
 51
74.2386873556
  0
ARC
  5
47E
100
AcDbEntity
  8
DRAFT
100
AcDbCircle
 62
7
  6
CONTINUOUS
 10
-0.4182090411
 20
13.9123812691
 40
3.2529605183
100
AcDbArc
 50
27.0119127187
 51
30.0999396503
  0
ARC
  5
47F
100
AcDbEntity
  8
DRAFT
100
AcDbCircle
 62
7
  6
CONTINUOUS
 10
0.4395968191
 20
14.1026593064
 40
2.3709247519
100
AcDbArc
 50
3.0950335685
 51
5.8627437916
  0
ARC
  5
480
100
AcDbEntity
  8
DRAFT
100
AcDbCircle
 62
7
  6
CONTINUOUS
 10
0.6203606512
 20
14.1114708108
 40
2.1899490482
100
AcDbArc
 50
0.0117856461
 51
3.1201814062
  0
ARC
  5
481
100
AcDbEntity
  8
DRAFT
100
AcDbCircle
 62
7
  6
CONTINUOUS
 10
0.7856926242
 20
-16.4970709647
 40
2.0246172426
100
AcDbArc
 50
357.0164637573
 51
0.0263235385
  0
ARC
  5
482
100
AcDbEntity
  8
DRAFT
100
AcDbCircle
 62
7
  6
CONTINUOUS
 10
0.8517187048
 20
-16.5001982548
 40
1.9585179109
100
AcDbArc
 50
356.8227672005
 51
357.0072912393
  0
ARC
  5
483
100
AcDbEntity
  8
DRAFT
100
AcDbCircle
 62
7
  6
CONTINUOUS
 10
0.9515926028
 20
-16.5069132259
 40
1.8584257245
100
AcDbArc
 50
353.513147031
 51
356.8588128131
  0
ARC
  5
484
100
AcDbEntity
  8
SUPERFICI
100
AcDbCircle
 62
7
  6
CONTINUOUS
 10
-14.8689264316
 20
-12.5473675938
 40
1.8525398973
100
AcDbArc
 50
15.6754602844
 51
17.2560567692
  0
ARC
  5
485
100
AcDbEntity
  8
SUPERFICI
100
AcDbCircle
 62
7
  6
CONTINUOUS
 10
-17.0609572586
 20
-11.4513520459
 40
1.8525396149
100
AcDbArc
 50
15.6754632253
 51
17.2560600014
  0
ARC
  5
486
100
AcDbEntity
  8
SUPERFICI
100
AcDbCircle
 62
7
  6
CONTINUOUS
 10
-12.8536718838
 20
-13.5549947334
 40
1.852539615
100
AcDbArc
 50
15.6754632254
 51
17.2560600013
  0
ARC
  5
487
100
AcDbEntity
  8
DRAFT
100
AcDbCircle
 62
7
  6
CONTINUOUS
 10
-10.242326362
 20
-12.8795272761
 40
1.8119487084
100
AcDbArc
 50
196.0972318253
 51
197.7101476151
  0
ARC
  5
488
100
AcDbEntity
  8
DRAFT
100
AcDbCircle
 62
7
  6
CONTINUOUS
 10
-14.4496117369
 20
-10.7758845887
 40
1.8119487084
100
AcDbArc
 50
196.0972318253
 51
197.7101476151
  0
ARC
  5
489
100
AcDbEntity
  8
DRAFT
100
AcDbCircle
 62
7
  6
CONTINUOUS
 10
-12.4343575902
 20
-11.7835117849
 40
1.8119484469
100
AcDbArc
 50
196.0972347508
 51
197.7101508254
  0
ARC
  5
48A
100
AcDbEntity
  8
DRAFT
100
AcDbCircle
 62
7
  6
CONTINUOUS
 10
1.9351058935
 20
-16.8782192027
 40
0.7851420671
100
AcDbArc
 50
305.9544853396
 51
313.9372865043
  0
ARC
  5
48B
100
AcDbEntity
  8
DRAFT
100
AcDbCircle
 62
7
  6
CONTINUOUS
 10
-11.3222133741
 20
-12.8632026427
 40
0.7123018471
100
AcDbArc
 50
155.1188685737
 51
158.1356758861
  0
ARC
  5
48C
100
AcDbEntity
  8
DRAFT
100
AcDbCircle
 62
7
  6
CONTINUOUS
 10
-15.529498749
 20
-10.7595599552
 40
0.7123018472
100
AcDbArc
 50
155.1188685738
 51
158.1356758861
  0
ARC
  5
48D
100
AcDbEntity
  8
DRAFT
100
AcDbCircle
 62
7
  6
CONTINUOUS
 10
-13.5142445573
 20
-11.7671871445
 40
0.7123016237
100
AcDbArc
 50
155.118862379
 51
158.1356705677
  0
ARC
  5
48E
100
AcDbEntity
  8
SUPERFICI
100
AcDbCircle
 62
7
  6
CONTINUOUS
 10
-13.7474681239
 20
-12.5704479491
 40
0.7115427408
100
AcDbArc
 50
335.5424675817
 51
338.5383981845
  0
ARC
  5
48F
100
AcDbEntity
  8
SUPERFICI
100
AcDbCircle
 62
7
  6
CONTINUOUS
 10
-15.9394990111
 20
-11.4744324094
 40
0.7115425118
100
AcDbArc
 50
335.5424613374
 51
338.5383928326
  0
ARC
  5
490
100
AcDbEntity
  8
SUPERFICI
100
AcDbCircle
 62
7
  6
CONTINUOUS
 10
-11.7322136361
 20
-13.5780750969
 40
0.7115425118
100
AcDbArc
 50
335.5424613373
 51
338.5383928327
  0
ARC
  5
491
100
AcDbEntity
  8
RACCORDO
100
AcDbCircle
 62
7
  6
CONTINUOUS
 10
16.6722503473
 20
-9.3464273333
 40
0.5592481606
100
AcDbArc
 50
297.832179873
 51
305.9350085168
  0
ARC
  5
492
100
AcDbEntity
  8
RACCORDO
100
AcDbCircle
 62
7
  6
CONTINUOUS
 10
-20.2603633196
 20
-15.9930218332
 40
0.3659587733
100
AcDbArc
 50
240.2394972119
 51
243.4412093991
  0
ARC
  5
493
100
AcDbEntity
  8
0
100
AcDbCircle
 62
7
  6
CONTINUOUS
 10
1.0380091838
 20
-21.842302012
 40
0.252394862
100
AcDbArc
 50
50.5468866676
 51
56.9724421949
  0
ARC
  5
494
100
AcDbEntity
  8
0
100
AcDbCircle
 62
7
  6
CONTINUOUS
 10
-2.764362052
 20
19.2415920007
 40
0.2522783115
100
AcDbArc
 50
187.260653558
 51
205.8198203078
  0
ARC
  5
495
100
AcDbEntity
  8
0
100
AcDbCircle
 62
7
  6
CONTINUOUS
 10
1.0382858926
 20
-21.841426387
 40
0.2515431525
100
AcDbArc
 50
31.0468292416
 51
50.4688152004
  0
ARC
  5
496
100
AcDbEntity
  8
0
100
AcDbCircle
 62
7
  6
CONTINUOUS
 10
1.0391673001
 20
19.4593562227
 40
0.2502978029
100
AcDbArc
 50
320.6130706816
 51
359.9701471572
  0
ARC
  5
497
100
AcDbEntity
  8
0
100
AcDbCircle
 62
7
  6
CONTINUOUS
 10
-2.7665561757
 20
19.5808972512
 40
0.2500151037
100
AcDbArc
 50
117.1617076756
 51
179.9944821188
  0
ARC
  5
498
100
AcDbEntity
  8
0
100
AcDbCircle
 62
7
  6
CONTINUOUS
 10
-1.0880200877
 20
18.4016432397
 40
0.2499779475
100
AcDbArc
 50
243.4290120027
 51
258.2010452234
  0
ARC
  5
499
100
AcDbEntity
  8
0
100
AcDbCircle
 62
7
  6
CONTINUOUS
 10
-1.0880461106
 20
-23.2379587278
 40
0.2499579347
100
AcDbArc
 50
243.4325276724
 51
296.0201890813
  0
ARC
  5
49A
100
AcDbEntity
  8
0
100
AcDbCircle
 62
7
  6
CONTINUOUS
 10
-2.766608022
 20
19.2408962139
 40
0.2499537638
100
AcDbArc
 50
205.9004825784
 51
243.4668726477
  0
ARC
  5
49B
100
AcDbEntity
  8
0
100
AcDbCircle
 62
7
  6
CONTINUOUS
 10
1.0396340697
 20
-22.1880171853
 40
0.2497815931
100
AcDbArc
 50
297.0898558427
 51
336.9512557795
  0
ARC
  5
49C
100
AcDbEntity
  8
0
100
AcDbCircle
 62
7
  6
CONTINUOUS
 10
-2.767033075
 20
19.2409257882
 40
0.2495447174
100
AcDbArc
 50
179.9925715692
 51
187.1864240465
  0
ARC
  5
49D
100
AcDbEntity
  8
0
100
AcDbCircle
 62
7
  6
CONTINUOUS
 10
1.0399210858
 20
-21.8402189645
 40
0.2495195661
100
AcDbArc
 50
359.9224713112
 51
31.0029428873
  0
ARC
  5
49E
100
AcDbEntity
  8
0
100
AcDbCircle
 62
7
  6
CONTINUOUS
 10
1.0398656561
 20
-21.8393885846
 40
0.2489403656
100
AcDbArc
 50
56.9652016036
 51
63.4188481345
  0
ARC
  5
49F
100
AcDbEntity
  8
0
100
AcDbCircle
 62
7
  6
CONTINUOUS
 10
1.1805132619
 20
-20.9666243508
 40
0.189462091
100
AcDbArc
 50
292.7717188963
 51
297.2921248775
  0
ARC
  5
4A0
100
AcDbEntity
  8
0
100
AcDbCircle
 62
7
  6
CONTINUOUS
 10
1.0560196667
 20
-21.7526420557
 40
0.1608897129
100
AcDbArc
 50
60.1198813668
 51
63.4863180173
  0
ARC
  5
4A1
100
AcDbEntity
  8
0
100
AcDbCircle
 62
7
  6
CONTINUOUS
 10
-2.8363015954
 20
19.1014561592
 40
0.0940674384
100
AcDbArc
 50
238.1057806591
 51
243.4300962563
  0
ARC
  5
4A2
100
AcDbEntity
  8
0
100
AcDbCircle
 62
7
  6
CONTINUOUS
 10
-2.953749498
 20
19.2409392094
 40
0.0628250606
100
AcDbArc
 50
180.0077271478
 51
185.9636474493
  0
ARC
  5
4A3
100
AcDbEntity
  8
0
100
AcDbCircle
 62
7
  6
CONTINUOUS
 10
-32.5347405268
 20
87.1375139033
 40
81.7996817093
100
AcDbArc
 50
295.089032745
 51
295.5910997835
  0
ARC
  5
4A4
100
AcDbEntity
  8
0
100
AcDbCircle
 62
7
  6
CONTINUOUS
 10
-14.872720846
 20
49.5240801522
 40
40.2459461718
100
AcDbArc
 50
294.8293644967
 51
295.0227891936
  0
ARC
  5
4A5
100
AcDbEntity
  8
RACCORDO
100
AcDbCircle
 62
7
  6
CONTINUOUS
 10
-3.202079987
 20
22.6602633977
 40
1.5770389823
100
AcDbArc
 50
77.468946149
 51
80.4096706159
  0
ARC
  5
4A6
100
AcDbEntity
  8
RACCORDO
100
AcDbCircle
 62
7
  6
CONTINUOUS
 10
11.4126983888
 20
21.2552610399
 40
1.4712916631
100
AcDbArc
 50
46.4995514929
 51
50.7194619362
  0
ARC
  5
4A7
100
AcDbEntity
  8
RACCORDO
100
AcDbCircle
 62
7
  6
CONTINUOUS
 10
-3.3177791427
 20
22.8932770542
 40
1.3376490123
100
AcDbArc
 50
105.3086081408
 51
108.7938608937
  0
ARC
  5
4A8
100
AcDbEntity
  8
RACCORDO
100
AcDbCircle
 62
7
  6
CONTINUOUS
 10
11.4865685629
 20
21.4636979425
 40
1.1985912515
100
AcDbArc
 50
43.5179553287
 51
44.5762283426
  0
ARC
  5
4A9
100
AcDbEntity
  8
RACCORDO
100
AcDbCircle
 62
7
  6
CONTINUOUS
 10
-3.3645196751
 20
23.0327016575
 40
1.1906000601
100
AcDbArc
 50
108.8260612712
 51
112.2763731713
  0
ARC
  5
4AA
100
AcDbEntity
  8
RACCORDO
100
AcDbCircle
 62
7
  6
CONTINUOUS
 10
10.0241991744
 20
25.9496197896
 40
0.8999458359
100
AcDbArc
 50
63.4315459583
 51
114.789822733
  0
ARC
  5
4AB
100
AcDbEntity
  8
0
100
AcDbCircle
 62
7
  6
CONTINUOUS
 10
7.8902206855
 20
22.5721005083
 40
0.688125326
100
AcDbArc
 50
179.9934254783
 51
182.5889373544
  0
ARC
  5
4AC
100
AcDbEntity
  8
RACCORDO
100
AcDbCircle
 62
7
  6
CONTINUOUS
 10
-2.7367513671
 20
23.0026017818
 40
0.5224384214
100
AcDbArc
 50
312.7323809787
 51
317.9261275075
  0
ARC
  5
4AD
100
AcDbEntity
  8
0
100
AcDbCircle
 62
7
  6
CONTINUOUS
 10
-0.6519255253
 20
20.6512105792
 40
0.2511076924
100
AcDbArc
 50
63.3938371273
 51
65.5614104974
  0
ARC
  5
4AE
100
AcDbEntity
  8
0
100
AcDbCircle
 62
7
  6
CONTINUOUS
 10
-12.9545900265
 20
26.803036618
 40
0.2511070237
100
AcDbArc
 50
114.0214681681
 51
116.0150406505
  0
ARC
  5
4AF
100
AcDbEntity
  8
0
100
AcDbCircle
 62
7
  6
CONTINUOUS
 10
-13.3913477967
 20
24.5544874895
 40
0.251046705
100
AcDbArc
 50
243.4638408028
 51
258.1750254623
  0
ARC
  5
4B0
100
AcDbEntity
  8
0
100
AcDbCircle
 62
7
  6
CONTINUOUS
 10
-12.9548766117
 20
26.8033642533
 40
0.250691134
100
AcDbArc
 50
99.4431458384
 51
113.9921241267
  0
ARC
  5
4B1
100
AcDbEntity
  8
0
100
AcDbCircle
 62
7
  6
CONTINUOUS
 10
-0.6516353992
 20
20.6515415247
 40
0.2506863999
100
AcDbArc
 50
65.5904860464
 51
80.0867799203
  0
ARC
  5
4B2
100
AcDbEntity
  8
0
100
AcDbCircle
 62
7
  6
CONTINUOUS
 10
-11.2644906925
 20
25.6111852191
 40
0.2502978029
100
AcDbArc
 50
320.6130706817
 51
359.9701471571
  0
ARC
  5
4B3
100
AcDbEntity
  8
0
100
AcDbCircle
 62
7
  6
CONTINUOUS
 10
-12.9550990144
 20
26.8038649468
 40
0.2501607737
100
AcDbArc
 50
63.4493112243
 51
99.4117127847
  0
ARC
  5
4B4
100
AcDbEntity
  8
0
100
AcDbCircle
 62
7
  6
CONTINUOUS
 10
-0.651411087
 20
20.6520371032
 40
0.2501596406
100
AcDbArc
 50
80.1178478781
 51
115.9579685268
  0
ARC
  5
4B5
100
AcDbEntity
  8
0
100
AcDbCircle
 62
7
  6
CONTINUOUS
 10
-15.0702082712
 20
25.3927761613
 40
0.2500256747
100
AcDbArc
 50
184.1988491295
 51
243.4316038441
  0
ARC
  5
4B6
100
AcDbEntity
  8
0
100
AcDbCircle
 62
7
  6
CONTINUOUS
 10
1.0394333873
 20
19.8067585173
 40
0.2500178625
100
AcDbArc
 50
0.0078515286
 51
63.4316275385
  0
ARC
  5
4B7
100
AcDbEntity
  8
0
100
AcDbCircle
 62
7
  6
CONTINUOUS
 10
-11.2642246054
 20
25.9585875137
 40
0.2500178625
100
AcDbArc
 50
0.0078515286
 51
63.4316275385
  0
ARC
  5
4B8
100
AcDbEntity
  8
0
100
AcDbCircle
 62
7
  6
CONTINUOUS
 10
-15.0702141684
 20
25.7327262475
 40
0.2500151037
100
AcDbArc
 50
117.1617076756
 51
179.9944821188
  0
ARC
  5
4B9
100
AcDbEntity
  8
0
100
AcDbCircle
 62
7
  6
CONTINUOUS
 10
-15.0712990471
 20
25.3925345927
 40
0.2489201914
100
AcDbArc
 50
179.904686793
 51
184.1617777751
  0
ARC
  5
4BA
100
AcDbEntity
  8
0
100
AcDbCircle
 62
7
  6
CONTINUOUS
 10
-4.1942578007
 20
26.8234404051
 40
0.203902962
100
AcDbArc
 50
103.9050632252
 51
110.403273407
  0
ARC
  5
4BB
100
AcDbEntity
  8
RACCORDO
100
AcDbCircle
 62
7
  6
CONTINUOUS
 10
-2.9035800199
 20
24.0038361469
 40
0.200706502
100
AcDbArc
 50
63.4538375193
 51
77.4355559117
  0
ARC
  5
4BC
100
AcDbEntity
  8
0
100
AcDbCircle
 62
7
  6
CONTINUOUS
 10
-5.849865356
 20
22.1215196625
 40
0.2000264278
100
AcDbArc
 50
117.3009020161
 51
179.9954553106
  0
ARC
  5
4BD
100
AcDbEntity
  8
0
100
AcDbCircle
 62
7
  6
CONTINUOUS
 10
-5.7742862319
 20
22.1437431139
 40
0.168868535
100
AcDbArc
 50
116.9100126539
 51
119.7528174079
  0
ARC
  5
4BE
100
AcDbEntity
  8
0
100
AcDbCircle
 62
7
  6
CONTINUOUS
 10
-3.5014441511
 20
26.5765440779
 40
0.1504616973
100
AcDbArc
 50
98.1115753477
 51
100.4405370913
  0
ARC
  5
4BF
100
AcDbEntity
  8
0
100
AcDbCircle
 62
7
  6
CONTINUOUS
 10
-12.8854248741
 20
26.9433095502
 40
0.0942783586
100
AcDbArc
 50
63.4468793617
 51
70.0270077917
  0
ARC
  5
4C0
100
AcDbEntity
  8
0
100
AcDbCircle
 62
7
  6
CONTINUOUS
 10
-0.7197338313
 20
20.7923912134
 40
0.0940592748
100
AcDbArc
 50
109.4786603836
 51
115.9607725688
  0
ARC
  5
4C1
100
AcDbEntity
  8
RACCORDO
100
AcDbCircle
 62
7
  6
CONTINUOUS
 10
11.4610682443
 20
22.748887423
 40
0.0776367623
100
AcDbArc
 50
63.5314456202
 51
73.1139843021
  0
ARC
  5
4C2
100
AcDbEntity
  8
RACCORDO
100
AcDbCircle
 62
7
  6
CONTINUOUS
 10
12.2715016686
 20
22.3392108687
 40
0.0759917442
100
AcDbArc
 50
55.9851762193
 51
62.7845765146
  0
ARC
  5
4C3
100
AcDbEntity
  8
RACCORDO
100
AcDbCircle
 62
7
  6
CONTINUOUS
 10
-2.8475105247
 20
24.1161675605
 40
0.0751591924
100
AcDbArc
 50
63.4291495123
 51
66.3264811757
  0
ARC
  5
4C4
100
AcDbEntity
  8
RACCORDO
100
AcDbCircle
 62
7
  6
CONTINUOUS
 10
-3.7897820112
 20
24.0709920048
 40
0.0685893154
100
AcDbArc
 50
112.3300883057
 51
115.2604856626
  0
ARC
  5
4C5
100
AcDbEntity
  8
RACCORDO
100
AcDbCircle
 62
7
  6
CONTINUOUS
 10
-3.9300152322
 20
24.0102975658
 40
0.0635823074
100
AcDbArc
 50
115.4495520974
 51
131.3833850804
  0
ARC
  5
4C6
100
AcDbEntity
  8
0
100
AcDbCircle
 62
7
  6
CONTINUOUS
 10
-15.2575799842
 20
25.3927618429
 40
0.0626525666
100
AcDbArc
 50
180.0019366037
 51
183.6026147343
  0
ARC
  5
4C7
100
AcDbEntity
  8
RACCORDO
100
AcDbCircle
 62
7
  6
CONTINUOUS
 10
556.7454985545
 20
-21.6819454588
 40
577.8813958196
100
AcDbArc
 50
176.7682447934
 51
178.4338134216
  0
ARC
  5
4C8
100
AcDbEntity
  8
RACCORDO
100
AcDbCircle
 62
7
  6
CONTINUOUS
 10
553.6709326952
 20
-28.3662875807
 40
559.452669665
100
AcDbArc
 50
176.7309432101
 51
176.8619799957
  0
ARC
  5
4C9
100
AcDbEntity
  8
RACCORDO
100
AcDbCircle
 62
7
  6
CONTINUOUS
 10
552.690153706
 20
-28.3151644445
 40
559.1682934239
100
AcDbArc
 50
176.7309037339
 51
177.0432597537
  0
ARC
  5
4CA
100
AcDbEntity
  8
RACCORDO
100
AcDbCircle
 62
7
  6
CONTINUOUS
 10
550.8460044992
 20
-28.2126781833
 40
556.6235679754
100
AcDbArc
 50
176.8853221225
 51
177.1824616126
  0
ARC
  5
4CB
100
AcDbEntity
  8
RACCORDO
100
AcDbCircle
 62
7
  6
CONTINUOUS
 10
549.403326945
 20
-28.1428912381
 40
555.876956019
100
AcDbArc
 50
177.043517738
 51
177.1722459045
  0
ARC
  5
4CC
100
AcDbEntity
  8
RACCORDO
100
AcDbCircle
 62
7
  6
CONTINUOUS
 10
544.3621833837
 20
-27.9022102952
 40
550.8300678147
100
AcDbArc
 50
177.2705001521
 51
177.7869123581
  0
ARC
  5
4CD
100
AcDbEntity
  8
RACCORDO
100
AcDbCircle
 62
7
  6
CONTINUOUS
 10
541.359842748
 20
-27.7594400058
 40
547.1265947072
100
AcDbArc
 50
177.1810366922
 51
178.4783112043
  0
ARC
  5
4CE
100
AcDbEntity
  8
RACCORDO
100
AcDbCircle
 62
7
  6
CONTINUOUS
 10
535.85420545
 20
-27.5753631311
 40
542.3158042443
100
AcDbArc
 50
177.8763625017
 51
178.482307969
  0
ELLIPSE
  5
4CF
100
AcDbEntity
  8
RACCORDO
100
AcDbEllipse
 62
7
  6
CONTINUOUS
 10
-0.8471751708
 20
16.0286042658
 30
0.0
 11
-0.1996736685
 21
0.4584064956
 31
0.0
 40
0.6381227599
 41
-2.2220345828
 42
-0.6519234887
  0
ELLIPSE
  5
4D0
100
AcDbEntity
  8
RACCORDO
100
AcDbEllipse
 62
7
  6
CONTINUOUS
 10
-2.445869618
 20
-22.1314716877
 30
0.0
 11
-0.1999840611
 21
0.4586318226
 31
0.0
 40
0.6372798266
 41
-3.1720661614
 42
-2.2231487507
  0
ELLIPSE
  5
4D1
100
AcDbEntity
  8
RACCORDO
100
AcDbEllipse
 62
7
  6
CONTINUOUS
 10
-15.6961751848
 20
23.4531042729
 30
0.0
 11
-0.1999840611
 21
0.4586318226
 31
0.0
 40
0.6372798266
 41
-0.6516671913
 42
0.0303399174
  0
ELLIPSE
  5
4D2
100
AcDbEntity
  8
0
100
AcDbEllipse
 62
7
  6
CONTINUOUS
 10
9.928349324
 20
23.4322545533
 30
0.0
 11
3.3311333813
 21
-0.0467042088
 31
0.0
 40
0.4892378494
 41
-2.4679914484
 42
-0.7772130249
  0
ELLIPSE
  5
4D3
100
AcDbEntity
  8
DRAFT
100
AcDbEllipse
 62
7
  6
CONTINUOUS
 10
10.6238395851
 20
22.1389947366
 30
0.0
 11
2.7583300471
 21
-0.038763314
 31
0.0
 40
0.4892375088
 41
0.4291477653
 42
0.6564870977
  0
ELLIPSE
  5
4D4
100
AcDbEntity
  8
DRAFT
100
AcDbEllipse
 62
7
  6
CONTINUOUS
 10
9.952088143
 20
22.2504924206
 30
0.0
 11
2.7499350056
 21
-0.0386453369
 31
0.0
 40
0.4892375088
 41
8.654981679
 42
9.2596989469
  0
ELLIPSE
  5
4D5
100
AcDbEntity
  8
DRAFT
100
AcDbEllipse
 62
7
  6
CONTINUOUS
 10
10.6238395851
 20
22.1389947366
 30
0.0
 11
2.7583300471
 21
-0.038763314
 31
0.0
 40
0.4892375088
 41
0.9280596999
 42
2.3630697256
  0
ELLIPSE
  5
4D6
100
AcDbEntity
  8
RACCORDO
100
AcDbEllipse
 62
7
  6
CONTINUOUS
 10
15.3295538162
 20
23.2968952536
 30
0.0
 11
0.716172246
 21
0.6416715914
 31
0.0
 40
0.2882345029
 41
0.1142323894
 42
0.7807533904
  0
ELLIPSE
  5
4D7
100
AcDbEntity
  8
DRAFT
100
AcDbEllipse
 62
7
  6
CONTINUOUS
 10
10.6238395851
 20
24.0837054478
 30
0.0
 11
2.7583515655
 21
-1.4175703156
 31
0.0
 40
0.0109499087
 41
-0.9155571536
 42
-0.85781018
  0
ELLIPSE
  5
4D8
100
AcDbEntity
  8
DRAFT
100
AcDbEllipse
 62
7
  6
CONTINUOUS
 10
10.6238395851
 20
24.0837054478
 30
0.0
 11
2.7583515655
 21
-1.4175703156
 31
0.0
 40
0.0109499087
 41
-0.7017315251
 42
-0.6439845515
  0
ELLIPSE
  5
4D9
100
AcDbEntity
  8
DRAFT
100
AcDbEllipse
 62
7
  6
CONTINUOUS
 10
10.6238395851
 20
22.5720074385
 30
0.0
 11
2.7583300471
 21
-0.038763314
 31
0.0
 40
0.4892375088
 41
0.1708839954
 42
2.3630697256
  0
ELLIPSE
  5
4DA
100
AcDbEntity
  8
RACCORDO
100
AcDbEllipse
 62
7
  6
CONTINUOUS
 10
11.3628475692
 20
25.2802483772
 30
0.0
 11
-0.2796057293
 21
0.9974617846
 31
0.0
 40
0.6760995073
 41
4.8467711056
 42
6.4001141399
  0
ELLIPSE
  5
4DB
100
AcDbEntity
  8
0
100
AcDbEllipse
 62
7
  6
CONTINUOUS
 10
9.928349324
 20
23.4322545533
 30
0.0
 11
3.3311333813
 21
-0.0467042088
 31
0.0
 40
0.4892378494
 41
2.3616770883
 42
3.6719184414
  0
ELLIPSE
  5
4DC
100
AcDbEntity
  8
0
100
AcDbEllipse
 62
7
  6
CONTINUOUS
 10
-4.3006151351
 20
26.5662416833
 30
0.0
 11
0.2257019663
 21
0.4461636818
 31
0.0
 40
0.6159267166
 41
0.5882567743
 42
0.6817883054
  0
ELLIPSE
  5
4DD
100
AcDbEntity
  8
RACCORDO
100
AcDbEllipse
 62
7
  6
CONTINUOUS
 10
6.8295758165
 20
21.6950582601
 30
0.0
 11
0.499996712
 21
0.0035883639
 31
0.0
 40
0.5053247124
 41
-0.7715714568
 42
-0.0038735433
  0
ELLIPSE
  5
4DE
100
AcDbEntity
  8
0
100
AcDbEllipse
 62
7
  6
CONTINUOUS
 10
-4.9393696419
 20
22.5691550139
 30
0.0
 11
-0.0909679979
 21
0.1781462259
 31
0.0
 40
0.6079022756
 41
-0.6898048156
 42
-0.0128958448
  0
ELLIPSE
  5
4DF
100
AcDbEntity
  8
0
100
AcDbEllipse
 62
7
  6
CONTINUOUS
 10
3.4091041553
 20
23.3499607367
 30
0.0
 11
0.4547905863
 21
0.8906238433
 31
0.0
 40
0.6079814556
 41
0.0051546174
 42
0.6840559135
  0
ELLIPSE
  5
4E0
100
AcDbEntity
  8
ASSI
100
AcDbEllipse
 62
7
  6
CONTINUOUS
 10
-4.5015962561
 20
27.3053109424
 30
0.0
 11
1.004787277
 21
0.6140102217
 31
0.0
 40
0.0864918533
 41
0.0544314379
 42
0.7329085821
  0
ELLIPSE
  5
4E1
100
AcDbEntity
  8
ASSI
100
AcDbEllipse
 62
7
  6
CONTINUOUS
 10
7.0816564031
 20
-15.4413288118
 30
0.0
 11
0.9927147821
 21
0.620457446
 31
0.0
 40
0.0764819879
 41
-2.4043514965
 42
-1.3666868807
  0
ELLIPSE
  5
4E2
100
AcDbEntity
  8
ASSI
100
AcDbEllipse
 62
7
  6
CONTINUOUS
 10
25.4918875223
 20
-4.9678384331
 30
0.0
 11
24.0955625974
 21
12.2610436036
 31
0.0
 40
0.0085648092
 41
-2.9166229256
 42
-2.803161766
  0
ELLIPSE
  5
4E3
100
AcDbEntity
  8
ASSI
100
AcDbEllipse
 62
7
  6
CONTINUOUS
 10
25.4918875223
 20
25.6894608609
 30
0.0
 11
24.0955625974
 21
12.2610436036
 31
0.0
 40
0.0085648092
 41
2.794445403
 42
2.9079065627
  0
ELLIPSE
  5
4E4
100
AcDbEntity
  8
ASSI
100
AcDbEllipse
 62
7
  6
CONTINUOUS
 10
25.4918875223
 20
24.9966405378
 30
0.0
 11
24.0955625974
 21
12.2610436036
 31
0.0
 40
0.0085648092
 41
-2.9166229256
 42
-2.803161766
  0
ELLIPSE
  5
4E5
100
AcDbEntity
  8
ASSI
100
AcDbEllipse
 62
7
  6
CONTINUOUS
 10
25.4918875223
 20
-4.2750181101
 30
0.0
 11
24.0955625974
 21
12.2610436036
 31
0.0
 40
0.0085648092
 41
2.794445403
 42
2.9079065627
  0
ELLIPSE
  5
4E6
100
AcDbEntity
  8
0
100
AcDbEllipse
 62
7
  6
CONTINUOUS
 10
1.7434651911
 20
-20.3267049318
 30
0.0
 11
-0.2236315662
 21
0.4472293059
 31
0.0
 40
0.6123445654
 41
-3.1338150222
 42
-2.2555748796
  0
ELLIPSE
  5
4E7
100
AcDbEntity
  8
0
100
AcDbEllipse
 62
7
  6
CONTINUOUS
 10
1.7434651911
 20
17.595116321
 30
0.0
 11
-0.223611546
 21
0.4472115081
 31
0.0
 40
0.6124054886
 41
-2.2555017776
 42
-0.6847562194
  0
ELLIPSE
  5
4E8
100
AcDbEntity
  8
0
100
AcDbEllipse
 62
7
  6
CONTINUOUS
 10
-6.6485527788
 20
23.4237465824
 30
0.0
 11
-0.090948378
 21
0.1781282571
 31
0.0
 40
0.6080538059
 41
-2.2606249166
 42
-0.6898793584
  0
ELLIPSE
  5
4E9
100
AcDbEntity
  8
0
100
AcDbEllipse
 62
7
  6
CONTINUOUS
 10
1.311358661
 20
23.7602547852
 30
0.0
 11
0.2273952932
 21
0.4453119217
 31
0.0
 40
0.6079814556
 41
0.2357074224
 42
0.6840559135
  0
ELLIPSE
  5
4EA
100
AcDbEntity
  8
ASSI
100
AcDbEllipse
 62
7
  6
CONTINUOUS
 10
6.8295758165
 20
-15.6981381421
 30
0.0
 11
0.499443764
 21
0.3120915671
 31
0.0
 40
0.0755486457
 41
-0.0466009711
 42
0.720771186
  0
ELLIPSE
  5
4EB
100
AcDbEntity
  8
0
100
AcDbEllipse
 62
7
  6
CONTINUOUS
 10
-5.8498917832
 20
20.8969984705
 30
0.0
 11
0.199943508
 21
0.008945986
 31
0.0
 40
0.5313301283
 41
3.1178423524
 42
3.9032222197
  0
ELLIPSE
  5
4EC
100
AcDbEntity
  8
0
100
AcDbEllipse
 62
7
  6
CONTINUOUS
 10
-7.5506613247
 20
21.7473832413
 30
0.0
 11
0.199943508
 21
0.008945986
 31
0.0
 40
0.5313301283
 41
-2.3799630874
 42
-0.8178934069
  0
ELLIPSE
  5
4ED
100
AcDbEntity
  8
0
100
AcDbEllipse
 62
7
  6
CONTINUOUS
 10
-2.0635818618
 20
18.2889749229
 30
0.0
 11
0.249929385
 21
0.0111824824
 31
0.0
 40
0.5313301283
 41
3.1178197826
 42
3.9032222197
  0
ELLIPSE
  5
4EE
100
AcDbEntity
  8
0
100
AcDbEllipse
 62
7
  6
CONTINUOUS
 10
-3.6810459823
 20
26.2564571068
 30
0.0
 11
0.2197467797
 21
0.4491356978
 31
0.0
 40
0.6167074461
 41
0.2252343201
 42
0.6735828111
  0
ELLIPSE
  5
4EF
100
AcDbEntity
  8
0
100
AcDbEllipse
 62
7
  6
CONTINUOUS
 10
-3.9468631489
 20
68.3877311728
 30
0.0
 11
-0.3192264997
 21
45.1189143812
 31
0.0
 40
0.0071249215
 41
3.4474731796
 42
3.5354687861
  0
ELLIPSE
  5
4F0
100
AcDbEntity
  8
0
100
AcDbEllipse
 62
7
  6
CONTINUOUS
 10
-14.3672398545
 20
24.4408039193
 30
0.0
 11
0.249929385
 21
0.0111824824
 31
0.0
 40
0.5313301283
 41
3.1178197826
 42
3.9032222197
  0
ELLIPSE
  5
4F1
100
AcDbEntity
  8
0
100
AcDbEllipse
 62
7
  6
CONTINUOUS
 10
-12.6804741303
 20
23.5974210572
 30
0.0
 11
0.249929385
 21
0.0111824824
 31
0.0
 40
0.5313301283
 41
-2.3799630874
 42
-0.8149845248
  0
ELLIPSE
  5
4F2
100
AcDbEntity
  8
RACCORDO
100
AcDbEllipse
 62
7
  6
CONTINUOUS
 10
-1.6142789256
 20
-6.3200141476
 30
0.0
 11
-0.1571758788
 21
0.2571581498
 31
0.0
 40
0.5601087126
 41
-2.9466728429
 42
-2.3018722735
  0
ELLIPSE
  5
4F3
100
AcDbEntity
  8
0
100
AcDbEllipse
 62
7
  6
CONTINUOUS
 10
1.6435834641
 20
22.6744889967
 30
0.0
 11
0.4530414621
 21
-0.0021419047
 31
0.0
 40
0.4964289597
 41
-0.77723337
 42
0.0023234052
  0
ELLIPSE
  5
4F4
100
AcDbEntity
  8
0
100
AcDbEllipse
 62
7
  6
CONTINUOUS
 10
-3.2354899659
 20
24.8001947467
 30
0.0
 11
1.0205811965
 21
-0.0048251373
 31
0.0
 40
0.4964289597
 41
1.3061600176
 42
2.3584907469
  0
ELLIPSE
  5
4F5
100
AcDbEntity
  8
0
100
AcDbEllipse
 62
7
  6
CONTINUOUS
 10
-3.9468631489
 20
25.4697123032
 30
0.0
 11
0.4530414621
 21
-0.0021419047
 31
0.0
 40
0.4964289597
 41
-0.4806702637
 42
0.0023660984
  0
ELLIPSE
  5
4F6
100
AcDbEntity
  8
0
100
AcDbEllipse
 62
7
  6
CONTINUOUS
 10
-15.0609241627
 20
24.1659158159
 30
0.0
 11
-0.2234618187
 21
0.4480306886
 31
0.0
 40
0.6116748051
 41
-0.6831523234
 42
0.886730614
  0
ELLIPSE
  5
4F7
100
AcDbEntity
  8
0
100
AcDbEllipse
 62
7
  6
CONTINUOUS
 10
-9.1739161226
 20
23.7835476983
 30
0.0
 11
0.0907039967
 21
0.1782526758
 31
0.0
 40
0.6176975122
 41
0.6948951487
 42
2.2598737113
  0
ELLIPSE
  5
4F8
100
AcDbEntity
  8
0
100
AcDbEllipse
 62
7
  6
CONTINUOUS
 10
-0.3768161376
 20
17.4455920608
 30
0.0
 11
0.249929385
 21
0.0111824824
 31
0.0
 40
0.5313301283
 41
-2.3799630874
 42
-0.8149845248
  0
ELLIPSE
  5
4F9
100
AcDbEntity
  8
0
100
AcDbEllipse
 62
7
  6
CONTINUOUS
 10
51.0338817433
 20
48.0239778731
 30
0.0
 11
60.4168605605
 21
30.5632322457
 31
0.0
 40
0.005706723
 41
2.5167363259
 42
2.6876789752
  0
ELLIPSE
  5
4FA
100
AcDbEntity
  8
0
100
AcDbEllipse
 62
7
  6
CONTINUOUS
 10
1.9309278138
 20
23.4504702088
 30
0.0
 11
0.221538876
 21
0.4482453432
 31
0.0
 40
0.6088015717
 41
0.5825560023
 42
0.6760875334
  0
ELLIPSE
  5
4FB
100
AcDbEntity
  8
0
100
AcDbEllipse
 62
7
  6
CONTINUOUS
 10
51.0338817433
 20
48.0239778731
 30
0.0
 11
60.4168605605
 21
30.5632322457
 31
0.0
 40
0.005706723
 41
-2.6934527084
 42
-2.5225100591
  0
ELLIPSE
  5
4FC
100
AcDbEntity
  8
ASSI
100
AcDbEllipse
 62
7
  6
CONTINUOUS
 10
6.8295758165
 20
22.7296813109
 30
0.0
 11
-0.3739417019
 21
0.598522373
 31
0.0
 40
0.554557473
 41
-3.1836090632
 42
-2.4162040327
  0
ELLIPSE
  5
4FD
100
AcDbEntity
  8
0
100
AcDbEllipse
 62
7
  6
CONTINUOUS
 10
-0.03668522
 20
-21.1407684501
 30
0.0
 11
-0.2234618187
 21
0.4480306886
 31
0.0
 40
0.6116748051
 41
2.4584403302
 42
4.0283232676
  0
ELLIPSE
  5
4FE
100
AcDbEntity
  8
0
100
AcDbEllipse
 62
7
  6
CONTINUOUS
 10
-0.03668522
 20
16.6537963445
 30
0.0
 11
-0.2230998035
 21
0.4477110033
 31
0.0
 40
0.6127700112
 41
-2.2535417632
 42
-0.6836588258
  0
ELLIPSE
  5
4FF
100
AcDbEntity
  8
0
100
AcDbEllipse
 62
7
  6
CONTINUOUS
 10
-0.8290440084
 20
25.4690348186
 30
0.0
 11
0.4394935595
 21
0.8982713957
 31
0.0
 40
0.6167074461
 41
5.3917895557
 42
6.9567681183
  0
ELLIPSE
  5
500
100
AcDbEntity
  8
RACCORDO
100
AcDbEllipse
 62
7
  6
CONTINUOUS
 10
-1.9273811795
 20
-16.0204775934
 30
0.0
 11
-0.313181275
 21
0.626269159
 31
0.0
 40
0.6121897086
 41
-3.1606751969
 42
-2.2557347926
  0
ELLIPSE
  5
501
100
AcDbEntity
  8
ASSI
100
AcDbEllipse
 62
7
  6
CONTINUOUS
 10
7.0816564031
 20
21.5136846129
 30
0.0
 11
-0.7356038977
 21
1.2035991204
 31
0.0
 40
0.5552491559
 41
5.1980061968
 42
6.2356708126
  0
ENDSEC
  0
SECTION
  2
OBJECTS
  0
DICTIONARY
  5
C
100
AcDbDictionary
280
0
281
1
  3
ACAD_GROUP
350
D
  3
ACAD_MLINESTYLE
350
17
  3
ACAD_LAYOUT
350
1A
  3
ACAD_PLOTSETTINGS
350
19
  3
ACAD_PLOTSTYLENAME
350
E
  0
DICTIONARY
  5
D
102
{ACAD_REACTORS
330
C
102
}
100
AcDbDictionary
280
0
281
1
  0
ACDBDICTIONARYWDFLT
  5
E
102
{ACAD_REACTORS
330
C
102
}
100
AcDbDictionary
281
1
  3
Normal
350
F
100
AcDbDictionaryWithDefault
340
F
  0
DICTIONARY
  5
17
102
{ACAD_REACTORS
330
C
102
}
100
AcDbDictionary
280
0
281
1
  3
Standard
350
18
  0
DICTIONARY
  5
19
102
{ACAD_REACTORS
330
C
102
}
100
AcDbDictionary
281
1
  0
DICTIONARY
  5
1A
102
{ACAD_REACTORS
330
C
102
}
100
AcDbDictionary
281
1
  3
Model
350
502
  3
Layout1
350
503
  0
ACDBPLACEHOLDER
  5
F
102
{ACAD_REACTORS
330
E
102
}
  0
MLINESTYLE
  5
18
102
{ACAD_REACTORS
330
17
102
}
100
AcDbMlineStyle
  2
STANDARD
 70
0
  3

 62
256
 51
90.0
 52
90.0
 71
2
 49
0.5
 62
256
  6
BYLAYER
 49
-0.5
 62
256
  6
BYLAYER
  0
LAYOUT
  5
502
102
{ACAD_REACTORS
330
1A
102
}
100
AcDbPlotSettings
  1

  2
none_device
  4
ISO_A4_(297.00_x_210.00_MM)
  6

 40
0.0
 41
0.0
 42
0.0
 43
0.0
 44
297.0
 45
210.0
 46
0.0
 47
0.0
 48
0.0
 49
0.0
140
0.0
141
0.0
142
1.0
143
1.0
 70
1024
 72
1
 73
0
 74
0
  7

 75
0
147
1.0
148
0.0
149
0.0
100
AcDbLayout
  1
Model
 70
0
 71
0
 10
0.0
 20
0.0
 11
297.0
 21
210.0
 12
0.0
 22
0.0
 32
0.0
 14
0.0
 24
0.0
 34
0.0
 15
0.0
 25
0.0
 35
0.0
146
0.0
 13
0.0
 23
0.0
 33
0.0
 16
1.0
 26
0.0
 36
0.0
 17
0.0
 27
1.0
 37
0.0
 76
0
330
227
345
0
346
0
  0
LAYOUT
  5
503
102
{ACAD_REACTORS
330
1A
102
}
100
AcDbPlotSettings
  1

  2
none_device
  4
ISO_A4_(297.00_x_210.00_MM)
  6

 40
0.0
 41
0.0
 42
0.0
 43
0.0
 44
297.0
 45
210.0
 46
0.0
 47
0.0
 48
0.0
 49
0.0
140
0.0
141
0.0
142
1.0
143
1.0
 70
0
 72
1
 73
0
 74
0
  7

 75
0
147
1.0
148
0.0
149
0.0
100
AcDbLayout
  1
Layout1
 70
0
 71
1
 10
0.0
 20
0.0
 11
297.0
 21
210.0
 12
0.0
 22
0.0
 32
0.0
 14
0.0
 24
0.0
 34
0.0
 15
0.0
 25
0.0
 35
0.0
146
0.0
 13
0.0
 23
0.0
 33
0.0
 16
1.0
 26
0.0
 36
0.0
 17
0.0
 27
1.0
 37
0.0
 76
0
330
228
345
0
346
0
  0
ENDSEC
  0
EOF
