0
SECTION
2
HEADER
9
$ACADVER
1
AC1014
9
$HANDSEED
5
       26F
9
$EXTMAX
10
297.0000000000
20
210.0000000000
9
$EXTMIN
10
0.0000000000
20
0.0000000000
9
$LIMMIN
10
0.0000000000
20
0.0000000000
9
$LIMMAX
10
297.0000000000
20
210.0000000000
9
$VIEWCTR
10
148.5000000000
20
105.0000000000
9
$VIEWSIZE
40
210.0000000000
9
$CLAYER
8
0
9
$LTSCALE
40
16.3350000000
9
$CELTYPE
6
BYLAYER
9
$DIMSCALE
40
1
9
$DIMASZ
40
3.0000000000
9
$DIMEXO
40
1.8562500000
9
$DIMDLI
40
11.2860000000
9
$DIMEXE
40
5.3460000000
9
$DIMCEN
40
2.6730000000
9
$DIMLFAC
40
1.0000000000
9
$DIMTXT
40
3.0000000000
9
$DIMTOL
70
1
9
$DIMLIM
70
0
9
$DIMTFAC
40
1.0000000000
9
$DIMTP
40
0.0100000000
9
$DIMTM
40
0.0100000000
9
$MEASUREMENT
70
1
0
ENDSEC
0
SECTION
2
CLASSES
0
ENDSEC
0
SECTION
2
TABLES
0
TABLE
2
VPORT
5
8
100
AcDbSymbolTable
70
2
0
VPORT
5
1F4
100
AcDbSymbolTableRecord
100
AcDbViewportTableRecord
2
*ACTIVE
70
0
10
0.0
20
0.0
11
1.0
21
1.0
12
148.5000000000
22
105.0000000000
13
0.0
23
0.0
14
1.0
24
1.0
15
0.0
25
0.0
16
0.0
26
0.0
36
1.0
17
0.0
27
0.0
37
0.0
40
210.0000000000
41
1.4142857143
42
50.0
43
0.0
44
0.0
50
0.0
51
0.0
71
0
72
100
73
1
74
1
75
0
76
0
77
0
78
0
0
ENDTAB
0
TABLE
2
LTYPE
5
5
100
AcDbSymbolTable
70
6
0
LTYPE
5
14
100
AcDbSymbolTableRecord
100
AcDbLinetypeTableRecord
2
BYBLOCK
70
0
3

72
65
73
0
40
0.0
0
LTYPE
5
15
100
AcDbSymbolTableRecord
100
AcDbLinetypeTableRecord
2
BYLAYER
70
0
3

72
65
73
0
40
0.0
0
LTYPE
5
16
100
AcDbSymbolTableRecord
100
AcDbLinetypeTableRecord
2
CONTINUOUS
70
64
3
Solid line
72
65
73
0
40
0
0
LTYPE
5
1F5
100
AcDbSymbolTableRecord
100
AcDbLinetypeTableRecord
2
CENTER
70
64
3
____ _ ____ _ ____ _ ____ _ ____ _ ____ _ ____
72
65
73
4
40
0.6
49
0.375
74
0
49
-0.075
74
0
49
0.075
74
0
49
-0.075
74
0
0
LTYPE
5
1F6
100
AcDbSymbolTableRecord
100
AcDbLinetypeTableRecord
2
HIDDEN
70
64
3
- - - - - - - - - - - - - - - - - - - -
72
65
73
2
40
0.2
49
0.1
74
0
49
-0.1
74
0
0
LTYPE
5
1F7
100
AcDbSymbolTableRecord
100
AcDbLinetypeTableRecord
2
PHANTOM
70
64
3
_____ _ _ _____ _ _ _____ _ _ _____
72
65
73
6
40
0.8
49
0.45
74
0
49
-0.05
74
0
49
0.1
74
0
49
-0.05
74
0
49
0.1
74
0
49
-0.05
74
0
0
LTYPE
5
1F8
100
AcDbSymbolTableRecord
100
AcDbLinetypeTableRecord
2
DOT
70
64
3
. . . . . . . . . . . . . . . . . . . .
72
65
73
2
40
0.2
49
0.1
74
0
49
-0.1
74
0
0
LTYPE
5
1F9
100
AcDbSymbolTableRecord
100
AcDbLinetypeTableRecord
2
DASHED
70
64
3
- - - - - - - - - - - - - - - - - - - -
72
65
73
2
40
0.2
49
0.1
74
0
49
-0.1
74
0
0
ENDTAB
0
TABLE
2
LAYER
5
2
100
AcDbSymbolTable
70
36
0
LAYER
5
10
100
AcDbSymbolTableRecord
100
AcDbLayerTableRecord
2
0
70
0
62
7
6
CONTINUOUS
0
LAYER
5
1FA
100
AcDbSymbolTableRecord
100
AcDbLayerTableRecord
2
DEFAULT_1
70
0
62
7
6
CENTER
0
LAYER
5
1FB
100
AcDbSymbolTableRecord
100
AcDbLayerTableRecord
2
DEFAULT_2
70
0
62
8
6
HIDDEN
0
LAYER
5
1FC
100
AcDbSymbolTableRecord
100
AcDbLayerTableRecord
2
DEFAULT_3
70
0
62
7
6
PHANTOM
0
LAYER
5
1FD
100
AcDbSymbolTableRecord
100
AcDbLayerTableRecord
2
ASSI
70
0
62
7
6
CONTINUOUS
0
LAYER
5
1FE
100
AcDbSymbolTableRecord
100
AcDbLayerTableRecord
2
COLOR9
70
0
62
7
6
CONTINUOUS
0
LAYER
5
1FF
100
AcDbSymbolTableRecord
100
AcDbLayerTableRecord
2
COORDINATE
70
0
62
7
6
CONTINUOUS
0
LAYER
5
200
100
AcDbSymbolTableRecord
100
AcDbLayerTableRecord
2
COORD_ORIGINE
70
0
62
7
6
CONTINUOUS
0
LAYER
5
201
100
AcDbSymbolTableRecord
100
AcDbLayerTableRecord
2
CURVE
70
0
62
7
6
CONTINUOUS
0
LAYER
5
202
100
AcDbSymbolTableRecord
100
AcDbLayerTableRecord
2
DRAFT
70
0
62
7
6
CONTINUOUS
0
LAYER
5
203
100
AcDbSymbolTableRecord
100
AcDbLayerTableRecord
2
INTF_YELLOW
70
0
62
7
6
CONTINUOUS
0
LAYER
5
204
100
AcDbSymbolTableRecord
100
AcDbLayerTableRecord
2
NOTE
70
0
62
7
6
CONTINUOUS
0
LAYER
5
205
100
AcDbSymbolTableRecord
100
AcDbLayerTableRecord
2
PIANI
70
0
62
7
6
CONTINUOUS
0
LAYER
5
206
100
AcDbSymbolTableRecord
100
AcDbLayerTableRecord
2
PIANI_ORIGINE
70
0
62
7
6
CONTINUOUS
0
LAYER
5
207
100
AcDbSymbolTableRecord
100
AcDbLayerTableRecord
2
PIANI_RIFERIMENTO
70
0
62
7
6
CONTINUOUS
0
LAYER
5
208
100
AcDbSymbolTableRecord
100
AcDbLayerTableRecord
2
PUNTI
70
0
62
7
6
CONTINUOUS
0
LAYER
5
209
100
AcDbSymbolTableRecord
100
AcDbLayerTableRecord
2
RACCORDO
70
0
62
7
6
CONTINUOUS
0
LAYER
5
20A
100
AcDbSymbolTableRecord
100
AcDbLayerTableRecord
2
SUPERFICI
70
0
62
7
6
CONTINUOUS
0
LAYER
5
20B
100
AcDbSymbolTableRecord
100
AcDbLayerTableRecord
2
TRASH
70
0
62
7
6
CONTINUOUS
0
LAYER
5
20C
100
AcDbSymbolTableRecord
100
AcDbLayerTableRecord
2
XSEC_DATUMS
70
0
62
7
6
CONTINUOUS
0
ENDTAB
0
TABLE
2
STYLE
5
3
100
AcDbSymbolTable
70
1
0
STYLE
5
11
100
AcDbSymbolTableRecord
100
AcDbTextStyleTableRecord
2
STANDARD
70
0
40
0.0
41
0.8000000000
50
0.0
71
0
42
0.2
3
txt
4

0
ENDTAB
0
TABLE
2
VIEW
5
6
100
AcDbSymbolTable
70
0
0
ENDTAB
0
TABLE
2
UCS
5
7
100
AcDbSymbolTable
70
0
0
ENDTAB
0
TABLE
2
APPID
5
9
100
AcDbSymbolTable
70
1
0
APPID
5
20D
100
AcDbSymbolTableRecord
100
AcDbRegAppTableRecord
2
ACAD
70
0
0
ENDTAB
0
TABLE
2
DIMSTYLE
5
A
100
AcDbSymbolTable
70
1
0
DIMSTYLE
105
20E
100
AcDbSymbolTableRecord
100
AcDbDimStyleTableRecord
2
STANDARD
70
0
3

4

5

6

7

40
1.0
41
3.0000000000
42
0.0625
43
0.38
44
0.18
45
0.0
46
0.0
47
0.0100000000
48
0.0100000000
140
3.0000000000
141
0.09
142
0.0
143
25.4
144
1.0000000000
145
0.0
146
1.0000000000
147
0.09
71
1
72
0
73
0
74
0
75
0
76
0
77
1
78
8
170
0
171
2
172
0
173
0
174
0
175
0
176
0
177
0
178
0
270
2
271
2
272
2
273
2
274
2
340
11
275
0
280
0
281
0
282
0
283
1
284
8
285
0
286
0
287
3
288
0
0
ENDTAB
0
TABLE
2
BLOCK_RECORD
5
1
100
AcDbSymbolTable
70
0
0
BLOCK_RECORD
5
1B
100
AcDbSymbolTableRecord
100
AcDbBlockTableRecord
2
*MODEL_SPACE
0
BLOCK_RECORD
5
1C
100
AcDbSymbolTableRecord
100
AcDbBlockTableRecord
2
*PAPER_SPACE
0
ENDTAB
0
ENDSEC
0
SECTION
2
BLOCKS
0
BLOCK
5
1E
100
AcDbEntity
8
0
100
AcDbBlockBegin
2
*MODEL_SPACE
70
0
10
0.0
20
0.0
30
0.0
3
*MODEL_SPACE
1

0
ENDBLK
5
1F
100
AcDbEntity
8
0
100
AcDbBlockEnd
0
BLOCK
5
20
100
AcDbEntity
8
0
100
AcDbBlockBegin
2
*PAPER_SPACE
70
0
10
0.0
20
0.0
30
0.0
3
*PAPER_SPACE
1

0
ENDBLK
5
21
100
AcDbEntity
8
0
100
AcDbBlockEnd
0
ENDSEC
0
SECTION
2
ENTITIES
0
LINE
5
20F
100
AcDbEntity
8
0
100
AcDbLine
62
7
6
CONTINUOUS
10
-6.6661616239
20
23.5221512294
11
-3.9309695648
21
25.0533761003
0
LINE
5
210
100
AcDbEntity
8
0
100
AcDbLine
62
9
6
CONTINUOUS
10
-6.4311735026
20
23.5141022475
11
-3.6996204543
21
25.0432899145
0
LINE
5
211
100
AcDbEntity
8
0
100
AcDbLine
62
7
6
CONTINUOUS
10
-6.8542636511
20
-14.6065519576
11
7.8371124391
21
-21.9522400026
0
LINE
5
212
100
AcDbEntity
8
0
100
AcDbLine
62
9
6
CONTINUOUS
10
-7.1030289621
20
-14.1919210879
11
7.5817259288
21
-21.5342985334
0
LINE
5
213
100
AcDbEntity
8
0
100
AcDbLine
62
7
6
CONTINUOUS
10
7.8365701779
20
-21.9519683803
11
7.8370900737
21
-21.9522288199
0
LINE
5
214
100
AcDbEntity
8
0
100
AcDbLine
62
7
6
CONTINUOUS
10
-7.2502558936
20
22.5983790146
11
-7.2502708583
21
22.5982445565
0
LINE
5
215
100
AcDbEntity
8
0
100
AcDbLine
62
7
6
CONTINUOUS
10
-2.9040475653
20
-9.8355731572
11
-2.0201640688
21
-10.2775149054
0
LINE
5
216
100
AcDbEntity
8
0
100
AcDbLine
62
7
6
CONTINUOUS
10
-0.8887931385
20
-10.8432003705
11
0.1718670589
21
-11.3735304693
0
LINE
5
217
100
AcDbEntity
8
0
100
AcDbLine
62
7
6
CONTINUOUS
10
1.3032378096
20
-11.9392158446
11
2.1871213061
21
-12.3811575929
0
LINE
5
218
100
AcDbEntity
8
0
100
AcDbLine
62
7
6
CONTINUOUS
10
-2.9411041827
20
-8.9880760481
11
-2.0572206697
21
-9.4300178046
0
LINE
5
219
100
AcDbEntity
8
0
100
AcDbLine
62
7
6
CONTINUOUS
10
-0.9258497559
20
-9.9957032615
11
0.1348104581
21
-10.5260333685
0
LINE
5
21A
100
AcDbEntity
8
0
100
AcDbLine
62
7
6
CONTINUOUS
10
1.2661811923
20
-11.0917187356
11
2.1500647053
21
-11.5336604921
0
LINE
5
21B
100
AcDbEntity
8
0
100
AcDbLine
62
7
6
CONTINUOUS
10
-7.2493863181
20
-14.0159927156
11
-7.2493296626
21
-14.0164332144
0
LINE
5
21C
100
AcDbEntity
8
0
100
AcDbLine
62
9
6
CONTINUOUS
10
-7.7780268801
20
-4.4627281718
11
6.8706336051
21
-11.7870584144
0
LINE
5
21D
100
AcDbEntity
8
0
100
AcDbLine
62
9
6
CONTINUOUS
10
11.1498642585
20
17.6185475581
11
8.2714079450
21
16.1628115237
0
LINE
5
21E
100
AcDbEntity
8
0
100
AcDbLine
62
9
6
CONTINUOUS
10
11.5032964952
20
17.0089671205
11
8.6248401817
21
15.5532310861
0
LINE
5
21F
100
AcDbEntity
8
0
100
AcDbLine
62
9
6
CONTINUOUS
10
-7.7780268801
20
11.9917545001
11
6.8706336051
21
4.6674242575
0
LINE
5
220
100
AcDbEntity
8
0
100
AcDbLine
62
7
6
CONTINUOUS
10
11.5032964952
20
-20.4036270882
11
11.5032964952
21
17.0089671205
0
LINE
5
221
100
AcDbEntity
8
0
100
AcDbLine
62
9
6
CONTINUOUS
10
-7.1030289621
20
22.4320397399
11
7.5817259288
21
15.0896622945
0
LINE
5
222
100
AcDbEntity
8
0
100
AcDbLine
62
9
6
CONTINUOUS
10
-6.4311735026
20
23.5141022475
11
8.2714079450
21
16.1628115237
0
LINE
5
223
100
AcDbEntity
8
0
100
AcDbLine
62
7
6
CONTINUOUS
10
-3.6996204543
20
25.0432899145
11
11.1498642585
21
17.6185475581
0
LINE
5
224
100
AcDbEntity
8
0
100
AcDbLine
62
9
6
CONTINUOUS
10
8.6248401817
20
-21.6794441021
11
11.5032964952
21
-20.4036270882
0
LINE
5
225
100
AcDbEntity
8
0
100
AcDbLine
62
7
6
CONTINUOUS
10
8.4832682991
20
-21.9552121476
11
11.3654844243
21
-20.6777286739
0
SPLINE
5
226
100
AcDbEntity
8
0
100
AcDbSpline
62
7
6
CONTINUOUS
70
0
71
3
72
14
73
10
74
8
42
0.0000001000
43
0.0000001000
44
0.0000000001
12
-0.3378340676
22
-0.7980832341
32
0.0000000000
13
0.2952497523
23
-0.8147983122
33
0.0000000000
40
0.0000000000
40
0.0000000000
40
0.0000000000
40
0.0000000000
40
0.1191952295
40
0.2466775697
40
0.3826335579
40
0.5267897471
40
0.6784699296
40
0.8366770850
40
1.0000000000
40
1.0000000000
40
1.0000000000
40
1.0000000000
10
-2.9411041827
20
-8.9880760481
30
0.0000000000
10
-2.9545269191
20
-9.0197852862
30
0.0000000000
10
-2.9769751109
20
-9.0877467855
30
0.0000000000
10
-2.9969151977
20
-9.1967562977
30
0.0000000000
10
-3.0040174454
20
-9.3145466798
30
0.0000000000
10
-2.9982051402
20
-9.4393567561
30
0.0000000000
10
-2.9795943389
20
-9.5693793078
30
0.0000000000
10
-2.9484909745
20
-9.7026521677
30
0.0000000000
10
-2.9201212487
20
-9.7912147453
30
0.0000000000
10
-2.9040475653
20
-9.8355731572
30
0.0000000000
11
-2.9411041827
21
-8.9880760481
31
0.0000000000
11
-2.9739811132
21
-9.0860041755
31
0.0000000000
11
-2.9943336810
21
-9.1945949283
31
0.0000000000
11
-3.0018364765
21
-9.3121810036
31
0.0000000000
11
-2.9963727070
21
-9.4369933074
31
0.0000000000
11
-2.9780251529
21
-9.5671590216
31
0.0000000000
11
-2.9470753175
21
-9.7007291713
31
0.0000000000
11
-2.9040475653
21
-9.8355731572
31
0.0000000000
0
SPLINE
5
227
100
AcDbEntity
8
0
100
AcDbSpline
62
7
6
CONTINUOUS
70
0
71
3
72
14
73
10
74
8
42
0.0000001000
43
0.0000001000
44
0.0000000001
12
-0.3378341607
22
-0.7980832032
32
0.0000000000
13
0.2952497992
23
-0.8147983035
33
0.0000000000
40
0.0000000000
40
0.0000000000
40
0.0000000000
40
0.0000000000
40
0.1191952250
40
0.2466775620
40
0.3826335490
40
0.5267897387
40
0.6784699232
40
0.8366770817
40
1.0000000000
40
1.0000000000
40
1.0000000000
40
1.0000000000
10
-0.9258497559
20
-9.9957032615
30
0.0000000000
10
-0.9392724955
20
-10.0274124971
30
0.0000000000
10
-0.9617206928
20
-10.0953739932
30
0.0000000000
10
-0.9816607849
20
-10.2043835029
30
0.0000000000
10
-0.9887630351
20
-10.3221738849
30
0.0000000000
10
-0.9829507297
20
-10.4469839628
30
0.0000000000
10
-0.9643399255
20
-10.5770065170
30
0.0000000000
10
-0.9332365557
20
-10.7102793795
30
0.0000000000
10
-0.9048668248
20
-10.7988419583
30
0.0000000000
10
-0.8887931385
20
-10.8432003705
30
0.0000000000
11
-0.9258497559
21
-9.9957032615
31
0.0000000000
11
-0.9587266943
21
-10.0936313830
31
0.0000000000
11
-0.9790792676
21
-10.2022221332
31
0.0000000000
11
-0.9865820657
21
-10.3198082083
31
0.0000000000
11
-0.9811182962
21
-10.4446205136
31
0.0000000000
11
-0.9627707392
21
-10.5747862304
31
0.0000000000
11
-0.9318208984
21
-10.7083563828
31
0.0000000000
11
-0.8887931385
21
-10.8432003705
31
0.0000000000
0
SPLINE
5
228
100
AcDbEntity
8
0
100
AcDbSpline
62
7
6
CONTINUOUS
70
0
71
3
72
14
73
10
74
8
42
0.0000001000
43
0.0000001000
44
0.0000000001
12
-0.3378340676
22
-0.7980832341
32
0.0000000000
13
0.2952497523
23
-0.8147983122
33
0.0000000000
40
0.0000000000
40
0.0000000000
40
0.0000000000
40
0.0000000000
40
0.1191952295
40
0.2466775697
40
0.3826335579
40
0.5267897471
40
0.6784699296
40
0.8366770850
40
1.0000000000
40
1.0000000000
40
1.0000000000
40
1.0000000000
10
1.2661811923
20
-11.0917187356
30
0.0000000000
10
1.2527584559
20
-11.1234279736
30
0.0000000000
10
1.2303102641
20
-11.1913894730
30
0.0000000000
10
1.2103701772
20
-11.3003989852
30
0.0000000000
10
1.2032679295
20
-11.4181893672
30
0.0000000000
10
1.2090802348
20
-11.5429994435
30
0.0000000000
10
1.2276910360
20
-11.6730219953
30
0.0000000000
10
1.2587944004
20
-11.8062948552
30
0.0000000000
10
1.2871641262
20
-11.8948574328
30
0.0000000000
10
1.3032378096
20
-11.9392158446
30
0.0000000000
11
1.2661811923
21
-11.0917187356
31
0.0000000000
11
1.2333042617
21
-11.1896468629
31
0.0000000000
11
1.2129516939
21
-11.2982376158
31
0.0000000000
11
1.2054488984
21
-11.4158236911
31
0.0000000000
11
1.2109126679
21
-11.5406359949
31
0.0000000000
11
1.2292602220
21
-11.6708017091
31
0.0000000000
11
1.2602100574
21
-11.8043718588
31
0.0000000000
11
1.3032378096
21
-11.9392158446
31
0.0000000000
0
SPLINE
5
229
100
AcDbEntity
8
0
100
AcDbSpline
62
7
6
CONTINUOUS
70
0
71
3
72
8
73
4
74
2
42
0.0000001000
43
0.0000001000
44
0.0000000001
12
0.0136576347
22
0.0329729657
32
0.0000000000
13
0.0118458366
23
0.0336958325
33
0.0000000000
40
0.0000000000
40
0.0000000000
40
0.0000000000
40
0.0000000000
40
1.0000000000
40
1.0000000000
40
1.0000000000
40
1.0000000000
10
0.1718670589
20
-11.3735304693
30
0.0000000000
10
0.1764196038
20
-11.3625394807
30
0.0000000000
10
0.1806624721
20
-11.3514157231
30
0.0000000000
10
0.1846110843
20
-11.3401837790
30
0.0000000000
11
0.1718670589
21
-11.3735304693
31
0.0000000000
11
0.1846110843
21
-11.3401837790
31
0.0000000000
0
SPLINE
5
22A
100
AcDbEntity
8
0
100
AcDbSpline
62
7
6
CONTINUOUS
70
0
71
3
72
14
73
10
74
8
42
0.0000001000
43
0.0000001000
44
0.0000000001
12
0.2586678583
22
0.7357883716
32
0.0000000000
13
-0.2397996630
23
0.7417088613
33
0.0000000000
40
0.0000000000
40
0.0000000000
40
0.0000000000
40
0.0000000000
40
0.0857786780
40
0.2269502066
40
0.3778773418
40
0.5381821944
40
0.7070261565
40
0.8832103990
40
1.0000000000
40
1.0000000000
40
1.0000000000
40
1.0000000000
10
0.1846110843
20
-11.3401837790
30
0.0000000000
10
0.1920071466
20
-11.3191454611
30
0.0000000000
10
0.2088439659
20
-11.2624787818
30
0.0000000000
10
0.2260261483
20
-11.1655863728
30
0.0000000000
10
0.2327880552
20
-11.0480122609
30
0.0000000000
10
0.2269856178
20
-10.9232383284
30
0.0000000000
10
0.2087279149
20
-10.7930666360
30
0.0000000000
10
0.1820536100
20
-10.6759709121
30
0.0000000000
10
0.1603972837
20
-10.6029566069
30
0.0000000000
10
0.1510619147
20
-10.5740819796
30
0.0000000000
11
0.1846110843
21
-11.3401837790
31
0.0000000000
11
0.2038034826
21
-11.2760916769
31
0.0000000000
11
0.2234999820
21
-11.1678507114
31
0.0000000000
11
0.2306693414
21
-11.0504481801
31
0.0000000000
11
0.2252116737
21
-10.9256379315
31
0.0000000000
11
0.2072059755
21
-10.7952914274
31
0.0000000000
11
0.1769108857
21
-10.6613705822
31
0.0000000000
11
0.1510619147
21
-10.5740819796
31
0.0000000000
0
SPLINE
5
22B
100
AcDbEntity
8
0
100
AcDbSpline
62
7
6
CONTINUOUS
70
0
71
3
72
8
73
4
74
2
42
0.0000001000
43
0.0000001000
44
0.0000000001
12
-0.0156058015
22
0.0482692973
32
0.0000000000
13
-0.0168884726
23
0.0478228122
33
0.0000000000
40
0.0000000000
40
0.0000000000
40
0.0000000000
40
0.0000000000
40
1.0000000000
40
1.0000000000
40
1.0000000000
40
1.0000000000
10
0.1510619147
20
-10.5740819796
30
0.0000000000
10
0.1458599809
20
-10.5579922138
30
0.0000000000
10
0.1404399489
20
-10.5419743059
30
0.0000000000
10
0.1348104581
20
-10.5260333685
30
0.0000000000
11
0.1510619147
21
-10.5740819796
31
0.0000000000
11
0.1348104581
21
-10.5260333685
31
0.0000000000
0
SPLINE
5
22C
100
AcDbEntity
8
0
100
AcDbSpline
62
7
6
CONTINUOUS
70
0
71
3
72
8
73
4
74
2
42
0.0000001000
43
0.0000001000
44
0.0000000001
12
0.0136576380
22
0.0329729632
32
0.0000000000
13
0.0118458395
23
0.0336958304
33
0.0000000000
40
0.0000000000
40
0.0000000000
40
0.0000000000
40
0.0000000000
40
1.0000000000
40
1.0000000000
40
1.0000000000
40
1.0000000000
10
-2.0201640688
20
-10.2775149054
30
0.0000000000
10
-2.0156115228
20
-10.2665239177
30
0.0000000000
10
-2.0113686535
20
-10.2554001609
30
0.0000000000
10
-2.0074200403
20
-10.2441682174
30
0.0000000000
11
-2.0201640688
21
-10.2775149054
31
0.0000000000
11
-2.0074200403
21
-10.2441682174
31
0.0000000000
0
SPLINE
5
22D
100
AcDbEntity
8
0
100
AcDbSpline
62
7
6
CONTINUOUS
70
0
71
3
72
14
73
10
74
8
42
0.0000001000
43
0.0000001000
44
0.0000000001
12
0.2586679320
22
0.7357883534
32
0.0000000000
13
-0.2397997021
23
0.7417088560
33
0.0000000000
40
0.0000000000
40
0.0000000000
40
0.0000000000
40
0.0000000000
40
0.0857786745
40
0.2269501997
40
0.3778773336
40
0.5381821867
40
0.7070261511
40
0.8832103969
40
1.0000000000
40
1.0000000000
40
1.0000000000
40
1.0000000000
10
-2.0074200403
20
-10.2441682174
30
0.0000000000
10
-2.0000239762
20
-10.2231299008
30
0.0000000000
10
-1.9831871526
20
-10.1664632241
30
0.0000000000
10
-1.9660049654
20
-10.0695708170
30
0.0000000000
10
-1.9592430560
20
-9.9519967052
30
0.0000000000
10
-1.9650454937
20
-9.8272227712
30
0.0000000000
10
-1.9833031995
20
-9.6970510763
30
0.0000000000
10
-2.0099775091
20
-9.5799553503
30
0.0000000000
10
-2.0316338393
20
-9.5069410442
30
0.0000000000
10
-2.0409692099
20
-9.4780664165
30
0.0000000000
11
-2.0074200403
21
-10.2441682174
31
0.0000000000
11
-1.9882276372
21
-10.1800761188
31
0.0000000000
11
-1.9685311325
21
-10.0718351561
31
0.0000000000
11
-1.9613617703
21
-9.9544326250
31
0.0000000000
11
-1.9668194381
21
-9.8296223748
31
0.0000000000
11
-1.9848251391
21
-9.6992758681
31
0.0000000000
11
-2.0151202343
21
-9.5653550203
31
0.0000000000
11
-2.0409692099
21
-9.4780664165
31
0.0000000000
0
SPLINE
5
22E
100
AcDbEntity
8
0
100
AcDbSpline
62
7
6
CONTINUOUS
70
0
71
3
72
8
73
4
74
2
42
0.0000001000
43
0.0000001000
44
0.0000000001
12
-0.0156058044
22
0.0482692982
32
0.0000000000
13
-0.0168884758
23
0.0478228129
33
0.0000000000
40
0.0000000000
40
0.0000000000
40
0.0000000000
40
0.0000000000
40
1.0000000000
40
1.0000000000
40
1.0000000000
40
1.0000000000
10
-2.0409692099
20
-9.4780664165
30
0.0000000000
10
-2.0461711447
20
-9.4619766505
30
0.0000000000
10
-2.0515911777
20
-9.4459587422
30
0.0000000000
10
-2.0572206697
20
-9.4300178046
30
0.0000000000
11
-2.0409692099
21
-9.4780664165
31
0.0000000000
11
-2.0572206697
21
-9.4300178046
31
0.0000000000
0
SPLINE
5
22F
100
AcDbEntity
8
0
100
AcDbSpline
62
7
6
CONTINUOUS
70
0
71
3
72
8
73
4
74
2
42
0.0000001000
43
0.0000001000
44
0.0000000001
12
0.0136576380
22
0.0329729632
32
0.0000000000
13
0.0118458395
23
0.0336958304
33
0.0000000000
40
0.0000000000
40
0.0000000000
40
0.0000000000
40
0.0000000000
40
1.0000000000
40
1.0000000000
40
1.0000000000
40
1.0000000000
10
2.1871213061
20
-12.3811575929
30
0.0000000000
10
2.1916738521
20
-12.3701666052
30
0.0000000000
10
2.1959167215
20
-12.3590428483
30
0.0000000000
10
2.1998653346
20
-12.3478109048
30
0.0000000000
11
2.1871213061
21
-12.3811575929
31
0.0000000000
11
2.1998653346
21
-12.3478109048
31
0.0000000000
0
SPLINE
5
230
100
AcDbEntity
8
0
100
AcDbSpline
62
7
6
CONTINUOUS
70
0
71
3
72
14
73
10
74
8
42
0.0000001000
43
0.0000001000
44
0.0000000001
12
0.2586679320
22
0.7357883534
32
0.0000000000
13
-0.2397997021
23
0.7417088560
33
0.0000000000
40
0.0000000000
40
0.0000000000
40
0.0000000000
40
0.0000000000
40
0.0857786745
40
0.2269501997
40
0.3778773336
40
0.5381821867
40
0.7070261511
40
0.8832103969
40
1.0000000000
40
1.0000000000
40
1.0000000000
40
1.0000000000
10
2.1998653346
20
-12.3478109048
30
0.0000000000
10
2.2072613988
20
-12.3267725883
30
0.0000000000
10
2.2240982223
20
-12.2701059115
30
0.0000000000
10
2.2412804095
20
-12.1732135045
30
0.0000000000
10
2.2480423189
20
-12.0556393927
30
0.0000000000
10
2.2422398813
20
-11.9308654587
30
0.0000000000
10
2.2239821755
20
-11.8006937638
30
0.0000000000
10
2.1973078659
20
-11.6835980378
30
0.0000000000
10
2.1756515357
20
-11.6105837316
30
0.0000000000
10
2.1663161650
20
-11.5817091040
30
0.0000000000
11
2.1998653346
21
-12.3478109048
31
0.0000000000
11
2.2190577377
21
-12.2837188063
31
0.0000000000
11
2.2387542425
21
-12.1754778436
31
0.0000000000
11
2.2459236046
21
-12.0580753125
31
0.0000000000
11
2.2404659368
21
-11.9332650623
31
0.0000000000
11
2.2224602358
21
-11.8029185556
31
0.0000000000
11
2.1921651406
21
-11.6689977078
31
0.0000000000
11
2.1663161650
21
-11.5817091040
31
0.0000000000
0
SPLINE
5
231
100
AcDbEntity
8
0
100
AcDbSpline
62
7
6
CONTINUOUS
70
0
71
3
72
8
73
4
74
2
42
0.0000001000
43
0.0000001000
44
0.0000000001
12
-0.0156058044
22
0.0482692982
32
0.0000000000
13
-0.0168884758
23
0.0478228129
33
0.0000000000
40
0.0000000000
40
0.0000000000
40
0.0000000000
40
0.0000000000
40
1.0000000000
40
1.0000000000
40
1.0000000000
40
1.0000000000
10
2.1663161650
20
-11.5817091040
30
0.0000000000
10
2.1611142302
20
-11.5656193379
30
0.0000000000
10
2.1556941972
20
-11.5496014297
30
0.0000000000
10
2.1500647053
20
-11.5336604921
30
0.0000000000
11
2.1663161650
21
-11.5817091040
31
0.0000000000
11
2.1500647053
21
-11.5336604921
31
0.0000000000
0
SPLINE
5
232
100
AcDbEntity
8
0
100
AcDbSpline
62
7
6
CONTINUOUS
70
0
71
3
72
14
73
10
74
8
42
0.0000001000
43
0.0000001000
44
0.0000000001
12
0.2882821515
22
-0.8163237229
32
0.0000000000
13
-0.3312967411
23
-0.7998334132
33
0.0000000000
40
0.0000000000
40
0.0000000000
40
0.0000000000
40
0.0000000000
40
0.1637162212
40
0.3223158811
40
0.4743078780
40
0.6186130347
40
0.7544764429
40
0.8815579295
40
1.0000000000
40
1.0000000000
40
1.0000000000
40
1.0000000000
10
2.1500647053
20
-11.5336604921
30
0.0000000000
10
2.1657968601
20
-11.5782089705
30
0.0000000000
10
2.1935489723
20
-11.6670971282
30
0.0000000000
10
2.2239821755
20
-11.8006937638
30
0.0000000000
10
2.2422398813
20
-11.9308654587
30
0.0000000000
10
2.2480423189
20
-12.0556393927
30
0.0000000000
10
2.2412804095
20
-12.1732135045
30
0.0000000000
10
2.2220158861
20
-12.2818484545
30
0.0000000000
10
2.2002011301
20
-12.3495796177
30
0.0000000000
10
2.1871213061
20
-12.3811575929
30
0.0000000000
11
2.1500647053
21
-11.5336604921
31
0.0000000000
11
2.1921651406
21
-11.6689977078
31
0.0000000000
11
2.2224602358
21
-11.8029185556
31
0.0000000000
11
2.2404659368
21
-11.9332650623
31
0.0000000000
11
2.2459236046
21
-12.0580753125
31
0.0000000000
11
2.2387542425
21
-12.1754778436
31
0.0000000000
11
2.2190577377
21
-12.2837188063
31
0.0000000000
11
2.1871213061
21
-12.3811575929
31
0.0000000000
0
SPLINE
5
233
100
AcDbEntity
8
0
100
AcDbSpline
62
7
6
CONTINUOUS
70
0
71
3
72
14
73
10
74
8
42
0.0000001000
43
0.0000001000
44
0.0000000001
12
0.2882821044
22
-0.8163237315
32
0.0000000000
13
-0.3312966471
23
-0.7998334438
33
0.0000000000
40
0.0000000000
40
0.0000000000
40
0.0000000000
40
0.0000000000
40
0.1637162179
40
0.3223158748
40
0.4743078696
40
0.6186130257
40
0.7544764352
40
0.8815579249
40
1.0000000000
40
1.0000000000
40
1.0000000000
40
1.0000000000
10
0.1348104581
20
-10.5260333685
30
0.0000000000
10
0.1505426100
20
-10.5705818464
30
0.0000000000
10
0.1782947172
20
-10.6594700030
30
0.0000000000
10
0.2087279149
20
-10.7930666360
30
0.0000000000
10
0.2269856178
20
-10.9232383284
30
0.0000000000
10
0.2327880552
20
-11.0480122609
30
0.0000000000
10
0.2260261483
20
-11.1655863728
30
0.0000000000
10
0.2067616302
20
-11.2742213252
30
0.0000000000
10
0.1849468797
20
-11.3419524917
30
0.0000000000
10
0.1718670589
20
-11.3735304693
30
0.0000000000
11
0.1348104581
21
-10.5260333685
31
0.0000000000
11
0.1769108857
21
-10.6613705822
31
0.0000000000
11
0.2072059755
21
-10.7952914274
31
0.0000000000
11
0.2252116737
21
-10.9256379315
31
0.0000000000
11
0.2306693414
21
-11.0504481801
31
0.0000000000
11
0.2234999820
21
-11.1678507114
31
0.0000000000
11
0.2038034826
21
-11.2760916769
31
0.0000000000
11
0.1718670589
21
-11.3735304693
31
0.0000000000
0
SPLINE
5
234
100
AcDbEntity
8
0
100
AcDbSpline
62
7
6
CONTINUOUS
70
0
71
3
72
14
73
10
74
8
42
0.0000001000
43
0.0000001000
44
0.0000000001
12
0.2882821515
22
-0.8163237229
32
0.0000000000
13
-0.3312967411
23
-0.7998334132
33
0.0000000000
40
0.0000000000
40
0.0000000000
40
0.0000000000
40
0.0000000000
40
0.1637162212
40
0.3223158811
40
0.4743078780
40
0.6186130347
40
0.7544764429
40
0.8815579295
40
1.0000000000
40
1.0000000000
40
1.0000000000
40
1.0000000000
10
-2.0572206697
20
-9.4300178046
30
0.0000000000
10
-2.0414885148
20
-9.4745662830
30
0.0000000000
10
-2.0137364026
20
-9.5634544408
30
0.0000000000
10
-1.9833031995
20
-9.6970510763
30
0.0000000000
10
-1.9650454937
20
-9.8272227712
30
0.0000000000
10
-1.9592430560
20
-9.9519967052
30
0.0000000000
10
-1.9660049654
20
-10.0695708170
30
0.0000000000
10
-1.9852694888
20
-10.1782057670
30
0.0000000000
10
-2.0070842448
20
-10.2459369303
30
0.0000000000
10
-2.0201640688
20
-10.2775149054
30
0.0000000000
11
-2.0572206697
21
-9.4300178046
31
0.0000000000
11
-2.0151202343
21
-9.5653550203
31
0.0000000000
11
-1.9848251391
21
-9.6992758681
31
0.0000000000
11
-1.9668194381
21
-9.8296223748
31
0.0000000000
11
-1.9613617703
21
-9.9544326250
31
0.0000000000
11
-1.9685311325
21
-10.0718351561
31
0.0000000000
11
-1.9882276372
21
-10.1800761188
31
0.0000000000
11
-2.0201640688
21
-10.2775149054
31
0.0000000000
0
SPLINE
5
235
100
AcDbEntity
8
0
100
AcDbSpline
62
7
6
CONTINUOUS
70
0
71
3
72
9
73
5
74
3
42
0.0000001000
43
0.0000001000
44
0.0000000001
12
0.0377297018
22
-0.2943448149
32
0.0000000000
13
0.1373774419
23
-0.2637536363
33
0.0000000000
40
0.0000000000
40
0.0000000000
40
0.0000000000
40
0.0000000000
40
0.7307187612
40
1.0000000000
40
1.0000000000
40
1.0000000000
40
1.0000000000
10
-7.2493140671
20
-14.0164312059
30
0.0000000000
10
-7.2401241334
20
-14.0881256321
30
0.0000000000
10
-7.2162185355
20
-14.1852395357
30
0.0000000000
10
-7.1749863644
20
-14.2755694636
30
0.0000000000
10
-7.1626553085
20
-14.2992440989
30
0.0000000000
11
-7.2493140671
21
-14.0164312059
31
0.0000000000
11
-7.1959360735
21
-14.2264292315
31
0.0000000000
11
-7.1626553085
21
-14.2992440989
31
0.0000000000
0
SPLINE
5
236
100
AcDbEntity
8
0
100
AcDbSpline
62
7
6
CONTINUOUS
70
0
71
3
72
10
73
6
74
4
42
0.0000001000
43
0.0000001000
44
0.0000000001
12
0.2049056816
22
-0.3934024238
32
0.0000000000
13
0.3977461205
23
-0.1978776006
33
0.0000000000
40
0.0000000000
40
0.0000000000
40
0.0000000000
40
0.0000000000
40
0.3470473557
40
0.8481493201
40
1.0000000000
40
1.0000000000
40
1.0000000000
40
1.0000000000
10
-7.1626553085
20
-14.2992440989
30
0.0000000000
10
-7.1389513169
20
-14.3447538558
30
0.0000000000
10
-7.0699312425
20
-14.4501095101
30
0.0000000000
10
-6.9580189412
20
-14.5495428443
30
0.0000000000
10
-6.8735642675
20
-14.5968920957
30
0.0000000000
10
-6.8534315945
20
-14.6069080451
30
0.0000000000
11
-7.1626553085
21
-14.2992440989
31
0.0000000000
11
-7.0781316430
21
-14.4274535114
31
0.0000000000
11
-6.9122302838
21
-14.5739184264
31
0.0000000000
11
-6.8534315945
21
-14.6069080451
31
0.0000000000
0
SPLINE
5
237
100
AcDbEntity
8
0
100
AcDbSpline
62
7
6
CONTINUOUS
70
0
71
3
72
10
73
6
74
4
42
0.0000001000
43
0.0000001000
44
0.0000000001
12
0.1486148779
22
-9.7573751711
32
0.0000000000
13
1.2323967459
23
-9.6803769115
33
0.0000000000
40
0.0000000000
40
0.0000000000
40
0.0000000000
40
0.0000000000
40
0.3376789097
40
0.6760530056
40
1.0000000000
40
1.0000000000
40
1.0000000000
40
1.0000000000
10
-7.9244793298
20
-4.2853706770
30
0.0000000000
10
-7.9077512932
20
-5.3836572800
30
0.0000000000
10
-7.8363953228
20
-7.5821361338
30
0.0000000000
10
-7.6123535378
20
-10.8279229904
30
0.0000000000
10
-7.3824634140
20
-12.9706830500
30
0.0000000000
10
-7.2493863400
20
-14.0159927184
30
0.0000000000
11
-7.9244793298
21
-4.2853706770
31
0.0000000000
11
-7.8164828268
21
-7.5788388467
31
0.0000000000
11
-7.5878482951
21
-10.8729250364
31
0.0000000000
11
-7.2493863400
21
-14.0159927184
31
0.0000000000
0
SPLINE
5
238
100
AcDbEntity
8
0
100
AcDbSpline
62
7
6
CONTINUOUS
70
0
71
3
72
10
73
6
74
4
42
0.0000001000
43
0.0000001000
44
0.0000000001
12
-0.2466228262
22
-16.4518467693
32
0.0000000000
13
0.2505802879
23
-16.4517872272
33
0.0000000000
40
0.0000000000
40
0.0000000000
40
0.0000000000
40
0.0000000000
40
0.3337540851
40
0.6701636888
40
1.0000000000
40
1.0000000000
40
1.0000000000
40
1.0000000000
10
-7.9244811417
20
12.1677664957
30
0.0000000000
10
-7.9519182669
20
10.3374761404
30
0.0000000000
10
-7.9889122873
20
6.6620337373
30
0.0000000000
10
-7.9890284050
20
1.1773848088
30
0.0000000000
10
-7.9520294836
20
-2.4765719225
30
0.0000000000
10
-7.9244793243
20
-4.2853708595
30
0.0000000000
11
-7.9244811417
21
12.1677664957
31
0.0000000000
11
-7.9796096433
21
6.6765554488
31
0.0000000000
11
-7.9795762945
21
1.1413754934
31
0.0000000000
11
-7.9244793243
21
-4.2853708595
31
0.0000000000
0
SPLINE
5
239
100
AcDbEntity
8
0
100
AcDbSpline
62
7
6
CONTINUOUS
70
0
71
3
72
10
73
6
74
4
42
0.0000001000
43
0.0000001000
44
0.0000000001
12
-1.1663611682
22
-10.3907606109
32
0.0000000000
13
-0.1567230558
23
-10.4548450168
33
0.0000000000
40
0.0000000000
40
0.0000000000
40
0.0000000000
40
0.0000000000
40
0.3363821845
40
0.6747960092
40
1.0000000000
40
1.0000000000
40
1.0000000000
40
1.0000000000
10
-7.2502690948
20
22.5983804920
30
0.0000000000
10
-7.3810501340
20
21.4332915745
30
0.0000000000
10
-7.6079523620
20
19.0919177997
30
0.0000000000
10
-7.8336358410
20
15.6133460382
30
0.0000000000
10
-7.9074921516
20
13.3010854727
30
0.0000000000
10
-7.9244811393
20
12.1677663651
30
0.0000000000
11
-7.2502690948
21
22.5983804920
31
0.0000000000
11
-7.5887283872
21
19.0974878897
31
0.0000000000
11
-7.8168762091
21
15.5664017081
31
0.0000000000
11
-7.9244811393
21
12.1677663651
31
0.0000000000
0
SPLINE
5
23A
100
AcDbEntity
8
0
100
AcDbSpline
62
7
6
CONTINUOUS
70
0
71
3
72
12
73
8
74
6
42
0.0000001000
43
0.0000001000
44
0.0000000001
12
-0.9882543495
22
-0.5534470936
32
0.0000000000
13
-0.1261614915
23
-1.1246922940
33
0.0000000000
40
0.0000000000
40
0.0000000000
40
0.0000000000
40
0.0000000000
40
0.1416254039
40
0.3697827763
40
0.6063671078
40
0.8445565870
40
1.0000000000
40
1.0000000000
40
1.0000000000
40
1.0000000000
10
-6.6660201104
20
23.5222082001
30
0.0000000000
10
-6.7126740842
20
23.4960808107
30
0.0000000000
10
-6.8287706343
20
23.4170150929
30
0.0000000000
10
-6.9891608577
20
23.2520107055
30
0.0000000000
10
-7.1310288305
20
23.0263115781
30
0.0000000000
10
-7.2158153031
20
22.8030633097
30
0.0000000000
10
-7.2437438427
20
22.6565210117
30
0.0000000000
10
-7.2502808337
20
22.5982456754
30
0.0000000000
11
-6.6660201104
21
23.5222082001
31
0.0000000000
11
-6.7989209676
21
23.4323546004
31
0.0000000000
11
-6.9799102975
21
23.2488194711
31
0.0000000000
11
-7.1227721294
21
23.0229179672
31
0.0000000000
11
-7.2177831375
21
22.7711510172
31
0.0000000000
11
-7.2502808337
21
22.5982456754
31
0.0000000000
0
SPLINE
5
23B
100
AcDbEntity
8
0
100
AcDbSpline
62
7
6
CONTINUOUS
70
0
71
3
72
11
73
7
74
5
42
0.0000001000
43
0.0000001000
44
0.0000000001
12
0.2107777979
22
0.1178606347
32
0.0000000000
13
0.2150399456
23
-0.1075199728
33
0.0000000000
40
0.0000000000
40
0.0000000000
40
0.0000000000
40
0.0000000000
40
0.1579985615
40
0.4151871104
40
0.6932458265
40
1.0000000000
40
1.0000000000
40
1.0000000000
40
1.0000000000
10
-3.9309245508
20
25.0533791115
30
0.0000000000
10
-3.9198236879
20
25.0595863818
30
0.0000000000
10
-3.8890076251
20
25.0729771917
30
0.0000000000
10
-3.8331532925
20
25.0810668545
30
0.0000000000
10
-3.7656170640
20
25.0715295858
30
0.0000000000
10
-3.7216085879
20
25.0542839813
30
0.0000000000
10
-3.6996204543
20
25.0432899145
30
0.0000000000
11
-3.9309245508
21
25.0533791115
31
0.0000000000
11
-3.8959880837
21
25.0685404830
31
0.0000000000
11
-3.8348792937
21
25.0779814459
31
0.0000000000
11
-3.7685740455
21
25.0694534381
31
0.0000000000
11
-3.6996204543
21
25.0432899145
31
0.0000000000
0
SPLINE
5
23C
100
AcDbEntity
8
0
100
AcDbSpline
62
7
6
CONTINUOUS
70
0
71
3
72
11
73
7
74
5
42
0.0000001000
43
0.0000001000
44
0.0000000001
12
0.5966657728
22
-0.2987226734
32
0.0000000000
13
0.6108243276
23
0.2704107845
33
0.0000000000
40
0.0000000000
40
0.0000000000
40
0.0000000000
40
0.0000000000
40
0.2263998662
40
0.5103834952
40
0.8091041311
40
1.0000000000
40
1.0000000000
40
1.0000000000
40
1.0000000000
10
7.8365135042
20
-21.9519315447
30
0.0000000000
10
7.8815418546
20
-21.9744751358
30
0.0000000000
10
7.9888991897
20
-22.0144232469
30
0.0000000000
10
8.1694221075
20
-22.0351092993
30
0.0000000000
10
8.3411992073
20
-22.0096527331
30
0.0000000000
10
8.4441047071
20
-21.9725305732
30
0.0000000000
10
8.4829726540
20
-21.9553238060
30
0.0000000000
11
7.8365135042
21
-21.9519315447
31
0.0000000000
11
7.9780689353
21
-22.0046231369
31
0.0000000000
11
8.1659865849
21
-22.0266397851
31
0.0000000000
11
8.3629776524
21
-21.9982837072
31
0.0000000000
11
8.4829726540
21
-21.9553238060
31
0.0000000000
0
SPLINE
5
23D
100
AcDbEntity
8
0
100
AcDbSpline
62
7
6
CONTINUOUS
70
0
71
3
72
15
73
11
74
9
42
0.0000001000
43
0.0000001000
44
0.0000000001
12
0.6579429531
22
-0.3289714766
32
0.0000000000
13
0.0000000000
23
-0.7356025842
33
0.0000000000
40
0.0000000000
40
0.0000000000
40
0.0000000000
40
0.0000000000
40
0.1103200630
40
0.2298775073
40
0.3567611503
40
0.4883322651
40
0.6215380573
40
0.7531889670
40
0.8802256903
40
1.0000000000
40
1.0000000000
40
1.0000000000
40
1.0000000000
10
11.1498642585
20
17.6185475581
30
0.0000000000
10
11.1740590279
20
17.6064501734
30
0.0000000000
10
11.2220161486
20
17.5761772359
30
0.0000000000
10
11.2878782925
20
17.5181686374
30
0.0000000000
10
11.3485232859
20
17.4477119439
30
0.0000000000
10
11.4016810165
20
17.3674456441
30
0.0000000000
10
11.4453857528
20
17.2803636548
30
0.0000000000
10
11.4780001730
20
17.1897157925
30
0.0000000000
10
11.4983046615
20
17.0989155903
30
0.0000000000
10
11.5032964952
20
17.0383358844
30
0.0000000000
10
11.5032964952
20
17.0089671205
30
0.0000000000
11
11.1498642585
21
17.6185475581
31
0.0000000000
11
11.2188179222
21
17.5757574367
31
0.0000000000
11
11.2851233142
21
17.5179800323
31
0.0000000000
11
11.3462322195
21
17.4474300601
31
0.0000000000
11
11.3997934415
21
17.3668177271
31
0.0000000000
11
11.4437467490
21
17.2792422406
31
0.0000000000
11
11.4764028220
21
17.1880715270
31
0.0000000000
11
11.4965087370
21
17.0968115568
31
0.0000000000
11
11.5032964952
21
17.0089671205
31
0.0000000000
0
SPLINE
5
23E
100
AcDbEntity
8
0
100
AcDbSpline
62
7
6
CONTINUOUS
70
0
71
3
72
12
73
8
74
6
42
0.0000001000
43
0.0000001000
44
0.0000000001
12
0.0000000000
22
-0.3236722686
32
0.0000000000
13
-0.2971401766
23
-0.1319095818
33
0.0000000000
40
0.0000000000
40
0.0000000000
40
0.0000000000
40
0.0000000000
40
0.2513050341
40
0.4797469545
40
0.6867787307
40
0.8781009651
40
1.0000000000
40
1.0000000000
40
1.0000000000
40
1.0000000000
10
11.5032964952
20
-20.4036270882
30
0.0000000000
10
11.5032964952
20
-20.4307405784
30
0.0000000000
10
11.4993589900
20
-20.4826497835
30
0.0000000000
10
11.4798312078
20
-20.5546658602
30
0.0000000000
10
11.4472607462
20
-20.6147803808
30
0.0000000000
10
11.4071818844
20
-20.6553240528
30
0.0000000000
10
11.3775829041
20
-20.6723378634
30
0.0000000000
10
11.3655092039
20
-20.6776977470
30
0.0000000000
11
11.5032964952
21
-20.4036270882
31
0.0000000000
11
11.4965087226
21
-20.4846838479
31
0.0000000000
11
11.4764027325
21
-20.5558380416
31
0.0000000000
11
11.4437465275
21
-20.6143527575
31
0.0000000000
11
11.3997931105
21
-20.6579748810
31
0.0000000000
11
11.3655092039
21
-20.6776977470
31
0.0000000000
0
SPLINE
5
23F
100
AcDbEntity
8
0
100
AcDbSpline
62
9
6
CONTINUOUS
70
0
71
3
72
10
73
6
74
4
42
0.0000001000
43
0.0000001000
44
0.0000000001
12
-0.0024380193
22
-0.2432602606
32
0.0000000000
13
0.2138780911
23
-0.1068067214
33
0.0000000000
40
0.0000000000
40
0.0000000000
40
0.0000000000
40
0.0000000000
40
0.1782172395
40
0.5410344351
40
1.0000000000
40
1.0000000000
40
1.0000000000
40
1.0000000000
10
-7.9240276356
20
12.1677618198
30
0.0000000000
10
-7.9241724680
20
12.1533107624
30
0.0000000000
10
-7.9174354377
20
12.1092214459
30
0.0000000000
10
-7.8666772878
20
12.0434395032
30
0.0000000000
10
-7.8107477475
20
12.0080947147
30
0.0000000000
10
-7.7780268545
20
11.9917545123
30
0.0000000000
11
-7.9240276356
21
12.1677618198
31
0.0000000000
11
-7.9174853480
21
12.1251868257
31
0.0000000000
11
-7.8687863182
21
12.0534120441
31
0.0000000000
11
-7.7780268545
21
11.9917545123
31
0.0000000000
0
SPLINE
5
240
100
AcDbEntity
8
0
100
AcDbSpline
62
9
6
CONTINUOUS
70
0
71
3
72
13
73
9
74
7
42
0.0000001000
43
0.0000001000
44
0.0000000001
12
-0.5897795053
22
-0.2984642546
32
0.0000000000
13
-0.0779462278
23
-0.6563879659
33
0.0000000000
40
0.0000000000
40
0.0000000000
40
0.0000000000
40
0.0000000000
40
0.1494676177
40
0.3128430908
40
0.4852168731
40
0.6611039132
40
0.8348048878
40
1.0000000000
40
1.0000000000
40
1.0000000000
40
1.0000000000
10
8.6248401817
20
15.5532310861
30
0.0000000000
10
8.5954558692
20
15.5383608390
30
0.0000000000
10
8.5374186981
20
15.5001695262
30
0.0000000000
10
8.4597690352
20
15.4260236399
30
0.0000000000
10
8.3911600633
20
15.3360245424
30
0.0000000000
10
8.3353453038
20
15.2350062227
30
0.0000000000
10
8.2952547229
20
15.1284908271
30
0.0000000000
10
8.2798346463
20
15.0550288190
30
0.0000000000
10
8.2755425344
20
15.0188847911
30
0.0000000000
11
8.6248401817
21
15.5532310861
31
0.0000000000
11
8.5418186972
21
15.4996727837
31
0.0000000000
11
8.4632707297
21
15.4255626801
31
0.0000000000
11
8.3939487869
21
15.3351382736
31
0.0000000000
11
8.3376826369
21
15.2333993376
31
0.0000000000
11
8.2974748942
21
15.1258534238
31
0.0000000000
11
8.2755425344
21
15.0188847911
31
0.0000000000
0
SPLINE
5
241
100
AcDbEntity
8
0
100
AcDbSpline
62
9
6
CONTINUOUS
70
0
71
3
72
13
73
9
74
7
42
0.0000001000
43
0.0000001000
44
0.0000000001
12
-1.1715798985
22
-0.6079024310
32
0.0000000000
13
-0.1535154428
23
-1.3109453966
33
0.0000000000
40
0.0000000000
40
0.0000000000
40
0.0000000000
40
0.0000000000
40
0.1494497469
40
0.3121860060
40
0.4840733429
40
0.6598135503
40
0.8336461327
40
1.0000000000
40
1.0000000000
40
1.0000000000
40
1.0000000000
10
8.2714079450
20
16.1628115237
30
0.0000000000
10
8.2130438386
20
16.1325279022
30
0.0000000000
10
8.0982537021
20
16.0551230992
30
0.0000000000
10
7.9451201387
20
15.9058385941
30
0.0000000000
10
7.8100395515
20
15.7254049973
30
0.0000000000
10
7.7000473041
20
15.5231672304
30
0.0000000000
10
7.6207943519
20
15.3096638006
30
0.0000000000
10
7.5902385580
20
15.1623559067
30
0.0000000000
10
7.5817259288
20
15.0896622945
30
0.0000000000
11
8.2714079450
21
16.1628115237
31
0.0000000000
11
8.1068132389
21
16.0540927004
31
0.0000000000
11
7.9521042312
21
15.9050876629
31
0.0000000000
11
7.8156270583
21
15.7238527405
31
0.0000000000
11
7.7047089887
21
15.5201307152
31
0.0000000000
11
7.6253119910
21
15.3048638051
31
0.0000000000
11
7.5817259288
21
15.0896622945
31
0.0000000000
0
SPLINE
5
242
100
AcDbEntity
8
0
100
AcDbSpline
62
9
6
CONTINUOUS
70
0
71
3
72
12
73
8
74
6
42
0.0000001000
43
0.0000001000
44
0.0000000001
12
-0.0162127035
22
0.7317494016
32
0.0000000000
13
-0.6473188090
23
0.3416114723
33
0.0000000000
40
0.0000000000
40
0.0000000000
40
0.0000000000
40
0.0000000000
40
0.1947689593
40
0.4051367254
40
0.6180981708
40
0.8201122180
40
1.0000000000
40
1.0000000000
40
1.0000000000
40
1.0000000000
10
8.6248401817
20
15.5532310861
30
0.0000000000
10
8.6237876046
20
15.6007384426
30
0.0000000000
10
8.6088079042
20
15.6994119797
30
0.0000000000
10
8.5575284767
20
15.8420254898
30
0.0000000000
10
8.4807931242
20
15.9749126185
30
0.0000000000
10
8.3857857711
20
16.0856992239
30
0.0000000000
10
8.3102228632
20
16.1423276153
30
0.0000000000
10
8.2714079483
20
16.1628115253
30
0.0000000000
11
8.6248401817
21
15.5532310861
31
0.0000000000
11
8.6050785025
21
15.6944117773
31
0.0000000000
11
8.5535886397
21
15.8395216268
31
0.0000000000
11
8.4754056462
21
15.9743685917
31
0.0000000000
11
8.3781756120
21
16.0857637499
31
0.0000000000
11
8.2714079483
21
16.1628115253
31
0.0000000000
0
SPLINE
5
243
100
AcDbEntity
8
0
100
AcDbSpline
62
9
6
CONTINUOUS
70
0
71
3
72
10
73
6
74
4
42
0.0000001000
43
0.0000001000
44
0.0000000001
12
-1.2244129835
22
-10.3200288540
32
0.0000000000
13
-0.1642165803
23
-10.3911123378
33
0.0000000000
40
0.0000000000
40
0.0000000000
40
0.0000000000
40
0.0000000000
40
0.3384422068
40
0.6718598790
40
1.0000000000
40
1.0000000000
40
1.0000000000
40
1.0000000000
10
8.2755425344
20
15.0188847911
30
0.0000000000
10
8.1374115237
20
13.8546403445
30
0.0000000000
10
7.9005545931
20
11.5387992977
30
0.0000000000
10
7.6637653247
20
8.0821622700
30
0.0000000000
10
7.5862624775
20
5.7911784943
30
0.0000000000
10
7.5683004614
20
4.6545982076
30
0.0000000000
11
8.2755425344
21
15.0188847911
31
0.0000000000
11
7.9185170602
21
11.5198219767
31
0.0000000000
11
7.6826193469
21
8.0628481443
31
0.0000000000
11
7.5683004614
21
4.6545982076
31
0.0000000000
0
SPLINE
5
244
100
AcDbEntity
8
0
100
AcDbSpline
62
9
6
CONTINUOUS
70
0
71
3
72
10
73
6
74
4
42
0.0000001000
43
0.0000001000
44
0.0000000001
12
-1.2310774640
22
-10.3777460334
32
0.0000000000
13
-0.1651089696
23
-10.4492058782
33
0.0000000000
40
0.0000000000
40
0.0000000000
40
0.0000000000
40
0.0000000000
40
0.3384439934
40
0.6718567924
40
1.0000000000
40
1.0000000000
40
1.0000000000
40
1.0000000000
10
7.5817259288
20
15.0896622945
30
0.0000000000
10
7.4428423377
20
13.9189003579
30
0.0000000000
10
7.2046977646
20
11.5901194566
30
0.0000000000
10
6.9666190312
20
8.1141554304
30
0.0000000000
10
6.8886934007
20
5.8103695689
30
0.0000000000
10
6.8706336051
20
4.6674242575
30
0.0000000000
11
7.5817259288
21
15.0896622945
31
0.0000000000
11
7.2227557185
21
11.5710134253
31
0.0000000000
11
6.9855768447
21
8.0947613172
31
0.0000000000
11
6.8706336051
21
4.6674242575
31
0.0000000000
0
SPLINE
5
245
100
AcDbEntity
8
0
100
AcDbSpline
62
9
6
CONTINUOUS
70
0
71
3
72
12
73
8
74
6
42
0.0000001000
43
0.0000001000
44
0.0000000001
12
-0.6810654741
22
-0.2011035567
32
0.0000000000
13
-0.6338189692
23
0.3202597926
33
0.0000000000
40
0.0000000000
40
0.0000000000
40
0.0000000000
40
0.0000000000
40
0.1796434700
40
0.3854501154
40
0.6019884942
40
0.8122092966
40
1.0000000000
40
1.0000000000
40
1.0000000000
40
1.0000000000
10
8.2755425344
20
15.0188847911
30
0.0000000000
10
8.2347595460
20
15.0068424775
30
0.0000000000
10
8.1442259552
20
14.9912842686
30
0.0000000000
10
8.0014331162
20
14.9880318504
30
0.0000000000
10
7.8520661607
20
15.0033633330
30
0.0000000000
10
7.7099412536
20
15.0358852524
30
0.0000000000
10
7.6214010473
20
15.0696150287
30
0.0000000000
10
7.5817259440
20
15.0896622993
30
0.0000000000
11
8.2755425344
21
15.0188847911
31
0.0000000000
11
8.1501764918
21
14.9952674147
31
0.0000000000
11
8.0040863365
21
14.9910623614
31
0.0000000000
11
7.8511086016
21
15.0066679013
31
0.0000000000
11
7.7057321587
21
15.0406059983
31
0.0000000000
11
7.5817259440
21
15.0896622993
31
0.0000000000
0
SPLINE
5
246
100
AcDbEntity
8
0
100
AcDbSpline
62
9
6
CONTINUOUS
70
0
71
3
72
10
73
6
74
4
42
0.0000001000
43
0.0000001000
44
0.0000000001
12
-0.2597498534
22
-16.4365931903
32
0.0000000000
13
0.2637035002
23
-16.4365302346
33
0.0000000000
40
0.0000000000
40
0.0000000000
40
0.0000000000
40
0.0000000000
40
0.3350160310
40
0.6683413725
40
1.0000000000
40
1.0000000000
40
1.0000000000
40
1.0000000000
10
7.5683004614
20
4.6545982076
30
0.0000000000
10
7.5392936730
20
2.8190908029
30
0.0000000000
10
7.5005227771
20
-0.8429937618
30
0.0000000000
10
7.5003763550
20
-6.3226348174
30
0.0000000000
10
7.5391472810
20
-9.9663242955
30
0.0000000000
10
7.5683004614
20
-11.7834299816
30
0.0000000000
11
7.5683004614
21
4.6545982076
31
0.0000000000
11
7.5101419352
21
-0.8523044631
31
0.0000000000
11
7.5101419553
21
-6.3317215861
31
0.0000000000
11
7.5683004614
21
-11.7834299816
31
0.0000000000
0
SPLINE
5
247
100
AcDbEntity
8
0
100
AcDbSpline
62
9
6
CONTINUOUS
70
0
71
3
72
8
73
4
74
2
42
0.0000001000
43
0.0000001000
44
0.0000000001
12
-0.0117010091
22
-0.7404417463
32
0.0000000000
13
-0.0106625471
23
-0.7404589523
33
0.0000000000
40
0.0000000000
40
0.0000000000
40
0.0000000000
40
0.0000000000
40
1.0000000000
40
1.0000000000
40
1.0000000000
40
1.0000000000
10
6.8706336051
20
4.6674242575
30
0.0000000000
10
6.8667332687
20
4.4206103421
30
0.0000000000
10
6.8630058335
20
4.1737934134
30
0.0000000000
10
6.8594516511
20
3.9269737626
30
0.0000000000
11
6.8706336051
21
4.6674242575
31
0.0000000000
11
6.8594516511
21
3.9269737626
31
0.0000000000
0
SPLINE
5
248
100
AcDbEntity
8
0
100
AcDbSpline
62
9
6
CONTINUOUS
70
0
71
3
72
8
73
4
74
2
42
0.0000001000
43
0.0000001000
44
0.0000000001
12
-0.0110513021
22
-0.7674559832
32
0.0000000000
13
-0.0099334274
23
-0.7674725554
33
0.0000000000
40
0.0000000000
40
0.0000000000
40
0.0000000000
40
0.0000000000
40
1.0000000000
40
1.0000000000
40
1.0000000000
40
1.0000000000
10
6.8594516511
20
3.9269737626
30
0.0000000000
10
6.8557678838
20
3.6711551016
30
0.0000000000
10
6.8522702331
20
3.4153335163
30
0.0000000000
10
6.8489590906
20
3.1595093312
30
0.0000000000
11
6.8594516511
21
3.9269737626
31
0.0000000000
11
6.8489590906
21
3.1595093312
31
0.0000000000
0
SPLINE
5
249
100
AcDbEntity
8
0
100
AcDbSpline
62
9
6
CONTINUOUS
70
0
71
3
72
8
73
4
74
2
42
0.0000001000
43
0.0000001000
44
0.0000000001
12
-0.0040015634
22
-0.3091672124
32
0.0000000000
13
-0.0038198889
23
-0.3091696803
33
0.0000000000
40
0.0000000000
40
0.0000000000
40
0.0000000000
40
0.0000000000
40
1.0000000000
40
1.0000000000
40
1.0000000000
40
1.0000000000
10
6.8489590906
20
3.1595093312
30
0.0000000000
10
6.8476252362
20
3.0564535937
30
0.0000000000
10
6.8463216480
20
2.9533974344
30
0.0000000000
10
6.8450483517
20
2.8503408743
30
0.0000000000
11
6.8489590906
21
3.1595093312
31
0.0000000000
11
6.8450483517
21
2.8503408743
31
0.0000000000
0
SPLINE
5
24A
100
AcDbEntity
8
0
100
AcDbSpline
62
9
6
CONTINUOUS
70
0
71
3
72
8
73
4
74
2
42
0.0000001000
43
0.0000001000
44
0.0000000001
12
-0.0002890202
22
-0.0233923800
32
0.0000000000
13
-0.0002879797
23
-0.0233923938
33
0.0000000000
40
0.0000000000
40
0.0000000000
40
0.0000000000
40
0.0000000000
40
1.0000000000
40
1.0000000000
40
1.0000000000
40
1.0000000000
10
6.8450483517
20
2.8503408743
30
0.0000000000
10
6.8449520116
20
2.8425434143
30
0.0000000000
10
6.8448558450
20
2.8347459520
30
0.0000000000
10
6.8447598517
20
2.8269484874
30
0.0000000000
11
6.8450483517
21
2.8503408743
31
0.0000000000
11
6.8447598517
21
2.8269484874
31
0.0000000000
0
SPLINE
5
24B
100
AcDbEntity
8
0
100
AcDbSpline
62
9
6
CONTINUOUS
70
0
71
3
72
8
73
4
74
2
42
0.0000001000
43
0.0000001000
44
0.0000000001
12
-0.0042365645
22
-0.3441332083
32
0.0000000000
13
-0.0040112608
23
-0.3441360874
33
0.0000000000
40
0.0000000000
40
0.0000000000
40
0.0000000000
40
0.0000000000
40
1.0000000000
40
1.0000000000
40
1.0000000000
40
1.0000000000
10
6.8447598517
20
2.8269484874
30
0.0000000000
10
6.8433476636
20
2.7122374179
30
0.0000000000
10
6.8419730084
20
2.5975258540
30
0.0000000000
10
6.8406359214
20
2.4828138249
30
0.0000000000
11
6.8447598517
21
2.8269484874
31
0.0000000000
11
6.8406359214
21
2.4828138249
31
0.0000000000
0
SPLINE
5
24C
100
AcDbEntity
8
0
100
AcDbSpline
62
9
6
CONTINUOUS
70
0
71
3
72
8
73
4
74
2
42
0.0000001000
43
0.0000001000
44
0.0000000001
12
-0.0036040211
22
-0.3091979786
32
0.0000000000
13
-0.0034219805
23
-0.3092001684
33
0.0000000000
40
0.0000000000
40
0.0000000000
40
0.0000000000
40
0.0000000000
40
1.0000000000
40
1.0000000000
40
1.0000000000
40
1.0000000000
10
6.8406359214
20
2.4828138249
30
0.0000000000
10
6.8394345810
20
2.3797478320
30
0.0000000000
10
6.8382635680
20
2.2766814636
30
0.0000000000
10
6.8371229078
20
2.1736147408
30
0.0000000000
11
6.8406359214
21
2.4828138249
31
0.0000000000
11
6.8371229078
21
2.1736147408
31
0.0000000000
0
SPLINE
5
24D
100
AcDbEntity
8
0
100
AcDbSpline
62
9
6
CONTINUOUS
70
0
71
3
72
8
73
4
74
2
42
0.0000001000
43
0.0000001000
44
0.0000000001
12
-0.0041923211
22
-0.3788058987
32
0.0000000000
13
-0.0039188383
23
-0.3788089730
33
0.0000000000
40
0.0000000000
40
0.0000000000
40
0.0000000000
40
0.0000000000
40
1.0000000000
40
1.0000000000
40
1.0000000000
40
1.0000000000
10
6.8371229078
20
2.1736147408
30
0.0000000000
10
6.8357254675
20
2.0473461079
30
0.0000000000
10
6.8343735840
20
1.9210769431
30
0.0000000000
10
6.8330673046
20
1.7948072854
30
0.0000000000
11
6.8371229078
21
2.1736147408
31
0.0000000000
11
6.8330673046
21
1.7948072854
31
0.0000000000
0
SPLINE
5
24E
100
AcDbEntity
8
0
100
AcDbSpline
62
9
6
CONTINUOUS
70
0
71
3
72
8
73
4
74
2
42
0.0000001000
43
0.0000001000
44
0.0000000001
12
-0.0126571870
22
-1.2234891233
32
0.0000000000
13
-0.0097980344
23
-1.2235160333
33
0.0000000000
40
0.0000000000
40
0.0000000000
40
0.0000000000
40
0.0000000000
40
1.0000000000
40
1.0000000000
40
1.0000000000
40
1.0000000000
10
6.8330673046
20
1.7948072854
30
0.0000000000
10
6.8288482423
20
1.3869775776
30
0.0000000000
10
6.8251049123
20
0.9791427281
30
0.0000000000
10
6.8218389008
20
0.5713040503
30
0.0000000000
11
6.8330673046
21
1.7948072854
31
0.0000000000
11
6.8218389008
21
0.5713040503
31
0.0000000000
0
SPLINE
5
24F
100
AcDbEntity
8
0
100
AcDbSpline
62
9
6
CONTINUOUS
70
0
71
3
72
9
73
5
74
3
42
0.0000001000
43
0.0000001000
44
0.0000000001
12
-0.0464231092
22
-5.7970217207
32
0.0000000000
13
0.0183814640
23
-5.7971701671
33
0.0000000000
40
0.0000000000
40
0.0000000000
40
0.0000000000
40
0.0000000000
40
0.2443122322
40
1.0000000000
40
1.0000000000
40
1.0000000000
40
1.0000000000
10
6.8218389008
20
0.5713040503
30
0.0000000000
10
6.8180583230
20
0.0992096114
30
0.0000000000
10
6.8052017987
20
-1.8331519579
30
0.0000000000
10
6.8031016537
20
-3.7655653313
30
0.0000000000
10
6.8077318695
20
-5.2258488590
30
0.0000000000
11
6.8218389008
21
0.5713040503
31
0.0000000000
11
6.8124183425
21
-0.8449926176
31
0.0000000000
11
6.8077318695
21
-5.2258488590
31
0.0000000000
0
SPLINE
5
250
100
AcDbEntity
8
0
100
AcDbSpline
62
9
6
CONTINUOUS
70
0
71
3
72
8
73
4
74
2
42
0.0000001000
43
0.0000001000
44
0.0000000001
12
0.0026364204
22
-0.8314777282
32
0.0000000000
13
0.0039817545
23
-0.8314729514
33
0.0000000000
40
0.0000000000
40
0.0000000000
40
0.0000000000
40
0.0000000000
40
1.0000000000
40
1.0000000000
40
1.0000000000
40
1.0000000000
10
6.8077318695
20
-5.2258488590
30
0.0000000000
10
6.8086106763
20
-5.5030081018
30
0.0000000000
10
6.8097134502
20
-5.7801667098
30
0.0000000000
10
6.8110407017
20
-6.0573243602
30
0.0000000000
11
6.8077318695
21
-5.2258488590
31
0.0000000000
11
6.8110407017
21
-6.0573243602
31
0.0000000000
0
SPLINE
5
251
100
AcDbEntity
8
0
100
AcDbSpline
62
9
6
CONTINUOUS
70
0
71
3
72
9
73
5
74
3
42
0.0000001000
43
0.0000001000
44
0.0000000001
12
0.0274398597
22
-5.7300119852
32
0.0000000000
13
0.0919172718
23
-5.7293092359
33
0.0000000000
40
0.0000000000
40
0.0000000000
40
0.0000000000
40
0.0000000000
40
0.0475681953
40
1.0000000000
40
1.0000000000
40
1.0000000000
40
1.0000000000
10
6.8110407017
20
-6.0573243602
30
0.0000000000
10
6.8114757899
20
-6.1481798033
30
0.0000000000
10
6.8211295227
20
-8.0581816353
30
0.0000000000
10
6.8414519607
20
-9.9681329693
30
0.0000000000
10
6.8706336051
20
-11.7870584144
30
0.0000000000
11
6.8110407017
21
-6.0573243602
31
0.0000000000
11
6.8124183516
21
-6.3298903693
31
0.0000000000
11
6.8706336051
21
-11.7870584144
31
0.0000000000
0
SPLINE
5
252
100
AcDbEntity
8
0
100
AcDbSpline
62
9
6
CONTINUOUS
70
0
71
3
72
12
73
8
74
6
42
0.0000001000
43
0.0000001000
44
0.0000000001
12
-0.6525136872
22
-0.2947967346
32
0.0000000000
13
-0.6402658447
23
0.3205290544
33
0.0000000000
40
0.0000000000
40
0.0000000000
40
0.0000000000
40
0.0000000000
40
0.1858728116
40
0.3932996248
40
0.6081648741
40
0.8150726662
40
1.0000000000
40
1.0000000000
40
1.0000000000
40
1.0000000000
10
7.5683004614
20
4.6545982076
30
0.0000000000
10
7.5278722768
20
4.6363333083
30
0.0000000000
10
7.4374719403
20
4.6083184298
30
0.0000000000
10
7.2930602923
20
4.5893682505
30
0.0000000000
10
7.1423212481
20
4.5921261311
30
0.0000000000
10
6.9990506104
20
4.6163366305
30
0.0000000000
10
6.9101011572
20
4.6476660632
30
0.0000000000
10
6.8706336054
20
4.6674242576
30
0.0000000000
11
7.5683004614
21
4.6545982076
31
0.0000000000
11
7.4417582167
21
4.6133736739
31
0.0000000000
11
7.2946108058
21
4.5932213589
31
0.0000000000
11
7.1407897942
21
4.5960492358
31
0.0000000000
11
6.9948585880
21
4.6215895680
31
0.0000000000
11
6.8706336054
21
4.6674242576
31
0.0000000000
0
SPLINE
5
253
100
AcDbEntity
8
0
100
AcDbSpline
62
9
6
CONTINUOUS
70
0
71
3
72
10
73
6
74
4
42
0.0000001000
43
0.0000001000
44
0.0000000001
12
0.1559897790
22
-9.7225650546
32
0.0000000000
13
1.2885806002
23
-9.6380581078
33
0.0000000000
40
0.0000000000
40
0.0000000000
40
0.0000000000
40
0.0000000000
40
0.3395549021
40
0.6729331969
40
1.0000000000
40
1.0000000000
40
1.0000000000
40
1.0000000000
10
7.5683004614
20
-11.7834299816
30
0.0000000000
10
7.5859561594
20
-12.8838781899
30
0.0000000000
10
7.6607607904
20
-15.0643673370
30
0.0000000000
10
7.8955005779
20
-18.2978642468
30
0.0000000000
10
8.1350585552
20
-20.4258059466
30
0.0000000000
10
8.2755425344
20
-21.4765688977
30
0.0000000000
11
7.5683004614
21
-11.7834299816
31
0.0000000000
11
7.6826206829
21
-15.0832197830
31
0.0000000000
11
7.9185192542
21
-18.3163345509
31
0.0000000000
11
8.2755425344
21
-21.4765688977
31
0.0000000000
0
SPLINE
5
254
100
AcDbEntity
8
0
100
AcDbSpline
62
9
6
CONTINUOUS
70
0
71
3
72
10
73
6
74
4
42
0.0000001000
43
0.0000001000
44
0.0000000001
12
0.1568365804
22
-9.7768225209
32
0.0000000000
13
1.2956054126
23
-9.6918658128
33
0.0000000000
40
0.0000000000
40
0.0000000000
40
0.0000000000
40
0.0000000000
40
0.3395572857
40
0.6729307169
40
1.0000000000
40
1.0000000000
40
1.0000000000
40
1.0000000000
10
6.8706336051
20
-11.7870584144
30
0.0000000000
10
6.8883852729
20
-12.8936555206
30
0.0000000000
10
6.9635968629
20
-15.0863050763
30
0.0000000000
10
7.1996139710
20
-18.3378487468
30
0.0000000000
10
7.4404750176
20
-20.4776613323
30
0.0000000000
10
7.5817259288
20
-21.5342985334
30
0.0000000000
11
6.8706336051
21
-11.7870584144
31
0.0000000000
11
6.9855768448
21
-15.1052866382
31
0.0000000000
11
7.2227557169
21
-18.3563988595
31
0.0000000000
11
7.5817259288
21
-21.5342985334
31
0.0000000000
0
SPLINE
5
255
100
AcDbEntity
8
0
100
AcDbSpline
62
9
6
CONTINUOUS
70
0
71
3
72
12
73
8
74
6
42
0.0000001000
43
0.0000001000
44
0.0000000001
12
-0.6425686999
22
-0.3194711744
32
0.0000000000
13
-0.6419990212
23
0.3206144448
33
0.0000000000
40
0.0000000000
40
0.0000000000
40
0.0000000000
40
0.0000000000
40
0.1877386891
40
0.3956571460
40
0.6100134742
40
0.8159170750
40
1.0000000000
40
1.0000000000
40
1.0000000000
40
1.0000000000
10
7.5683004614
20
-11.7834299816
30
0.0000000000
10
7.5280887929
20
-11.8034223481
30
0.0000000000
10
7.4379897943
20
-11.8349372415
30
0.0000000000
10
7.2934150724
20
-11.8583882357
30
0.0000000000
10
7.1425099678
20
-11.8592274188
30
0.0000000000
10
6.9990465391
20
-11.8373895242
30
0.0000000000
10
6.9100273063
20
-11.8067316213
30
0.0000000000
10
6.8706336204
20
-11.7870584064
30
0.0000000000
11
7.5683004614
21
-11.7834299816
31
0.0000000000
11
7.4417582166
21
-11.8296589475
31
0.0000000000
11
7.2946108083
21
-11.8543418873
31
0.0000000000
11
7.1407898009
21
-11.8551418794
31
0.0000000000
11
6.9948585993
21
-11.8319831824
31
0.0000000000
11
6.8706336204
21
-11.7870584064
31
0.0000000000
0
SPLINE
5
256
100
AcDbEntity
8
0
100
AcDbSpline
62
9
6
CONTINUOUS
70
0
71
3
72
13
73
9
74
7
42
0.0000001000
43
0.0000001000
44
0.0000000001
12
0.0640211038
22
-0.4779039203
32
0.0000000000
13
0.4408407902
23
0.1953209064
33
0.0000000000
40
0.0000000000
40
0.0000000000
40
0.0000000000
40
0.0000000000
40
0.1844458385
40
0.3508831040
40
0.5048278233
40
0.6573127927
40
0.8201089895
40
1.0000000000
40
1.0000000000
40
1.0000000000
40
1.0000000000
10
8.2755425344
20
-21.4765688977
30
0.0000000000
10
8.2794786764
20
-21.5059513608
30
0.0000000000
10
8.2927611980
20
-21.5614152215
30
0.0000000000
10
8.3329215631
20
-21.6333628277
30
0.0000000000
10
8.3914291758
20
-21.6845635263
30
0.0000000000
10
8.4643678257
20
-21.7099096826
30
0.0000000000
10
8.5452974183
20
-21.7081740990
30
0.0000000000
10
8.5984057500
20
-21.6911562605
30
0.0000000000
10
8.6248401817
20
-21.6794441021
30
0.0000000000
11
8.2755425344
21
-21.4765688977
31
0.0000000000
11
8.2974857859
21
-21.5627541335
31
0.0000000000
11
8.3377350731
21
-21.6321825761
31
0.0000000000
11
8.3940626051
21
-21.6805251511
31
0.0000000000
11
8.4633544494
21
-21.7051105144
31
0.0000000000
11
8.5418491225
21
-21.7046645028
31
0.0000000000
11
8.6248401817
21
-21.6794441021
31
0.0000000000
0
SPLINE
5
257
100
AcDbEntity
8
0
100
AcDbSpline
62
9
6
CONTINUOUS
70
0
71
3
72
11
73
7
74
5
42
0.0000001000
43
0.0000001000
44
0.0000000001
12
0.0665276879
22
-0.5030985992
32
0.0000000000
13
0.4562344770
23
-0.2280614540
33
0.0000000000
40
0.0000000000
40
0.0000000000
40
0.0000000000
40
0.0000000000
40
0.3510611635
40
0.6646611421
40
0.9533028779
40
1.0000000000
40
1.0000000000
40
1.0000000000
40
1.0000000000
10
7.5817259288
20
-21.5342985334
30
0.0000000000
10
7.5895110246
20
-21.5931713266
30
0.0000000000
10
7.6157283972
20
-21.7038011125
30
0.0000000000
10
7.6950057931
20
-21.8470714496
30
0.0000000000
10
7.7792914313
20
-21.9213199520
30
0.0000000000
10
7.8294803597
20
-21.9483948483
30
0.0000000000
10
7.8365819721
20
-21.9519447861
30
0.0000000000
11
7.5817259288
21
-21.5342985334
31
0.0000000000
11
7.6253120346
21
-21.7070404589
31
0.0000000000
11
7.7047108714
21
-21.8449643703
31
0.0000000000
11
7.8156310387
21
-21.9406353097
31
0.0000000000
11
7.8365819721
21
-21.9519447861
31
0.0000000000
0
SPLINE
5
258
100
AcDbEntity
8
0
100
AcDbSpline
62
9
6
CONTINUOUS
70
0
71
3
72
12
73
8
74
6
42
0.0000001000
43
0.0000001000
44
0.0000000001
12
-0.6044462725
22
-0.3951043243
32
0.0000000000
13
-0.6469525030
23
0.3208039625
33
0.0000000000
40
0.0000000000
40
0.0000000000
40
0.0000000000
40
0.0000000000
40
0.1941107646
40
0.4037108777
40
0.6162827137
40
0.8187146599
40
1.0000000000
40
1.0000000000
40
1.0000000000
40
1.0000000000
10
8.2755425343
20
-21.4765688976
30
0.0000000000
10
8.2364326916
20
-21.5021335651
30
0.0000000000
10
8.1482113716
20
-21.5450213750
30
0.0000000000
10
8.0041727853
20
-21.5834053206
30
0.0000000000
10
7.8535258214
20
-21.5961638925
30
0.0000000000
10
7.7099023904
20
-21.5821686055
30
0.0000000000
10
7.6208323633
20
-21.5536759412
30
0.0000000000
10
7.5817380284
20
-21.5342902560
30
0.0000000000
11
8.2755425343
21
-21.4765688976
31
0.0000000000
11
8.1501779655
21
-21.5392738662
31
0.0000000000
11
8.0040903708
21
-21.5788645619
31
0.0000000000
11
7.8511156900
21
-21.5915913544
31
0.0000000000
11
7.7057421381
21
-21.5762488907
31
0.0000000000
11
7.5817380284
21
-21.5342902560
31
0.0000000000
0
SPLINE
5
259
100
AcDbEntity
8
0
100
AcDbSpline
62
9
6
CONTINUOUS
70
0
71
3
72
10
73
6
74
4
42
0.0000001000
43
0.0000001000
44
0.0000000001
12
-0.0070490930
22
-0.3248459074
32
0.0000000000
13
-0.2983745548
23
-0.1336116648
33
0.0000000000
40
0.0000000000
40
0.0000000000
40
0.0000000000
40
0.0000000000
40
0.3932222944
40
0.7288944885
40
1.0000000000
40
1.0000000000
40
1.0000000000
40
1.0000000000
10
8.6248401817
20
-21.6794441021
30
0.0000000000
10
8.6239162282
20
-21.7220229864
30
0.0000000000
10
8.6132200046
20
-21.8013630032
30
0.0000000000
10
8.5641449060
20
-21.9010011852
30
0.0000000000
10
8.5102225493
20
-21.9431168433
30
0.0000000000
10
8.4832588872
20
-21.9551911296
30
0.0000000000
11
8.6248401817
21
-21.6794441021
31
0.0000000000
11
8.6050779399
21
-21.8056732174
31
0.0000000000
11
8.5535871653
21
-21.9018210186
31
0.0000000000
11
8.4832588872
21
-21.9551911296
31
0.0000000000
0
SPLINE
5
25A
100
AcDbEntity
8
0
100
AcDbSpline
62
9
6
CONTINUOUS
70
0
71
3
72
13
73
9
74
7
42
0.0000001000
43
0.0000001000
44
0.0000000001
12
0.1489107363
22
1.3074914989
32
0.0000000000
13
1.1550260248
23
0.6305737936
33
0.0000000000
40
0.0000000000
40
0.0000000000
40
0.0000000000
40
0.0000000000
40
0.1671064893
40
0.3416625811
40
0.5178633042
40
0.6897510039
40
0.8518740217
40
1.0000000000
40
1.0000000000
40
1.0000000000
40
1.0000000000
10
-7.1030289621
20
22.4320397399
30
0.0000000000
10
-7.0947343119
20
22.5048698447
30
0.0000000000
10
-7.0649770871
20
22.6524999003
30
0.0000000000
10
-6.9878338683
20
22.8669094499
30
0.0000000000
10
-6.8807697048
20
23.0704757452
30
0.0000000000
10
-6.7492914720
20
23.2525940357
30
0.0000000000
10
-6.6002473990
20
23.4038308461
30
0.0000000000
10
-6.4882032892
20
23.4829674608
30
0.0000000000
10
-6.4311735026
20
23.5141022475
30
0.0000000000
11
-7.1030289621
21
22.4320397399
31
0.0000000000
11
-7.0605692627
21
22.6478044319
31
0.0000000000
11
-6.9832240755
21
22.8640972473
31
0.0000000000
11
-6.8751730257
21
23.0692527826
31
0.0000000000
11
-6.7422250873
21
23.2522523221
31
0.0000000000
11
-6.5915142323
21
23.4032564360
31
0.0000000000
11
-6.4311735026
21
23.5141022475
31
0.0000000000
0
SPLINE
5
25B
100
AcDbEntity
8
0
100
AcDbSpline
62
9
6
CONTINUOUS
70
0
71
3
72
10
73
6
74
4
42
0.0000001000
43
0.0000001000
44
0.0000000001
12
0.1568950495
22
10.4645327885
32
0.0000000000
13
1.1676215409
23
10.4003712662
33
0.0000000000
40
0.0000000000
40
0.0000000000
40
0.0000000000
40
0.0000000000
40
0.3279270540
40
0.6613532989
40
1.0000000000
40
1.0000000000
40
1.0000000000
40
1.0000000000
10
-7.7780268801
20
11.9917545001
30
0.0000000000
10
-7.7608768363
20
13.1356223029
30
0.0000000000
10
-7.6868531206
20
15.4421251180
30
0.0000000000
10
-7.4608383941
20
18.9239087148
30
0.0000000000
10
-7.2348326897
20
21.2580226001
30
0.0000000000
10
-7.1030289621
20
22.4320397399
30
0.0000000000
11
-7.7780268801
21
11.9917545001
31
0.0000000000
11
-7.6689180539
21
15.4220087665
31
0.0000000000
11
-7.4437781673
21
18.9042803682
31
0.0000000000
11
-7.1030289621
21
22.4320397399
31
0.0000000000
0
SPLINE
5
25C
100
AcDbEntity
8
0
100
AcDbSpline
62
9
6
CONTINUOUS
70
0
71
3
72
10
73
6
74
4
42
0.0000001000
43
0.0000001000
44
0.0000000001
12
-0.2506073654
22
16.4531307017
32
0.0000000000
13
0.2466495829
23
16.4531905089
33
0.0000000000
40
0.0000000000
40
0.0000000000
40
0.0000000000
40
0.0000000000
40
0.3315679556
40
0.6648942818
40
1.0000000000
40
1.0000000000
40
1.0000000000
40
1.0000000000
10
-7.7780268801
20
-4.4627281718
30
0.0000000000
10
-7.8057246707
20
-2.6442845350
30
0.0000000000
10
-7.8425544266
20
1.0025589653
30
0.0000000000
10
-7.8424078527
20
6.4876554554
30
0.0000000000
10
-7.8055781087
20
10.1539017591
30
0.0000000000
10
-7.7780268801
20
11.9917545001
30
0.0000000000
11
-7.7780268801
21
-4.4627281718
31
0.0000000000
11
-7.8332739882
21
0.9929558006
31
0.0000000000
11
-7.8332739968
21
6.4778535520
31
0.0000000000
11
-7.7780268801
21
11.9917545001
31
0.0000000000
0
SPLINE
5
25D
100
AcDbEntity
8
0
100
AcDbSpline
62
9
6
CONTINUOUS
70
0
71
3
72
8
73
4
74
2
42
0.0000001000
43
0.0000001000
44
0.0000000001
12
-0.0242751687
22
0.1906533624
32
0.0000000000
13
-0.0238179474
23
0.1907133171
33
0.0000000000
40
0.0000000000
40
0.0000000000
40
0.0000000000
40
0.0000000000
40
1.0000000000
40
1.0000000000
40
1.0000000000
40
1.0000000000
10
-7.1030289621
20
-14.1919210879
30
0.0000000000
10
-7.1111206850
20
-14.1283699672
30
0.0000000000
10
-7.1191360757
20
-14.0648087349
30
0.0000000000
10
-7.1270753914
20
-14.0012376292
30
0.0000000000
11
-7.1030289621
21
-14.1919210879
31
0.0000000000
11
-7.1270753914
21
-14.0012376292
31
0.0000000000
0
SPLINE
5
25E
100
AcDbEntity
8
0
100
AcDbSpline
62
9
6
CONTINUOUS
70
0
71
3
72
10
73
6
74
4
42
0.0000001000
43
0.0000001000
44
0.0000000001
12
-1.1853497514
22
9.4912453783
32
0.0000000000
13
-0.1456904564
23
9.5637544241
33
0.0000000000
40
0.0000000000
40
0.0000000000
40
0.0000000000
40
0.0000000000
40
0.3131110693
40
0.6531988401
40
1.0000000000
40
1.0000000000
40
1.0000000000
40
1.0000000000
10
-7.1270753914
20
-14.0012376292
30
0.0000000000
10
-7.2507907675
20
-13.0106329661
30
0.0000000000
10
-7.4703442081
20
-10.9390746843
30
0.0000000000
10
-7.6898769754
20
-7.7576965186
30
0.0000000000
10
-7.7611850070
20
-5.5683018808
30
0.0000000000
10
-7.7780268801
20
-4.4627281718
30
0.0000000000
11
-7.1270753914
21
-14.0012376292
31
0.0000000000
11
-7.4437781675
21
-11.0231319172
31
0.0000000000
11
-7.6689180551
21
-7.7780391882
31
0.0000000000
11
-7.7780268801
21
-4.4627281718
31
0.0000000000
0
SPLINE
5
25F
100
AcDbEntity
8
0
100
AcDbSpline
62
9
6
CONTINUOUS
70
0
71
3
72
10
73
6
74
4
42
0.0000001000
43
0.0000001000
44
0.0000000001
12
-0.0199939897
22
-0.2350644213
32
0.0000000000
13
0.2084391440
23
-0.1031187233
33
0.0000000000
40
0.0000000000
40
0.0000000000
40
0.0000000000
40
0.0000000000
40
0.1896005565
40
0.5348636179
40
1.0000000000
40
1.0000000000
40
1.0000000000
40
1.0000000000
10
-7.2497200711
20
22.5981977079
30
0.0000000000
10
-7.2509836950
20
22.5833415929
30
0.0000000000
10
-7.2441735378
20
22.5396376844
30
0.0000000000
10
-7.1890700873
20
22.4806872538
30
0.0000000000
10
-7.1353297415
20
22.4480331280
30
0.0000000000
10
-7.1030121984
20
22.4320450381
30
0.0000000000
11
-7.2497200711
21
22.5981977079
31
0.0000000000
11
-7.2433077468
21
22.5538866306
31
0.0000000000
11
-7.1940265807
21
22.4904981453
31
0.0000000000
11
-7.1030121984
21
22.4320450381
31
0.0000000000
0
SPLINE
5
260
100
AcDbEntity
8
0
100
AcDbSpline
62
9
6
CONTINUOUS
70
0
71
3
72
10
73
6
74
4
42
0.0000001000
43
0.0000001000
44
0.0000000001
12
0.2130809820
22
0.1205499367
32
0.0000000000
13
0.2191749768
23
-0.1038191338
33
0.0000000000
40
0.0000000000
40
0.0000000000
40
0.0000000000
40
0.0000000000
40
0.1064866282
40
0.5212476851
40
1.0000000000
40
1.0000000000
40
1.0000000000
40
1.0000000000
10
-6.6659636118
20
23.5221085321
30
0.0000000000
10
-6.6584001867
20
23.5263875175
30
0.0000000000
10
-6.6200280938
20
23.5447987072
30
0.0000000000
10
-6.5364623218
20
23.5532680310
30
0.0000000000
10
-6.4661503451
20
23.5306701310
30
0.0000000000
10
-6.4311735026
20
23.5141022475
30
0.0000000000
11
-6.6659636118
21
23.5221085321
31
0.0000000000
11
-6.6425055248
21
23.5333258787
31
0.0000000000
11
-6.5427482217
21
23.5462262344
31
0.0000000000
11
-6.4311735026
21
23.5141022475
31
0.0000000000
0
SPLINE
5
261
100
AcDbEntity
8
0
100
AcDbSpline
62
7
6
CONTINUOUS
70
0
71
3
72
8
73
4
74
2
42
0.0000001000
43
0.0000001000
44
0.0000000001
12
-0.0172425052
22
0.0475839997
32
0.0000000000
13
-0.0159386728
23
0.0480497554
33
0.0000000000
40
0.0000000000
40
0.0000000000
40
0.0000000000
40
0.0000000000
40
1.0000000000
40
1.0000000000
40
1.0000000000
40
1.0000000000
10
1.3032378096
20
-11.9392158446
30
0.0000000000
10
1.2974903079
20
-11.9233545114
30
0.0000000000
10
1.2919554503
20
-11.9074129573
30
0.0000000000
10
1.2866425594
20
-11.8913963722
30
0.0000000000
11
1.3032378096
21
-11.9392158446
31
0.0000000000
11
1.2866425594
21
-11.8913963722
31
0.0000000000
0
SPLINE
5
262
100
AcDbEntity
8
0
100
AcDbSpline
62
7
6
CONTINUOUS
70
0
71
3
72
8
73
4
74
2
42
0.0000001000
43
0.0000001000
44
0.0000000001
12
0.0121985254
22
0.0338984543
32
0.0000000000
13
0.0140326138
23
0.0331499835
33
0.0000000000
40
0.0000000000
40
0.0000000000
40
0.0000000000
40
0.0000000000
40
1.0000000000
40
1.0000000000
40
1.0000000000
40
1.0000000000
10
1.2530727292
20
-11.1252554253
30
0.0000000000
10
1.2571389043
20
-11.1139559405
30
0.0000000000
10
1.2615036543
20
-11.1027687301
30
0.0000000000
10
1.2661811923
20
-11.0917187356
30
0.0000000000
11
1.2530727292
21
-11.1252554253
31
0.0000000000
11
1.2661811923
21
-11.0917187356
31
0.0000000000
0
SPLINE
5
263
100
AcDbEntity
8
0
100
AcDbSpline
62
9
6
CONTINUOUS
70
0
71
3
72
10
73
6
74
4
42
0.0000001000
43
0.0000001000
44
0.0000000001
12
0.0294596560
22
-0.2369028944
32
0.0000000000
13
0.2109042403
23
-0.1063225879
33
0.0000000000
40
0.0000000000
40
0.0000000000
40
0.0000000000
40
0.0000000000
40
0.1201053519
40
0.5251079947
40
1.0000000000
40
1.0000000000
40
1.0000000000
40
1.0000000000
10
-7.2491517680
20
-14.0164110926
30
0.0000000000
10
-7.2479723472
20
-14.0258955278
30
0.0000000000
10
-7.2395099069
20
-14.0668643490
30
0.0000000000
10
-7.1950900644
20
-14.1356376082
30
0.0000000000
10
-7.1364145160
20
-14.1750904883
30
0.0000000000
10
-7.1030289368
20
-14.1919210706
30
0.0000000000
11
-7.2491517680
21
-14.0164110926
31
0.0000000000
11
-7.2433236549
21
-14.0443827064
31
0.0000000000
11
-7.1940439875
21
-14.1263691894
31
0.0000000000
11
-7.1030289368
21
-14.1919210706
31
0.0000000000
0
SPLINE
5
264
100
AcDbEntity
8
0
100
AcDbSpline
62
9
6
CONTINUOUS
70
0
71
3
72
9
73
5
74
3
42
0.0000001000
43
0.0000001000
44
0.0000000001
12
-0.0260310337
22
0.0129533899
32
0.0000000000
13
-0.0248759672
23
0.0150144044
33
0.0000000000
40
0.0000000000
40
0.0000000000
40
0.0000000000
40
0.0000000000
40
0.8180092538
40
1.0000000000
40
1.0000000000
40
1.0000000000
40
1.0000000000
10
-6.8542490499
20
-14.6065226152
30
0.0000000000
10
-6.8613469254
20
-14.6029906176
30
0.0000000000
10
-6.8698794526
20
-14.5983900656
30
0.0000000000
10
-6.8782087980
20
-14.5934466709
30
0.0000000000
10
-6.8797178633
20
-14.5925358433
30
0.0000000000
11
-6.8542490499
21
-14.6065226152
31
0.0000000000
11
-6.8751703409
21
-14.5952346199
31
0.0000000000
11
-6.8797178633
21
-14.5925358433
31
0.0000000000
0
SPLINE
5
265
100
AcDbEntity
8
0
100
AcDbSpline
62
9
6
CONTINUOUS
70
0
71
3
72
10
73
6
74
4
42
0.0000001000
43
0.0000001000
44
0.0000000001
12
-0.4065769056
22
0.2453978984
32
0.0000000000
13
-0.0604862778
23
0.4687978872
33
0.0000000000
40
0.0000000000
40
0.0000000000
40
0.0000000000
40
0.0000000000
40
0.2921818157
40
0.6248299642
40
1.0000000000
40
1.0000000000
40
1.0000000000
40
1.0000000000
10
-6.8797178633
20
-14.5925358433
30
0.0000000000
10
-6.9193159894
20
-14.5686355755
30
0.0000000000
10
-6.9939859706
20
-14.5010695864
30
0.0000000000
10
-7.0701045152
20
-14.3603822455
30
0.0000000000
10
-7.0954647491
20
-14.2505473947
30
0.0000000000
10
-7.1030289621
20
-14.1919210879
30
0.0000000000
11
-6.8797178633
21
-14.5925358433
31
0.0000000000
11
-6.9832222630
21
-14.5009978031
31
0.0000000000
11
-7.0605692163
21
-14.3640998334
31
0.0000000000
11
-7.1030289621
21
-14.1919210879
31
0.0000000000
0
SPLINE
5
266
100
AcDbEntity
8
0
100
AcDbSpline
62
7
6
CONTINUOUS
70
0
71
3
72
8
73
4
74
2
42
0.0000001000
43
0.0000001000
44
0.0000000001
12
-0.0172425084
22
0.0475840004
32
0.0000000000
13
-0.0159386758
23
0.0480497563
33
0.0000000000
40
0.0000000000
40
0.0000000000
40
0.0000000000
40
0.0000000000
40
1.0000000000
40
1.0000000000
40
1.0000000000
40
1.0000000000
10
-0.8887931385
20
-10.8432003705
30
0.0000000000
10
-0.8945406413
20
-10.8273390371
30
0.0000000000
10
-0.9000754999
20
-10.8113974828
30
0.0000000000
10
-0.9053883918
20
-10.7953808973
30
0.0000000000
11
-0.8887931385
21
-10.8432003705
31
0.0000000000
11
-0.9053883918
21
-10.7953808973
31
0.0000000000
0
SPLINE
5
267
100
AcDbEntity
8
0
100
AcDbSpline
62
7
6
CONTINUOUS
70
0
71
3
72
8
73
4
74
2
42
0.0000001000
43
0.0000001000
44
0.0000000001
12
0.0121985283
22
0.0338984522
32
0.0000000000
13
0.0140326171
23
0.0331499811
33
0.0000000000
40
0.0000000000
40
0.0000000000
40
0.0000000000
40
0.0000000000
40
1.0000000000
40
1.0000000000
40
1.0000000000
40
1.0000000000
10
-0.9389582221
20
-10.0292399490
30
0.0000000000
10
-0.9348920460
20
-10.0179404649
30
0.0000000000
10
-0.9305272949
20
-10.0067532552
30
0.0000000000
10
-0.9258497559
20
-9.9957032615
30
0.0000000000
11
-0.9389582221
21
-10.0292399490
31
0.0000000000
11
-0.9258497559
21
-9.9957032615
31
0.0000000000
0
SPLINE
5
268
100
AcDbEntity
8
0
100
AcDbSpline
62
9
6
CONTINUOUS
70
0
71
3
72
10
73
6
74
4
42
0.0000001000
43
0.0000001000
44
0.0000000001
12
0.0039801982
22
-0.2436723512
32
0.0000000000
13
0.2143583648
23
-0.1073077506
33
0.0000000000
40
0.0000000000
40
0.0000000000
40
0.0000000000
40
0.0000000000
40
0.1700507916
40
0.5401421486
40
1.0000000000
40
1.0000000000
40
1.0000000000
40
1.0000000000
10
-7.9240770882
20
-4.2853642893
30
0.0000000000
10
-7.9238514763
20
-4.2991765147
30
0.0000000000
10
-7.9168354659
20
-4.3429758942
30
0.0000000000
10
-7.8674512968
20
-4.4100445478
30
0.0000000000
10
-7.8108850053
20
-4.4462794010
30
0.0000000000
10
-7.7780268796
20
-4.4627281715
30
0.0000000000
11
-7.9240770882
21
-4.2853642893
31
0.0000000000
11
-7.9174853749
21
-4.3260043031
31
0.0000000000
11
-7.8687863462
21
-4.4001607239
31
0.0000000000
11
-7.7780268796
21
-4.4627281715
31
0.0000000000
0
SPLINE
5
269
100
AcDbEntity
8
0
100
AcDbSpline
62
7
6
CONTINUOUS
70
0
71
3
72
8
73
4
74
2
42
0.0000001000
43
0.0000001000
44
0.0000000001
12
-0.0172425052
22
0.0475839997
32
0.0000000000
13
-0.0159386728
23
0.0480497554
33
0.0000000000
40
0.0000000000
40
0.0000000000
40
0.0000000000
40
0.0000000000
40
1.0000000000
40
1.0000000000
40
1.0000000000
40
1.0000000000
10
-2.9040475653
20
-9.8355731572
30
0.0000000000
10
-2.9097950671
20
-9.8197118239
30
0.0000000000
10
-2.9153299246
20
-9.8037702699
30
0.0000000000
10
-2.9206428155
20
-9.7877536847
30
0.0000000000
11
-2.9040475653
21
-9.8355731572
31
0.0000000000
11
-2.9206428155
21
-9.7877536847
31
0.0000000000
0
SPLINE
5
26A
100
AcDbEntity
8
0
100
AcDbSpline
62
7
6
CONTINUOUS
70
0
71
3
72
8
73
4
74
2
42
0.0000001000
43
0.0000001000
44
0.0000000001
12
0.0121985254
22
0.0338984543
32
0.0000000000
13
0.0140326138
23
0.0331499835
33
0.0000000000
40
0.0000000000
40
0.0000000000
40
0.0000000000
40
0.0000000000
40
1.0000000000
40
1.0000000000
40
1.0000000000
40
1.0000000000
10
-2.9542126457
20
-9.0216127378
30
0.0000000000
10
-2.9501464706
20
-9.0103132531
30
0.0000000000
10
-2.9457817206
20
-8.9991260426
30
0.0000000000
10
-2.9411041827
20
-8.9880760481
30
0.0000000000
11
-2.9542126457
21
-9.0216127378
31
0.0000000000
11
-2.9411041827
21
-8.9880760481
31
0.0000000000
0
ENDSEC
0
SECTION
2
OBJECTS
0
DICTIONARY
5
26B
100
AcDbDictionary
3
ACAD_GROUP
350
26C
3
ACAD_MLINESTYLE
350
26D
0
DICTIONARY
5
26C
102
{ACAD_REACTORS
330
26B
102
}
100
AcDbDictionary
0
DICTIONARY
5
26D
102
{ACAD_REACTORS
330
26B
102
}
100
AcDbDictionary
3
STANDARD
350
26E
0
MLINESTYLE
5
26E
102
{ACAD_REACTORS
330
26D
102
}
100
AcDbMlineStyle
2
STANDARD
70
0
3

62
256
51
90.0
52
90.0
71
2
49
0.5
62
256
6
BYLAYER
49
-0.5
62
256
6
BYLAYER
0
ENDSEC
0
EOF
