0
SECTION
2
HEADER
9
$ACADVER
1
AC1014
9
$HANDSEED
5
       34D
9
$EXTMAX
10
297.0000000000
20
210.0000000000
9
$EXTMIN
10
0.0000000000
20
0.0000000000
9
$LIMMIN
10
0.0000000000
20
0.0000000000
9
$LIMMAX
10
297.0000000000
20
210.0000000000
9
$VIEWCTR
10
148.5000000000
20
105.0000000000
9
$VIEWSIZE
40
210.0000000000
9
$CLAYER
8
0
9
$LTSCALE
40
16.3350000000
9
$CELTYPE
6
BYLAYER
9
$DIMSCALE
40
1
9
$DIMASZ
40
3.0000000000
9
$DIMEXO
40
1.8562500000
9
$DIMDLI
40
11.2860000000
9
$DIMEXE
40
5.3460000000
9
$DIMCEN
40
2.6730000000
9
$DIMLFAC
40
1.0000000000
9
$DIMTXT
40
3.0000000000
9
$DIMTOL
70
1
9
$DIMLIM
70
0
9
$DIMTFAC
40
1.0000000000
9
$DIMTP
40
0.0100000000
9
$DIMTM
40
0.0100000000
9
$MEASUREMENT
70
1
0
ENDSEC
0
SECTION
2
CLASSES
0
ENDSEC
0
SECTION
2
TABLES
0
TABLE
2
VPORT
5
8
100
AcDbSymbolTable
70
2
0
VPORT
5
1F4
100
AcDbSymbolTableRecord
100
AcDbViewportTableRecord
2
*ACTIVE
70
0
10
0.0
20
0.0
11
1.0
21
1.0
12
148.5000000000
22
105.0000000000
13
0.0
23
0.0
14
1.0
24
1.0
15
0.0
25
0.0
16
0.0
26
0.0
36
1.0
17
0.0
27
0.0
37
0.0
40
210.0000000000
41
1.4142857143
42
50.0
43
0.0
44
0.0
50
0.0
51
0.0
71
0
72
100
73
1
74
1
75
0
76
0
77
0
78
0
0
ENDTAB
0
TABLE
2
LTYPE
5
5
100
AcDbSymbolTable
70
6
0
LTYPE
5
14
100
AcDbSymbolTableRecord
100
AcDbLinetypeTableRecord
2
BYBLOCK
70
0
3

72
65
73
0
40
0.0
0
LTYPE
5
15
100
AcDbSymbolTableRecord
100
AcDbLinetypeTableRecord
2
BYLAYER
70
0
3

72
65
73
0
40
0.0
0
LTYPE
5
16
100
AcDbSymbolTableRecord
100
AcDbLinetypeTableRecord
2
CONTINUOUS
70
64
3
Solid line
72
65
73
0
40
0
0
LTYPE
5
1F5
100
AcDbSymbolTableRecord
100
AcDbLinetypeTableRecord
2
CENTER
70
64
3
____ _ ____ _ ____ _ ____ _ ____ _ ____ _ ____
72
65
73
4
40
0.6
49
0.375
74
0
49
-0.075
74
0
49
0.075
74
0
49
-0.075
74
0
0
LTYPE
5
1F6
100
AcDbSymbolTableRecord
100
AcDbLinetypeTableRecord
2
HIDDEN
70
64
3
- - - - - - - - - - - - - - - - - - - -
72
65
73
2
40
0.2
49
0.1
74
0
49
-0.1
74
0
0
LTYPE
5
1F7
100
AcDbSymbolTableRecord
100
AcDbLinetypeTableRecord
2
PHANTOM
70
64
3
_____ _ _ _____ _ _ _____ _ _ _____
72
65
73
6
40
0.8
49
0.45
74
0
49
-0.05
74
0
49
0.1
74
0
49
-0.05
74
0
49
0.1
74
0
49
-0.05
74
0
0
LTYPE
5
1F8
100
AcDbSymbolTableRecord
100
AcDbLinetypeTableRecord
2
DOT
70
64
3
. . . . . . . . . . . . . . . . . . . .
72
65
73
2
40
0.2
49
0.1
74
0
49
-0.1
74
0
0
LTYPE
5
1F9
100
AcDbSymbolTableRecord
100
AcDbLinetypeTableRecord
2
DASHED
70
64
3
- - - - - - - - - - - - - - - - - - - -
72
65
73
2
40
0.2
49
0.1
74
0
49
-0.1
74
0
0
ENDTAB
0
TABLE
2
LAYER
5
2
100
AcDbSymbolTable
70
36
0
LAYER
5
10
100
AcDbSymbolTableRecord
100
AcDbLayerTableRecord
2
0
70
0
62
7
6
CONTINUOUS
0
LAYER
5
1FA
100
AcDbSymbolTableRecord
100
AcDbLayerTableRecord
2
DEFAULT_1
70
0
62
7
6
CENTER
0
LAYER
5
1FB
100
AcDbSymbolTableRecord
100
AcDbLayerTableRecord
2
DEFAULT_2
70
0
62
8
6
HIDDEN
0
LAYER
5
1FC
100
AcDbSymbolTableRecord
100
AcDbLayerTableRecord
2
DEFAULT_3
70
0
62
7
6
PHANTOM
0
LAYER
5
1FD
100
AcDbSymbolTableRecord
100
AcDbLayerTableRecord
2
ASSI
70
0
62
7
6
CONTINUOUS
0
LAYER
5
1FE
100
AcDbSymbolTableRecord
100
AcDbLayerTableRecord
2
COLOR9
70
0
62
7
6
CONTINUOUS
0
LAYER
5
1FF
100
AcDbSymbolTableRecord
100
AcDbLayerTableRecord
2
COORDINATE
70
0
62
7
6
CONTINUOUS
0
LAYER
5
200
100
AcDbSymbolTableRecord
100
AcDbLayerTableRecord
2
COORD_ORIGINE
70
0
62
7
6
CONTINUOUS
0
LAYER
5
201
100
AcDbSymbolTableRecord
100
AcDbLayerTableRecord
2
COPY_0
70
0
62
7
6
CONTINUOUS
0
LAYER
5
202
100
AcDbSymbolTableRecord
100
AcDbLayerTableRecord
2
CURVE
70
0
62
7
6
CONTINUOUS
0
LAYER
5
203
100
AcDbSymbolTableRecord
100
AcDbLayerTableRecord
2
DRAFT
70
0
62
7
6
CONTINUOUS
0
LAYER
5
204
100
AcDbSymbolTableRecord
100
AcDbLayerTableRecord
2
IGS_SIMBOLO
70
0
62
7
6
CONTINUOUS
0
LAYER
5
205
100
AcDbSymbolTableRecord
100
AcDbLayerTableRecord
2
NOTE
70
0
62
7
6
CONTINUOUS
0
LAYER
5
206
100
AcDbSymbolTableRecord
100
AcDbLayerTableRecord
2
PIANI
70
0
62
7
6
CONTINUOUS
0
LAYER
5
207
100
AcDbSymbolTableRecord
100
AcDbLayerTableRecord
2
PIANI_ORIGINE
70
0
62
7
6
CONTINUOUS
0
LAYER
5
208
100
AcDbSymbolTableRecord
100
AcDbLayerTableRecord
2
PIANI_RIFERIMENTO
70
0
62
7
6
CONTINUOUS
0
LAYER
5
209
100
AcDbSymbolTableRecord
100
AcDbLayerTableRecord
2
PUNTI
70
0
62
7
6
CONTINUOUS
0
LAYER
5
20A
100
AcDbSymbolTableRecord
100
AcDbLayerTableRecord
2
RACCORDO
70
0
62
7
6
CONTINUOUS
0
LAYER
5
20B
100
AcDbSymbolTableRecord
100
AcDbLayerTableRecord
2
SUPERFICI
70
0
62
7
6
CONTINUOUS
0
LAYER
5
20C
100
AcDbSymbolTableRecord
100
AcDbLayerTableRecord
2
TRASH
70
0
62
7
6
CONTINUOUS
0
LAYER
5
20D
100
AcDbSymbolTableRecord
100
AcDbLayerTableRecord
2
XSEC_DATUMS
70
0
62
7
6
CONTINUOUS
0
ENDTAB
0
TABLE
2
STYLE
5
3
100
AcDbSymbolTable
70
1
0
STYLE
5
11
100
AcDbSymbolTableRecord
100
AcDbTextStyleTableRecord
2
STANDARD
70
0
40
0.0
41
0.8000000000
50
0.0
71
0
42
0.2
3
txt
4

0
ENDTAB
0
TABLE
2
VIEW
5
6
100
AcDbSymbolTable
70
0
0
ENDTAB
0
TABLE
2
UCS
5
7
100
AcDbSymbolTable
70
0
0
ENDTAB
0
TABLE
2
APPID
5
9
100
AcDbSymbolTable
70
1
0
APPID
5
20E
100
AcDbSymbolTableRecord
100
AcDbRegAppTableRecord
2
ACAD
70
0
0
ENDTAB
0
TABLE
2
DIMSTYLE
5
A
100
AcDbSymbolTable
70
1
0
DIMSTYLE
105
20F
100
AcDbSymbolTableRecord
100
AcDbDimStyleTableRecord
2
STANDARD
70
0
3

4

5

6

7

40
1.0
41
3.0000000000
42
0.0625
43
0.38
44
0.18
45
0.0
46
0.0
47
0.0100000000
48
0.0100000000
140
3.0000000000
141
0.09
142
0.0
143
25.4
144
1.0000000000
145
0.0
146
1.0000000000
147
0.09
71
1
72
0
73
0
74
0
75
0
76
0
77
1
78
8
170
0
171
2
172
0
173
0
174
0
175
0
176
0
177
0
178
0
270
2
271
2
272
2
273
2
274
2
340
11
275
0
280
0
281
0
282
0
283
1
284
8
285
0
286
0
287
3
288
0
0
ENDTAB
0
TABLE
2
BLOCK_RECORD
5
1
100
AcDbSymbolTable
70
0
0
BLOCK_RECORD
5
1B
100
AcDbSymbolTableRecord
100
AcDbBlockTableRecord
2
*MODEL_SPACE
0
BLOCK_RECORD
5
1C
100
AcDbSymbolTableRecord
100
AcDbBlockTableRecord
2
*PAPER_SPACE
0
ENDTAB
0
ENDSEC
0
SECTION
2
BLOCKS
0
BLOCK
5
1E
100
AcDbEntity
8
0
100
AcDbBlockBegin
2
*MODEL_SPACE
70
0
10
0.0
20
0.0
30
0.0
3
*MODEL_SPACE
1

0
ENDBLK
5
1F
100
AcDbEntity
8
0
100
AcDbBlockEnd
0
BLOCK
5
20
100
AcDbEntity
8
0
100
AcDbBlockBegin
2
*PAPER_SPACE
70
0
10
0.0
20
0.0
30
0.0
3
*PAPER_SPACE
1

0
ENDBLK
5
21
100
AcDbEntity
8
0
100
AcDbBlockEnd
0
ENDSEC
0
SECTION
2
ENTITIES
0
LINE
5
210
100
AcDbEntity
8
0
100
AcDbLine
62
7
6
CONTINUOUS
10
-7.0345118628
20
23.3588743079
11
-4.2993198037
21
24.8900991787
0
LINE
5
211
100
AcDbEntity
8
0
100
AcDbLine
62
9
6
CONTINUOUS
10
-6.7995237415
20
23.3508253259
11
-4.0679706932
21
24.8800129929
0
LINE
5
212
100
AcDbEntity
8
0
100
AcDbLine
62
7
6
CONTINUOUS
10
-7.2226139016
20
-14.7698288733
11
7.4687622112
21
-22.1155169298
0
LINE
5
213
100
AcDbEntity
8
0
100
AcDbLine
62
7
6
CONTINUOUS
10
7.4682483612
20
-22.1152595653
11
7.4687398475
21
-22.1155057479
0
LINE
5
214
100
AcDbEntity
8
0
100
AcDbLine
62
9
6
CONTINUOUS
10
-7.4713792010
20
-14.3551980095
11
7.2133756898
21
-21.6975754549
0
LINE
5
215
100
AcDbEntity
8
0
100
AcDbLine
62
7
6
CONTINUOUS
10
-7.6186057194
20
22.4351020322
11
-7.6186194548
21
22.4349786934
0
LINE
5
216
100
AcDbEntity
8
0
100
AcDbLine
62
9
6
CONTINUOUS
10
10.7815140195
20
17.4552706365
11
7.9030577061
21
15.9995346021
0
LINE
5
217
100
AcDbEntity
8
0
100
AcDbLine
62
9
6
CONTINUOUS
10
11.1349462562
20
16.8456901989
11
8.2564899428
21
15.3899541645
0
LINE
5
218
100
AcDbEntity
8
0
100
AcDbLine
62
7
6
CONTINUOUS
10
-7.6177365596
20
-14.1792696069
11
-7.6176849778
21
-14.1796710203
0
LINE
5
219
100
AcDbEntity
8
0
100
AcDbLine
62
7
6
CONTINUOUS
10
0.0439578231
20
7.7202867217
11
0.0591048192
21
7.7257366094
0
LINE
5
21A
100
AcDbEntity
8
0
100
AcDbLine
62
9
6
CONTINUOUS
10
-8.1463771191
20
-4.6260050934
11
6.5022833661
21
-11.9503353360
0
LINE
5
21B
100
AcDbEntity
8
0
100
AcDbLine
62
9
6
CONTINUOUS
10
-8.1463771191
20
11.8284775785
11
6.5022833661
21
4.5041473359
0
LINE
5
21C
100
AcDbEntity
8
0
100
AcDbLine
62
7
6
CONTINUOUS
10
11.1349462562
20
-20.5669040098
11
11.1349462562
21
16.8456901989
0
LINE
5
21D
100
AcDbEntity
8
0
100
AcDbLine
62
9
6
CONTINUOUS
10
-0.3607868464
20
-13.5608429583
11
-0.3772995272
21
-13.5666251670
0
LINE
5
21E
100
AcDbEntity
8
0
100
AcDbLine
62
9
6
CONTINUOUS
10
-7.4713792010
20
22.2687628183
11
7.2133756898
21
14.9263853729
0
LINE
5
21F
100
AcDbEntity
8
0
100
AcDbLine
62
9
6
CONTINUOUS
10
-6.7995237415
20
23.3508253259
11
7.9030577061
21
15.9995346021
0
LINE
5
220
100
AcDbEntity
8
0
100
AcDbLine
62
7
6
CONTINUOUS
10
-4.0679706932
20
24.8800129929
11
10.7815140195
21
17.4552706365
0
LINE
5
221
100
AcDbEntity
8
0
100
AcDbLine
62
9
6
CONTINUOUS
10
8.2564899428
20
-21.8427210237
11
11.1349462562
21
-20.5669040098
0
LINE
5
222
100
AcDbEntity
8
0
100
AcDbLine
62
7
6
CONTINUOUS
10
8.1149180601
20
-22.1184890692
11
10.9971341854
21
-20.8410055954
0
SPLINE
5
223
100
AcDbEntity
8
0
100
AcDbSpline
62
7
6
CONTINUOUS
70
0
71
3
72
9
73
5
74
3
42
0.0000001000
43
0.0000001000
44
0.0000000001
12
-0.0114498144
22
-0.0077814664
32
0.0000000000
13
-0.0079949940
23
-0.0112870780
33
0.0000000000
40
0.0000000000
40
0.0000000000
40
0.0000000000
40
0.0000000000
40
0.7820099356
40
1.0000000000
40
1.0000000000
40
1.0000000000
40
1.0000000000
10
-1.0389727719
20
-9.3640037702
30
0.0000000000
10
-1.0419573948
20
-9.3660321649
30
0.0000000000
10
-1.0453815690
20
-9.3692120119
30
0.0000000000
10
-1.0481789634
20
-9.3728812252
30
0.0000000000
10
-1.0487599065
20
-9.3737013821
30
0.0000000000
11
-1.0389727719
21
-9.3640037702
31
0.0000000000
11
-1.0469295707
21
-9.3713047756
31
0.0000000000
11
-1.0487599065
21
-9.3737013821
31
0.0000000000
0
SPLINE
5
224
100
AcDbEntity
8
0
100
AcDbSpline
62
7
6
CONTINUOUS
70
0
71
3
72
10
73
6
74
4
42
0.0000001000
43
0.0000001000
44
0.0000000001
12
-0.0176213594
22
-0.0248772742
32
0.0000000000
13
-0.0031945735
23
-0.0302756730
33
0.0000000000
40
0.0000000000
40
0.0000000000
40
0.0000000000
40
0.0000000000
40
0.3532710624
40
0.8502145250
40
1.0000000000
40
1.0000000000
40
1.0000000000
40
1.0000000000
10
-1.0487599065
20
-9.3737013821
30
0.0000000000
10
-1.0508349453
20
-9.3766308558
30
0.0000000000
10
-1.0549427503
20
-9.3843046535
30
0.0000000000
10
-1.0575523850
20
-9.3941794868
30
0.0000000000
10
-1.0584182417
20
-9.4006881472
30
0.0000000000
10
-1.0585777419
20
-9.4021997659
30
0.0000000000
11
-1.0487599065
21
-9.3737013821
31
0.0000000000
11
-1.0539224584
21
-9.3831325457
31
0.0000000000
11
-1.0579730830
21
-9.3976798356
31
0.0000000000
11
-1.0585777419
21
-9.4021997659
31
0.0000000000
0
SPLINE
5
225
100
AcDbEntity
8
0
100
AcDbSpline
62
7
6
CONTINUOUS
70
0
71
3
72
8
73
4
74
2
42
0.0000001000
43
0.0000001000
44
0.0000000001
12
-0.0013253773
22
-0.0125608912
32
0.0000000000
13
0.0003692190
23
-0.0126017361
33
0.0000000000
40
0.0000000000
40
0.0000000000
40
0.0000000000
40
0.0000000000
40
1.0000000000
40
1.0000000000
40
1.0000000000
40
1.0000000000
10
-1.0585777419
20
-9.4021997659
30
0.0000000000
10
-1.0590195343
20
-9.4063867296
30
0.0000000000
10
-1.0591464928
20
-9.4106057797
30
0.0000000000
10
-1.0590234198
20
-9.4148063584
30
0.0000000000
11
-1.0585777419
21
-9.4021997659
31
0.0000000000
11
-1.0590234198
21
-9.4148063584
31
0.0000000000
0
SPLINE
5
226
100
AcDbEntity
8
0
100
AcDbSpline
62
7
6
CONTINUOUS
70
0
71
3
72
10
73
6
74
4
42
0.0000001000
43
0.0000001000
44
0.0000000001
12
-0.0325304075
22
-0.0220609489
32
0.0000000000
13
-0.0110122230
23
-0.0374959481
33
0.0000000000
40
0.0000000000
40
0.0000000000
40
0.0000000000
40
0.0000000000
40
0.1327465569
40
0.5403912742
40
1.0000000000
40
1.0000000000
40
1.0000000000
40
1.0000000000
10
-0.4148681209
20
12.2417800726
30
0.0000000000
10
-0.4163075541
20
12.2408039009
30
0.0000000000
10
-0.4219318649
20
12.2364848441
30
0.0000000000
10
-0.4302665236
20
12.2262059399
30
0.0000000000
10
-0.4346721792
20
12.2156433196
30
0.0000000000
10
-0.4363592838
20
12.2098988313
30
0.0000000000
11
-0.4148681209
21
12.2417800726
31
0.0000000000
11
-0.4190031616
21
12.2386073985
31
0.0000000000
11
-0.4292097988
21
12.2263759208
31
0.0000000000
11
-0.4363592838
21
12.2098988313
31
0.0000000000
0
SPLINE
5
227
100
AcDbEntity
8
0
100
AcDbSpline
62
7
6
CONTINUOUS
70
0
71
3
72
10
73
6
74
4
42
0.0000001000
43
0.0000001000
44
0.0000000001
12
0.2363315905
22
0.0810753370
32
0.0000000000
13
0.2355359990
23
-0.0813378177
33
0.0000000000
40
0.0000000000
40
0.0000000000
40
0.0000000000
40
0.0000000000
40
0.2813721372
40
0.6289153939
40
1.0000000000
40
1.0000000000
40
1.0000000000
40
1.0000000000
10
-1.3098099849
20
11.9937471533
30
0.0000000000
10
-1.2876442767
20
12.0013512669
30
0.0000000000
10
-1.2361924211
20
12.0128215818
30
0.0000000000
10
-1.1523661742
20
12.0115986452
30
0.0000000000
10
-1.0938909487
20
11.9973114605
30
0.0000000000
10
-1.0647563543
20
11.9872503899
30
0.0000000000
11
-1.3098099849
21
11.9937471533
31
0.0000000000
11
-1.2413521552
21
12.0091648881
31
0.0000000000
11
-1.1547522895
21
12.0084913708
31
0.0000000000
11
-1.0647563543
21
11.9872503899
31
0.0000000000
0
SPLINE
5
228
100
AcDbEntity
8
0
100
AcDbSpline
62
7
6
CONTINUOUS
70
0
71
3
72
11
73
7
74
5
42
0.0000001000
43
0.0000001000
44
0.0000000001
12
-0.4402985209
22
-0.2988633774
32
0.0000000000
13
-0.1544245138
23
-0.5081008773
33
0.0000000000
40
0.0000000000
40
0.0000000000
40
0.0000000000
40
0.0000000000
40
0.1504260947
40
0.4171613394
40
0.6994602369
40
1.0000000000
40
1.0000000000
40
1.0000000000
40
1.0000000000
10
-1.6839618571
20
12.5305388186
30
0.0000000000
10
-1.7060393194
20
12.5155532016
30
0.0000000000
10
-1.7645512537
20
12.4699798615
30
0.0000000000
10
-1.8482494721
20
12.3775349605
30
0.0000000000
10
-1.9260046179
20
12.2478508418
30
0.0000000000
10
-1.9632952355
20
12.1510972332
30
0.0000000000
10
-1.9787654711
20
12.1001957274
30
0.0000000000
11
-1.6839618571
21
12.5305388186
31
0.0000000000
11
-1.7471200309
21
12.4814429764
31
0.0000000000
11
-1.8427407064
21
12.3769380033
31
0.0000000000
11
-1.9205693660
21
12.2488087686
31
0.0000000000
11
-1.9787654711
21
12.1001957274
31
0.0000000000
0
SPLINE
5
229
100
AcDbEntity
8
0
100
AcDbSpline
62
7
6
CONTINUOUS
70
0
71
3
72
12
73
8
74
6
42
0.0000001000
43
0.0000001000
44
0.0000000001
12
0.3673020141
22
-0.1286779367
32
0.0000000000
13
0.3809825643
23
0.0809206305
33
0.0000000000
40
0.0000000000
40
0.0000000000
40
0.0000000000
40
0.0000000000
40
0.2165121999
40
0.4277491290
40
0.6371386019
40
0.8396195342
40
1.0000000000
40
1.0000000000
40
1.0000000000
40
1.0000000000
10
-0.4050251085
20
7.7354218748
30
0.0000000000
10
-0.3785166528
20
7.7261350938
30
0.0000000000
10
-0.3252845844
20
7.7101183553
30
0.0000000000
10
-0.2440147583
20
7.6942717424
30
0.0000000000
10
-0.1632701095
20
7.6876112955
30
0.0000000000
10
-0.0888912392
20
7.6904645151
30
0.0000000000
10
-0.0422874489
20
7.6977399151
30
0.0000000000
10
-0.0219200619
20
7.7020659445
30
0.0000000000
11
-0.4050251085
21
7.7354218748
31
0.0000000000
11
-0.3242875434
21
7.7112986841
31
0.0000000000
11
-0.2435638171
21
7.6957303008
31
0.0000000000
11
-0.1623331314
21
7.6892060711
31
0.0000000000
11
-0.0835933980
21
7.6923764722
31
0.0000000000
11
-0.0219200619
21
7.7020659445
31
0.0000000000
0
SPLINE
5
22A
100
AcDbEntity
8
0
100
AcDbSpline
62
7
6
CONTINUOUS
70
0
71
3
72
9
73
5
74
3
42
0.0000001000
43
0.0000001000
44
0.0000000001
12
0.0668960102
22
0.0142087009
32
0.0000000000
13
0.0646578608
23
0.0222166056
33
0.0000000000
40
0.0000000000
40
0.0000000000
40
0.0000000000
40
0.0000000000
40
0.1779993333
40
1.0000000000
40
1.0000000000
40
1.0000000000
40
1.0000000000
10
-0.0219200619
20
7.7020659445
30
0.0000000000
10
-0.0179509135
20
7.7029089910
30
0.0000000000
10
0.0042984841
20
7.7078821331
30
0.0000000000
10
0.0262426549
20
7.7141961654
30
0.0000000000
10
0.0439589231
20
7.7202835203
30
0.0000000000
11
-0.0219200619
21
7.7020659445
31
0.0000000000
11
-0.0100398283
21
7.7047219074
31
0.0000000000
11
0.0439589231
21
7.7202835203
31
0.0000000000
0
SPLINE
5
22B
100
AcDbEntity
8
0
100
AcDbSpline
62
7
6
CONTINUOUS
70
0
71
3
72
10
73
6
74
4
42
0.0000001000
43
0.0000001000
44
0.0000000001
12
0.7897049640
22
-0.5136300029
32
0.0000000000
13
0.8890791907
23
-0.3114287991
33
0.0000000000
40
0.0000000000
40
0.0000000000
40
0.0000000000
40
0.0000000000
40
0.3459641683
40
0.6794131918
40
1.0000000000
40
1.0000000000
40
1.0000000000
40
1.0000000000
10
-1.2458295968
20
8.1558323194
30
0.0000000000
10
-1.1547597231
20
8.0965997938
30
0.0000000000
10
-0.9717614196
20
7.9864768247
30
0.0000000000
10
-0.6908511535
20
7.8454766971
30
0.0000000000
10
-0.5000341285
20
7.7687018630
30
0.0000000000
10
-0.4050251085
20
7.7354218748
30
0.0000000000
11
-1.2458295968
21
8.1558323194
31
0.0000000000
11
-0.9663535156
21
7.9881628658
31
0.0000000000
11
-0.6853946963
21
7.8476775550
31
0.0000000000
11
-0.4050251085
21
7.7354218748
31
0.0000000000
0
SPLINE
5
22C
100
AcDbEntity
8
0
100
AcDbSpline
62
7
6
CONTINUOUS
70
0
71
3
72
11
73
7
74
5
42
0.0000001000
43
0.0000001000
44
0.0000000001
12
0.3751788959
22
-0.5255652859
32
0.0000000000
13
0.5413146449
23
-0.3520745888
33
0.0000000000
40
0.0000000000
40
0.0000000000
40
0.0000000000
40
0.0000000000
40
0.3492353044
40
0.5192692232
40
0.6850012702
40
1.0000000000
40
1.0000000000
40
1.0000000000
40
1.0000000000
10
-1.7031983654
20
8.6068882017
30
0.0000000000
10
-1.6595231268
20
8.5457062175
30
0.0000000000
10
-1.5896916840
20
8.4580349349
30
0.0000000000
10
-1.4878546531
20
8.3513050296
30
0.0000000000
10
-1.3852358630
20
8.2558869379
30
0.0000000000
10
-1.3026673370
20
8.1928001072
30
0.0000000000
10
-1.2458295284
20
8.1558324244
30
0.0000000000
11
-1.7031983654
21
8.6068882017
31
0.0000000000
11
-1.5622604879
21
8.4308388630
31
0.0000000000
11
-1.4864382031
21
8.3514256607
31
0.0000000000
11
-1.4079699399
21
8.2786526240
31
0.0000000000
11
-1.2458295284
21
8.1558324244
31
0.0000000000
0
SPLINE
5
22D
100
AcDbEntity
8
0
100
AcDbSpline
62
7
6
CONTINUOUS
70
0
71
3
72
9
73
5
74
3
42
0.0000001000
43
0.0000001000
44
0.0000000001
12
0.0180000769
22
-0.0022325257
32
0.0000000000
13
0.0172485891
23
0.0059433294
33
0.0000000000
40
0.0000000000
40
0.0000000000
40
0.0000000000
40
0.0000000000
40
0.7265419150
40
1.0000000000
40
1.0000000000
40
1.0000000000
40
1.0000000000
10
-0.3773000475
20
-13.5666251024
30
0.0000000000
10
-0.3729407774
20
-13.5671657769
30
0.0000000000
10
-0.3667778632
20
-13.5671285614
30
0.0000000000
10
-0.3608808247
20
-13.5655648721
30
0.0000000000
10
-0.3593085694
20
-13.5650231216
30
0.0000000000
11
-0.3773000475
21
-13.5666251024
31
0.0000000000
11
-0.3641258924
21
-13.5663059304
31
0.0000000000
11
-0.3593085694
21
-13.5650231216
31
0.0000000000
0
SPLINE
5
22E
100
AcDbEntity
8
0
100
AcDbSpline
62
7
6
CONTINUOUS
70
0
71
3
72
13
73
9
74
7
42
0.0000001000
43
0.0000001000
44
0.0000000001
12
0.3720580879
22
-0.3182108831
32
0.0000000000
13
0.4858298267
23
-0.0604546880
33
0.0000000000
40
0.0000000000
40
0.0000000000
40
0.0000000000
40
0.0000000000
40
0.1882637779
40
0.3681985426
40
0.5407285651
40
0.7038785872
40
0.8563336971
40
1.0000000000
40
1.0000000000
40
1.0000000000
40
1.0000000000
10
-0.8094223065
20
-13.3505352432
30
0.0000000000
10
-0.7860739528
20
-13.3705044375
30
0.0000000000
10
-0.7390355310
20
-13.4079939655
30
0.0000000000
10
-0.6659557619
20
-13.4576129439
30
0.0000000000
10
-0.5925172509
20
-13.4989136875
30
0.0000000000
10
-0.5195971913
20
-13.5313159727
30
0.0000000000
10
-0.4481435951
20
-13.5544123270
30
0.0000000000
10
-0.4005658392
20
-13.5637300017
30
0.0000000000
10
-0.3773000475
20
-13.5666251022
30
0.0000000000
11
-0.8094223065
21
-13.3505352432
31
0.0000000000
11
-0.7372593650
21
-13.4078740515
31
0.0000000000
11
-0.6642864263
21
-13.4572210752
31
0.0000000000
11
-0.5905644431
21
-13.4984483746
31
0.0000000000
11
-0.5174770211
21
-13.5306688254
31
0.0000000000
11
-0.4463767597
21
-13.5533768609
31
0.0000000000
11
-0.3773000475
21
-13.5666251022
31
0.0000000000
0
SPLINE
5
22F
100
AcDbEntity
8
0
100
AcDbSpline
62
7
6
CONTINUOUS
70
0
71
3
72
13
73
9
74
7
42
0.0000001000
43
0.0000001000
44
0.0000000001
12
0.0088456710
22
-0.1200698753
32
0.0000000000
13
0.0914958004
23
-0.0782530508
33
0.0000000000
40
0.0000000000
40
0.0000000000
40
0.0000000000
40
0.0000000000
40
0.1553918410
40
0.3193074208
40
0.4925182616
40
0.6674966839
40
0.8363071720
40
1.0000000000
40
1.0000000000
40
1.0000000000
40
1.0000000000
10
-0.8643872343
20
-13.2464487727
30
0.0000000000
10
-0.8639290526
20
-13.2526680657
30
0.0000000000
10
-0.8618431475
20
-13.2653757718
30
0.0000000000
10
-0.8559195792
20
-13.2842859986
30
0.0000000000
10
-0.8473538710
20
-13.3030249487
30
0.0000000000
10
-0.8365262141
20
-13.3207811126
30
0.0000000000
10
-0.8239268472
20
-13.3368387742
30
0.0000000000
10
-0.8144146138
20
-13.3462653113
30
0.0000000000
10
-0.8094222117
20
-13.3505351323
30
0.0000000000
11
-0.8643872343
21
-13.2464487727
31
0.0000000000
11
-0.8614833243
21
-13.2649304686
31
0.0000000000
11
-0.8556568437
21
-13.2837854151
31
0.0000000000
11
-0.8470200943
21
-13.3027666211
31
0.0000000000
11
-0.8360511348
21
-13.3207522418
31
0.0000000000
11
-0.8234757671
21
-13.3367185980
31
0.0000000000
11
-0.8094222117
21
-13.3505351323
31
0.0000000000
0
SPLINE
5
230
100
AcDbEntity
8
0
100
AcDbSpline
62
7
6
CONTINUOUS
70
0
71
3
72
10
73
6
74
4
42
0.0000001000
43
0.0000001000
44
0.0000000001
12
0.1123479895
22
-3.8352052790
32
0.0000000000
13
0.2786960945
23
-3.8267153134
33
0.0000000000
40
0.0000000000
40
0.0000000000
40
0.0000000000
40
0.0000000000
40
0.3357833271
40
0.6691229251
40
1.0000000000
40
1.0000000000
40
1.0000000000
40
1.0000000000
10
-1.0590235332
20
-9.4148063617
30
0.0000000000
10
-1.0464486727
20
-9.8440723579
30
0.0000000000
10
-1.0153568934
20
-10.6993170278
30
0.0000000000
10
-0.9505395760
20
-11.9766638517
30
0.0000000000
10
-0.8951252831
20
-12.8243913161
30
0.0000000000
10
-0.8643872336
20
-13.2464487726
30
0.0000000000
11
-1.0590235332
21
-9.4148063617
31
0.0000000000
11
-1.0121511353
21
-10.7023038498
31
0.0000000000
11
-0.9472666172
21
-11.9796311353
31
0.0000000000
11
-0.8643872336
21
-13.2464487726
31
0.0000000000
0
SPLINE
5
231
100
AcDbEntity
8
0
100
AcDbSpline
62
7
6
CONTINUOUS
70
0
71
3
72
11
73
7
74
5
42
0.0000001000
43
0.0000001000
44
0.0000000001
12
0.1694844645
22
-0.9310405050
32
0.0000000000
13
0.5498313217
23
-0.7702252418
33
0.0000000000
40
0.0000000000
40
0.0000000000
40
0.0000000000
40
0.0000000000
40
0.2461807330
40
0.5006024738
40
0.7547594746
40
1.0000000000
40
1.0000000000
40
1.0000000000
40
1.0000000000
10
-2.0719196361
20
9.4709107091
30
0.0000000000
10
-2.0580116995
20
9.3945092978
30
0.0000000000
10
-2.0203355482
20
9.2407346324
30
0.0000000000
10
-1.9382201792
20
9.0167731252
30
0.0000000000
10
-1.8326824678
20
8.8031977211
30
0.0000000000
10
-1.7481453395
20
8.6698516827
30
0.0000000000
10
-1.7031983654
20
8.6068882017
30
0.0000000000
11
-2.0719196361
21
9.4709107091
31
0.0000000000
11
-2.0168958827
21
9.2445308431
31
0.0000000000
11
-1.9342194071
21
9.0184010834
31
0.0000000000
11
-1.8276475795
21
8.8027812002
31
0.0000000000
11
-1.7031983654
21
8.6068882017
31
0.0000000000
0
SPLINE
5
232
100
AcDbEntity
8
0
100
AcDbSpline
62
7
6
CONTINUOUS
70
0
71
3
72
15
73
11
74
9
42
0.0000001000
43
0.0000001000
44
0.0000000001
12
-0.7720531145
22
-2.5402832930
32
0.0000000000
13
0.4754985433
23
-2.6120885115
33
0.0000000000
40
0.0000000000
40
0.0000000000
40
0.0000000000
40
0.0000000000
40
0.1144430026
40
0.2320941364
40
0.3528918953
40
0.4767697276
40
0.6036141034
40
0.7332568796
40
0.8654904093
40
1.0000000000
40
1.0000000000
40
1.0000000000
40
1.0000000000
10
-1.9787653383
20
12.1001956871
30
0.0000000000
10
-2.0082173638
20
12.0032898046
30
0.0000000000
10
-2.0608030680
20
11.8045240140
30
0.0000000000
10
-2.1199852014
20
11.4976518386
30
0.0000000000
10
-2.1602702291
20
11.1793139071
30
0.0000000000
10
-2.1814464134
20
10.8510028238
30
0.0000000000
10
-2.1834107273
20
10.5141999698
30
0.0000000000
10
-2.1661565439
20
10.1704391034
30
0.0000000000
10
-2.1297914322
20
9.8213700182
30
0.0000000000
10
-2.0932393399
20
9.5880276948
30
0.0000000000
10
-2.0719196351
20
9.4709107093
30
0.0000000000
11
-1.9787653383
21
12.1001956871
31
0.0000000000
11
-2.0567544459
21
11.8065270882
31
0.0000000000
11
-2.1161764385
21
11.4998656196
31
0.0000000000
11
-2.1566962298
21
11.1817156781
31
0.0000000000
11
-2.1781047393
21
10.8535156592
31
0.0000000000
11
-2.1802879062
21
10.5167490007
31
0.0000000000
11
-2.1632323173
21
10.1729682898
31
0.0000000000
11
-2.1270314057
21
9.8237576389
31
0.0000000000
11
-2.0719196351
21
9.4709107093
31
0.0000000000
0
SPLINE
5
233
100
AcDbEntity
8
0
100
AcDbSpline
62
7
6
CONTINUOUS
70
0
71
3
72
10
73
6
74
4
42
0.0000001000
43
0.0000001000
44
0.0000000001
12
0.0321786962
22
-0.0120479790
32
0.0000000000
13
0.0326363528
23
0.0112224605
33
0.0000000000
40
0.0000000000
40
0.0000000000
40
0.0000000000
40
0.0000000000
40
0.4316592552
40
0.8233641276
40
1.0000000000
40
1.0000000000
40
1.0000000000
40
1.0000000000
10
-0.9952612579
20
11.9621695804
30
0.0000000000
10
-0.9906311806
20
11.9604360398
30
0.0000000000
10
-0.9813751290
20
11.9580878881
30
0.0000000000
10
-0.9697652920
20
11.9584116411
30
0.0000000000
10
-0.9634290417
20
11.9600908943
30
0.0000000000
10
-0.9615074582
20
11.9607516574
30
0.0000000000
11
-0.9952612579
21
11.9621695804
31
0.0000000000
11
-0.9808426721
21
11.9586926017
31
0.0000000000
11
-0.9673928721
21
11.9591915257
31
0.0000000000
11
-0.9615074582
21
11.9607516574
31
0.0000000000
0
SPLINE
5
234
100
AcDbEntity
8
0
100
AcDbSpline
62
7
6
CONTINUOUS
70
0
71
3
72
9
73
5
74
3
42
0.0000001000
43
0.0000001000
44
0.0000000001
12
0.0698170156
22
-0.0241749550
32
0.0000000000
13
0.0691677729
23
-0.0259742815
33
0.0000000000
40
0.0000000000
40
0.0000000000
40
0.0000000000
40
0.0000000000
40
0.4986945836
40
1.0000000000
40
1.0000000000
40
1.0000000000
40
1.0000000000
10
-1.0647563543
20
11.9872503899
30
0.0000000000
10
-1.0531505651
20
11.9832317502
30
0.0000000000
10
-1.0299308137
20
11.9750207809
30
0.0000000000
10
-1.0068193177
20
11.9665099297
30
0.0000000000
10
-0.9952612579
20
11.9621695803
30
0.0000000000
11
-1.0647563543
21
11.9872503899
31
0.0000000000
11
-1.0300183593
21
11.9749676388
31
0.0000000000
11
-0.9952612579
21
11.9621695803
31
0.0000000000
0
SPLINE
5
235
100
AcDbEntity
8
0
100
AcDbSpline
62
7
6
CONTINUOUS
70
0
71
3
72
11
73
7
74
5
42
0.0000001000
43
0.0000001000
44
0.0000000001
12
-0.0752781455
22
-0.2690128323
32
0.0000000000
13
-0.2318777178
23
-0.1572576007
33
0.0000000000
40
0.0000000000
40
0.0000000000
40
0.0000000000
40
0.0000000000
40
0.3422779373
40
0.6587964430
40
0.9554982283
40
1.0000000000
40
1.0000000000
40
1.0000000000
40
1.0000000000
10
0.0138953966
20
8.5824685638
30
0.0000000000
10
0.0053067138
20
8.5517761780
30
0.0000000000
10
-0.0161679080
20
8.4938707150
30
0.0000000000
10
-0.0637231226
20
8.4178422906
30
0.0000000000
10
-0.1080476493
20
8.3746176277
30
0.0000000000
10
-0.1340508577
20
8.3561932833
30
0.0000000000
10
-0.1374905141
20
8.3538605360
30
0.0000000000
11
0.0138953966
21
8.5824685638
31
0.0000000000
11
-0.0200615245
21
8.4930872626
31
0.0000000000
11
-0.0675881904
21
8.4185283184
31
0.0000000000
11
-0.1273190641
21
8.3610673344
31
0.0000000000
11
-0.1374905141
21
8.3538605360
31
0.0000000000
0
SPLINE
5
236
100
AcDbEntity
8
0
100
AcDbSpline
62
7
6
CONTINUOUS
70
0
71
3
72
15
73
11
74
9
42
0.0000001000
43
0.0000001000
44
0.0000000001
12
0.3642447768
22
-2.3119813043
32
0.0000000000
13
-0.6306979874
23
-2.2539191953
33
0.0000000000
40
0.0000000000
40
0.0000000000
40
0.0000000000
40
0.0000000000
40
0.1356245659
40
0.2687937486
40
0.3991455956
40
0.5263964173
40
0.6502957397
40
0.7706332045
40
0.8872489085
40
1.0000000000
40
1.0000000000
40
1.0000000000
40
1.0000000000
10
0.0961615582
20
10.9043846459
30
0.0000000000
10
0.1126284048
20
10.7998641590
30
0.0000000000
10
0.1407063938
20
10.5919641926
30
0.0000000000
10
0.1682205682
20
10.2816739296
30
0.0000000000
10
0.1806826413
20
9.9769404863
30
0.0000000000
10
0.1780448833
20
9.6791885520
30
0.0000000000
10
0.1603169474
20
9.3897700080
30
0.0000000000
10
0.1275604027
20
9.1100005725
30
0.0000000000
10
0.0799041984
20
8.8412069914
30
0.0000000000
10
0.0375987148
20
8.6671793604
30
0.0000000000
10
0.0138947527
20
8.5824687439
30
0.0000000000
11
0.0961615582
21
10.9043846459
31
0.0000000000
11
0.1385317373
21
10.5897960718
31
0.0000000000
11
0.1659219956
21
10.2793196838
31
0.0000000000
11
0.1782219344
21
9.9744794642
31
0.0000000000
11
0.1753906795
21
9.6766626030
31
0.0000000000
11
0.1574408943
21
9.3872325303
31
0.0000000000
11
0.1244418632
21
9.1075227306
31
0.0000000000
11
0.0765215954
21
8.8388235289
31
0.0000000000
11
0.0138947527
21
8.5824687439
31
0.0000000000
0
SPLINE
5
237
100
AcDbEntity
8
0
100
AcDbSpline
62
7
6
CONTINUOUS
70
0
71
3
72
14
73
10
74
8
42
0.0000001000
43
0.0000001000
44
0.0000000001
12
0.7182131706
22
-0.4714005301
32
0.0000000000
13
0.1336844780
23
-0.8486324820
33
0.0000000000
40
0.0000000000
40
0.0000000000
40
0.0000000000
40
0.0000000000
40
0.1286028829
40
0.2653582247
40
0.4084705168
40
0.5558970778
40
0.7052918396
40
0.8541683710
40
1.0000000000
40
1.0000000000
40
1.0000000000
40
1.0000000000
10
-0.3344115449
20
11.6221131421
30
0.0000000000
10
-0.3036234501
20
11.6019053197
30
0.0000000000
10
-0.2433887116
20
11.5550504815
30
0.0000000000
10
-0.1614420208
20
11.4711649612
30
0.0000000000
10
-0.0870563033
20
11.3736481155
30
0.0000000000
10
-0.0223073425
20
11.2652849692
30
0.0000000000
10
0.0310702772
20
11.1490771318
30
0.0000000000
10
0.0716215990
20
11.0282964465
30
0.0000000000
10
0.0896630832
20
10.9456371317
30
0.0000000000
10
0.0961615582
20
10.9043846459
30
0.0000000000
11
-0.3344115449
21
11.6221131421
31
0.0000000000
11
-0.2468831602
21
11.5546954323
31
0.0000000000
11
-0.1644903896
21
11.4709432135
31
0.0000000000
11
-0.0897040944
21
11.3733569512
31
0.0000000000
11
-0.0246046190
21
11.2647142188
31
0.0000000000
11
0.0290034147
21
11.1481014637
31
0.0000000000
11
0.0696364533
21
11.0268280968
31
0.0000000000
11
0.0961615582
21
10.9043846459
31
0.0000000000
0
SPLINE
5
238
100
AcDbEntity
8
0
100
AcDbSpline
62
7
6
CONTINUOUS
70
0
71
3
72
9
73
5
74
3
42
0.0000001000
43
0.0000001000
44
0.0000000001
12
0.0686516080
22
-0.0429988978
32
0.0000000000
13
0.0677215913
23
-0.0444492361
33
0.0000000000
40
0.0000000000
40
0.0000000000
40
0.0000000000
40
0.0000000000
40
0.4987796379
40
1.0000000000
40
1.0000000000
40
1.0000000000
40
1.0000000000
10
-0.4025987426
20
11.6658426400
30
0.0000000000
10
-0.3911847346
20
11.6586936485
30
0.0000000000
10
-0.3683778560
20
11.6442374041
30
0.0000000000
10
-0.3457260057
20
11.6295394590
30
0.0000000000
10
-0.3344115255
20
11.6221131716
30
0.0000000000
11
-0.4025987426
21
11.6658426400
31
0.0000000000
11
-0.3684720894
21
11.6442125572
31
0.0000000000
11
-0.3344115255
21
11.6221131716
31
0.0000000000
0
SPLINE
5
239
100
AcDbEntity
8
0
100
AcDbSpline
62
7
6
CONTINUOUS
70
0
71
3
72
13
73
9
74
7
42
0.0000001000
43
0.0000001000
44
0.0000000001
12
0.0161251222
22
-0.1151864563
32
0.0000000000
13
0.0985702227
23
-0.0617402308
33
0.0000000000
40
0.0000000000
40
0.0000000000
40
0.0000000000
40
0.0000000000
40
0.1730262792
40
0.3461852472
40
0.5207000240
40
0.6902987747
40
0.8493294948
40
1.0000000000
40
1.0000000000
40
1.0000000000
40
1.0000000000
10
-0.4607749154
20
11.7628078517
30
0.0000000000
10
-0.4598448921
20
11.7561644237
30
0.0000000000
10
-0.4570069860
20
11.7429936272
30
0.0000000000
10
-0.4501680332
20
11.7239441586
30
0.0000000000
10
-0.4409893443
20
11.7060479120
30
0.0000000000
10
-0.4298170552
20
11.6899798465
30
0.0000000000
10
-0.4171016147
20
11.6763426912
30
0.0000000000
10
-0.4075494719
20
11.6689431512
30
0.0000000000
10
-0.4025989302
20
11.6658423406
30
0.0000000000
11
-0.4607749154
21
11.7628078517
31
0.0000000000
11
-0.4565811654
21
11.7431250376
31
0.0000000000
11
-0.4497882444
21
11.7241651239
31
0.0000000000
11
-0.4405073365
21
11.7061134302
31
0.0000000000
11
-0.4292039071
21
11.6899472138
31
0.0000000000
11
-0.4165275440
21
11.6764771798
31
0.0000000000
11
-0.4025989302
21
11.6658423406
31
0.0000000000
0
SPLINE
5
23A
100
AcDbEntity
8
0
100
AcDbSpline
62
7
6
CONTINUOUS
70
0
71
3
72
11
73
7
74
5
42
0.0000001000
43
0.0000001000
44
0.0000000001
12
-0.1266003294
22
-0.4326269654
32
0.0000000000
13
0.0622358953
23
-0.4464531439
33
0.0000000000
40
0.0000000000
40
0.0000000000
40
0.0000000000
40
0.0000000000
40
0.3125981122
40
0.4780104338
40
0.6483441342
40
1.0000000000
40
1.0000000000
40
1.0000000000
40
1.0000000000
10
-0.4363592822
20
12.2098988306
30
0.0000000000
10
-0.4495509568
20
12.1648193731
30
0.0000000000
10
-0.4637602718
20
12.0940130755
30
0.0000000000
10
-0.4723134509
20
11.9969257880
30
0.0000000000
10
-0.4744120802
20
11.8935912758
30
0.0000000000
10
-0.4680701213
20
11.8151404740
30
0.0000000000
10
-0.4607749154
20
11.7628078517
30
0.0000000000
11
-0.4363592822
21
12.2098988306
31
0.0000000000
11
-0.4647556166
21
12.0718798170
31
0.0000000000
11
-0.4714222312
21
11.9976155085
31
0.0000000000
11
-0.4730135063
21
11.9208506541
31
0.0000000000
11
-0.4607749154
21
11.7628078517
31
0.0000000000
0
SPLINE
5
23B
100
AcDbEntity
8
0
100
AcDbSpline
62
7
6
CONTINUOUS
70
0
71
3
72
8
73
4
74
2
42
0.0000001000
43
0.0000001000
44
0.0000000001
12
-0.0179741683
22
-0.0121899361
32
0.0000000000
13
-0.0188030519
23
-0.0108753854
33
0.0000000000
40
0.0000000000
40
0.0000000000
40
0.0000000000
40
0.0000000000
40
1.0000000000
40
1.0000000000
40
1.0000000000
40
1.0000000000
10
-0.1374905141
20
8.3538605360
30
0.0000000000
10
-0.1434819035
20
8.3497972240
30
0.0000000000
10
-0.1496194296
20
8.3459470972
30
0.0000000000
10
-0.1558871135
20
8.3423219688
30
0.0000000000
11
-0.1374905141
21
8.3538605360
31
0.0000000000
11
-0.1558871135
21
8.3423219688
31
0.0000000000
0
SPLINE
5
23C
100
AcDbEntity
8
0
100
AcDbSpline
62
7
6
CONTINUOUS
70
0
71
3
72
8
73
4
74
2
42
0.0000001000
43
0.0000001000
44
0.0000000001
12
-0.0087919296
22
-0.0050851119
32
0.0000000000
13
-0.0089577685
23
-0.0047863395
33
0.0000000000
40
0.0000000000
40
0.0000000000
40
0.0000000000
40
0.0000000000
40
1.0000000000
40
1.0000000000
40
1.0000000000
40
1.0000000000
10
-0.1558871135
20
8.3423219688
30
0.0000000000
10
-0.1588177567
20
8.3406269315
30
0.0000000000
10
-0.1617768565
20
8.3389810858
30
0.0000000000
10
-0.1647627793
20
8.3373856393
30
0.0000000000
11
-0.1558871135
21
8.3423219688
31
0.0000000000
11
-0.1647627793
21
8.3373856393
31
0.0000000000
0
SPLINE
5
23D
100
AcDbEntity
8
0
100
AcDbSpline
62
7
6
CONTINUOUS
70
0
71
3
72
9
73
5
74
3
42
0.0000001000
43
0.0000001000
44
0.0000000001
12
-0.0363183296
22
-0.0194057097
32
0.0000000000
13
-0.0386361490
23
-0.0141978093
33
0.0000000000
40
0.0000000000
40
0.0000000000
40
0.0000000000
40
0.0000000000
40
0.8780496674
40
1.0000000000
40
1.0000000000
40
1.0000000000
40
1.0000000000
10
-0.1647627793
20
8.3373856393
30
0.0000000000
10
-0.1753925450
20
8.3317059137
30
0.0000000000
10
-0.1878858057
20
8.3259647797
30
0.0000000000
10
-0.2007243994
20
8.3211227814
30
0.0000000000
10
-0.2022949631
20
8.3205456389
30
0.0000000000
11
-0.1647627793
21
8.3373856393
31
0.0000000000
11
-0.1975981936
21
8.3223171199
31
0.0000000000
11
-0.2022949631
21
8.3205456389
31
0.0000000000
0
SPLINE
5
23E
100
AcDbEntity
8
0
100
AcDbSpline
62
7
6
CONTINUOUS
70
0
71
3
72
8
73
4
74
2
42
0.0000001000
43
0.0000001000
44
0.0000000001
12
-0.0037506149
22
-0.0013782563
32
0.0000000000
13
-0.0037688502
23
-0.0013275828
33
0.0000000000
40
0.0000000000
40
0.0000000000
40
0.0000000000
40
0.0000000000
40
1.0000000000
40
1.0000000000
40
1.0000000000
40
1.0000000000
10
-0.2022949631
20
8.3205456389
30
0.0000000000
10
-0.2035451681
20
8.3200862202
30
0.0000000000
10
-0.2047984735
20
8.3196352548
30
0.0000000000
10
-0.2060547569
20
8.3191927272
30
0.0000000000
11
-0.2022949631
21
8.3205456389
31
0.0000000000
11
-0.2060547569
21
8.3191927272
31
0.0000000000
0
SPLINE
5
23F
100
AcDbEntity
8
0
100
AcDbSpline
62
7
6
CONTINUOUS
70
0
71
3
72
9
73
5
74
3
42
0.0000001000
43
0.0000001000
44
0.0000000001
12
-0.0834079147
22
-0.0293805548
32
0.0000000000
13
-0.0882236311
23
-0.0051546191
33
0.0000000000
40
0.0000000000
40
0.0000000000
40
0.0000000000
40
0.0000000000
40
0.8178487991
40
1.0000000000
40
1.0000000000
40
1.0000000000
40
1.0000000000
10
-0.2060547569
20
8.3191927272
30
0.0000000000
10
-0.2287931112
20
8.3111831101
30
0.0000000000
10
-0.2577886180
20
8.3047694350
30
0.0000000000
10
-0.2871571013
20
8.3023494635
30
0.0000000000
10
-0.2925137814
20
8.3020364902
30
0.0000000000
11
-0.2060547569
21
8.3191927272
31
0.0000000000
11
-0.2764704673
21
8.3033635723
31
0.0000000000
11
-0.2925137814
21
8.3020364902
31
0.0000000000
0
SPLINE
5
240
100
AcDbEntity
8
0
100
AcDbSpline
62
7
6
CONTINUOUS
70
0
71
3
72
8
73
4
74
2
42
0.0000001000
43
0.0000001000
44
0.0000000001
12
-0.0067140376
22
-0.0003922793
32
0.0000000000
13
-0.0067204153
23
-0.0002594254
33
0.0000000000
40
0.0000000000
40
0.0000000000
40
0.0000000000
40
0.0000000000
40
1.0000000000
40
1.0000000000
40
1.0000000000
40
1.0000000000
10
-0.2925137814
20
8.3020364902
30
0.0000000000
10
-0.2947517939
20
8.3019057304
30
0.0000000000
10
-0.2969910590
20
8.3017972836
30
0.0000000000
10
-0.2992311974
20
8.3017108084
30
0.0000000000
11
-0.2925137814
21
8.3020364902
31
0.0000000000
11
-0.2992311974
21
8.3017108084
31
0.0000000000
0
SPLINE
5
241
100
AcDbEntity
8
0
100
AcDbSpline
62
7
6
CONTINUOUS
70
0
71
3
72
8
73
4
74
2
42
0.0000001000
43
0.0000001000
44
0.0000000001
12
-0.0448610593
22
-0.0017317530
32
0.0000000000
13
-0.0447561889
23
0.0038380440
33
0.0000000000
40
0.0000000000
40
0.0000000000
40
0.0000000000
40
0.0000000000
40
1.0000000000
40
1.0000000000
40
1.0000000000
40
1.0000000000
10
-0.2992311974
20
8.3017108084
30
0.0000000000
10
-0.3141848839
20
8.3011335574
30
0.0000000000
10
-0.3291774872
20
8.3015353675
30
0.0000000000
10
-0.3440962169
20
8.3028147155
30
0.0000000000
11
-0.2992311974
21
8.3017108084
31
0.0000000000
11
-0.3440962169
21
8.3028147155
31
0.0000000000
0
SPLINE
5
242
100
AcDbEntity
8
0
100
AcDbSpline
62
7
6
CONTINUOUS
70
0
71
3
72
8
73
4
74
2
42
0.0000001000
43
0.0000001000
44
0.0000000001
12
-0.0039017022
22
0.0003345885
32
0.0000000000
13
-0.0038981094
23
0.0003744013
33
0.0000000000
40
0.0000000000
40
0.0000000000
40
0.0000000000
40
0.0000000000
40
1.0000000000
40
1.0000000000
40
1.0000000000
40
1.0000000000
10
-0.3440962169
20
8.3028147155
30
0.0000000000
10
-0.3453967843
20
8.3029262450
30
0.0000000000
10
-0.3466967902
20
8.3030444436
30
0.0000000000
10
-0.3479961600
20
8.3031692440
30
0.0000000000
11
-0.3440962169
21
8.3028147155
31
0.0000000000
11
-0.3479961600
21
8.3031692440
31
0.0000000000
0
SPLINE
5
243
100
AcDbEntity
8
0
100
AcDbSpline
62
7
6
CONTINUOUS
70
0
71
3
72
9
73
5
74
3
42
0.0000001000
43
0.0000001000
44
0.0000000001
12
-0.1053895920
22
0.0101223442
32
0.0000000000
13
-0.0996734536
23
0.0348612025
33
0.0000000000
40
0.0000000000
40
0.0000000000
40
0.0000000000
40
0.0000000000
40
0.1305896341
40
1.0000000000
40
1.0000000000
40
1.0000000000
40
1.0000000000
10
-0.3479961600
20
8.3031692440
30
0.0000000000
10
-0.3525837561
20
8.3036098684
30
0.0000000000
10
-0.3876528966
20
8.3076141589
30
0.0000000000
10
-0.4220641935
20
8.3162704848
30
0.0000000000
10
-0.4509499048
20
8.3263733818
30
0.0000000000
11
-0.3479961600
21
8.3031692440
31
0.0000000000
11
-0.3617318699
21
8.3047350403
31
0.0000000000
11
-0.4509499048
21
8.3263733818
31
0.0000000000
0
SPLINE
5
244
100
AcDbEntity
8
0
100
AcDbSpline
62
7
6
CONTINUOUS
70
0
71
3
72
9
73
5
74
3
42
0.0000001000
43
0.0000001000
44
0.0000000001
12
-0.0011230363
22
0.0380264844
32
0.0000000000
13
-0.0120118365
23
0.0361227665
33
0.0000000000
40
0.0000000000
40
0.0000000000
40
0.0000000000
40
0.0000000000
40
0.4976071392
40
1.0000000000
40
1.0000000000
40
1.0000000000
40
1.0000000000
10
-0.5286976820
20
-9.6798268362
30
0.0000000000
10
-0.5288839590
20
-9.6735194195
30
0.0000000000
10
-0.5303930261
20
-9.6608639836
30
0.0000000000
10
-0.5336598953
20
-9.6485770719
30
0.0000000000
10
-0.5356714489
20
-9.6425277985
30
0.0000000000
11
-0.5286976820
21
-9.6798268362
31
0.0000000000
11
-0.5308210585
21
-9.6610158003
31
0.0000000000
11
-0.5356714489
21
-9.6425277985
31
0.0000000000
0
SPLINE
5
245
100
AcDbEntity
8
0
100
AcDbSpline
62
7
6
CONTINUOUS
70
0
71
3
72
9
73
5
74
3
42
0.0000001000
43
0.0000001000
44
0.0000000001
12
-0.0023963787
22
0.0072065441
32
0.0000000000
13
-0.0027382413
23
0.0070837342
33
0.0000000000
40
0.0000000000
40
0.0000000000
40
0.0000000000
40
0.0000000000
40
0.0966576383
40
1.0000000000
40
1.0000000000
40
1.0000000000
40
1.0000000000
10
-0.5356714489
20
-9.6425277985
30
0.0000000000
10
-0.5357486583
20
-9.6422956094
30
0.0000000000
10
-0.5365530954
20
-9.6398953116
30
0.0000000000
10
-0.5374154814
20
-9.6375146869
30
0.0000000000
10
-0.5382400045
20
-9.6353816744
30
0.0000000000
11
-0.5356714489
21
-9.6425277985
31
0.0000000000
11
-0.5359047097
21
-9.6418317789
31
0.0000000000
11
-0.5382400045
21
-9.6353816744
31
0.0000000000
0
SPLINE
5
246
100
AcDbEntity
8
0
100
AcDbSpline
62
7
6
CONTINUOUS
70
0
71
3
72
8
73
4
74
2
42
0.0000001000
43
0.0000001000
44
0.0000000001
12
-0.0019987149
22
0.0051706054
32
0.0000000000
13
-0.0021740925
23
0.0050997231
33
0.0000000000
40
0.0000000000
40
0.0000000000
40
0.0000000000
40
0.0000000000
40
1.0000000000
40
1.0000000000
40
1.0000000000
40
1.0000000000
10
-0.5382400045
20
-9.6353816744
30
0.0000000000
10
-0.5389062428
20
-9.6336581393
30
0.0000000000
10
-0.5396021841
20
-9.6319460346
30
0.0000000000
10
-0.5403268816
20
-9.6302461269
30
0.0000000000
11
-0.5382400045
21
-9.6353816744
31
0.0000000000
11
-0.5403268816
21
-9.6302461269
31
0.0000000000
0
SPLINE
5
247
100
AcDbEntity
8
0
100
AcDbSpline
62
7
6
CONTINUOUS
70
0
71
3
72
8
73
4
74
2
42
0.0000001000
43
0.0000001000
44
0.0000000001
12
-0.0029155346
22
0.0068389084
32
0.0000000000
13
-0.0032189708
23
0.0067017525
33
0.0000000000
40
0.0000000000
40
0.0000000000
40
0.0000000000
40
0.0000000000
40
1.0000000000
40
1.0000000000
40
1.0000000000
40
1.0000000000
10
-0.5403268816
20
-9.6302461269
30
0.0000000000
10
-0.5412987265
20
-9.6279664907
30
0.0000000000
10
-0.5423222858
20
-9.6257087895
30
0.0000000000
10
-0.5433952761
20
-9.6234748720
30
0.0000000000
11
-0.5403268816
21
-9.6302461269
31
0.0000000000
11
-0.5433952761
21
-9.6234748720
31
0.0000000000
0
SPLINE
5
248
100
AcDbEntity
8
0
100
AcDbSpline
62
7
6
CONTINUOUS
70
0
71
3
72
9
73
5
74
3
42
0.0000001000
43
0.0000001000
44
0.0000000001
12
-0.0030013020
22
0.0062485759
32
0.0000000000
13
-0.0032558645
23
0.0061193605
33
0.0000000000
40
0.0000000000
40
0.0000000000
40
0.0000000000
40
0.0000000000
40
0.1536075306
40
1.0000000000
40
1.0000000000
40
1.0000000000
40
1.0000000000
10
-0.5433952761
20
-9.6234748720
30
0.0000000000
10
-0.5435489503
20
-9.6231549292
30
0.0000000000
10
-0.5445559851
20
-9.6210752465
30
0.0000000000
10
-0.5456057075
20
-9.6190164701
30
0.0000000000
10
-0.5465242872
20
-9.6172900098
30
0.0000000000
11
-0.5433952761
21
-9.6234748720
31
0.0000000000
11
-0.5438593338
21
-9.6225165126
31
0.0000000000
11
-0.5465242872
21
-9.6172900098
31
0.0000000000
0
SPLINE
5
249
100
AcDbEntity
8
0
100
AcDbSpline
62
7
6
CONTINUOUS
70
0
71
3
72
8
73
4
74
2
42
0.0000001000
43
0.0000001000
44
0.0000000001
12
-0.0031090001
22
0.0058433306
32
0.0000000000
13
-0.0033368316
23
0.0057158642
33
0.0000000000
40
0.0000000000
40
0.0000000000
40
0.0000000000
40
0.0000000000
40
1.0000000000
40
1.0000000000
40
1.0000000000
40
1.0000000000
10
-0.5465242872
20
-9.6172900098
30
0.0000000000
10
-0.5475606206
20
-9.6153422330
30
0.0000000000
10
-0.5486352690
20
-9.6134149137
30
0.0000000000
10
-0.5497475462
20
-9.6115096256
30
0.0000000000
11
-0.5465242872
21
-9.6172900098
31
0.0000000000
11
-0.5497475462
21
-9.6115096256
31
0.0000000000
0
SPLINE
5
24A
100
AcDbEntity
8
0
100
AcDbSpline
62
7
6
CONTINUOUS
70
0
71
3
72
8
73
4
74
2
42
0.0000001000
43
0.0000001000
44
0.0000000001
12
-0.0034964582
22
0.0059892983
32
0.0000000000
13
-0.0037419796
23
0.0058387296
33
0.0000000000
40
0.0000000000
40
0.0000000000
40
0.0000000000
40
0.0000000000
40
1.0000000000
40
1.0000000000
40
1.0000000000
40
1.0000000000
10
-0.5497475462
20
-9.6115096256
30
0.0000000000
10
-0.5509130323
20
-9.6095131928
30
0.0000000000
10
-0.5521198334
20
-9.6075409496
30
0.0000000000
10
-0.5533671599
20
-9.6055947064
30
0.0000000000
11
-0.5497475462
21
-9.6115096256
31
0.0000000000
11
-0.5533671599
21
-9.6055947064
31
0.0000000000
0
SPLINE
5
24B
100
AcDbEntity
8
0
100
AcDbSpline
62
7
6
CONTINUOUS
70
0
71
3
72
10
73
6
74
4
42
0.0000001000
43
0.0000001000
44
0.0000000001
12
-0.0223991298
22
0.0349500732
32
0.0000000000
13
-0.0311785031
23
0.0273691431
33
0.0000000000
40
0.0000000000
40
0.0000000000
40
0.0000000000
40
0.0000000000
40
0.0392056481
40
0.5271714576
40
1.0000000000
40
1.0000000000
40
1.0000000000
40
1.0000000000
10
-0.5533671599
20
-9.6055947064
30
0.0000000000
10
-0.5536598841
20
-9.6051379596
30
0.0000000000
10
-0.5576259562
20
-9.5990156538
30
0.0000000000
10
-0.5659112518
20
-9.5879012973
30
0.0000000000
10
-0.5752231417
20
-9.5783484711
30
0.0000000000
10
-0.5801371705
20
-9.5740348338
30
0.0000000000
11
-0.5533671599
21
-9.6055947064
31
0.0000000000
11
-0.5542520180
21
-9.6042287854
31
0.0000000000
11
-0.5663852544
21
-9.5880234407
31
0.0000000000
11
-0.5801371705
21
-9.5740348338
31
0.0000000000
0
SPLINE
5
24C
100
AcDbEntity
8
0
100
AcDbSpline
62
7
6
CONTINUOUS
70
0
71
3
72
8
73
4
74
2
42
0.0000001000
43
0.0000001000
44
0.0000000001
12
-0.0306598400
22
0.4209982761
32
0.0000000000
13
-0.0285885856
23
0.4211475071
33
0.0000000000
40
0.0000000000
40
0.0000000000
40
0.0000000000
40
0.0000000000
40
1.0000000000
40
1.0000000000
40
1.0000000000
40
1.0000000000
10
-0.3340728447
20
-13.5113982801
30
0.0000000000
10
-0.3442927913
20
-13.3710655214
30
0.0000000000
10
-0.3541663171
20
-13.2307068021
30
0.0000000000
10
-0.3636958456
20
-13.0903242997
30
0.0000000000
11
-0.3340728447
21
-13.5113982801
31
0.0000000000
11
-0.3636958456
21
-13.0903242997
31
0.0000000000
0
SPLINE
5
24D
100
AcDbEntity
8
0
100
AcDbSpline
62
7
6
CONTINUOUS
70
0
71
3
72
10
73
6
74
4
42
0.0000001000
43
0.0000001000
44
0.0000000001
12
-0.2250122967
22
3.3147273918
32
0.0000000000
13
-0.1006369038
23
3.3208108273
33
0.0000000000
40
0.0000000000
40
0.0000000000
40
0.0000000000
40
0.0000000000
40
0.2550591434
40
0.6400151394
40
1.0000000000
40
1.0000000000
40
1.0000000000
40
1.0000000000
10
-0.3636958456
20
-13.0903242997
30
0.0000000000
10
-0.3828263268
20
-12.8085071234
30
0.0000000000
10
-0.4273514157
20
-12.1011080458
30
0.0000000000
10
-0.4834744513
20
-10.9950535022
30
0.0000000000
10
-0.5138714635
20
-10.1706040248
30
0.0000000000
10
-0.5259473841
20
-9.7721234838
30
0.0000000000
11
-0.3636958456
21
-13.0903242997
31
0.0000000000
11
-0.4169479341
21
-12.2446028471
31
0.0000000000
11
-0.4818286097
21
-10.9672994066
31
0.0000000000
11
-0.5259473841
21
-9.7721234838
31
0.0000000000
0
SPLINE
5
24E
100
AcDbEntity
8
0
100
AcDbSpline
62
7
6
CONTINUOUS
70
0
71
3
72
8
73
4
74
2
42
0.0000001000
43
0.0000001000
44
0.0000000001
12
-0.0027970030
22
0.0922953450
32
0.0000000000
13
-0.0027036171
23
0.0922979301
33
0.0000000000
40
0.0000000000
40
0.0000000000
40
0.0000000000
40
0.0000000000
40
1.0000000000
40
1.0000000000
40
1.0000000000
40
1.0000000000
10
-0.5259473841
20
-9.7721234838
30
0.0000000000
10
-0.5268797184
20
-9.7413583688
30
0.0000000000
10
-0.5277964765
20
-9.7105928129
30
0.0000000000
10
-0.5286976822
20
-9.6798268362
30
0.0000000000
11
-0.5259473841
21
-9.7721234838
31
0.0000000000
11
-0.5286976822
21
-9.6798268362
31
0.0000000000
0
SPLINE
5
24F
100
AcDbEntity
8
0
100
AcDbSpline
62
7
6
CONTINUOUS
70
0
71
3
72
10
73
6
74
4
42
0.0000001000
43
0.0000001000
44
0.0000000001
12
-0.0277669899
22
0.0031978545
32
0.0000000000
13
-0.0232123917
23
-0.0157754913
33
0.0000000000
40
0.0000000000
40
0.0000000000
40
0.0000000000
40
0.0000000000
40
0.4849532725
40
0.9304235617
40
1.0000000000
40
1.0000000000
40
1.0000000000
40
1.0000000000
10
-1.0121560579
20
-9.3580339464
30
0.0000000000
10
-1.0166446221
20
-9.3575170098
30
0.0000000000
10
-1.0254798247
20
-9.3576813078
30
0.0000000000
10
-1.0343753614
20
-9.3610399021
30
0.0000000000
10
-1.0384344267
20
-9.3636379027
30
0.0000000000
10
-1.0389727719
20
-9.3640037702
30
0.0000000000
11
-1.0121560579
21
-9.3580339464
31
0.0000000000
11
-1.0257030011
21
-9.3584925846
31
0.0000000000
11
-1.0373282319
21
-9.3629518301
31
0.0000000000
11
-1.0389727719
21
-9.3640037702
31
0.0000000000
0
SPLINE
5
250
100
AcDbEntity
8
0
100
AcDbSpline
62
7
6
CONTINUOUS
70
0
71
3
72
9
73
5
74
3
42
0.0000001000
43
0.0000001000
44
0.0000000001
12
-0.1345276969
22
0.1180905674
32
0.0000000000
13
-0.1518678054
23
0.0948657922
33
0.0000000000
40
0.0000000000
40
0.0000000000
40
0.0000000000
40
0.0000000000
40
0.5122063642
40
1.0000000000
40
1.0000000000
40
1.0000000000
40
1.0000000000
10
-0.5801374814
20
-9.5740346633
30
0.0000000000
10
-0.6031061289
20
-9.5538724166
30
0.0000000000
10
-0.6494123860
20
-9.5161306290
30
0.0000000000
10
-0.6986018532
20
-9.4822368729
30
0.0000000000
10
-0.7232952362
20
-9.4668118964
30
0.0000000000
11
-0.5801374814
21
-9.5740346633
31
0.0000000000
11
-0.6512992737
21
-9.5162188007
31
0.0000000000
11
-0.7232952362
21
-9.4668118964
31
0.0000000000
0
SPLINE
5
251
100
AcDbEntity
8
0
100
AcDbSpline
62
7
6
CONTINUOUS
70
0
71
3
72
9
73
5
74
3
42
0.0000001000
43
0.0000001000
44
0.0000000001
12
-0.1317185243
22
0.0822793358
32
0.0000000000
13
-0.1446702498
23
0.0565271489
33
0.0000000000
40
0.0000000000
40
0.0000000000
40
0.0000000000
40
0.0000000000
40
0.5457310104
40
1.0000000000
40
1.0000000000
40
1.0000000000
40
1.0000000000
10
-0.7232952362
20
-9.4668118964
30
0.0000000000
10
-0.7472561973
20
-9.4518444347
30
0.0000000000
10
-0.7923686732
20
-9.4263293706
30
0.0000000000
10
-0.8396654351
20
-9.4051244383
30
0.0000000000
10
-0.8615718378
20
-9.3965649280
30
0.0000000000
11
-0.7232952362
21
-9.4668118964
31
0.0000000000
11
-0.7971452806
21
-9.4252793648
31
0.0000000000
11
-0.8615718378
21
-9.3965649280
31
0.0000000000
0
SPLINE
5
252
100
AcDbEntity
8
0
100
AcDbSpline
62
7
6
CONTINUOUS
70
0
71
3
72
8
73
4
74
2
42
0.0000001000
43
0.0000001000
44
0.0000000001
12
-0.0080848881
22
0.0031590163
32
0.0000000000
13
-0.0081229465
23
0.0030605337
33
0.0000000000
40
0.0000000000
40
0.0000000000
40
0.0000000000
40
0.0000000000
40
1.0000000000
40
1.0000000000
40
1.0000000000
40
1.0000000000
10
-0.8615718378
20
-9.3965649280
30
0.0000000000
10
-0.8642668005
20
-9.3955119226
30
0.0000000000
10
-0.8669681340
20
-9.3944751599
30
0.0000000000
10
-0.8696757828
20
-9.3934549820
30
0.0000000000
11
-0.8615718378
21
-9.3965649280
31
0.0000000000
11
-0.8696757828
21
-9.3934549820
31
0.0000000000
0
SPLINE
5
253
100
AcDbEntity
8
0
100
AcDbSpline
62
7
6
CONTINUOUS
70
0
71
3
72
8
73
4
74
2
42
0.0000001000
43
0.0000001000
44
0.0000000001
12
-0.0165856701
22
0.0062490874
32
0.0000000000
13
-0.0167408620
23
0.0058233105
33
0.0000000000
40
0.0000000000
40
0.0000000000
40
0.0000000000
40
0.0000000000
40
1.0000000000
40
1.0000000000
40
1.0000000000
40
1.0000000000
10
-0.8696757828
20
-9.3934549820
30
0.0000000000
10
-0.8752043396
20
-9.3913719528
30
0.0000000000
10
-0.8807592456
20
-9.3893580347
30
0.0000000000
10
-0.8863395329
20
-9.3874169312
30
0.0000000000
11
-0.8696757828
21
-9.3934549820
31
0.0000000000
11
-0.8863395329
21
-9.3874169312
31
0.0000000000
0
SPLINE
5
254
100
AcDbEntity
8
0
100
AcDbSpline
62
7
6
CONTINUOUS
70
0
71
3
72
9
73
5
74
3
42
0.0000001000
43
0.0000001000
44
0.0000000001
12
-0.0771875433
22
0.0268496944
32
0.0000000000
13
-0.0800915486
23
0.0164526464
33
0.0000000000
40
0.0000000000
40
0.0000000000
40
0.0000000000
40
0.0000000000
40
0.7122766648
40
1.0000000000
40
1.0000000000
40
1.0000000000
40
1.0000000000
10
-0.8863395329
20
-9.3874169312
30
0.0000000000
10
-0.9046658282
20
-9.3810421277
30
0.0000000000
10
-0.9307793231
20
-9.3731948219
30
0.0000000000
10
-0.9573645953
20
-9.3671543895
30
0.0000000000
10
-0.9650459978
20
-9.3655764527
30
0.0000000000
11
-0.8863395329
21
-9.3874169312
31
0.0000000000
11
-0.9421052449
21
-9.3707799177
31
0.0000000000
11
-0.9650459978
21
-9.3655764527
31
0.0000000000
0
SPLINE
5
255
100
AcDbEntity
8
0
100
AcDbSpline
62
7
6
CONTINUOUS
70
0
71
3
72
8
73
4
74
2
42
0.0000001000
43
0.0000001000
44
0.0000000001
12
-0.0467694851
22
0.0096075281
32
0.0000000000
13
-0.0473933143
23
0.0053900820
33
0.0000000000
40
0.0000000000
40
0.0000000000
40
0.0000000000
40
0.0000000000
40
1.0000000000
40
1.0000000000
40
1.0000000000
40
1.0000000000
10
-0.9650459978
20
-9.3655764527
30
0.0000000000
10
-0.9806358261
20
-9.3623739434
30
0.0000000000
10
-0.9963582865
20
-9.3598306397
30
0.0000000000
10
-1.0121560579
20
-9.3580339457
30
0.0000000000
11
-0.9650459978
21
-9.3655764527
31
0.0000000000
11
-1.0121560579
21
-9.3580339457
31
0.0000000000
0
SPLINE
5
256
100
AcDbEntity
8
0
100
AcDbSpline
62
7
6
CONTINUOUS
70
0
71
3
72
8
73
4
74
2
42
0.0000001000
43
0.0000001000
44
0.0000000001
12
-0.0161642102
22
0.1035714860
32
0.0000000000
13
-0.0215001703
23
0.1026484559
33
0.0000000000
40
0.0000000000
40
0.0000000000
40
0.0000000000
40
0.0000000000
40
1.0000000000
40
1.0000000000
40
1.0000000000
40
1.0000000000
10
0.5463303102
20
10.8377135652
30
0.0000000000
10
0.5409422402
20
10.8722373938
30
0.0000000000
10
0.5346427341
20
10.9066299636
30
0.0000000000
10
0.5274760107
20
10.9408461156
30
0.0000000000
11
0.5463303102
21
10.8377135652
31
0.0000000000
11
0.5274760107
21
10.9408461156
31
0.0000000000
0
SPLINE
5
257
100
AcDbEntity
8
0
100
AcDbSpline
62
7
6
CONTINUOUS
70
0
71
3
72
8
73
4
74
2
42
0.0000001000
43
0.0000001000
44
0.0000000001
12
-0.0723746997
22
0.0551177579
32
0.0000000000
13
-0.0759349545
23
0.0499594978
33
0.0000000000
40
0.0000000000
40
0.0000000000
40
0.0000000000
40
0.0000000000
40
1.0000000000
40
1.0000000000
40
1.0000000000
40
1.0000000000
10
-0.1735062409
20
12.1161728425
30
0.0000000000
10
-0.1976311408
20
12.1345454285
30
0.0000000000
10
-0.2223539892
20
12.1521175288
30
0.0000000000
10
-0.2476656408
20
12.1687706947
30
0.0000000000
11
-0.1735062409
21
12.1161728425
31
0.0000000000
11
-0.2476656408
21
12.1687706947
31
0.0000000000
0
SPLINE
5
258
100
AcDbEntity
8
0
100
AcDbSpline
62
7
6
CONTINUOUS
70
0
71
3
72
8
73
4
74
2
42
0.0000001000
43
0.0000001000
44
0.0000000001
12
0.0706902264
22
0.2540214959
32
0.0000000000
13
0.0559138097
23
0.2577429563
33
0.0000000000
40
0.0000000000
40
0.0000000000
40
0.0000000000
40
0.0000000000
40
1.0000000000
40
1.0000000000
40
1.0000000000
40
1.0000000000
10
0.4531872246
20
8.2083559063
30
0.0000000000
10
0.4767506334
20
8.2930297383
30
0.0000000000
10
0.4977572062
20
8.3784355556
30
0.0000000000
10
0.5163951427
20
8.4643498744
30
0.0000000000
11
0.4531872246
21
8.2083559063
31
0.0000000000
11
0.5163951427
21
8.4643498744
31
0.0000000000
0
SPLINE
5
259
100
AcDbEntity
8
0
100
AcDbSpline
62
7
6
CONTINUOUS
70
0
71
3
72
15
73
11
74
9
42
0.0000001000
43
0.0000001000
44
0.0000000001
12
0.4380398737
22
2.0192094339
32
0.0000000000
13
-0.2369488222
23
2.0522730373
33
0.0000000000
40
0.0000000000
40
0.0000000000
40
0.0000000000
40
0.0000000000
40
0.0168566482
40
0.1663515985
40
0.3206659205
40
0.4796038697
40
0.6429002825
40
0.8102195616
40
0.9811762904
40
1.0000000000
40
1.0000000000
40
1.0000000000
40
1.0000000000
10
0.5163951427
20
8.4643498744
30
0.0000000000
10
0.5188564374
20
8.4756955754
30
0.0000000000
10
0.5427383335
20
8.5877493288
30
0.0000000000
10
0.5811006486
20
8.8053167490
30
0.0000000000
10
0.6179944178
20
9.1219770765
30
0.0000000000
10
0.6380075055
20
9.4496531130
30
0.0000000000
10
0.6410664816
20
9.7868690813
30
0.0000000000
10
0.6271536972
20
10.1320859556
30
0.0000000000
10
0.6056633553
20
10.3771132423
30
0.0000000000
10
0.5909942340
20
10.5069771797
30
0.0000000000
10
0.5895074820
20
10.5198543102
30
0.0000000000
11
0.5163951427
21
8.4643498744
31
0.0000000000
11
0.5236555374
21
8.4984130666
31
0.0000000000
11
0.5775885670
21
8.8024749228
31
0.0000000000
11
0.6147574787
21
9.1190637552
31
0.0000000000
11
0.6350220834
21
9.4467519334
31
0.0000000000
11
0.6383001457
21
9.7840533482
31
0.0000000000
11
0.6245697014
21
10.1294077898
31
0.0000000000
11
0.5938722448
21
10.4812121104
31
0.0000000000
11
0.5895074820
21
10.5198543102
31
0.0000000000
0
SPLINE
5
25A
100
AcDbEntity
8
0
100
AcDbSpline
62
7
6
CONTINUOUS
70
0
71
3
72
8
73
4
74
2
42
0.0000001000
43
0.0000001000
44
0.0000000001
12
-0.0367952255
22
0.3186926546
32
0.0000000000
13
-0.0494548752
23
0.3169385914
33
0.0000000000
40
0.0000000000
40
0.0000000000
40
0.0000000000
40
0.0000000000
40
1.0000000000
40
1.0000000000
40
1.0000000000
40
1.0000000000
10
0.5895074820
20
10.5198543102
30
0.0000000000
10
0.5772424069
20
10.6260851951
30
0.0000000000
10
0.5628152686
20
10.7320673680
30
0.0000000000
10
0.5463303102
20
10.8377135652
30
0.0000000000
11
0.5895074820
21
10.5198543102
31
0.0000000000
11
0.5463303102
21
10.8377135652
31
0.0000000000
0
SPLINE
5
25B
100
AcDbEntity
8
0
100
AcDbSpline
62
7
6
CONTINUOUS
70
0
71
3
72
8
73
4
74
2
42
0.0000001000
43
0.0000001000
44
0.0000000001
12
0.0249831152
22
0.0094112745
32
0.0000000000
13
0.0245227616
23
0.0106399059
33
0.0000000000
40
0.0000000000
40
0.0000000000
40
0.0000000000
40
0.0000000000
40
1.0000000000
40
1.0000000000
40
1.0000000000
40
1.0000000000
10
0.0591048192
20
7.7257366094
30
0.0000000000
10
0.0674325243
20
7.7288737009
30
0.0000000000
10
0.0756890598
20
7.7322186118
30
0.0000000000
10
0.0838633137
20
7.7357652471
30
0.0000000000
11
0.0591048192
21
7.7257366094
31
0.0000000000
11
0.0838633137
21
7.7357652471
31
0.0000000000
0
SPLINE
5
25C
100
AcDbEntity
8
0
100
AcDbSpline
62
7
6
CONTINUOUS
70
0
71
3
72
8
73
4
74
2
42
0.0000001000
43
0.0000001000
44
0.0000000001
12
0.0274796663
22
0.0119228441
32
0.0000000000
13
0.0268128339
23
0.0134169403
33
0.0000000000
40
0.0000000000
40
0.0000000000
40
0.0000000000
40
0.0000000000
40
1.0000000000
40
1.0000000000
40
1.0000000000
40
1.0000000000
10
0.0838633137
20
7.7357652471
30
0.0000000000
10
0.0930232025
20
7.7397395285
30
0.0000000000
10
0.1020797705
20
7.7439671141
30
0.0000000000
10
0.1110173818
20
7.7484394275
30
0.0000000000
11
0.0838633137
21
7.7357652471
31
0.0000000000
11
0.1110173818
21
7.7484394275
31
0.0000000000
0
SPLINE
5
25D
100
AcDbEntity
8
0
100
AcDbSpline
62
7
6
CONTINUOUS
70
0
71
3
72
12
73
8
74
6
42
0.0000001000
43
0.0000001000
44
0.0000000001
12
0.5284845224
22
0.2644496779
32
0.0000000000
13
0.1580837441
23
0.5680629636
33
0.0000000000
40
0.0000000000
40
0.0000000000
40
0.0000000000
40
0.0000000000
40
0.1010976134
40
0.3071433344
40
0.5250449403
40
0.7565098676
40
1.0000000000
40
1.0000000000
40
1.0000000000
40
1.0000000000
10
0.1110173818
20
7.7484394275
30
0.0000000000
10
0.1288268898
20
7.7573511713
30
0.0000000000
10
0.1814987284
20
7.7873780144
30
0.0000000000
10
0.2621338564
20
7.8529686604
30
0.0000000000
10
0.3439149177
20
7.9535892782
30
0.0000000000
10
0.4092594163
20
8.0738109428
30
0.0000000000
10
0.4403567472
20
8.1622499606
30
0.0000000000
10
0.4531873578
20
8.2083558693
30
0.0000000000
11
0.1110173818
21
7.7484394275
31
0.0000000000
11
0.1629051877
21
7.7780219824
31
0.0000000000
11
0.2574290226
21
7.8543515087
31
0.0000000000
11
0.3390033693
21
7.9536195383
31
0.0000000000
11
0.4048723683
21
8.0731557374
31
0.0000000000
11
0.4531873578
21
8.2083558693
31
0.0000000000
0
SPLINE
5
25E
100
AcDbEntity
8
0
100
AcDbSpline
62
7
6
CONTINUOUS
70
0
71
3
72
8
73
4
74
2
42
0.0000001000
43
0.0000001000
44
0.0000000001
12
-0.0743871318
22
0.0256587904
32
0.0000000000
13
-0.0765247122
23
0.0188628647
33
0.0000000000
40
0.0000000000
40
0.0000000000
40
0.0000000000
40
0.0000000000
40
1.0000000000
40
1.0000000000
40
1.0000000000
40
1.0000000000
10
-1.0884070900
20
12.5891571966
30
0.0000000000
10
-1.1132028006
20
12.5977101268
30
0.0000000000
10
-1.1384057785
20
12.6052083908
30
0.0000000000
10
-1.1639140159
20
12.6114960123
30
0.0000000000
11
-1.0884070900
21
12.5891571966
31
0.0000000000
11
-1.1639140159
21
12.6114960123
31
0.0000000000
0
SPLINE
5
25F
100
AcDbEntity
8
0
100
AcDbSpline
62
7
6
CONTINUOUS
70
0
71
3
72
12
73
8
74
6
42
0.0000001000
43
0.0000001000
44
0.0000000001
12
-0.5116895689
22
0.1261282900
32
0.0000000000
13
-0.4435781090
23
-0.2849506636
33
0.0000000000
40
0.0000000000
40
0.0000000000
40
0.0000000000
40
0.0000000000
40
0.1367056751
40
0.4072359519
40
0.6667513171
40
0.9221645129
40
1.0000000000
40
1.0000000000
40
1.0000000000
40
1.0000000000
10
-1.1639140159
20
12.6114960123
30
0.0000000000
10
-1.1872309719
20
12.6172434967
30
0.0000000000
10
-1.2574502562
20
12.6313514111
30
0.0000000000
10
-1.3749913765
20
12.6380216161
30
0.0000000000
10
-1.5121632756
20
12.6160805083
30
0.0000000000
10
-1.6092577709
20
12.5763988289
30
0.0000000000
10
-1.6596025451
20
12.5464192512
30
0.0000000000
10
-1.6711112512
20
12.5390261599
30
0.0000000000
11
-1.1639140159
21
12.6114960123
31
0.0000000000
11
-1.2345521682
21
12.6255846028
31
0.0000000000
11
-1.3767053480
21
12.6328934561
31
0.0000000000
11
-1.5114619453
21
12.6108638322
31
0.0000000000
11
-1.6358535417
21
12.5600051953
31
0.0000000000
11
-1.6711112512
21
12.5390261599
31
0.0000000000
0
SPLINE
5
260
100
AcDbEntity
8
0
100
AcDbSpline
62
7
6
CONTINUOUS
70
0
71
3
72
8
73
4
74
2
42
0.0000001000
43
0.0000001000
44
0.0000000001
12
-0.0129572743
22
-0.0083236387
32
0.0000000000
13
-0.0127429470
23
-0.0086495866
33
0.0000000000
40
0.0000000000
40
0.0000000000
40
0.0000000000
40
0.0000000000
40
1.0000000000
40
1.0000000000
40
1.0000000000
40
1.0000000000
10
-1.6711112512
20
12.5390261599
30
0.0000000000
10
-1.6754303426
20
12.5362516137
30
0.0000000000
10
-1.6797142081
20
12.5334220141
30
0.0000000000
10
-1.6839618571
20
12.5305388186
30
0.0000000000
11
-1.6711112512
21
12.5390261599
31
0.0000000000
11
-1.6839618571
21
12.5305388186
31
0.0000000000
0
SPLINE
5
261
100
AcDbEntity
8
0
100
AcDbSpline
62
7
6
CONTINUOUS
70
0
71
3
72
8
73
4
74
2
42
0.0000001000
43
0.0000001000
44
0.0000000001
12
-0.0165411883
22
0.0063827068
32
0.0000000000
13
-0.0165749597
23
0.0062949997
33
0.0000000000
40
0.0000000000
40
0.0000000000
40
0.0000000000
40
0.0000000000
40
1.0000000000
40
1.0000000000
40
1.0000000000
40
1.0000000000
10
-0.9767500119
20
12.5483617456
30
0.0000000000
10
-0.9822637414
20
12.5504893145
30
0.0000000000
10
-0.9877831259
20
12.5526023290
30
0.0000000000
10
-0.9933081125
20
12.5547006622
30
0.0000000000
11
-0.9767500119
21
12.5483617456
31
0.0000000000
11
-0.9933081125
21
12.5547006622
31
0.0000000000
0
SPLINE
5
262
100
AcDbEntity
8
0
100
AcDbSpline
62
7
6
CONTINUOUS
70
0
71
3
72
8
73
4
74
2
42
0.0000001000
43
0.0000001000
44
0.0000000001
12
-0.0041144120
22
0.0015626115
32
0.0000000000
13
-0.0041164806
23
0.0015571779
33
0.0000000000
40
0.0000000000
40
0.0000000000
40
0.0000000000
40
0.0000000000
40
1.0000000000
40
1.0000000000
40
1.0000000000
40
1.0000000000
10
-0.9933081125
20
12.5547006622
30
0.0000000000
10
-0.9946795832
20
12.5552215327
30
0.0000000000
10
-0.9960513990
20
12.5557414986
30
0.0000000000
10
-0.9974235592
20
12.5562605579
30
0.0000000000
11
-0.9933081125
21
12.5547006622
31
0.0000000000
11
-0.9974235592
21
12.5562605579
31
0.0000000000
0
SPLINE
5
263
100
AcDbEntity
8
0
100
AcDbSpline
62
7
6
CONTINUOUS
70
0
71
3
72
8
73
4
74
2
42
0.0000001000
43
0.0000001000
44
0.0000000001
12
-0.0330366208
22
0.0124970574
32
0.0000000000
13
-0.0331684401
23
0.0121437084
33
0.0000000000
40
0.0000000000
40
0.0000000000
40
0.0000000000
40
0.0000000000
40
1.0000000000
40
1.0000000000
40
1.0000000000
40
1.0000000000
10
-0.9974235592
20
12.5562605579
30
0.0000000000
10
-1.0084357662
20
12.5604262436
30
0.0000000000
10
-1.0194701533
20
12.5645335390
30
0.0000000000
10
-1.0305263000
20
12.5685814418
30
0.0000000000
11
-0.9974235592
21
12.5562605579
31
0.0000000000
11
-1.0305263000
21
12.5685814418
31
0.0000000000
0
SPLINE
5
264
100
AcDbEntity
8
0
100
AcDbSpline
62
7
6
CONTINUOUS
70
0
71
3
72
9
73
5
74
3
42
0.0000001000
43
0.0000001000
44
0.0000000001
12
-0.0041323372
22
0.0015129411
32
0.0000000000
13
-0.0041343611
23
0.0015074040
33
0.0000000000
40
0.0000000000
40
0.0000000000
40
0.0000000000
40
0.0000000000
40
0.4999907446
40
1.0000000000
40
1.0000000000
40
1.0000000000
40
1.0000000000
10
-1.0305263000
20
12.5685814418
30
0.0000000000
10
-1.0312150101
20
12.5688335940
30
0.0000000000
10
-1.0325926247
20
12.5693374468
30
0.0000000000
10
-1.0339705766
20
12.5698403767
30
0.0000000000
10
-1.0346596495
20
12.5700916154
30
0.0000000000
11
-1.0305263000
21
12.5685814418
31
0.0000000000
11
-1.0325926835
21
12.5693372067
31
0.0000000000
11
-1.0346596495
21
12.5700916154
31
0.0000000000
0
SPLINE
5
265
100
AcDbEntity
8
0
100
AcDbSpline
62
7
6
CONTINUOUS
70
0
71
3
72
8
73
4
74
2
42
0.0000001000
43
0.0000001000
44
0.0000000001
12
-0.0165224932
22
0.0060241648
32
0.0000000000
13
-0.0165546014
23
0.0059352587
33
0.0000000000
40
0.0000000000
40
0.0000000000
40
0.0000000000
40
0.0000000000
40
1.0000000000
40
1.0000000000
40
1.0000000000
40
1.0000000000
10
-1.0346596495
20
12.5700916154
30
0.0000000000
10
-1.0401671473
20
12.5720996703
30
0.0000000000
10
-1.0456800255
20
12.5740929706
30
0.0000000000
10
-1.0511982259
20
12.5760713902
30
0.0000000000
11
-1.0346596495
21
12.5700916154
31
0.0000000000
11
-1.0511982259
21
12.5760713902
31
0.0000000000
0
SPLINE
5
266
100
AcDbEntity
8
0
100
AcDbSpline
62
7
6
CONTINUOUS
70
0
71
3
72
8
73
4
74
2
42
0.0000001000
43
0.0000001000
44
0.0000000001
12
-0.0165181835
22
0.0059222019
32
0.0000000000
13
-0.0165498036
23
0.0058329342
33
0.0000000000
40
0.0000000000
40
0.0000000000
40
0.0000000000
40
0.0000000000
40
1.0000000000
40
1.0000000000
40
1.0000000000
40
1.0000000000
10
-1.0511982259
20
12.5760713902
30
0.0000000000
10
-1.0567042871
20
12.5780454575
30
0.0000000000
10
-1.0622156472
20
12.5800047094
30
0.0000000000
10
-1.0677322484
20
12.5819490208
30
0.0000000000
11
-1.0511982259
21
12.5760713902
31
0.0000000000
11
-1.0677322484
21
12.5819490208
31
0.0000000000
0
SPLINE
5
267
100
AcDbEntity
8
0
100
AcDbSpline
62
7
6
CONTINUOUS
70
0
71
3
72
8
73
4
74
2
42
0.0000001000
43
0.0000001000
44
0.0000000001
12
-0.0041430535
22
0.0014602082
32
0.0000000000
13
-0.0041450215
23
0.0014545844
33
0.0000000000
40
0.0000000000
40
0.0000000000
40
0.0000000000
40
0.0000000000
40
1.0000000000
40
1.0000000000
40
1.0000000000
40
1.0000000000
10
-1.0677322484
20
12.5819490208
30
0.0000000000
10
-1.0691132662
20
12.5824357569
30
0.0000000000
10
-1.0704946125
20
12.5829215566
30
0.0000000000
10
-1.0718762863
20
12.5834064181
30
0.0000000000
11
-1.0677322484
21
12.5819490208
31
0.0000000000
11
-1.0718762863
21
12.5834064181
31
0.0000000000
0
SPLINE
5
268
100
AcDbEntity
8
0
100
AcDbSpline
62
7
6
CONTINUOUS
70
0
71
3
72
8
73
4
74
2
42
0.0000001000
43
0.0000001000
44
0.0000000001
12
-0.0165152611
22
0.0057955889
32
0.0000000000
13
-0.0165462889
23
0.0057058439
33
0.0000000000
40
0.0000000000
40
0.0000000000
40
0.0000000000
40
0.0000000000
40
1.0000000000
40
1.0000000000
40
1.0000000000
40
1.0000000000
10
-1.0718762863
20
12.5834064181
30
0.0000000000
10
-1.0773813734
20
12.5853382810
30
0.0000000000
10
-1.0828916603
20
12.5872552487
30
0.0000000000
10
-1.0884070900
20
12.5891571966
30
0.0000000000
11
-1.0718762863
21
12.5834064181
31
0.0000000000
11
-1.0884070900
21
12.5891571966
31
0.0000000000
0
SPLINE
5
269
100
AcDbEntity
8
0
100
AcDbSpline
62
7
6
CONTINUOUS
70
0
71
3
72
10
73
6
74
4
42
0.0000001000
43
0.0000001000
44
0.0000000001
12
-0.0063807547
22
0.0470974387
32
0.0000000000
13
-0.0207815854
23
0.0427917068
33
0.0000000000
40
0.0000000000
40
0.0000000000
40
0.0000000000
40
0.0000000000
40
0.4897910581
40
0.9763735484
40
1.0000000000
40
1.0000000000
40
1.0000000000
40
1.0000000000
10
-0.9058662322
20
12.4446991235
30
0.0000000000
10
-0.9069079777
20
12.4523884249
30
0.0000000000
10
-0.9102855488
20
12.4675637626
30
0.0000000000
10
-0.9160385621
20
12.4823824505
30
0.0000000000
10
-0.9195463670
20
12.4896727960
30
0.0000000000
10
-0.9197100321
20
12.4900098014
30
0.0000000000
11
-0.9058662322
21
12.4446991235
31
0.0000000000
11
-0.9108602138
21
12.4674357781
31
0.0000000000
11
-0.9192227202
21
12.4889970225
31
0.0000000000
11
-0.9197100321
21
12.4900098014
31
0.0000000000
0
SPLINE
5
26A
100
AcDbEntity
8
0
100
AcDbSpline
62
7
6
CONTINUOUS
70
0
71
3
72
8
73
4
74
2
42
0.0000001000
43
0.0000001000
44
0.0000000001
12
-0.0030859684
22
0.0063543687
32
0.0000000000
13
-0.0033768807
23
0.0062052226
33
0.0000000000
40
0.0000000000
40
0.0000000000
40
0.0000000000
40
0.0000000000
40
1.0000000000
40
1.0000000000
40
1.0000000000
40
1.0000000000
10
-0.9197100321
20
12.4900098014
30
0.0000000000
10
-0.9207386882
20
12.4921279243
30
0.0000000000
10
-0.9218158420
20
12.4942226783
30
0.0000000000
10
-0.9229414689
20
12.4962910858
30
0.0000000000
11
-0.9197100321
21
12.4900098014
31
0.0000000000
11
-0.9229414689
21
12.4962910858
31
0.0000000000
0
SPLINE
5
26B
100
AcDbEntity
8
0
100
AcDbSpline
62
7
6
CONTINUOUS
70
0
71
3
72
8
73
4
74
2
42
0.0000001000
43
0.0000001000
44
0.0000000001
12
-0.0038770988
22
0.0071244037
32
0.0000000000
13
-0.0042603724
23
0.0069025061
33
0.0000000000
40
0.0000000000
40
0.0000000000
40
0.0000000000
40
0.0000000000
40
1.0000000000
40
1.0000000000
40
1.0000000000
40
1.0000000000
10
-0.9229414689
20
12.4962910858
30
0.0000000000
10
-0.9242338351
20
12.4986658871
30
0.0000000000
10
-0.9255900988
20
12.5010059584
30
0.0000000000
10
-0.9270102230
20
12.5033067938
30
0.0000000000
11
-0.9229414689
21
12.4962910858
31
0.0000000000
11
-0.9270102230
21
12.5033067938
31
0.0000000000
0
SPLINE
5
26C
100
AcDbEntity
8
0
100
AcDbSpline
62
7
6
CONTINUOUS
70
0
71
3
72
8
73
4
74
2
42
0.0000001000
43
0.0000001000
44
0.0000000001
12
-0.0032789422
22
0.0053124273
32
0.0000000000
13
-0.0035058547
23
0.0051668176
33
0.0000000000
40
0.0000000000
40
0.0000000000
40
0.0000000000
40
0.0000000000
40
1.0000000000
40
1.0000000000
40
1.0000000000
40
1.0000000000
10
-0.9270102230
20
12.5033067938
30
0.0000000000
10
-0.9281032037
20
12.5050776029
30
0.0000000000
10
-0.9292340116
20
12.5068251709
30
0.0000000000
10
-0.9304026298
20
12.5085474434
30
0.0000000000
11
-0.9270102230
21
12.5033067938
31
0.0000000000
11
-0.9304026298
21
12.5085474434
31
0.0000000000
0
SPLINE
5
26D
100
AcDbEntity
8
0
100
AcDbSpline
62
7
6
CONTINUOUS
70
0
71
3
72
9
73
5
74
3
42
0.0000001000
43
0.0000001000
44
0.0000000001
12
-0.0051913063
22
0.0076507828
32
0.0000000000
13
-0.0056917758
23
0.0072870042
33
0.0000000000
40
0.0000000000
40
0.0000000000
40
0.0000000000
40
0.0000000000
40
0.0726341515
40
1.0000000000
40
1.0000000000
40
1.0000000000
40
1.0000000000
10
-0.9304026298
20
12.5085474434
30
0.0000000000
10
-0.9305283186
20
12.5087326794
30
0.0000000000
10
-0.9322647757
20
12.5112789118
30
0.0000000000
10
-0.9340841328
20
12.5137691961
30
0.0000000000
10
-0.9358435857
20
12.5160217691
30
0.0000000000
11
-0.9304026298
21
12.5085474434
31
0.0000000000
11
-0.9307810081
21
12.5091022711
31
0.0000000000
11
-0.9358435857
21
12.5160217691
31
0.0000000000
0
SPLINE
5
26E
100
AcDbEntity
8
0
100
AcDbSpline
62
7
6
CONTINUOUS
70
0
71
3
72
8
73
4
74
2
42
0.0000001000
43
0.0000001000
44
0.0000000001
12
-0.0030039613
22
0.0038458786
32
0.0000000000
13
-0.0031448765
23
0.0037306171
33
0.0000000000
40
0.0000000000
40
0.0000000000
40
0.0000000000
40
0.0000000000
40
1.0000000000
40
1.0000000000
40
1.0000000000
40
1.0000000000
10
-0.9358435857
20
12.5160217691
30
0.0000000000
10
-0.9368449061
20
12.5173037286
30
0.0000000000
10
-0.9378696250
20
12.5185672812
30
0.0000000000
10
-0.9389179171
20
12.5198108202
30
0.0000000000
11
-0.9358435857
21
12.5160217691
31
0.0000000000
11
-0.9389179171
21
12.5198108202
31
0.0000000000
0
SPLINE
5
26F
100
AcDbEntity
8
0
100
AcDbSpline
62
7
6
CONTINUOUS
70
0
71
3
72
9
73
5
74
3
42
0.0000001000
43
0.0000001000
44
0.0000000001
12
-0.0057857704
22
0.0068633838
32
0.0000000000
13
-0.0062677647
23
0.0064269221
33
0.0000000000
40
0.0000000000
40
0.0000000000
40
0.0000000000
40
0.0000000000
40
0.9735543355
40
1.0000000000
40
1.0000000000
40
1.0000000000
40
1.0000000000
10
-0.9389179171
20
12.5198108202
30
0.0000000000
10
-0.9407955044
20
12.5220381126
30
0.0000000000
10
-0.9428017721
20
12.5242599595
30
0.0000000000
10
-0.9448888871
20
12.5264043280
30
0.0000000000
10
-0.9449441389
20
12.5264609827
30
0.0000000000
11
-0.9389179171
21
12.5198108202
31
0.0000000000
11
-0.9447785534
21
12.5262908553
31
0.0000000000
11
-0.9449441389
21
12.5264609827
31
0.0000000000
0
SPLINE
5
270
100
AcDbEntity
8
0
100
AcDbSpline
62
7
6
CONTINUOUS
70
0
71
3
72
9
73
5
74
3
42
0.0000001000
43
0.0000001000
44
0.0000000001
12
-0.0271468704
22
0.0278362111
32
0.0000000000
13
-0.0362413997
23
0.0139560089
33
0.0000000000
40
0.0000000000
40
0.0000000000
40
0.0000000000
40
0.0000000000
40
0.5151527300
40
1.0000000000
40
1.0000000000
40
1.0000000000
40
1.0000000000
10
-0.9449441389
20
12.5264609827
30
0.0000000000
10
-0.9496057337
20
12.5312409494
30
0.0000000000
10
-0.9594366430
20
12.5397665259
30
0.0000000000
10
-0.9708928312
20
12.5461062333
30
0.0000000000
10
-0.9767500124
20
12.5483617443
30
0.0000000000
11
-0.9449441389
21
12.5264609827
31
0.0000000000
11
-0.9601658935
21
12.5394448064
31
0.0000000000
11
-0.9767500124
21
12.5483617443
31
0.0000000000
0
SPLINE
5
271
100
AcDbEntity
8
0
100
AcDbSpline
62
7
6
CONTINUOUS
70
0
71
3
72
8
73
4
74
2
42
0.0000001000
43
0.0000001000
44
0.0000000001
12
0.0128482208
22
0.0445390228
32
0.0000000000
13
0.0103953731
23
0.0452216167
33
0.0000000000
40
0.0000000000
40
0.0000000000
40
0.0000000000
40
0.0000000000
40
1.0000000000
40
1.0000000000
40
1.0000000000
40
1.0000000000
10
-0.9303010267
20
11.9975424094
30
0.0000000000
10
-0.9260182864
20
12.0123887504
30
0.0000000000
10
-0.9221541801
20
12.0273644671
30
0.0000000000
10
-0.9186890557
20
12.0424383393
30
0.0000000000
11
-0.9303010267
21
11.9975424094
31
0.0000000000
11
-0.9186890557
21
12.0424383393
31
0.0000000000
0
SPLINE
5
272
100
AcDbEntity
8
0
100
AcDbSpline
62
7
6
CONTINUOUS
70
0
71
3
72
8
73
4
74
2
42
0.0000001000
43
0.0000001000
44
0.0000000001
12
0.0203226479
22
0.0884069271
32
0.0000000000
13
0.0116139115
23
0.0899579661
33
0.0000000000
40
0.0000000000
40
0.0000000000
40
0.0000000000
40
0.0000000000
40
1.0000000000
40
1.0000000000
40
1.0000000000
40
1.0000000000
10
-0.9186890557
20
12.0424383393
30
0.0000000000
10
-0.9119148397
20
12.0719073151
30
0.0000000000
10
-0.9066654968
20
12.1017514322
30
0.0000000000
10
-0.9027941929
20
12.1317374209
30
0.0000000000
11
-0.9186890557
21
12.0424383393
31
0.0000000000
11
-0.9027941929
21
12.1317374209
31
0.0000000000
0
SPLINE
5
273
100
AcDbEntity
8
0
100
AcDbSpline
62
7
6
CONTINUOUS
70
0
71
3
72
9
73
5
74
3
42
0.0000001000
43
0.0000001000
44
0.0000000001
12
0.0005919295
22
0.0045849129
32
0.0000000000
13
0.0005705110
23
0.0045870344
33
0.0000000000
40
0.0000000000
40
0.0000000000
40
0.0000000000
40
0.0000000000
40
0.7820735569
40
1.0000000000
40
1.0000000000
40
1.0000000000
40
1.0000000000
10
-0.9027941929
20
12.1317374209
30
0.0000000000
10
-0.9026398821
20
12.1329326673
30
0.0000000000
10
-0.9024453719
20
12.1344612598
30
0.0000000000
10
-0.9022544261
20
12.1359901967
30
0.0000000000
10
-0.9022129830
20
12.1363234087
30
0.0000000000
11
-0.9027941929
21
12.1317374209
31
0.0000000000
11
-0.9023378197
21
12.1353238215
31
0.0000000000
11
-0.9022129830
21
12.1363234087
31
0.0000000000
0
SPLINE
5
274
100
AcDbEntity
8
0
100
AcDbSpline
62
7
6
CONTINUOUS
70
0
71
3
72
9
73
5
74
3
42
0.0000001000
43
0.0000001000
44
0.0000000001
12
0.0185981323
22
0.1495330887
32
0.0000000000
13
-0.0017115648
23
0.1506271304
33
0.0000000000
40
0.0000000000
40
0.0000000000
40
0.0000000000
40
0.0000000000
40
0.4883407542
40
1.0000000000
40
1.0000000000
40
1.0000000000
40
1.0000000000
10
-0.9022129830
20
12.1363234087
30
0.0000000000
10
-0.8991855743
20
12.1606644425
30
0.0000000000
10
-0.8948327956
20
12.2106863587
30
0.0000000000
10
-0.8937794715
20
12.2608973436
30
0.0000000000
10
-0.8940713842
20
12.2865872649
30
0.0000000000
11
-0.9022129830
21
12.1363234087
31
0.0000000000
11
-0.8957211389
21
12.2095650115
31
0.0000000000
11
-0.8940713842
21
12.2865872649
31
0.0000000000
0
SPLINE
5
275
100
AcDbEntity
8
0
100
AcDbSpline
62
7
6
CONTINUOUS
70
0
71
3
72
8
73
4
74
2
42
0.0000001000
43
0.0000001000
44
0.0000000001
12
-0.0018022986
22
0.1586122133
32
0.0000000000
13
-0.0212237740
23
0.1571238911
33
0.0000000000
40
0.0000000000
40
0.0000000000
40
0.0000000000
40
0.0000000000
40
1.0000000000
40
1.0000000000
40
1.0000000000
40
1.0000000000
10
-0.8940713842
20
12.2865872649
30
0.0000000000
10
-0.8946721504
20
12.3394580027
30
0.0000000000
10
-0.8987916376
20
12.3923244692
30
0.0000000000
10
-0.9058662290
20
12.4446990996
30
0.0000000000
11
-0.8940713842
21
12.2865872649
31
0.0000000000
11
-0.9058662290
21
12.4446990996
31
0.0000000000
0
SPLINE
5
276
100
AcDbEntity
8
0
100
AcDbSpline
62
7
6
CONTINUOUS
70
0
71
3
72
9
73
5
74
3
42
0.0000001000
43
0.0000001000
44
0.0000000001
12
0.0326758275
22
0.1080188508
32
0.0000000000
13
0.0554687741
23
0.0985620708
33
0.0000000000
40
0.0000000000
40
0.0000000000
40
0.0000000000
40
0.0000000000
40
0.8660221400
40
1.0000000000
40
1.0000000000
40
1.0000000000
40
1.0000000000
10
-1.5432988787
20
11.7242582836
30
0.0000000000
10
-1.5338662154
20
11.7554405224
30
0.0000000000
10
-1.5199602903
20
11.7906620147
30
0.0000000000
10
-1.5020186748
20
11.8238247470
30
0.0000000000
10
-1.4995414789
20
11.8282264588
30
0.0000000000
11
-1.5432988787
21
11.7242582836
31
0.0000000000
11
-1.5067537924
21
11.8149016483
31
0.0000000000
11
-1.4995414789
21
11.8282264588
31
0.0000000000
0
SPLINE
5
277
100
AcDbEntity
8
0
100
AcDbSpline
62
7
6
CONTINUOUS
70
0
71
3
72
8
73
4
74
2
42
0.0000001000
43
0.0000001000
44
0.0000000001
12
0.0019653765
22
0.0034922636
32
0.0000000000
13
0.0019962394
23
0.0034746627
33
0.0000000000
40
0.0000000000
40
0.0000000000
40
0.0000000000
40
0.0000000000
40
1.0000000000
40
1.0000000000
40
1.0000000000
40
1.0000000000
10
-1.4995414789
20
11.8282264588
30
0.0000000000
10
-1.4988863534
20
11.8293905466
30
0.0000000000
10
-1.4982260931
20
11.8305517417
30
0.0000000000
10
-1.4975606800
20
11.8317099626
30
0.0000000000
11
-1.4995414789
21
11.8282264588
31
0.0000000000
11
-1.4975606800
21
11.8317099626
31
0.0000000000
0
SPLINE
5
278
100
AcDbEntity
8
0
100
AcDbSpline
62
7
6
CONTINUOUS
70
0
71
3
72
8
73
4
74
2
42
0.0000001000
43
0.0000001000
44
0.0000000001
12
0.0239389233
22
0.0416681900
32
0.0000000000
13
0.0284784227
23
0.0386803179
33
0.0000000000
40
0.0000000000
40
0.0000000000
40
0.0000000000
40
0.0000000000
40
1.0000000000
40
1.0000000000
40
1.0000000000
40
1.0000000000
10
-1.4975606800
20
11.8317099626
30
0.0000000000
10
-1.4895810389
20
11.8455993593
30
0.0000000000
10
-1.4808603767
20
11.8590610373
30
0.0000000000
10
-1.4713675691
20
11.8719544766
30
0.0000000000
11
-1.4975606800
21
11.8317099626
31
0.0000000000
11
-1.4713675691
21
11.8719544766
31
0.0000000000
0
SPLINE
5
279
100
AcDbEntity
8
0
100
AcDbSpline
62
7
6
CONTINUOUS
70
0
71
3
72
8
73
4
74
2
42
0.0000001000
43
0.0000001000
44
0.0000000001
12
0.0041987927
22
0.0057029364
32
0.0000000000
13
0.0042998007
23
0.0056274715
33
0.0000000000
40
0.0000000000
40
0.0000000000
40
0.0000000000
40
0.0000000000
40
1.0000000000
40
1.0000000000
40
1.0000000000
40
1.0000000000
10
-1.4713675691
20
11.8719544766
30
0.0000000000
10
-1.4699679715
20
11.8738554554
30
0.0000000000
10
-1.4685515892
20
11.8757440820
30
0.0000000000
10
-1.4671183223
20
11.8776199058
30
0.0000000000
11
-1.4713675691
21
11.8719544766
31
0.0000000000
11
-1.4671183223
21
11.8776199058
31
0.0000000000
0
SPLINE
5
27A
100
AcDbEntity
8
0
100
AcDbSpline
62
7
6
CONTINUOUS
70
0
71
3
72
9
73
5
74
3
42
0.0000001000
43
0.0000001000
44
0.0000000001
12
0.0567080366
22
0.0742180593
32
0.0000000000
13
0.0738822075
23
0.0572454146
33
0.0000000000
40
0.0000000000
40
0.0000000000
40
0.0000000000
40
0.0000000000
40
0.1794885055
40
1.0000000000
40
1.0000000000
40
1.0000000000
40
1.0000000000
10
-1.4671183223
20
11.8776199058
30
0.0000000000
10
-1.4637255087
20
11.8820603353
30
0.0000000000
10
-1.4442956987
20
11.9063999926
30
0.0000000000
10
-1.4218879648
20
11.9283273556
30
0.0000000000
10
-1.4016808980
20
11.9439841958
30
0.0000000000
11
-1.4671183223
21
11.8776199058
31
0.0000000000
11
-1.4566547164
21
11.8907199980
31
0.0000000000
11
-1.4016808980
21
11.9439841958
31
0.0000000000
0
SPLINE
5
27B
100
AcDbEntity
8
0
100
AcDbSpline
62
7
6
CONTINUOUS
70
0
71
3
72
8
73
4
74
2
42
0.0000001000
43
0.0000001000
44
0.0000000001
12
0.0033257464
22
0.0025768550
32
0.0000000000
13
0.0033585447
23
0.0025343398
33
0.0000000000
40
0.0000000000
40
0.0000000000
40
0.0000000000
40
0.0000000000
40
1.0000000000
40
1.0000000000
40
1.0000000000
40
1.0000000000
10
-1.4016808980
20
11.9439841958
30
0.0000000000
10
-1.4005723158
20
11.9448431475
30
0.0000000000
10
-1.3994582522
20
11.9456950719
30
0.0000000000
10
-1.3983387373
20
11.9465398518
30
0.0000000000
11
-1.4016808980
21
11.9439841958
31
0.0000000000
11
-1.3983387373
21
11.9465398518
31
0.0000000000
0
SPLINE
5
27C
100
AcDbEntity
8
0
100
AcDbSpline
62
7
6
CONTINUOUS
70
0
71
3
72
9
73
5
74
3
42
0.0000001000
43
0.0000001000
44
0.0000000001
12
0.0341198648
22
0.0257466667
32
0.0000000000
13
0.0372286529
23
0.0210433776
33
0.0000000000
40
0.0000000000
40
0.0000000000
40
0.0000000000
40
0.0000000000
40
0.1121504339
40
1.0000000000
40
1.0000000000
40
1.0000000000
40
1.0000000000
10
-1.3983387373
20
11.9465398518
30
0.0000000000
10
-1.3970632180
20
11.9475023518
30
0.0000000000
10
-1.3856268331
20
11.9560018774
30
0.0000000000
10
-1.3736314047
20
11.9637502304
30
0.0000000000
10
-1.3626135902
20
11.9699780150
30
0.0000000000
11
-1.3983387373
21
11.9465398518
31
0.0000000000
11
-1.3944909955
21
11.9493993547
31
0.0000000000
11
-1.3626135902
21
11.9699780150
31
0.0000000000
0
SPLINE
5
27D
100
AcDbEntity
8
0
100
AcDbSpline
62
7
6
CONTINUOUS
70
0
71
3
72
8
73
4
74
2
42
0.0000001000
43
0.0000001000
44
0.0000000001
12
0.0069130353
22
0.0039075712
32
0.0000000000
13
0.0070075308
23
0.0037349268
33
0.0000000000
40
0.0000000000
40
0.0000000000
40
0.0000000000
40
0.0000000000
40
1.0000000000
40
1.0000000000
40
1.0000000000
40
1.0000000000
10
-1.3626135902
20
11.9699780150
30
0.0000000000
10
-1.3603092451
20
11.9712805387
30
0.0000000000
10
-1.3579888168
20
11.9725545604
30
0.0000000000
10
-1.3556529732
20
11.9737995360
30
0.0000000000
11
-1.3626135902
21
11.9699780150
31
0.0000000000
11
-1.3556529732
21
11.9737995360
31
0.0000000000
0
SPLINE
5
27E
100
AcDbEntity
8
0
100
AcDbSpline
62
7
6
CONTINUOUS
70
0
71
3
72
9
73
5
74
3
42
0.0000001000
43
0.0000001000
44
0.0000000001
12
0.0441734788
22
0.0235439152
32
0.0000000000
13
0.0473369696
23
0.0162393049
33
0.0000000000
40
0.0000000000
40
0.0000000000
40
0.0000000000
40
0.0000000000
40
0.7398142159
40
1.0000000000
40
1.0000000000
40
1.0000000000
40
1.0000000000
10
-1.3556529732
20
11.9737995360
30
0.0000000000
10
-1.3447595840
20
11.9796055770
30
0.0000000000
10
-1.3295819133
20
11.9865996575
30
0.0000000000
10
-1.3139154538
20
11.9923387412
30
0.0000000000
10
-1.3098099849
20
11.9937471533
30
0.0000000000
11
-1.3556529732
21
11.9737995360
31
0.0000000000
11
-1.3220347445
21
11.9892673261
31
0.0000000000
11
-1.3098099849
21
11.9937471533
31
0.0000000000
0
SPLINE
5
27F
100
AcDbEntity
8
0
100
AcDbSpline
62
7
6
CONTINUOUS
70
0
71
3
72
8
73
4
74
2
42
0.0000001000
43
0.0000001000
44
0.0000000001
12
-0.0495074247
22
0.2742599855
32
0.0000000000
13
-0.0373081339
23
0.2762238459
33
0.0000000000
40
0.0000000000
40
0.0000000000
40
0.0000000000
40
0.0000000000
40
1.0000000000
40
1.0000000000
40
1.0000000000
40
1.0000000000
10
-1.6255971796
20
9.4022385050
30
0.0000000000
10
-1.6420996545
20
9.4936585002
30
0.0000000000
10
-1.6566242825
20
9.5854518581
30
0.0000000000
10
-1.6690603271
20
9.6775264734
30
0.0000000000
11
-1.6255971796
21
9.4022385050
31
0.0000000000
11
-1.6690603271
21
9.6775264734
31
0.0000000000
0
SPLINE
5
280
100
AcDbEntity
8
0
100
AcDbSpline
62
7
6
CONTINUOUS
70
0
71
3
72
15
73
11
74
9
42
0.0000001000
43
0.0000001000
44
0.0000000001
12
-0.2765432333
22
2.0474847536
32
0.0000000000
13
0.5981239956
23
1.9772985891
33
0.0000000000
40
0.0000000000
40
0.0000000000
40
0.0000000000
40
0.0000000000
40
0.0178310153
40
0.1679398504
40
0.3150960177
40
0.4590706042
40
0.5996731446
40
0.7367583680
40
0.8702309878
40
1.0000000000
40
1.0000000000
40
1.0000000000
40
1.0000000000
10
-1.6690603271
20
9.6775264734
30
0.0000000000
10
-1.6707040093
20
9.6896960507
30
0.0000000000
10
-1.6858412481
20
9.8043604208
30
0.0000000000
10
-1.7081273372
20
10.0202810296
30
0.0000000000
10
-1.7231938286
20
10.3238939541
30
0.0000000000
10
-1.7214072733
20
10.6213377636
30
0.0000000000
10
-1.7027680796
20
10.9112647807
30
0.0000000000
10
-1.6673603195
20
11.1923547472
30
0.0000000000
10
-1.6153681543
20
11.4632622611
30
0.0000000000
10
-1.5691720560
20
11.6387245412
30
0.0000000000
10
-1.5432994026
20
11.7242552361
30
0.0000000000
11
-1.6690603271
21
9.6775264734
31
0.0000000000
11
-1.6738816609
21
9.7140497327
31
0.0000000000
11
-1.7055632530
21
10.0225194358
31
0.0000000000
11
-1.7204548246
21
10.3261472753
31
0.0000000000
11
-1.7184749020
21
10.6235610297
31
0.0000000000
11
-1.6996287698
21
10.9134033965
31
0.0000000000
11
-1.6640099048
21
11.1943428429
31
0.0000000000
11
-1.6118001418
21
11.4650802095
31
0.0000000000
11
-1.5432994026
21
11.7242552361
31
0.0000000000
0
SPLINE
5
281
100
AcDbEntity
8
0
100
AcDbSpline
62
7
6
CONTINUOUS
70
0
71
3
72
9
73
5
74
3
42
0.0000001000
43
0.0000001000
44
0.0000000001
12
-0.1083961550
22
0.0705670546
32
0.0000000000
13
-0.0957162648
23
0.0871447723
33
0.0000000000
40
0.0000000000
40
0.0000000000
40
0.0000000000
40
0.0000000000
40
0.8565725816
40
1.0000000000
40
1.0000000000
40
1.0000000000
40
1.0000000000
10
-1.1814148966
20
8.6915884840
30
0.0000000000
10
-1.2123646214
20
8.7117370854
30
0.0000000000
10
-1.2467073169
20
8.7380815424
30
0.0000000000
10
-1.2789166110
20
8.7668018261
30
0.0000000000
10
-1.2834927233
20
8.7709681427
30
0.0000000000
11
-1.1814148966
21
8.6915884840
31
0.0000000000
11
-1.2696333321
21
8.7586121479
31
0.0000000000
11
-1.2834927233
21
8.7709681427
31
0.0000000000
0
SPLINE
5
282
100
AcDbEntity
8
0
100
AcDbSpline
62
7
6
CONTINUOUS
70
0
71
3
72
9
73
5
74
3
42
0.0000001000
43
0.0000001000
44
0.0000000001
12
-0.0440145992
22
0.1379212868
32
0.0000000000
13
-0.0256859832
23
0.1423941085
33
0.0000000000
40
0.0000000000
40
0.0000000000
40
0.0000000000
40
0.0000000000
40
0.1392396540
40
1.0000000000
40
1.0000000000
40
1.0000000000
40
1.0000000000
10
-1.5905256438
20
9.2618854593
30
0.0000000000
10
-1.5925685030
20
9.2682868300
30
0.0000000000
10
-1.6068427363
20
9.3143896252
30
0.0000000000
10
-1.6182273544
20
9.3613827710
30
0.0000000000
10
-1.6255971796
20
9.4022385050
30
0.0000000000
11
-1.5905256438
21
9.2618854593
31
0.0000000000
11
-1.5964875587
21
9.2811427663
31
0.0000000000
11
-1.6255971796
21
9.4022385050
31
0.0000000000
0
SPLINE
5
283
100
AcDbEntity
8
0
100
AcDbSpline
62
7
6
CONTINUOUS
70
0
71
3
72
8
73
4
74
2
42
0.0000001000
43
0.0000001000
44
0.0000000001
12
-0.2478811363
22
0.0867049182
32
0.0000000000
13
-0.2395582414
23
0.1078216833
33
0.0000000000
40
0.0000000000
40
0.0000000000
40
0.0000000000
40
0.0000000000
40
1.0000000000
40
1.0000000000
40
1.0000000000
40
1.0000000000
10
-0.4509499048
20
8.3263733818
30
0.0000000000
10
-0.5335769502
20
8.3552750212
30
0.0000000000
10
-0.6149169833
20
8.3879758659
30
0.0000000000
10
-0.6947697304
20
8.4239164270
30
0.0000000000
11
-0.4509499048
21
8.3263733818
31
0.0000000000
11
-0.6947697304
21
8.4239164270
31
0.0000000000
0
SPLINE
5
284
100
AcDbEntity
8
0
100
AcDbSpline
62
7
6
CONTINUOUS
70
0
71
3
72
8
73
4
74
2
42
0.0000001000
43
0.0000001000
44
0.0000000001
12
-0.2487589897
22
0.1119628065
32
0.0000000000
13
-0.2390038795
23
0.1314577099
33
0.0000000000
40
0.0000000000
40
0.0000000000
40
0.0000000000
40
0.0000000000
40
1.0000000000
40
1.0000000000
40
1.0000000000
40
1.0000000000
10
-0.6947697304
20
8.4239164270
30
0.0000000000
10
-0.7776893937
20
8.4612373625
30
0.0000000000
10
-0.8590054449
20
8.5020517363
30
0.0000000000
10
-0.9386734047
20
8.5458709729
30
0.0000000000
11
-0.6947697304
21
8.4239164270
31
0.0000000000
11
-0.9386734047
21
8.5458709729
31
0.0000000000
0
SPLINE
5
285
100
AcDbEntity
8
0
100
AcDbSpline
62
7
6
CONTINUOUS
70
0
71
3
72
8
73
4
74
2
42
0.0000001000
43
0.0000001000
44
0.0000000001
12
-0.2481422305
22
0.1364840162
32
0.0000000000
13
-0.2372701364
23
0.1544665889
33
0.0000000000
40
0.0000000000
40
0.0000000000
40
0.0000000000
40
0.0000000000
40
1.0000000000
40
1.0000000000
40
1.0000000000
40
1.0000000000
10
-0.9386734047
20
8.5458709729
30
0.0000000000
10
-1.0213874815
20
8.5913656450
30
0.0000000000
10
-1.1023250313
20
8.6400993442
30
0.0000000000
10
-1.1814150768
20
8.6915882072
30
0.0000000000
11
-0.9386734047
21
8.5458709729
31
0.0000000000
11
-1.1814150768
21
8.6915882072
31
0.0000000000
0
SPLINE
5
286
100
AcDbEntity
8
0
100
AcDbSpline
62
7
6
CONTINUOUS
70
0
71
3
72
8
73
4
74
2
42
0.0000001000
43
0.0000001000
44
0.0000000001
12
0.0037287203
22
0.0012821720
32
0.0000000000
13
0.0035908992
23
0.0016262325
33
0.0000000000
40
0.0000000000
40
0.0000000000
40
0.0000000000
40
0.0000000000
40
1.0000000000
40
1.0000000000
40
1.0000000000
40
1.0000000000
10
-0.9615074582
20
11.9607516574
30
0.0000000000
10
-0.9602645514
20
11.9611790480
30
0.0000000000
10
-0.9590415898
20
11.9616645350
30
0.0000000000
10
-0.9578446234
20
11.9622066125
30
0.0000000000
11
-0.9615074582
21
11.9607516574
31
0.0000000000
11
-0.9578446234
21
11.9622066125
31
0.0000000000
0
SPLINE
5
287
100
AcDbEntity
8
0
100
AcDbSpline
62
7
6
CONTINUOUS
70
0
71
3
72
9
73
5
74
3
42
0.0000001000
43
0.0000001000
44
0.0000000001
12
0.0034572863
22
0.0015657224
32
0.0000000000
13
0.0032967703
23
0.0018761280
33
0.0000000000
40
0.0000000000
40
0.0000000000
40
0.0000000000
40
0.0000000000
40
0.8285385555
40
1.0000000000
40
1.0000000000
40
1.0000000000
40
1.0000000000
10
-0.9578446234
20
11.9622066125
30
0.0000000000
10
-0.9568897917
20
11.9626390330
30
0.0000000000
10
-0.9557573280
20
11.9632044035
30
0.0000000000
10
-0.9546534348
20
11.9638211181
30
0.0000000000
10
-0.9544650118
20
11.9639283459
30
0.0000000000
11
-0.9578446234
21
11.9622066125
31
0.0000000000
11
-0.9550328250
21
11.9636111420
31
0.0000000000
11
-0.9544650118
21
11.9639283459
31
0.0000000000
0
SPLINE
5
288
100
AcDbEntity
8
0
100
AcDbSpline
62
7
6
CONTINUOUS
70
0
71
3
72
8
73
4
74
2
42
0.0000001000
43
0.0000001000
44
0.0000000001
12
0.0038438698
22
0.0021874717
32
0.0000000000
13
0.0035959549
23
0.0025765286
33
0.0000000000
40
0.0000000000
40
0.0000000000
40
0.0000000000
40
0.0000000000
40
1.0000000000
40
1.0000000000
40
1.0000000000
40
1.0000000000
10
-0.9544650118
20
11.9639283459
30
0.0000000000
10
-0.9531837219
20
11.9646575032
30
0.0000000000
10
-0.9519418352
20
11.9654553331
30
0.0000000000
10
-0.9507431836
20
11.9663141760
30
0.0000000000
11
-0.9544650118
21
11.9639283459
31
0.0000000000
11
-0.9507431836
21
11.9663141760
31
0.0000000000
0
SPLINE
5
289
100
AcDbEntity
8
0
100
AcDbSpline
62
7
6
CONTINUOUS
70
0
71
3
72
8
73
4
74
2
42
0.0000001000
43
0.0000001000
44
0.0000000001
12
0.0031190144
22
0.0022347972
32
0.0000000000
13
0.0029163524
23
0.0024952123
33
0.0000000000
40
0.0000000000
40
0.0000000000
40
0.0000000000
40
0.0000000000
40
1.0000000000
40
1.0000000000
40
1.0000000000
40
1.0000000000
10
-0.9507431836
20
11.9663141760
30
0.0000000000
10
-0.9497035121
20
11.9670591084
30
0.0000000000
10
-0.9486963675
20
11.9678499424
30
0.0000000000
10
-0.9477242500
20
11.9686816799
30
0.0000000000
11
-0.9507431836
21
11.9663141760
31
0.0000000000
11
-0.9477242500
21
11.9686816799
31
0.0000000000
0
SPLINE
5
28A
100
AcDbEntity
8
0
100
AcDbSpline
62
7
6
CONTINUOUS
70
0
71
3
72
9
73
5
74
3
42
0.0000001000
43
0.0000001000
44
0.0000000001
12
0.0036354328
22
0.0031104529
32
0.0000000000
13
0.0032943911
23
0.0034627859
33
0.0000000000
40
0.0000000000
40
0.0000000000
40
0.0000000000
40
0.0000000000
40
0.9397702055
40
1.0000000000
40
1.0000000000
40
1.0000000000
40
1.0000000000
10
-0.9477242500
20
11.9686816799
30
0.0000000000
10
-0.9465854262
20
11.9696560502
30
0.0000000000
10
-0.9454247668
20
11.9707526006
30
0.0000000000
10
-0.9443230890
20
11.9719036132
30
0.0000000000
10
-0.9442569488
20
11.9719731342
30
0.0000000000
11
-0.9477242500
21
11.9686816799
31
0.0000000000
11
-0.9444560106
21
11.9717651603
31
0.0000000000
11
-0.9442569488
21
11.9719731342
31
0.0000000000
0
SPLINE
5
28B
100
AcDbEntity
8
0
100
AcDbSpline
62
7
6
CONTINUOUS
70
0
71
3
72
9
73
5
74
3
42
0.0000001000
43
0.0000001000
44
0.0000000001
12
0.0202831569
22
0.0213199429
32
0.0000000000
13
0.0081312128
23
0.0281869173
33
0.0000000000
40
0.0000000000
40
0.0000000000
40
0.0000000000
40
0.0000000000
40
0.4687550385
40
1.0000000000
40
1.0000000000
40
1.0000000000
40
1.0000000000
10
-0.9442569488
20
11.9719731342
30
0.0000000000
10
-0.9410876715
20
11.9753044111
30
0.0000000000
10
-0.9353732051
20
11.9833697030
30
0.0000000000
10
-0.9317415964
20
11.9925496561
30
0.0000000000
10
-0.9303017078
20
11.9975410421
30
0.0000000000
11
-0.9442569488
21
11.9719731342
31
0.0000000000
11
-0.9361879707
21
11.9831106295
31
0.0000000000
11
-0.9303017078
21
11.9975410421
31
0.0000000000
0
SPLINE
5
28C
100
AcDbEntity
8
0
100
AcDbSpline
62
7
6
CONTINUOUS
70
0
71
3
72
10
73
6
74
4
42
0.0000001000
43
0.0000001000
44
0.0000000001
12
-0.0302101360
22
0.0186552142
32
0.0000000000
13
-0.0356646201
23
-0.0006736266
33
0.0000000000
40
0.0000000000
40
0.0000000000
40
0.0000000000
40
0.0000000000
40
0.5218452650
40
0.9809951462
40
1.0000000000
40
1.0000000000
40
1.0000000000
40
1.0000000000
10
-0.3577487359
20
12.2388615642
30
0.0000000000
10
-0.3630037414
20
12.2421066092
30
0.0000000000
10
-0.3736025793
20
12.2471857465
30
0.0000000000
10
-0.3854424458
20
12.2492129509
30
0.0000000000
10
-0.3911266971
20
12.2491468880
30
0.0000000000
10
-0.3913526307
20
12.2491426206
30
0.0000000000
11
-0.3577487359
21
12.2388615642
31
0.0000000000
11
-0.3745674585
21
12.2466358278
31
0.0000000000
11
-0.3906748781
21
12.2491505038
31
0.0000000000
11
-0.3913526307
21
12.2491426206
31
0.0000000000
0
SPLINE
5
28D
100
AcDbEntity
8
0
100
AcDbSpline
62
7
6
CONTINUOUS
70
0
71
3
72
8
73
4
74
2
42
0.0000001000
43
0.0000001000
44
0.0000000001
12
-0.0046884832
22
-0.0000885552
32
0.0000000000
13
-0.0046601462
23
-0.0005657875
33
0.0000000000
40
0.0000000000
40
0.0000000000
40
0.0000000000
40
0.0000000000
40
1.0000000000
40
1.0000000000
40
1.0000000000
40
1.0000000000
10
-0.3913526307
20
12.2491426206
30
0.0000000000
10
-0.3929154585
20
12.2491131022
30
0.0000000000
10
-0.3944785734
20
12.2490050352
30
0.0000000000
10
-0.3960319554
20
12.2488164394
30
0.0000000000
11
-0.3913526307
21
12.2491426206
31
0.0000000000
11
-0.3960319554
21
12.2488164394
31
0.0000000000
0
SPLINE
5
28E
100
AcDbEntity
8
0
100
AcDbSpline
62
7
6
CONTINUOUS
70
0
71
3
72
8
73
4
74
2
42
0.0000001000
43
0.0000001000
44
0.0000000001
12
-0.0054073336
22
-0.0006565034
32
0.0000000000
13
-0.0052817479
23
-0.0013163188
33
0.0000000000
40
0.0000000000
40
0.0000000000
40
0.0000000000
40
0.0000000000
40
1.0000000000
40
1.0000000000
40
1.0000000000
40
1.0000000000
10
-0.3960319554
20
12.2488164394
30
0.0000000000
10
-0.3978344000
20
12.2485976049
30
0.0000000000
10
-0.3996237404
20
12.2482703481
30
0.0000000000
10
-0.4013843231
20
12.2478315751
30
0.0000000000
11
-0.3960319554
21
12.2488164394
31
0.0000000000
11
-0.4013843231
21
12.2478315751
31
0.0000000000
0
SPLINE
5
28F
100
AcDbEntity
8
0
100
AcDbSpline
62
7
6
CONTINUOUS
70
0
71
3
72
8
73
4
74
2
42
0.0000001000
43
0.0000001000
44
0.0000000001
12
-0.0039860294
22
-0.0009933995
32
0.0000000000
13
-0.0038675717
23
-0.0013784673
33
0.0000000000
40
0.0000000000
40
0.0000000000
40
0.0000000000
40
0.0000000000
40
1.0000000000
40
1.0000000000
40
1.0000000000
40
1.0000000000
10
-0.4013843231
20
12.2478315751
30
0.0000000000
10
-0.4027129995
20
12.2475004420
30
0.0000000000
10
-0.4040252972
20
12.2471057957
30
0.0000000000
10
-0.4053144878
20
12.2466463066
30
0.0000000000
11
-0.4013843231
21
12.2478315751
31
0.0000000000
11
-0.4053144878
21
12.2466463066
31
0.0000000000
0
SPLINE
5
290
100
AcDbEntity
8
0
100
AcDbSpline
62
7
6
CONTINUOUS
70
0
71
3
72
9
73
5
74
3
42
0.0000001000
43
0.0000001000
44
0.0000000001
12
-0.0101136011
22
-0.0036046567
32
0.0000000000
13
-0.0088979134
23
-0.0060324801
33
0.0000000000
40
0.0000000000
40
0.0000000000
40
0.0000000000
40
0.0000000000
40
0.0546139670
40
1.0000000000
40
1.0000000000
40
1.0000000000
40
1.0000000000
10
-0.4053144878
20
12.2466463066
30
0.0000000000
10
-0.4054986024
20
12.2465806851
30
0.0000000000
10
-0.4088611733
20
12.2453549169
30
0.0000000000
10
-0.4120591649
20
12.2436844489
30
0.0000000000
10
-0.4148631526
20
12.2417834414
30
0.0000000000
11
-0.4053144878
21
12.2466463066
31
0.0000000000
11
-0.4058653982
21
12.2464454706
31
0.0000000000
11
-0.4148631526
21
12.2417834414
31
0.0000000000
0
SPLINE
5
291
100
AcDbEntity
8
0
100
AcDbSpline
62
7
6
CONTINUOUS
70
0
71
3
72
8
73
4
74
2
42
0.0000001000
43
0.0000001000
44
0.0000000001
12
-0.0162246608
22
0.0106746321
32
0.0000000000
13
-0.0162716249
23
0.0106031582
33
0.0000000000
40
0.0000000000
40
0.0000000000
40
0.0000000000
40
0.0000000000
40
1.0000000000
40
1.0000000000
40
1.0000000000
40
1.0000000000
10
-0.2476655685
20
12.1687708045
30
0.0000000000
10
-0.2530737888
20
12.1723290152
30
0.0000000000
10
-0.2584898427
20
12.1758753696
30
0.0000000000
10
-0.2639137176
20
12.1794097556
30
0.0000000000
11
-0.2476655685
21
12.1687708045
31
0.0000000000
11
-0.2639137176
21
12.1794097556
31
0.0000000000
0
SPLINE
5
292
100
AcDbEntity
8
0
100
AcDbSpline
62
7
6
CONTINUOUS
70
0
71
3
72
8
73
4
74
2
42
0.0000001000
43
0.0000001000
44
0.0000000001
12
-0.0041003682
22
0.0026719429
32
0.0000000000
13
-0.0041033475
23
0.0026673775
33
0.0000000000
40
0.0000000000
40
0.0000000000
40
0.0000000000
40
0.0000000000
40
1.0000000000
40
1.0000000000
40
1.0000000000
40
1.0000000000
10
-0.2639137176
20
12.1794097556
30
0.0000000000
10
-0.2652805070
20
12.1803004033
30
0.0000000000
10
-0.2666477931
20
12.1811902909
30
0.0000000000
10
-0.2680155756
20
12.1820794168
30
0.0000000000
11
-0.2639137176
21
12.1794097556
31
0.0000000000
11
-0.2680155756
21
12.1820794168
31
0.0000000000
0
SPLINE
5
293
100
AcDbEntity
8
0
100
AcDbSpline
62
7
6
CONTINUOUS
70
0
71
3
72
8
73
4
74
2
42
0.0000001000
43
0.0000001000
44
0.0000000001
12
-0.0162513085
22
0.0105641490
32
0.0000000000
13
-0.0162979941
23
0.0104921200
33
0.0000000000
40
0.0000000000
40
0.0000000000
40
0.0000000000
40
0.0000000000
40
1.0000000000
40
1.0000000000
40
1.0000000000
40
1.0000000000
10
-0.2680155756
20
12.1820794168
30
0.0000000000
10
-0.2734326784
20
12.1856007998
30
0.0000000000
10
-0.2788575684
20
12.1891102336
30
0.0000000000
10
-0.2842902331
20
12.1926076069
30
0.0000000000
11
-0.2680155756
21
12.1820794168
31
0.0000000000
11
-0.2842902331
21
12.1926076069
31
0.0000000000
0
SPLINE
5
294
100
AcDbEntity
8
0
100
AcDbSpline
62
7
6
CONTINUOUS
70
0
71
3
72
8
73
4
74
2
42
0.0000001000
43
0.0000001000
44
0.0000000001
12
-0.0162780300
22
0.0104792678
32
0.0000000000
13
-0.0163245272
23
0.0104067494
33
0.0000000000
40
0.0000000000
40
0.0000000000
40
0.0000000000
40
0.0000000000
40
1.0000000000
40
1.0000000000
40
1.0000000000
40
1.0000000000
10
-0.2842902331
20
12.1926076069
30
0.0000000000
10
-0.2897162431
20
12.1961006962
30
0.0000000000
10
-0.2951500088
20
12.1995817545
30
0.0000000000
10
-0.3005915179
20
12.2030506710
30
0.0000000000
11
-0.2842902331
21
12.1926076069
31
0.0000000000
11
-0.3005915179
21
12.2030506710
31
0.0000000000
0
SPLINE
5
295
100
AcDbEntity
8
0
100
AcDbSpline
62
7
6
CONTINUOUS
70
0
71
3
72
9
73
5
74
3
42
0.0000001000
43
0.0000001000
44
0.0000000001
12
-0.0040689631
22
0.0025939299
32
0.0000000000
13
-0.0040718489
23
0.0025893986
33
0.0000000000
40
0.0000000000
40
0.0000000000
40
0.0000000000
40
0.0000000000
40
0.5010716426
40
1.0000000000
40
1.0000000000
40
1.0000000000
40
1.0000000000
10
-0.3005915179
20
12.2030506710
30
0.0000000000
10
-0.3012711319
20
12.2034839192
30
0.0000000000
10
-0.3026276940
20
12.2043481845
30
0.0000000000
10
-0.3039847370
20
12.2052116946
30
0.0000000000
10
-0.3046619240
20
12.2056423361
30
0.0000000000
11
-0.3005915179
21
12.2030506710
31
0.0000000000
11
-0.3026307222
21
12.2043498473
31
0.0000000000
11
-0.3046619240
21
12.2056423361
31
0.0000000000
0
SPLINE
5
296
100
AcDbEntity
8
0
100
AcDbSpline
62
7
6
CONTINUOUS
70
0
71
3
72
8
73
4
74
2
42
0.0000001000
43
0.0000001000
44
0.0000000001
12
-0.0325637335
22
0.0207081569
32
0.0000000000
13
-0.0327478873
23
0.0204152827
33
0.0000000000
40
0.0000000000
40
0.0000000000
40
0.0000000000
40
0.0000000000
40
1.0000000000
40
1.0000000000
40
1.0000000000
40
1.0000000000
10
-0.3046619240
20
12.2056423361
30
0.0000000000
10
-0.3155165018
20
12.2125450551
30
0.0000000000
10
-0.3264018339
20
12.2193994169
30
0.0000000000
10
-0.3373177963
20
12.2262045111
30
0.0000000000
11
-0.3046619240
21
12.2056423361
31
0.0000000000
11
-0.3373177963
21
12.2262045111
31
0.0000000000
0
SPLINE
5
297
100
AcDbEntity
8
0
100
AcDbSpline
62
7
6
CONTINUOUS
70
0
71
3
72
8
73
4
74
2
42
0.0000001000
43
0.0000001000
44
0.0000000001
12
-0.0040753938
22
0.0025406316
32
0.0000000000
13
-0.0040782394
23
0.0025360482
33
0.0000000000
40
0.0000000000
40
0.0000000000
40
0.0000000000
40
0.0000000000
40
1.0000000000
40
1.0000000000
40
1.0000000000
40
1.0000000000
10
-0.3373177963
20
12.2262045111
30
0.0000000000
10
-0.3386762609
20
12.2270513883
30
0.0000000000
10
-0.3400351999
20
12.2278975025
30
0.0000000000
10
-0.3413946130
20
12.2287428519
30
0.0000000000
11
-0.3373177963
21
12.2262045111
31
0.0000000000
11
-0.3413946130
21
12.2287428519
31
0.0000000000
0
SPLINE
5
298
100
AcDbEntity
8
0
100
AcDbSpline
62
7
6
CONTINUOUS
70
0
71
3
72
8
73
4
74
2
42
0.0000001000
43
0.0000001000
44
0.0000000001
12
-0.0163313282
22
0.0101556167
32
0.0000000000
13
-0.0163769023
23
0.0100816952
33
0.0000000000
40
0.0000000000
40
0.0000000000
40
0.0000000000
40
0.0000000000
40
1.0000000000
40
1.0000000000
40
1.0000000000
40
1.0000000000
10
-0.3413946130
20
12.2287428519
30
0.0000000000
10
-0.3468383891
20
12.2321280574
30
0.0000000000
10
-0.3522897685
20
12.2355009991
30
0.0000000000
10
-0.3577487359
20
12.2388615642
30
0.0000000000
11
-0.3413946130
21
12.2287428519
31
0.0000000000
11
-0.3577487359
21
12.2388615642
31
0.0000000000
0
SPLINE
5
299
100
AcDbEntity
8
0
100
AcDbSpline
62
7
6
CONTINUOUS
70
0
71
3
72
8
73
4
74
2
42
0.0000001000
43
0.0000001000
44
0.0000000001
12
0.0062873820
22
0.0021664370
32
0.0000000000
13
0.0057119928
23
0.0033833587
33
0.0000000000
40
0.0000000000
40
0.0000000000
40
0.0000000000
40
0.0000000000
40
1.0000000000
40
1.0000000000
40
1.0000000000
40
1.0000000000
10
-0.3593085694
20
-13.5650231216
30
0.0000000000
10
-0.3572127753
20
-13.5643009759
30
0.0000000000
10
-0.3551886550
20
-13.5633760080
30
0.0000000000
10
-0.3532846574
20
-13.5622482218
30
0.0000000000
11
-0.3593085694
21
-13.5650231216
31
0.0000000000
11
-0.3532846574
21
-13.5622482218
31
0.0000000000
0
SPLINE
5
29A
100
AcDbEntity
8
0
100
AcDbSpline
62
7
6
CONTINUOUS
70
0
71
3
72
9
73
5
74
3
42
0.0000001000
43
0.0000001000
44
0.0000000001
12
0.0038452068
22
0.0022776139
32
0.0000000000
13
0.0034944001
23
0.0027943129
33
0.0000000000
40
0.0000000000
40
0.0000000000
40
0.0000000000
40
0.0000000000
40
0.0775004451
40
1.0000000000
40
1.0000000000
40
1.0000000000
40
1.0000000000
10
-0.3532846574
20
-13.5622482218
30
0.0000000000
10
-0.3531853223
20
-13.5621893831
30
0.0000000000
10
-0.3519078055
20
-13.5614230552
30
0.0000000000
10
-0.3506858707
20
-13.5605648157
30
0.0000000000
10
-0.3496113431
20
-13.5597055649
30
0.0000000000
11
-0.3532846574
21
-13.5622482218
31
0.0000000000
11
-0.3529876399
21
-13.5620700495
31
0.0000000000
11
-0.3496113431
21
-13.5597055649
31
0.0000000000
0
SPLINE
5
29B
100
AcDbEntity
8
0
100
AcDbSpline
62
7
6
CONTINUOUS
70
0
71
3
72
8
73
4
74
2
42
0.0000001000
43
0.0000001000
44
0.0000000001
12
0.0025250517
22
0.0020191690
32
0.0000000000
13
0.0023232209
23
0.0022523406
33
0.0000000000
40
0.0000000000
40
0.0000000000
40
0.0000000000
40
0.0000000000
40
1.0000000000
40
1.0000000000
40
1.0000000000
40
1.0000000000
10
-0.3496113431
20
-13.5597055649
30
0.0000000000
10
-0.3487696593
20
-13.5590325086
30
0.0000000000
10
-0.3479603146
20
-13.5583180209
30
0.0000000000
10
-0.3471859077
20
-13.5575672407
30
0.0000000000
11
-0.3496113431
21
-13.5597055649
31
0.0000000000
11
-0.3471859077
21
-13.5575672407
31
0.0000000000
0
SPLINE
5
29C
100
AcDbEntity
8
0
100
AcDbSpline
62
7
6
CONTINUOUS
70
0
71
3
72
8
73
4
74
2
42
0.0000001000
43
0.0000001000
44
0.0000000001
12
0.0031672205
22
0.0030705902
32
0.0000000000
13
0.0027578680
23
0.0034362394
33
0.0000000000
40
0.0000000000
40
0.0000000000
40
0.0000000000
40
0.0000000000
40
1.0000000000
40
1.0000000000
40
1.0000000000
40
1.0000000000
10
-0.3471859077
20
-13.5575672407
30
0.0000000000
10
-0.3461301675
20
-13.5565437107
30
0.0000000000
10
-0.3451393609
20
-13.5554527289
30
0.0000000000
10
-0.3442200716
20
-13.5543073158
30
0.0000000000
11
-0.3471859077
21
-13.5575672407
31
0.0000000000
11
-0.3442200716
21
-13.5543073158
31
0.0000000000
0
SPLINE
5
29D
100
AcDbEntity
8
0
100
AcDbSpline
62
7
6
CONTINUOUS
70
0
71
3
72
9
73
5
74
3
42
0.0000001000
43
0.0000001000
44
0.0000000001
12
0.0025897078
22
0.0032267156
32
0.0000000000
13
0.0022170991
23
0.0034861888
33
0.0000000000
40
0.0000000000
40
0.0000000000
40
0.0000000000
40
0.0000000000
40
0.0895932287
40
1.0000000000
40
1.0000000000
40
1.0000000000
40
1.0000000000
10
-0.3442200716
20
-13.5543073158
30
0.0000000000
10
-0.3441427315
20
-13.5542109518
30
0.0000000000
10
-0.3432851455
20
-13.5531310799
30
0.0000000000
10
-0.3424911095
20
-13.5520041780
30
0.0000000000
10
-0.3418182888
20
-13.5509462280
30
0.0000000000
11
-0.3442200716
21
-13.5543073158
31
0.0000000000
11
-0.3439895738
21
-13.5540170759
31
0.0000000000
11
-0.3418182888
21
-13.5509462280
31
0.0000000000
0
SPLINE
5
29E
100
AcDbEntity
8
0
100
AcDbSpline
62
7
6
CONTINUOUS
70
0
71
3
72
8
73
4
74
2
42
0.0000001000
43
0.0000001000
44
0.0000000001
12
0.0022433869
22
0.0035275239
32
0.0000000000
13
0.0018829447
23
0.0037360729
33
0.0000000000
40
0.0000000000
40
0.0000000000
40
0.0000000000
40
0.0000000000
40
1.0000000000
40
1.0000000000
40
1.0000000000
40
1.0000000000
10
-0.3418182888
20
-13.5509462280
30
0.0000000000
10
-0.3410704932
20
-13.5497703867
30
0.0000000000
10
-0.3403845546
20
-13.5485550029
30
0.0000000000
10
-0.3397569063
20
-13.5473096453
30
0.0000000000
11
-0.3418182888
21
-13.5509462280
31
0.0000000000
11
-0.3397569063
21
-13.5473096453
31
0.0000000000
0
SPLINE
5
29F
100
AcDbEntity
8
0
100
AcDbSpline
62
7
6
CONTINUOUS
70
0
71
3
72
8
73
4
74
2
42
0.0000001000
43
0.0000001000
44
0.0000000001
12
0.0020057980
22
0.0039798341
32
0.0000000000
13
0.0016218623
23
0.0041492111
33
0.0000000000
40
0.0000000000
40
0.0000000000
40
0.0000000000
40
0.0000000000
40
1.0000000000
40
1.0000000000
40
1.0000000000
40
1.0000000000
10
-0.3397569063
20
-13.5473096453
30
0.0000000000
10
-0.3390883070
20
-13.5459830339
30
0.0000000000
10
-0.3384858526
20
-13.5446224098
30
0.0000000000
10
-0.3379452318
20
-13.5432393394
30
0.0000000000
11
-0.3397569063
21
-13.5473096453
31
0.0000000000
11
-0.3379452318
21
-13.5432393394
31
0.0000000000
0
SPLINE
5
2A0
100
AcDbEntity
8
0
100
AcDbSpline
62
7
6
CONTINUOUS
70
0
71
3
72
10
73
6
74
4
42
0.0000001000
43
0.0000001000
44
0.0000000001
12
0.0117956166
22
0.0301767313
32
0.0000000000
13
-0.0024173897
23
0.0321850745
33
0.0000000000
40
0.0000000000
40
0.0000000000
40
0.0000000000
40
0.0000000000
40
0.0231399864
40
0.4746880348
40
1.0000000000
40
1.0000000000
40
1.0000000000
40
1.0000000000
10
-0.3379452318
20
-13.5432393394
30
0.0000000000
10
-0.3378542483
20
-13.5430065764
30
0.0000000000
10
-0.3360237617
20
-13.5382186904
30
0.0000000000
10
-0.3337019088
20
-13.5276175882
30
0.0000000000
10
-0.3336495502
20
-13.5170340150
30
0.0000000000
10
-0.3340728447
20
-13.5113982801
30
0.0000000000
11
-0.3379452318
21
-13.5432393394
31
0.0000000000
11
-0.3376775148
21
-13.5425391982
31
0.0000000000
11
-0.3343466203
21
-13.5283508972
31
0.0000000000
11
-0.3340728447
21
-13.5113982801
31
0.0000000000
0
SPLINE
5
2A1
100
AcDbEntity
8
0
100
AcDbSpline
62
7
6
CONTINUOUS
70
0
71
3
72
12
73
8
74
6
42
0.0000001000
43
0.0000001000
44
0.0000000001
12
-0.1533885589
22
-0.5511911414
32
0.0000000000
13
-0.5044899623
23
-0.2728660926
33
0.0000000000
40
0.0000000000
40
0.0000000000
40
0.0000000000
40
0.0000000000
40
0.2509433041
40
0.4894933146
40
0.7140648339
40
0.9264175626
40
1.0000000000
40
1.0000000000
40
1.0000000000
40
1.0000000000
10
0.4531873578
20
8.2083558693
30
0.0000000000
10
0.4403567472
20
8.1622499606
30
0.0000000000
10
0.4092594163
20
8.0738109428
30
0.0000000000
10
0.3439149177
20
7.9535892782
30
0.0000000000
10
0.2621338564
20
7.8529686604
30
0.0000000000
10
0.1860600776
20
7.7910883308
30
0.0000000000
10
0.1389621317
20
7.7632363461
30
0.0000000000
10
0.1265882647
20
7.7565436287
30
0.0000000000
11
0.4531873578
21
8.2083558693
31
0.0000000000
11
0.4048723683
21
8.0731557374
31
0.0000000000
11
0.3390033693
21
7.9536195383
31
0.0000000000
11
0.2574290226
21
7.8543515087
31
0.0000000000
11
0.1629051877
21
7.7780219824
31
0.0000000000
11
0.1265882647
21
7.7565436287
31
0.0000000000
0
SPLINE
5
2A2
100
AcDbEntity
8
0
100
AcDbSpline
62
7
6
CONTINUOUS
70
0
71
3
72
8
73
4
74
2
42
0.0000001000
43
0.0000001000
44
0.0000000001
12
-0.0653617144
22
-0.0353525282
32
0.0000000000
13
-0.0693673146
23
-0.0261310423
33
0.0000000000
40
0.0000000000
40
0.0000000000
40
0.0000000000
40
0.0000000000
40
1.0000000000
40
1.0000000000
40
1.0000000000
40
1.0000000000
10
0.1265882647
20
7.7565436287
30
0.0000000000
10
0.1048010265
20
7.7447594527
30
0.0000000000
10
0.0822272574
20
7.7344469568
30
0.0000000000
10
0.0591048192
20
7.7257366094
30
0.0000000000
11
0.1265882647
21
7.7565436287
31
0.0000000000
11
0.0591048192
21
7.7257366094
31
0.0000000000
0
SPLINE
5
2A3
100
AcDbEntity
8
0
100
AcDbSpline
62
7
6
CONTINUOUS
70
0
71
3
72
15
73
11
74
9
42
0.0000001000
43
0.0000001000
44
0.0000000001
12
0.4085789093
22
-2.6184359785
32
0.0000000000
13
-0.7104885748
23
-2.5531058896
33
0.0000000000
40
0.0000000000
40
0.0000000000
40
0.0000000000
40
0.0000000000
40
0.1357135927
40
0.2689682659
40
0.3993876768
40
0.5266714069
40
0.6505578700
40
0.7708403806
40
0.8873663629
40
1.0000000000
40
1.0000000000
40
1.0000000000
40
1.0000000000
10
0.5463303109
20
10.8377135605
30
0.0000000000
10
0.5648135482
20
10.7192611093
30
0.0000000000
10
0.5963181096
20
10.4836653028
30
0.0000000000
10
0.6271536972
20
10.1320859556
30
0.0000000000
10
0.6410664816
20
9.7868690813
30
0.0000000000
10
0.6380075055
20
9.4496531130
30
0.0000000000
10
0.6179944178
20
9.1219770765
30
0.0000000000
10
0.5811006486
20
8.8053167490
30
0.0000000000
10
0.5274677812
20
8.5011441632
30
0.0000000000
10
0.4798626345
20
8.3042126849
30
0.0000000000
10
0.4531876637
20
8.2083574841
30
0.0000000000
11
0.5463303109
21
10.8377135605
31
0.0000000000
11
0.5938722448
21
10.4812121104
31
0.0000000000
11
0.6245697014
21
10.1294077898
31
0.0000000000
11
0.6383001457
21
9.7840533482
31
0.0000000000
11
0.6350220834
21
9.4467519334
31
0.0000000000
11
0.6147574787
21
9.1190637552
31
0.0000000000
11
0.5775885670
21
8.8024749228
31
0.0000000000
11
0.5236555374
21
8.4984130666
31
0.0000000000
11
0.4531876637
21
8.2083574841
31
0.0000000000
0
SPLINE
5
2A4
100
AcDbEntity
8
0
100
AcDbSpline
62
7
6
CONTINUOUS
70
0
71
3
72
15
73
11
74
9
42
0.0000001000
43
0.0000001000
44
0.0000000001
12
1.3292201639
22
-0.8745297300
32
0.0000000000
13
0.2453513970
23
-1.5720786191
33
0.0000000000
40
0.0000000000
40
0.0000000000
40
0.0000000000
40
0.0000000000
40
0.1120432151
40
0.2305319215
40
0.3542607748
40
0.4819279686
40
0.6119852057
40
0.7428194676
40
0.8727775492
40
1.0000000000
40
1.0000000000
40
1.0000000000
40
1.0000000000
10
-0.2476641577
20
12.1687697190
30
0.0000000000
10
-0.1980207908
20
12.1361080114
30
0.0000000000
10
-0.1005383603
20
12.0616327117
30
0.0000000000
10
0.0340805238
20
11.9300034324
30
0.0000000000
10
0.1586460208
20
11.7779666522
30
0.0000000000
10
0.2704445463
20
11.6089580219
30
0.0000000000
10
0.3671932125
20
11.4266512155
30
0.0000000000
10
0.4469310487
20
11.2349757686
30
0.0000000000
10
0.5080217516
20
11.0381613365
30
0.0000000000
10
0.5359255756
20
10.9043814588
30
0.0000000000
10
0.5463303109
20
10.8377135605
30
0.0000000000
11
-0.2476641577
21
12.1687697190
31
0.0000000000
11
-0.1055978080
21
12.0610737977
31
0.0000000000
11
0.0295834871
21
11.9296622233
31
0.0000000000
11
0.1546596461
21
11.7776351781
31
0.0000000000
11
0.2669556050
21
11.6083649546
31
0.0000000000
11
0.3640833245
21
11.4256399954
31
0.0000000000
11
0.4440532654
21
11.2334416011
31
0.0000000000
11
0.5052382130
21
11.0359236613
31
0.0000000000
11
0.5463303109
21
10.8377135605
31
0.0000000000
0
SPLINE
5
2A5
100
AcDbEntity
8
0
100
AcDbSpline
62
7
6
CONTINUOUS
70
0
71
3
72
9
73
5
74
3
42
0.0000001000
43
0.0000001000
44
0.0000000001
12
0.1111376733
22
-0.0684168551
32
0.0000000000
13
0.1090273538
23
-0.0717320334
33
0.0000000000
40
0.0000000000
40
0.0000000000
40
0.0000000000
40
0.0000000000
40
0.4982910848
40
1.0000000000
40
1.0000000000
40
1.0000000000
40
1.0000000000
10
-0.3577487413
20
12.2388615675
30
0.0000000000
10
-0.3392891040
20
12.2274977312
30
0.0000000000
10
-0.3024173415
20
12.2044080967
30
0.0000000000
10
-0.2658974173
20
12.1807660290
30
0.0000000000
10
-0.2476640855
20
12.1687698288
30
0.0000000000
11
-0.3577487413
21
12.2388615675
31
0.0000000000
11
-0.3026307222
21
12.2043498473
31
0.0000000000
11
-0.2476640855
21
12.1687698288
31
0.0000000000
0
SPLINE
5
2A6
100
AcDbEntity
8
0
100
AcDbSpline
62
7
6
CONTINUOUS
70
0
71
3
72
11
73
7
74
5
42
0.0000001000
43
0.0000001000
44
0.0000000001
12
0.3077415160
22
-0.1076338800
32
0.0000000000
13
0.2706184848
23
0.1835363546
33
0.0000000000
40
0.0000000000
40
0.0000000000
40
0.0000000000
40
0.0000000000
40
0.2815907022
40
0.5431454851
40
0.7919563585
40
1.0000000000
40
1.0000000000
40
1.0000000000
40
1.0000000000
10
-0.4509499218
20
8.3263733877
30
0.0000000000
10
-0.4220642053
20
8.3162704878
30
0.0000000000
10
-0.3643578292
20
8.3017541722
30
0.0000000000
10
-0.2775191462
20
8.2996634395
30
0.0000000000
10
-0.2006138428
20
8.3177782154
30
0.0000000000
10
-0.1562540974
20
8.3411348729
30
0.0000000000
10
-0.1374872790
20
8.3538627301
30
0.0000000000
11
-0.4509499218
21
8.3263733877
31
0.0000000000
11
-0.3617318699
21
8.3047350403
31
0.0000000000
11
-0.2764704673
21
8.3033635723
31
0.0000000000
11
-0.1975981936
21
8.3223171199
31
0.0000000000
11
-0.1374872790
21
8.3538627301
31
0.0000000000
0
SPLINE
5
2A7
100
AcDbEntity
8
0
100
AcDbSpline
62
7
6
CONTINUOUS
70
0
71
3
72
10
73
6
74
4
42
0.0000001000
43
0.0000001000
44
0.0000000001
12
0.6858840448
22
-0.4465220333
32
0.0000000000
13
0.7725288642
23
-0.2702184374
33
0.0000000000
40
0.0000000000
40
0.0000000000
40
0.0000000000
40
0.0000000000
40
0.3458741093
40
0.6793394968
40
1.0000000000
40
1.0000000000
40
1.0000000000
40
1.0000000000
10
-1.1814176262
20
8.6915898669
30
0.0000000000
10
-1.1023411152
20
8.6401097301
30
0.0000000000
10
-0.9433975845
20
8.5444060042
30
0.0000000000
10
-0.6993448014
20
8.4219151593
30
0.0000000000
10
-0.5335230866
20
8.3552561811
30
0.0000000000
10
-0.4509499218
20
8.3263733877
30
0.0000000000
11
-1.1814176262
21
8.6915898669
31
0.0000000000
11
-0.9387184101
21
8.5458957274
31
0.0000000000
11
-0.6946135309
21
8.4238461289
31
0.0000000000
11
-0.4509499218
21
8.3263733877
31
0.0000000000
0
SPLINE
5
2A8
100
AcDbEntity
8
0
100
AcDbSpline
62
7
6
CONTINUOUS
70
0
71
3
72
14
73
10
74
8
42
0.0000001000
43
0.0000001000
44
0.0000000001
12
0.1525177799
22
-0.8455053472
32
0.0000000000
13
0.7200152309
23
-0.4687419680
33
0.0000000000
40
0.0000000000
40
0.0000000000
40
0.0000000000
40
0.0000000000
40
0.1449632773
40
0.2933582653
40
0.4426471621
40
0.5902842008
40
0.7338165246
40
0.8710494328
40
1.0000000000
40
1.0000000000
40
1.0000000000
40
1.0000000000
10
-1.6255971839
20
9.4022385286
30
0.0000000000
10
-1.6182273581
20
9.3613827865
30
0.0000000000
10
-1.5983965180
20
9.2795255301
30
0.0000000000
10
-1.5552443011
20
9.1600877261
30
0.0000000000
10
-1.4993982726
20
9.0451648663
30
0.0000000000
10
-1.4324547353
20
8.9379709018
30
0.0000000000
10
-1.3562863188
20
8.8414479299
30
0.0000000000
10
-1.2730879230
20
8.7583184069
30
0.0000000000
10
-1.2123662368
20
8.7117383246
30
0.0000000000
10
-1.1814174460
20
8.6915901437
30
0.0000000000
11
-1.6255971839
21
9.4022385286
31
0.0000000000
11
-1.5964875587
21
9.2811427663
31
0.0000000000
11
-1.5532661060
21
9.1611987722
31
0.0000000000
11
-1.4971960430
21
9.0458418276
31
0.0000000000
11
-1.4298987328
21
8.9383238958
31
0.0000000000
11
-1.3533122905
21
8.8416732434
31
0.0000000000
11
-1.2696333321
21
8.7586121479
31
0.0000000000
11
-1.1814174460
21
8.6915901437
31
0.0000000000
0
SPLINE
5
2A9
100
AcDbEntity
8
0
100
AcDbSpline
62
7
6
CONTINUOUS
70
0
71
3
72
15
73
11
74
9
42
0.0000001000
43
0.0000001000
44
0.0000000001
12
-0.6788162186
22
-2.2440536762
32
0.0000000000
13
0.4164768053
23
-2.3071877763
33
0.0000000000
40
0.0000000000
40
0.0000000000
40
0.0000000000
40
0.0000000000
40
0.1143431138
40
0.2319495800
40
0.3527392124
40
0.4766280515
40
0.6034880949
40
0.7331515183
40
0.8654166200
40
1.0000000000
40
1.0000000000
40
1.0000000000
40
1.0000000000
10
-1.5432994026
20
11.7242552361
30
0.0000000000
10
-1.5691720560
20
11.6387245412
30
0.0000000000
10
-1.6153681543
20
11.4632622611
30
0.0000000000
10
-1.6673603195
20
11.1923547472
30
0.0000000000
10
-1.7027680796
20
10.9112647807
30
0.0000000000
10
-1.7214072733
20
10.6213377636
30
0.0000000000
10
-1.7231938286
20
10.3238939541
30
0.0000000000
10
-1.7081273372
20
10.0202810296
30
0.0000000000
10
-1.6762994241
20
9.7119136735
30
0.0000000000
10
-1.6442808026
20
9.5057415716
30
0.0000000000
10
-1.6255971839
20
9.4022385286
30
0.0000000000
11
-1.5432994026
21
11.7242552361
31
0.0000000000
11
-1.6118001418
21
11.4650802095
31
0.0000000000
11
-1.6640099048
21
11.1943428429
31
0.0000000000
11
-1.6996287698
21
10.9134033965
31
0.0000000000
11
-1.7184749020
21
10.6235610297
31
0.0000000000
11
-1.7204548246
21
10.3261472753
31
0.0000000000
11
-1.7055632530
21
10.0225194358
31
0.0000000000
11
-1.6738816609
21
9.7140497327
31
0.0000000000
11
-1.6255971839
21
9.4022385286
31
0.0000000000
0
SPLINE
5
2AA
100
AcDbEntity
8
0
100
AcDbSpline
62
7
6
CONTINUOUS
70
0
71
3
72
11
73
7
74
5
42
0.0000001000
43
0.0000001000
44
0.0000000001
12
-0.0138689289
22
-0.0480767584
32
0.0000000000
13
-0.0475275119
23
-0.0163408864
33
0.0000000000
40
0.0000000000
40
0.0000000000
40
0.0000000000
40
0.0000000000
40
0.3114635490
40
0.5920252839
40
0.8589274445
40
1.0000000000
40
1.0000000000
40
1.0000000000
40
1.0000000000
10
-0.9303017078
20
11.9975410421
30
0.0000000000
10
-0.9317415964
20
11.9925496561
30
0.0000000000
10
-0.9354087314
20
11.9832798998
30
0.0000000000
10
-0.9438103998
20
11.9714800466
30
0.0000000000
10
-0.9529972273
20
11.9642849894
30
0.0000000000
10
-0.9592740956
20
11.9615195310
30
0.0000000000
10
-0.9615090381
20
11.9607511141
30
0.0000000000
11
-0.9303017078
21
11.9975410421
31
0.0000000000
11
-0.9361879707
21
11.9831106295
31
0.0000000000
11
-0.9444560106
21
11.9717651603
31
0.0000000000
11
-0.9550328250
21
11.9636111420
31
0.0000000000
11
-0.9615090381
21
11.9607511141
31
0.0000000000
0
SPLINE
5
2AB
100
AcDbEntity
8
0
100
AcDbSpline
62
7
6
CONTINUOUS
70
0
71
3
72
10
73
6
74
4
42
0.0000001000
43
0.0000001000
44
0.0000000001
12
0.0603220972
22
-0.4465766267
32
0.0000000000
13
-0.1249021492
23
-0.4329767801
33
0.0000000000
40
0.0000000000
40
0.0000000000
40
0.0000000000
40
0.0000000000
40
0.3523166079
40
0.6880119315
40
1.0000000000
40
1.0000000000
40
1.0000000000
40
1.0000000000
10
-0.9058662322
20
12.4446991235
30
0.0000000000
10
-0.8987820733
20
12.3922536694
30
0.0000000000
10
-0.8907957210
20
12.2889085676
30
0.0000000000
10
-0.8984002360
20
12.1384835008
30
0.0000000000
10
-0.9173121164
20
12.0425688288
30
0.0000000000
10
-0.9303014431
20
11.9975409657
30
0.0000000000
11
-0.9058662322
21
12.4446991235
31
0.0000000000
11
-0.8940689666
21
12.2863728048
31
0.0000000000
11
-0.9023378197
21
12.1353238215
31
0.0000000000
11
-0.9303014431
21
11.9975409657
31
0.0000000000
0
SPLINE
5
2AC
100
AcDbEntity
8
0
100
AcDbSpline
62
7
6
CONTINUOUS
70
0
71
3
72
13
73
9
74
7
42
0.0000001000
43
0.0000001000
44
0.0000000001
12
0.1220920999
22
-0.0470201731
32
0.0000000000
13
0.0175648245
23
-0.1296489664
33
0.0000000000
40
0.0000000000
40
0.0000000000
40
0.0000000000
40
0.0000000000
40
0.1439025844
40
0.2986294028
40
0.4680591056
40
0.6453138454
40
0.8220741363
40
1.0000000000
40
1.0000000000
40
1.0000000000
40
1.0000000000
10
-0.9767480412
20
12.5483609851
30
0.0000000000
10
-0.9708915849
20
12.5461055437
30
0.0000000000
10
-0.9593661588
20
12.5397273520
30
0.0000000000
10
-0.9438800107
20
12.5262628146
30
0.0000000000
10
-0.9300880970
20
12.5091577034
30
0.0000000000
10
-0.9187097848
20
12.4892630215
30
0.0000000000
10
-0.9102855488
20
12.4675637626
30
0.0000000000
10
-0.9069079777
20
12.4523884249
30
0.0000000000
10
-0.9058662322
20
12.4446991235
30
0.0000000000
11
-0.9767480412
21
12.5483609851
31
0.0000000000
11
-0.9601658935
21
12.5394448064
31
0.0000000000
11
-0.9447785534
21
12.5262908553
31
0.0000000000
11
-0.9307810081
21
12.5091022711
31
0.0000000000
11
-0.9192227202
21
12.4889970225
31
0.0000000000
11
-0.9108602138
21
12.4674357781
31
0.0000000000
11
-0.9058662322
21
12.4446991235
31
0.0000000000
0
SPLINE
5
2AD
100
AcDbEntity
8
0
100
AcDbSpline
62
7
6
CONTINUOUS
70
0
71
3
72
9
73
5
74
3
42
0.0000001000
43
0.0000001000
44
0.0000000001
12
0.1123885480
22
-0.0387562142
32
0.0000000000
13
0.1109125469
23
-0.0427976260
33
0.0000000000
40
0.0000000000
40
0.0000000000
40
0.0000000000
40
0.0000000000
40
0.4982117822
40
1.0000000000
40
1.0000000000
40
1.0000000000
40
1.0000000000
10
-1.0884070852
20
12.5891571950
30
0.0000000000
10
-1.0697426522
20
12.5827209275
30
0.0000000000
10
-1.0323980097
20
12.5694569530
30
0.0000000000
10
-0.9952995776
20
12.5555194333
30
0.0000000000
10
-0.9767480412
20
12.5483609851
30
0.0000000000
11
-1.0884070852
21
12.5891571950
31
0.0000000000
11
-1.0325926835
21
12.5693372067
31
0.0000000000
11
-0.9767480412
21
12.5483609851
31
0.0000000000
0
SPLINE
5
2AE
100
AcDbEntity
8
0
100
AcDbSpline
62
7
6
CONTINUOUS
70
0
71
3
72
13
73
9
74
7
42
0.0000001000
43
0.0000001000
44
0.0000000001
12
0.0906042423
22
-0.0795338602
32
0.0000000000
13
0.0035599177
23
-0.1205076372
33
0.0000000000
40
0.0000000000
40
0.0000000000
40
0.0000000000
40
0.0000000000
40
0.1627118232
40
0.3306297855
40
0.5051025130
40
0.6783696774
40
0.8429858751
40
1.0000000000
40
1.0000000000
40
1.0000000000
40
1.0000000000
10
-0.5801374306
20
-9.5740346054
30
0.0000000000
10
-0.5752233035
20
-9.5783483052
30
0.0000000000
10
-0.5659113209
20
-9.5879012045
30
0.0000000000
10
-0.5537500273
20
-9.6042150406
30
0.0000000000
10
-0.5434896831
20
-9.6222814910
30
0.0000000000
10
-0.5355989634
20
-9.6413606068
30
0.0000000000
10
-0.5304221994
20
-9.6606196712
30
0.0000000000
10
-0.5288840261
20
-9.6735188562
30
0.0000000000
10
-0.5286977070
20
-9.6798259900
30
0.0000000000
11
-0.5801374306
21
-9.5740346054
31
0.0000000000
11
-0.5663852544
21
-9.5880234407
31
0.0000000000
11
-0.5542520180
21
-9.6042287854
31
0.0000000000
11
-0.5438593338
21
-9.6225165126
31
0.0000000000
11
-0.5359047097
21
-9.6418317789
31
0.0000000000
11
-0.5308210585
21
-9.6610158003
31
0.0000000000
11
-0.5286977070
21
-9.6798259900
31
0.0000000000
0
SPLINE
5
2AF
100
AcDbEntity
8
0
100
AcDbSpline
62
7
6
CONTINUOUS
70
0
71
3
72
8
73
4
74
2
42
0.0000001000
43
0.0000001000
44
0.0000000001
12
0.0473120005
22
-0.0053808341
32
0.0000000000
13
0.0466906042
23
-0.0095842690
33
0.0000000000
40
0.0000000000
40
0.0000000000
40
0.0000000000
40
0.0000000000
40
1.0000000000
40
1.0000000000
40
1.0000000000
40
1.0000000000
10
-1.0121560579
20
-9.3580339457
30
0.0000000000
10
-0.9963853911
20
-9.3598275571
30
0.0000000000
10
-0.9806897771
20
-9.3623652184
30
0.0000000000
10
-0.9651262424
20
-9.3655599747
30
0.0000000000
11
-1.0121560579
21
-9.3580339457
31
0.0000000000
11
-0.9651262424
21
-9.3655599747
31
0.0000000000
0
SPLINE
5
2B0
100
AcDbEntity
8
0
100
AcDbSpline
62
7
6
CONTINUOUS
70
0
71
3
72
13
73
9
74
7
42
0.0000001000
43
0.0000001000
44
0.0000000001
12
0.4338116733
22
-0.0890493460
32
0.0000000000
13
0.3324898027
23
-0.2918648751
33
0.0000000000
40
0.0000000000
40
0.0000000000
40
0.0000000000
40
0.0000000000
40
0.0533068314
40
0.2230725728
40
0.4038822674
40
0.5944420417
40
0.7927577268
40
1.0000000000
40
1.0000000000
40
1.0000000000
40
1.0000000000
10
-0.9651262424
20
-9.3655599747
30
0.0000000000
10
-0.9574178671
20
-9.3671422875
30
0.0000000000
10
-0.9252962887
20
-9.3744383056
30
0.0000000000
10
-0.8683857501
20
-9.3924237019
30
0.0000000000
10
-0.7952476299
20
-9.4247170114
30
0.0000000000
10
-0.7220032959
20
-9.4661187170
30
0.0000000000
10
-0.6495212224
20
-9.5160419222
30
0.0000000000
10
-0.6031061289
20
-9.5538724166
30
0.0000000000
10
-0.5801374814
20
-9.5740346633
30
0.0000000000
11
-0.9651262424
21
-9.3655599747
31
0.0000000000
11
-0.9421052449
21
-9.3707799177
31
0.0000000000
11
-0.8704147969
21
-9.3931770099
31
0.0000000000
11
-0.7971452806
21
-9.4252793648
31
0.0000000000
11
-0.7236522290
21
-9.4665890047
31
0.0000000000
11
-0.6512992737
21
-9.5162188007
31
0.0000000000
11
-0.5801374814
21
-9.5740346633
31
0.0000000000
0
SPLINE
5
2B1
100
AcDbEntity
8
0
100
AcDbSpline
62
7
6
CONTINUOUS
70
0
71
3
72
12
73
8
74
6
42
0.0000001000
43
0.0000001000
44
0.0000000001
12
0.0047690227
22
-0.0634949220
32
0.0000000000
13
-0.0605601882
23
-0.0208393531
33
0.0000000000
40
0.0000000000
40
0.0000000000
40
0.0000000000
40
0.0000000000
40
0.2662759989
40
0.4951621468
40
0.7008826364
40
0.8905276437
40
1.0000000000
40
1.0000000000
40
1.0000000000
40
1.0000000000
10
-0.3340728424
20
-13.5113983117
30
0.0000000000
10
-0.3336495503
20
-13.5170340363
30
0.0000000000
10
-0.3337019111
20
-13.5276175986
30
0.0000000000
10
-0.3369123503
20
-13.5422758033
30
0.0000000000
10
-0.3431847827
20
-13.5541864050
30
0.0000000000
10
-0.3512911487
20
-13.5615734678
30
0.0000000000
10
-0.3571119831
20
-13.5642672579
30
0.0000000000
10
-0.3593218719
20
-13.5650277022
30
0.0000000000
11
-0.3340728424
21
-13.5113983117
31
0.0000000000
11
-0.3343466203
21
-13.5283508972
31
0.0000000000
11
-0.3376775148
21
-13.5425391982
31
0.0000000000
11
-0.3439895738
21
-13.5540170759
31
0.0000000000
11
-0.3529876399
21
-13.5620700495
31
0.0000000000
11
-0.3593218719
21
-13.5650277022
31
0.0000000000
0
SPLINE
5
2B2
100
AcDbEntity
8
0
100
AcDbSpline
62
7
6
CONTINUOUS
70
0
71
3
72
10
73
6
74
4
42
0.0000001000
43
0.0000001000
44
0.0000000001
12
0.0153983861
22
0.0104635146
32
0.0000000000
13
0.0185523170
23
0.0017097644
33
0.0000000000
40
0.0000000000
40
0.0000000000
40
0.0000000000
40
0.0000000000
40
0.1047645544
40
0.7763207935
40
1.0000000000
40
1.0000000000
40
1.0000000000
40
1.0000000000
10
-1.0389708710
20
-9.3640024784
30
0.0000000000
10
-1.0384331359
20
-9.3636370765
30
0.0000000000
10
-1.0343746329
20
-9.3610396270
30
0.0000000000
10
-1.0284738653
20
-9.3588117362
30
0.0000000000
10
-1.0229637396
20
-9.3580233072
30
0.0000000000
10
-1.0215804838
20
-9.3578958276
30
0.0000000000
11
-1.0389708710
21
-9.3640024784
31
0.0000000000
11
-1.0373282319
21
-9.3629518301
31
0.0000000000
11
-1.0257030011
21
-9.3584925846
31
0.0000000000
11
-1.0215804838
21
-9.3578958276
31
0.0000000000
0
SPLINE
5
2B3
100
AcDbEntity
8
0
100
AcDbSpline
62
7
6
CONTINUOUS
70
0
71
3
72
8
73
4
74
2
42
0.0000001000
43
0.0000001000
44
0.0000000001
12
0.0094129280
22
0.0008674868
32
0.0000000000
13
0.0093452850
23
-0.0010761804
33
0.0000000000
40
0.0000000000
40
0.0000000000
40
0.0000000000
40
0.0000000000
40
1.0000000000
40
1.0000000000
40
1.0000000000
40
1.0000000000
10
-1.0215804838
20
-9.3578958276
30
0.0000000000
10
-1.0184428411
20
-9.3576066653
30
0.0000000000
10
-1.0152716392
20
-9.3576751636
30
0.0000000000
10
-1.0121565442
20
-9.3580338904
30
0.0000000000
11
-1.0215804838
21
-9.3578958276
31
0.0000000000
11
-1.0121565442
21
-9.3580338904
31
0.0000000000
0
SPLINE
5
2B4
100
AcDbEntity
8
0
100
AcDbSpline
62
7
6
CONTINUOUS
70
0
71
3
72
9
73
5
74
3
42
0.0000001000
43
0.0000001000
44
0.0000000001
12
0.0127464973
22
0.0086416880
32
0.0000000000
13
0.0149786908
23
0.0035344795
33
0.0000000000
40
0.0000000000
40
0.0000000000
40
0.0000000000
40
0.0000000000
40
0.6599431072
40
1.0000000000
40
1.0000000000
40
1.0000000000
40
1.0000000000
10
-0.4148631526
20
12.2417834414
30
0.0000000000
10
-0.4120591649
20
12.2436844489
30
0.0000000000
10
-0.4074779570
20
12.2460774388
30
0.0000000000
10
-0.4025590106
20
12.2475578455
30
0.0000000000
10
-0.4008611415
20
12.2479584869
30
0.0000000000
11
-0.4148631526
21
12.2417834414
31
0.0000000000
11
-0.4058653982
21
12.2464454706
31
0.0000000000
11
-0.4008611415
21
12.2479584869
31
0.0000000000
0
SPLINE
5
2B5
100
AcDbEntity
8
0
100
AcDbSpline
62
7
6
CONTINUOUS
70
0
71
3
72
8
73
4
74
2
42
0.0000001000
43
0.0000001000
44
0.0000000001
12
0.0098505733
22
0.0023244121
32
0.0000000000
13
0.0101130936
23
0.0000776442
33
0.0000000000
40
0.0000000000
40
0.0000000000
40
0.0000000000
40
0.0000000000
40
1.0000000000
40
1.0000000000
40
1.0000000000
40
1.0000000000
10
-0.4008611415
20
12.2479584869
30
0.0000000000
10
-0.3975776171
20
12.2487332909
30
0.0000000000
10
-0.3942000414
20
12.2491236930
30
0.0000000000
10
-0.3908290102
20
12.2491495744
30
0.0000000000
11
-0.4008611415
21
12.2479584869
31
0.0000000000
11
-0.3908290102
21
12.2491495744
31
0.0000000000
0
SPLINE
5
2B6
100
AcDbEntity
8
0
100
AcDbSpline
62
7
6
CONTINUOUS
70
0
71
3
72
8
73
4
74
2
42
0.0000001000
43
0.0000001000
44
0.0000000001
12
0.0105414529
22
0.0000809330
32
0.0000000000
13
0.0103323106
23
-0.0020775698
33
0.0000000000
40
0.0000000000
40
0.0000000000
40
0.0000000000
40
0.0000000000
40
1.0000000000
40
1.0000000000
40
1.0000000000
40
1.0000000000
10
-0.3908290102
20
12.2491495744
30
0.0000000000
10
-0.3873151925
20
12.2491765520
30
0.0000000000
10
-0.3838093400
20
12.2488067427
30
0.0000000000
10
-0.3803652365
20
12.2481142194
30
0.0000000000
11
-0.3908290102
21
12.2491495744
31
0.0000000000
11
-0.3803652365
21
12.2481142194
31
0.0000000000
0
SPLINE
5
2B7
100
AcDbEntity
8
0
100
AcDbSpline
62
7
6
CONTINUOUS
70
0
71
3
72
9
73
5
74
3
42
0.0000001000
43
0.0000001000
44
0.0000000001
12
0.0113680333
22
-0.0022858278
32
0.0000000000
13
0.0107389086
23
-0.0043465609
33
0.0000000000
40
0.0000000000
40
0.0000000000
40
0.0000000000
40
0.0000000000
40
0.5161265660
40
1.0000000000
40
1.0000000000
40
1.0000000000
40
1.0000000000
10
-0.3803652365
20
12.2481142194
30
0.0000000000
10
-0.3784094552
20
12.2477209606
30
0.0000000000
10
-0.3746586828
20
12.2467573974
30
0.0000000000
10
-0.3710195896
20
12.2454541338
30
0.0000000000
10
-0.3692874987
20
12.2447530720
30
0.0000000000
11
-0.3803652365
21
12.2481142194
31
0.0000000000
11
-0.3745674585
21
12.2466358278
31
0.0000000000
11
-0.3692874987
21
12.2447530720
31
0.0000000000
0
SPLINE
5
2B8
100
AcDbEntity
8
0
100
AcDbSpline
62
7
6
CONTINUOUS
70
0
71
3
72
8
73
4
74
2
42
0.0000001000
43
0.0000001000
44
0.0000000001
12
0.0120342491
22
-0.0048708485
32
0.0000000000
13
0.0110106985
23
-0.0067992711
33
0.0000000000
40
0.0000000000
40
0.0000000000
40
0.0000000000
40
0.0000000000
40
1.0000000000
40
1.0000000000
40
1.0000000000
40
1.0000000000
10
-0.3692874987
20
12.2447530720
30
0.0000000000
10
-0.3652760824
20
12.2431294558
30
0.0000000000
10
-0.3614189741
20
12.2411279912
30
0.0000000000
10
-0.3577487413
20
12.2388615675
30
0.0000000000
11
-0.3692874987
21
12.2447530720
31
0.0000000000
11
-0.3577487413
21
12.2388615675
31
0.0000000000
0
SPLINE
5
2B9
100
AcDbEntity
8
0
100
AcDbSpline
62
7
6
CONTINUOUS
70
0
71
3
72
12
73
8
74
6
42
0.0000001000
43
0.0000001000
44
0.0000000001
12
-0.3507131566
22
-0.1203109285
32
0.0000000000
13
-0.1070672427
23
-0.3539465781
33
0.0000000000
40
0.0000000000
40
0.0000000000
40
0.0000000000
40
0.0000000000
40
0.0351266788
40
0.2587708342
40
0.4899437496
40
0.7356951942
40
1.0000000000
40
1.0000000000
40
1.0000000000
40
1.0000000000
10
-1.3098070450
20
11.9937481618
30
0.0000000000
10
-1.3139135078
20
11.9923394541
30
0.0000000000
10
-1.3439491663
20
11.9813366820
30
0.0000000000
10
-1.3974155802
20
11.9517707609
30
0.0000000000
10
-1.4604699302
20
11.8914932924
30
0.0000000000
10
-1.5106261165
20
11.8143045476
30
0.0000000000
10
-1.5338669716
20
11.7554386069
30
0.0000000000
10
-1.5432997672
20
11.7242553464
30
0.0000000000
11
-1.3098070450
21
11.9937481618
31
0.0000000000
11
-1.3220347445
21
11.9892673261
31
0.0000000000
11
-1.3944909955
21
11.9493993547
31
0.0000000000
11
-1.4566547164
21
11.8907199980
31
0.0000000000
11
-1.5067537924
21
11.8149016483
31
0.0000000000
11
-1.5432997672
21
11.7242553464
31
0.0000000000
0
SPLINE
5
2BA
100
AcDbEntity
8
0
100
AcDbSpline
62
7
6
CONTINUOUS
70
0
71
3
72
12
73
8
74
6
42
0.0000001000
43
0.0000001000
44
0.0000000001
12
0.5142263664
22
0.3490505694
32
0.0000000000
13
0.5863181921
23
-0.2022421825
33
0.0000000000
40
0.0000000000
40
0.0000000000
40
0.0000000000
40
0.0000000000
40
0.0908205001
40
0.3074974096
40
0.5276543485
40
0.7571556635
40
1.0000000000
40
1.0000000000
40
1.0000000000
40
1.0000000000
10
-1.6839664758
20
12.5305356835
30
0.0000000000
10
-1.6683990438
20
12.5411026659
30
0.0000000000
10
-1.6140442227
20
12.5744426475
30
0.0000000000
10
-1.5121632756
20
12.6160805083
30
0.0000000000
10
-1.3749913765
20
12.6380216161
30
0.0000000000
10
-1.2310856607
20
12.6298552772
30
0.0000000000
10
-1.1358684359
20
12.6055283178
30
0.0000000000
10
-1.0884070852
20
12.5891571950
30
0.0000000000
11
-1.6839664758
21
12.5305356835
31
0.0000000000
11
-1.6358535417
21
12.5600051953
31
0.0000000000
11
-1.5114619453
21
12.6108638322
31
0.0000000000
11
-1.3767053480
21
12.6328934561
31
0.0000000000
11
-1.2345521682
21
12.6255846028
31
0.0000000000
11
-1.0884070852
21
12.5891571950
31
0.0000000000
0
SPLINE
5
2BB
100
AcDbEntity
8
0
100
AcDbSpline
62
7
6
CONTINUOUS
70
0
71
3
72
9
73
5
74
3
42
0.0000001000
43
0.0000001000
44
0.0000000001
12
0.0374351524
22
-0.2921553736
32
0.0000000000
13
0.1355905890
23
-0.2622046615
33
0.0000000000
40
0.0000000000
40
0.0000000000
40
0.0000000000
40
0.0000000000
40
0.7334712503
40
1.0000000000
40
1.0000000000
40
1.0000000000
40
1.0000000000
10
-7.6176694035
20
-14.1796690152
30
0.0000000000
10
-7.6085168675
20
-14.2510982043
30
0.0000000000
10
-7.5848314865
20
-14.3475023102
30
0.0000000000
10
-7.5440848498
20
-14.4372406669
30
0.0000000000
10
-7.5320385865
20
-14.4605356938
30
0.0000000000
11
-7.6176694035
21
-14.1796690152
31
0.0000000000
11
-7.5645931598
21
-14.3889314443
31
0.0000000000
11
-7.5320385865
21
-14.4605356938
31
0.0000000000
0
SPLINE
5
2BC
100
AcDbEntity
8
0
100
AcDbSpline
62
7
6
CONTINUOUS
70
0
71
3
72
10
73
6
74
4
42
0.0000001000
43
0.0000001000
44
0.0000000001
12
0.2047929816
22
-0.3960280342
32
0.0000000000
13
0.3997192593
23
-0.1989067814
33
0.0000000000
40
0.0000000000
40
0.0000000000
40
0.0000000000
40
0.0000000000
40
0.3392193112
40
0.8286141953
40
1.0000000000
40
1.0000000000
40
1.0000000000
40
1.0000000000
10
-7.5320385865
20
-14.4605356938
30
0.0000000000
10
-7.5088820084
20
-14.5053158128
30
0.0000000000
10
-7.4416108534
20
-14.6090787442
30
0.0000000000
10
-7.3301875824
20
-14.7100931609
30
0.0000000000
10
-7.2445668245
20
-14.7588435323
30
0.0000000000
10
-7.2217314222
20
-14.7702067986
30
0.0000000000
11
-7.5320385865
21
-14.4605356938
31
0.0000000000
11
-7.4496037043
21
-14.5869109799
31
0.0000000000
11
-7.2881746184
21
-14.7323441312
31
0.0000000000
11
-7.2217314222
21
-14.7702067986
31
0.0000000000
0
SPLINE
5
2BD
100
AcDbEntity
8
0
100
AcDbSpline
62
7
6
CONTINUOUS
70
0
71
3
72
10
73
6
74
4
42
0.0000001000
43
0.0000001000
44
0.0000000001
12
0.1486153444
22
-9.7573733946
32
0.0000000000
13
1.2323958817
23
-9.6803749975
33
0.0000000000
40
0.0000000000
40
0.0000000000
40
0.0000000000
40
0.0000000000
40
0.3378858301
40
0.6757897075
40
1.0000000000
40
1.0000000000
40
1.0000000000
40
1.0000000000
10
-8.2928295646
20
-4.4486476193
30
0.0000000000
10
-8.2760912249
20
-5.5476070223
30
0.0000000000
10
-8.2047399881
20
-7.7452295094
30
0.0000000000
10
-7.9807058796
20
-10.9910157616
30
0.0000000000
10
-7.7509217207
20
-13.1331105395
30
0.0000000000
10
-7.6177365776
20
-14.1792696092
30
0.0000000000
11
-8.2928295646
21
-4.4486476193
31
0.0000000000
11
-8.1847307855
21
-7.7441324901
31
0.0000000000
11
-7.9564251021
21
-11.0336426473
31
0.0000000000
11
-7.6177365776
21
-14.1792696092
31
0.0000000000
0
SPLINE
5
2BE
100
AcDbEntity
8
0
100
AcDbSpline
62
7
6
CONTINUOUS
70
0
71
3
72
10
73
6
74
4
42
0.0000001000
43
0.0000001000
44
0.0000000001
12
-0.2466228115
22
-16.4518466370
32
0.0000000000
13
0.2505802708
23
-16.4517870703
33
0.0000000000
40
0.0000000000
40
0.0000000000
40
0.0000000000
40
0.0000000000
40
0.3338803711
40
0.6700007225
40
1.0000000000
40
1.0000000000
40
1.0000000000
40
1.0000000000
10
-8.2928313806
20
12.0044895739
30
0.0000000000
10
-8.3202788858
20
10.1735066869
30
0.0000000000
10
-8.3572570672
20
6.4989579458
30
0.0000000000
10
-8.3573760318
20
1.0143091033
30
0.0000000000
10
-8.3203933326
20
-2.6389551651
30
0.0000000000
10
-8.2928295632
20
-4.4486477808
30
0.0000000000
11
-8.2928313806
21
12.0044895739
31
0.0000000000
11
-8.3479703984
21
6.5112006797
31
0.0000000000
11
-8.3479402077
21
0.9807799337
31
0.0000000000
11
-8.2928295632
21
-4.4486477808
31
0.0000000000
0
SPLINE
5
2BF
100
AcDbEntity
8
0
100
AcDbSpline
62
7
6
CONTINUOUS
70
0
71
3
72
10
73
6
74
4
42
0.0000001000
43
0.0000001000
44
0.0000000001
12
-1.1663605750
22
-10.3907592480
32
0.0000000000
13
-0.1567235961
23
-10.4548433770
33
0.0000000000
40
0.0000000000
40
0.0000000000
40
0.0000000000
40
0.0000000000
40
0.3365887623
40
0.6745322146
40
1.0000000000
40
1.0000000000
40
1.0000000000
40
1.0000000000
10
-7.6186193319
20
22.4351035556
30
0.0000000000
10
-7.7494806194
20
21.2692992907
30
0.0000000000
10
-7.9762725045
20
18.9288382430
30
0.0000000000
10
-8.2019636124
20
15.4502678925
30
0.0000000000
10
-8.2758285459
20
13.1387277027
30
0.0000000000
10
-8.2928313731
20
12.0044894627
30
0.0000000000
11
-7.6186193319
21
22.4351035556
31
0.0000000000
11
-7.9572528304
21
18.9320579714
31
0.0000000000
11
-8.1850939854
21
15.4058797928
31
0.0000000000
11
-8.2928313731
21
12.0044894627
31
0.0000000000
0
SPLINE
5
2C0
100
AcDbEntity
8
0
100
AcDbSpline
62
7
6
CONTINUOUS
70
0
71
3
72
12
73
8
74
6
42
0.0000001000
43
0.0000001000
44
0.0000000001
12
-0.9880157057
22
-0.5533375452
32
0.0000000000
13
-0.1261554788
23
-1.1245416549
33
0.0000000000
40
0.0000000000
40
0.0000000000
40
0.0000000000
40
0.0000000000
40
0.1468236998
40
0.3720613533
40
0.6052180587
40
0.8400277758
40
1.0000000000
40
1.0000000000
40
1.0000000000
40
1.0000000000
10
-7.0343800714
20
23.3589261066
30
0.0000000000
10
-7.0827347785
20
23.3318450847
30
0.0000000000
10
-7.1993091509
20
23.2519069574
30
0.0000000000
10
-7.3587851075
20
23.0866822869
30
0.0000000000
10
-7.4985769526
20
22.8640822851
30
0.0000000000
10
-7.5835687293
20
22.6418662739
30
0.0000000000
10
-7.6118995120
20
22.4949446423
30
0.0000000000
10
-7.6186266362
20
22.4349794990
30
0.0000000000
11
-7.0343800714
21
23.3589261066
31
0.0000000000
11
-7.1718539805
21
23.2653852498
31
0.0000000000
11
-7.3498542567
21
23.0835188881
31
0.0000000000
11
-7.4905406008
21
22.8608069960
31
0.0000000000
11
-7.5848173534
21
22.6128300394
31
0.0000000000
11
-7.6186266362
21
22.4349794990
31
0.0000000000
0
SPLINE
5
2C1
100
AcDbEntity
8
0
100
AcDbSpline
62
7
6
CONTINUOUS
70
0
71
3
72
11
73
7
74
5
42
0.0000001000
43
0.0000001000
44
0.0000000001
12
0.2107777979
22
0.1178606348
32
0.0000000000
13
0.2150399456
23
-0.1075199728
33
0.0000000000
40
0.0000000000
40
0.0000000000
40
0.0000000000
40
0.0000000000
40
0.1579985602
40
0.4151871096
40
0.6932458262
40
1.0000000000
40
1.0000000000
40
1.0000000000
40
1.0000000000
10
-4.2992747898
20
24.8901021899
30
0.0000000000
10
-4.2881739269
20
24.8963094601
30
0.0000000000
10
-4.2573578642
20
24.9097002701
30
0.0000000000
10
-4.2015035317
20
24.9177899330
30
0.0000000000
10
-4.1339673031
20
24.9082526643
30
0.0000000000
10
-4.0899588268
20
24.8910070597
30
0.0000000000
10
-4.0679706932
20
24.8800129929
30
0.0000000000
11
-4.2992747898
21
24.8901021899
31
0.0000000000
11
-4.2643383229
21
24.9052635613
31
0.0000000000
11
-4.2032295329
21
24.9147045243
31
0.0000000000
11
-4.1369242845
21
24.9061765166
31
0.0000000000
11
-4.0679706932
21
24.8800129929
31
0.0000000000
0
SPLINE
5
2C2
100
AcDbEntity
8
0
100
AcDbSpline
62
7
6
CONTINUOUS
70
0
71
3
72
11
73
7
74
5
42
0.0000001000
43
0.0000001000
44
0.0000000001
12
0.5966304465
22
-0.2986818730
32
0.0000000000
13
0.6107472629
23
0.2703592527
33
0.0000000000
40
0.0000000000
40
0.0000000000
40
0.0000000000
40
0.0000000000
40
0.2259440060
40
0.5063644570
40
0.8011935847
40
1.0000000000
40
1.0000000000
40
1.0000000000
40
1.0000000000
10
7.4681917537
20
-22.1152235873
30
0.0000000000
10
7.5131267781
20
-22.1377187136
30
0.0000000000
10
7.6196218897
20
-22.1773643932
30
0.0000000000
10
7.7982891737
20
-22.1982192488
30
0.0000000000
10
7.9702609736
20
-22.1736525784
30
0.0000000000
10
8.0741443220
20
-22.1365170266
30
0.0000000000
10
8.1146178134
20
-22.1186006420
30
0.0000000000
11
7.4681917537
21
-22.1152235873
31
0.0000000000
11
7.6094439788
21
-22.1678299145
31
0.0000000000
11
7.7949623301
21
-22.1899475011
31
0.0000000000
11
7.9895297860
21
-22.1629467082
31
0.0000000000
11
8.1146178134
21
-22.1186006420
31
0.0000000000
0
SPLINE
5
2C3
100
AcDbEntity
8
0
100
AcDbSpline
62
7
6
CONTINUOUS
70
0
71
3
72
15
73
11
74
9
42
0.0000001000
43
0.0000001000
44
0.0000000001
12
0.6579429531
22
-0.3289714766
32
0.0000000000
13
0.0000000000
23
-0.7356025842
33
0.0000000000
40
0.0000000000
40
0.0000000000
40
0.0000000000
40
0.0000000000
40
0.1103200629
40
0.2298775069
40
0.3567611495
40
0.4883322642
40
0.6215380565
40
0.7531889666
40
0.8802256902
40
1.0000000000
40
1.0000000000
40
1.0000000000
40
1.0000000000
10
10.7815140195
20
17.4552706365
30
0.0000000000
10
10.8057087889
20
17.4431732519
30
0.0000000000
10
10.8536659095
20
17.4129003144
30
0.0000000000
10
10.9195280533
20
17.3548917160
30
0.0000000000
10
10.9801730467
20
17.2844350227
30
0.0000000000
10
11.0333307772
20
17.2041687230
30
0.0000000000
10
11.0770355136
20
17.1170867337
30
0.0000000000
10
11.1096499340
20
17.0264388712
30
0.0000000000
10
11.1299544226
20
16.9356386689
30
0.0000000000
10
11.1349462562
20
16.8750589629
30
0.0000000000
10
11.1349462562
20
16.8456901989
30
0.0000000000
11
10.7815140195
21
17.4552706365
31
0.0000000000
11
10.8504676831
21
17.4124805152
31
0.0000000000
11
10.9167730750
21
17.3547031110
31
0.0000000000
11
10.9778819802
21
17.2841531389
31
0.0000000000
11
11.0314432022
21
17.2035408061
31
0.0000000000
11
11.0753965098
21
17.1159653195
31
0.0000000000
11
11.1080525830
21
17.0247946058
31
0.0000000000
11
11.1281584981
21
16.9335346353
31
0.0000000000
11
11.1349462562
21
16.8456901989
31
0.0000000000
0
SPLINE
5
2C4
100
AcDbEntity
8
0
100
AcDbSpline
62
7
6
CONTINUOUS
70
0
71
3
72
12
73
8
74
6
42
0.0000001000
43
0.0000001000
44
0.0000000001
12
0.0000000000
22
-0.3236722686
32
0.0000000000
13
-0.2971401766
23
-0.1319095818
33
0.0000000000
40
0.0000000000
40
0.0000000000
40
0.0000000000
40
0.0000000000
40
0.2513050339
40
0.4797469538
40
0.6867787297
40
0.8781009639
40
1.0000000000
40
1.0000000000
40
1.0000000000
40
1.0000000000
10
11.1349462562
20
-20.5669040098
30
0.0000000000
10
11.1349462562
20
-20.5940175000
30
0.0000000000
10
11.1310087510
20
-20.6459267050
30
0.0000000000
10
11.1114809690
20
-20.7179427815
30
0.0000000000
10
11.0789105074
20
-20.7780573021
30
0.0000000000
10
11.0388316457
20
-20.8186009742
30
0.0000000000
10
11.0092326653
20
-20.8356147850
30
0.0000000000
10
10.9971589649
20
-20.8409746686
30
0.0000000000
11
11.1349462562
21
-20.5669040098
31
0.0000000000
11
11.1281584837
21
-20.6479607694
31
0.0000000000
11
11.1080524936
21
-20.7191149630
31
0.0000000000
11
11.0753962887
21
-20.7776296788
31
0.0000000000
11
11.0314428719
21
-20.8212518024
31
0.0000000000
11
10.9971589649
21
-20.8409746686
31
0.0000000000
0
SPLINE
5
2C5
100
AcDbEntity
8
0
100
AcDbSpline
62
7
6
CONTINUOUS
70
0
71
3
72
10
73
6
74
4
42
0.0000001000
43
0.0000001000
44
0.0000000001
12
0.1123398164
22
-3.8351348977
32
0.0000000000
13
0.2786812904
23
-3.8266456141
33
0.0000000000
40
0.0000000000
40
0.0000000000
40
0.0000000000
40
0.0000000000
40
0.3357821973
40
0.6691237600
40
1.0000000000
40
1.0000000000
40
1.0000000000
40
1.0000000000
10
-0.5286977070
20
-9.6798259900
30
0.0000000000
10
-0.5161238035
20
-10.1090826642
30
0.0000000000
10
-0.4850342993
20
-10.9643127274
30
0.0000000000
10
-0.4202207946
20
-12.2416361855
30
0.0000000000
10
-0.3648091815
20
-13.0893496075
30
0.0000000000
10
-0.3340728424
20
-13.5113983117
30
0.0000000000
11
-0.5286977070
21
-9.6798259900
31
0.0000000000
11
-0.4818287779
21
-10.9672955479
31
0.0000000000
11
-0.4169476932
21
-12.2446069948
31
0.0000000000
11
-0.3340728424
21
-13.5113983117
31
0.0000000000
0
SPLINE
5
2C6
100
AcDbEntity
8
0
100
AcDbSpline
62
7
6
CONTINUOUS
70
0
71
3
72
8
73
4
74
2
42
0.0000001000
43
0.0000001000
44
0.0000000001
12
0.0245196178
22
0.0806769070
32
0.0000000000
13
0.0310397118
23
0.0785156123
33
0.0000000000
40
0.0000000000
40
0.0000000000
40
0.0000000000
40
0.0000000000
40
1.0000000000
40
1.0000000000
40
1.0000000000
40
1.0000000000
10
-1.9787658454
20
12.1001944958
30
0.0000000000
10
-1.9705926395
20
12.1270867981
30
0.0000000000
10
-1.9613703237
20
12.1536970018
30
0.0000000000
10
-1.9510237531
20
12.1798688725
30
0.0000000000
11
-1.9787658454
21
12.1001944958
31
0.0000000000
11
-1.9510237531
21
12.1798688725
31
0.0000000000
0
SPLINE
5
2C7
100
AcDbEntity
8
0
100
AcDbSpline
62
7
6
CONTINUOUS
70
0
71
3
72
8
73
4
74
2
42
0.0000001000
43
0.0000001000
44
0.0000000001
12
0.0022511138
22
0.0056942404
32
0.0000000000
13
0.0022866792
23
0.0056802286
33
0.0000000000
40
0.0000000000
40
0.0000000000
40
0.0000000000
40
0.0000000000
40
1.0000000000
40
1.0000000000
40
1.0000000000
40
1.0000000000
10
-1.9510237531
20
12.1798688725
30
0.0000000000
10
-1.9502733818
20
12.1817669526
30
0.0000000000
10
-1.9495170973
20
12.1836627273
30
0.0000000000
10
-1.9487548709
20
12.1855561368
30
0.0000000000
11
-1.9510237531
21
12.1798688725
31
0.0000000000
11
-1.9487548709
21
12.1855561368
31
0.0000000000
0
SPLINE
5
2C8
100
AcDbEntity
8
0
100
AcDbSpline
62
7
6
CONTINUOUS
70
0
71
3
72
9
73
5
74
3
42
0.0000001000
43
0.0000001000
44
0.0000000001
12
0.0295135160
22
0.0733130917
32
0.0000000000
13
0.0356366236
23
0.0705629912
33
0.0000000000
40
0.0000000000
40
0.0000000000
40
0.0000000000
40
0.0000000000
40
0.8763312228
40
1.0000000000
40
1.0000000000
40
1.0000000000
40
1.0000000000
10
-1.9487548709
20
12.1855561368
30
0.0000000000
10
-1.9401336657
20
12.2069716539
30
0.0000000000
10
-1.9294284176
20
12.2310640906
30
0.0000000000
10
-1.9176793428
20
12.2546502559
30
0.0000000000
10
-1.9162102969
20
12.2575590689
30
0.0000000000
11
-1.9487548709
21
12.1855561368
31
0.0000000000
11
-1.9205693660
21
12.2488087686
31
0.0000000000
11
-1.9162102969
21
12.2575590689
31
0.0000000000
0
SPLINE
5
2C9
100
AcDbEntity
8
0
100
AcDbSpline
62
7
6
CONTINUOUS
70
0
71
3
72
8
73
4
74
2
42
0.0000001000
43
0.0000001000
44
0.0000000001
12
0.0033166005
22
0.0065670995
32
0.0000000000
13
0.0033712584
23
0.0065393095
33
0.0000000000
40
0.0000000000
40
0.0000000000
40
0.0000000000
40
0.0000000000
40
1.0000000000
40
1.0000000000
40
1.0000000000
40
1.0000000000
10
-1.9162102969
20
12.2575590689
30
0.0000000000
10
-1.9151047634
20
12.2597481021
30
0.0000000000
10
-1.9139901390
20
12.2619325710
30
0.0000000000
10
-1.9128663862
20
12.2641123408
30
0.0000000000
11
-1.9162102969
21
12.2575590689
31
0.0000000000
11
-1.9128663862
21
12.2641123408
31
0.0000000000
0
SPLINE
5
2CA
100
AcDbEntity
8
0
100
AcDbSpline
62
7
6
CONTINUOUS
70
0
71
3
72
8
73
4
74
2
42
0.0000001000
43
0.0000001000
44
0.0000000001
12
0.0311078115
22
0.0603405575
32
0.0000000000
13
0.0358594980
23
0.0576221506
33
0.0000000000
40
0.0000000000
40
0.0000000000
40
0.0000000000
40
0.0000000000
40
1.0000000000
40
1.0000000000
40
1.0000000000
40
1.0000000000
10
-1.9128663862
20
12.2641123408
30
0.0000000000
10
-1.9024971157
20
12.2842258600
30
0.0000000000
10
-1.8913506176
20
12.3039392796
30
0.0000000000
10
-1.8793974516
20
12.3231466632
30
0.0000000000
11
-1.9128663862
21
12.2641123408
31
0.0000000000
11
-1.8793974516
21
12.3231466632
31
0.0000000000
0
SPLINE
5
2CB
100
AcDbEntity
8
0
100
AcDbSpline
62
7
6
CONTINUOUS
70
0
71
3
72
8
73
4
74
2
42
0.0000001000
43
0.0000001000
44
0.0000000001
12
0.0056334720
22
0.0090523512
32
0.0000000000
13
0.0057532654
23
0.0089761854
33
0.0000000000
40
0.0000000000
40
0.0000000000
40
0.0000000000
40
0.0000000000
40
1.0000000000
40
1.0000000000
40
1.0000000000
40
1.0000000000
10
-1.8793974516
20
12.3231466632
30
0.0000000000
10
-1.8775196276
20
12.3261641136
30
0.0000000000
10
-1.8756218951
20
12.3291690751
30
0.0000000000
10
-1.8737041400
20
12.3321611369
30
0.0000000000
11
-1.8793974516
21
12.3231466632
31
0.0000000000
11
-1.8737041400
21
12.3321611369
31
0.0000000000
0
SPLINE
5
2CC
100
AcDbEntity
8
0
100
AcDbSpline
62
7
6
CONTINUOUS
70
0
71
3
72
9
73
5
74
3
42
0.0000001000
43
0.0000001000
44
0.0000000001
12
0.0369999408
22
0.0577269263
32
0.0000000000
13
0.0420539901
23
0.0541939072
33
0.0000000000
40
0.0000000000
40
0.0000000000
40
0.0000000000
40
0.0000000000
40
0.7940987121
40
1.0000000000
40
1.0000000000
40
1.0000000000
40
1.0000000000
10
-1.8737041400
20
12.3321611369
30
0.0000000000
10
-1.8639102715
20
12.3474414295
30
0.0000000000
10
-1.8509193466
20
12.3662600696
30
0.0000000000
10
-1.8370761893
20
12.3844584332
30
0.0000000000
10
-1.8341898657
20
12.3881779649
30
0.0000000000
11
-1.8737041400
21
12.3321611369
31
0.0000000000
11
-1.8427407064
21
12.3769380033
31
0.0000000000
11
-1.8341898657
21
12.3881779649
31
0.0000000000
0
SPLINE
5
2CD
100
AcDbEntity
8
0
100
AcDbSpline
62
7
6
CONTINUOUS
70
0
71
3
72
8
73
4
74
2
42
0.0000001000
43
0.0000001000
44
0.0000000001
12
0.0083421226
22
0.0107502812
32
0.0000000000
13
0.0085422506
23
0.0105936214
33
0.0000000000
40
0.0000000000
40
0.0000000000
40
0.0000000000
40
0.0000000000
40
1.0000000000
40
1.0000000000
40
1.0000000000
40
1.0000000000
10
-1.8341898657
20
12.3881779649
30
0.0000000000
10
-1.8314091581
20
12.3917613920
30
0.0000000000
10
-1.8285950373
20
12.3953192626
30
0.0000000000
10
-1.8257476205
20
12.3988504697
30
0.0000000000
11
-1.8341898657
21
12.3881779649
31
0.0000000000
11
-1.8257476205
21
12.3988504697
31
0.0000000000
0
SPLINE
5
2CE
100
AcDbEntity
8
0
100
AcDbSpline
62
7
6
CONTINUOUS
70
0
71
3
72
9
73
5
74
3
42
0.0000001000
43
0.0000001000
44
0.0000000001
12
0.0843797313
22
0.1046430236
32
0.0000000000
13
0.1034965805
23
0.0858391677
33
0.0000000000
40
0.0000000000
40
0.0000000000
40
0.0000000000
40
0.0000000000
40
0.8493284611
40
1.0000000000
40
1.0000000000
40
1.0000000000
40
1.0000000000
10
-1.8257476205
20
12.3988504697
30
0.0000000000
10
-1.8018589180
20
12.4284759024
30
0.0000000000
10
-1.7709730320
20
12.4611472620
30
0.0000000000
10
-1.7369342588
20
12.4903108568
30
0.0000000000
10
-1.7317362624
20
12.4946220300
30
0.0000000000
11
-1.8257476205
21
12.3988504697
31
0.0000000000
11
-1.7471200309
21
12.4814429764
31
0.0000000000
11
-1.7317362624
21
12.4946220300
31
0.0000000000
0
SPLINE
5
2CF
100
AcDbEntity
8
0
100
AcDbSpline
62
7
6
CONTINUOUS
70
0
71
3
72
8
73
4
74
2
42
0.0000001000
43
0.0000001000
44
0.0000000001
12
0.0121917214
22
0.0101117082
32
0.0000000000
13
0.0124427257
23
0.0098027331
33
0.0000000000
40
0.0000000000
40
0.0000000000
40
0.0000000000
40
0.0000000000
40
1.0000000000
40
1.0000000000
40
1.0000000000
40
1.0000000000
10
-1.7317362624
20
12.4946220300
30
0.0000000000
10
-1.7276723553
20
12.4979925994
30
0.0000000000
10
-1.7235660754
20
12.5013124656
30
0.0000000000
10
-1.7194185002
20
12.5045800433
30
0.0000000000
11
-1.7317362624
21
12.4946220300
31
0.0000000000
11
-1.7194185002
21
12.5045800433
31
0.0000000000
0
SPLINE
5
2D0
100
AcDbEntity
8
0
100
AcDbSpline
62
7
6
CONTINUOUS
70
0
71
3
72
8
73
4
74
2
42
0.0000001000
43
0.0000001000
44
0.0000000001
12
0.0345214283
22
0.0271969628
32
0.0000000000
13
0.0363596111
23
0.0246804594
33
0.0000000000
40
0.0000000000
40
0.0000000000
40
0.0000000000
40
0.0000000000
40
1.0000000000
40
1.0000000000
40
1.0000000000
40
1.0000000000
10
-1.7194185002
20
12.5045800433
30
0.0000000000
10
-1.7079113574
20
12.5136456976
30
0.0000000000
10
-1.6960863461
20
12.5223088637
30
0.0000000000
10
-1.6839664758
20
12.5305356835
30
0.0000000000
11
-1.7194185002
21
12.5045800433
31
0.0000000000
11
-1.6839664758
21
12.5305356835
31
0.0000000000
0
SPLINE
5
2D1
100
AcDbEntity
8
0
100
AcDbSpline
62
7
6
CONTINUOUS
70
0
71
3
72
9
73
5
74
3
42
0.0000001000
43
0.0000001000
44
0.0000000001
12
-0.0172372810
22
-0.0059315170
32
0.0000000000
13
-0.0179857143
23
0.0022305531
33
0.0000000000
40
0.0000000000
40
0.0000000000
40
0.0000000000
40
0.0000000000
40
0.2729052590
40
1.0000000000
40
1.0000000000
40
1.0000000000
40
1.0000000000
10
-0.3593218719
20
-13.5650277022
30
0.0000000000
10
-0.3608899202
20
-13.5655672830
30
0.0000000000
10
-0.3667824454
20
-13.5671285449
30
0.0000000000
10
-0.3729404211
20
-13.5671657748
30
0.0000000000
10
-0.3772995272
20
-13.5666251670
30
0.0000000000
11
-0.3593218719
21
-13.5650277022
31
0.0000000000
11
-0.3641258924
21
-13.5663059304
31
0.0000000000
11
-0.3772995272
21
-13.5666251670
31
0.0000000000
0
SPLINE
5
2D2
100
AcDbEntity
8
0
100
AcDbSpline
62
9
6
CONTINUOUS
70
0
71
3
72
13
73
9
74
7
42
0.0000001000
43
0.0000001000
44
0.0000000001
12
-0.5897804996
22
-0.2984622435
32
0.0000000000
13
-0.0779392504
23
-0.6563887733
33
0.0000000000
40
0.0000000000
40
0.0000000000
40
0.0000000000
40
0.0000000000
40
0.1494523591
40
0.3128318065
40
0.4852170799
40
0.6611085605
40
0.8348078462
40
1.0000000000
40
1.0000000000
40
1.0000000000
40
1.0000000000
10
8.2564899428
20
15.3899541645
30
0.0000000000
10
8.2271085804
20
15.3750855357
30
0.0000000000
10
8.1690732348
20
15.3368961666
30
0.0000000000
10
8.0914225003
20
15.2627512748
30
0.0000000000
10
8.0228103850
20
15.1727489624
30
0.0000000000
10
7.9669943787
20
15.0717276902
30
0.0000000000
10
7.9269043173
20
14.9652122313
30
0.0000000000
10
7.9114839463
20
14.8917512946
30
0.0000000000
10
7.9071922954
20
14.8556078695
30
0.0000000000
11
8.2564899428
21
15.3899541645
31
0.0000000000
11
8.1734764163
21
15.3364021375
31
0.0000000000
11
8.0949255188
21
15.2622913163
31
0.0000000000
11
8.0255984936
21
15.1718612398
31
0.0000000000
11
7.9693312069
21
15.0701195826
31
0.0000000000
11
7.9291241616
21
14.9625746037
31
0.0000000000
11
7.9071922954
21
14.8556078695
31
0.0000000000
0
SPLINE
5
2D3
100
AcDbEntity
8
0
100
AcDbSpline
62
9
6
CONTINUOUS
70
0
71
3
72
13
73
9
74
7
42
0.0000001000
43
0.0000001000
44
0.0000000001
12
-1.1715812398
22
-0.6078998354
32
0.0000000000
13
-0.1535091556
23
-1.3109461280
33
0.0000000000
40
0.0000000000
40
0.0000000000
40
0.0000000000
40
0.0000000000
40
0.1494499501
40
0.3121862978
40
0.4840734200
40
0.6598133699
40
0.8336458817
40
1.0000000000
40
1.0000000000
40
1.0000000000
40
1.0000000000
10
7.9030577061
20
15.9995346021
30
0.0000000000
10
7.8446934535
20
15.9692510687
30
0.0000000000
10
7.7299033328
20
15.8918459617
30
0.0000000000
10
7.5767697370
20
15.7425614836
30
0.0000000000
10
7.4416892754
20
15.5621280009
30
0.0000000000
10
7.3316970994
20
15.3598904494
30
0.0000000000
10
7.2524443356
20
15.1463870438
30
0.0000000000
10
7.2218879832
20
14.9990791353
30
0.0000000000
10
7.2133756898
20
14.9263853729
30
0.0000000000
11
7.9030577061
21
15.9995346021
31
0.0000000000
11
7.7384627993
21
15.8908155972
31
0.0000000000
11
7.5837537447
21
15.7418104411
31
0.0000000000
11
7.4472767545
21
15.5605757368
31
0.0000000000
11
7.3363588507
21
15.3568540092
31
0.0000000000
11
7.2569618470
21
15.1415872014
31
0.0000000000
11
7.2133756898
21
14.9263853729
31
0.0000000000
0
SPLINE
5
2D4
100
AcDbEntity
8
0
100
AcDbSpline
62
9
6
CONTINUOUS
70
0
71
3
72
12
73
8
74
6
42
0.0000001000
43
0.0000001000
44
0.0000000001
12
-0.0162126976
22
0.7317494026
32
0.0000000000
13
-0.6473188126
23
0.3416114672
33
0.0000000000
40
0.0000000000
40
0.0000000000
40
0.0000000000
40
0.0000000000
40
0.1947688123
40
0.4051365031
40
0.6180979651
40
0.8201121018
40
1.0000000000
40
1.0000000000
40
1.0000000000
40
1.0000000000
10
8.2564899428
20
15.3899541645
30
0.0000000000
10
8.2554373668
20
15.4374614852
30
0.0000000000
10
8.2404576846
20
15.5361349685
30
0.0000000000
10
8.1891782980
20
15.6787484398
30
0.0000000000
10
8.1124429656
20
15.8116355891
30
0.0000000000
10
8.0174355944
20
15.9224222513
30
0.0000000000
10
7.9418726497
20
15.9790506808
30
0.0000000000
10
7.9030577094
20
15.9995346038
30
0.0000000000
11
8.2564899428
21
15.3899541645
31
0.0000000000
11
8.2367282906
21
15.5311347510
31
0.0000000000
11
8.1852384708
21
15.6762445575
31
0.0000000000
11
8.1070554964
21
15.8110915478
31
0.0000000000
11
8.0098254368
21
15.9224867709
31
0.0000000000
11
7.9030577094
21
15.9995346038
31
0.0000000000
0
SPLINE
5
2D5
100
AcDbEntity
8
0
100
AcDbSpline
62
9
6
CONTINUOUS
70
0
71
3
72
10
73
6
74
4
42
0.0000001000
43
0.0000001000
44
0.0000000001
12
-1.2244129248
22
-10.3200288610
32
0.0000000000
13
-0.1642166672
23
-10.3911123364
33
0.0000000000
40
0.0000000000
40
0.0000000000
40
0.0000000000
40
0.0000000000
40
0.3384421673
40
0.6718599930
40
1.0000000000
40
1.0000000000
40
1.0000000000
40
1.0000000000
10
7.9071922954
20
14.8556078695
30
0.0000000000
10
7.7690613075
20
13.6913635581
30
0.0000000000
10
7.5322043240
20
11.3755221202
30
0.0000000000
10
7.2954150642
20
7.9188850905
30
0.0000000000
10
7.2179122419
20
5.6279011777
30
0.0000000000
10
7.1999502224
20
4.4913212860
30
0.0000000000
11
7.9071922954
21
14.8556078695
31
0.0000000000
11
7.5501668558
21
11.3565454647
31
0.0000000000
11
7.3142690465
21
7.8995700393
31
0.0000000000
11
7.1999502224
21
4.4913212860
31
0.0000000000
0
SPLINE
5
2D6
100
AcDbEntity
8
0
100
AcDbSpline
62
9
6
CONTINUOUS
70
0
71
3
72
10
73
6
74
4
42
0.0000001000
43
0.0000001000
44
0.0000000001
12
-1.2310774336
22
-10.3777460370
32
0.0000000000
13
-0.1651090145
23
-10.4492058775
33
0.0000000000
40
0.0000000000
40
0.0000000000
40
0.0000000000
40
0.0000000000
40
0.3384439934
40
0.6718567923
40
1.0000000000
40
1.0000000000
40
1.0000000000
40
1.0000000000
10
7.2133756898
20
14.9263853729
30
0.0000000000
10
7.0744921022
20
13.7556234359
30
0.0000000000
10
6.8363475248
20
11.4268425353
30
0.0000000000
10
6.5982687903
20
7.9508785089
30
0.0000000000
10
6.5203431667
20
5.6470926474
30
0.0000000000
10
6.5022833661
20
4.5041473359
30
0.0000000000
11
7.2133756898
21
14.9263853729
31
0.0000000000
11
6.8544054795
21
11.4077365037
31
0.0000000000
11
6.6172266057
21
7.9314843961
31
0.0000000000
11
6.5022833661
21
4.5041473359
31
0.0000000000
0
SPLINE
5
2D7
100
AcDbEntity
8
0
100
AcDbSpline
62
9
6
CONTINUOUS
70
0
71
3
72
12
73
8
74
6
42
0.0000001000
43
0.0000001000
44
0.0000000001
12
-0.6810654736
22
-0.2011035555
32
0.0000000000
13
-0.6338189689
23
0.3202597916
33
0.0000000000
40
0.0000000000
40
0.0000000000
40
0.0000000000
40
0.0000000000
40
0.1796434702
40
0.3854501155
40
0.6019884943
40
0.8122092966
40
1.0000000000
40
1.0000000000
40
1.0000000000
40
1.0000000000
10
7.9071922954
20
14.8556078695
30
0.0000000000
10
7.8664093071
20
14.8435655560
30
0.0000000000
10
7.7758757163
20
14.8280073472
30
0.0000000000
10
7.6330828774
20
14.8247549291
30
0.0000000000
10
7.4837159221
20
14.8400864117
30
0.0000000000
10
7.3415910152
20
14.8726083312
30
0.0000000000
10
7.2530508090
20
14.9063381074
30
0.0000000000
10
7.2133757057
20
14.9263853779
30
0.0000000000
11
7.9071922954
21
14.8556078695
31
0.0000000000
11
7.7818262528
21
14.8319904933
31
0.0000000000
11
7.6357360977
21
14.8277854400
31
0.0000000000
11
7.4827583630
21
14.8433909801
31
0.0000000000
11
7.3373819203
21
14.8773290771
31
0.0000000000
11
7.2133757057
21
14.9263853779
31
0.0000000000
0
SPLINE
5
2D8
100
AcDbEntity
8
0
100
AcDbSpline
62
9
6
CONTINUOUS
70
0
71
3
72
10
73
6
74
4
42
0.0000001000
43
0.0000001000
44
0.0000000001
12
-0.2597498518
22
-16.4365931903
32
0.0000000000
13
0.2637034980
23
-16.4365302347
33
0.0000000000
40
0.0000000000
40
0.0000000000
40
0.0000000000
40
0.0000000000
40
0.3350160337
40
0.6683413772
40
1.0000000000
40
1.0000000000
40
1.0000000000
40
1.0000000000
10
7.1999502224
20
4.4913212860
30
0.0000000000
10
7.1709434340
20
2.6558138665
30
0.0000000000
10
7.1321725378
20
-1.0062707240
30
0.0000000000
10
7.1320261162
20
-6.4859117797
30
0.0000000000
10
7.1707970428
20
-10.1296012429
30
0.0000000000
10
7.1999502224
20
-11.9467069032
30
0.0000000000
11
7.1999502224
21
4.4913212860
31
0.0000000000
11
7.1417916960
21
-1.0155814291
31
0.0000000000
11
7.1417917167
21
-6.4949985853
31
0.0000000000
11
7.1999502224
21
-11.9467069032
31
0.0000000000
0
SPLINE
5
2D9
100
AcDbEntity
8
0
100
AcDbSpline
62
9
6
CONTINUOUS
70
0
71
3
72
8
73
4
74
2
42
0.0000001000
43
0.0000001000
44
0.0000000001
12
-0.0238286353
22
-1.5078798961
32
0.0000000000
13
-0.0195174236
23
-1.5079474969
33
0.0000000000
40
0.0000000000
40
0.0000000000
40
0.0000000000
40
0.0000000000
40
1.0000000000
40
1.0000000000
40
1.0000000000
40
1.0000000000
10
6.5022833661
20
4.5041473359
30
0.0000000000
10
6.4943404877
20
4.0015207039
30
0.0000000000
10
6.4871146596
20
3.4988815753
30
0.0000000000
10
6.4806088517
20
2.9962324096
30
0.0000000000
11
6.5022833661
21
4.5041473359
31
0.0000000000
11
6.4806088517
21
2.9962324096
31
0.0000000000
0
SPLINE
5
2DA
100
AcDbEntity
8
0
100
AcDbSpline
62
9
6
CONTINUOUS
70
0
71
3
72
8
73
4
74
2
42
0.0000001000
43
0.0000001000
44
0.0000000001
12
-0.0040015634
22
-0.3091672124
32
0.0000000000
13
-0.0038198889
23
-0.3091696803
33
0.0000000000
40
0.0000000000
40
0.0000000000
40
0.0000000000
40
0.0000000000
40
1.0000000000
40
1.0000000000
40
1.0000000000
40
1.0000000000
10
6.4806088517
20
2.9962324096
30
0.0000000000
10
6.4792749973
20
2.8931766722
30
0.0000000000
10
6.4779714091
20
2.7901205128
30
0.0000000000
10
6.4766981128
20
2.6870639527
30
0.0000000000
11
6.4806088517
21
2.9962324096
31
0.0000000000
11
6.4766981128
21
2.6870639527
31
0.0000000000
0
SPLINE
5
2DB
100
AcDbEntity
8
0
100
AcDbSpline
62
9
6
CONTINUOUS
70
0
71
3
72
8
73
4
74
2
42
0.0000001000
43
0.0000001000
44
0.0000000001
12
-0.0002890208
22
-0.0233924260
32
0.0000000000
13
-0.0002879803
23
-0.0233924397
33
0.0000000000
40
0.0000000000
40
0.0000000000
40
0.0000000000
40
0.0000000000
40
1.0000000000
40
1.0000000000
40
1.0000000000
40
1.0000000000
10
6.4766981128
20
2.6870639527
30
0.0000000000
10
6.4766017725
20
2.6792664774
30
0.0000000000
10
6.4765056057
20
2.6714689997
30
0.0000000000
10
6.4764096123
20
2.6636715198
30
0.0000000000
11
6.4766981128
21
2.6870639527
31
0.0000000000
11
6.4764096123
21
2.6636715198
31
0.0000000000
0
SPLINE
5
2DC
100
AcDbEntity
8
0
100
AcDbSpline
62
9
6
CONTINUOUS
70
0
71
3
72
8
73
4
74
2
42
0.0000001000
43
0.0000001000
44
0.0000000001
12
-0.0042365639
22
-0.3441331623
32
0.0000000000
13
-0.0040112603
23
-0.3441360415
33
0.0000000000
40
0.0000000000
40
0.0000000000
40
0.0000000000
40
0.0000000000
40
1.0000000000
40
1.0000000000
40
1.0000000000
40
1.0000000000
10
6.4764096123
20
2.6636715198
30
0.0000000000
10
6.4749974243
20
2.5489604657
30
0.0000000000
10
6.4736227693
20
2.4342489171
30
0.0000000000
10
6.4722856825
20
2.3195369033
30
0.0000000000
11
6.4764096123
21
2.6636715198
31
0.0000000000
11
6.4722856825
21
2.3195369033
31
0.0000000000
0
SPLINE
5
2DD
100
AcDbEntity
8
0
100
AcDbSpline
62
9
6
CONTINUOUS
70
0
71
3
72
8
73
4
74
2
42
0.0000001000
43
0.0000001000
44
0.0000000001
12
-0.0036040211
22
-0.3091979786
32
0.0000000000
13
-0.0034219805
23
-0.3092001684
33
0.0000000000
40
0.0000000000
40
0.0000000000
40
0.0000000000
40
0.0000000000
40
1.0000000000
40
1.0000000000
40
1.0000000000
40
1.0000000000
10
6.4722856825
20
2.3195369033
30
0.0000000000
10
6.4710843421
20
2.2164709104
30
0.0000000000
10
6.4699133291
20
2.1134045420
30
0.0000000000
10
6.4687726689
20
2.0103378192
30
0.0000000000
11
6.4722856825
21
2.3195369033
31
0.0000000000
11
6.4687726689
21
2.0103378192
31
0.0000000000
0
SPLINE
5
2DE
100
AcDbEntity
8
0
100
AcDbSpline
62
9
6
CONTINUOUS
70
0
71
3
72
8
73
4
74
2
42
0.0000001000
43
0.0000001000
44
0.0000000001
12
-0.0041923211
22
-0.3788058987
32
0.0000000000
13
-0.0039188383
23
-0.3788089730
33
0.0000000000
40
0.0000000000
40
0.0000000000
40
0.0000000000
40
0.0000000000
40
1.0000000000
40
1.0000000000
40
1.0000000000
40
1.0000000000
10
6.4687726689
20
2.0103378192
30
0.0000000000
10
6.4673752286
20
1.8840691863
30
0.0000000000
10
6.4660233451
20
1.7578000215
30
0.0000000000
10
6.4647170657
20
1.6315303638
30
0.0000000000
11
6.4687726689
21
2.0103378192
31
0.0000000000
11
6.4647170657
21
1.6315303638
31
0.0000000000
0
SPLINE
5
2DF
100
AcDbEntity
8
0
100
AcDbSpline
62
9
6
CONTINUOUS
70
0
71
3
72
8
73
4
74
2
42
0.0000001000
43
0.0000001000
44
0.0000000001
12
-0.0126571870
22
-1.2234891233
32
0.0000000000
13
-0.0097980344
23
-1.2235160333
33
0.0000000000
40
0.0000000000
40
0.0000000000
40
0.0000000000
40
0.0000000000
40
1.0000000000
40
1.0000000000
40
1.0000000000
40
1.0000000000
10
6.4647170657
20
1.6315303638
30
0.0000000000
10
6.4604980034
20
1.2237006561
30
0.0000000000
10
6.4567546734
20
0.8158658065
30
0.0000000000
10
6.4534886619
20
0.4080271287
30
0.0000000000
11
6.4647170657
21
1.6315303638
31
0.0000000000
11
6.4534886619
21
0.4080271287
31
0.0000000000
0
SPLINE
5
2E0
100
AcDbEntity
8
0
100
AcDbSpline
62
9
6
CONTINUOUS
70
0
71
3
72
9
73
5
74
3
42
0.0000001000
43
0.0000001000
44
0.0000000001
12
-0.0464231093
22
-5.7970217207
32
0.0000000000
13
0.0183814641
23
-5.7971701671
33
0.0000000000
40
0.0000000000
40
0.0000000000
40
0.0000000000
40
0.0000000000
40
0.2443122456
40
1.0000000000
40
1.0000000000
40
1.0000000000
40
1.0000000000
10
6.4534886619
20
0.4080271287
30
0.0000000000
10
6.4497080839
20
-0.0640673362
30
0.0000000000
10
6.4368515597
20
-1.9964289055
30
0.0000000000
10
6.4347514148
20
-3.9288422789
30
0.0000000000
10
6.4393816306
20
-5.3891257806
30
0.0000000000
11
6.4534886619
21
0.4080271287
31
0.0000000000
11
6.4440681031
21
-1.0082696171
31
0.0000000000
11
6.4393816306
21
-5.3891257806
31
0.0000000000
0
SPLINE
5
2E1
100
AcDbEntity
8
0
100
AcDbSpline
62
9
6
CONTINUOUS
70
0
71
3
72
8
73
4
74
2
42
0.0000001000
43
0.0000001000
44
0.0000000001
12
0.0026364204
22
-0.8314777282
32
0.0000000000
13
0.0039817545
23
-0.8314729514
33
0.0000000000
40
0.0000000000
40
0.0000000000
40
0.0000000000
40
0.0000000000
40
1.0000000000
40
1.0000000000
40
1.0000000000
40
1.0000000000
10
6.4393816306
20
-5.3891257806
30
0.0000000000
10
6.4402604374
20
-5.6662850234
30
0.0000000000
10
6.4413632112
20
-5.9434436313
30
0.0000000000
10
6.4426904627
20
-6.2206012818
30
0.0000000000
11
6.4393816306
21
-5.3891257806
31
0.0000000000
11
6.4426904627
21
-6.2206012818
31
0.0000000000
0
SPLINE
5
2E2
100
AcDbEntity
8
0
100
AcDbSpline
62
9
6
CONTINUOUS
70
0
71
3
72
9
73
5
74
3
42
0.0000001000
43
0.0000001000
44
0.0000000001
12
0.0274398599
22
-5.7300119852
32
0.0000000000
13
0.0919172714
23
-5.7293092359
33
0.0000000000
40
0.0000000000
40
0.0000000000
40
0.0000000000
40
0.0000000000
40
0.0475681913
40
1.0000000000
40
1.0000000000
40
1.0000000000
40
1.0000000000
10
6.4426904627
20
-6.2206012818
30
0.0000000000
10
6.4431255509
20
-6.3114567173
30
0.0000000000
10
6.4527792837
20
-8.2214585493
30
0.0000000000
10
6.4731017218
20
-10.1314098833
30
0.0000000000
10
6.5022833661
20
-11.9503353360
30
0.0000000000
11
6.4426904627
21
-6.2206012818
31
0.0000000000
11
6.4440681125
21
-6.4931672682
31
0.0000000000
11
6.5022833661
21
-11.9503353360
31
0.0000000000
0
SPLINE
5
2E3
100
AcDbEntity
8
0
100
AcDbSpline
62
9
6
CONTINUOUS
70
0
71
3
72
12
73
8
74
6
42
0.0000001000
43
0.0000001000
44
0.0000000001
12
-0.6525136872
22
-0.2947967346
32
0.0000000000
13
-0.6402658447
23
0.3205290544
33
0.0000000000
40
0.0000000000
40
0.0000000000
40
0.0000000000
40
0.0000000000
40
0.1858728116
40
0.3932996248
40
0.6081648741
40
0.8150726663
40
1.0000000000
40
1.0000000000
40
1.0000000000
40
1.0000000000
10
7.1999502224
20
4.4913212860
30
0.0000000000
10
7.1595220379
20
4.4730563867
30
0.0000000000
10
7.0691217013
20
4.4450415082
30
0.0000000000
10
6.9247100533
20
4.4260913289
30
0.0000000000
10
6.7739710092
20
4.4288492095
30
0.0000000000
10
6.6307003715
20
4.4530597090
30
0.0000000000
10
6.5417509183
20
4.4843891416
30
0.0000000000
10
6.5022833665
20
4.5041473361
30
0.0000000000
11
7.1999502224
21
4.4913212860
31
0.0000000000
11
7.0734079777
21
4.4500967523
31
0.0000000000
11
6.9262605668
21
4.4299444373
31
0.0000000000
11
6.7724395552
21
4.4327723143
31
0.0000000000
11
6.6265083491
21
4.4583126464
31
0.0000000000
11
6.5022833665
21
4.5041473361
31
0.0000000000
0
SPLINE
5
2E4
100
AcDbEntity
8
0
100
AcDbSpline
62
9
6
CONTINUOUS
70
0
71
3
72
10
73
6
74
4
42
0.0000001000
43
0.0000001000
44
0.0000000001
12
0.1559898415
22
-9.7225650537
32
0.0000000000
13
1.2885805073
23
-9.6380581203
33
0.0000000000
40
0.0000000000
40
0.0000000000
40
0.0000000000
40
0.0000000000
40
0.3395548625
40
0.6729333107
40
1.0000000000
40
1.0000000000
40
1.0000000000
40
1.0000000000
10
7.1999502224
20
-11.9467069032
30
0.0000000000
10
7.2176059255
20
-13.0471549831
30
0.0000000000
10
7.2924105555
20
-15.2276444988
30
0.0000000000
10
7.5271503521
20
-18.4611414096
30
0.0000000000
10
7.7667083753
20
-20.5890832325
30
0.0000000000
10
7.9071922954
20
-21.6398458193
30
0.0000000000
11
7.1999502224
21
-11.9467069032
31
0.0000000000
11
7.3142704230
21
-15.2464963200
31
0.0000000000
11
7.5501691162
21
-18.4796125748
31
0.0000000000
11
7.9071922954
21
-21.6398458193
31
0.0000000000
0
SPLINE
5
2E5
100
AcDbEntity
8
0
100
AcDbSpline
62
9
6
CONTINUOUS
70
0
71
3
72
10
73
6
74
4
42
0.0000001000
43
0.0000001000
44
0.0000000001
12
0.1568366126
22
-9.7768225204
32
0.0000000000
13
1.2956053648
23
-9.6918658192
33
0.0000000000
40
0.0000000000
40
0.0000000000
40
0.0000000000
40
0.0000000000
40
0.3395572858
40
0.6729307169
40
1.0000000000
40
1.0000000000
40
1.0000000000
40
1.0000000000
10
6.5022833661
20
-11.9503353360
30
0.0000000000
10
6.5200350376
20
-13.0569324421
30
0.0000000000
10
6.5952466230
20
-15.2495819977
30
0.0000000000
10
6.8312637300
20
-18.5011256686
30
0.0000000000
10
7.0721247839
20
-20.6409382531
30
0.0000000000
10
7.2133756898
20
-21.6975754549
30
0.0000000000
11
6.5022833661
21
-11.9503353360
31
0.0000000000
11
6.6172266059
21
-15.2685635598
31
0.0000000000
11
6.8544054779
21
-18.5196757807
31
0.0000000000
11
7.2133756898
21
-21.6975754549
31
0.0000000000
0
SPLINE
5
2E6
100
AcDbEntity
8
0
100
AcDbSpline
62
9
6
CONTINUOUS
70
0
71
3
72
12
73
8
74
6
42
0.0000001000
43
0.0000001000
44
0.0000000001
12
-0.6425686997
22
-0.3194711730
32
0.0000000000
13
-0.6419990204
23
0.3206144445
33
0.0000000000
40
0.0000000000
40
0.0000000000
40
0.0000000000
40
0.0000000000
40
0.1877386892
40
0.3956571461
40
0.6100134743
40
0.8159170750
40
1.0000000000
40
1.0000000000
40
1.0000000000
40
1.0000000000
10
7.1999502224
20
-11.9467069032
30
0.0000000000
10
7.1597385539
20
-11.9666992696
30
0.0000000000
10
7.0696395554
20
-11.9982141629
30
0.0000000000
10
6.9250648335
20
-12.0216651570
30
0.0000000000
10
6.7741597292
20
-12.0225043400
30
0.0000000000
10
6.6306963006
20
-12.0006664454
30
0.0000000000
10
6.5416770680
20
-11.9700085425
30
0.0000000000
10
6.5022833822
20
-11.9503353276
30
0.0000000000
11
7.1999502224
21
-11.9467069032
31
0.0000000000
11
7.0734079777
21
-11.9929358689
31
0.0000000000
11
6.9262605695
21
-12.0176188086
31
0.0000000000
11
6.7724395622
21
-12.0184188006
31
0.0000000000
11
6.6265083608
21
-11.9952601036
31
0.0000000000
11
6.5022833822
21
-11.9503353276
31
0.0000000000
0
SPLINE
5
2E7
100
AcDbEntity
8
0
100
AcDbSpline
62
9
6
CONTINUOUS
70
0
71
3
72
13
73
9
74
7
42
0.0000001000
43
0.0000001000
44
0.0000000001
12
0.0640194593
22
-0.4779040034
32
0.0000000000
13
0.4408379163
23
0.1953270569
33
0.0000000000
40
0.0000000000
40
0.0000000000
40
0.0000000000
40
0.0000000000
40
0.1844289451
40
0.3508726010
40
0.5048280752
40
0.6573170132
40
0.8201120304
40
1.0000000000
40
1.0000000000
40
1.0000000000
40
1.0000000000
10
7.9071922954
20
-21.6398458193
30
0.0000000000
10
7.9111279759
20
-21.6692255963
30
0.0000000000
10
7.9244096872
20
-21.7246877201
30
0.0000000000
10
7.9645681653
20
-21.7966364009
30
0.0000000000
10
8.0230778305
20
-21.8478403905
30
0.0000000000
10
8.0960189074
20
-21.8731866594
30
0.0000000000
10
8.1769482549
20
-21.8714504888
30
0.0000000000
10
8.2300561302
20
-21.8544333529
30
0.0000000000
10
8.2564899428
20
-21.8427210237
30
0.0000000000
11
7.9071922954
21
-21.6398458193
31
0.0000000000
11
7.9291325008
21
-21.7260233994
31
0.0000000000
11
7.9693815941
21
-21.7954554898
31
0.0000000000
11
8.0257124672
21
-21.8438021022
31
0.0000000000
11
8.0950062688
21
-21.8683876094
31
0.0000000000
11
8.1735003482
21
-21.8679411173
31
0.0000000000
11
8.2564899428
21
-21.8427210237
31
0.0000000000
0
SPLINE
5
2E8
100
AcDbEntity
8
0
100
AcDbSpline
62
9
6
CONTINUOUS
70
0
71
3
72
11
73
7
74
5
42
0.0000001000
43
0.0000001000
44
0.0000000001
12
0.0665313507
22
-0.5031300266
32
0.0000000000
13
0.4562822546
23
-0.2280379500
33
0.0000000000
40
0.0000000000
40
0.0000000000
40
0.0000000000
40
0.0000000000
40
0.3510397718
40
0.6646203027
40
0.9532437038
40
1.0000000000
40
1.0000000000
40
1.0000000000
40
1.0000000000
10
7.2133756898
20
-21.6975754549
30
0.0000000000
10
7.2211607399
20
-21.7564483382
30
0.0000000000
10
7.2473782269
20
-21.8670782133
30
0.0000000000
10
7.3266556956
20
-22.0103485590
30
0.0000000000
10
7.4109494095
20
-22.0846040745
30
0.0000000000
10
7.4611488195
20
-22.1116818558
30
0.0000000000
10
7.4682601756
20
-22.1152359258
30
0.0000000000
11
7.2133756898
21
-21.6975754549
31
0.0000000000
11
7.2569618851
21
-21.8703176156
31
0.0000000000
11
7.3363608220
21
-22.0082415285
31
0.0000000000
11
7.4472809097
21
-22.1039122944
31
0.0000000000
11
7.4682601756
21
-22.1152359258
31
0.0000000000
0
SPLINE
5
2E9
100
AcDbEntity
8
0
100
AcDbSpline
62
9
6
CONTINUOUS
70
0
71
3
72
12
73
8
74
6
42
0.0000001000
43
0.0000001000
44
0.0000000001
12
-0.6044460142
22
-0.3951035435
32
0.0000000000
13
-0.6469519108
23
0.3208037083
33
0.0000000000
40
0.0000000000
40
0.0000000000
40
0.0000000000
40
0.0000000000
40
0.1941107554
40
0.4037108479
40
0.6162826690
40
0.8187146220
40
1.0000000000
40
1.0000000000
40
1.0000000000
40
1.0000000000
10
7.9071922954
20
-21.6398458192
30
0.0000000000
10
7.8680824712
20
-21.6654104350
30
0.0000000000
10
7.7798612101
20
-21.7082981474
30
0.0000000000
10
7.6358227416
20
-21.7466819756
30
0.0000000000
10
7.4851759134
20
-21.7594404615
30
0.0000000000
10
7.3415526096
20
-21.7454451286
30
0.0000000000
10
7.2524826605
20
-21.7169524658
30
0.0000000000
10
7.2133883532
20
-21.6975667920
30
0.0000000000
11
7.9071922954
21
-21.6398458192
31
0.0000000000
11
7.7818278037
21
-21.7025506479
31
0.0000000000
11
7.6357403313
21
-21.7421412227
31
0.0000000000
11
7.4827657914
21
-21.7548679288
31
0.0000000000
11
7.3373923700
21
-21.7395254227
31
0.0000000000
11
7.2133883532
21
-21.6975667920
31
0.0000000000
0
SPLINE
5
2EA
100
AcDbEntity
8
0
100
AcDbSpline
62
7
6
CONTINUOUS
70
0
71
3
72
8
73
4
74
2
42
0.0000001000
43
0.0000001000
44
0.0000000001
12
-0.0564728257
22
0.3102260229
32
0.0000000000
13
-0.0425847930
23
0.3124810884
33
0.0000000000
40
0.0000000000
40
0.0000000000
40
0.0000000000
40
0.0000000000
40
1.0000000000
40
1.0000000000
40
1.0000000000
40
1.0000000000
10
-2.0719196392
20
9.4709107321
30
0.0000000000
10
-2.0907439145
20
9.5743194064
30
0.0000000000
10
-2.1073169165
20
9.6781566337
30
0.0000000000
10
-2.1215118474
20
9.7823169965
30
0.0000000000
11
-2.0719196392
21
9.4709107321
31
0.0000000000
11
-2.1215118474
21
9.7823169965
31
0.0000000000
0
SPLINE
5
2EB
100
AcDbEntity
8
0
100
AcDbSpline
62
7
6
CONTINUOUS
70
0
71
3
72
8
73
4
74
2
42
0.0000001000
43
0.0000001000
44
0.0000000001
12
0.0621956880
22
0.2625086129
32
0.0000000000
13
0.0784263383
23
0.2580461554
33
0.0000000000
40
0.0000000000
40
0.0000000000
40
0.0000000000
40
0.0000000000
40
1.0000000000
40
1.0000000000
40
1.0000000000
40
1.0000000000
10
-2.0490064950
20
11.8397915728
30
0.0000000000
10
-2.0282745990
20
11.9272944438
30
0.0000000000
10
-2.0049078254
20
12.0141790703
30
0.0000000000
10
-1.9787657126
20
12.1001944555
30
0.0000000000
11
-2.0490064950
21
11.8397915728
31
0.0000000000
11
-1.9787657126
21
12.1001944555
31
0.0000000000
0
SPLINE
5
2EC
100
AcDbEntity
8
0
100
AcDbSpline
62
9
6
CONTINUOUS
70
0
71
3
72
10
73
6
74
4
42
0.0000001000
43
0.0000001000
44
0.0000000001
12
-0.0070490930
22
-0.3248459074
32
0.0000000000
13
-0.2983745548
23
-0.1336116648
33
0.0000000000
40
0.0000000000
40
0.0000000000
40
0.0000000000
40
0.0000000000
40
0.3932222943
40
0.7288944884
40
1.0000000000
40
1.0000000000
40
1.0000000000
40
1.0000000000
10
8.2564899428
20
-21.8427210237
30
0.0000000000
10
8.2555659893
20
-21.8852999080
30
0.0000000000
10
8.2448697656
20
-21.9646399248
30
0.0000000000
10
8.1957946670
20
-22.0642781068
30
0.0000000000
10
8.1418723103
20
-22.1063937649
30
0.0000000000
10
8.1149086482
20
-22.1184680512
30
0.0000000000
11
8.2564899428
21
-21.8427210237
31
0.0000000000
11
8.2367277010
21
-21.9689501389
31
0.0000000000
11
8.1852369264
21
-22.0650979402
31
0.0000000000
11
8.1149086482
21
-22.1184680512
31
0.0000000000
0
SPLINE
5
2ED
100
AcDbEntity
8
0
100
AcDbSpline
62
9
6
CONTINUOUS
70
0
71
3
72
10
73
6
74
4
42
0.0000001000
43
0.0000001000
44
0.0000000001
12
0.0294125999
22
-0.2369498060
32
0.0000000000
13
0.2109390507
23
-0.1063401369
33
0.0000000000
40
0.0000000000
40
0.0000000000
40
0.0000000000
40
0.0000000000
40
0.1202505593
40
0.5251863652
40
1.0000000000
40
1.0000000000
40
1.0000000000
40
1.0000000000
10
-7.6175068639
20
-14.1796489110
30
0.0000000000
10
-7.6163279034
20
-14.1891466933
30
0.0000000000
10
-7.6078674763
20
-14.2301299186
30
0.0000000000
10
-7.5634403019
20
-14.2989145291
30
0.0000000000
10
-7.5047647536
20
-14.3383674091
30
0.0000000000
10
-7.4713791745
20
-14.3551979914
30
0.0000000000
11
-7.6175068639
21
-14.1796489110
31
0.0000000000
11
-7.6116738925
21
-14.2076596275
31
0.0000000000
11
-7.5623942251
21
-14.2896461102
31
0.0000000000
11
-7.4713791745
21
-14.3551979914
31
0.0000000000
0
SPLINE
5
2EE
100
AcDbEntity
8
0
100
AcDbSpline
62
7
6
CONTINUOUS
70
0
71
3
72
8
73
4
74
2
42
0.0000001000
43
0.0000001000
44
0.0000000001
12
-0.1703795589
22
0.1108161841
32
0.0000000000
13
-0.1534918408
23
0.1334250431
33
0.0000000000
40
0.0000000000
40
0.0000000000
40
0.0000000000
40
0.0000000000
40
1.0000000000
40
1.0000000000
40
1.0000000000
40
1.0000000000
10
-1.2458304699
20
8.1558330367
30
0.0000000000
10
-1.3026236562
20
8.1927717647
30
0.0000000000
10
-1.3566863300
20
8.2340735804
30
0.0000000000
10
-1.4078502769
20
8.2785485948
30
0.0000000000
11
-1.2458304699
21
8.1558330367
31
0.0000000000
11
-1.4078502769
21
8.2785485948
31
0.0000000000
0
SPLINE
5
2EF
100
AcDbEntity
8
0
100
AcDbSpline
62
7
6
CONTINUOUS
70
0
71
3
72
9
73
5
74
3
42
0.0000001000
43
0.0000001000
44
0.0000000001
12
-0.1629585216
22
0.1416540949
32
0.0000000000
13
-0.1444816149
23
0.1603811418
33
0.0000000000
40
0.0000000000
40
0.0000000000
40
0.0000000000
40
0.0000000000
40
0.4966944830
40
1.0000000000
40
1.0000000000
40
1.0000000000
40
1.0000000000
10
-1.4078502769
20
8.2785485948
30
0.0000000000
10
-1.4348304765
20
8.3020015306
30
0.0000000000
10
-1.4875268579
20
8.3509959466
30
0.0000000000
10
-1.5372225868
20
8.4030450905
30
0.0000000000
10
-1.5614620514
20
8.4299519950
30
0.0000000000
11
-1.4078502769
21
8.2785485948
31
0.0000000000
11
-1.4864382031
21
8.3514256607
31
0.0000000000
11
-1.5614620514
21
8.4299519950
31
0.0000000000
0
SPLINE
5
2F0
100
AcDbEntity
8
0
100
AcDbSpline
62
7
6
CONTINUOUS
70
0
71
3
72
9
73
5
74
3
42
0.0000001000
43
0.0000001000
44
0.0000000001
12
-0.1517966491
22
0.1685011614
32
0.0000000000
13
-0.1317187873
23
0.1845168341
33
0.0000000000
40
0.0000000000
40
0.0000000000
40
0.0000000000
40
0.0000000000
40
0.0052617504
40
1.0000000000
40
1.0000000000
40
1.0000000000
40
1.0000000000
10
-1.5614620514
20
8.4299519950
30
0.0000000000
10
-1.5617282901
20
8.4302475320
30
0.0000000000
10
-1.6123094574
20
8.4864308712
30
0.0000000000
10
-1.6595231268
20
8.5457062175
30
0.0000000000
10
-1.7031983654
20
8.6068882017
30
0.0000000000
11
-1.5614620514
21
8.4299519950
31
0.0000000000
11
-1.5622604879
21
8.4308388630
31
0.0000000000
11
-1.7031983654
21
8.6068882017
31
0.0000000000
0
SPLINE
5
2F1
100
AcDbEntity
8
0
100
AcDbSpline
62
7
6
CONTINUOUS
70
0
71
3
72
9
73
5
74
3
42
0.0000001000
43
0.0000001000
44
0.0000000001
12
0.0131797255
22
0.0089386310
32
0.0000000000
13
0.0126900091
23
0.0096120315
33
0.0000000000
40
0.0000000000
40
0.0000000000
40
0.0000000000
40
0.0000000000
40
0.7826903191
40
1.0000000000
40
1.0000000000
40
1.0000000000
40
1.0000000000
10
-0.1374872790
20
8.3538627301
30
0.0000000000
10
-0.1340487312
20
8.3561947901
30
0.0000000000
10
-0.1297169900
20
8.3592640488
30
0.0000000000
10
-0.1254687558
20
8.3624442864
30
0.0000000000
10
-0.1245495352
20
8.3631405489
30
0.0000000000
11
-0.1374872790
21
8.3538627301
31
0.0000000000
11
-0.1273190641
21
8.3610673344
31
0.0000000000
11
-0.1245495352
21
8.3631405489
31
0.0000000000
0
SPLINE
5
2F2
100
AcDbEntity
8
0
100
AcDbSpline
62
7
6
CONTINUOUS
70
0
71
3
72
8
73
4
74
2
42
0.0000001000
43
0.0000001000
44
0.0000000001
12
0.0044149811
22
0.0033441219
32
0.0000000000
13
0.0043538266
23
0.0034226511
33
0.0000000000
40
0.0000000000
40
0.0000000000
40
0.0000000000
40
0.0000000000
40
1.0000000000
40
1.0000000000
40
1.0000000000
40
1.0000000000
10
-0.1245495352
20
8.3631405489
30
0.0000000000
10
-0.1230778748
20
8.3642552562
30
0.0000000000
10
-0.1216163692
20
8.3653832050
30
0.0000000000
10
-0.1201650936
20
8.3665240887
30
0.0000000000
11
-0.1245495352
21
8.3631405489
31
0.0000000000
11
-0.1201650936
21
8.3665240887
31
0.0000000000
0
SPLINE
5
2F3
100
AcDbEntity
8
0
100
AcDbSpline
62
7
6
CONTINUOUS
70
0
71
3
72
9
73
5
74
3
42
0.0000001000
43
0.0000001000
44
0.0000000001
12
0.0711908853
22
0.0559649207
32
0.0000000000
13
0.0538536938
23
0.0727212228
33
0.0000000000
40
0.0000000000
40
0.0000000000
40
0.0000000000
40
0.0000000000
40
0.8182336244
40
1.0000000000
40
1.0000000000
40
1.0000000000
40
1.0000000000
10
-0.1201650936
20
8.3665240887
30
0.0000000000
10
-0.1007481683
20
8.3817882154
30
0.0000000000
10
-0.0792558800
20
8.4032729298
30
0.0000000000
10
-0.0607679670
20
8.4271191927
30
0.0000000000
10
-0.0575050367
20
8.4315252837
30
0.0000000000
11
-0.1201650936
21
8.3665240887
31
0.0000000000
11
-0.0675881904
21
8.4185283184
31
0.0000000000
11
-0.0575050367
21
8.4315252837
31
0.0000000000
0
SPLINE
5
2F4
100
AcDbEntity
8
0
100
AcDbSpline
62
7
6
CONTINUOUS
70
0
71
3
72
8
73
4
74
2
42
0.0000001000
43
0.0000001000
44
0.0000000001
12
0.0040609238
22
0.0054836599
32
0.0000000000
13
0.0039605569
23
0.0055562727
33
0.0000000000
40
0.0000000000
40
0.0000000000
40
0.0000000000
40
0.0000000000
40
1.0000000000
40
1.0000000000
40
1.0000000000
40
1.0000000000
10
-0.0575050367
20
8.4315252837
30
0.0000000000
10
-0.0561513955
20
8.4333531704
30
0.0000000000
10
-0.0548145431
20
8.4351933869
30
0.0000000000
10
-0.0534943575
20
8.4370454779
30
0.0000000000
11
-0.0575050367
21
8.4315252837
31
0.0000000000
11
-0.0534943575
21
8.4370454779
31
0.0000000000
0
SPLINE
5
2F5
100
AcDbEntity
8
0
100
AcDbSpline
62
7
6
CONTINUOUS
70
0
71
3
72
8
73
4
74
2
42
0.0000001000
43
0.0000001000
44
0.0000000001
12
0.0270961356
22
0.0380132197
32
0.0000000000
13
0.0225328615
23
0.0409102951
33
0.0000000000
40
0.0000000000
40
0.0000000000
40
0.0000000000
40
0.0000000000
40
1.0000000000
40
1.0000000000
40
1.0000000000
40
1.0000000000
10
-0.0534943575
20
8.4370454779
30
0.0000000000
10
-0.0444623123
20
8.4497165511
30
0.0000000000
10
-0.0362103714
20
8.4629434157
30
0.0000000000
10
-0.0286994176
20
8.4765801807
30
0.0000000000
11
-0.0534943575
21
8.4370454779
31
0.0000000000
11
-0.0286994176
21
8.4765801807
31
0.0000000000
0
SPLINE
5
2F6
100
AcDbEntity
8
0
100
AcDbSpline
62
7
6
CONTINUOUS
70
0
71
3
72
9
73
5
74
3
42
0.0000001000
43
0.0000001000
44
0.0000000001
12
0.0552259544
22
0.1002673403
32
0.0000000000
13
0.0307760780
23
0.1099847840
33
0.0000000000
40
0.0000000000
40
0.0000000000
40
0.0000000000
40
0.0000000000
40
0.1627712140
40
1.0000000000
40
1.0000000000
40
1.0000000000
40
1.0000000000
10
-0.0286994176
20
8.4765801807
30
0.0000000000
10
-0.0257030190
20
8.4820203930
30
0.0000000000
10
-0.0080188736
20
8.5158436231
30
0.0000000000
10
0.0053079422
20
8.5517794905
30
0.0000000000
10
0.0138968150
20
8.5824736329
30
0.0000000000
11
-0.0286994176
21
8.4765801807
31
0.0000000000
11
-0.0200615245
21
8.4930872626
31
0.0000000000
11
0.0138968150
21
8.5824736329
31
0.0000000000
0
SPLINE
5
2F7
100
AcDbEntity
8
0
100
AcDbSpline
62
7
6
CONTINUOUS
70
0
71
3
72
8
73
4
74
2
42
0.0000001000
43
0.0000001000
44
0.0000000001
12
-0.2850312462
22
0.0998414311
32
0.0000000000
13
-0.2754889498
23
0.1240317448
33
0.0000000000
40
0.0000000000
40
0.0000000000
40
0.0000000000
40
0.0000000000
40
1.0000000000
40
1.0000000000
40
1.0000000000
40
1.0000000000
10
-0.4050251086
20
7.7354218748
30
0.0000000000
10
-0.5000355240
20
7.7687023519
30
0.0000000000
10
-0.5935690925
20
7.8063354617
30
0.0000000000
10
-0.6853987425
20
7.8476793767
30
0.0000000000
11
-0.4050251086
21
7.7354218748
31
0.0000000000
11
-0.6853987425
21
7.8476793767
31
0.0000000000
0
SPLINE
5
2F8
100
AcDbEntity
8
0
100
AcDbSpline
62
7
6
CONTINUOUS
70
0
71
3
72
8
73
4
74
2
42
0.0000001000
43
0.0000001000
44
0.0000000001
12
-0.2863068212
22
0.1289022104
32
0.0000000000
13
-0.2751181785
23
0.1512627937
33
0.0000000000
40
0.0000000000
40
0.0000000000
40
0.0000000000
40
0.0000000000
40
1.0000000000
40
1.0000000000
40
1.0000000000
40
1.0000000000
10
-0.6853987425
20
7.8476793767
30
0.0000000000
10
-0.7808343495
20
7.8906467802
30
0.0000000000
10
-0.8744295950
20
7.9376221439
30
0.0000000000
10
-0.9661356545
20
7.9880430751
30
0.0000000000
11
-0.6853987425
21
7.8476793767
31
0.0000000000
11
-0.9661356545
21
7.9880430751
31
0.0000000000
0
SPLINE
5
2F9
100
AcDbEntity
8
0
100
AcDbSpline
62
7
6
CONTINUOUS
70
0
71
3
72
8
73
4
74
2
42
0.0000001000
43
0.0000001000
44
0.0000000001
12
-0.2858929509
22
0.1571868739
32
0.0000000000
13
-0.2734188776
23
0.1778337725
33
0.0000000000
40
0.0000000000
40
0.0000000000
40
0.0000000000
40
0.0000000000
40
1.0000000000
40
1.0000000000
40
1.0000000000
40
1.0000000000
10
-0.9661356545
20
7.9880430751
30
0.0000000000
10
-1.0614333048
20
8.0404386998
30
0.0000000000
10
-1.1546909123
20
8.0965550075
30
0.0000000000
10
-1.2458305382
20
8.1558329317
30
0.0000000000
11
-0.9661356545
21
7.9880430751
31
0.0000000000
11
-1.2458305382
21
8.1558329317
31
0.0000000000
0
SPLINE
5
2FA
100
AcDbEntity
8
0
100
AcDbSpline
62
9
6
CONTINUOUS
70
0
71
3
72
13
73
9
74
7
42
0.0000001000
43
0.0000001000
44
0.0000000001
12
0.1489049544
22
1.3074921613
32
0.0000000000
13
1.1550260056
23
0.6305738368
33
0.0000000000
40
0.0000000000
40
0.0000000000
40
0.0000000000
40
0.0000000000
40
0.1671067420
40
0.3416627613
40
0.5178632254
40
0.6897507039
40
0.8518738082
40
1.0000000000
40
1.0000000000
40
1.0000000000
40
1.0000000000
10
-7.4713792010
20
22.2687628183
30
0.0000000000
10
-7.4630848604
20
22.3415930701
30
0.0000000000
10
-7.4333271268
20
22.4892231483
30
0.0000000000
10
-7.3561840852
20
22.7036326772
30
0.0000000000
10
-7.2491199459
20
22.9071987298
30
0.0000000000
10
-7.1176418919
20
23.0893169223
30
0.0000000000
10
-6.9685978303
20
23.2405538025
30
0.0000000000
10
-6.8565536094
20
23.3196904922
30
0.0000000000
10
-6.7995237415
20
23.3508253259
30
0.0000000000
11
-7.4713792010
21
22.2687628183
31
0.0000000000
11
-7.4289194163
21
22.4845278331
31
0.0000000000
11
-7.3515742210
21
22.7008205450
31
0.0000000000
11
-7.2435233098
21
22.9059757689
31
0.0000000000
11
-7.1105755910
21
23.0889751089
31
0.0000000000
11
-6.9598646964
21
23.2399793451
31
0.0000000000
11
-6.7995237415
21
23.3508253259
31
0.0000000000
0
SPLINE
5
2FB
100
AcDbEntity
8
0
100
AcDbSpline
62
7
6
CONTINUOUS
70
0
71
3
72
9
73
5
74
3
42
0.0000001000
43
0.0000001000
44
0.0000000001
12
-0.0226859883
22
0.1440112547
32
0.0000000000
13
-0.0412148184
23
0.1399263474
33
0.0000000000
40
0.0000000000
40
0.0000000000
40
0.0000000000
40
0.0000000000
40
0.8593597904
40
1.0000000000
40
1.0000000000
40
1.0000000000
40
1.0000000000
10
0.0961615620
20
10.9043846220
30
0.0000000000
10
0.0896630866
20
10.9456371159
30
0.0000000000
10
0.0792744905
20
10.9932337698
30
0.0000000000
10
0.0659454043
20
11.0399985743
30
0.0000000000
10
0.0640132507
20
11.0465583312
30
0.0000000000
11
0.0961615620
21
10.9043846220
31
0.0000000000
11
0.0696364533
21
11.0268280968
31
0.0000000000
11
0.0640132507
21
11.0465583312
31
0.0000000000
0
SPLINE
5
2FC
100
AcDbEntity
8
0
100
AcDbSpline
62
7
6
CONTINUOUS
70
0
71
3
72
12
73
8
74
6
42
0.0000001000
43
0.0000001000
44
0.0000000001
12
-0.1652698421
22
0.5610992906
32
0.0000000000
13
-0.4287219535
23
0.3981681713
33
0.0000000000
40
0.0000000000
40
0.0000000000
40
0.0000000000
40
0.0000000000
40
0.1837081094
40
0.4032504884
40
0.6199005072
40
0.8302105122
40
1.0000000000
40
1.0000000000
40
1.0000000000
40
1.0000000000
10
0.0640132507
20
11.0465583312
30
0.0000000000
10
0.0538927807
20
11.0809178278
30
0.0000000000
10
0.0282119960
20
11.1552998647
30
0.0000000000
10
-0.0223073425
20
11.2652849692
30
0.0000000000
10
-0.0870563033
20
11.3736481155
30
0.0000000000
10
-0.1577485264
20
11.4663229306
30
0.0000000000
10
-0.2091184245
20
11.5198889267
30
0.0000000000
10
-0.2333825849
20
11.5424238500
30
0.0000000000
11
0.0640132507
21
11.0465583312
31
0.0000000000
11
0.0290034147
21
11.1481014637
31
0.0000000000
11
-0.0246046190
21
11.2647142188
31
0.0000000000
11
-0.0897040944
21
11.3733569512
31
0.0000000000
11
-0.1644903896
21
11.4709432135
31
0.0000000000
11
-0.2333825849
21
11.5424238500
31
0.0000000000
0
SPLINE
5
2FD
100
AcDbEntity
8
0
100
AcDbSpline
62
7
6
CONTINUOUS
70
0
71
3
72
9
73
5
74
3
42
0.0000001000
43
0.0000001000
44
0.0000000001
12
-0.0943899097
22
0.0876630120
32
0.0000000000
13
-0.1076019292
23
0.0706248106
33
0.0000000000
40
0.0000000000
40
0.0000000000
40
0.0000000000
40
0.0000000000
40
0.1416145967
40
1.0000000000
40
1.0000000000
40
1.0000000000
40
1.0000000000
10
-0.2333825849
20
11.5424238500
30
0.0000000000
10
-0.2378382479
20
11.5465619707
30
0.0000000000
10
-0.2696152328
20
11.5754513113
30
0.0000000000
10
-0.3036232446
20
11.6019051599
30
0.0000000000
10
-0.3344112197
20
11.6221129287
30
0.0000000000
11
-0.2333825849
21
11.5424238500
31
0.0000000000
11
-0.2468831602
21
11.5546954323
31
0.0000000000
11
-0.3344112197
21
11.6221129287
31
0.0000000000
0
SPLINE
5
2FE
100
AcDbEntity
8
0
100
AcDbSpline
62
9
6
CONTINUOUS
70
0
71
3
72
10
73
6
74
4
42
0.0000001000
43
0.0000001000
44
0.0000000001
12
0.0039801976
22
-0.2436723515
32
0.0000000000
13
0.2143583651
23
-0.1073077507
33
0.0000000000
40
0.0000000000
40
0.0000000000
40
0.0000000000
40
0.0000000000
40
0.1700507928
40
0.5401421493
40
1.0000000000
40
1.0000000000
40
1.0000000000
40
1.0000000000
10
-8.2924273272
20
-4.4486412105
30
0.0000000000
10
-8.2922017152
20
-4.4624534361
30
0.0000000000
10
-8.2851857049
20
-4.5062528157
30
0.0000000000
10
-8.2358015357
20
-4.5733214693
30
0.0000000000
10
-8.1792352442
20
-4.6095563226
30
0.0000000000
10
-8.1463771185
20
-4.6260050931
30
0.0000000000
11
-8.2924273272
21
-4.4486412105
31
0.0000000000
11
-8.2858356138
21
-4.4892812246
31
0.0000000000
11
-8.2371365851
21
-4.5634376455
31
0.0000000000
11
-8.1463771185
21
-4.6260050931
31
0.0000000000
0
SPLINE
5
2FF
100
AcDbEntity
8
0
100
AcDbSpline
62
9
6
CONTINUOUS
70
0
71
3
72
10
73
6
74
4
42
0.0000001000
43
0.0000001000
44
0.0000000001
12
0.1568950898
22
10.4645327879
32
0.0000000000
13
1.1676215138
23
10.4003712692
33
0.0000000000
40
0.0000000000
40
0.0000000000
40
0.0000000000
40
0.0000000000
40
0.3279270540
40
0.6613532989
40
1.0000000000
40
1.0000000000
40
1.0000000000
40
1.0000000000
10
-8.1463771191
20
11.8284775785
30
0.0000000000
10
-8.1292270709
20
12.9723453814
30
0.0000000000
10
-8.0552033612
20
15.2788481965
30
0.0000000000
10
-7.8291886338
20
18.7606317935
30
0.0000000000
10
-7.6031829256
20
21.0947456781
30
0.0000000000
10
-7.4713792010
20
22.2687628183
30
0.0000000000
11
-8.1463771191
21
11.8284775785
31
0.0000000000
11
-8.0372682928
21
15.2587318453
31
0.0000000000
11
-7.8121284063
21
18.7410034466
31
0.0000000000
11
-7.4713792010
21
22.2687628183
31
0.0000000000
0
SPLINE
5
300
100
AcDbEntity
8
0
100
AcDbSpline
62
9
6
CONTINUOUS
70
0
71
3
72
10
73
6
74
4
42
0.0000001000
43
0.0000001000
44
0.0000000001
12
-0.2506073643
22
16.4531307017
32
0.0000000000
13
0.2466495822
23
16.4531905089
33
0.0000000000
40
0.0000000000
40
0.0000000000
40
0.0000000000
40
0.0000000000
40
0.3315679570
40
0.6648942770
40
1.0000000000
40
1.0000000000
40
1.0000000000
40
1.0000000000
10
-8.1463771191
20
-4.6260050934
30
0.0000000000
10
-8.1740749097
20
-2.8075614491
30
0.0000000000
10
-8.2109046654
20
0.8392820253
30
0.0000000000
10
-8.2107580918
20
6.3243785154
30
0.0000000000
10
-8.1739283479
20
9.9906248116
30
0.0000000000
10
-8.1463771191
20
11.8284775785
30
0.0000000000
11
-8.1463771191
21
-4.6260050934
31
0.0000000000
11
-8.2016242272
21
0.8296789017
31
0.0000000000
11
-8.2016242362
21
6.3145765526
31
0.0000000000
11
-8.1463771191
21
11.8284775785
31
0.0000000000
0
SPLINE
5
301
100
AcDbEntity
8
0
100
AcDbSpline
62
9
6
CONTINUOUS
70
0
71
3
72
10
73
6
74
4
42
0.0000001000
43
0.0000001000
44
0.0000000001
12
-0.0024380536
22
-0.2432602782
32
0.0000000000
13
0.2138781075
23
-0.1068067296
33
0.0000000000
40
0.0000000000
40
0.0000000000
40
0.0000000000
40
0.0000000000
40
0.1782173039
40
0.5410344712
40
1.0000000000
40
1.0000000000
40
1.0000000000
40
1.0000000000
10
-8.2923778732
20
12.0044849174
30
0.0000000000
10
-8.2925227076
20
11.9900338538
30
0.0000000000
10
-8.2857856792
20
11.9459445298
30
0.0000000000
10
-8.2350275253
20
11.8801625821
30
0.0000000000
10
-8.1790979852
20
11.8448177937
30
0.0000000000
10
-8.1463770923
20
11.8284775913
30
0.0000000000
11
-8.2923778732
21
12.0044849174
31
0.0000000000
11
-8.2858355856
21
11.9619099043
31
0.0000000000
11
-8.2371365557
21
11.8901351229
31
0.0000000000
11
-8.1463770923
21
11.8284775913
31
0.0000000000
0
SPLINE
5
302
100
AcDbEntity
8
0
100
AcDbSpline
62
7
6
CONTINUOUS
70
0
71
3
72
8
73
4
74
2
42
0.0000001000
43
0.0000001000
44
0.0000000001
12
-0.0049103566
22
-0.0016882765
32
0.0000000000
13
-0.0050764107
23
-0.0010734550
33
0.0000000000
40
0.0000000000
40
0.0000000000
40
0.0000000000
40
0.0000000000
40
1.0000000000
40
1.0000000000
40
1.0000000000
40
1.0000000000
10
-0.9615090381
20
11.9607511141
30
0.0000000000
10
-0.9631458236
20
11.9601883553
30
0.0000000000
10
-0.9648171932
20
11.9597263472
30
0.0000000000
10
-0.9665093301
20
11.9593685289
30
0.0000000000
11
-0.9615090381
21
11.9607511141
31
0.0000000000
11
-0.9665093301
21
11.9593685289
31
0.0000000000
0
SPLINE
5
303
100
AcDbEntity
8
0
100
AcDbSpline
62
7
6
CONTINUOUS
70
0
71
3
72
9
73
5
74
3
42
0.0000001000
43
0.0000001000
44
0.0000000001
12
-0.0093967307
22
-0.0019870275
32
0.0000000000
13
-0.0096056930
23
0.0000617614
33
0.0000000000
40
0.0000000000
40
0.0000000000
40
0.0000000000
40
0.0000000000
40
0.0938342120
40
1.0000000000
40
1.0000000000
40
1.0000000000
40
1.0000000000
10
-0.9665093301
20
11.9593685289
30
0.0000000000
10
-0.9668032417
20
11.9593063785
30
0.0000000000
10
-0.9699421623
20
11.9586775346
30
0.0000000000
10
-0.9731440174
20
11.9584077346
30
0.0000000000
10
-0.9760454675
20
11.9584263900
30
0.0000000000
11
-0.9665093301
21
11.9593685289
31
0.0000000000
11
-0.9673928721
21
11.9591915257
31
0.0000000000
11
-0.9760454675
21
11.9584263900
31
0.0000000000
0
SPLINE
5
304
100
AcDbEntity
8
0
100
AcDbSpline
62
7
6
CONTINUOUS
70
0
71
3
72
9
73
5
74
3
42
0.0000001000
43
0.0000001000
44
0.0000000001
12
-0.0196942186
22
0.0001266273
32
0.0000000000
13
-0.0183740034
23
0.0068794117
33
0.0000000000
40
0.0000000000
40
0.0000000000
40
0.0000000000
40
0.0000000000
40
0.2440239316
40
1.0000000000
40
1.0000000000
40
1.0000000000
40
1.0000000000
10
-0.9760454675
20
11.9584263900
30
0.0000000000
10
-0.9776474211
20
11.9584366900
30
0.0000000000
10
-0.9842122088
20
11.9588076161
30
0.0000000000
10
-0.9906312384
20
11.9604360545
30
0.0000000000
10
-0.9952613407
20
11.9621696114
30
0.0000000000
11
-0.9760454675
21
11.9584263900
31
0.0000000000
11
-0.9808426721
21
11.9586926017
31
0.0000000000
11
-0.9952613407
21
11.9621696114
31
0.0000000000
0
SPLINE
5
305
100
AcDbEntity
8
0
100
AcDbSpline
62
9
6
CONTINUOUS
70
0
71
3
72
8
73
4
74
2
42
0.0000001000
43
0.0000001000
44
0.0000000001
12
-0.0242751717
22
0.1906533926
32
0.0000000000
13
-0.0238179504
23
0.1907133473
33
0.0000000000
40
0.0000000000
40
0.0000000000
40
0.0000000000
40
0.0000000000
40
1.0000000000
40
1.0000000000
40
1.0000000000
40
1.0000000000
10
-7.4713792010
20
-14.3551980095
30
0.0000000000
10
-7.4794709249
20
-14.2916468787
30
0.0000000000
10
-7.4874863166
20
-14.2280856363
30
0.0000000000
10
-7.4954256334
20
-14.1645145206
30
0.0000000000
11
-7.4713792010
21
-14.3551980095
31
0.0000000000
11
-7.4954256334
21
-14.1645145206
31
0.0000000000
0
SPLINE
5
306
100
AcDbEntity
8
0
100
AcDbSpline
62
9
6
CONTINUOUS
70
0
71
3
72
10
73
6
74
4
42
0.0000001000
43
0.0000001000
44
0.0000000001
12
-1.1853497097
22
9.4912453530
32
0.0000000000
13
-0.1456904844
23
9.5637543933
33
0.0000000000
40
0.0000000000
40
0.0000000000
40
0.0000000000
40
0.0000000000
40
0.3131110671
40
0.6531988390
40
1.0000000000
40
1.0000000000
40
1.0000000000
40
1.0000000000
10
-7.4954256334
20
-14.1645145206
30
0.0000000000
10
-7.6191410042
20
-13.1739098669
30
0.0000000000
10
-7.8386944496
20
-11.1023515960
30
0.0000000000
10
-8.0582272152
20
-7.9209734400
30
0.0000000000
10
-8.1295352427
20
-5.7315788023
30
0.0000000000
10
-8.1463771191
20
-4.6260050934
30
0.0000000000
11
-7.4954256334
21
-14.1645145206
31
0.0000000000
11
-7.8121284065
21
-11.1864088385
31
0.0000000000
11
-8.0372682940
21
-7.9413161099
31
0.0000000000
11
-8.1463771191
21
-4.6260050934
31
0.0000000000
0
SPLINE
5
307
100
AcDbEntity
8
0
100
AcDbSpline
62
9
6
CONTINUOUS
70
0
71
3
72
10
73
6
74
4
42
0.0000001000
43
0.0000001000
44
0.0000000001
12
-0.0200230812
22
-0.2350703809
32
0.0000000000
13
0.2084488152
23
-0.1031234939
33
0.0000000000
40
0.0000000000
40
0.0000000000
40
0.0000000000
40
0.0000000000
40
0.1896383031
40
0.5348853333
40
1.0000000000
40
1.0000000000
40
1.0000000000
40
1.0000000000
10
-7.6180689545
20
22.4349318023
30
0.0000000000
10
-7.6193346689
20
22.4200723529
30
0.0000000000
10
-7.6125258035
20
22.3763635952
30
0.0000000000
10
-7.5574197737
20
22.3174104856
30
0.0000000000
10
-7.5036794331
20
22.2847563700
30
0.0000000000
10
-7.4713618994
20
22.2687682868
30
0.0000000000
11
-7.6180689545
21
22.4349318023
31
0.0000000000
11
-7.6116574826
21
22.3906097951
31
0.0000000000
11
-7.5623762654
21
22.3272213560
31
0.0000000000
11
-7.4713618994
21
22.2687682868
31
0.0000000000
0
SPLINE
5
308
100
AcDbEntity
8
0
100
AcDbSpline
62
9
6
CONTINUOUS
70
0
71
3
72
10
73
6
74
4
42
0.0000001000
43
0.0000001000
44
0.0000000001
12
0.2130840017
22
0.1205676646
32
0.0000000000
13
0.2191848260
23
-0.1038237994
33
0.0000000000
40
0.0000000000
40
0.0000000000
40
0.0000000000
40
0.0000000000
40
0.1065267788
40
0.5212691982
40
1.0000000000
40
1.0000000000
40
1.0000000000
40
1.0000000000
10
-7.0343234259
20
23.3588261930
30
0.0000000000
10
-7.0267570418
20
23.3631074213
30
0.0000000000
10
-6.9883820879
20
23.3815214051
30
0.0000000000
10
-6.9048125607
20
23.3899911095
30
0.0000000000
10
-6.8345005840
20
23.3673932094
30
0.0000000000
10
-6.7995237415
20
23.3508253259
30
0.0000000000
11
-7.0343234259
21
23.3588261930
31
0.0000000000
11
-7.0108557637
21
23.3700489571
31
0.0000000000
11
-6.9110984606
21
23.3829493129
31
0.0000000000
11
-6.7995237415
21
23.3508253259
31
0.0000000000
0
SPLINE
5
309
100
AcDbEntity
8
0
100
AcDbSpline
62
7
6
CONTINUOUS
70
0
71
3
72
15
73
11
74
9
42
0.0000001000
43
0.0000001000
44
0.0000000001
12
0.5544581022
22
1.9814719446
32
0.0000000000
13
-0.2384736125
23
2.0439539230
33
0.0000000000
40
0.0000000000
40
0.0000000000
40
0.0000000000
40
0.0000000000
40
0.1282515663
40
0.2609016793
40
0.3977852872
40
0.5387205005
40
0.6834680371
40
0.8317429831
40
0.9832226426
40
1.0000000000
40
1.0000000000
40
1.0000000000
40
1.0000000000
10
0.0138961711
20
8.5824738131
30
0.0000000000
10
0.0375995445
20
8.6671827733
30
0.0000000000
10
0.0799045049
20
8.8412087201
30
0.0000000000
10
0.1275604027
20
9.1100005725
30
0.0000000000
10
0.1603169474
20
9.3897700080
30
0.0000000000
10
0.1780448833
20
9.6791885520
30
0.0000000000
10
0.1806826413
20
9.9769404863
30
0.0000000000
10
0.1682205682
20
10.2816739296
30
0.0000000000
10
0.1490386458
20
10.4979974746
30
0.0000000000
10
0.1359503526
20
10.6126673292
30
0.0000000000
10
0.1346167003
20
10.6240980443
30
0.0000000000
11
0.0138961711
21
8.5824738131
31
0.0000000000
11
0.0765215954
21
8.8388235289
31
0.0000000000
11
0.1244418632
21
9.1075227306
31
0.0000000000
11
0.1574408943
21
9.3872325303
31
0.0000000000
11
0.1753906795
21
9.6766626030
31
0.0000000000
11
0.1782219344
21
9.9744794642
31
0.0000000000
11
0.1659219956
21
10.2793196838
31
0.0000000000
11
0.1385317373
21
10.5897960718
31
0.0000000000
11
0.1346167003
21
10.6240980443
31
0.0000000000
0
SPLINE
5
30A
100
AcDbEntity
8
0
100
AcDbSpline
62
7
6
CONTINUOUS
70
0
71
3
72
8
73
4
74
2
42
0.0000001000
43
0.0000001000
44
0.0000000001
12
-0.0327889970
22
0.2810340241
32
0.0000000000
13
-0.0440281603
23
0.2794612087
33
0.0000000000
40
0.0000000000
40
0.0000000000
40
0.0000000000
40
0.0000000000
40
1.0000000000
40
1.0000000000
40
1.0000000000
40
1.0000000000
10
0.1346167003
20
10.6240980443
30
0.0000000000
10
0.1236870346
20
10.7177760524
30
0.0000000000
10
0.1108376154
20
10.8112308858
30
0.0000000000
10
0.0961615620
20
10.9043846220
30
0.0000000000
11
0.1346167003
21
10.6240980443
31
0.0000000000
11
0.0961615620
21
10.9043846220
31
0.0000000000
0
SPLINE
5
30B
100
AcDbEntity
8
0
100
AcDbSpline
62
7
6
CONTINUOUS
70
0
71
3
72
8
73
4
74
2
42
0.0000001000
43
0.0000001000
44
0.0000000001
12
-0.0314346719
22
-0.0108009062
32
0.0000000000
13
-0.0320384263
23
-0.0089123212
33
0.0000000000
40
0.0000000000
40
0.0000000000
40
0.0000000000
40
0.0000000000
40
1.0000000000
40
1.0000000000
40
1.0000000000
40
1.0000000000
10
0.0439570336
20
7.7202828710
30
0.0000000000
10
0.0334788097
20
7.7166825690
30
0.0000000000
10
0.0228879998
20
7.7133961204
30
0.0000000000
10
0.0122085243
20
7.7104253467
30
0.0000000000
11
0.0439570336
21
7.7202828710
31
0.0000000000
11
0.0122085243
21
7.7104253467
31
0.0000000000
0
SPLINE
5
30C
100
AcDbEntity
8
0
100
AcDbSpline
62
7
6
CONTINUOUS
70
0
71
3
72
12
73
8
74
6
42
0.0000001000
43
0.0000001000
44
0.0000000001
12
-0.3254019014
22
-0.0691153073
32
0.0000000000
13
-0.3201559994
23
0.0900267855
33
0.0000000000
40
0.0000000000
40
0.0000000000
40
0.0000000000
40
0.0000000000
40
0.1877744440
40
0.4248403754
40
0.6699948689
40
0.9173123755
40
1.0000000000
40
1.0000000000
40
1.0000000000
40
1.0000000000
10
-0.0219200619
20
7.7020659445
30
0.0000000000
10
-0.0422874489
20
7.6977399151
30
0.0000000000
10
-0.0888912392
20
7.6904645151
30
0.0000000000
10
-0.1632701095
20
7.6876112955
30
0.0000000000
10
-0.2440147583
20
7.6942717424
30
0.0000000000
10
-0.3066759701
20
7.7064899052
30
0.0000000000
10
-0.3420514875
20
7.7158353600
30
0.0000000000
10
-0.3508758005
20
7.7183167270
30
0.0000000000
11
-0.0219200619
21
7.7020659445
31
0.0000000000
11
-0.0835933980
21
7.6923764722
31
0.0000000000
11
-0.1623331314
21
7.6892060711
31
0.0000000000
11
-0.2435638171
21
7.6957303008
31
0.0000000000
11
-0.3242875434
21
7.7112986841
31
0.0000000000
11
-0.3508758005
21
7.7183167270
31
0.0000000000
0
SPLINE
5
30D
100
AcDbEntity
8
0
100
AcDbSpline
62
7
6
CONTINUOUS
70
0
71
3
72
8
73
4
74
2
42
0.0000001000
43
0.0000001000
44
0.0000000001
12
-0.0546846305
22
0.0153771334
32
0.0000000000
13
-0.0535848393
23
0.0187725259
33
0.0000000000
40
0.0000000000
40
0.0000000000
40
0.0000000000
40
0.0000000000
40
1.0000000000
40
1.0000000000
40
1.0000000000
40
1.0000000000
10
-0.3508758005
20
7.7183167270
30
0.0000000000
10
-0.3691040107
20
7.7234424381
30
0.0000000000
10
-0.3871634955
20
7.7291643662
30
0.0000000000
10
-0.4050251086
20
7.7354218748
30
0.0000000000
11
-0.3508758005
21
7.7183167270
31
0.0000000000
11
-0.4050251086
21
7.7354218748
31
0.0000000000
0
SPLINE
5
30E
100
AcDbEntity
8
0
100
AcDbSpline
62
7
6
CONTINUOUS
70
0
71
3
72
10
73
6
74
4
42
0.0000001000
43
0.0000001000
44
0.0000000001
12
-0.0009738291
22
0.0332441039
32
0.0000000000
13
0.0134006301
23
0.0305674880
33
0.0000000000
40
0.0000000000
40
0.0000000000
40
0.0000000000
40
0.0000000000
40
0.5159030913
40
0.9699453406
40
1.0000000000
40
1.0000000000
40
1.0000000000
40
1.0000000000
10
-1.0590234376
20
-9.4148057487
30
0.0000000000
10
-1.0591909048
20
-9.4090888367
30
0.0000000000
10
-1.0586350282
20
-9.3982761986
30
0.0000000000
10
-1.0557788163
20
-9.3874683192
30
0.0000000000
10
-1.0536625085
20
-9.3825166231
30
0.0000000000
10
-1.0535282580
20
-9.3822103913
30
0.0000000000
11
-1.0590234376
21
-9.4148057487
31
0.0000000000
11
-1.0579730830
21
-9.3976798356
31
0.0000000000
11
-1.0539224584
21
-9.3831325457
31
0.0000000000
11
-1.0535282580
21
-9.3822103913
31
0.0000000000
0
SPLINE
5
30F
100
AcDbEntity
8
0
100
AcDbSpline
62
7
6
CONTINUOUS
70
0
71
3
72
8
73
4
74
2
42
0.0000001000
43
0.0000001000
44
0.0000000001
12
0.0018766563
22
0.0042807442
32
0.0000000000
13
0.0022597557
23
0.0040928975
33
0.0000000000
40
0.0000000000
40
0.0000000000
40
0.0000000000
40
0.0000000000
40
1.0000000000
40
1.0000000000
40
1.0000000000
40
1.0000000000
10
-1.0535282580
20
-9.3822103913
30
0.0000000000
10
-1.0529027059
20
-9.3807834765
30
0.0000000000
10
-1.0522150220
20
-9.3793823805
30
0.0000000000
10
-1.0514617701
20
-9.3780180814
30
0.0000000000
11
-1.0535282580
21
-9.3822103913
31
0.0000000000
11
-1.0514617701
21
-9.3780180814
31
0.0000000000
0
SPLINE
5
310
100
AcDbEntity
8
0
100
AcDbSpline
62
7
6
CONTINUOUS
70
0
71
3
72
8
73
4
74
2
42
0.0000001000
43
0.0000001000
44
0.0000000001
12
0.0020821797
22
0.0037712696
32
0.0000000000
13
0.0024242521
23
0.0035580598
33
0.0000000000
40
0.0000000000
40
0.0000000000
40
0.0000000000
40
0.0000000000
40
1.0000000000
40
1.0000000000
40
1.0000000000
40
1.0000000000
10
-1.0514617701
20
-9.3780180814
30
0.0000000000
10
-1.0507677102
20
-9.3767609915
30
0.0000000000
10
-1.0500179824
20
-9.3755351426
30
0.0000000000
10
-1.0492098983
20
-9.3743491226
30
0.0000000000
11
-1.0514617701
21
-9.3780180814
31
0.0000000000
11
-1.0492098983
21
-9.3743491226
31
0.0000000000
0
SPLINE
5
311
100
AcDbEntity
8
0
100
AcDbSpline
62
7
6
CONTINUOUS
70
0
71
3
72
9
73
5
74
3
42
0.0000001000
43
0.0000001000
44
0.0000000001
12
0.0024988806
22
0.0036675916
32
0.0000000000
13
0.0028792355
23
0.0033853634
33
0.0000000000
40
0.0000000000
40
0.0000000000
40
0.0000000000
40
0.0000000000
40
0.8571121659
40
1.0000000000
40
1.0000000000
40
1.0000000000
40
1.0000000000
10
-1.0492098983
20
-9.3743491226
30
0.0000000000
10
-1.0484959580
20
-9.3733012768
30
0.0000000000
10
-1.0476098531
20
-9.3721150184
30
0.0000000000
10
-1.0466592204
20
-9.3709791408
30
0.0000000000
10
-1.0465220845
20
-9.3708178984
30
0.0000000000
11
-1.0492098983
21
-9.3743491226
31
0.0000000000
11
-1.0469295707
21
-9.3713047756
31
0.0000000000
11
-1.0465220845
21
-9.3708178984
31
0.0000000000
0
SPLINE
5
312
100
AcDbEntity
8
0
100
AcDbSpline
62
7
6
CONTINUOUS
70
0
71
3
72
8
73
4
74
2
42
0.0000001000
43
0.0000001000
44
0.0000000001
12
0.0030264614
22
0.0035584695
32
0.0000000000
13
0.0034308448
23
0.0031758082
33
0.0000000000
40
0.0000000000
40
0.0000000000
40
0.0000000000
40
0.0000000000
40
1.0000000000
40
1.0000000000
40
1.0000000000
40
1.0000000000
10
-1.0465220845
20
-9.3708178984
30
0.0000000000
10
-1.0455132641
20
-9.3696317419
30
0.0000000000
10
-1.0444339813
20
-9.3685029843
30
0.0000000000
10
-1.0432903664
20
-9.3674443816
30
0.0000000000
11
-1.0465220845
21
-9.3708178984
31
0.0000000000
11
-1.0432903664
21
-9.3674443816
31
0.0000000000
0
SPLINE
5
313
100
AcDbEntity
8
0
100
AcDbSpline
62
7
6
CONTINUOUS
70
0
71
3
72
8
73
4
74
2
42
0.0000001000
43
0.0000001000
44
0.0000000001
12
0.0040594521
22
0.0037576872
32
0.0000000000
13
0.0045693840
23
0.0031049888
33
0.0000000000
40
0.0000000000
40
0.0000000000
40
0.0000000000
40
0.0000000000
40
1.0000000000
40
1.0000000000
40
1.0000000000
40
1.0000000000
10
-1.0432903664
20
-9.3674443816
30
0.0000000000
10
-1.0419372157
20
-9.3661918192
30
0.0000000000
10
-1.0404939990
20
-9.3650374746
30
0.0000000000
10
-1.0389708710
20
-9.3640024784
30
0.0000000000
11
-1.0432903664
21
-9.3674443816
31
0.0000000000
11
-1.0389708710
21
-9.3640024784
31
0.0000000000
0
SPLINE
5
314
100
AcDbEntity
8
0
100
AcDbSpline
62
7
6
CONTINUOUS
70
0
71
3
72
10
73
6
74
4
42
0.0000001000
43
0.0000001000
44
0.0000000001
12
-0.0316363872
22
0.0270577118
32
0.0000000000
13
-0.0234633200
23
0.0344140724
33
0.0000000000
40
0.0000000000
40
0.0000000000
40
0.0000000000
40
0.0000000000
40
0.4734003492
40
0.9616163520
40
1.0000000000
40
1.0000000000
40
1.0000000000
40
1.0000000000
10
-0.8094226829
20
-13.3505347293
30
0.0000000000
10
-0.8144149085
20
-13.3462650193
30
0.0000000000
10
-0.8239269750
20
-13.3368386112
30
0.0000000000
10
-0.8325114891
20
-13.3258978058
30
0.0000000000
10
-0.8366575317
20
-13.3198757335
30
0.0000000000
10
-0.8369577343
20
-13.3194354210
30
0.0000000000
11
-0.8094226829
21
-13.3505347293
31
0.0000000000
11
-0.8234757671
21
-13.3367185980
31
0.0000000000
11
-0.8360511348
21
-13.3207522418
31
0.0000000000
11
-0.8369577343
21
-13.3194354210
31
0.0000000000
0
SPLINE
5
315
100
AcDbEntity
8
0
100
AcDbSpline
62
7
6
CONTINUOUS
70
0
71
3
72
8
73
4
74
2
42
0.0000001000
43
0.0000001000
44
0.0000000001
12
-0.0040395280
22
0.0059248482
32
0.0000000000
13
-0.0037950650
23
0.0060846470
33
0.0000000000
40
0.0000000000
40
0.0000000000
40
0.0000000000
40
0.0000000000
40
1.0000000000
40
1.0000000000
40
1.0000000000
40
1.0000000000
10
-0.8369577343
20
-13.3194354210
30
0.0000000000
10
-0.8383042436
20
-13.3174604715
30
0.0000000000
10
-0.8396104992
20
-13.3154580407
30
0.0000000000
10
-0.8408755209
20
-13.3134298251
30
0.0000000000
11
-0.8369577343
21
-13.3194354210
31
0.0000000000
11
-0.8408755209
21
-13.3134298251
31
0.0000000000
0
SPLINE
5
316
100
AcDbEntity
8
0
100
AcDbSpline
62
7
6
CONTINUOUS
70
0
71
3
72
8
73
4
74
2
42
0.0000001000
43
0.0000001000
44
0.0000000001
12
-0.0033819889
22
0.0054223599
32
0.0000000000
13
-0.0031834307
23
0.0055416211
33
0.0000000000
40
0.0000000000
40
0.0000000000
40
0.0000000000
40
0.0000000000
40
1.0000000000
40
1.0000000000
40
1.0000000000
40
1.0000000000
10
-0.8408755209
20
-13.3134298251
30
0.0000000000
10
-0.8420028505
20
-13.3116223718
30
0.0000000000
10
-0.8430974340
20
-13.3097944413
30
0.0000000000
10
-0.8441585776
20
-13.3079472343
30
0.0000000000
11
-0.8408755209
21
-13.3134298251
31
0.0000000000
11
-0.8441585776
21
-13.3079472343
31
0.0000000000
0
SPLINE
5
317
100
AcDbEntity
8
0
100
AcDbSpline
62
7
6
CONTINUOUS
70
0
71
3
72
9
73
5
74
3
42
0.0000001000
43
0.0000001000
44
0.0000000001
12
-0.0035998351
22
0.0062664853
32
0.0000000000
13
-0.0033401397
23
0.0064092074
33
0.0000000000
40
0.0000000000
40
0.0000000000
40
0.0000000000
40
0.0000000000
40
0.8189552334
40
1.0000000000
40
1.0000000000
40
1.0000000000
40
1.0000000000
10
-0.8441585776
20
-13.3079472343
30
0.0000000000
10
-0.8451412788
20
-13.3062365773
30
0.0000000000
10
-0.8463062052
20
-13.3041275622
30
0.0000000000
10
-0.8474275500
20
-13.3019953198
30
0.0000000000
10
-0.8476291216
20
-13.3016085353
30
0.0000000000
11
-0.8441585776
21
-13.3079472343
31
0.0000000000
11
-0.8470200943
21
-13.3027666211
31
0.0000000000
11
-0.8476291216
21
-13.3016085353
31
0.0000000000
0
SPLINE
5
318
100
AcDbEntity
8
0
100
AcDbSpline
62
7
6
CONTINUOUS
70
0
71
3
72
8
73
4
74
2
42
0.0000001000
43
0.0000001000
44
0.0000000001
12
-0.0059753996
22
0.0114658605
32
0.0000000000
13
-0.0050914521
23
0.0118834017
33
0.0000000000
40
0.0000000000
40
0.0000000000
40
0.0000000000
40
0.0000000000
40
1.0000000000
40
1.0000000000
40
1.0000000000
40
1.0000000000
10
-0.8476291216
20
-13.3016085353
30
0.0000000000
10
-0.8496209215
20
-13.2977865818
30
0.0000000000
10
-0.8514719220
20
-13.2938910903
30
0.0000000000
10
-0.8531690728
20
-13.2899299564
30
0.0000000000
11
-0.8476291216
21
-13.3016085353
31
0.0000000000
11
-0.8531690728
21
-13.2899299564
31
0.0000000000
0
SPLINE
5
319
100
AcDbEntity
8
0
100
AcDbSpline
62
7
6
CONTINUOUS
70
0
71
3
72
9
73
5
74
3
42
0.0000001000
43
0.0000001000
44
0.0000000001
12
-0.0029003426
22
0.0067693724
32
0.0000000000
13
-0.0025934954
23
0.0068928036
33
0.0000000000
40
0.0000000000
40
0.0000000000
40
0.0000000000
40
0.0000000000
40
0.9002047264
40
1.0000000000
40
1.0000000000
40
1.0000000000
40
1.0000000000
10
-0.8531690728
20
-13.2899299564
30
0.0000000000
10
-0.8540393735
20
-13.2878986827
30
0.0000000000
10
-0.8549612122
20
-13.2856230500
30
0.0000000000
10
-0.8558309550
20
-13.2833274301
30
0.0000000000
10
-0.8559172278
20
-13.2830981404
30
0.0000000000
11
-0.8531690728
21
-13.2899299564
31
0.0000000000
11
-0.8556568437
21
-13.2837854151
31
0.0000000000
11
-0.8559172278
21
-13.2830981404
31
0.0000000000
0
SPLINE
5
31A
100
AcDbEntity
8
0
100
AcDbSpline
62
7
6
CONTINUOUS
70
0
71
3
72
9
73
5
74
3
42
0.0000001000
43
0.0000001000
44
0.0000000001
12
-0.0132870387
22
0.0353133260
32
0.0000000000
13
-0.0027707586
23
0.0376058364
33
0.0000000000
40
0.0000000000
40
0.0000000000
40
0.0000000000
40
0.0000000000
40
0.5038789229
40
1.0000000000
40
1.0000000000
40
1.0000000000
40
1.0000000000
10
-0.8559172278
20
-13.2830981404
30
0.0000000000
10
-0.8581489141
20
-13.2771669268
30
0.0000000000
10
-0.8618829201
20
-13.2651332357
30
0.0000000000
10
-0.8639289632
20
-13.2526686103
30
0.0000000000
10
-0.8643871737
20
-13.2464495943
30
0.0000000000
11
-0.8559172278
21
-13.2830981404
31
0.0000000000
11
-0.8614833243
21
-13.2649304686
31
0.0000000000
11
-0.8643871737
21
-13.2464495943
31
0.0000000000
0
SPLINE
5
31B
100
AcDbEntity
8
0
100
AcDbSpline
62
7
6
CONTINUOUS
70
0
71
3
72
8
73
4
74
2
42
0.0000001000
43
0.0000001000
44
0.0000000001
12
-0.0466378932
22
0.0058033805
32
0.0000000000
13
-0.0459940267
23
0.0098772471
33
0.0000000000
40
0.0000000000
40
0.0000000000
40
0.0000000000
40
0.0000000000
40
1.0000000000
40
1.0000000000
40
1.0000000000
40
1.0000000000
10
-0.3772995272
20
-13.5666251670
30
0.0000000000
10
-0.3928454916
20
-13.5646907068
30
0.0000000000
10
-0.4083097684
20
-13.5620305126
30
0.0000000000
10
-0.4236411106
20
-13.5587380969
30
0.0000000000
11
-0.3772995272
21
-13.5666251670
31
0.0000000000
11
-0.4236411106
21
-13.5587380969
31
0.0000000000
0
SPLINE
5
31C
100
AcDbEntity
8
0
100
AcDbSpline
62
7
6
CONTINUOUS
70
0
71
3
72
9
73
5
74
3
42
0.0000001000
43
0.0000001000
44
0.0000000001
12
-0.0798152058
22
0.0171403673
32
0.0000000000
13
-0.0769060184
23
0.0272613164
33
0.0000000000
40
0.0000000000
40
0.0000000000
40
0.0000000000
40
0.0000000000
40
0.2861644103
40
1.0000000000
40
1.0000000000
40
1.0000000000
40
1.0000000000
10
-0.4236411106
20
-13.5587380969
30
0.0000000000
10
-0.4312545344
20
-13.5571031092
30
0.0000000000
10
-0.4577450460
20
-13.5508448331
30
0.0000000000
10
-0.4837586019
20
-13.5428225274
30
0.0000000000
10
-0.5020580195
20
-13.5363358281
30
0.0000000000
11
-0.4236411106
21
-13.5587380969
31
0.0000000000
11
-0.4463767597
21
-13.5533768609
31
0.0000000000
11
-0.5020580195
21
-13.5363358281
31
0.0000000000
0
SPLINE
5
31D
100
AcDbEntity
8
0
100
AcDbSpline
62
7
6
CONTINUOUS
70
0
71
3
72
8
73
4
74
2
42
0.0000001000
43
0.0000001000
44
0.0000000001
12
-0.0162354114
22
0.0057550592
32
0.0000000000
13
-0.0160916461
23
0.0061431615
33
0.0000000000
40
0.0000000000
40
0.0000000000
40
0.0000000000
40
0.0000000000
40
1.0000000000
40
1.0000000000
40
1.0000000000
40
1.0000000000
10
-0.5020580195
20
-13.5363358281
30
0.0000000000
10
-0.5074698233
20
-13.5344174751
30
0.0000000000
10
-0.5128580134
20
-13.5324326462
30
0.0000000000
10
-0.5182218955
20
-13.5303849257
30
0.0000000000
11
-0.5020580195
21
-13.5363358281
31
0.0000000000
11
-0.5182218955
21
-13.5303849257
31
0.0000000000
0
SPLINE
5
31E
100
AcDbEntity
8
0
100
AcDbSpline
62
7
6
CONTINUOUS
70
0
71
3
72
8
73
4
74
2
42
0.0000001000
43
0.0000001000
44
0.0000000001
12
-0.0079027697
22
0.0030169686
32
0.0000000000
13
-0.0078675139
23
0.0031070779
33
0.0000000000
40
0.0000000000
40
0.0000000000
40
0.0000000000
40
0.0000000000
40
1.0000000000
40
1.0000000000
40
1.0000000000
40
1.0000000000
10
-0.5182218955
20
-13.5303849257
30
0.0000000000
10
-0.5208561520
20
-13.5293792695
30
0.0000000000
10
-0.5234845499
20
-13.5283584354
30
0.0000000000
10
-0.5261070545
20
-13.5273227428
30
0.0000000000
11
-0.5182218955
21
-13.5303849257
31
0.0000000000
11
-0.5261070545
21
-13.5273227428
31
0.0000000000
0
SPLINE
5
31F
100
AcDbEntity
8
0
100
AcDbSpline
62
7
6
CONTINUOUS
70
0
71
3
72
9
73
5
74
3
42
0.0000001000
43
0.0000001000
44
0.0000000001
12
-0.1446956904
22
0.0571439454
32
0.0000000000
13
-0.1322956298
23
0.0818241641
33
0.0000000000
40
0.0000000000
40
0.0000000000
40
0.0000000000
40
0.0000000000
40
0.4541309168
40
1.0000000000
40
1.0000000000
40
1.0000000000
40
1.0000000000
10
-0.5261070545
20
-13.5273227428
30
0.0000000000
10
-0.5480106500
20
-13.5186724654
30
0.0000000000
10
-0.5953372956
20
-13.4973420662
30
0.0000000000
10
-0.6405731563
20
-13.4718877122
30
0.0000000000
10
-0.6646451877
20
-13.4569992851
30
0.0000000000
11
-0.5261070545
21
-13.5273227428
31
0.0000000000
11
-0.5905644431
21
-13.4984483746
31
0.0000000000
11
-0.6646451877
21
-13.4569992851
31
0.0000000000
0
SPLINE
5
320
100
AcDbEntity
8
0
100
AcDbSpline
62
9
6
CONTINUOUS
70
0
71
3
72
9
73
5
74
3
42
0.0000001000
43
0.0000001000
44
0.0000000001
12
-0.0284798750
22
0.0141719706
32
0.0000000000
13
-0.0270890538
23
0.0166343742
33
0.0000000000
40
0.0000000000
40
0.0000000000
40
0.0000000000
40
0.0000000000
40
0.7476691775
40
1.0000000000
40
1.0000000000
40
1.0000000000
40
1.0000000000
10
-7.2225993017
20
-14.7697995335
30
0.0000000000
10
-7.2296971433
20
-14.7662675516
30
0.0000000000
10
-7.2390323595
20
-14.7612342077
30
0.0000000000
10
-7.2481243675
20
-14.7557904821
30
0.0000000000
10
-7.2504028352
20
-14.7543913603
30
0.0000000000
11
-7.2225993017
21
-14.7697995335
31
0.0000000000
11
-7.2435204945
21
-14.7585115923
31
0.0000000000
11
-7.2504028352
21
-14.7543913603
31
0.0000000000
0
SPLINE
5
321
100
AcDbEntity
8
0
100
AcDbSpline
62
9
6
CONTINUOUS
70
0
71
3
72
10
73
6
74
4
42
0.0000001000
43
0.0000001000
44
0.0000000001
12
-0.4023490447
22
0.2470674915
32
0.0000000000
13
-0.0601375668
23
0.4660996326
33
0.0000000000
40
0.0000000000
40
0.0000000000
40
0.0000000000
40
0.0000000000
40
0.2880834921
40
0.6226575017
40
1.0000000000
40
1.0000000000
40
1.0000000000
40
1.0000000000
10
-7.2504028352
20
-14.7543913603
30
0.0000000000
10
-7.2890395412
20
-14.7306660050
30
0.0000000000
10
-7.3627742099
20
-14.6635368852
30
0.0000000000
10
-7.4384546717
20
-14.5236593466
30
0.0000000000
10
-7.4638150478
20
-14.4138244095
30
0.0000000000
10
-7.4713792010
20
-14.3551980095
30
0.0000000000
11
-7.2504028352
21
-14.7543913603
31
0.0000000000
11
-7.3515723065
21
-14.6642749643
31
0.0000000000
11
-7.4289193592
21
-14.5273769934
31
0.0000000000
11
-7.4713792010
21
-14.3551980095
31
0.0000000000
0
SPLINE
5
322
100
AcDbEntity
8
0
100
AcDbSpline
62
7
6
CONTINUOUS
70
0
71
3
72
8
73
4
74
2
42
0.0000001000
43
0.0000001000
44
0.0000000001
12
-0.1221983174
22
0.1711801871
32
0.0000000000
13
-0.1050749207
23
0.1823546980
33
0.0000000000
40
0.0000000000
40
0.0000000000
40
0.0000000000
40
0.0000000000
40
1.0000000000
40
1.0000000000
40
1.0000000000
40
1.0000000000
10
-1.7031983654
20
8.6068882017
30
0.0000000000
10
-1.7439311378
20
8.6639482640
30
0.0000000000
10
-1.7818444075
20
8.7230772150
30
0.0000000000
10
-1.8168693811
20
8.7838621144
30
0.0000000000
11
-1.7031983654
21
8.6068882017
31
0.0000000000
11
-1.8168693811
21
8.7838621144
31
0.0000000000
0
SPLINE
5
323
100
AcDbEntity
8
0
100
AcDbSpline
62
7
6
CONTINUOUS
70
0
71
3
72
9
73
5
74
3
42
0.0000001000
43
0.0000001000
44
0.0000000001
12
-0.0529312437
22
0.0918607493
32
0.0000000000
13
-0.0484952018
23
0.0942578173
33
0.0000000000
40
0.0000000000
40
0.0000000000
40
0.0000000000
40
0.0000000000
40
0.2053800766
40
1.0000000000
40
1.0000000000
40
1.0000000000
40
1.0000000000
10
-1.8168693811
20
8.7838621144
30
0.0000000000
10
-1.8204930554
20
8.7901509036
30
0.0000000000
10
-1.8379862722
20
8.8208574574
30
0.0000000000
10
-1.8547447440
20
8.8519733861
30
0.0000000000
10
-1.8675898285
20
8.8769397660
30
0.0000000000
11
-1.8168693811
21
8.7838621144
31
0.0000000000
11
-1.8276475795
21
8.8027812002
31
0.0000000000
11
-1.8675898285
21
8.8769397660
31
0.0000000000
0
SPLINE
5
324
100
AcDbEntity
8
0
100
AcDbSpline
62
7
6
CONTINUOUS
70
0
71
3
72
8
73
4
74
2
42
0.0000001000
43
0.0000001000
44
0.0000000001
12
-0.0472927724
22
0.0919207125
32
0.0000000000
13
-0.0429894126
23
0.0940022806
33
0.0000000000
40
0.0000000000
40
0.0000000000
40
0.0000000000
40
0.0000000000
40
1.0000000000
40
1.0000000000
40
1.0000000000
40
1.0000000000
10
-1.8675898285
20
8.8769397660
30
0.0000000000
10
-1.8833540860
20
8.9075800035
30
0.0000000000
10
-1.8984081390
20
8.9385832920
30
0.0000000000
10
-1.9127379432
20
8.9699173855
30
0.0000000000
11
-1.8675898285
21
8.8769397660
31
0.0000000000
11
-1.9127379432
21
8.9699173855
31
0.0000000000
0
SPLINE
5
325
100
AcDbEntity
8
0
100
AcDbSpline
62
7
6
CONTINUOUS
70
0
71
3
72
8
73
4
74
2
42
0.0000001000
43
0.0000001000
44
0.0000000001
12
-0.0029197033
22
0.0063843339
32
0.0000000000
13
-0.0028996457
23
0.0063934590
33
0.0000000000
40
0.0000000000
40
0.0000000000
40
0.0000000000
40
0.0000000000
40
1.0000000000
40
1.0000000000
40
1.0000000000
40
1.0000000000
10
-1.9127379432
20
8.9699173855
30
0.0000000000
10
-1.9137111776
20
8.9720454968
30
0.0000000000
10
-1.9146810713
20
8.9741751340
30
0.0000000000
10
-1.9156476198
20
8.9763062871
30
0.0000000000
11
-1.9127379432
21
8.9699173855
31
0.0000000000
11
-1.9156476198
21
8.9763062871
31
0.0000000000
0
SPLINE
5
326
100
AcDbEntity
8
0
100
AcDbSpline
62
7
6
CONTINUOUS
70
0
71
3
72
9
73
5
74
3
42
0.0000001000
43
0.0000001000
44
0.0000000001
12
-0.0409609019
22
0.0903151212
32
0.0000000000
13
-0.0369073635
23
0.0920476988
33
0.0000000000
40
0.0000000000
40
0.0000000000
40
0.0000000000
40
0.0000000000
40
0.4639567601
40
1.0000000000
40
1.0000000000
40
1.0000000000
40
1.0000000000
10
-1.9156476198
20
8.9763062871
30
0.0000000000
10
-1.9219823156
20
8.9902737241
30
0.0000000000
10
-1.9353262501
20
9.0205191002
30
0.0000000000
10
-1.9479969126
20
9.0510537407
30
0.0000000000
10
-1.9545915602
20
9.0675009229
30
0.0000000000
11
-1.9156476198
21
8.9763062871
31
0.0000000000
11
-1.9342194071
21
9.0184010834
31
0.0000000000
11
-1.9545915602
21
9.0675009229
31
0.0000000000
0
SPLINE
5
327
100
AcDbEntity
8
0
100
AcDbSpline
62
7
6
CONTINUOUS
70
0
71
3
72
8
73
4
74
2
42
0.0000001000
43
0.0000001000
44
0.0000000001
12
-0.0403875353
22
0.1007273166
32
0.0000000000
13
-0.0353522958
23
0.1026124695
33
0.0000000000
40
0.0000000000
40
0.0000000000
40
0.0000000000
40
0.0000000000
40
1.0000000000
40
1.0000000000
40
1.0000000000
40
1.0000000000
10
-1.9545915602
20
9.0675009229
30
0.0000000000
10
-1.9680540720
20
9.1010766952
30
0.0000000000
10
-1.9806940342
20
9.1349829227
30
0.0000000000
10
-1.9924781328
20
9.1691870792
30
0.0000000000
11
-1.9545915602
21
9.0675009229
31
0.0000000000
11
-1.9924781328
21
9.1691870792
31
0.0000000000
0
SPLINE
5
328
100
AcDbEntity
8
0
100
AcDbSpline
62
7
6
CONTINUOUS
70
0
71
3
72
9
73
5
74
3
42
0.0000001000
43
0.0000001000
44
0.0000000001
12
-0.0336663289
22
0.0977188345
32
0.0000000000
13
-0.0289196641
23
0.0992533751
33
0.0000000000
40
0.0000000000
40
0.0000000000
40
0.0000000000
40
0.0000000000
40
0.7662846578
40
1.0000000000
40
1.0000000000
40
1.0000000000
40
1.0000000000
10
-1.9924781328
20
9.1691870792
30
0.0000000000
10
-2.0010774633
20
9.1941472271
30
0.0000000000
10
-2.0117048002
20
9.2269272142
30
0.0000000000
10
-2.0215339129
20
9.2599558653
30
0.0000000000
10
-2.0237869026
20
9.2676882108
30
0.0000000000
11
-1.9924781328
21
9.1691870792
31
0.0000000000
11
-2.0168958827
21
9.2445308431
31
0.0000000000
11
-2.0237869026
21
9.2676882108
31
0.0000000000
0
SPLINE
5
329
100
AcDbEntity
8
0
100
AcDbSpline
62
7
6
CONTINUOUS
70
0
71
3
72
8
73
4
74
2
42
0.0000001000
43
0.0000001000
44
0.0000000001
12
-0.0584621599
22
0.2006443322
32
0.0000000000
13
-0.0373999063
23
0.2054514561
33
0.0000000000
40
0.0000000000
40
0.0000000000
40
0.0000000000
40
0.0000000000
40
1.0000000000
40
1.0000000000
40
1.0000000000
40
1.0000000000
10
-2.0237869026
20
9.2676882108
30
0.0000000000
10
-2.0432742892
20
9.3345696549
30
0.0000000000
10
-2.0594530048
20
9.4024269132
30
0.0000000000
10
-2.0719196402
20
9.4709107320
30
0.0000000000
11
-2.0237869026
21
9.2676882108
31
0.0000000000
11
-2.0719196402
21
9.4709107320
31
0.0000000000
0
SPLINE
5
32A
100
AcDbEntity
8
0
100
AcDbSpline
62
7
6
CONTINUOUS
70
0
71
3
72
9
73
5
74
3
42
0.0000001000
43
0.0000001000
44
0.0000000001
12
-0.1003988989
22
0.0346708302
32
0.0000000000
13
-0.1060839707
23
0.0093834613
33
0.0000000000
40
0.0000000000
40
0.0000000000
40
0.0000000000
40
0.0000000000
40
0.8705653683
40
1.0000000000
40
1.0000000000
40
1.0000000000
40
1.0000000000
10
-1.0647563316
20
11.9872503820
30
0.0000000000
10
-1.0938909331
20
11.9973114567
30
0.0000000000
10
-1.1285757588
20
12.0057859614
30
0.0000000000
10
-1.1638814450
20
12.0095429813
30
0.0000000000
10
-1.1684584249
20
12.0099478296
30
0.0000000000
11
-1.0647563316
21
11.9872503820
31
0.0000000000
11
-1.1547522895
21
12.0084913708
31
0.0000000000
11
-1.1684584249
21
12.0099478296
31
0.0000000000
0
SPLINE
5
32B
100
AcDbEntity
8
0
100
AcDbSpline
62
7
6
CONTINUOUS
70
0
71
3
72
8
73
4
74
2
42
0.0000001000
43
0.0000001000
44
0.0000000001
12
-0.0494501835
22
0.0043740244
32
0.0000000000
13
-0.0495621685
23
-0.0023008231
33
0.0000000000
40
0.0000000000
40
0.0000000000
40
0.0000000000
40
0.0000000000
40
1.0000000000
40
1.0000000000
40
1.0000000000
40
1.0000000000
10
-1.1684584249
20
12.0099478296
30
0.0000000000
10
-1.1849418194
20
12.0114058378
30
0.0000000000
10
-1.2015186150
20
12.0118075778
30
0.0000000000
10
-1.2180393378
20
12.0110406368
30
0.0000000000
11
-1.1684584249
21
12.0099478296
31
0.0000000000
11
-1.2180393378
21
12.0110406368
31
0.0000000000
0
SPLINE
5
32C
100
AcDbEntity
8
0
100
AcDbSpline
62
7
6
CONTINUOUS
70
0
71
3
72
8
73
4
74
2
42
0.0000001000
43
0.0000001000
44
0.0000000001
12
-0.0067803592
22
-0.0003147644
32
0.0000000000
13
-0.0067729144
23
-0.0004468636
33
0.0000000000
40
0.0000000000
40
0.0000000000
40
0.0000000000
40
0.0000000000
40
1.0000000000
40
1.0000000000
40
1.0000000000
40
1.0000000000
10
-1.2180393378
20
12.0110406368
30
0.0000000000
10
-1.2202994575
20
12.0109357153
30
0.0000000000
10
-1.2225585278
20
12.0108089212
30
0.0000000000
10
-1.2248161660
20
12.0106599667
30
0.0000000000
11
-1.2180393378
21
12.0110406368
31
0.0000000000
11
-1.2248161660
21
12.0106599667
31
0.0000000000
0
SPLINE
5
32D
100
AcDbEntity
8
0
100
AcDbSpline
62
7
6
CONTINUOUS
70
0
71
3
72
9
73
5
74
3
42
0.0000001000
43
0.0000001000
44
0.0000000001
12
-0.0866716974
22
-0.0057184285
32
0.0000000000
13
-0.0822085855
23
-0.0282013693
33
0.0000000000
40
0.0000000000
40
0.0000000000
40
0.0000000000
40
0.0000000000
40
0.1911500389
40
1.0000000000
40
1.0000000000
40
1.0000000000
40
1.0000000000
10
-1.2248161660
20
12.0106599667
30
0.0000000000
10
-1.2303385987
20
12.0102956074
30
0.0000000000
10
-1.2591843348
20
12.0076957893
30
0.0000000000
10
-1.2876422413
20
12.0013517207
30
0.0000000000
10
-1.3098070450
20
11.9937481618
30
0.0000000000
11
-1.2248161660
21
12.0106599667
31
0.0000000000
11
-1.2413521552
21
12.0091648881
31
0.0000000000
11
-1.3098070450
21
11.9937481618
31
0.0000000000
0
SPLINE
5
32E
100
AcDbEntity
8
0
100
AcDbSpline
62
7
6
CONTINUOUS
70
0
71
3
72
8
73
4
74
2
42
0.0000001000
43
0.0000001000
44
0.0000000001
12
-0.0102848395
22
0.0038622220
32
0.0000000000
13
-0.0102994942
23
0.0038231361
33
0.0000000000
40
0.0000000000
40
0.0000000000
40
0.0000000000
40
0.0000000000
40
1.0000000000
40
1.0000000000
40
1.0000000000
40
1.0000000000
10
-0.9952613407
20
11.9621696114
30
0.0000000000
10
-0.9986896205
20
11.9634570187
30
0.0000000000
10
-1.0021203513
20
11.9647379319
30
0.0000000000
10
-1.0055535160
20
11.9660123106
30
0.0000000000
11
-0.9952613407
21
11.9621696114
31
0.0000000000
11
-1.0055535160
21
11.9660123106
31
0.0000000000
0
SPLINE
5
32F
100
AcDbEntity
8
0
100
AcDbSpline
62
7
6
CONTINUOUS
70
0
71
3
72
8
73
4
74
2
42
0.0000001000
43
0.0000001000
44
0.0000000001
12
-0.0051550311
22
0.0019135295
32
0.0000000000
13
-0.0051586831
23
0.0019036924
33
0.0000000000
40
0.0000000000
40
0.0000000000
40
0.0000000000
40
0.0000000000
40
1.0000000000
40
1.0000000000
40
1.0000000000
40
1.0000000000
10
-1.0055535160
20
11.9660123106
30
0.0000000000
10
-1.0072718597
20
11.9666501538
30
0.0000000000
10
-1.0089908131
20
11.9672863599
30
0.0000000000
10
-1.0107103742
20
11.9679209241
30
0.0000000000
11
-1.0055535160
21
11.9660123106
31
0.0000000000
11
-1.0107103742
21
11.9679209241
31
0.0000000000
0
SPLINE
5
330
100
AcDbEntity
8
0
100
AcDbSpline
62
7
6
CONTINUOUS
70
0
71
3
72
8
73
4
74
2
42
0.0000001000
43
0.0000001000
44
0.0000000001
12
-0.0076982477
22
0.0028408598
32
0.0000000000
13
-0.0077063448
23
0.0028188689
33
0.0000000000
40
0.0000000000
40
0.0000000000
40
0.0000000000
40
0.0000000000
40
1.0000000000
40
1.0000000000
40
1.0000000000
40
1.0000000000
10
-1.0107103742
20
11.9679209241
30
0.0000000000
10
-1.0132764567
20
11.9688678773
30
0.0000000000
10
-1.0158438923
20
11.9698111738
30
0.0000000000
10
-1.0184126739
20
11.9707507968
30
0.0000000000
11
-1.0107103742
21
11.9679209241
31
0.0000000000
11
-1.0184126739
21
11.9707507968
31
0.0000000000
0
SPLINE
5
331
100
AcDbEntity
8
0
100
AcDbSpline
62
7
6
CONTINUOUS
70
0
71
3
72
8
73
4
74
2
42
0.0000001000
43
0.0000001000
44
0.0000000001
12
-0.0103070342
22
0.0037701632
32
0.0000000000
13
-0.0103214296
23
0.0037306139
33
0.0000000000
40
0.0000000000
40
0.0000000000
40
0.0000000000
40
0.0000000000
40
1.0000000000
40
1.0000000000
40
1.0000000000
40
1.0000000000
10
-1.0184126739
20
11.9707507968
30
0.0000000000
10
-1.0218483520
20
11.9720075179
30
0.0000000000
10
-1.0252864378
20
11.9732576676
30
0.0000000000
10
-1.0287269143
20
11.9745012055
30
0.0000000000
11
-1.0184126739
21
11.9707507968
31
0.0000000000
11
-1.0287269143
21
11.9745012055
31
0.0000000000
0
SPLINE
5
332
100
AcDbEntity
8
0
100
AcDbSpline
62
7
6
CONTINUOUS
70
0
71
3
72
9
73
5
74
3
42
0.0000001000
43
0.0000001000
44
0.0000000001
12
-0.0051493039
22
0.0018611826
32
0.0000000000
13
-0.0051528676
23
0.0018512937
33
0.0000000000
40
0.0000000000
40
0.0000000000
40
0.0000000000
40
0.0000000000
40
0.2507781200
40
1.0000000000
40
1.0000000000
40
1.0000000000
40
1.0000000000
10
-1.0287269143
20
11.9745012055
30
0.0000000000
10
-1.0291573586
20
11.9746567868
30
0.0000000000
10
-1.0308739424
20
11.9752767683
30
0.0000000000
10
-1.0325911208
20
11.9758951029
30
0.0000000000
10
-1.0338780012
20
11.9763574461
30
0.0000000000
11
-1.0287269143
21
11.9745012055
31
0.0000000000
11
-1.0300183593
21
11.9749676388
31
0.0000000000
11
-1.0338780012
21
11.9763574461
31
0.0000000000
0
SPLINE
5
333
100
AcDbEntity
8
0
100
AcDbSpline
62
7
6
CONTINUOUS
70
0
71
3
72
8
73
4
74
2
42
0.0000001000
43
0.0000001000
44
0.0000000001
12
-0.0205505741
22
0.0073832962
32
0.0000000000
13
-0.0206067112
23
0.0072247996
33
0.0000000000
40
0.0000000000
40
0.0000000000
40
0.0000000000
40
0.0000000000
40
1.0000000000
40
1.0000000000
40
1.0000000000
40
1.0000000000
10
-1.0338780012
20
11.9763574461
30
0.0000000000
10
-1.0407281926
20
11.9788185449
30
0.0000000000
10
-1.0475878127
20
11.9812533885
30
0.0000000000
10
-1.0544567165
20
11.9836616550
30
0.0000000000
11
-1.0338780012
21
11.9763574461
31
0.0000000000
11
-1.0544567165
21
11.9836616550
31
0.0000000000
0
SPLINE
5
334
100
AcDbEntity
8
0
100
AcDbSpline
62
7
6
CONTINUOUS
70
0
71
3
72
8
73
4
74
2
42
0.0000001000
43
0.0000001000
44
0.0000000001
12
-0.0102926850
22
0.0036086587
32
0.0000000000
13
-0.0103065272
23
0.0035687552
33
0.0000000000
40
0.0000000000
40
0.0000000000
40
0.0000000000
40
0.0000000000
40
1.0000000000
40
1.0000000000
40
1.0000000000
40
1.0000000000
10
-1.0544567165
20
11.9836616550
30
0.0000000000
10
-1.0578876115
20
11.9848645413
30
0.0000000000
10
-1.0613208226
20
11.9860607970
30
0.0000000000
10
-1.0647563316
20
11.9872503820
30
0.0000000000
11
-1.0544567165
21
11.9836616550
31
0.0000000000
11
-1.0647563316
21
11.9872503820
31
0.0000000000
0
SPLINE
5
335
100
AcDbEntity
8
0
100
AcDbSpline
62
7
6
CONTINUOUS
70
0
71
3
72
9
73
5
74
3
42
0.0000001000
43
0.0000001000
44
0.0000000001
12
0.0095744878
22
0.0325978890
32
0.0000000000
13
0.0258600541
23
0.0222623393
33
0.0000000000
40
0.0000000000
40
0.0000000000
40
0.0000000000
40
0.0000000000
40
0.5286127882
40
1.0000000000
40
1.0000000000
40
1.0000000000
40
1.0000000000
10
-0.4363587797
20
12.2099005476
30
0.0000000000
10
-0.4346717142
20
12.2156444345
30
0.0000000000
10
-0.4302551343
20
12.2262328124
30
0.0000000000
10
-0.4230021016
20
12.2351649072
30
0.0000000000
10
-0.4189387353
20
12.2386629679
30
0.0000000000
11
-0.4363587797
21
12.2099005476
31
0.0000000000
11
-0.4292097988
21
12.2263759208
31
0.0000000000
11
-0.4189387353
21
12.2386629679
31
0.0000000000
0
SPLINE
5
336
100
AcDbEntity
8
0
100
AcDbSpline
62
7
6
CONTINUOUS
70
0
71
3
72
8
73
4
74
2
42
0.0000001000
43
0.0000001000
44
0.0000000001
12
0.0038886826
22
0.0033476794
32
0.0000000000
13
0.0042531437
23
0.0028834855
33
0.0000000000
40
0.0000000000
40
0.0000000000
40
0.0000000000
40
0.0000000000
40
1.0000000000
40
1.0000000000
40
1.0000000000
40
1.0000000000
10
-0.4189387353
20
12.2386629679
30
0.0000000000
10
-0.4176425078
20
12.2397788610
30
0.0000000000
10
-0.4162808672
20
12.2408222795
30
0.0000000000
10
-0.4148631526
20
12.2417834414
30
0.0000000000
11
-0.4189387353
21
12.2386629679
31
0.0000000000
11
-0.4148631526
21
12.2417834414
31
0.0000000000
0
SPLINE
5
337
100
AcDbEntity
8
0
100
AcDbSpline
62
7
6
CONTINUOUS
70
0
71
3
72
8
73
4
74
2
42
0.0000001000
43
0.0000001000
44
0.0000000001
12
-0.0218551273
22
0.1567791975
32
0.0000000000
13
-0.0021347880
23
0.1584118286
33
0.0000000000
40
0.0000000000
40
0.0000000000
40
0.0000000000
40
0.0000000000
40
1.0000000000
40
1.0000000000
40
1.0000000000
40
1.0000000000
10
-0.4607749245
20
11.7628079168
30
0.0000000000
10
-0.4680599670
20
11.8150676493
30
0.0000000000
10
-0.4722989542
20
11.8678258289
30
0.0000000000
10
-0.4730105502
20
11.9206297718
30
0.0000000000
11
-0.4607749245
21
11.7628079168
31
0.0000000000
11
-0.4730105502
21
11.9206297718
31
0.0000000000
0
SPLINE
5
338
100
AcDbEntity
8
0
100
AcDbSpline
62
7
6
CONTINUOUS
70
0
71
3
72
8
73
4
74
2
42
0.0000001000
43
0.0000001000
44
0.0000000001
12
-0.0020291717
22
0.1505745804
32
0.0000000000
13
0.0188805356
23
0.1494617100
33
0.0000000000
40
0.0000000000
40
0.0000000000
40
0.0000000000
40
0.0000000000
40
1.0000000000
40
1.0000000000
40
1.0000000000
40
1.0000000000
10
-0.4730105502
20
11.9206297718
30
0.0000000000
10
-0.4736869408
20
11.9708212986
30
0.0000000000
10
-0.4711766015
20
12.0210542676
30
0.0000000000
10
-0.4648830896
20
12.0708748376
30
0.0000000000
11
-0.4730105502
21
11.9206297718
31
0.0000000000
11
-0.4648830896
21
12.0708748376
31
0.0000000000
0
SPLINE
5
339
100
AcDbEntity
8
0
100
AcDbSpline
62
7
6
CONTINUOUS
70
0
71
3
72
8
73
4
74
2
42
0.0000001000
43
0.0000001000
44
0.0000000001
12
0.0178088858
22
0.1409783379
32
0.0000000000
13
0.0398599855
23
0.1362110457
33
0.0000000000
40
0.0000000000
40
0.0000000000
40
0.0000000000
40
0.0000000000
40
1.0000000000
40
1.0000000000
40
1.0000000000
40
1.0000000000
10
-0.4648830896
20
12.0708748376
30
0.0000000000
10
-0.4589467944
20
12.1178676170
30
0.0000000000
10
-0.4496454416
20
12.1644968657
30
0.0000000000
10
-0.4363587797
20
12.2099005476
30
0.0000000000
11
-0.4648830896
21
12.0708748376
31
0.0000000000
11
-0.4363587797
21
12.2099005476
31
0.0000000000
0
SPLINE
5
33A
100
AcDbEntity
8
0
100
AcDbSpline
62
7
6
CONTINUOUS
70
0
71
3
72
8
73
4
74
2
42
0.0000001000
43
0.0000001000
44
0.0000000001
12
0.0020727150
22
-0.0707559537
32
0.0000000000
13
0.0021275886
23
-0.0707544426
33
0.0000000000
40
0.0000000000
40
0.0000000000
40
0.0000000000
40
0.0000000000
40
1.0000000000
40
1.0000000000
40
1.0000000000
40
1.0000000000
10
-1.0590235511
20
-9.4148057520
30
0.0000000000
10
-1.0583326461
20
-9.4383910699
30
0.0000000000
10
-1.0576326009
20
-9.4619761405
30
0.0000000000
10
-1.0569234047
20
-9.4855609547
30
0.0000000000
11
-1.0590235511
21
-9.4148057520
31
0.0000000000
11
-1.0569234047
21
-9.4855609547
31
0.0000000000
0
SPLINE
5
33B
100
AcDbEntity
8
0
100
AcDbSpline
62
7
6
CONTINUOUS
70
0
71
3
72
10
73
6
74
4
42
0.0000001000
43
0.0000001000
44
0.0000000001
12
0.1104918108
22
-3.6744822647
32
0.0000000000
13
0.2631687171
23
-3.6667128281
33
0.0000000000
40
0.0000000000
40
0.0000000000
40
0.0000000000
40
0.0000000000
40
0.3312065244
40
0.6791212526
40
1.0000000000
40
1.0000000000
40
1.0000000000
40
1.0000000000
10
-1.0569234047
20
-9.4855609547
30
0.0000000000
10
-1.0447248685
20
-9.8912317880
30
0.0000000000
10
-1.0141610982
20
-10.7228825835
30
0.0000000000
10
-0.9520587744
20
-11.9467254167
30
0.0000000000
10
-0.8990205562
20
-12.7645649784
30
0.0000000000
10
-0.8708721401
20
-13.1567550515
30
0.0000000000
11
-1.0569234047
21
-9.4855609547
31
0.0000000000
11
-1.0121513162
21
-10.7022996989
31
0.0000000000
11
-0.9472663932
21
-11.9796349932
31
0.0000000000
11
-0.8708721401
21
-13.1567550515
31
0.0000000000
0
SPLINE
5
33C
100
AcDbEntity
8
0
100
AcDbSpline
62
7
6
CONTINUOUS
70
0
71
3
72
8
73
4
74
2
42
0.0000001000
43
0.0000001000
44
0.0000000001
12
0.0064378418
22
-0.0896980358
32
0.0000000000
13
0.0065321145
23
-0.0896910287
33
0.0000000000
40
0.0000000000
40
0.0000000000
40
0.0000000000
40
0.0000000000
40
1.0000000000
40
1.0000000000
40
1.0000000000
40
1.0000000000
10
-0.8708721401
20
-13.1567550515
30
0.0000000000
10
-0.8687261928
20
-13.1866543968
30
0.0000000000
10
-0.8665645452
20
-13.2165525847
30
0.0000000000
10
-0.8643871737
20
-13.2464495943
30
0.0000000000
11
-0.8708721401
21
-13.1567550515
31
0.0000000000
11
-0.8643871737
21
-13.2464495943
31
0.0000000000
0
SPLINE
5
33D
100
AcDbEntity
8
0
100
AcDbSpline
62
7
6
CONTINUOUS
70
0
71
3
72
9
73
5
74
3
42
0.0000001000
43
0.0000001000
44
0.0000000001
12
-0.0301395821
22
0.0188775627
32
0.0000000000
13
-0.0225109155
23
0.0275680971
33
0.0000000000
40
0.0000000000
40
0.0000000000
40
0.0000000000
40
0.0000000000
40
0.4928010756
40
1.0000000000
40
1.0000000000
40
1.0000000000
40
1.0000000000
10
-0.4025978672
20
11.6658416748
30
0.0000000000
10
-0.4075488067
20
11.6689426359
30
0.0000000000
10
-0.4169795881
20
11.6762480795
30
0.0000000000
10
-0.4251080952
20
11.6849300063
30
0.0000000000
10
-0.4289139326
20
11.6895908427
30
0.0000000000
11
-0.4025978672
21
11.6658416748
31
0.0000000000
11
-0.4165275440
21
11.6764771798
31
0.0000000000
11
-0.4289139326
21
11.6895908427
31
0.0000000000
0
SPLINE
5
33E
100
AcDbEntity
8
0
100
AcDbSpline
62
7
6
CONTINUOUS
70
0
71
3
72
9
73
5
74
3
42
0.0000001000
43
0.0000001000
44
0.0000000001
12
-0.0079027090
22
0.0096780892
32
0.0000000000
13
-0.0069969672
23
0.0103528432
33
0.0000000000
40
0.0000000000
40
0.0000000000
40
0.0000000000
40
0.0000000000
40
0.0367709429
40
1.0000000000
40
1.0000000000
40
1.0000000000
40
1.0000000000
10
-0.4289139326
20
11.6895908427
30
0.0000000000
10
-0.4290107960
20
11.6897094669
30
0.0000000000
10
-0.4316394491
20
11.6929400306
30
0.0000000000
10
-0.4341164862
20
11.6962927171
30
0.0000000000
10
-0.4363630469
20
11.6996167703
30
0.0000000000
11
-0.4289139326
21
11.6895908427
31
0.0000000000
11
-0.4292039071
21
11.6899472138
31
0.0000000000
11
-0.4363630469
21
11.6996167703
31
0.0000000000
0
SPLINE
5
33F
100
AcDbEntity
8
0
100
AcDbSpline
62
7
6
CONTINUOUS
70
0
71
3
72
8
73
4
74
2
42
0.0000001000
43
0.0000001000
44
0.0000000001
12
-0.0037182415
22
0.0055015795
32
0.0000000000
13
-0.0034643252
23
0.0056650261
33
0.0000000000
40
0.0000000000
40
0.0000000000
40
0.0000000000
40
0.0000000000
40
1.0000000000
40
1.0000000000
40
1.0000000000
40
1.0000000000
10
-0.4363630469
20
11.6996167703
30
0.0000000000
10
-0.4376024608
20
11.7014506301
30
0.0000000000
10
-0.4387994480
20
11.7033132976
30
0.0000000000
10
-0.4399542230
20
11.7052016396
30
0.0000000000
11
-0.4363630469
21
11.6996167703
31
0.0000000000
11
-0.4399542230
21
11.7052016396
31
0.0000000000
0
SPLINE
5
340
100
AcDbEntity
8
0
100
AcDbSpline
62
7
6
CONTINUOUS
70
0
71
3
72
9
73
5
74
3
42
0.0000001000
43
0.0000001000
44
0.0000000001
12
-0.0037027049
22
0.0060548358
32
0.0000000000
13
-0.0034127582
23
0.0062219385
33
0.0000000000
40
0.0000000000
40
0.0000000000
40
0.0000000000
40
0.0000000000
40
0.1502628452
40
1.0000000000
40
1.0000000000
40
1.0000000000
40
1.0000000000
10
-0.4399542230
20
11.7052016396
30
0.0000000000
10
-0.4401396827
20
11.7055049119
30
0.0000000000
10
-0.4413666718
20
11.7075275976
30
0.0000000000
10
-0.4425454791
20
11.7095790380
30
0.0000000000
10
-0.4435121282
20
11.7113413754
30
0.0000000000
11
-0.4399542230
21
11.7052016396
31
0.0000000000
11
-0.4405073365
21
11.7061134302
31
0.0000000000
11
-0.4435121282
21
11.7113413754
31
0.0000000000
0
SPLINE
5
341
100
AcDbEntity
8
0
100
AcDbSpline
62
7
6
CONTINUOUS
70
0
71
3
72
8
73
4
74
2
42
0.0000001000
43
0.0000001000
44
0.0000000001
12
-0.0029343717
22
0.0053497727
32
0.0000000000
13
-0.0027184519
23
0.0054624273
33
0.0000000000
40
0.0000000000
40
0.0000000000
40
0.0000000000
40
0.0000000000
40
1.0000000000
40
1.0000000000
40
1.0000000000
40
1.0000000000
10
-0.4435121282
20
11.7113413754
30
0.0000000000
10
-0.4444902521
20
11.7131246330
30
0.0000000000
10
-0.4454325123
20
11.7149275003
30
0.0000000000
10
-0.4463386630
20
11.7167483094
30
0.0000000000
11
-0.4435121282
21
11.7113413754
31
0.0000000000
11
-0.4463386630
21
11.7167483094
31
0.0000000000
0
SPLINE
5
342
100
AcDbEntity
8
0
100
AcDbSpline
62
7
6
CONTINUOUS
70
0
71
3
72
8
73
4
74
2
42
0.0000001000
43
0.0000001000
44
0.0000000001
12
-0.0030923135
22
0.0062136606
32
0.0000000000
13
-0.0028108801
23
0.0063455916
33
0.0000000000
40
0.0000000000
40
0.0000000000
40
0.0000000000
40
0.0000000000
40
1.0000000000
40
1.0000000000
40
1.0000000000
40
1.0000000000
10
-0.4463386630
20
11.7167483094
30
0.0000000000
10
-0.4473694341
20
11.7188195296
30
0.0000000000
10
-0.4483534807
20
11.7209139659
30
0.0000000000
10
-0.4492904407
20
11.7230291631
30
0.0000000000
11
-0.4463386630
21
11.7167483094
31
0.0000000000
11
-0.4492904407
21
11.7230291631
31
0.0000000000
0
SPLINE
5
343
100
AcDbEntity
8
0
100
AcDbSpline
62
7
6
CONTINUOUS
70
0
71
3
72
10
73
6
74
4
42
0.0000001000
43
0.0000001000
44
0.0000000001
12
-0.0168208334
22
0.0379732100
32
0.0000000000
13
-0.0057541133
23
0.0411033111
33
0.0000000000
40
0.0000000000
40
0.0000000000
40
0.0000000000
40
0.0000000000
40
0.0298627835
40
0.5151173128
40
1.0000000000
40
1.0000000000
40
1.0000000000
40
1.0000000000
10
-0.4492904407
20
11.7230291631
30
0.0000000000
10
-0.4494578797
20
11.7234071583
30
0.0000000000
10
-0.4523201754
20
11.7299388141
30
0.0000000000
10
-0.4570069860
20
11.7429936272
30
0.0000000000
10
-0.4598448921
20
11.7561644237
30
0.0000000000
10
-0.4607749154
20
11.7628078517
30
0.0000000000
11
-0.4492904407
21
11.7230291631
31
0.0000000000
11
-0.4497882444
21
11.7241651239
31
0.0000000000
11
-0.4565811654
21
11.7431250376
31
0.0000000000
11
-0.4607749154
21
11.7628078517
31
0.0000000000
0
SPLINE
5
344
100
AcDbEntity
8
0
100
AcDbSpline
62
7
6
CONTINUOUS
70
0
71
3
72
8
73
4
74
2
42
0.0000001000
43
0.0000001000
44
0.0000000001
12
-0.0126183630
22
0.0082820960
32
0.0000000000
13
-0.0126507522
23
0.0082326544
33
0.0000000000
40
0.0000000000
40
0.0000000000
40
0.0000000000
40
0.0000000000
40
1.0000000000
40
1.0000000000
40
1.0000000000
40
1.0000000000
10
-0.3344112004
20
11.6221129582
30
0.0000000000
10
-0.3386173214
20
11.6248736568
30
0.0000000000
10
-0.3428288442
20
11.6276261497
30
0.0000000000
10
-0.3470457616
20
11.6303703678
30
0.0000000000
11
-0.3344112004
21
11.6221129582
31
0.0000000000
11
-0.3470457616
21
11.6303703678
31
0.0000000000
0
SPLINE
5
345
100
AcDbEntity
8
0
100
AcDbSpline
62
7
6
CONTINUOUS
70
0
71
3
72
8
73
4
74
2
42
0.0000001000
43
0.0000001000
44
0.0000000001
12
-0.0099515640
22
0.0064761198
32
0.0000000000
13
-0.0099715822
23
0.0064452966
33
0.0000000000
40
0.0000000000
40
0.0000000000
40
0.0000000000
40
0.0000000000
40
1.0000000000
40
1.0000000000
40
1.0000000000
40
1.0000000000
10
-0.3470457616
20
11.6303703678
30
0.0000000000
10
-0.3503629496
20
11.6325290744
30
0.0000000000
10
-0.3536834758
20
11.6346826606
30
0.0000000000
10
-0.3570073365
20
11.6368310928
30
0.0000000000
11
-0.3470457616
21
11.6303703678
31
0.0000000000
11
-0.3570073365
21
11.6368310928
31
0.0000000000
0
SPLINE
5
346
100
AcDbEntity
8
0
100
AcDbSpline
62
7
6
CONTINUOUS
70
0
71
3
72
9
73
5
74
3
42
0.0000001000
43
0.0000001000
44
0.0000000001
12
-0.0126950964
22
0.0082056849
32
0.0000000000
13
-0.0127275039
23
0.0081553539
33
0.0000000000
40
0.0000000000
40
0.0000000000
40
0.0000000000
40
0.0000000000
40
0.9020462801
40
1.0000000000
40
1.0000000000
40
1.0000000000
40
1.0000000000
10
-0.3570073365
20
11.6368310928
30
0.0000000000
10
-0.3608245247
20
11.6392983953
30
0.0000000000
10
-0.3650610990
20
11.6420260880
30
0.0000000000
10
-0.3693030716
20
11.6447453644
30
0.0000000000
10
-0.3697186404
20
11.6450116468
30
0.0000000000
11
-0.3570073365
21
11.6368310928
31
0.0000000000
11
-0.3684720894
21
11.6442125572
31
0.0000000000
11
-0.3697186404
21
11.6450116468
31
0.0000000000
0
SPLINE
5
347
100
AcDbEntity
8
0
100
AcDbSpline
62
7
6
CONTINUOUS
70
0
71
3
72
8
73
4
74
2
42
0.0000001000
43
0.0000001000
44
0.0000000001
12
-0.0226770114
22
0.0145306617
32
0.0000000000
13
-0.0227796707
23
0.0143690124
33
0.0000000000
40
0.0000000000
40
0.0000000000
40
0.0000000000
40
0.0000000000
40
1.0000000000
40
1.0000000000
40
1.0000000000
40
1.0000000000
10
-0.3697186404
20
11.6450116468
30
0.0000000000
10
-0.3772776442
20
11.6498552008
30
0.0000000000
10
-0.3848537825
20
11.6546720142
30
0.0000000000
10
-0.3924470061
20
11.6594616851
30
0.0000000000
11
-0.3697186404
21
11.6450116468
31
0.0000000000
11
-0.3924470061
21
11.6594616851
31
0.0000000000
0
SPLINE
5
348
100
AcDbEntity
8
0
100
AcDbSpline
62
7
6
CONTINUOUS
70
0
71
3
72
8
73
4
74
2
42
0.0000001000
43
0.0000001000
44
0.0000000001
12
-0.0101405209
22
0.0063964608
32
0.0000000000
13
-0.0101608219
23
0.0063640821
33
0.0000000000
40
0.0000000000
40
0.0000000000
40
0.0000000000
40
0.0000000000
40
1.0000000000
40
1.0000000000
40
1.0000000000
40
1.0000000000
10
-0.3924470061
20
11.6594616851
30
0.0000000000
10
-0.3958271797
20
11.6615938387
30
0.0000000000
10
-0.3992107390
20
11.6637206136
30
0.0000000000
10
-0.4025976797
20
11.6658419743
30
0.0000000000
11
-0.3924470061
21
11.6594616851
31
0.0000000000
11
-0.4025976797
21
11.6658419743
31
0.0000000000
0
ENDSEC
0
SECTION
2
OBJECTS
0
DICTIONARY
5
349
100
AcDbDictionary
3
ACAD_GROUP
350
34A
3
ACAD_MLINESTYLE
350
34B
0
DICTIONARY
5
34A
102
{ACAD_REACTORS
330
349
102
}
100
AcDbDictionary
0
DICTIONARY
5
34B
102
{ACAD_REACTORS
330
349
102
}
100
AcDbDictionary
3
STANDARD
350
34C
0
MLINESTYLE
5
34C
102
{ACAD_REACTORS
330
34B
102
}
100
AcDbMlineStyle
2
STANDARD
70
0
3

62
256
51
90.0
52
90.0
71
2
49
0.5
62
256
6
BYLAYER
49
-0.5
62
256
6
BYLAYER
0
ENDSEC
0
EOF
