0
SECTION
2
HEADER
9
$ACADVER
1
AC1014
9
$HANDSEED
5
       2C7
9
$EXTMAX
10
297.0000000000
20
210.0000000000
9
$EXTMIN
10
0.0000000000
20
0.0000000000
9
$LIMMIN
10
0.0000000000
20
0.0000000000
9
$LIMMAX
10
297.0000000000
20
210.0000000000
9
$VIEWCTR
10
148.5000000000
20
105.0000000000
9
$VIEWSIZE
40
210.0000000000
9
$CLAYER
8
0
9
$LTSCALE
40
16.3350000000
9
$CELTYPE
6
BYLAYER
9
$DIMSCALE
40
1
9
$DIMASZ
40
3.0000000000
9
$DIMEXO
40
1.8562500000
9
$DIMDLI
40
11.2860000000
9
$DIMEXE
40
5.3460000000
9
$DIMCEN
40
2.6730000000
9
$DIMLFAC
40
1.0000000000
9
$DIMTXT
40
3.0000000000
9
$DIMTOL
70
1
9
$DIMLIM
70
0
9
$DIMTFAC
40
1.0000000000
9
$DIMTP
40
0.0100000000
9
$DIMTM
40
0.0100000000
9
$MEASUREMENT
70
1
0
ENDSEC
0
SECTION
2
CLASSES
0
ENDSEC
0
SECTION
2
TABLES
0
TABLE
2
VPORT
5
8
100
AcDbSymbolTable
70
2
0
VPORT
5
1F4
100
AcDbSymbolTableRecord
100
AcDbViewportTableRecord
2
*ACTIVE
70
0
10
0.0
20
0.0
11
1.0
21
1.0
12
148.5000000000
22
105.0000000000
13
0.0
23
0.0
14
1.0
24
1.0
15
0.0
25
0.0
16
0.0
26
0.0
36
1.0
17
0.0
27
0.0
37
0.0
40
210.0000000000
41
1.4142857143
42
50.0
43
0.0
44
0.0
50
0.0
51
0.0
71
0
72
100
73
1
74
1
75
0
76
0
77
0
78
0
0
ENDTAB
0
TABLE
2
LTYPE
5
5
100
AcDbSymbolTable
70
6
0
LTYPE
5
14
100
AcDbSymbolTableRecord
100
AcDbLinetypeTableRecord
2
BYBLOCK
70
0
3

72
65
73
0
40
0.0
0
LTYPE
5
15
100
AcDbSymbolTableRecord
100
AcDbLinetypeTableRecord
2
BYLAYER
70
0
3

72
65
73
0
40
0.0
0
LTYPE
5
16
100
AcDbSymbolTableRecord
100
AcDbLinetypeTableRecord
2
CONTINUOUS
70
64
3
Solid line
72
65
73
0
40
0
0
LTYPE
5
1F5
100
AcDbSymbolTableRecord
100
AcDbLinetypeTableRecord
2
CENTER
70
64
3
____ _ ____ _ ____ _ ____ _ ____ _ ____ _ ____
72
65
73
4
40
0.6
49
0.375
74
0
49
-0.075
74
0
49
0.075
74
0
49
-0.075
74
0
0
LTYPE
5
1F6
100
AcDbSymbolTableRecord
100
AcDbLinetypeTableRecord
2
HIDDEN
70
64
3
- - - - - - - - - - - - - - - - - - - -
72
65
73
2
40
0.2
49
0.1
74
0
49
-0.1
74
0
0
LTYPE
5
1F7
100
AcDbSymbolTableRecord
100
AcDbLinetypeTableRecord
2
PHANTOM
70
64
3
_____ _ _ _____ _ _ _____ _ _ _____
72
65
73
6
40
0.8
49
0.45
74
0
49
-0.05
74
0
49
0.1
74
0
49
-0.05
74
0
49
0.1
74
0
49
-0.05
74
0
0
LTYPE
5
1F8
100
AcDbSymbolTableRecord
100
AcDbLinetypeTableRecord
2
DOT
70
64
3
. . . . . . . . . . . . . . . . . . . .
72
65
73
2
40
0.2
49
0.1
74
0
49
-0.1
74
0
0
LTYPE
5
1F9
100
AcDbSymbolTableRecord
100
AcDbLinetypeTableRecord
2
DASHED
70
64
3
- - - - - - - - - - - - - - - - - - - -
72
65
73
2
40
0.2
49
0.1
74
0
49
-0.1
74
0
0
ENDTAB
0
TABLE
2
LAYER
5
2
100
AcDbSymbolTable
70
36
0
LAYER
5
10
100
AcDbSymbolTableRecord
100
AcDbLayerTableRecord
2
0
70
0
62
7
6
CONTINUOUS
0
LAYER
5
1FA
100
AcDbSymbolTableRecord
100
AcDbLayerTableRecord
2
DEFAULT_1
70
0
62
7
6
CENTER
0
LAYER
5
1FB
100
AcDbSymbolTableRecord
100
AcDbLayerTableRecord
2
DEFAULT_2
70
0
62
8
6
HIDDEN
0
LAYER
5
1FC
100
AcDbSymbolTableRecord
100
AcDbLayerTableRecord
2
DEFAULT_3
70
0
62
7
6
PHANTOM
0
LAYER
5
1FD
100
AcDbSymbolTableRecord
100
AcDbLayerTableRecord
2
ASSI
70
0
62
7
6
CONTINUOUS
0
LAYER
5
1FE
100
AcDbSymbolTableRecord
100
AcDbLayerTableRecord
2
COLOR9
70
0
62
7
6
CONTINUOUS
0
LAYER
5
1FF
100
AcDbSymbolTableRecord
100
AcDbLayerTableRecord
2
COORDINATE
70
0
62
7
6
CONTINUOUS
0
LAYER
5
200
100
AcDbSymbolTableRecord
100
AcDbLayerTableRecord
2
COORD_ORIGINE
70
0
62
7
6
CONTINUOUS
0
LAYER
5
201
100
AcDbSymbolTableRecord
100
AcDbLayerTableRecord
2
CURVE
70
0
62
7
6
CONTINUOUS
0
LAYER
5
202
100
AcDbSymbolTableRecord
100
AcDbLayerTableRecord
2
DRAFT
70
0
62
7
6
CONTINUOUS
0
LAYER
5
203
100
AcDbSymbolTableRecord
100
AcDbLayerTableRecord
2
INTF_YELLOW
70
0
62
7
6
CONTINUOUS
0
LAYER
5
204
100
AcDbSymbolTableRecord
100
AcDbLayerTableRecord
2
NOTE
70
0
62
7
6
CONTINUOUS
0
LAYER
5
205
100
AcDbSymbolTableRecord
100
AcDbLayerTableRecord
2
PIANI
70
0
62
7
6
CONTINUOUS
0
LAYER
5
206
100
AcDbSymbolTableRecord
100
AcDbLayerTableRecord
2
PIANI_ORIGINE
70
0
62
7
6
CONTINUOUS
0
LAYER
5
207
100
AcDbSymbolTableRecord
100
AcDbLayerTableRecord
2
PIANI_RIFERIMENTO
70
0
62
7
6
CONTINUOUS
0
LAYER
5
208
100
AcDbSymbolTableRecord
100
AcDbLayerTableRecord
2
PUNTI
70
0
62
7
6
CONTINUOUS
0
LAYER
5
209
100
AcDbSymbolTableRecord
100
AcDbLayerTableRecord
2
RACCORDO
70
0
62
7
6
CONTINUOUS
0
LAYER
5
20A
100
AcDbSymbolTableRecord
100
AcDbLayerTableRecord
2
SUPERFICI
70
0
62
7
6
CONTINUOUS
0
LAYER
5
20B
100
AcDbSymbolTableRecord
100
AcDbLayerTableRecord
2
TRASH
70
0
62
7
6
CONTINUOUS
0
LAYER
5
20C
100
AcDbSymbolTableRecord
100
AcDbLayerTableRecord
2
XSEC_DATUMS
70
0
62
7
6
CONTINUOUS
0
ENDTAB
0
TABLE
2
STYLE
5
3
100
AcDbSymbolTable
70
1
0
STYLE
5
11
100
AcDbSymbolTableRecord
100
AcDbTextStyleTableRecord
2
STANDARD
70
0
40
0.0
41
0.8000000000
50
0.0
71
0
42
0.2
3
txt
4

0
ENDTAB
0
TABLE
2
VIEW
5
6
100
AcDbSymbolTable
70
0
0
ENDTAB
0
TABLE
2
UCS
5
7
100
AcDbSymbolTable
70
0
0
ENDTAB
0
TABLE
2
APPID
5
9
100
AcDbSymbolTable
70
1
0
APPID
5
20D
100
AcDbSymbolTableRecord
100
AcDbRegAppTableRecord
2
ACAD
70
0
0
ENDTAB
0
TABLE
2
DIMSTYLE
5
A
100
AcDbSymbolTable
70
1
0
DIMSTYLE
105
20E
100
AcDbSymbolTableRecord
100
AcDbDimStyleTableRecord
2
STANDARD
70
0
3

4

5

6

7

40
1.0
41
3.0000000000
42
0.0625
43
0.38
44
0.18
45
0.0
46
0.0
47
0.0100000000
48
0.0100000000
140
3.0000000000
141
0.09
142
0.0
143
25.4
144
1.0000000000
145
0.0
146
1.0000000000
147
0.09
71
1
72
0
73
0
74
0
75
0
76
0
77
1
78
8
170
0
171
2
172
0
173
0
174
0
175
0
176
0
177
0
178
0
270
2
271
2
272
2
273
2
274
2
340
11
275
0
280
0
281
0
282
0
283
1
284
8
285
0
286
0
287
3
288
0
0
ENDTAB
0
TABLE
2
BLOCK_RECORD
5
1
100
AcDbSymbolTable
70
0
0
BLOCK_RECORD
5
1B
100
AcDbSymbolTableRecord
100
AcDbBlockTableRecord
2
*MODEL_SPACE
0
BLOCK_RECORD
5
1C
100
AcDbSymbolTableRecord
100
AcDbBlockTableRecord
2
*PAPER_SPACE
0
ENDTAB
0
ENDSEC
0
SECTION
2
BLOCKS
0
BLOCK
5
1E
100
AcDbEntity
8
0
100
AcDbBlockBegin
2
*MODEL_SPACE
70
0
10
0.0
20
0.0
30
0.0
3
*MODEL_SPACE
1

0
ENDBLK
5
1F
100
AcDbEntity
8
0
100
AcDbBlockEnd
0
BLOCK
5
20
100
AcDbEntity
8
0
100
AcDbBlockBegin
2
*PAPER_SPACE
70
0
10
0.0
20
0.0
30
0.0
3
*PAPER_SPACE
1

0
ENDBLK
5
21
100
AcDbEntity
8
0
100
AcDbBlockEnd
0
ENDSEC
0
SECTION
2
ENTITIES
0
LINE
5
20F
100
AcDbEntity
8
0
100
AcDbLine
62
7
6
CONTINUOUS
10
-6.9803735659
20
23.2200202229
11
-4.2452475060
21
24.7512081459
0
LINE
5
210
100
AcDbEntity
8
0
100
AcDbLine
62
9
6
CONTINUOUS
10
-6.7453854446
20
23.2119712409
11
-4.0138323963
21
24.7411589080
0
LINE
5
211
100
AcDbEntity
8
0
100
AcDbLine
62
7
6
CONTINUOUS
10
-7.1684755391
20
-14.9086829911
11
7.5229005100
21
-22.2543710156
0
LINE
5
212
100
AcDbEntity
8
0
100
AcDbLine
62
7
6
CONTINUOUS
10
7.5223866417
20
-22.2541136420
11
7.5228782125
21
-22.2543598669
0
LINE
5
213
100
AcDbEntity
8
0
100
AcDbLine
62
9
6
CONTINUOUS
10
-7.4172409041
20
-14.4940520945
11
7.2675139867
21
-21.8364295399
0
LINE
5
214
100
AcDbEntity
8
0
100
AcDbLine
62
7
6
CONTINUOUS
10
-2.2409113053
20
-11.8834758428
11
-1.5691598589
21
-12.2193515661
0
LINE
5
215
100
AcDbEntity
8
0
100
AcDbLine
62
7
6
CONTINUOUS
10
-0.5977189467
20
-12.7050720222
11
1.0400641718
21
-13.5239635814
0
LINE
5
216
100
AcDbEntity
8
0
100
AcDbLine
62
7
6
CONTINUOUS
10
-1.9809986751
20
-11.5242772951
11
-1.5996202549
21
-11.7149665052
0
LINE
5
217
100
AcDbEntity
8
0
100
AcDbLine
62
7
6
CONTINUOUS
10
-0.7831524129
20
-12.1232004262
11
0.7192307503
21
-12.8743920078
0
LINE
5
218
100
AcDbEntity
8
0
100
AcDbLine
62
7
6
CONTINUOUS
10
-7.5644674240
20
22.2962479474
11
-7.5644811599
21
22.2961246044
0
LINE
5
219
100
AcDbEntity
8
0
100
AcDbLine
62
9
6
CONTINUOUS
10
10.8356523164
20
17.3164165516
11
7.9571960030
21
15.8606805171
0
LINE
5
21A
100
AcDbEntity
8
0
100
AcDbLine
62
9
6
CONTINUOUS
10
11.1890845531
20
16.7068361140
11
8.3106282397
21
15.2511000796
0
LINE
5
21B
100
AcDbEntity
8
0
100
AcDbLine
62
7
6
CONTINUOUS
10
-7.5635982627
20
-14.3181236919
11
-7.5635466817
21
-14.3185250986
0
LINE
5
21C
100
AcDbEntity
8
0
100
AcDbLine
62
9
6
CONTINUOUS
10
-8.0922388222
20
-4.7648591783
11
6.5564216630
21
-12.0891894209
0
LINE
5
21D
100
AcDbEntity
8
0
100
AcDbLine
62
9
6
CONTINUOUS
10
-8.0922388222
20
11.6896234936
11
6.5564216630
21
4.3652932510
0
LINE
5
21E
100
AcDbEntity
8
0
100
AcDbLine
62
7
6
CONTINUOUS
10
11.1890845531
20
-20.7057580948
11
11.1890845531
21
16.7068361140
0
LINE
5
21F
100
AcDbEntity
8
0
100
AcDbLine
62
9
6
CONTINUOUS
10
-7.4172409041
20
22.1299087334
11
7.2675139867
21
14.7875312880
0
LINE
5
220
100
AcDbEntity
8
0
100
AcDbLine
62
9
6
CONTINUOUS
10
-6.7453854446
20
23.2119712409
11
7.9571960030
21
15.8606805171
0
LINE
5
221
100
AcDbEntity
8
0
100
AcDbLine
62
7
6
CONTINUOUS
10
-4.0138323963
20
24.7411589080
11
10.8356523164
21
17.3164165516
0
LINE
5
222
100
AcDbEntity
8
0
100
AcDbLine
62
9
6
CONTINUOUS
10
8.3106282397
20
-21.9815751086
11
11.1890845531
21
-20.7057580948
0
LINE
5
223
100
AcDbEntity
8
0
100
AcDbLine
62
7
6
CONTINUOUS
10
8.1690563569
20
-22.2573431541
11
11.0512780091
21
-20.9798572307
0
SPLINE
5
224
100
AcDbEntity
8
0
100
AcDbSpline
62
7
6
CONTINUOUS
70
0
71
3
72
11
73
7
74
5
42
0.0000001000
43
0.0000001000
44
0.0000000001
12
0.1093502303
22
-0.0546751039
32
0.0000000000
13
0.1159192292
23
0.0398369691
33
0.0000000000
40
0.0000000000
40
0.0000000000
40
0.0000000000
40
0.0000000000
40
0.2915215906
40
0.5555566070
40
0.8004090745
40
1.0000000000
40
1.0000000000
40
1.0000000000
40
1.0000000000
10
1.0400641909
20
-13.5239635909
30
0.0000000000
10
1.0506901752
20
-13.5292765820
30
0.0000000000
10
1.0716837304
20
-13.5380358677
30
0.0000000000
10
1.1036569521
20
-13.5453505841
30
0.0000000000
10
1.1327711458
20
-13.5459163785
30
0.0000000000
10
1.1506492111
20
-13.5420761917
30
0.0000000000
10
1.1583613532
20
-13.5394258259
30
0.0000000000
11
1.0400641909
21
-13.5239635909
31
0.0000000000
11
1.0730524819
21
-13.5374553445
31
0.0000000000
11
1.1045804718
21
-13.5443833428
31
0.0000000000
11
1.1345140031
21
-13.5446792543
31
0.0000000000
11
1.1583613532
21
-13.5394258259
31
0.0000000000
0
SPLINE
5
225
100
AcDbEntity
8
0
100
AcDbSpline
62
7
6
CONTINUOUS
70
0
71
3
72
22
73
18
74
16
42
0.0000001000
43
0.0000001000
44
0.0000000001
12
-0.1430834948
22
-0.6179163841
32
0.0000000000
13
0.6020803830
23
0.2074723045
33
0.0000000000
40
0.0000000000
40
0.0000000000
40
0.0000000000
40
0.0000000000
40
0.0617826228
40
0.1289764800
40
0.2027730652
40
0.2811635603
40
0.3620401553
40
0.4443233857
40
0.5266809067
40
0.6072838007
40
0.6845777993
40
0.7570589801
40
0.8235499247
40
0.8838804429
40
0.9384747289
40
0.9883172314
40
1.0000000000
40
1.0000000000
40
1.0000000000
40
1.0000000000
10
-1.1466264815
20
-12.9240238158
30
0.0000000000
10
-1.1495731727
20
-12.9367493141
30
0.0000000000
10
-1.1529511409
20
-12.9639883959
30
0.0000000000
10
-1.1513324729
20
-13.0069644073
30
0.0000000000
10
-1.1433283786
20
-13.0527810192
30
0.0000000000
10
-1.1291364756
20
-13.1000743809
30
0.0000000000
10
-1.1092944197
20
-13.1472289452
30
0.0000000000
10
-1.0844383151
20
-13.1928949760
30
0.0000000000
10
-1.0552467780
20
-13.2358484726
30
0.0000000000
10
-1.0225713797
20
-13.2748594197
30
0.0000000000
10
-0.9873622347
20
-13.3086616707
30
0.0000000000
10
-0.9508088932
20
-13.3363310783
30
0.0000000000
10
-0.9138964881
20
-13.3569782749
30
0.0000000000
10
-0.8776169766
20
-13.3700503495
30
0.0000000000
10
-0.8428552373
20
-13.3751058474
30
0.0000000000
10
-0.8181339818
20
-13.3724723433
30
0.0000000000
10
-0.8056329649
20
-13.3686691445
30
0.0000000000
10
-0.8032883096
20
-13.3678611942
30
0.0000000000
11
-1.1466264815
21
-12.9240238158
31
0.0000000000
11
-1.1517980518
21
-12.9628676895
31
0.0000000000
11
-1.1504724368
21
-13.0054658574
31
0.0000000000
11
-1.1426225629
21
-13.0516095934
31
0.0000000000
11
-1.1284678943
21
-13.0992726529
31
0.0000000000
11
-1.1086444508
21
-13.1465848359
31
0.0000000000
11
-1.0837142140
21
-13.1924348501
31
0.0000000000
11
-1.0543314890
21
-13.2356241606
31
0.0000000000
11
-1.0214289255
21
-13.2747528288
31
0.0000000000
11
-0.9859809541
21
-13.3086185737
31
0.0000000000
11
-0.9491844868
21
-13.3361771987
31
0.0000000000
11
-0.9122405664
21
-13.3565169356
31
0.0000000000
11
-0.8761216303
21
-13.3691533511
31
0.0000000000
11
-0.8417979327
21
-13.3737287420
31
0.0000000000
11
-0.8104020334
21
-13.3700266717
31
0.0000000000
11
-0.8032883096
21
-13.3678611942
31
0.0000000000
0
SPLINE
5
226
100
AcDbEntity
8
0
100
AcDbSpline
62
7
6
CONTINUOUS
70
0
71
3
72
10
73
6
74
4
42
0.0000001000
43
0.0000001000
44
0.0000000001
12
-0.1749703783
22
-0.7254670467
32
0.0000000000
13
-0.1683500581
23
-0.7270318611
33
0.0000000000
40
0.0000000000
40
0.0000000000
40
0.0000000000
40
0.0000000000
40
0.3342779662
40
0.6676115277
40
1.0000000000
40
1.0000000000
40
1.0000000000
40
1.0000000000
10
-0.9749510010
20
-12.1977723644
30
0.0000000000
10
-0.9944472484
20
-12.2786082474
30
0.0000000000
10
-1.0331418196
20
-12.4401103232
30
0.0000000000
10
-1.0903682572
20
-12.6821949790
30
0.0000000000
10
-1.1279739420
20
-12.8434714793
30
0.0000000000
10
-1.1466264815
20
-12.9240238158
30
0.0000000000
11
-0.9749510010
21
-12.1977723644
31
0.0000000000
11
-1.0330738251
21
-12.4403679746
31
0.0000000000
11
-1.0902991885
21
-12.6824527053
31
0.0000000000
11
-1.1466264815
21
-12.9240238158
31
0.0000000000
0
SPLINE
5
227
100
AcDbEntity
8
0
100
AcDbSpline
62
7
6
CONTINUOUS
70
0
71
3
72
10
73
6
74
4
42
0.0000001000
43
0.0000001000
44
0.0000000001
12
0.8000870509
22
-3.1134330287
32
0.0000000000
13
0.8870011847
23
-3.0897950436
33
0.0000000000
40
0.0000000000
40
0.0000000000
40
0.0000000000
40
0.0000000000
40
0.3341668162
40
0.6675039123
40
1.0000000000
40
1.0000000000
40
1.0000000000
40
1.0000000000
10
-0.1242100525
20
-9.7725197992
30
0.0000000000
10
-0.0350892050
20
-10.1193218000
30
0.0000000000
10
0.1461400678
20
-10.8112449373
30
0.0000000000
10
0.4272871505
20
-11.8452491148
30
0.0000000000
10
0.6209226090
20
-12.5319437532
30
0.0000000000
10
0.7192307503
20
-12.8743920078
30
0.0000000000
11
-0.1242100525
21
-9.7725197992
31
0.0000000000
11
0.1479787189
21
-10.8116736145
31
0.0000000000
11
0.4291372666
21
-11.8456726827
31
0.0000000000
11
0.7192307503
21
-12.8743920078
31
0.0000000000
0
SPLINE
5
228
100
AcDbEntity
8
0
100
AcDbSpline
62
7
6
CONTINUOUS
70
0
71
3
72
11
73
7
74
5
42
0.0000001000
43
0.0000001000
44
0.0000000001
12
0.1092652547
22
-0.0546326263
32
0.0000000000
13
0.1159934880
23
0.0398304696
33
0.0000000000
40
0.0000000000
40
0.0000000000
40
0.0000000000
40
0.0000000000
40
0.3234157021
40
0.6126556462
40
0.8797233651
40
1.0000000000
40
1.0000000000
40
1.0000000000
40
1.0000000000
10
-1.5691598571
20
-12.2193515670
30
0.0000000000
10
-1.5573804907
20
-12.2252412500
30
0.0000000000
10
-1.5341495036
20
-12.2347379631
30
0.0000000000
10
-1.4987473560
20
-12.2417172458
30
0.0000000000
10
-1.4708988721
20
-12.2404998065
30
0.0000000000
10
-1.4555539557
20
-12.2364163571
30
0.0000000000
10
-1.4509035203
20
-12.2348194655
30
0.0000000000
11
-1.5691598571
21
-12.2193515670
31
0.0000000000
11
-1.5324568615
21
-12.2339757477
31
0.0000000000
11
-1.4977170345
21
-12.2404294790
31
0.0000000000
11
-1.4651413326
21
-12.2386257864
31
0.0000000000
11
-1.4509035203
21
-12.2348194655
31
0.0000000000
0
SPLINE
5
229
100
AcDbEntity
8
0
100
AcDbSpline
62
7
6
CONTINUOUS
70
0
71
3
72
19
73
15
74
13
42
0.0000001000
43
0.0000001000
44
0.0000000001
12
-0.1202580618
22
-0.4986192351
32
0.0000000000
13
0.4587655615
23
-0.2293846547
33
0.0000000000
40
0.0000000000
40
0.0000000000
40
0.0000000000
40
0.0000000000
40
0.0687417773
40
0.1429191321
40
0.2237010210
40
0.3092903777
40
0.3977110039
40
0.4882997194
40
0.5802274172
40
0.6715020175
40
0.7603677286
40
0.8454943810
40
0.9251588460
40
1.0000000000
40
1.0000000000
40
1.0000000000
40
1.0000000000
10
-2.4631853400
20
-11.4537251268
30
0.0000000000
10
-2.4659409243
20
-11.4651504510
30
0.0000000000
10
-2.4694644470
20
-11.4894627938
30
0.0000000000
10
-2.4693147247
20
-11.5278146157
30
0.0000000000
10
-2.4639626360
20
-11.5686924501
30
0.0000000000
10
-2.4535219178
20
-11.6110672144
30
0.0000000000
10
-2.4383380929
20
-11.6537559391
30
0.0000000000
10
-2.4187965142
20
-11.6958255372
30
0.0000000000
10
-2.3953078234
20
-11.7363892745
30
0.0000000000
10
-2.3684392986
20
-11.7744394600
30
0.0000000000
10
-2.3389257274
20
-11.8089646059
30
0.0000000000
10
-2.3075968229
20
-11.8390655142
30
0.0000000000
10
-2.2751284796
20
-11.8641826631
30
0.0000000000
10
-2.2523569125
20
-11.8777529817
30
0.0000000000
10
-2.2409120645
20
-11.8834754525
30
0.0000000000
11
-2.4631853400
21
-11.4537251268
31
0.0000000000
11
-2.4684931585
21
-11.4885820997
31
0.0000000000
11
-2.4685528767
21
-11.5266288280
31
0.0000000000
11
-2.4633350192
21
-11.5677333192
31
0.0000000000
11
-2.4529472315
21
-11.6103867999
31
0.0000000000
11
-2.4378186722
21
-11.6531415095
31
0.0000000000
11
-2.4182786972
21
-11.6952975603
31
0.0000000000
11
-2.3946536989
21
-11.7361031554
31
0.0000000000
11
-2.3676231605
21
-11.7743276176
31
0.0000000000
11
-2.3379537602
21
-11.8089299934
31
0.0000000000
11
-2.3063952360
21
-11.8391045504
31
0.0000000000
11
-2.2739865242
21
-11.8639905576
31
0.0000000000
11
-2.2409120645
21
-11.8834754525
31
0.0000000000
0
SPLINE
5
22A
100
AcDbEntity
8
0
100
AcDbSpline
62
7
6
CONTINUOUS
70
0
71
3
72
10
73
6
74
4
42
0.0000001000
43
0.0000001000
44
0.0000000001
12
-0.7287491497
22
-2.6500354683
32
0.0000000000
13
-0.6443911418
23
-2.6718015201
33
0.0000000000
40
0.0000000000
40
0.0000000000
40
0.0000000000
40
0.0000000000
40
0.3366334250
40
0.6699712094
40
1.0000000000
40
1.0000000000
40
1.0000000000
40
1.0000000000
10
-1.7759296439
20
-8.7927326628
30
0.0000000000
10
-1.8577034180
20
-9.0900961681
30
0.0000000000
10
-2.0174308404
20
-9.6827477106
30
0.0000000000
10
-2.2465744061
20
-10.5697811567
30
0.0000000000
10
-2.3922961303
20
-11.1598013187
30
0.0000000000
10
-2.4631853400
20
-11.4537251268
30
0.0000000000
11
-1.7759296439
21
-8.7927326628
31
0.0000000000
11
-2.0166492885
21
-9.6860758738
31
0.0000000000
11
-2.2457458131
21
-10.5731182807
31
0.0000000000
11
-2.4631853400
21
-11.4537251268
31
0.0000000000
0
SPLINE
5
22B
100
AcDbEntity
8
0
100
AcDbSpline
62
7
6
CONTINUOUS
70
0
71
3
72
17
73
13
74
11
42
0.0000001000
43
0.0000001000
44
0.0000000001
12
1.3997288351
22
0.4809170511
32
0.0000000000
13
0.3679220771
23
-1.4317182933
33
0.0000000000
40
0.0000000000
40
0.0000000000
40
0.0000000000
40
0.0000000000
40
0.0298776201
40
0.0709610482
40
0.1589023694
40
0.2571244677
40
0.3662726701
40
0.4851928224
40
0.6114662805
40
0.7418687798
40
0.8727523762
40
1.0000000000
40
1.0000000000
40
1.0000000000
40
1.0000000000
10
-1.1272413521
20
-8.8666793411
30
0.0000000000
10
-1.1133011633
20
-8.8618897888
30
0.0000000000
10
-1.0794512924
20
-8.8526707973
30
0.0000000000
10
-1.0013906592
20
-8.8432977441
30
0.0000000000
10
-0.8885508388
20
-8.8568035072
30
0.0000000000
10
-0.7518434322
20
-8.9098407869
30
0.0000000000
10
-0.6156069521
20
-8.9968516686
30
0.0000000000
10
-0.4852512428
20
-9.1139967011
30
0.0000000000
10
-0.3660023128
20
-9.2562505096
30
0.0000000000
10
-0.2628001287
20
-9.4175326355
30
0.0000000000
10
-0.1800370717
20
-9.5906751817
30
0.0000000000
10
-0.1398157891
20
-9.7117922156
30
0.0000000000
10
-0.1242100525
20
-9.7725197992
30
0.0000000000
11
-1.1272413521
21
-8.8666793411
31
0.0000000000
11
-1.0846177000
21
-8.8550188950
31
0.0000000000
11
-1.0243401851
21
-8.8476108148
31
0.0000000000
11
-0.8950526743
21
-8.8611844645
31
0.0000000000
11
-0.7590133231
21
-8.9119292470
31
0.0000000000
11
-0.6222805570
21
-8.9975853507
31
0.0000000000
11
-0.4908626549
21
-9.1143424138
31
0.0000000000
11
-0.3704941718
21
-9.2570104057
31
0.0000000000
11
-0.2663953392
21
-9.4192511973
31
0.0000000000
11
-0.1830583338
21
-9.5938601069
31
0.0000000000
11
-0.1242100525
21
-9.7725197992
31
0.0000000000
0
SPLINE
5
22C
100
AcDbEntity
8
0
100
AcDbSpline
62
7
6
CONTINUOUS
70
0
71
3
72
10
73
6
74
4
42
0.0000001000
43
0.0000001000
44
0.0000000001
12
-0.0784440773
22
-0.0531394814
32
0.0000000000
13
-0.0221154570
23
-0.0915619038
33
0.0000000000
40
0.0000000000
40
0.0000000000
40
0.0000000000
40
0.0000000000
40
0.1462766735
40
0.5510401275
40
1.0000000000
40
1.0000000000
40
1.0000000000
40
1.0000000000
10
-0.9254404505
20
-12.1197477292
30
0.0000000000
10
-0.9292652967
20
-12.1223387514
30
0.0000000000
10
-0.9430081694
20
-12.1330728467
30
0.0000000000
10
-0.9623942030
20
-12.1585165111
30
0.0000000000
10
-0.9716413501
20
-12.1840698242
30
0.0000000000
10
-0.9749510010
20
-12.1977723644
30
0.0000000000
11
-0.9254404505
21
-12.1197477292
31
0.0000000000
11
-0.9363458856
21
-12.1282691828
31
0.0000000000
11
-0.9598957648
21
-12.1582532496
31
0.0000000000
11
-0.9749510010
21
-12.1977723644
31
0.0000000000
0
SPLINE
5
22D
100
AcDbEntity
8
0
100
AcDbSpline
62
7
6
CONTINUOUS
70
0
71
3
72
12
73
8
74
6
42
0.0000001000
43
0.0000001000
44
0.0000000001
12
-0.4105174159
22
-0.2786897130
32
0.0000000000
13
-0.1313991541
23
-0.4778220714
33
0.0000000000
40
0.0000000000
40
0.0000000000
40
0.0000000000
40
0.0000000000
40
0.1474168252
40
0.3472509656
40
0.5542441211
40
0.7702975362
40
1.0000000000
40
1.0000000000
40
1.0000000000
40
1.0000000000
10
-1.5074315206
20
-8.3880215061
30
0.0000000000
10
-1.5276039120
20
-8.4017160237
30
0.0000000000
10
-1.5729859018
20
-8.4371241125
30
0.0000000000
10
-1.6361950084
20
-8.5039208278
30
0.0000000000
10
-1.6946598941
20
-8.5890587440
30
0.0000000000
10
-1.7423655176
20
-8.6861326020
30
0.0000000000
10
-1.7658687408
20
-8.7561470271
30
0.0000000000
10
-1.7759296439
20
-8.7927326628
30
0.0000000000
11
-1.5074315206
21
-8.3880215061
31
0.0000000000
11
-1.5650939196
21
-8.4329402911
31
0.0000000000
11
-1.6333973643
21
-8.5046448258
31
0.0000000000
11
-1.6917050913
21
-8.5890388799
31
0.0000000000
11
-1.7392361723
21
-8.6849775527
31
0.0000000000
11
-1.7759296439
21
-8.7927326628
31
0.0000000000
0
SPLINE
5
22E
100
AcDbEntity
8
0
100
AcDbSpline
62
7
6
CONTINUOUS
70
0
71
3
72
8
73
4
74
2
42
0.0000001000
43
0.0000001000
44
0.0000000001
12
0.0158111103
22
0.0578468364
32
0.0000000000
13
0.0219409600
23
0.0560070793
33
0.0000000000
40
0.0000000000
40
0.0000000000
40
0.0000000000
40
0.0000000000
40
1.0000000000
40
1.0000000000
40
1.0000000000
40
1.0000000000
10
-1.3676970809
20
-9.1507765193
30
0.0000000000
10
-1.3624267108
20
-9.1314942405
30
0.0000000000
10
-1.3561937216
20
-9.1124123807
30
0.0000000000
10
-1.3488800683
20
-9.0937433543
30
0.0000000000
11
-1.3676970809
21
-9.1507765193
31
0.0000000000
11
-1.3488800683
21
-9.0937433543
31
0.0000000000
0
SPLINE
5
22F
100
AcDbEntity
8
0
100
AcDbSpline
62
7
6
CONTINUOUS
70
0
71
3
72
8
73
4
74
2
42
0.0000001000
43
0.0000001000
44
0.0000000001
12
0.0026208178
22
0.0066899693
32
0.0000000000
13
0.0027139347
23
0.0066535415
33
0.0000000000
40
0.0000000000
40
0.0000000000
40
0.0000000000
40
0.0000000000
40
1.0000000000
40
1.0000000000
40
1.0000000000
40
1.0000000000
10
-1.3488800683
20
-9.0937433543
30
0.0000000000
10
-1.3480064623
20
-9.0915133645
30
0.0000000000
10
-1.3471174375
20
-9.0892892650
30
0.0000000000
10
-1.3462127926
20
-9.0870714178
30
0.0000000000
11
-1.3488800683
21
-9.0937433543
31
0.0000000000
11
-1.3462127926
21
-9.0870714178
31
0.0000000000
0
SPLINE
5
230
100
AcDbEntity
8
0
100
AcDbSpline
62
7
6
CONTINUOUS
70
0
71
3
72
8
73
4
74
2
42
0.0000001000
43
0.0000001000
44
0.0000000001
12
0.0187743171
22
0.0460275255
32
0.0000000000
13
0.0234591369
23
0.0438727533
33
0.0000000000
40
0.0000000000
40
0.0000000000
40
0.0000000000
40
0.0000000000
40
1.0000000000
40
1.0000000000
40
1.0000000000
40
1.0000000000
10
-1.3462127926
20
-9.0870714178
30
0.0000000000
10
-1.3399546869
20
-9.0717289093
30
0.0000000000
10
-1.3329490788
20
-9.0566856067
30
0.0000000000
10
-1.3251293665
20
-9.0420613556
30
0.0000000000
11
-1.3462127926
21
-9.0870714178
31
0.0000000000
11
-1.3251293665
21
-9.0420613556
31
0.0000000000
0
SPLINE
5
231
100
AcDbEntity
8
0
100
AcDbSpline
62
7
6
CONTINUOUS
70
0
71
3
72
8
73
4
74
2
42
0.0000001000
43
0.0000001000
44
0.0000000001
12
0.0037162547
22
0.0069500564
32
0.0000000000
13
0.0038396286
23
0.0068855306
33
0.0000000000
40
0.0000000000
40
0.0000000000
40
0.0000000000
40
0.0000000000
40
1.0000000000
40
1.0000000000
40
1.0000000000
40
1.0000000000
10
-1.3251293665
20
-9.0420613556
30
0.0000000000
10
-1.3238906149
20
-9.0397446702
30
0.0000000000
10
-1.3226314335
20
-9.0374385008
30
0.0000000000
10
-1.3213515573
20
-9.0351433239
30
0.0000000000
11
-1.3251293665
21
-9.0420613556
31
0.0000000000
11
-1.3213515573
21
-9.0351433239
31
0.0000000000
0
SPLINE
5
232
100
AcDbEntity
8
0
100
AcDbSpline
62
7
6
CONTINUOUS
70
0
71
3
72
9
73
5
74
3
42
0.0000001000
43
0.0000001000
44
0.0000000001
12
0.0254474674
22
0.0456344441
32
0.0000000000
13
0.0309306626
23
0.0421793196
33
0.0000000000
40
0.0000000000
40
0.0000000000
40
0.0000000000
40
0.0000000000
40
0.1767794652
40
1.0000000000
40
1.0000000000
40
1.0000000000
40
1.0000000000
10
-1.3213515573
20
-9.0351433239
30
0.0000000000
10
-1.3198520274
20
-9.0324542464
30
0.0000000000
10
-1.3112088435
20
-9.0173281221
30
0.0000000000
10
-1.3016430214
20
-9.0027093621
30
0.0000000000
10
-1.2931554359
20
-8.9911350681
30
0.0000000000
11
-1.3213515573
21
-9.0351433239
31
0.0000000000
11
-1.3167673192
21
-9.0271221257
31
0.0000000000
11
-1.2931554359
21
-8.9911350681
31
0.0000000000
0
SPLINE
5
233
100
AcDbEntity
8
0
100
AcDbSpline
62
7
6
CONTINUOUS
70
0
71
3
72
8
73
4
74
2
42
0.0000001000
43
0.0000001000
44
0.0000000001
12
0.0026023575
22
0.0035487655
32
0.0000000000
13
0.0026407233
23
0.0035195532
33
0.0000000000
40
0.0000000000
40
0.0000000000
40
0.0000000000
40
0.0000000000
40
1.0000000000
40
1.0000000000
40
1.0000000000
40
1.0000000000
10
-1.2931554359
20
-8.9911350681
30
0.0000000000
10
-1.2922879834
20
-8.9899521462
30
0.0000000000
10
-1.2914141299
20
-8.9887740310
30
0.0000000000
10
-1.2905338888
20
-8.9876008466
30
0.0000000000
11
-1.2931554359
21
-8.9911350681
31
0.0000000000
11
-1.2905338888
21
-8.9876008466
31
0.0000000000
0
SPLINE
5
234
100
AcDbEntity
8
0
100
AcDbSpline
62
7
6
CONTINUOUS
70
0
71
3
72
8
73
4
74
2
42
0.0000001000
43
0.0000001000
44
0.0000000001
12
0.0269190518
22
0.0358776826
32
0.0000000000
13
0.0308593785
23
0.0324087408
33
0.0000000000
40
0.0000000000
40
0.0000000000
40
0.0000000000
40
0.0000000000
40
1.0000000000
40
1.0000000000
40
1.0000000000
40
1.0000000000
10
-1.2905338888
20
-8.9876008466
30
0.0000000000
10
-1.2815608716
20
-8.9756416191
30
0.0000000000
10
-1.2719240880
20
-8.9641947726
30
0.0000000000
10
-1.2616376285
20
-8.9533918589
30
0.0000000000
11
-1.2905338888
21
-8.9876008466
31
0.0000000000
11
-1.2616376285
21
-8.9533918589
31
0.0000000000
0
SPLINE
5
235
100
AcDbEntity
8
0
100
AcDbSpline
62
7
6
CONTINUOUS
70
0
71
3
72
8
73
4
74
2
42
0.0000001000
43
0.0000001000
44
0.0000000001
12
0.0088719808
22
0.0093174180
32
0.0000000000
13
0.0091931685
23
0.0089886958
33
0.0000000000
40
0.0000000000
40
0.0000000000
40
0.0000000000
40
0.0000000000
40
1.0000000000
40
1.0000000000
40
1.0000000000
40
1.0000000000
10
-1.2616376285
20
-8.9533918589
30
0.0000000000
10
-1.2586803016
20
-8.9502860530
30
0.0000000000
10
-1.2556692759
20
-8.9472334710
30
0.0000000000
10
-1.2526048864
20
-8.9442372390
30
0.0000000000
11
-1.2616376285
21
-8.9533918589
31
0.0000000000
11
-1.2526048864
21
-8.9442372390
31
0.0000000000
0
SPLINE
5
236
100
AcDbEntity
8
0
100
AcDbSpline
62
7
6
CONTINUOUS
70
0
71
3
72
9
73
5
74
3
42
0.0000001000
43
0.0000001000
44
0.0000000001
12
0.0269823105
22
0.0263821753
32
0.0000000000
13
0.0296789953
23
0.0232497720
33
0.0000000000
40
0.0000000000
40
0.0000000000
40
0.0000000000
40
0.0000000000
40
0.4557009121
40
1.0000000000
40
1.0000000000
40
1.0000000000
40
1.0000000000
10
-1.2526048864
20
-8.9442372390
30
0.0000000000
10
-1.2485062653
20
-8.9402297786
30
0.0000000000
10
-1.2393026758
20
-8.9316569288
30
0.0000000000
10
-1.2296432436
20
-8.9236055220
30
0.0000000000
10
-1.2242584936
20
-8.9193872454
30
0.0000000000
11
-1.2526048864
21
-8.9442372390
31
0.0000000000
11
-1.2400234352
21
-8.9325247522
31
0.0000000000
11
-1.2242584936
21
-8.9193872454
31
0.0000000000
0
SPLINE
5
237
100
AcDbEntity
8
0
100
AcDbSpline
62
7
6
CONTINUOUS
70
0
71
3
72
8
73
4
74
2
42
0.0000001000
43
0.0000001000
44
0.0000000001
12
0.0091607034
22
0.0071762627
32
0.0000000000
13
0.0094016630
23
0.0068543856
33
0.0000000000
40
0.0000000000
40
0.0000000000
40
0.0000000000
40
0.0000000000
40
1.0000000000
40
1.0000000000
40
1.0000000000
40
1.0000000000
10
-1.2242584936
20
-8.9193872454
30
0.0000000000
10
-1.2212049258
20
-8.9169951579
30
0.0000000000
10
-1.2181104760
20
-8.9146558400
30
0.0000000000
10
-1.2149765883
20
-8.9123710448
30
0.0000000000
11
-1.2242584936
21
-8.9193872454
31
0.0000000000
11
-1.2149765883
21
-8.9123710448
31
0.0000000000
0
SPLINE
5
238
100
AcDbEntity
8
0
100
AcDbSpline
62
7
6
CONTINUOUS
70
0
71
3
72
9
73
5
74
3
42
0.0000001000
43
0.0000001000
44
0.0000000001
12
0.0376178858
22
0.0274257326
32
0.0000000000
13
0.0410979124
23
0.0218806148
33
0.0000000000
40
0.0000000000
40
0.0000000000
40
0.0000000000
40
0.0000000000
40
0.5670410785
40
1.0000000000
40
1.0000000000
40
1.0000000000
40
1.0000000000
10
-1.2149765883
20
-8.9123710448
30
0.0000000000
10
-1.2078662928
20
-8.9071872058
30
0.0000000000
10
-1.1949689772
20
-8.8985402563
30
0.0000000000
10
-1.1814927307
20
-8.8908298686
30
0.0000000000
10
-1.1755614947
20
-8.8876720661
30
0.0000000000
11
-1.2149765883
21
-8.9123710448
31
0.0000000000
11
-1.1930535304
21
-8.8976819926
31
0.0000000000
11
-1.1755614947
21
-8.8876720661
31
0.0000000000
0
SPLINE
5
239
100
AcDbEntity
8
0
100
AcDbSpline
62
7
6
CONTINUOUS
70
0
71
3
72
8
73
4
74
2
42
0.0000001000
43
0.0000001000
44
0.0000000001
12
0.0046151480
22
0.0024571145
32
0.0000000000
13
0.0046535037
23
0.0023840095
33
0.0000000000
40
0.0000000000
40
0.0000000000
40
0.0000000000
40
0.0000000000
40
1.0000000000
40
1.0000000000
40
1.0000000000
40
1.0000000000
10
-1.1755614947
20
-8.8876720661
30
0.0000000000
10
-1.1740231121
20
-8.8868530279
30
0.0000000000
10
-1.1724782326
20
-8.8860461310
30
0.0000000000
10
-1.1709270647
20
-8.8852514612
30
0.0000000000
11
-1.1755614947
21
-8.8876720661
31
0.0000000000
11
-1.1709270647
21
-8.8852514612
31
0.0000000000
0
SPLINE
5
23A
100
AcDbEntity
8
0
100
AcDbSpline
62
7
6
CONTINUOUS
70
0
71
3
72
9
73
5
74
3
42
0.0000001000
43
0.0000001000
44
0.0000000001
12
0.0422847375
22
0.0216626486
32
0.0000000000
13
0.0449283187
23
0.0154364145
33
0.0000000000
40
0.0000000000
40
0.0000000000
40
0.0000000000
40
0.0000000000
40
0.6898043866
40
1.0000000000
40
1.0000000000
40
1.0000000000
40
1.0000000000
10
-1.1709270647
20
-8.8852514612
30
0.0000000000
10
-1.1612043322
20
-8.8802704645
30
0.0000000000
10
-1.1467512646
20
-8.8737459765
30
0.0000000000
10
-1.1318868746
20
-8.8682754438
30
0.0000000000
10
-1.1272413521
20
-8.8666793411
30
0.0000000000
11
-1.1709270647
21
-8.8852514612
31
0.0000000000
11
-1.1410690337
21
-8.8717707272
31
0.0000000000
11
-1.1272413521
21
-8.8666793411
31
0.0000000000
0
SPLINE
5
23B
100
AcDbEntity
8
0
100
AcDbSpline
62
7
6
CONTINUOUS
70
0
71
3
72
8
73
4
74
2
42
0.0000001000
43
0.0000001000
44
0.0000000001
12
0.0636036725
22
0.2615545737
32
0.0000000000
13
0.0644444696
23
0.2613496580
33
0.0000000000
40
0.0000000000
40
0.0000000000
40
0.0000000000
40
0.0000000000
40
1.0000000000
40
1.0000000000
40
1.0000000000
40
1.0000000000
10
-1.9809986751
20
-11.5242772951
30
0.0000000000
10
-1.9597974509
20
-11.4370924372
30
0.0000000000
10
-1.9384554103
20
-11.3499416197
30
0.0000000000
10
-1.9169739205
20
-11.2628250671
30
0.0000000000
11
-1.9809986751
21
-11.5242772951
31
0.0000000000
11
-1.9169739205
21
-11.2628250671
31
0.0000000000
0
SPLINE
5
23C
100
AcDbEntity
8
0
100
AcDbSpline
62
7
6
CONTINUOUS
70
0
71
3
72
10
73
6
74
4
42
0.0000001000
43
0.0000001000
44
0.0000000001
12
0.4565030241
22
1.8513133855
32
0.0000000000
13
0.4970849126
23
1.8408318040
33
0.0000000000
40
0.0000000000
40
0.0000000000
40
0.0000000000
40
0.0000000000
40
0.2836098927
40
0.7121828165
40
1.0000000000
40
1.0000000000
40
1.0000000000
40
1.0000000000
10
-1.9169739205
20
-11.2628250671
30
0.0000000000
10
-1.8738176626
20
-11.0878081369
30
0.0000000000
10
-1.7640331238
20
-10.6486642211
30
0.0000000000
10
-1.6049957045
20
-10.0332879839
30
0.0000000000
10
-1.4876417546
20
-9.5933382483
30
0.0000000000
10
-1.4399518947
20
-9.4167305732
30
0.0000000000
11
-1.9169739205
21
-11.2628250671
31
0.0000000000
11
-1.7858277496
21
-10.7381909814
31
0.0000000000
11
-1.5813858895
21
-9.9469922448
31
0.0000000000
11
-1.4399518947
21
-9.4167305732
31
0.0000000000
0
SPLINE
5
23D
100
AcDbEntity
8
0
100
AcDbSpline
62
7
6
CONTINUOUS
70
0
71
3
72
8
73
4
74
2
42
0.0000001000
43
0.0000001000
44
0.0000000001
12
0.0718463330
22
0.2660652363
32
0.0000000000
13
0.0726619627
23
0.2658426833
33
0.0000000000
40
0.0000000000
40
0.0000000000
40
0.0000000000
40
0.0000000000
40
1.0000000000
40
1.0000000000
40
1.0000000000
40
1.0000000000
10
-1.4399518947
20
-9.4167305732
30
0.0000000000
10
-1.4160031171
20
-9.3280421611
30
0.0000000000
10
-1.3919177351
20
-9.2393907470
30
0.0000000000
10
-1.3676970809
20
-9.1507765193
30
0.0000000000
11
-1.4399518947
21
-9.4167305732
31
0.0000000000
11
-1.3676970809
21
-9.1507765193
31
0.0000000000
0
SPLINE
5
23E
100
AcDbEntity
8
0
100
AcDbSpline
62
7
6
CONTINUOUS
70
0
71
3
72
8
73
4
74
2
42
0.0000001000
43
0.0000001000
44
0.0000000001
12
0.0146153660
22
0.0636036296
32
0.0000000000
13
0.0146668977
23
0.0635917815
33
0.0000000000
40
0.0000000000
40
0.0000000000
40
0.0000000000
40
0.0000000000
40
1.0000000000
40
1.0000000000
40
1.0000000000
40
1.0000000000
10
-0.7317393763
20
-13.2787404497
30
0.0000000000
10
-0.7268675876
20
-13.2575392398
30
0.0000000000
10
-0.7219871998
20
-13.2363400027
30
0.0000000000
10
-0.7170982339
20
-13.2151427422
30
0.0000000000
11
-0.7317393763
21
-13.2787404497
31
0.0000000000
11
-0.7170982339
21
-13.2151427422
31
0.0000000000
0
SPLINE
5
23F
100
AcDbEntity
8
0
100
AcDbSpline
62
7
6
CONTINUOUS
70
0
71
3
72
8
73
4
74
2
42
0.0000001000
43
0.0000001000
44
0.0000000001
12
0.0146778601
22
0.0636393116
32
0.0000000000
13
0.0147293424
23
0.0636274224
33
0.0000000000
40
0.0000000000
40
0.0000000000
40
0.0000000000
40
0.0000000000
40
1.0000000000
40
1.0000000000
40
1.0000000000
40
1.0000000000
10
-0.7170982339
20
-13.2151427422
30
0.0000000000
10
-0.7122056139
20
-13.1939296383
30
0.0000000000
10
-0.7073044029
20
-13.1727185140
30
0.0000000000
10
-0.7023946221
20
-13.1515093732
30
0.0000000000
11
-0.7170982339
21
-13.2151427422
31
0.0000000000
11
-0.7023946221
21
-13.1515093732
31
0.0000000000
0
SPLINE
5
240
100
AcDbEntity
8
0
100
AcDbSpline
62
7
6
CONTINUOUS
70
0
71
3
72
8
73
4
74
2
42
0.0000001000
43
0.0000001000
44
0.0000000001
12
0.0147404266
22
0.0636753036
32
0.0000000000
13
0.0147918597
23
0.0636633730
33
0.0000000000
40
0.0000000000
40
0.0000000000
40
0.0000000000
40
0.0000000000
40
1.0000000000
40
1.0000000000
40
1.0000000000
40
1.0000000000
10
-0.7023946221
20
-13.1515093732
30
0.0000000000
10
-0.6974811466
20
-13.1302842720
30
0.0000000000
10
-0.6925590883
20
-13.1090611573
30
0.0000000000
10
-0.6876284684
20
-13.0878400329
30
0.0000000000
11
-0.7023946221
21
-13.1515093732
31
0.0000000000
11
-0.6876284684
21
-13.0878400329
31
0.0000000000
0
SPLINE
5
241
100
AcDbEntity
8
0
100
AcDbSpline
62
7
6
CONTINUOUS
70
0
71
3
72
8
73
4
74
2
42
0.0000001000
43
0.0000001000
44
0.0000000001
12
0.0148029675
22
0.0637111805
32
0.0000000000
13
0.0148543522
23
0.0636992152
33
0.0000000000
40
0.0000000000
40
0.0000000000
40
0.0000000000
40
0.0000000000
40
1.0000000000
40
1.0000000000
40
1.0000000000
40
1.0000000000
10
-0.6876284684
20
-13.0878400329
30
0.0000000000
10
-0.6826941459
20
-13.0666029728
30
0.0000000000
10
-0.6777512489
20
-13.0453679060
30
0.0000000000
10
-0.6727997982
20
-13.0241348343
30
0.0000000000
11
-0.6876284684
21
-13.0878400329
31
0.0000000000
11
-0.6727997982
21
-13.0241348343
31
0.0000000000
0
SPLINE
5
242
100
AcDbEntity
8
0
100
AcDbSpline
62
7
6
CONTINUOUS
70
0
71
3
72
8
73
4
74
2
42
0.0000001000
43
0.0000001000
44
0.0000000001
12
0.0148655022
22
0.0637470292
32
0.0000000000
13
0.0149168395
23
0.0637350358
33
0.0000000000
40
0.0000000000
40
0.0000000000
40
0.0000000000
40
0.0000000000
40
1.0000000000
40
1.0000000000
40
1.0000000000
40
1.0000000000
10
-0.6727997982
20
-13.0241348343
30
0.0000000000
10
-0.6678446308
20
-13.0028858245
30
0.0000000000
10
-0.6628808968
20
-12.9816388129
30
0.0000000000
10
-0.6579086169
20
-12.9603938009
30
0.0000000000
11
-0.6727997982
21
-13.0241348343
31
0.0000000000
11
-0.6579086169
21
-12.9603938009
31
0.0000000000
0
SPLINE
5
243
100
AcDbEntity
8
0
100
AcDbSpline
62
7
6
CONTINUOUS
70
0
71
3
72
8
73
4
74
2
42
0.0000001000
43
0.0000001000
44
0.0000000001
12
0.0149280350
22
0.0637828706
32
0.0000000000
13
0.0149793245
23
0.0637708490
33
0.0000000000
40
0.0000000000
40
0.0000000000
40
0.0000000000
40
0.0000000000
40
1.0000000000
40
1.0000000000
40
1.0000000000
40
1.0000000000
10
-0.6579086169
20
-12.9603938009
30
0.0000000000
10
-0.6529326053
20
-12.9391328441
30
0.0000000000
10
-0.6479480349
20
-12.9178738900
30
0.0000000000
10
-0.6429549268
20
-12.8966169403
30
0.0000000000
11
-0.6579086169
21
-12.9603938009
31
0.0000000000
11
-0.6429549268
21
-12.8966169403
31
0.0000000000
0
SPLINE
5
244
100
AcDbEntity
8
0
100
AcDbSpline
62
7
6
CONTINUOUS
70
0
71
3
72
8
73
4
74
2
42
0.0000001000
43
0.0000001000
44
0.0000000001
12
0.0149905550
22
0.0638186601
32
0.0000000000
13
0.0150417964
23
0.0638066042
33
0.0000000000
40
0.0000000000
40
0.0000000000
40
0.0000000000
40
0.0000000000
40
1.0000000000
40
1.0000000000
40
1.0000000000
40
1.0000000000
10
-0.6429549268
20
-12.8966169403
30
0.0000000000
10
-0.6379580751
20
-12.8753440536
30
0.0000000000
10
-0.6329526728
20
-12.8540731744
30
0.0000000000
10
-0.6279387407
20
-12.8328043063
30
0.0000000000
11
-0.6429549268
21
-12.8966169403
31
0.0000000000
11
-0.6279387407
21
-12.8328043063
31
0.0000000000
0
SPLINE
5
245
100
AcDbEntity
8
0
100
AcDbSpline
62
7
6
CONTINUOUS
70
0
71
3
72
8
73
4
74
2
42
0.0000001000
43
0.0000001000
44
0.0000000001
12
0.0150530577
22
0.0638543740
32
0.0000000000
13
0.0151042508
23
0.0638422776
33
0.0000000000
40
0.0000000000
40
0.0000000000
40
0.0000000000
40
0.0000000000
40
1.0000000000
40
1.0000000000
40
1.0000000000
40
1.0000000000
10
-0.6279387407
20
-12.8328043063
30
0.0000000000
10
-0.6229210548
20
-12.8115195150
30
0.0000000000
10
-0.6178948263
20
-12.7902367378
30
0.0000000000
10
-0.6128600760
20
-12.7689559786
30
0.0000000000
11
-0.6279387407
21
-12.8328043063
31
0.0000000000
11
-0.6128600760
21
-12.7689559786
31
0.0000000000
0
SPLINE
5
246
100
AcDbEntity
8
0
100
AcDbSpline
62
7
6
CONTINUOUS
70
0
71
3
72
8
73
4
74
2
42
0.0000001000
43
0.0000001000
44
0.0000000001
12
0.0151155467
22
0.0638900230
32
0.0000000000
13
0.0151666911
23
0.0638778861
33
0.0000000000
40
0.0000000000
40
0.0000000000
40
0.0000000000
40
0.0000000000
40
1.0000000000
40
1.0000000000
40
1.0000000000
40
1.0000000000
10
-0.6128600760
20
-12.7689559786
30
0.0000000000
10
-0.6078215605
20
-12.7476593043
30
0.0000000000
10
-0.6027745104
20
-12.7263646509
30
0.0000000000
10
-0.5977189467
20
-12.7050720222
30
0.0000000000
11
-0.6128600760
21
-12.7689559786
31
0.0000000000
11
-0.5977189467
21
-12.7050720222
31
0.0000000000
0
SPLINE
5
247
100
AcDbEntity
8
0
100
AcDbSpline
62
7
6
CONTINUOUS
70
0
71
3
72
8
73
4
74
2
42
0.0000001000
43
0.0000001000
44
0.0000000001
12
-0.0475362292
22
0.1861932000
32
0.0000000000
13
-0.0627216304
23
0.1818385018
33
0.0000000000
40
0.0000000000
40
0.0000000000
40
0.0000000000
40
0.0000000000
40
1.0000000000
40
1.0000000000
40
1.0000000000
40
1.0000000000
10
0.2759175643
20
-9.8186562350
30
0.0000000000
10
0.2600721546
20
-9.7565918350
30
0.0000000000
10
0.2415823362
20
-9.6951465016
30
0.0000000000
10
0.2206751261
20
-9.6345336676
30
0.0000000000
11
0.2759175643
21
-9.8186562350
31
0.0000000000
11
0.2206751261
21
-9.6345336676
31
0.0000000000
0
SPLINE
5
248
100
AcDbEntity
8
0
100
AcDbSpline
62
7
6
CONTINUOUS
70
0
71
3
72
14
73
10
74
8
42
0.0000001000
43
0.0000001000
44
0.0000000001
12
-0.3818441011
22
1.1070177672
32
0.0000000000
13
-0.8574248581
23
0.7983021378
33
0.0000000000
40
0.0000000000
40
0.0000000000
40
0.0000000000
40
0.0000000000
40
0.0999248729
40
0.2353360239
40
0.3718833245
40
0.6426959062
40
0.7755431794
40
0.9051239238
40
1.0000000000
40
1.0000000000
40
1.0000000000
40
1.0000000000
10
0.2206751261
20
-9.6345336676
30
0.0000000000
10
0.2079565517
20
-9.5976607977
30
0.0000000000
10
0.1758957481
20
-9.5115459882
30
0.0000000000
10
0.1178393444
20
-9.3785868904
30
0.0000000000
10
0.0214834197
20
-9.1900102103
30
0.0000000000
10
-0.0917163007
20
-9.0115546629
30
0.0000000000
10
-0.2197966701
20
-8.8475631203
30
0.0000000000
10
-0.3126815430
20
-8.7436259075
30
0.0000000000
10
-0.3751184895
20
-8.6820448645
30
0.0000000000
10
-0.4022348582
20
-8.6567982730
30
0.0000000000
11
0.2206751261
21
-9.6345336676
31
0.0000000000
11
0.1798866927
21
-9.5248873584
31
0.0000000000
11
0.1165731023
21
-9.3796737874
31
0.0000000000
11
0.0438532788
21
-9.2374404982
31
0.0000000000
11
-0.1261943006
21
-8.9701223676
31
0.0000000000
11
-0.2219106605
21
-8.8476779064
31
0.0000000000
11
-0.3230655421
21
-8.7347676682
31
0.0000000000
11
-0.4022348582
21
-8.6567982730
31
0.0000000000
0
SPLINE
5
249
100
AcDbEntity
8
0
100
AcDbSpline
62
7
6
CONTINUOUS
70
0
71
3
72
8
73
4
74
2
42
0.0000001000
43
0.0000001000
44
0.0000000001
12
-0.1305502725
22
0.1215483324
32
0.0000000000
13
-0.1416823294
23
0.1079573895
33
0.0000000000
40
0.0000000000
40
0.0000000000
40
0.0000000000
40
0.0000000000
40
1.0000000000
40
1.0000000000
40
1.0000000000
40
1.0000000000
10
-0.4022348582
20
-8.6567982730
30
0.0000000000
10
-0.4457516157
20
-8.6162821622
30
0.0000000000
10
-0.4911349899
20
-8.5777831694
30
0.0000000000
10
-0.5383624330
20
-8.5417973729
30
0.0000000000
11
-0.4022348582
21
-8.6567982730
31
0.0000000000
11
-0.5383624330
21
-8.5417973729
31
0.0000000000
0
SPLINE
5
24A
100
AcDbEntity
8
0
100
AcDbSpline
62
7
6
CONTINUOUS
70
0
71
3
72
8
73
4
74
2
42
0.0000001000
43
0.0000001000
44
0.0000000001
12
-0.1107836202
22
0.3832608180
32
0.0000000000
13
-0.1094354118
23
0.3836497399
33
0.0000000000
40
0.0000000000
40
0.0000000000
40
0.0000000000
40
0.0000000000
40
1.0000000000
40
1.0000000000
40
1.0000000000
40
1.0000000000
10
1.2219705656
20
-13.2963042237
30
0.0000000000
10
1.1850426922
20
-13.1685506177
30
0.0000000000
10
1.1483397065
20
-13.0407316284
30
0.0000000000
10
1.1118612359
20
-12.9128483818
30
0.0000000000
11
1.2219705656
21
-13.2963042237
31
0.0000000000
11
1.1118612359
21
-12.9128483818
31
0.0000000000
0
SPLINE
5
24B
100
AcDbEntity
8
0
100
AcDbSpline
62
7
6
CONTINUOUS
70
0
71
3
72
10
73
6
74
4
42
0.0000001000
43
0.0000001000
44
0.0000000001
12
-0.7689568094
22
2.6957460572
32
0.0000000000
13
-0.7028582531
23
2.7137300375
33
0.0000000000
40
0.0000000000
40
0.0000000000
40
0.0000000000
40
0.0000000000
40
0.2850424639
40
0.7136189226
40
1.0000000000
40
1.0000000000
40
1.0000000000
40
1.0000000000
10
1.1118612359
20
-12.9128483818
30
0.0000000000
10
1.0387994547
20
-12.6567143490
30
0.0000000000
10
0.8581402199
20
-12.0148238792
30
0.0000000000
10
0.6128651062
20
-11.1131529945
30
0.0000000000
10
0.4431186830
20
-10.4669976540
30
0.0000000000
10
0.3760235818
20
-10.2079440100
30
0.0000000000
11
1.1118612359
21
-12.9128483818
31
0.0000000000
11
0.8953748293
21
-12.1436820240
31
0.0000000000
11
0.5800057206
21
-10.9844009395
31
0.0000000000
11
0.3760235818
21
-10.2079440100
31
0.0000000000
0
SPLINE
5
24C
100
AcDbEntity
8
0
100
AcDbSpline
62
7
6
CONTINUOUS
70
0
71
3
72
8
73
4
74
2
42
0.0000001000
43
0.0000001000
44
0.0000000001
12
-0.1007809882
22
0.3891145813
32
0.0000000000
13
-0.0994314114
23
0.3894598706
33
0.0000000000
40
0.0000000000
40
0.0000000000
40
0.0000000000
40
0.0000000000
40
1.0000000000
40
1.0000000000
40
1.0000000000
40
1.0000000000
10
0.3760235818
20
-10.2079440100
30
0.0000000000
10
0.3424299191
20
-10.0782391496
30
0.0000000000
10
0.3090613681
20
-9.9484761919
30
0.0000000000
10
0.2759175643
20
-9.8186562350
30
0.0000000000
11
0.3760235818
21
-10.2079440100
31
0.0000000000
11
0.2759175643
21
-9.8186562350
31
0.0000000000
0
SPLINE
5
24D
100
AcDbEntity
8
0
100
AcDbSpline
62
7
6
CONTINUOUS
70
0
71
3
72
9
73
5
74
3
42
0.0000001000
43
0.0000001000
44
0.0000000001
12
-0.1326846264
22
0.0312937798
32
0.0000000000
13
-0.1361951519
23
0.0084970844
33
0.0000000000
40
0.0000000000
40
0.0000000000
40
0.0000000000
40
0.0000000000
40
0.8088806860
40
1.0000000000
40
1.0000000000
40
1.0000000000
40
1.0000000000
10
-0.9974547262
20
-8.3122512264
30
0.0000000000
10
-1.0332300700
20
-8.3038135817
30
0.0000000000
10
-1.0781622672
20
-8.2960309731
30
0.0000000000
10
-1.1235111203
20
-8.2923810779
30
0.0000000000
10
-1.1321876283
20
-8.2918397589
30
0.0000000000
11
-0.9974547262
21
-8.3122512264
31
0.0000000000
11
-1.1061922560
21
-8.2939271628
31
0.0000000000
11
-1.1321876283
21
-8.2918397589
31
0.0000000000
0
SPLINE
5
24E
100
AcDbEntity
8
0
100
AcDbSpline
62
7
6
CONTINUOUS
70
0
71
3
72
11
73
7
74
5
42
0.0000001000
43
0.0000001000
44
0.0000000001
12
-0.3702902807
22
0.0231020542
32
0.0000000000
13
-0.3157044778
23
-0.1950661113
33
0.0000000000
40
0.0000000000
40
0.0000000000
40
0.0000000000
40
0.0000000000
40
0.2097986346
40
0.4792046492
40
0.7414398567
40
1.0000000000
40
1.0000000000
40
1.0000000000
40
1.0000000000
10
-1.1321876283
20
-8.2918397589
30
0.0000000000
10
-1.1580830934
20
-8.2902241658
30
0.0000000000
10
-1.2174239681
20
-8.2897129295
30
0.0000000000
10
-1.3086840876
20
-8.3012923517
30
0.0000000000
10
-1.4026760276
20
-8.3293796564
30
0.0000000000
10
-1.4604735412
20
-8.3584119063
30
0.0000000000
10
-1.4876830728
20
-8.3752240136
30
0.0000000000
11
-1.1321876283
21
-8.2918397589
31
0.0000000000
11
-1.2099740522
21
-8.2913089944
31
0.0000000000
11
-1.3090017635
21
-8.3041247748
31
0.0000000000
11
-1.4020611132
21
-8.3321777477
31
0.0000000000
11
-1.4876830728
21
-8.3752240136
31
0.0000000000
0
SPLINE
5
24F
100
AcDbEntity
8
0
100
AcDbSpline
62
7
6
CONTINUOUS
70
0
71
3
72
8
73
4
74
2
42
0.0000001000
43
0.0000001000
44
0.0000000001
12
-0.0200210116
22
-0.0123704957
32
0.0000000000
13
-0.0194713870
23
-0.0132186237
33
0.0000000000
40
0.0000000000
40
0.0000000000
40
0.0000000000
40
0.0000000000
40
1.0000000000
40
1.0000000000
40
1.0000000000
40
1.0000000000
10
-1.4876830728
20
-8.3752240136
30
0.0000000000
10
-1.4943567434
20
-8.3793475121
30
0.0000000000
10
-1.5009410583
20
-8.3836152982
30
0.0000000000
10
-1.5074315206
20
-8.3880215061
30
0.0000000000
11
-1.4876830728
21
-8.3752240136
31
0.0000000000
11
-1.5074315206
21
-8.3880215061
31
0.0000000000
0
SPLINE
5
250
100
AcDbEntity
8
0
100
AcDbSpline
62
7
6
CONTINUOUS
70
0
71
3
72
9
73
5
74
3
42
0.0000001000
43
0.0000001000
44
0.0000000001
12
-0.1356230510
22
0.1033404137
32
0.0000000000
13
-0.1462525948
23
0.0877276506
33
0.0000000000
40
0.0000000000
40
0.0000000000
40
0.0000000000
40
0.0000000000
40
0.6572602719
40
1.0000000000
40
1.0000000000
40
1.0000000000
40
1.0000000000
10
-0.5383624330
20
-8.5417973729
30
0.0000000000
10
-0.5680756475
20
-8.5191568568
30
0.0000000000
10
-0.6144519771
20
-8.4862048749
30
0.0000000000
10
-0.6625964427
20
-8.4559487921
30
0.0000000000
10
-0.6793053009
20
-8.4459262083
30
0.0000000000
11
-0.5383624330
21
-8.5417973729
31
0.0000000000
11
-0.6298021044
21
-8.4770054039
31
0.0000000000
11
-0.6793053009
21
-8.4459262083
31
0.0000000000
0
SPLINE
5
251
100
AcDbEntity
8
0
100
AcDbSpline
62
7
6
CONTINUOUS
70
0
71
3
72
8
73
4
74
2
42
0.0000001000
43
0.0000001000
44
0.0000000001
12
-0.0119982291
22
0.0071969762
32
0.0000000000
13
-0.0120696797
23
0.0070763006
33
0.0000000000
40
0.0000000000
40
0.0000000000
40
0.0000000000
40
0.0000000000
40
1.0000000000
40
1.0000000000
40
1.0000000000
40
1.0000000000
10
-0.6793053009
20
-8.4459262083
30
0.0000000000
10
-0.6833047106
20
-8.4435272163
30
0.0000000000
10
-0.6873160278
20
-8.4411481264
30
0.0000000000
10
-0.6913392544
20
-8.4387893595
30
0.0000000000
11
-0.6793053009
21
-8.4459262083
31
0.0000000000
11
-0.6913392544
21
-8.4387893595
31
0.0000000000
0
SPLINE
5
252
100
AcDbEntity
8
0
100
AcDbSpline
62
7
6
CONTINUOUS
70
0
71
3
72
8
73
4
74
2
42
0.0000001000
43
0.0000001000
44
0.0000000001
12
-0.0056135404
22
0.0032911478
32
0.0000000000
13
-0.0056289979
23
0.0032646440
33
0.0000000000
40
0.0000000000
40
0.0000000000
40
0.0000000000
40
0.0000000000
40
1.0000000000
40
1.0000000000
40
1.0000000000
40
1.0000000000
10
-0.6913392544
20
-8.4387893595
30
0.0000000000
10
-0.6932104345
20
-8.4376923102
30
0.0000000000
10
-0.6950841908
20
-8.4365996571
30
0.0000000000
10
-0.6969605234
20
-8.4355114424
30
0.0000000000
11
-0.6913392544
21
-8.4387893595
31
0.0000000000
11
-0.6969605234
21
-8.4355114424
31
0.0000000000
0
SPLINE
5
253
100
AcDbEntity
8
0
100
AcDbSpline
62
7
6
CONTINUOUS
70
0
71
3
72
10
73
6
74
4
42
0.0000001000
43
0.0000001000
44
0.0000000001
12
-0.1436806588
22
0.0833303213
32
0.0000000000
13
-0.1535256666
23
0.0634268826
33
0.0000000000
40
0.0000000000
40
0.0000000000
40
0.0000000000
40
0.0000000000
40
0.1739779396
40
0.7967390020
40
1.0000000000
40
1.0000000000
40
1.0000000000
40
1.0000000000
10
-0.6969605234
20
-8.4355114424
30
0.0000000000
10
-0.7052929451
20
-8.4306788965
30
0.0000000000
10
-0.7436842797
20
-8.4089489040
30
0.0000000000
10
-0.7932076591
20
-8.3840768512
30
0.0000000000
10
-0.8352154545
20
-8.3659740675
30
0.0000000000
10
-0.8456173813
20
-8.3616766636
30
0.0000000000
11
-0.6969605234
21
-8.4355114424
31
0.0000000000
11
-0.7221102257
21
-8.4212801024
31
0.0000000000
11
-0.8146081905
21
-8.3750311197
31
0.0000000000
11
-0.8456173813
21
-8.3616766636
31
0.0000000000
0
SPLINE
5
254
100
AcDbEntity
8
0
100
AcDbSpline
62
7
6
CONTINUOUS
70
0
71
3
72
9
73
5
74
3
42
0.0000001000
43
0.0000001000
44
0.0000000001
12
-0.1477262713
22
0.0610309472
32
0.0000000000
13
-0.1555204547
23
0.0366796289
33
0.0000000000
40
0.0000000000
40
0.0000000000
40
0.0000000000
40
0.0000000000
40
0.4080694055
40
1.0000000000
40
1.0000000000
40
1.0000000000
40
1.0000000000
10
-0.8456173813
20
-8.3616766636
30
0.0000000000
10
-0.8657115718
20
-8.3533750429
30
0.0000000000
10
-0.9155478943
20
-8.3344688502
30
0.0000000000
10
-0.9667689544
20
-8.3194884912
30
0.0000000000
10
-0.9974547262
20
-8.3122512263
30
0.0000000000
11
-0.8456173813
21
-8.3616766636
31
0.0000000000
11
-0.9066155162
21
-8.3385986976
31
0.0000000000
11
-0.9974547262
21
-8.3122512263
31
0.0000000000
0
SPLINE
5
255
100
AcDbEntity
8
0
100
AcDbSpline
62
7
6
CONTINUOUS
70
0
71
3
72
8
73
4
74
2
42
0.0000001000
43
0.0000001000
44
0.0000000001
12
0.0175233734
22
0.0060384207
32
0.0000000000
13
0.0160883339
23
0.0091842796
33
0.0000000000
40
0.0000000000
40
0.0000000000
40
0.0000000000
40
0.0000000000
40
1.0000000000
40
1.0000000000
40
1.0000000000
40
1.0000000000
10
-0.8032883096
20
-13.3678611942
30
0.0000000000
10
-0.7974471852
20
-13.3658483873
30
0.0000000000
10
-0.7917867206
20
-13.3633032182
30
0.0000000000
10
-0.7864239426
20
-13.3602417916
30
0.0000000000
11
-0.8032883096
21
-13.3678611942
31
0.0000000000
11
-0.7864239426
21
-13.3602417916
31
0.0000000000
0
SPLINE
5
256
100
AcDbEntity
8
0
100
AcDbSpline
62
7
6
CONTINUOUS
70
0
71
3
72
9
73
5
74
3
42
0.0000001000
43
0.0000001000
44
0.0000000001
12
0.0047475289
22
0.0027102019
32
0.0000000000
13
0.0045832565
23
0.0029782799
33
0.0000000000
40
0.0000000000
40
0.0000000000
40
0.0000000000
40
0.0000000000
40
0.7538381725
40
1.0000000000
40
1.0000000000
40
1.0000000000
40
1.0000000000
10
-0.7864239426
20
-13.3602417916
30
0.0000000000
10
-0.7852309864
20
-13.3595607737
30
0.0000000000
10
-0.7836680179
20
-13.3586234842
30
0.0000000000
10
-0.7821332386
20
-13.3576415515
30
0.0000000000
10
-0.7817571643
20
-13.3573971719
30
0.0000000000
11
-0.7864239426
21
-13.3602417916
31
0.0000000000
11
-0.7828905549
21
-13.3581222750
31
0.0000000000
11
-0.7817571643
21
-13.3573971719
31
0.0000000000
0
SPLINE
5
257
100
AcDbEntity
8
0
100
AcDbSpline
62
7
6
CONTINUOUS
70
0
71
3
72
8
73
4
74
2
42
0.0000001000
43
0.0000001000
44
0.0000000001
12
0.0130054221
22
0.0084511496
32
0.0000000000
13
0.0115266528
23
0.0103926131
33
0.0000000000
40
0.0000000000
40
0.0000000000
40
0.0000000000
40
0.0000000000
40
1.0000000000
40
1.0000000000
40
1.0000000000
40
1.0000000000
10
-0.7817571643
20
-13.3573971719
30
0.0000000000
10
-0.7774220237
20
-13.3545801220
30
0.0000000000
10
-0.7733167409
20
-13.3514089138
30
0.0000000000
10
-0.7694745233
20
-13.3479447094
30
0.0000000000
11
-0.7817571643
21
-13.3573971719
31
0.0000000000
11
-0.7694745233
21
-13.3479447094
31
0.0000000000
0
SPLINE
5
258
100
AcDbEntity
8
0
100
AcDbSpline
62
7
6
CONTINUOUS
70
0
71
3
72
8
73
4
74
2
42
0.0000001000
43
0.0000001000
44
0.0000000001
12
0.0053466551
22
0.0048206291
32
0.0000000000
13
0.0049971091
23
0.0051805599
33
0.0000000000
40
0.0000000000
40
0.0000000000
40
0.0000000000
40
0.0000000000
40
1.0000000000
40
1.0000000000
40
1.0000000000
40
1.0000000000
10
-0.7694745233
20
-13.3479447094
30
0.0000000000
10
-0.7676923050
20
-13.3463378330
30
0.0000000000
10
-0.7659666872
20
-13.3446679162
30
0.0000000000
10
-0.7643009842
20
-13.3429410629
30
0.0000000000
11
-0.7694745233
21
-13.3479447094
31
0.0000000000
11
-0.7643009842
21
-13.3429410629
31
0.0000000000
0
SPLINE
5
259
100
AcDbEntity
8
0
100
AcDbSpline
62
7
6
CONTINUOUS
70
0
71
3
72
9
73
5
74
3
42
0.0000001000
43
0.0000001000
44
0.0000000001
12
0.0078395582
22
0.0081273593
32
0.0000000000
13
0.0069276187
23
0.0088981897
33
0.0000000000
40
0.0000000000
40
0.0000000000
40
0.0000000000
40
0.0000000000
40
0.5417350020
40
1.0000000000
40
1.0000000000
40
1.0000000000
40
1.0000000000
10
-0.7643009842
20
-13.3429410629
30
0.0000000000
10
-0.7628853298
20
-13.3414734379
30
0.0000000000
10
-0.7603520289
20
-13.3386884039
30
0.0000000000
10
-0.7579731219
20
-13.3357760066
30
0.0000000000
10
-0.7569148935
20
-13.3344167637
30
0.0000000000
11
-0.7643009842
21
-13.3429410629
31
0.0000000000
11
-0.7601858853
21
-13.3384185589
31
0.0000000000
11
-0.7569148935
21
-13.3344167637
31
0.0000000000
0
SPLINE
5
25A
100
AcDbEntity
8
0
100
AcDbSpline
62
7
6
CONTINUOUS
70
0
71
3
72
8
73
4
74
2
42
0.0000001000
43
0.0000001000
44
0.0000000001
12
0.0075772782
22
0.0097326457
32
0.0000000000
13
0.0065051848
23
0.0104853884
33
0.0000000000
40
0.0000000000
40
0.0000000000
40
0.0000000000
40
0.0000000000
40
1.0000000000
40
1.0000000000
40
1.0000000000
40
1.0000000000
10
-0.7569148935
20
-13.3344167637
30
0.0000000000
10
-0.7543891341
20
-13.3311725484
30
0.0000000000
10
-0.7520453361
20
-13.3277882325
30
0.0000000000
10
-0.7498769412
20
-13.3242931030
30
0.0000000000
11
-0.7569148935
21
-13.3344167637
31
0.0000000000
11
-0.7498769412
21
-13.3242931030
31
0.0000000000
0
SPLINE
5
25B
100
AcDbEntity
8
0
100
AcDbSpline
62
7
6
CONTINUOUS
70
0
71
3
72
9
73
5
74
3
42
0.0000001000
43
0.0000001000
44
0.0000000001
12
0.0259806130
22
0.0418768763
32
0.0000000000
13
0.0110045926
23
0.0478893072
33
0.0000000000
40
0.0000000000
40
0.0000000000
40
0.0000000000
40
0.0000000000
40
0.2865328893
40
1.0000000000
40
1.0000000000
40
1.0000000000
40
1.0000000000
10
-0.7498769412
20
-13.3242931030
30
0.0000000000
10
-0.7473955078
20
-13.3202934022
30
0.0000000000
10
-0.7395369651
20
-13.3058279816
30
0.0000000000
10
-0.7343565084
20
-13.2901295997
30
0.0000000000
10
-0.7317393701
20
-13.2787404511
30
0.0000000000
11
-0.7498769412
21
-13.3242931030
31
0.0000000000
11
-0.7431119197
21
-13.3119025372
31
0.0000000000
11
-0.7317393701
21
-13.2787404511
31
0.0000000000
0
SPLINE
5
25C
100
AcDbEntity
8
0
100
AcDbSpline
62
7
6
CONTINUOUS
70
0
71
3
72
15
73
11
74
9
42
0.0000001000
43
0.0000001000
44
0.0000000001
12
0.2611207723
22
0.0897371404
32
0.0000000000
13
-0.0764739900
23
0.2645670787
33
0.0000000000
40
0.0000000000
40
0.0000000000
40
0.0000000000
40
0.0000000000
40
0.0128733468
40
0.1105430806
40
0.2100085170
40
0.4308890491
40
0.5578693181
40
0.6959625994
40
0.8429354509
40
1.0000000000
40
1.0000000000
40
1.0000000000
40
1.0000000000
10
1.1583613532
20
-13.5394258259
30
0.0000000000
10
1.1594818526
20
-13.5390407534
30
0.0000000000
10
1.1690461713
20
-13.5355663297
30
0.0000000000
10
1.1861777348
20
-13.5261937135
30
0.0000000000
10
1.2138842793
20
-13.4990091360
30
0.0000000000
10
1.2306874119
20
-13.4598612480
30
0.0000000000
10
1.2373180190
20
-13.4157084310
30
0.0000000000
10
1.2374195324
20
-13.3777311139
30
0.0000000000
10
1.2324239434
20
-13.3373741802
30
0.0000000000
10
1.2259743576
20
-13.3101555911
30
0.0000000000
10
1.2219705733
20
-13.2963042215
30
0.0000000000
11
1.1583613532
21
-13.5394258259
31
0.0000000000
11
1.1617020728
21
-13.5382117342
31
0.0000000000
11
1.1852911502
21
-13.5252865662
31
0.0000000000
11
1.2049498542
21
-13.5062107076
31
0.0000000000
11
1.2308599470
21
-13.4511747171
31
0.0000000000
11
1.2363514000
21
-13.4166384780
31
0.0000000000
11
1.2366450143
21
-13.3786090116
31
0.0000000000
11
1.2318335893
21
-13.3384199836
31
0.0000000000
11
1.2219705733
21
-13.2963042215
31
0.0000000000
0
SPLINE
5
25D
100
AcDbEntity
8
0
100
AcDbSpline
62
7
6
CONTINUOUS
70
0
71
3
72
8
73
4
74
2
42
0.0000001000
43
0.0000001000
44
0.0000000001
12
0.0042932091
22
0.0014742253
32
0.0000000000
13
0.0042232471
23
0.0016613172
33
0.0000000000
40
0.0000000000
40
0.0000000000
40
0.0000000000
40
0.0000000000
40
1.0000000000
40
1.0000000000
40
1.0000000000
40
1.0000000000
10
-1.4509035203
20
-12.2348194655
30
0.0000000000
10
-1.4494724506
20
-12.2343280571
30
0.0000000000
10
-1.4480522148
20
-12.2338055015
30
0.0000000000
10
-1.4466444658
20
-12.2332517291
30
0.0000000000
11
-1.4509035203
21
-12.2348194655
31
0.0000000000
11
-1.4466444658
21
-12.2332517291
31
0.0000000000
0
SPLINE
5
25E
100
AcDbEntity
8
0
100
AcDbSpline
62
7
6
CONTINUOUS
70
0
71
3
72
21
73
17
74
15
42
0.0000001000
43
0.0000001000
44
0.0000000001
12
0.5871402510
22
0.2309659316
32
0.0000000000
13
-0.5622442206
23
0.2811250232
33
0.0000000000
40
0.0000000000
40
0.0000000000
40
0.0000000000
40
0.0000000000
40
0.0181595271
40
0.0661144439
40
0.1164716696
40
0.1716815733
40
0.2328728352
40
0.3004109883
40
0.3735738564
40
0.5320092934
40
0.6151981124
40
0.6985781800
40
0.7803127291
40
0.8587135006
40
0.9317009586
40
1.0000000000
40
1.0000000000
40
1.0000000000
40
1.0000000000
10
-1.4466444658
20
-12.2332517291
30
0.0000000000
10
-1.4430904027
20
-12.2318536517
30
0.0000000000
10
-1.4304406798
20
-12.2260391872
30
0.0000000000
10
-1.4106355727
20
-12.2111236679
30
0.0000000000
10
-1.3914661099
20
-12.1847849661
30
0.0000000000
10
-1.3785003071
20
-12.1520140268
30
0.0000000000
10
-1.3718746539
20
-12.1138232981
30
0.0000000000
10
-1.3717517951
20
-12.0713534905
30
0.0000000000
10
-1.3801858047
20
-12.0090930279
30
0.0000000000
10
-1.4010714494
20
-11.9458429899
30
0.0000000000
10
-1.4317060696
20
-11.8849542849
30
0.0000000000
10
-1.4596657010
20
-11.8409598877
30
0.0000000000
10
-1.4913002421
20
-11.8008129107
30
0.0000000000
10
-1.5255312914
20
-11.7658178532
30
0.0000000000
10
-1.5614168929
20
-11.7368190396
30
0.0000000000
10
-1.5868190502
20
-11.7213671739
30
0.0000000000
10
-1.5996192973
20
-11.7149669840
30
0.0000000000
11
-1.4466444658
21
-12.2332517291
31
0.0000000000
11
-1.4362476359
21
-12.2284594644
31
0.0000000000
11
-1.4121008437
21
-12.2104137396
31
0.0000000000
11
-1.3932037375
21
-12.1850180690
31
0.0000000000
11
-1.3800581609
21
-12.1528985552
31
0.0000000000
11
-1.3731333177
21
-12.1150616176
31
0.0000000000
11
-1.3726889875
21
-12.0726088234
31
0.0000000000
11
-1.3786634167
21
-12.0270076593
31
0.0000000000
11
-1.4089635201
21
-11.9321347426
31
0.0000000000
11
-1.4324501562
21
-11.8854125359
31
0.0000000000
11
-1.4605796306
21
-11.8411868956
31
0.0000000000
11
-1.4924395805
21
-11.8008786296
31
0.0000000000
11
-1.5269965707
21
-11.7657406980
31
0.0000000000
11
-1.5628027275
21
-11.7370536111
31
0.0000000000
11
-1.5996192973
21
-11.7149669840
31
0.0000000000
0
SPLINE
5
25F
100
AcDbEntity
8
0
100
AcDbSpline
62
7
6
CONTINUOUS
70
0
71
3
72
8
73
4
74
2
42
0.0000001000
43
0.0000001000
44
0.0000000001
12
-0.0201002903
22
0.0100501385
32
0.0000000000
13
-0.0210086370
23
0.0081156285
33
0.0000000000
40
0.0000000000
40
0.0000000000
40
0.0000000000
40
0.0000000000
40
1.0000000000
40
1.0000000000
40
1.0000000000
40
1.0000000000
10
-0.7831524748
20
-12.1232003952
30
0.0000000000
10
-0.7898525716
20
-12.1198503491
30
0.0000000000
10
-0.7967131216
20
-12.1167827162
30
0.0000000000
10
-0.8037160006
20
-12.1140775066
30
0.0000000000
11
-0.7831524748
21
-12.1232003952
31
0.0000000000
11
-0.8037160006
21
-12.1140775066
31
0.0000000000
0
SPLINE
5
260
100
AcDbEntity
8
0
100
AcDbSpline
62
7
6
CONTINUOUS
70
0
71
3
72
8
73
4
74
2
42
0.0000001000
43
0.0000001000
44
0.0000000001
12
-0.0035882782
22
0.0013861505
32
0.0000000000
13
-0.0036129200
23
0.0013215173
33
0.0000000000
40
0.0000000000
40
0.0000000000
40
0.0000000000
40
0.0000000000
40
1.0000000000
40
1.0000000000
40
1.0000000000
40
1.0000000000
10
-0.8037160006
20
-12.1140775066
30
0.0000000000
10
-0.8049120934
20
-12.1136154565
30
0.0000000000
10
-0.8061123382
20
-12.1131639792
30
0.0000000000
10
-0.8073166449
20
-12.1127234734
30
0.0000000000
11
-0.8037160006
21
-12.1140775066
31
0.0000000000
11
-0.8073166449
21
-12.1127234734
31
0.0000000000
0
SPLINE
5
261
100
AcDbEntity
8
0
100
AcDbSpline
62
7
6
CONTINUOUS
70
0
71
3
72
9
73
5
74
3
42
0.0000001000
43
0.0000001000
44
0.0000000001
12
-0.0372161433
22
0.0136127503
32
0.0000000000
13
-0.0393251319
23
0.0051729265
33
0.0000000000
40
0.0000000000
40
0.0000000000
40
0.0000000000
40
0.0000000000
40
0.5218510901
40
1.0000000000
40
1.0000000000
40
1.0000000000
40
1.0000000000
10
-0.8073166449
20
-12.1127234734
30
0.0000000000
10
-0.8137904065
20
-12.1103555305
30
0.0000000000
10
-0.8264206995
20
-12.1064254662
30
0.0000000000
10
-0.8394304712
20
-12.1038869559
30
0.0000000000
10
-0.8456982275
20
-12.1030624795
30
0.0000000000
11
-0.8073166449
21
-12.1127234734
31
0.0000000000
11
-0.8270760137
21
-12.1066326737
31
0.0000000000
11
-0.8456982275
21
-12.1030624795
31
0.0000000000
0
SPLINE
5
262
100
AcDbEntity
8
0
100
AcDbSpline
62
7
6
CONTINUOUS
70
0
71
3
72
8
73
4
74
2
42
0.0000001000
43
0.0000001000
44
0.0000000001
12
-0.0046347637
22
0.0006096684
32
0.0000000000
13
-0.0046501713
23
0.0004645542
33
0.0000000000
40
0.0000000000
40
0.0000000000
40
0.0000000000
40
0.0000000000
40
1.0000000000
40
1.0000000000
40
1.0000000000
40
1.0000000000
10
-0.8456982275
20
-12.1030624795
30
0.0000000000
10
-0.8472431488
20
-12.1028592567
30
0.0000000000
10
-0.8487909345
20
-12.1026796868
30
0.0000000000
10
-0.8503409916
20
-12.1025248354
30
0.0000000000
11
-0.8456982275
21
-12.1030624795
31
0.0000000000
11
-0.8503409916
21
-12.1025248354
31
0.0000000000
0
SPLINE
5
263
100
AcDbEntity
8
0
100
AcDbSpline
62
7
6
CONTINUOUS
70
0
71
3
72
9
73
5
74
3
42
0.0000001000
43
0.0000001000
44
0.0000000001
12
-0.0357267716
22
0.0035691204
32
0.0000000000
13
-0.0353892230
23
-0.0065158662
33
0.0000000000
40
0.0000000000
40
0.0000000000
40
0.0000000000
40
0.0000000000
40
0.5040288613
40
1.0000000000
40
1.0000000000
40
1.0000000000
40
1.0000000000
10
-0.8503409916
20
-12.1025248354
30
0.0000000000
10
-0.8563434330
20
-12.1019251888
30
0.0000000000
10
-0.8683199320
20
-12.1014708900
30
0.0000000000
10
-0.8802949119
20
-12.1027192464
30
0.0000000000
10
-0.8861455897
20
-12.1037964736
30
0.0000000000
11
-0.8503409916
21
-12.1025248354
31
0.0000000000
11
-0.8684160494
21
-12.1018997806
31
0.0000000000
11
-0.8861455897
21
-12.1037964736
31
0.0000000000
0
SPLINE
5
264
100
AcDbEntity
8
0
100
AcDbSpline
62
7
6
CONTINUOUS
70
0
71
3
72
8
73
4
74
2
42
0.0000001000
43
0.0000001000
44
0.0000000001
12
-0.0029962002
22
-0.0005516606
32
0.0000000000
13
-0.0029793992
23
-0.0006323362
33
0.0000000000
40
0.0000000000
40
0.0000000000
40
0.0000000000
40
0.0000000000
40
1.0000000000
40
1.0000000000
40
1.0000000000
40
1.0000000000
10
-0.8861455897
20
-12.1037964736
30
0.0000000000
10
-0.8871443231
20
-12.1039803605
30
0.0000000000
10
-0.8881404756
20
-12.1041775956
30
0.0000000000
10
-0.8891336087
20
-12.1043883744
30
0.0000000000
11
-0.8861455897
21
-12.1037964736
31
0.0000000000
11
-0.8891336087
21
-12.1043883744
31
0.0000000000
0
SPLINE
5
265
100
AcDbEntity
8
0
100
AcDbSpline
62
7
6
CONTINUOUS
70
0
71
3
72
8
73
4
74
2
42
0.0000001000
43
0.0000001000
44
0.0000000001
12
-0.0167881171
22
-0.0035630451
32
0.0000000000
13
-0.0159774437
23
-0.0062478582
33
0.0000000000
40
0.0000000000
40
0.0000000000
40
0.0000000000
40
0.0000000000
40
1.0000000000
40
1.0000000000
40
1.0000000000
40
1.0000000000
10
-0.8891336087
20
-12.1043883744
30
0.0000000000
10
-0.8947296477
20
-12.1055760561
30
0.0000000000
10
-0.9002298161
20
-12.1071937574
30
0.0000000000
10
-0.9055556306
20
-12.1092763768
30
0.0000000000
11
-0.8891336087
21
-12.1043883744
31
0.0000000000
11
-0.9055556306
21
-12.1092763768
31
0.0000000000
0
SPLINE
5
266
100
AcDbEntity
8
0
100
AcDbSpline
62
7
6
CONTINUOUS
70
0
71
3
72
8
73
4
74
2
42
0.0000001000
43
0.0000001000
44
0.0000000001
12
-0.0160099356
22
-0.0062605639
32
0.0000000000
13
-0.0147360091
23
-0.0089019235
33
0.0000000000
40
0.0000000000
40
0.0000000000
40
0.0000000000
40
0.0000000000
40
1.0000000000
40
1.0000000000
40
1.0000000000
40
1.0000000000
10
-0.9055556306
20
-12.1092763768
30
0.0000000000
10
-0.9108922758
20
-12.1113632314
30
0.0000000000
10
-0.9160539019
20
-12.1139160127
30
0.0000000000
10
-0.9209659049
20
-12.1168833206
30
0.0000000000
11
-0.9055556306
21
-12.1092763768
31
0.0000000000
11
-0.9209659049
21
-12.1168833206
31
0.0000000000
0
SPLINE
5
267
100
AcDbEntity
8
0
100
AcDbSpline
62
7
6
CONTINUOUS
70
0
71
3
72
8
73
4
74
2
42
0.0000001000
43
0.0000001000
44
0.0000000001
12
-0.0045480736
22
-0.0027474605
32
0.0000000000
13
-0.0043988241
23
-0.0029798455
33
0.0000000000
40
0.0000000000
40
0.0000000000
40
0.0000000000
40
0.0000000000
40
1.0000000000
40
1.0000000000
40
1.0000000000
40
1.0000000000
10
-0.9209659049
20
-12.1168833206
30
0.0000000000
10
-0.9224819295
20
-12.1177991407
30
0.0000000000
10
-0.9239741758
20
-12.1187544473
30
0.0000000000
10
-0.9254404505
20
-12.1197477292
30
0.0000000000
11
-0.9209659049
21
-12.1168833206
31
0.0000000000
11
-0.9254404505
21
-12.1197477292
31
0.0000000000
0
SPLINE
5
268
100
AcDbEntity
8
0
100
AcDbSpline
62
7
6
CONTINUOUS
70
0
71
3
72
12
73
8
74
6
42
0.0000001000
43
0.0000001000
44
0.0000000001
12
0.5030472846
22
-0.1186441215
32
0.0000000000
13
0.4111056566
23
-0.3132493211
33
0.0000000000
40
0.0000000000
40
0.0000000000
40
0.0000000000
40
0.0000000000
40
0.1829993284
40
0.3744631735
40
0.5745522662
40
0.7831709637
40
1.0000000000
40
1.0000000000
40
1.0000000000
40
1.0000000000
10
-0.9974547262
20
-8.3122512263
30
0.0000000000
10
-0.9667689544
20
-8.3194884912
30
0.0000000000
10
-0.9047279289
20
-8.3376333096
30
0.0000000000
10
-0.8126532459
20
-8.3743107232
30
0.0000000000
10
-0.7201442908
20
-8.4207713575
30
0.0000000000
10
-0.6278840953
20
-8.4766608916
30
0.0000000000
10
-0.5680756475
20
-8.5191568568
30
0.0000000000
10
-0.5383624330
20
-8.5417973729
30
0.0000000000
11
-0.9974547262
21
-8.3122512263
31
0.0000000000
11
-0.9066155162
21
-8.3385986976
31
0.0000000000
11
-0.8146081905
21
-8.3750311197
31
0.0000000000
11
-0.7221102257
21
-8.4212801024
31
0.0000000000
11
-0.6298021044
21
-8.4770054039
31
0.0000000000
11
-0.5383624330
21
-8.5417973729
31
0.0000000000
0
SPLINE
5
269
100
AcDbEntity
8
0
100
AcDbSpline
62
7
6
CONTINUOUS
70
0
71
3
72
21
73
17
74
15
42
0.0000001000
43
0.0000001000
44
0.0000000001
12
0.5663127781
22
-0.2831563890
32
0.0000000000
13
-0.6012347812
23
-0.2062938663
33
0.0000000000
40
0.0000000000
40
0.0000000000
40
0.0000000000
40
0.0000000000
40
0.0678101895
40
0.1402734311
40
0.2181111063
40
0.2992586150
40
0.3820398236
40
0.4646311573
40
0.6219286666
40
0.6945660585
40
0.7616191336
40
0.8223709027
40
0.8771842735
40
0.9271798195
40
0.9747903106
40
1.0000000000
40
1.0000000000
40
1.0000000000
40
1.0000000000
10
-1.5996202549
20
-11.7149665052
30
0.0000000000
10
-1.5868196626
20
-11.7213668013
30
0.0000000000
10
-1.5614171711
20
-11.7368188147
30
0.0000000000
10
-1.5255312914
20
-11.7658178532
30
0.0000000000
10
-1.4913002421
20
-11.8008129107
30
0.0000000000
10
-1.4596657010
20
-11.8409598877
30
0.0000000000
10
-1.4317060696
20
-11.8849542849
30
0.0000000000
10
-1.4010714494
20
-11.9458429899
30
0.0000000000
10
-1.3801858047
20
-12.0090930279
30
0.0000000000
10
-1.3717517951
20
-12.0713534905
30
0.0000000000
10
-1.3718746539
20
-12.1138232981
30
0.0000000000
10
-1.3785003071
20
-12.1520140268
30
0.0000000000
10
-1.3914661099
20
-12.1847849661
30
0.0000000000
10
-1.4106355727
20
-12.2111236679
30
0.0000000000
10
-1.4316705165
20
-12.2269653954
30
0.0000000000
10
-1.4458748581
20
-12.2330940493
30
0.0000000000
10
-1.4509271721
20
-12.2348275840
30
0.0000000000
11
-1.5996202549
21
-11.7149665052
31
0.0000000000
11
-1.5628027275
21
-11.7370536111
31
0.0000000000
11
-1.5269965707
21
-11.7657406980
31
0.0000000000
11
-1.4924395805
21
-11.8008786296
31
0.0000000000
11
-1.4605796306
21
-11.8411868956
31
0.0000000000
11
-1.4324501562
21
-11.8854125359
31
0.0000000000
11
-1.4089635201
21
-11.9321347426
31
0.0000000000
11
-1.3786634167
21
-12.0270076593
31
0.0000000000
11
-1.3726889875
21
-12.0726088234
31
0.0000000000
11
-1.3731333177
21
-12.1150616176
31
0.0000000000
11
-1.3800581609
21
-12.1528985552
31
0.0000000000
11
-1.3932037375
21
-12.1850180690
31
0.0000000000
11
-1.4121008437
21
-12.2104137396
31
0.0000000000
11
-1.4362476359
21
-12.2284594644
31
0.0000000000
11
-1.4509271721
21
-12.2348275840
31
0.0000000000
0
SPLINE
5
26A
100
AcDbEntity
8
0
100
AcDbSpline
62
7
6
CONTINUOUS
70
0
71
3
72
11
73
7
74
5
42
0.0000001000
43
0.0000001000
44
0.0000000001
12
-0.0267052086
22
-0.1162166128
32
0.0000000000
13
-0.1132032813
23
-0.0389848841
33
0.0000000000
40
0.0000000000
40
0.0000000000
40
0.0000000000
40
0.0000000000
40
0.2940041896
40
0.5584805361
40
0.8105845069
40
1.0000000000
40
1.0000000000
40
1.0000000000
40
1.0000000000
10
-0.7317392088
20
-13.2787397490
30
0.0000000000
10
-0.7343563565
20
-13.2901291393
30
0.0000000000
10
-0.7413774242
20
-13.3114052991
30
0.0000000000
10
-0.7587076447
20
-13.3389985077
30
0.0000000000
10
-0.7801300380
20
-13.3578116250
30
0.0000000000
10
-0.7961599435
20
-13.3654061601
30
0.0000000000
10
-0.8033074286
20
-13.3678676071
30
0.0000000000
11
-0.7317392088
21
-13.2787397490
31
0.0000000000
11
-0.7431119197
21
-13.3119025372
31
0.0000000000
11
-0.7601858853
21
-13.3384185589
31
0.0000000000
11
-0.7828905549
21
-13.3581222750
31
0.0000000000
11
-0.8033074286
21
-13.3678676071
31
0.0000000000
0
SPLINE
5
26B
100
AcDbEntity
8
0
100
AcDbSpline
62
7
6
CONTINUOUS
70
0
71
3
72
15
73
11
74
9
42
0.0000001000
43
0.0000001000
44
0.0000000001
12
0.0764745168
22
-0.2645669664
32
0.0000000000
13
-0.2611201037
23
-0.0897392498
33
0.0000000000
40
0.0000000000
40
0.0000000000
40
0.0000000000
40
0.0000000000
40
0.1570676598
40
0.3040404847
40
0.4421337411
40
0.5691139872
40
0.7899944793
40
0.8894598977
40
0.9871296139
40
1.0000000000
40
1.0000000000
40
1.0000000000
40
1.0000000000
10
1.2219703333
20
-13.2963033910
30
0.0000000000
10
1.2259742244
20
-13.3101550291
30
0.0000000000
10
1.2324239080
20
-13.3373738936
30
0.0000000000
10
1.2374195324
20
-13.3777311139
30
0.0000000000
10
1.2373180190
20
-13.4157084310
30
0.0000000000
10
1.2306874119
20
-13.4598612480
30
0.0000000000
10
1.2138842793
20
-13.4990091360
30
0.0000000000
10
1.1861777348
20
-13.5261937135
30
0.0000000000
10
1.1690464126
20
-13.5355661976
30
0.0000000000
10
1.1594823645
20
-13.5390405675
30
0.0000000000
10
1.1583621257
20
-13.5394255604
30
0.0000000000
11
1.2219703333
21
-13.2963033910
31
0.0000000000
11
1.2318335893
21
-13.3384199836
31
0.0000000000
11
1.2366450143
21
-13.3786090116
31
0.0000000000
11
1.2363514000
21
-13.4166384780
31
0.0000000000
11
1.2308599470
21
-13.4511747171
31
0.0000000000
11
1.2049498542
21
-13.5062107076
31
0.0000000000
11
1.1852911502
21
-13.5252865662
31
0.0000000000
11
1.1617020728
21
-13.5382117342
31
0.0000000000
11
1.1583621257
21
-13.5394255604
31
0.0000000000
0
SPLINE
5
26C
100
AcDbEntity
8
0
100
AcDbSpline
62
7
6
CONTINUOUS
70
0
71
3
72
14
73
10
74
8
42
0.0000001000
43
0.0000001000
44
0.0000000001
12
1.2250699835
22
-0.9334640243
32
0.0000000000
13
0.3809959649
23
-1.4923115037
33
0.0000000000
40
0.0000000000
40
0.0000000000
40
0.0000000000
40
0.0000000000
40
0.1877183335
40
0.2861451748
40
0.3870532034
40
0.5927568139
40
0.6964753064
40
0.7993308033
40
1.0000000000
40
1.0000000000
40
1.0000000000
40
1.0000000000
10
-0.5383624330
20
-8.5417973729
30
0.0000000000
10
-0.4617064011
20
-8.6002068099
30
0.0000000000
10
-0.3522627206
20
-8.6993349788
30
0.0000000000
10
-0.2197966701
20
-8.8475631203
30
0.0000000000
10
-0.0917163007
20
-9.0115546629
30
0.0000000000
10
0.0214834197
20
-9.1900102103
30
0.0000000000
10
0.1178393444
20
-9.3785868904
30
0.0000000000
10
0.2015390971
20
-9.5702736448
30
0.0000000000
10
0.2504328532
20
-9.7188359457
30
0.0000000000
10
0.2759175713
20
-9.8186562625
30
0.0000000000
11
-0.5383624330
21
-8.5417973729
31
0.0000000000
11
-0.3230655421
21
-8.7347676682
31
0.0000000000
11
-0.2219106605
21
-8.8476779064
31
0.0000000000
11
-0.1261943006
21
-8.9701223676
31
0.0000000000
11
0.0438532788
21
-9.2374404982
31
0.0000000000
11
0.1165731023
21
-9.3796737874
31
0.0000000000
11
0.1798866927
21
-9.5248873584
31
0.0000000000
11
0.2759175713
21
-9.8186562625
31
0.0000000000
0
SPLINE
5
26D
100
AcDbEntity
8
0
100
AcDbSpline
62
7
6
CONTINUOUS
70
0
71
3
72
9
73
5
74
3
42
0.0000001000
43
0.0000001000
44
0.0000000001
12
0.0374351293
22
-0.2921552346
32
0.0000000000
13
0.1355904777
23
-0.2622045604
33
0.0000000000
40
0.0000000000
40
0.0000000000
40
0.0000000000
40
0.0000000000
40
0.7334711569
40
1.0000000000
40
1.0000000000
40
1.0000000000
40
1.0000000000
10
-7.5635311083
20
-14.3185230936
30
0.0000000000
10
-7.5543785791
20
-14.3899522396
30
0.0000000000
10
-7.5306932163
20
-14.4863562999
30
0.0000000000
10
-7.4899466141
20
-14.5760946204
30
0.0000000000
10
-7.4779003564
20
-14.5993896464
30
0.0000000000
11
-7.5635311083
21
-14.3185230936
31
0.0000000000
11
-7.5104549137
21
-14.5277854006
31
0.0000000000
11
-7.4779003564
21
-14.5993896464
31
0.0000000000
0
SPLINE
5
26E
100
AcDbEntity
8
0
100
AcDbSpline
62
7
6
CONTINUOUS
70
0
71
3
72
10
73
6
74
4
42
0.0000001000
43
0.0000001000
44
0.0000000001
12
0.2047929737
22
-0.3960281915
32
0.0000000000
13
0.3997193850
23
-0.1989068405
33
0.0000000000
40
0.0000000000
40
0.0000000000
40
0.0000000000
40
0.0000000000
40
0.3392192671
40
0.8286141373
40
1.0000000000
40
1.0000000000
40
1.0000000000
40
1.0000000000
10
-7.4779003564
20
-14.5993896464
30
0.0000000000
10
-7.4547437823
20
-14.6441697774
30
0.0000000000
10
-7.3874726290
20
-14.7479327450
30
0.0000000000
10
-7.2760493387
20
-14.8489472113
30
0.0000000000
10
-7.1904285500
20
-14.8976976041
30
0.0000000000
10
-7.1675931327
20
-14.9090608776
30
0.0000000000
11
-7.4779003564
21
-14.5993896464
31
0.0000000000
11
-7.3954654815
21
-14.7257649693
31
0.0000000000
11
-7.2340363706
21
-14.8711981833
31
0.0000000000
11
-7.1675931327
21
-14.9090608776
31
0.0000000000
0
SPLINE
5
26F
100
AcDbEntity
8
0
100
AcDbSpline
62
7
6
CONTINUOUS
70
0
71
3
72
10
73
6
74
4
42
0.0000001000
43
0.0000001000
44
0.0000000001
12
0.1486153444
22
-9.7573733946
32
0.0000000000
13
1.2323958817
23
-9.6803749975
33
0.0000000000
40
0.0000000000
40
0.0000000000
40
0.0000000000
40
0.0000000000
40
0.3378858296
40
0.6757897081
40
1.0000000000
40
1.0000000000
40
1.0000000000
40
1.0000000000
10
-8.2386912677
20
-4.5875017042
30
0.0000000000
10
-8.2219529281
20
-5.6864611056
30
0.0000000000
10
-8.1506016913
20
-7.8840835948
30
0.0000000000
10
-7.9265675828
20
-11.1298698469
30
0.0000000000
10
-7.6967834236
20
-13.2719646264
30
0.0000000000
10
-7.5635982807
20
-14.3181236942
30
0.0000000000
11
-8.2386912677
21
-4.5875017042
31
0.0000000000
11
-8.1305924889
21
-7.8829865701
31
0.0000000000
11
-7.9022868046
21
-11.1724967383
31
0.0000000000
11
-7.5635982807
21
-14.3181236942
31
0.0000000000
0
SPLINE
5
270
100
AcDbEntity
8
0
100
AcDbSpline
62
7
6
CONTINUOUS
70
0
71
3
72
10
73
6
74
4
42
0.0000001000
43
0.0000001000
44
0.0000000001
12
-0.2466228115
22
-16.4518466370
32
0.0000000000
13
0.2505802708
23
-16.4517870703
33
0.0000000000
40
0.0000000000
40
0.0000000000
40
0.0000000000
40
0.0000000000
40
0.3338803708
40
0.6700007229
40
1.0000000000
40
1.0000000000
40
1.0000000000
40
1.0000000000
10
-8.2386930837
20
11.8656354889
30
0.0000000000
10
-8.2661405889
20
10.0346526036
30
0.0000000000
10
-8.3031187703
20
6.3601038603
30
0.0000000000
10
-8.3032377349
20
0.8754550178
30
0.0000000000
10
-8.2662550357
20
-2.7778092523
30
0.0000000000
10
-8.2386912663
20
-4.5875018657
30
0.0000000000
11
-8.2386930837
21
11.8656354889
31
0.0000000000
11
-8.2938321015
21
6.3723465998
31
0.0000000000
11
-8.2938019108
21
0.8419258422
31
0.0000000000
11
-8.2386912663
21
-4.5875018657
31
0.0000000000
0
SPLINE
5
271
100
AcDbEntity
8
0
100
AcDbSpline
62
7
6
CONTINUOUS
70
0
71
3
72
10
73
6
74
4
42
0.0000001000
43
0.0000001000
44
0.0000000001
12
-1.1663605750
22
-10.3907592481
32
0.0000000000
13
-0.1567235962
23
-10.4548433771
33
0.0000000000
40
0.0000000000
40
0.0000000000
40
0.0000000000
40
0.0000000000
40
0.3365887618
40
0.6745322153
40
1.0000000000
40
1.0000000000
40
1.0000000000
40
1.0000000000
10
-7.5644810350
20
22.2962494707
30
0.0000000000
10
-7.6953423223
20
21.1304452075
30
0.0000000000
10
-7.9221342077
20
18.7899841577
30
0.0000000000
10
-8.1478253156
20
15.3114138072
30
0.0000000000
10
-8.2216902490
20
12.9998736156
30
0.0000000000
10
-8.2386930762
20
11.8656353778
30
0.0000000000
11
-7.5644810350
21
22.2962494707
31
0.0000000000
11
-7.9031145331
21
18.7932038918
31
0.0000000000
11
-8.1309556888
21
15.2670257013
31
0.0000000000
11
-8.2386930762
21
11.8656353778
31
0.0000000000
0
SPLINE
5
272
100
AcDbEntity
8
0
100
AcDbSpline
62
7
6
CONTINUOUS
70
0
71
3
72
12
73
8
74
6
42
0.0000001000
43
0.0000001000
44
0.0000000001
12
-0.9880157081
22
-0.5533375420
32
0.0000000000
13
-0.1261554724
23
-1.1245416593
33
0.0000000000
40
0.0000000000
40
0.0000000000
40
0.0000000000
40
0.0000000000
40
0.1468235130
40
0.3720610171
40
0.6052176851
40
0.8400275021
40
1.0000000000
40
1.0000000000
40
1.0000000000
40
1.0000000000
10
-6.9802417763
20
23.2200720209
30
0.0000000000
10
-7.0285964221
20
23.1929910337
30
0.0000000000
10
-7.1451706968
20
23.1130529938
30
0.0000000000
10
-7.3046465940
20
22.9478284640
30
0.0000000000
10
-7.4444384900
20
22.7252285331
30
0.0000000000
10
-7.5294303751
20
22.5030124258
30
0.0000000000
10
-7.5577612048
20
22.3560906560
30
0.0000000000
10
-7.5644883401
20
22.2961254099
30
0.0000000000
11
-6.9802417763
21
23.2200720209
31
0.0000000000
11
-7.1177155203
21
23.1265312978
31
0.0000000000
11
-7.2957157232
21
22.9446650999
31
0.0000000000
11
-7.4364021140
21
22.7219532867
31
0.0000000000
11
-7.5306789771
21
22.4739762509
31
0.0000000000
11
-7.5644883401
21
22.2961254099
31
0.0000000000
0
SPLINE
5
273
100
AcDbEntity
8
0
100
AcDbSpline
62
7
6
CONTINUOUS
70
0
71
3
72
10
73
6
74
4
42
0.0000001000
43
0.0000001000
44
0.0000000001
12
0.2100970954
22
0.1188770184
32
0.0000000000
13
0.2140023110
23
-0.1070011555
33
0.0000000000
40
0.0000000000
40
0.0000000000
40
0.0000000000
40
0.0000000000
40
0.1068679515
40
0.5251396390
40
1.0000000000
40
1.0000000000
40
1.0000000000
40
1.0000000000
10
-4.2449832978
20
24.7512208365
30
0.0000000000
10
-4.2374990824
20
24.7554555510
30
0.0000000000
10
-4.1993833538
20
24.7737418029
30
0.0000000000
10
-4.1166887362
20
24.7817279877
30
0.0000000000
10
-4.0477061345
20
24.7580957771
30
0.0000000000
10
-4.0138323963
20
24.7411589080
30
0.0000000000
11
-4.2449832978
21
24.7512208365
31
0.0000000000
11
-4.2217657576
21
24.7623145775
31
0.0000000000
11
-4.1224374328
21
24.7745285818
31
0.0000000000
11
-4.0138323963
21
24.7411589080
31
0.0000000000
0
SPLINE
5
274
100
AcDbEntity
8
0
100
AcDbSpline
62
7
6
CONTINUOUS
70
0
71
3
72
11
73
7
74
5
42
0.0000001000
43
0.0000001000
44
0.0000000001
12
0.5966304592
22
-0.2986818970
32
0.0000000000
13
0.6107472854
23
0.2703592613
33
0.0000000000
40
0.0000000000
40
0.0000000000
40
0.0000000000
40
0.0000000000
40
0.2259440156
40
0.5063644692
40
0.8011936117
40
1.0000000000
40
1.0000000000
40
1.0000000000
40
1.0000000000
10
7.5223300223
20
-22.2540776577
30
0.0000000000
10
7.5672650495
20
-22.2765727868
30
0.0000000000
10
7.6737601691
20
-22.3162184645
30
0.0000000000
10
7.8524274631
20
-22.3370733421
30
0.0000000000
10
8.0243992685
20
-22.3125066651
30
0.0000000000
10
8.1282826180
20
-22.2753711126
30
0.0000000000
10
8.1687561053
20
-22.2574547299
30
0.0000000000
11
7.5223300223
21
-22.2540776577
31
0.0000000000
11
7.6635822586
21
-22.3066839896
31
0.0000000000
11
7.8491006174
21
-22.3288015889
31
0.0000000000
11
8.0436680905
21
-22.3018007928
31
0.0000000000
11
8.1687561053
21
-22.2574547299
31
0.0000000000
0
SPLINE
5
275
100
AcDbEntity
8
0
100
AcDbSpline
62
7
6
CONTINUOUS
70
0
71
3
72
12
73
8
74
6
42
0.0000001000
43
0.0000001000
44
0.0000000001
12
-0.3662987930
22
-0.1258401393
32
0.0000000000
13
-0.1019925221
23
-0.3731521264
33
0.0000000000
40
0.0000000000
40
0.0000000000
40
0.0000000000
40
0.0000000000
40
0.0380737809
40
0.1882244937
40
0.3394043838
40
0.6542957827
40
1.0000000000
40
1.0000000000
40
1.0000000000
40
1.0000000000
10
-1.1272316838
20
-8.8666760194
30
0.0000000000
10
-1.1318804771
20
-8.8682730894
30
0.0000000000
10
-1.1546910737
20
-8.8766676618
30
0.0000000000
10
-1.1940762792
20
-8.8962801220
30
0.0000000000
10
-1.2581440789
20
-8.9439243371
30
0.0000000000
10
-1.3243378244
20
-9.0275135408
30
0.0000000000
10
-1.3559440317
20
-9.1077765503
30
0.0000000000
10
-1.3676971134
20
-9.1507766383
30
0.0000000000
11
-1.1272316838
21
-8.8666760194
31
0.0000000000
11
-1.1410690337
21
-8.8717707272
31
0.0000000000
11
-1.1930535304
21
-8.8976819926
31
0.0000000000
11
-1.2400234352
21
-8.9325247522
31
0.0000000000
11
-1.3167673192
21
-9.0271221257
31
0.0000000000
11
-1.3676971134
21
-9.1507766383
31
0.0000000000
0
SPLINE
5
276
100
AcDbEntity
8
0
100
AcDbSpline
62
7
6
CONTINUOUS
70
0
71
3
72
11
73
7
74
5
42
0.0000001000
43
0.0000001000
44
0.0000000001
12
0.1239331692
22
0.0839600305
32
0.0000000000
13
0.1331093361
23
-0.0665546681
33
0.0000000000
40
0.0000000000
40
0.0000000000
40
0.0000000000
40
0.0000000000
40
0.1517117244
40
0.4049590814
40
0.6845577089
40
1.0000000000
40
1.0000000000
40
1.0000000000
40
1.0000000000
10
-0.9254429742
20
-12.1197494389
30
0.0000000000
10
-0.9191756026
20
-12.1155035319
30
0.0000000000
10
-0.9011796282
20
-12.1060220715
30
0.0000000000
10
-0.8671061115
20
-12.0997723334
30
0.0000000000
10
-0.8248711236
20
-12.1053261408
30
0.0000000000
10
-0.7971485175
20
-12.1162023739
30
0.0000000000
10
-0.7831524129
20
-12.1232004262
30
0.0000000000
11
-0.9254429742
21
-12.1197494389
31
0.0000000000
11
-0.9053885184
21
-12.1092112034
31
0.0000000000
11
-0.8684160494
21
-12.1018997806
31
0.0000000000
11
-0.8270760137
21
-12.1066326737
31
0.0000000000
11
-0.7831524129
21
-12.1232004262
31
0.0000000000
0
SPLINE
5
277
100
AcDbEntity
8
0
100
AcDbSpline
62
7
6
CONTINUOUS
70
0
71
3
72
13
73
9
74
7
42
0.0000001000
43
0.0000001000
44
0.0000000001
12
0.4394394454
22
0.2983241462
32
0.0000000000
13
0.5163078189
23
-0.1217716296
33
0.0000000000
40
0.0000000000
40
0.0000000000
40
0.0000000000
40
0.0000000000
40
0.0442270711
40
0.2249663514
40
0.4081908610
40
0.5964256345
40
0.7921278205
40
1.0000000000
40
1.0000000000
40
1.0000000000
40
1.0000000000
10
-1.5074315288
20
-8.3880215117
30
0.0000000000
10
-1.5009531556
20
-8.3836235106
30
0.0000000000
10
-1.4675245100
20
-8.3619540243
30
0.0000000000
10
-1.4026900806
20
-8.3293838558
30
0.0000000000
10
-1.3086840876
20
-8.3012923517
30
0.0000000000
10
-1.2087717190
20
-8.2886151001
30
0.0000000000
10
-1.1037918171
20
-8.2915917343
30
0.0000000000
10
-1.0332300700
20
-8.3038135817
30
0.0000000000
10
-0.9974547262
20
-8.3122512264
30
0.0000000000
11
-1.5074315288
21
-8.3880215117
31
0.0000000000
11
-1.4877203711
21
-8.3752470613
31
0.0000000000
11
-1.4020611132
21
-8.3321777477
31
0.0000000000
11
-1.3090017635
21
-8.3041247748
31
0.0000000000
11
-1.2099740522
21
-8.2913089944
31
0.0000000000
11
-1.1061922560
21
-8.2939271628
31
0.0000000000
11
-0.9974547262
21
-8.3122512264
31
0.0000000000
0
SPLINE
5
278
100
AcDbEntity
8
0
100
AcDbSpline
62
7
6
CONTINUOUS
70
0
71
3
72
12
73
8
74
6
42
0.0000001000
43
0.0000001000
44
0.0000000001
12
0.6571337759
22
-0.3285668880
32
0.0000000000
13
0.0000000000
23
-0.7346978966
33
0.0000000000
40
0.0000000000
40
0.0000000000
40
0.0000000000
40
0.0000000000
40
0.1798275705
40
0.3831192697
40
0.5947666834
40
0.8057996516
40
1.0000000000
40
1.0000000000
40
1.0000000000
40
1.0000000000
10
10.8356523164
20
17.3164165516
30
0.0000000000
10
10.8750425732
20
17.2967214232
30
0.0000000000
10
10.9523178760
20
17.2412110876
30
0.0000000000
10
11.0488334948
20
17.1308684854
30
0.0000000000
10
11.1259526933
20
16.9972657557
30
0.0000000000
10
11.1759551380
20
16.8537983771
30
0.0000000000
10
11.1890845531
20
16.7543956432
30
0.0000000000
10
11.1890845531
20
16.7068361140
30
0.0000000000
11
10.8356523164
21
17.3164165516
31
0.0000000000
11
10.9442573529
21
17.2411811890
31
0.0000000000
11
11.0435856777
21
17.1296388598
31
0.0000000000
11
11.1215622663
21
16.9951065567
31
0.0000000000
11
11.1719721321
21
16.8484847793
31
0.0000000000
11
11.1890845531
21
16.7068361140
31
0.0000000000
0
SPLINE
5
279
100
AcDbEntity
8
0
100
AcDbSpline
62
7
6
CONTINUOUS
70
0
71
3
72
10
73
6
74
4
42
0.0000001000
43
0.0000001000
44
0.0000000001
12
0.0000000000
22
-0.3223825756
32
0.0000000000
13
-0.2961226949
23
-0.1326817396
33
0.0000000000
40
0.0000000000
40
0.0000000000
40
0.0000000000
40
0.0000000000
40
0.3899294118
40
0.7268523245
40
1.0000000000
40
1.0000000000
40
1.0000000000
40
1.0000000000
10
11.1890845531
20
-20.7057580948
30
0.0000000000
10
11.1890845531
20
-20.7476602441
30
0.0000000000
10
11.1800484464
20
-20.8263926362
30
0.0000000000
10
11.1321579180
20
-20.9259164257
30
0.0000000000
10
11.0782154032
20
-20.9677565232
30
0.0000000000
10
11.0512536612
20
-20.9798370928
30
0.0000000000
11
11.1890845531
21
-20.7057580948
31
0.0000000000
11
11.1719721321
21
-20.8302943390
31
0.0000000000
11
11.1215622663
21
-20.9265062507
31
0.0000000000
11
11.0512536612
21
-20.9798370928
31
0.0000000000
0
SPLINE
5
27A
100
AcDbEntity
8
0
100
AcDbSpline
62
7
6
CONTINUOUS
70
0
71
3
72
10
73
6
74
4
42
0.0000001000
43
0.0000001000
44
0.0000000001
12
-0.6463600032
22
-2.3647871900
32
0.0000000000
13
-0.5792707170
23
-2.3821093897
33
0.0000000000
40
0.0000000000
40
0.0000000000
40
0.0000000000
40
0.0000000000
40
0.3362748147
40
0.6696148467
40
1.0000000000
40
1.0000000000
40
1.0000000000
40
1.0000000000
10
-1.3676971134
20
-9.1507766383
30
0.0000000000
10
-1.4401486435
20
-9.4158494296
30
0.0000000000
10
-1.5820091408
20
-9.9443442125
30
0.0000000000
10
-1.7864843702
20
-10.7355365975
30
0.0000000000
10
-1.9172045269
20
-11.2619394365
30
0.0000000000
10
-1.9809986751
20
-11.5242772951
30
0.0000000000
11
-1.3676971134
21
-9.1507766383
31
0.0000000000
11
-1.5813848228
21
-9.9469881951
31
0.0000000000
11
-1.7858286250
21
-10.7381944368
31
0.0000000000
11
-1.9809986751
21
-11.5242772951
31
0.0000000000
0
SPLINE
5
27B
100
AcDbEntity
8
0
100
AcDbSpline
62
7
6
CONTINUOUS
70
0
71
3
72
10
73
6
74
4
42
0.0000001000
43
0.0000001000
44
0.0000000001
12
0.8915663222
22
-3.4921490026
32
0.0000000000
13
1.0008304851
23
-3.4624172919
33
0.0000000000
40
0.0000000000
40
0.0000000000
40
0.0000000000
40
0.0000000000
40
0.3342660710
40
0.6676081115
40
1.0000000000
40
1.0000000000
40
1.0000000000
40
1.0000000000
10
0.2759175713
20
-9.8186562625
30
0.0000000000
10
0.3752576952
20
-10.2077585714
30
0.0000000000
10
0.5776957743
20
-10.9838648844
30
0.0000000000
10
0.8930469117
20
-12.1431465321
30
0.0000000000
10
1.1110810138
20
-12.9126769190
30
0.0000000000
10
1.2219703255
20
-13.2963033932
30
0.0000000000
11
0.2759175713
21
-9.8186562625
31
0.0000000000
11
0.5800047962
21
-10.9843974699
31
0.0000000000
11
0.8953758610
21
-12.1436857393
31
0.0000000000
11
1.2219703255
21
-13.2963033932
31
0.0000000000
0
SPLINE
5
27C
100
AcDbEntity
8
0
100
AcDbSpline
62
7
6
CONTINUOUS
70
0
71
3
72
10
73
6
74
4
42
0.0000001000
43
0.0000001000
44
0.0000000001
12
-0.1360918403
22
-0.5731809952
32
0.0000000000
13
-0.1319334791
23
-0.5741524182
33
0.0000000000
40
0.0000000000
40
0.0000000000
40
0.0000000000
40
0.0000000000
40
0.3340837194
40
0.6674173885
40
1.0000000000
40
1.0000000000
40
1.0000000000
40
1.0000000000
10
-0.5977189467
20
-12.7050720222
30
0.0000000000
10
-0.6128743028
20
-12.7689021684
30
0.0000000000
10
-0.6429981455
20
-12.8964555053
30
0.0000000000
10
-0.6876722141
20
-13.0876784986
30
0.0000000000
10
-0.7171129546
20
-13.2150887107
30
0.0000000000
10
-0.7317392149
20
-13.2787397476
30
0.0000000000
11
-0.5977189467
21
-12.7050720222
31
0.0000000000
11
-0.6429549279
21
-12.8966169451
31
0.0000000000
11
-0.6876284806
21
-13.0878400855
31
0.0000000000
11
-0.7317392149
21
-13.2787397476
31
0.0000000000
0
SPLINE
5
27D
100
AcDbEntity
8
0
100
AcDbSpline
62
7
6
CONTINUOUS
70
0
71
3
72
9
73
5
74
3
42
0.0000001000
43
0.0000001000
44
0.0000000001
12
-0.0180868114
22
-0.0062287262
32
0.0000000000
13
-0.0188922044
23
-0.0028704420
33
0.0000000000
40
0.0000000000
40
0.0000000000
40
0.0000000000
40
0.0000000000
40
0.3878644399
40
1.0000000000
40
1.0000000000
40
1.0000000000
40
1.0000000000
10
-0.8033074286
20
-13.3678676071
30
0.0000000000
10
-0.8056458389
20
-13.3686729075
30
0.0000000000
10
-0.8117494312
20
-13.3705292958
30
0.0000000000
10
-0.8179956838
20
-13.3718120965
30
0.0000000000
10
-0.8218505471
20
-13.3723977964
30
0.0000000000
11
-0.8033074286
21
-13.3678676071
31
0.0000000000
11
-0.8104020334
21
-13.3700266717
31
0.0000000000
11
-0.8218505471
21
-13.3723977964
31
0.0000000000
0
SPLINE
5
27E
100
AcDbEntity
8
0
100
AcDbSpline
62
7
6
CONTINUOUS
70
0
71
3
72
8
73
4
74
2
42
0.0000001000
43
0.0000001000
44
0.0000000001
12
0.0025767393
22
0.0285105131
32
0.0000000000
13
0.0064444960
23
0.0278310206
33
0.0000000000
40
0.0000000000
40
0.0000000000
40
0.0000000000
40
0.0000000000
40
1.0000000000
40
1.0000000000
40
1.0000000000
40
1.0000000000
10
-1.1510756512
20
-12.9522527984
30
0.0000000000
10
-1.1502167381
20
-12.9427492941
30
0.0000000000
10
-1.1487746469
20
-12.9333008228
30
0.0000000000
10
-1.1466264815
20
-12.9240238160
30
0.0000000000
11
-1.1510756512
21
-12.9522527984
31
0.0000000000
11
-1.1466264815
21
-12.9240238160
31
0.0000000000
0
SPLINE
5
27F
100
AcDbEntity
8
0
100
AcDbSpline
62
9
6
CONTINUOUS
70
0
71
3
72
10
73
6
74
4
42
0.0000001000
43
0.0000001000
44
0.0000000001
12
-0.0024380536
22
-0.2432602782
32
0.0000000000
13
0.2138781075
23
-0.1068067296
33
0.0000000000
40
0.0000000000
40
0.0000000000
40
0.0000000000
40
0.0000000000
40
0.1782173039
40
0.5410344712
40
1.0000000000
40
1.0000000000
40
1.0000000000
40
1.0000000000
10
-8.2382395763
20
11.8656308325
30
0.0000000000
10
-8.2383844107
20
11.8511797689
30
0.0000000000
10
-8.2316473823
20
11.8070904448
30
0.0000000000
10
-8.1808892284
20
11.7413084971
30
0.0000000000
10
-8.1249596883
20
11.7059637087
30
0.0000000000
10
-8.0922387954
20
11.6896235064
30
0.0000000000
11
-8.2382395763
21
11.8656308325
31
0.0000000000
11
-8.2316972888
21
11.8230558194
31
0.0000000000
11
-8.1829982588
21
11.7512810380
31
0.0000000000
11
-8.0922387954
21
11.6896235064
31
0.0000000000
0
SPLINE
5
280
100
AcDbEntity
8
0
100
AcDbSpline
62
9
6
CONTINUOUS
70
0
71
3
72
9
73
5
74
3
42
0.0000001000
43
0.0000001000
44
0.0000000001
12
-0.0284800579
22
0.0141720411
32
0.0000000000
13
-0.0270892133
23
0.0166344795
33
0.0000000000
40
0.0000000000
40
0.0000000000
40
0.0000000000
40
0.0000000000
40
0.7476936589
40
1.0000000000
40
1.0000000000
40
1.0000000000
40
1.0000000000
10
-7.1684609355
20
-14.9086536439
30
0.0000000000
10
-7.1755590551
20
-14.9051215288
30
0.0000000000
10
-7.1848943246
20
-14.9000881474
30
0.0000000000
10
-7.1939863809
20
-14.8946443784
30
0.0000000000
10
-7.1962646410
20
-14.8932453835
30
0.0000000000
11
-7.1684609355
21
-14.9086536439
31
0.0000000000
11
-7.1893829314
21
-14.8973652486
31
0.0000000000
11
-7.1962646410
21
-14.8932453835
31
0.0000000000
0
SPLINE
5
281
100
AcDbEntity
8
0
100
AcDbSpline
62
9
6
CONTINUOUS
70
0
71
3
72
10
73
6
74
4
42
0.0000001000
43
0.0000001000
44
0.0000000001
12
-0.4023490011
22
0.2470675745
32
0.0000000000
13
-0.0601375421
23
0.4660994940
33
0.0000000000
40
0.0000000000
40
0.0000000000
40
0.0000000000
40
0.0000000000
40
0.2881002794
40
0.6226701458
40
1.0000000000
40
1.0000000000
40
1.0000000000
40
1.0000000000
10
-7.1962646410
20
-14.8932453835
30
0.0000000000
10
-7.2349035942
20
-14.8695186378
30
0.0000000000
10
-7.3086391200
20
-14.8023871512
30
0.0000000000
10
-7.3843175900
20
-14.6625088105
30
0.0000000000
10
-7.4096770075
20
-14.5526765125
30
0.0000000000
10
-7.4172409041
20
-14.4940520945
30
0.0000000000
11
-7.1962646410
21
-14.8932453835
31
0.0000000000
11
-7.2974390662
21
-14.8031227452
31
0.0000000000
11
-7.3747832470
21
-14.6662254422
31
0.0000000000
11
-7.4172409041
21
-14.4940520945
31
0.0000000000
0
SPLINE
5
282
100
AcDbEntity
8
0
100
AcDbSpline
62
7
6
CONTINUOUS
70
0
71
3
72
8
73
4
74
2
42
0.0000001000
43
0.0000001000
44
0.0000000001
12
-0.0156399104
22
-0.0053749742
32
0.0000000000
13
-0.0162866094
23
-0.0029105316
33
0.0000000000
40
0.0000000000
40
0.0000000000
40
0.0000000000
40
0.0000000000
40
1.0000000000
40
1.0000000000
40
1.0000000000
40
1.0000000000
10
1.1583621257
20
-13.5394255604
30
0.0000000000
10
1.1531488222
20
-13.5412172185
30
0.0000000000
10
1.1477908639
20
-13.5425858160
30
0.0000000000
10
1.1423619941
20
-13.5435559932
30
0.0000000000
11
1.1583621257
21
-13.5394255604
31
0.0000000000
11
1.1423619941
21
-13.5435559932
31
0.0000000000
0
SPLINE
5
283
100
AcDbEntity
8
0
100
AcDbSpline
62
7
6
CONTINUOUS
70
0
71
3
72
9
73
5
74
3
42
0.0000001000
43
0.0000001000
44
0.0000000001
12
-0.0136080903
22
-0.0024318614
32
0.0000000000
13
-0.0137860983
23
-0.0008137291
33
0.0000000000
40
0.0000000000
40
0.0000000000
40
0.0000000000
40
0.0000000000
40
0.5737197148
40
1.0000000000
40
1.0000000000
40
1.0000000000
40
1.0000000000
10
1.1423619941
20
-13.5435559932
30
0.0000000000
10
1.1397595842
20
-13.5440210622
30
0.0000000000
10
1.1351951521
20
-13.5446721042
30
0.0000000000
10
1.1306058937
20
-13.5450532451
30
0.0000000000
10
1.1286469797
20
-13.5451688707
30
0.0000000000
11
1.1423619941
21
-13.5435559932
31
0.0000000000
11
1.1345140031
21
-13.5446792543
31
0.0000000000
11
1.1286469797
21
-13.5451688707
31
0.0000000000
0
SPLINE
5
284
100
AcDbEntity
8
0
100
AcDbSpline
62
7
6
CONTINUOUS
70
0
71
3
72
8
73
4
74
2
42
0.0000001000
43
0.0000001000
44
0.0000000001
12
-0.0053872122
22
-0.0003179820
32
0.0000000000
13
-0.0053959307
23
-0.0000868549
33
0.0000000000
40
0.0000000000
40
0.0000000000
40
0.0000000000
40
0.0000000000
40
1.0000000000
40
1.0000000000
40
1.0000000000
40
1.0000000000
10
1.1286469797
20
-13.5451688707
30
0.0000000000
10
1.1268512423
20
-13.5452748647
30
0.0000000000
10
1.1250533170
20
-13.5453414910
30
0.0000000000
10
1.1232546734
20
-13.5453704427
30
0.0000000000
11
1.1286469797
21
-13.5451688707
31
0.0000000000
11
1.1232546734
21
-13.5453704427
31
0.0000000000
0
SPLINE
5
285
100
AcDbEntity
8
0
100
AcDbSpline
62
7
6
CONTINUOUS
70
0
71
3
72
8
73
4
74
2
42
0.0000001000
43
0.0000001000
44
0.0000000001
12
-0.0181927097
22
-0.0002928367
32
0.0000000000
13
-0.0180727279
23
0.0020820918
33
0.0000000000
40
0.0000000000
40
0.0000000000
40
0.0000000000
40
0.0000000000
40
1.0000000000
40
1.0000000000
40
1.0000000000
40
1.0000000000
10
1.1232546734
20
-13.5453704427
30
0.0000000000
10
1.1171904368
20
-13.5454680549
30
0.0000000000
10
1.1111180352
20
-13.5451374031
30
0.0000000000
10
1.1050937926
20
-13.5444433725
30
0.0000000000
11
1.1232546734
21
-13.5453704427
31
0.0000000000
11
1.1050937926
21
-13.5444433725
31
0.0000000000
0
SPLINE
5
286
100
AcDbEntity
8
0
100
AcDbSpline
62
7
6
CONTINUOUS
70
0
71
3
72
9
73
5
74
3
42
0.0000001000
43
0.0000001000
44
0.0000000001
12
-0.0203759066
22
0.0023474324
32
0.0000000000
13
-0.0199140119
23
0.0048789048
33
0.0000000000
40
0.0000000000
40
0.0000000000
40
0.0000000000
40
0.0000000000
40
0.0251983239
40
1.0000000000
40
1.0000000000
40
1.0000000000
40
1.0000000000
10
1.1050937926
20
-13.5444433725
30
0.0000000000
10
1.1049226464
20
-13.5444236554
30
0.0000000000
10
1.0981322201
20
-13.5436295388
30
0.0000000000
10
1.0914050435
20
-13.5423758675
30
0.0000000000
10
1.0849343062
20
-13.5407905460
30
0.0000000000
11
1.1050937926
21
-13.5444433725
31
0.0000000000
11
1.1045804718
21
-13.5443833428
31
0.0000000000
11
1.0849343062
21
-13.5407905460
31
0.0000000000
0
SPLINE
5
287
100
AcDbEntity
8
0
100
AcDbSpline
62
7
6
CONTINUOUS
70
0
71
3
72
9
73
5
74
3
42
0.0000001000
43
0.0000001000
44
0.0000000001
12
-0.0466561861
22
0.0114306999
32
0.0000000000
13
-0.0429006224
23
0.0214503112
33
0.0000000000
40
0.0000000000
40
0.0000000000
40
0.0000000000
40
0.0000000000
40
0.2569345392
40
1.0000000000
40
1.0000000000
40
1.0000000000
40
1.0000000000
10
1.0849343062
20
-13.5407905460
30
0.0000000000
10
1.0809384443
20
-13.5398115655
30
0.0000000000
10
1.0655153967
20
-13.5354622123
30
0.0000000000
10
1.0506901620
20
-13.5292765765
30
0.0000000000
10
1.0400641718
20
-13.5239635814
30
0.0000000000
11
1.0849343062
21
-13.5407905460
31
0.0000000000
11
1.0730524819
21
-13.5374553445
31
0.0000000000
11
1.0400641718
21
-13.5239635814
31
0.0000000000
0
SPLINE
5
288
100
AcDbEntity
8
0
100
AcDbSpline
62
7
6
CONTINUOUS
70
0
71
3
72
8
73
4
74
2
42
0.0000001000
43
0.0000001000
44
0.0000000001
12
-0.0089978856
22
-0.0030873274
32
0.0000000000
13
-0.0092374963
23
-0.0022685061
33
0.0000000000
40
0.0000000000
40
0.0000000000
40
0.0000000000
40
0.0000000000
40
1.0000000000
40
1.0000000000
40
1.0000000000
40
1.0000000000
10
-1.4509271721
20
-12.2348275840
30
0.0000000000
10
-1.4539264673
20
-12.2358566932
30
0.0000000000
10
-1.4569733033
20
-12.2367490114
30
0.0000000000
10
-1.4600524688
20
-12.2375051801
30
0.0000000000
11
-1.4509271721
21
-12.2348275840
31
0.0000000000
11
-1.4600524688
21
-12.2375051801
31
0.0000000000
0
SPLINE
5
289
100
AcDbEntity
8
0
100
AcDbSpline
62
7
6
CONTINUOUS
70
0
71
3
72
9
73
5
74
3
42
0.0000001000
43
0.0000001000
44
0.0000000001
12
-0.0080954142
22
-0.0019880383
32
0.0000000000
13
-0.0082151952
23
-0.0013642765
33
0.0000000000
40
0.0000000000
40
0.0000000000
40
0.0000000000
40
0.0000000000
40
0.6253219618
40
1.0000000000
40
1.0000000000
40
1.0000000000
40
1.0000000000
10
-1.4600524688
20
-12.2375051801
30
0.0000000000
10
-1.4617398822
20
-12.2379195681
30
0.0000000000
10
-1.4644538800
20
-12.2385168608
30
0.0000000000
10
-1.4671863050
20
-12.2390098587
30
0.0000000000
10
-1.4682123228
20
-12.2391802468
30
0.0000000000
11
-1.4600524688
21
-12.2375051801
31
0.0000000000
11
-1.4651413326
21
-12.2386257864
31
0.0000000000
11
-1.4682123228
21
-12.2391802468
31
0.0000000000
0
SPLINE
5
28A
100
AcDbEntity
8
0
100
AcDbSpline
62
7
6
CONTINUOUS
70
0
71
3
72
8
73
4
74
2
42
0.0000001000
43
0.0000001000
44
0.0000000001
12
-0.0155748930
22
-0.0025864826
32
0.0000000000
13
-0.0157831519
23
-0.0005075447
33
0.0000000000
40
0.0000000000
40
0.0000000000
40
0.0000000000
40
0.0000000000
40
1.0000000000
40
1.0000000000
40
1.0000000000
40
1.0000000000
10
-1.4682123228
20
-12.2391802468
30
0.0000000000
10
-1.4734039538
20
-12.2400424077
30
0.0000000000
10
-1.4786528877
20
-12.2405377403
30
0.0000000000
10
-1.4839139383
20
-12.2407069219
30
0.0000000000
11
-1.4682123228
21
-12.2391802468
31
0.0000000000
11
-1.4839139383
21
-12.2407069219
31
0.0000000000
0
SPLINE
5
28B
100
AcDbEntity
8
0
100
AcDbSpline
62
7
6
CONTINUOUS
70
0
71
3
72
8
73
4
74
2
42
0.0000001000
43
0.0000001000
44
0.0000000001
12
-0.0085760905
22
-0.0002757845
32
0.0000000000
13
-0.0085758076
23
0.0002824163
33
0.0000000000
40
0.0000000000
40
0.0000000000
40
0.0000000000
40
0.0000000000
40
1.0000000000
40
1.0000000000
40
1.0000000000
40
1.0000000000
10
-1.4839139383
20
-12.2407069219
30
0.0000000000
10
-1.4867726351
20
-12.2407988501
30
0.0000000000
10
-1.4896349095
20
-12.2407944819
30
0.0000000000
10
-1.4924935120
20
-12.2407003431
30
0.0000000000
11
-1.4839139383
21
-12.2407069219
31
0.0000000000
11
-1.4924935120
21
-12.2407003431
31
0.0000000000
0
SPLINE
5
28C
100
AcDbEntity
8
0
100
AcDbSpline
62
7
6
CONTINUOUS
70
0
71
3
72
9
73
5
74
3
42
0.0000001000
43
0.0000001000
44
0.0000000001
12
-0.0134867721
22
0.0004441429
32
0.0000000000
13
-0.0133682782
23
0.0017019732
33
0.0000000000
40
0.0000000000
40
0.0000000000
40
0.0000000000
40
0.0000000000
40
0.3877326443
40
1.0000000000
40
1.0000000000
40
1.0000000000
40
1.0000000000
10
-1.4924935120
20
-12.2407003431
30
0.0000000000
10
-1.4942365993
20
-12.2406429402
30
0.0000000000
10
-1.4987286689
20
-12.2404088066
30
0.0000000000
10
-1.5032007247
20
-12.2399624907
30
0.0000000000
10
-1.5059290448
20
-12.2396151365
30
0.0000000000
11
-1.4924935120
21
-12.2407003431
31
0.0000000000
11
-1.4977170345
21
-12.2404294790
31
0.0000000000
11
-1.5059290448
21
-12.2396151365
31
0.0000000000
0
SPLINE
5
28D
100
AcDbEntity
8
0
100
AcDbSpline
62
7
6
CONTINUOUS
70
0
71
3
72
8
73
4
74
2
42
0.0000001000
43
0.0000001000
44
0.0000000001
12
-0.0117545041
22
0.0014965166
32
0.0000000000
13
-0.0116133804
23
0.0023648965
33
0.0000000000
40
0.0000000000
40
0.0000000000
40
0.0000000000
40
0.0000000000
40
1.0000000000
40
1.0000000000
40
1.0000000000
40
1.0000000000
10
-1.5059290448
20
-12.2396151365
30
0.0000000000
10
-1.5098472128
20
-12.2391162977
30
0.0000000000
10
-1.5137452235
20
-12.2384646556
30
0.0000000000
10
-1.5176163504
20
-12.2376763567
30
0.0000000000
11
-1.5059290448
21
-12.2396151365
31
0.0000000000
11
-1.5176163504
21
-12.2376763567
31
0.0000000000
0
SPLINE
5
28E
100
AcDbEntity
8
0
100
AcDbSpline
62
7
6
CONTINUOUS
70
0
71
3
72
8
73
4
74
2
42
0.0000001000
43
0.0000001000
44
0.0000000001
12
-0.0101535408
22
0.0020676213
32
0.0000000000
13
-0.0100167550
23
0.0026620069
33
0.0000000000
40
0.0000000000
40
0.0000000000
40
0.0000000000
40
0.0000000000
40
1.0000000000
40
1.0000000000
40
1.0000000000
40
1.0000000000
10
-1.5176163504
20
-12.2376763567
30
0.0000000000
10
-1.5210008639
20
-12.2369871496
30
0.0000000000
10
-1.5243648276
20
-12.2361934828
30
0.0000000000
10
-1.5277037459
20
-12.2353061472
30
0.0000000000
11
-1.5176163504
21
-12.2376763567
31
0.0000000000
11
-1.5277037459
21
-12.2353061472
31
0.0000000000
0
SPLINE
5
28F
100
AcDbEntity
8
0
100
AcDbSpline
62
7
6
CONTINUOUS
70
0
71
3
72
9
73
5
74
3
42
0.0000001000
43
0.0000001000
44
0.0000000001
12
-0.0158759693
22
0.0042191249
32
0.0000000000
13
-0.0154619042
23
0.0055215411
33
0.0000000000
40
0.0000000000
40
0.0000000000
40
0.0000000000
40
0.0000000000
40
0.3004946780
40
1.0000000000
40
1.0000000000
40
1.0000000000
40
1.0000000000
10
-1.5277037459
20
-12.2353061472
30
0.0000000000
10
-1.5292939607
20
-12.2348835390
30
0.0000000000
10
-1.5345670449
20
-12.2334064577
30
0.0000000000
10
-1.5397718359
20
-12.2317069867
30
0.0000000000
10
-1.5433770640
20
-12.2304195375
30
0.0000000000
11
-1.5277037459
21
-12.2353061472
31
0.0000000000
11
-1.5324568615
21
-12.2339757477
31
0.0000000000
11
-1.5433770640
21
-12.2304195375
31
0.0000000000
0
SPLINE
5
290
100
AcDbEntity
8
0
100
AcDbSpline
62
7
6
CONTINUOUS
70
0
71
3
72
8
73
4
74
2
42
0.0000001000
43
0.0000001000
44
0.0000000001
12
-0.0264519614
22
0.0094461582
32
0.0000000000
13
-0.0250824022
23
0.0125412011
33
0.0000000000
40
0.0000000000
40
0.0000000000
40
0.0000000000
40
0.0000000000
40
1.0000000000
40
1.0000000000
40
1.0000000000
40
1.0000000000
10
-1.5433770640
20
-12.2304195375
30
0.0000000000
10
-1.5521943844
20
-12.2272708182
30
0.0000000000
10
-1.5607990581
20
-12.2235319664
30
0.0000000000
10
-1.5691598589
20
-12.2193515661
30
0.0000000000
11
-1.5433770640
21
-12.2304195375
31
0.0000000000
11
-1.5691598589
21
-12.2193515661
31
0.0000000000
0
SPLINE
5
291
100
AcDbEntity
8
0
100
AcDbSpline
62
7
6
CONTINUOUS
70
0
71
3
72
9
73
5
74
3
42
0.0000001000
43
0.0000001000
44
0.0000000001
12
0.0373914235
22
0.1359707912
32
0.0000000000
13
0.0582866636
23
0.1285427908
33
0.0000000000
40
0.0000000000
40
0.0000000000
40
0.0000000000
40
0.0000000000
40
0.8072093942
40
1.0000000000
40
1.0000000000
40
1.0000000000
40
1.0000000000
10
-1.7759296420
20
-8.7927326559
30
0.0000000000
10
-1.7658687393
20
-8.7561470225
30
0.0000000000
10
-1.7508646455
20
-8.7114508983
30
0.0000000000
10
-1.7321623869
20
-8.6682722888
30
0.0000000000
10
-1.7284166799
20
-8.6600116747
30
0.0000000000
11
-1.7759296420
21
-8.7927326559
31
0.0000000000
11
-1.7392361723
21
-8.6849775527
31
0.0000000000
11
-1.7284166799
21
-8.6600116747
31
0.0000000000
0
SPLINE
5
292
100
AcDbEntity
8
0
100
AcDbSpline
62
7
6
CONTINUOUS
70
0
71
3
72
11
73
7
74
5
42
0.0000001000
43
0.0000001000
44
0.0000000001
12
0.1465415432
22
0.3231761397
32
0.0000000000
13
0.2936990651
23
0.1993847475
33
0.0000000000
40
0.0000000000
40
0.0000000000
40
0.0000000000
40
0.0000000000
40
0.2253061705
40
0.5146305312
40
0.7939483898
40
1.0000000000
40
1.0000000000
40
1.0000000000
40
1.0000000000
10
-1.7284166799
20
-8.6600116747
30
0.0000000000
10
-1.7174111086
20
-8.6357404819
30
0.0000000000
10
-1.6895105074
20
-8.5815600882
30
0.0000000000
10
-1.6361950084
20
-8.5039208278
30
0.0000000000
10
-1.5729859040
20
-8.4371241149
30
0.0000000000
10
-1.5276039172
20
-8.4017160277
30
0.0000000000
10
-1.5074315288
20
-8.3880215117
30
0.0000000000
11
-1.7284166799
21
-8.6600116747
31
0.0000000000
11
-1.6917050913
21
-8.5890388799
31
0.0000000000
11
-1.6333973643
21
-8.5046448258
31
0.0000000000
11
-1.5650939196
21
-8.4329402911
31
0.0000000000
11
-1.5074315288
21
-8.3880215117
31
0.0000000000
0
SPLINE
5
293
100
AcDbEntity
8
0
100
AcDbSpline
62
7
6
CONTINUOUS
70
0
71
3
72
19
73
15
74
13
42
0.0000001000
43
0.0000001000
44
0.0000000001
12
-0.4587670814
22
0.2293835284
32
0.0000000000
13
0.1202583181
23
0.4986200709
33
0.0000000000
40
0.0000000000
40
0.0000000000
40
0.0000000000
40
0.0000000000
40
0.0748426907
40
0.1545070201
40
0.2396335276
40
0.3284990873
40
0.4197735323
40
0.5117010736
40
0.6022896349
40
0.6907101106
40
0.7762993215
40
0.8570810730
40
0.9312583014
40
1.0000000000
40
1.0000000000
40
1.0000000000
40
1.0000000000
10
-2.2409113011
20
-11.8834758342
30
0.0000000000
10
-2.2523564220
20
-11.8777532740
30
0.0000000000
10
-2.2751282541
20
-11.8641828375
30
0.0000000000
10
-2.3075968229
20
-11.8390655142
30
0.0000000000
10
-2.3389257274
20
-11.8089646059
30
0.0000000000
10
-2.3684392986
20
-11.7744394600
30
0.0000000000
10
-2.3953078234
20
-11.7363892745
30
0.0000000000
10
-2.4187965142
20
-11.6958255372
30
0.0000000000
10
-2.4383380929
20
-11.6537559391
30
0.0000000000
10
-2.4535219178
20
-11.6110672144
30
0.0000000000
10
-2.4639626360
20
-11.5686924501
30
0.0000000000
10
-2.4693147247
20
-11.5278146157
30
0.0000000000
10
-2.4694644470
20
-11.4894627873
30
0.0000000000
10
-2.4659409224
20
-11.4651504380
30
0.0000000000
10
-2.4631853354
20
-11.4537251078
30
0.0000000000
11
-2.2409113011
21
-11.8834758342
31
0.0000000000
11
-2.2739865242
21
-11.8639905576
31
0.0000000000
11
-2.3063952360
21
-11.8391045504
31
0.0000000000
11
-2.3379537602
21
-11.8089299934
31
0.0000000000
11
-2.3676231605
21
-11.7743276176
31
0.0000000000
11
-2.3946536989
21
-11.7361031554
31
0.0000000000
11
-2.4182786972
21
-11.6952975603
31
0.0000000000
11
-2.4378186722
21
-11.6531415095
31
0.0000000000
11
-2.4529472315
21
-11.6103867999
31
0.0000000000
11
-2.4633350192
21
-11.5677333192
31
0.0000000000
11
-2.4685528767
21
-11.5266288280
31
0.0000000000
11
-2.4684931585
21
-11.4885820997
31
0.0000000000
11
-2.4631853354
21
-11.4537251078
31
0.0000000000
0
SPLINE
5
294
100
AcDbEntity
8
0
100
AcDbSpline
62
9
6
CONTINUOUS
70
0
71
3
72
10
73
6
74
4
42
0.0000001000
43
0.0000001000
44
0.0000000001
12
0.0294125918
22
-0.2369498140
32
0.0000000000
13
0.2109390567
23
-0.1063401399
33
0.0000000000
40
0.0000000000
40
0.0000000000
40
0.0000000000
40
0.0000000000
40
0.1202505840
40
0.5251863785
40
1.0000000000
40
1.0000000000
40
1.0000000000
40
1.0000000000
10
-7.5633685678
20
-14.3185029893
30
0.0000000000
10
-7.5621896074
20
-14.3280007738
30
0.0000000000
10
-7.5537291806
20
-14.3689840016
30
0.0000000000
10
-7.5093020050
20
-14.4377686140
30
0.0000000000
10
-7.4506264567
20
-14.4772214940
30
0.0000000000
10
-7.4172408776
20
-14.4940520763
30
0.0000000000
11
-7.5633685678
21
-14.3185029893
31
0.0000000000
11
-7.5575355956
21
-14.3465137124
31
0.0000000000
11
-7.5082559282
21
-14.4285001952
31
0.0000000000
11
-7.4172408776
21
-14.4940520763
31
0.0000000000
0
SPLINE
5
295
100
AcDbEntity
8
0
100
AcDbSpline
62
7
6
CONTINUOUS
70
0
71
3
72
8
73
4
74
2
42
0.0000001000
43
0.0000001000
44
0.0000000001
12
-0.0202942740
22
0.0789723860
32
0.0000000000
13
-0.0248989631
23
0.0777084420
33
0.0000000000
40
0.0000000000
40
0.0000000000
40
0.0000000000
40
0.0000000000
40
1.0000000000
40
1.0000000000
40
1.0000000000
40
1.0000000000
10
-0.1242100500
20
-9.7725198088
30
0.0000000000
10
-0.1309748080
20
-9.7461956802
30
0.0000000000
10
-0.1385328273
20
-9.7200636042
30
0.0000000000
10
-0.1468324817
20
-9.6941607902
30
0.0000000000
11
-0.1242100500
21
-9.7725198088
31
0.0000000000
11
-0.1468324817
21
-9.6941607902
31
0.0000000000
0
SPLINE
5
296
100
AcDbEntity
8
0
100
AcDbSpline
62
7
6
CONTINUOUS
70
0
71
3
72
16
73
12
74
10
42
0.0000001000
43
0.0000001000
44
0.0000000001
12
-0.4126164234
22
1.2877556115
32
0.0000000000
13
-1.3254948507
23
-0.2695126454
33
0.0000000000
40
0.0000000000
40
0.0000000000
40
0.0000000000
40
0.0000000000
40
0.0788647347
40
0.2220513047
40
0.3647115548
40
0.5028546367
40
0.6329532065
40
0.7523612696
40
0.8598161819
40
0.9560239305
40
1.0000000000
40
1.0000000000
40
1.0000000000
40
1.0000000000
10
-0.1468324817
20
-9.6941607902
30
0.0000000000
10
-0.1576794433
20
-9.6603079554
30
0.0000000000
10
-0.1917867354
20
-9.5660945684
30
0.0000000000
10
-0.2628001287
20
-9.4175326355
30
0.0000000000
10
-0.3660023128
20
-9.2562505096
30
0.0000000000
10
-0.4852512428
20
-9.1139967011
30
0.0000000000
10
-0.6156069521
20
-8.9968516686
30
0.0000000000
10
-0.7518434322
20
-8.9098407869
30
0.0000000000
10
-0.8885508388
20
-8.8568035072
30
0.0000000000
10
-1.0009507639
20
-8.8433503950
30
0.0000000000
10
-1.0639035132
20
-8.8508046373
30
0.0000000000
10
-1.0833335311
20
-8.8547553396
30
0.0000000000
11
-0.1468324817
21
-9.6941607902
31
0.0000000000
11
-0.1830583338
21
-9.5938601069
31
0.0000000000
11
-0.2663953392
21
-9.4192511973
31
0.0000000000
11
-0.3704941718
21
-9.2570104057
31
0.0000000000
11
-0.4908626549
21
-9.1143424138
31
0.0000000000
11
-0.6222805570
21
-8.9975853507
31
0.0000000000
11
-0.7590133231
21
-8.9119292470
31
0.0000000000
11
-0.8950526743
21
-8.8611844645
31
0.0000000000
11
-1.0243401851
21
-8.8476108148
31
0.0000000000
11
-1.0833335311
21
-8.8547553396
31
0.0000000000
0
SPLINE
5
297
100
AcDbEntity
8
0
100
AcDbSpline
62
7
6
CONTINUOUS
70
0
71
3
72
9
73
5
74
3
42
0.0000001000
43
0.0000001000
44
0.0000000001
12
-0.0445998730
22
-0.0090684847
32
0.0000000000
13
-0.0430513639
23
-0.0147900832
33
0.0000000000
40
0.0000000000
40
0.0000000000
40
0.0000000000
40
0.0000000000
40
0.0288035713
40
1.0000000000
40
1.0000000000
40
1.0000000000
40
1.0000000000
10
-1.0833335311
20
-8.8547553396
30
0.0000000000
10
-1.0837617430
20
-8.8548424078
30
0.0000000000
10
-1.0986229975
20
-8.8578924234
30
0.0000000000
10
-1.1132945735
20
-8.8618879941
30
0.0000000000
10
-1.1272316838
20
-8.8666760194
30
0.0000000000
11
-1.0833335311
21
-8.8547553396
31
0.0000000000
11
-1.0846177000
21
-8.8550188950
31
0.0000000000
11
-1.1272316838
21
-8.8666760194
31
0.0000000000
0
SPLINE
5
298
100
AcDbEntity
8
0
100
AcDbSpline
62
9
6
CONTINUOUS
70
0
71
3
72
10
73
6
74
4
42
0.0000001000
43
0.0000001000
44
0.0000000001
12
-0.0200230723
22
-0.2350703790
32
0.0000000000
13
0.2084488119
23
-0.1031234924
33
0.0000000000
40
0.0000000000
40
0.0000000000
40
0.0000000000
40
0.0000000000
40
0.1896382897
40
0.5348853254
40
1.0000000000
40
1.0000000000
40
1.0000000000
40
1.0000000000
10
-7.5639306595
20
22.2960777133
30
0.0000000000
10
-7.5651963732
20
22.2812182651
30
0.0000000000
10
-7.5583875076
20
22.2375095090
30
0.0000000000
10
-7.5032814788
20
22.1785564002
30
0.0000000000
10
-7.4495411381
20
22.1459022845
30
0.0000000000
10
-7.4172236043
20
22.1299142013
30
0.0000000000
11
-7.5639306595
21
22.2960777133
31
0.0000000000
11
-7.5575191875
21
22.2517557099
31
0.0000000000
11
-7.5082379704
21
22.1883672706
31
0.0000000000
11
-7.4172236043
21
22.1299142013
31
0.0000000000
0
SPLINE
5
299
100
AcDbEntity
8
0
100
AcDbSpline
62
9
6
CONTINUOUS
70
0
71
3
72
10
73
6
74
4
42
0.0000001000
43
0.0000001000
44
0.0000000001
12
0.2130840022
22
0.1205676678
32
0.0000000000
13
0.2191848277
23
-0.1038238002
33
0.0000000000
40
0.0000000000
40
0.0000000000
40
0.0000000000
40
0.0000000000
40
0.1065267860
40
0.5212692021
40
1.0000000000
40
1.0000000000
40
1.0000000000
40
1.0000000000
10
-6.9801851307
20
23.2199721071
30
0.0000000000
10
-6.9726187461
20
23.2242533358
30
0.0000000000
10
-6.9342437917
20
23.2426673201
30
0.0000000000
10
-6.8506742639
20
23.2511370245
30
0.0000000000
10
-6.7803622871
20
23.2285391245
30
0.0000000000
10
-6.7453854446
20
23.2119712409
30
0.0000000000
11
-6.9801851307
21
23.2199721071
31
0.0000000000
11
-6.9567174668
21
23.2311948722
31
0.0000000000
11
-6.8569601638
21
23.2440952279
31
0.0000000000
11
-6.7453854446
21
23.2119712409
31
0.0000000000
0
SPLINE
5
29A
100
AcDbEntity
8
0
100
AcDbSpline
62
9
6
CONTINUOUS
70
0
71
3
72
8
73
4
74
2
42
0.0000001000
43
0.0000001000
44
0.0000000001
12
-0.0242751717
22
0.1906533926
32
0.0000000000
13
-0.0238179504
23
0.1907133473
33
0.0000000000
40
0.0000000000
40
0.0000000000
40
0.0000000000
40
0.0000000000
40
1.0000000000
40
1.0000000000
40
1.0000000000
40
1.0000000000
10
-7.4172409041
20
-14.4940520945
30
0.0000000000
10
-7.4253326280
20
-14.4305009636
30
0.0000000000
10
-7.4333480197
20
-14.3669397213
30
0.0000000000
10
-7.4412873365
20
-14.3033686055
30
0.0000000000
11
-7.4172409041
21
-14.4940520945
31
0.0000000000
11
-7.4412873365
21
-14.3033686055
31
0.0000000000
0
SPLINE
5
29B
100
AcDbEntity
8
0
100
AcDbSpline
62
9
6
CONTINUOUS
70
0
71
3
72
10
73
6
74
4
42
0.0000001000
43
0.0000001000
44
0.0000000001
12
-1.1853497096
22
9.4912453530
32
0.0000000000
13
-0.1456904844
23
9.5637543933
33
0.0000000000
40
0.0000000000
40
0.0000000000
40
0.0000000000
40
0.0000000000
40
0.3131110670
40
0.6531988392
40
1.0000000000
40
1.0000000000
40
1.0000000000
40
1.0000000000
10
-7.4412873365
20
-14.3033686055
30
0.0000000000
10
-7.5650027073
20
-13.3127639523
30
0.0000000000
10
-7.7845561527
20
-11.2412056809
30
0.0000000000
10
-8.0040889183
20
-8.0598275250
30
0.0000000000
10
-8.0753969458
20
-5.8704328868
30
0.0000000000
10
-8.0922388222
20
-4.7648591783
30
0.0000000000
11
-7.4412873365
21
-14.3033686055
31
0.0000000000
11
-7.7579901095
21
-11.3252629248
31
0.0000000000
11
-7.9831299972
21
-8.0801701935
31
0.0000000000
11
-8.0922388222
21
-4.7648591783
31
0.0000000000
0
SPLINE
5
29C
100
AcDbEntity
8
0
100
AcDbSpline
62
9
6
CONTINUOUS
70
0
71
3
72
10
73
6
74
4
42
0.0000001000
43
0.0000001000
44
0.0000000001
12
-0.2506073643
22
16.4531307017
32
0.0000000000
13
0.2466495822
23
16.4531905089
33
0.0000000000
40
0.0000000000
40
0.0000000000
40
0.0000000000
40
0.0000000000
40
0.3315672086
40
0.6648950414
40
1.0000000000
40
1.0000000000
40
1.0000000000
40
1.0000000000
10
-8.0922388222
20
-4.7648591783
30
0.0000000000
10
-8.1199365503
20
-2.9464196386
30
0.0000000000
10
-8.1567663905
20
0.7004280274
30
0.0000000000
10
-8.1566198146
20
6.1855245185
30
0.0000000000
10
-8.1197899882
20
9.8517749187
30
0.0000000000
10
-8.0922388222
20
11.6896234936
30
0.0000000000
11
-8.0922388222
21
-4.7648591783
31
0.0000000000
11
-8.1474858682
21
0.6908125016
31
0.0000000000
11
-8.1474858761
21
6.1757350453
31
0.0000000000
11
-8.0922388222
21
11.6896234936
31
0.0000000000
0
SPLINE
5
29D
100
AcDbEntity
8
0
100
AcDbSpline
62
9
6
CONTINUOUS
70
0
71
3
72
10
73
6
74
4
42
0.0000001000
43
0.0000001000
44
0.0000000001
12
0.1568950898
22
10.4645327879
32
0.0000000000
13
1.1676215138
23
10.4003712692
33
0.0000000000
40
0.0000000000
40
0.0000000000
40
0.0000000000
40
0.0000000000
40
0.3279270539
40
0.6613532990
40
1.0000000000
40
1.0000000000
40
1.0000000000
40
1.0000000000
10
-8.0922388222
20
11.6896234936
30
0.0000000000
10
-8.0750887740
20
12.8334912960
30
0.0000000000
10
-8.0010650643
20
15.1399941116
30
0.0000000000
10
-7.7750503369
20
18.6217777086
30
0.0000000000
10
-7.5490446287
20
20.9558915937
30
0.0000000000
10
-7.4172409041
20
22.1299087334
30
0.0000000000
11
-8.0922388222
21
11.6896234936
31
0.0000000000
11
-7.9831299960
21
15.1198777590
31
0.0000000000
11
-7.7579901093
21
18.6021493632
31
0.0000000000
11
-7.4172409041
21
22.1299087334
31
0.0000000000
0
SPLINE
5
29E
100
AcDbEntity
8
0
100
AcDbSpline
62
9
6
CONTINUOUS
70
0
71
3
72
13
73
9
74
7
42
0.0000001000
43
0.0000001000
44
0.0000000001
12
0.1489049414
22
1.3074921753
32
0.0000000000
13
1.1550260253
23
0.6305738267
33
0.0000000000
40
0.0000000000
40
0.0000000000
40
0.0000000000
40
0.0000000000
40
0.1671007077
40
0.3416549428
40
0.5178643983
40
0.6897599595
40
0.8518793659
40
1.0000000000
40
1.0000000000
40
1.0000000000
40
1.0000000000
10
-7.4172409041
20
22.1299087334
30
0.0000000000
10
-7.4089468638
20
22.2027363560
30
0.0000000000
10
-7.3791902650
20
22.3503630979
30
0.0000000000
10
-7.3020482602
20
22.5647735413
30
0.0000000000
10
-7.1949814910
20
22.7683459034
30
0.0000000000
10
-7.0634991728
20
22.9504683952
30
0.0000000000
10
-6.9144543265
20
23.1017037559
30
0.0000000000
10
-6.8024131737
20
23.1808375759
30
0.0000000000
10
-6.7453854446
20
23.2119712409
30
0.0000000000
11
-7.4172409041
21
22.1299087334
31
0.0000000000
11
-7.3747832469
21
22.3456660758
31
0.0000000000
11
-7.2974400766
21
22.5619570206
31
0.0000000000
11
-7.1893841945
21
22.7671230019
31
0.0000000000
11
-7.0564293834
21
22.9501303391
31
0.0000000000
11
-6.9057207806
21
23.1011299902
31
0.0000000000
11
-6.7453854446
21
23.2119712409
31
0.0000000000
0
SPLINE
5
29F
100
AcDbEntity
8
0
100
AcDbSpline
62
9
6
CONTINUOUS
70
0
71
3
72
12
73
8
74
6
42
0.0000001000
43
0.0000001000
44
0.0000000001
12
-0.0162126976
22
0.7317494025
32
0.0000000000
13
-0.6473188126
23
0.3416114672
33
0.0000000000
40
0.0000000000
40
0.0000000000
40
0.0000000000
40
0.0000000000
40
0.1947688125
40
0.4051365035
40
0.6180979655
40
0.8201121020
40
1.0000000000
40
1.0000000000
40
1.0000000000
40
1.0000000000
10
8.3106282397
20
15.2511000796
30
0.0000000000
10
8.3095756637
20
15.2986074003
30
0.0000000000
10
8.2945959814
20
15.3972808838
30
0.0000000000
10
8.2433165947
20
15.5398943551
30
0.0000000000
10
8.1665812623
20
15.6727815044
30
0.0000000000
10
8.0715738912
20
15.7835681665
30
0.0000000000
10
7.9960109465
20
15.8401965959
30
0.0000000000
10
7.9571960063
20
15.8606805188
30
0.0000000000
11
8.3106282397
21
15.2511000796
31
0.0000000000
11
8.2908665874
21
15.3922806662
31
0.0000000000
11
8.2393767676
21
15.5373904729
31
0.0000000000
11
8.1611937931
21
15.6722374631
31
0.0000000000
11
8.0639637336
21
15.7836326861
31
0.0000000000
11
7.9571960063
21
15.8606805188
31
0.0000000000
0
SPLINE
5
2A0
100
AcDbEntity
8
0
100
AcDbSpline
62
9
6
CONTINUOUS
70
0
71
3
72
13
73
9
74
7
42
0.0000001000
43
0.0000001000
44
0.0000000001
12
-1.1715812596
22
-0.6078998242
32
0.0000000000
13
-0.1535091401
23
-1.3109461423
33
0.0000000000
40
0.0000000000
40
0.0000000000
40
0.0000000000
40
0.0000000000
40
0.1494443584
40
0.3121770268
40
0.4840722488
40
0.6598211597
40
0.8336518879
40
1.0000000000
40
1.0000000000
40
1.0000000000
40
1.0000000000
10
7.9571960030
20
15.8606805171
30
0.0000000000
10
7.8988339331
20
15.8303981174
30
0.0000000000
10
7.7840469575
20
15.7529958266
30
0.0000000000
10
7.6309125884
20
15.6037129076
30
0.0000000000
10
7.4958277499
20
15.4232751987
30
0.0000000000
10
7.3858328588
20
15.2210313504
30
0.0000000000
10
7.3065811578
20
15.0075270062
30
0.0000000000
10
7.2760259719
20
14.8602224266
30
0.0000000000
10
7.2675139867
20
14.7875312880
30
0.0000000000
11
7.9571960030
21
15.8606805171
31
0.0000000000
11
7.7926068640
21
15.7519661678
31
0.0000000000
11
7.6379001626
21
15.6029655661
31
0.0000000000
11
7.5014158913
21
15.4217229590
31
0.0000000000
11
7.3904928849
21
15.2179905399
31
0.0000000000
11
7.3110979600
21
15.0027254724
31
0.0000000000
11
7.2675139867
21
14.7875312880
31
0.0000000000
0
SPLINE
5
2A1
100
AcDbEntity
8
0
100
AcDbSpline
62
9
6
CONTINUOUS
70
0
71
3
72
13
73
9
74
7
42
0.0000001000
43
0.0000001000
44
0.0000000001
12
-0.5897805140
22
-0.2984622275
32
0.0000000000
13
-0.0779392342
23
-0.6563887809
33
0.0000000000
40
0.0000000000
40
0.0000000000
40
0.0000000000
40
0.0000000000
40
0.1494467972
40
0.3128225099
40
0.4852159297
40
0.6611163321
40
0.8348137313
40
1.0000000000
40
1.0000000000
40
1.0000000000
40
1.0000000000
10
8.3106282397
20
15.2511000796
30
0.0000000000
10
8.2812479700
20
15.2362320049
30
0.0000000000
10
8.2232142213
20
15.1980440284
30
0.0000000000
10
8.1455631014
20
15.1238999234
30
0.0000000000
10
8.0769487750
20
15.0338955256
30
0.0000000000
10
8.0211314028
20
14.9328711236
30
0.0000000000
10
7.9810418746
20
14.8263551970
30
0.0000000000
10
7.9656220894
20
14.7528959224
30
0.0000000000
10
7.9613305923
20
14.7167537846
30
0.0000000000
11
8.3106282397
21
15.2511000796
31
0.0000000000
11
8.2276176115
21
15.1975503401
31
0.0000000000
11
8.1490679381
21
15.1234418174
31
0.0000000000
11
8.0797372086
21
15.0330077945
31
0.0000000000
11
8.0234673488
21
14.9312608200
31
0.0000000000
11
7.9832613745
21
14.8237167710
31
0.0000000000
11
7.9613305923
21
14.7167537846
31
0.0000000000
0
SPLINE
5
2A2
100
AcDbEntity
8
0
100
AcDbSpline
62
9
6
CONTINUOUS
70
0
71
3
72
12
73
8
74
6
42
0.0000001000
43
0.0000001000
44
0.0000000001
12
-0.6810654736
22
-0.2011035555
32
0.0000000000
13
-0.6338189689
23
0.3202597916
33
0.0000000000
40
0.0000000000
40
0.0000000000
40
0.0000000000
40
0.0000000000
40
0.1796434702
40
0.3854501155
40
0.6019884943
40
0.8122092966
40
1.0000000000
40
1.0000000000
40
1.0000000000
40
1.0000000000
10
7.9613305923
20
14.7167537846
30
0.0000000000
10
7.9205476040
20
14.7047114710
30
0.0000000000
10
7.8300140132
20
14.6891532623
30
0.0000000000
10
7.6872211743
20
14.6859008442
30
0.0000000000
10
7.5378542190
20
14.7012323268
30
0.0000000000
10
7.3957293121
20
14.7337542462
30
0.0000000000
10
7.3071891059
20
14.7674840225
30
0.0000000000
10
7.2675140026
20
14.7875312930
30
0.0000000000
11
7.9613305923
21
14.7167537846
31
0.0000000000
11
7.8359645497
21
14.6931364083
31
0.0000000000
11
7.6898743945
21
14.6889313551
31
0.0000000000
11
7.5368966599
21
14.7045368951
31
0.0000000000
11
7.3915202172
21
14.7384749922
31
0.0000000000
11
7.2675140026
21
14.7875312930
31
0.0000000000
0
SPLINE
5
2A3
100
AcDbEntity
8
0
100
AcDbSpline
62
9
6
CONTINUOUS
70
0
71
3
72
10
73
6
74
4
42
0.0000001000
43
0.0000001000
44
0.0000000001
12
-1.2310774336
22
-10.3777460370
32
0.0000000000
13
-0.1651090145
23
-10.4492058775
33
0.0000000000
40
0.0000000000
40
0.0000000000
40
0.0000000000
40
0.0000000000
40
0.3384439932
40
0.6718567925
40
1.0000000000
40
1.0000000000
40
1.0000000000
40
1.0000000000
10
7.2675139867
20
14.7875312880
30
0.0000000000
10
7.1286303992
20
13.6167693515
30
0.0000000000
10
6.8904858217
20
11.2879884504
30
0.0000000000
10
6.6524070872
20
7.8120244240
30
0.0000000000
10
6.5744814635
20
5.5082385620
30
0.0000000000
10
6.5564216630
20
4.3652932510
30
0.0000000000
11
7.2675139867
21
14.7875312880
31
0.0000000000
11
6.9085437765
21
11.2688824203
31
0.0000000000
11
6.6713649026
21
7.7926303097
31
0.0000000000
11
6.5564216630
21
4.3652932510
31
0.0000000000
0
SPLINE
5
2A4
100
AcDbEntity
8
0
100
AcDbSpline
62
9
6
CONTINUOUS
70
0
71
3
72
10
73
6
74
4
42
0.0000001000
43
0.0000001000
44
0.0000000001
12
-1.2244129247
22
-10.3200288610
32
0.0000000000
13
-0.1642166672
23
-10.3911123364
33
0.0000000000
40
0.0000000000
40
0.0000000000
40
0.0000000000
40
0.0000000000
40
0.3384421671
40
0.6718599932
40
1.0000000000
40
1.0000000000
40
1.0000000000
40
1.0000000000
10
7.9613305923
20
14.7167537846
30
0.0000000000
10
7.8231996044
20
13.5525094738
30
0.0000000000
10
7.5863426209
20
11.2366680352
30
0.0000000000
10
7.3495533611
20
7.7800310055
30
0.0000000000
10
7.2720505387
20
5.4890470921
30
0.0000000000
10
7.2540885193
20
4.3524672011
30
0.0000000000
11
7.9613305923
21
14.7167537846
31
0.0000000000
11
7.6043051528
21
11.2176913814
31
0.0000000000
11
7.3684073433
21
7.7607159525
31
0.0000000000
11
7.2540885193
21
4.3524672011
31
0.0000000000
0
SPLINE
5
2A5
100
AcDbEntity
8
0
100
AcDbSpline
62
9
6
CONTINUOUS
70
0
71
3
72
12
73
8
74
6
42
0.0000001000
43
0.0000001000
44
0.0000000001
12
-0.6525136872
22
-0.2947967346
32
0.0000000000
13
-0.6402658447
23
0.3205290544
33
0.0000000000
40
0.0000000000
40
0.0000000000
40
0.0000000000
40
0.0000000000
40
0.1858728116
40
0.3932996248
40
0.6081648741
40
0.8150726663
40
1.0000000000
40
1.0000000000
40
1.0000000000
40
1.0000000000
10
7.2540885193
20
4.3524672011
30
0.0000000000
10
7.2136603347
20
4.3342023018
30
0.0000000000
10
7.1232599982
20
4.3061874233
30
0.0000000000
10
6.9788483502
20
4.2872372440
30
0.0000000000
10
6.8281093060
20
4.2899951246
30
0.0000000000
10
6.6848386684
20
4.3142056240
30
0.0000000000
10
6.5958892152
20
4.3455350567
30
0.0000000000
10
6.5564216633
20
4.3652932511
30
0.0000000000
11
7.2540885193
21
4.3524672011
31
0.0000000000
11
7.1275462746
21
4.3112426674
31
0.0000000000
11
6.9803988637
21
4.2910903524
31
0.0000000000
11
6.8265778521
21
4.2939182293
31
0.0000000000
11
6.6806466459
21
4.3194585614
31
0.0000000000
11
6.5564216633
21
4.3652932511
31
0.0000000000
0
SPLINE
5
2A6
100
AcDbEntity
8
0
100
AcDbSpline
62
9
6
CONTINUOUS
70
0
71
3
72
8
73
4
74
2
42
0.0000001000
43
0.0000001000
44
0.0000000001
12
-0.0238286353
22
-1.5078798966
32
0.0000000000
13
-0.0195174236
23
-1.5079474973
33
0.0000000000
40
0.0000000000
40
0.0000000000
40
0.0000000000
40
0.0000000000
40
1.0000000000
40
1.0000000000
40
1.0000000000
40
1.0000000000
10
6.5564216630
20
4.3652932510
30
0.0000000000
10
6.5484787846
20
3.8626666188
30
0.0000000000
10
6.5412529565
20
3.3600274900
30
0.0000000000
10
6.5347471486
20
2.8573783242
30
0.0000000000
11
6.5564216630
21
4.3652932510
31
0.0000000000
11
6.5347471486
21
2.8573783242
31
0.0000000000
0
SPLINE
5
2A7
100
AcDbEntity
8
0
100
AcDbSpline
62
9
6
CONTINUOUS
70
0
71
3
72
8
73
4
74
2
42
0.0000001000
43
0.0000001000
44
0.0000000001
12
-0.0040015634
22
-0.3091672124
32
0.0000000000
13
-0.0038198889
23
-0.3091696802
33
0.0000000000
40
0.0000000000
40
0.0000000000
40
0.0000000000
40
0.0000000000
40
1.0000000000
40
1.0000000000
40
1.0000000000
40
1.0000000000
10
6.5347471486
20
2.8573783242
30
0.0000000000
10
6.5334132941
20
2.7543225868
30
0.0000000000
10
6.5321097060
20
2.6512664274
30
0.0000000000
10
6.5308364097
20
2.5482098673
30
0.0000000000
11
6.5347471486
21
2.8573783242
31
0.0000000000
11
6.5308364097
21
2.5482098673
31
0.0000000000
0
SPLINE
5
2A8
100
AcDbEntity
8
0
100
AcDbSpline
62
9
6
CONTINUOUS
70
0
71
3
72
8
73
4
74
2
42
0.0000001000
43
0.0000001000
44
0.0000000001
12
-0.0002889171
22
-0.0233840353
32
0.0000000000
13
-0.0002878774
23
-0.0233840491
33
0.0000000000
40
0.0000000000
40
0.0000000000
40
0.0000000000
40
0.0000000000
40
1.0000000000
40
1.0000000000
40
1.0000000000
40
1.0000000000
10
6.5308364097
20
2.5482098673
30
0.0000000000
10
6.5307401040
20
2.5404151889
30
0.0000000000
10
6.5306439716
20
2.5326205082
30
0.0000000000
10
6.5305480124
20
2.5248258252
30
0.0000000000
11
6.5308364097
21
2.5482098673
31
0.0000000000
11
6.5305480124
21
2.5248258252
31
0.0000000000
0
SPLINE
5
2A9
100
AcDbEntity
8
0
100
AcDbSpline
62
9
6
CONTINUOUS
70
0
71
3
72
8
73
4
74
2
42
0.0000001000
43
0.0000001000
44
0.0000000001
12
-0.0042366727
22
-0.3441415534
32
0.0000000000
13
-0.0040113581
23
-0.3441444327
33
0.0000000000
40
0.0000000000
40
0.0000000000
40
0.0000000000
40
0.0000000000
40
1.0000000000
40
1.0000000000
40
1.0000000000
40
1.0000000000
10
6.5305480124
20
2.5248258252
30
0.0000000000
10
6.5291357882
20
2.4101119740
30
0.0000000000
10
6.5277610988
20
2.2953976284
30
0.0000000000
10
6.5264239794
20
2.1806828175
30
0.0000000000
11
6.5305480124
21
2.5248258252
31
0.0000000000
11
6.5264239794
21
2.1806828175
31
0.0000000000
0
SPLINE
5
2AA
100
AcDbEntity
8
0
100
AcDbSpline
62
9
6
CONTINUOUS
70
0
71
3
72
8
73
4
74
2
42
0.0000001000
43
0.0000001000
44
0.0000000001
12
-0.0036040211
22
-0.3091979785
32
0.0000000000
13
-0.0034219805
23
-0.3092001684
33
0.0000000000
40
0.0000000000
40
0.0000000000
40
0.0000000000
40
0.0000000000
40
1.0000000000
40
1.0000000000
40
1.0000000000
40
1.0000000000
10
6.5264239794
20
2.1806828175
30
0.0000000000
10
6.5252226390
20
2.0776168247
30
0.0000000000
10
6.5240516259
20
1.9745504562
30
0.0000000000
10
6.5229109658
20
1.8714837335
30
0.0000000000
11
6.5264239794
21
2.1806828175
31
0.0000000000
11
6.5229109658
21
1.8714837335
31
0.0000000000
0
SPLINE
5
2AB
100
AcDbEntity
8
0
100
AcDbSpline
62
9
6
CONTINUOUS
70
0
71
3
72
8
73
4
74
2
42
0.0000001000
43
0.0000001000
44
0.0000000001
12
-0.0041923211
22
-0.3788058986
32
0.0000000000
13
-0.0039188383
23
-0.3788089730
33
0.0000000000
40
0.0000000000
40
0.0000000000
40
0.0000000000
40
0.0000000000
40
1.0000000000
40
1.0000000000
40
1.0000000000
40
1.0000000000
10
6.5229109658
20
1.8714837335
30
0.0000000000
10
6.5215135254
20
1.7452151006
30
0.0000000000
10
6.5201616420
20
1.6189459358
30
0.0000000000
10
6.5188553626
20
1.4926762782
30
0.0000000000
11
6.5229109658
21
1.8714837335
31
0.0000000000
11
6.5188553626
21
1.4926762782
31
0.0000000000
0
SPLINE
5
2AC
100
AcDbEntity
8
0
100
AcDbSpline
62
9
6
CONTINUOUS
70
0
71
3
72
8
73
4
74
2
42
0.0000001000
43
0.0000001000
44
0.0000000001
12
-0.0126571870
22
-1.2234891232
32
0.0000000000
13
-0.0097980344
23
-1.2235160332
33
0.0000000000
40
0.0000000000
40
0.0000000000
40
0.0000000000
40
0.0000000000
40
1.0000000000
40
1.0000000000
40
1.0000000000
40
1.0000000000
10
6.5188553626
20
1.4926762782
30
0.0000000000
10
6.5146363002
20
1.0848465704
30
0.0000000000
10
6.5108929703
20
0.6770117209
30
0.0000000000
10
6.5076269588
20
0.2691730432
30
0.0000000000
11
6.5188553626
21
1.4926762782
31
0.0000000000
11
6.5076269588
21
0.2691730432
31
0.0000000000
0
SPLINE
5
2AD
100
AcDbEntity
8
0
100
AcDbSpline
62
9
6
CONTINUOUS
70
0
71
3
72
9
73
5
74
3
42
0.0000001000
43
0.0000001000
44
0.0000000001
12
-0.0464231093
22
-5.7970217197
32
0.0000000000
13
0.0183814641
23
-5.7971701665
33
0.0000000000
40
0.0000000000
40
0.0000000000
40
0.0000000000
40
0.0000000000
40
0.2443100762
40
1.0000000000
40
1.0000000000
40
1.0000000000
40
1.0000000000
10
6.5076269588
20
0.2691730432
30
0.0000000000
10
6.5038464143
20
-0.2029172296
30
0.0000000000
10
6.4909898669
20
-2.1352787984
30
0.0000000000
10
6.4888896984
20
-4.0676921717
30
0.0000000000
10
6.4935199274
20
-5.5279798654
30
0.0000000000
11
6.5076269588
21
0.2691730432
31
0.0000000000
11
6.4982064666
21
-1.1471111260
31
0.0000000000
11
6.4935199274
21
-5.5279798654
31
0.0000000000
0
SPLINE
5
2AE
100
AcDbEntity
8
0
100
AcDbSpline
62
9
6
CONTINUOUS
70
0
71
3
72
8
73
4
74
2
42
0.0000001000
43
0.0000001000
44
0.0000000001
12
0.0026364204
22
-0.8314777282
32
0.0000000000
13
0.0039817545
23
-0.8314729514
33
0.0000000000
40
0.0000000000
40
0.0000000000
40
0.0000000000
40
0.0000000000
40
1.0000000000
40
1.0000000000
40
1.0000000000
40
1.0000000000
10
6.4935199274
20
-5.5279798654
30
0.0000000000
10
6.4943987342
20
-5.8051391082
30
0.0000000000
10
6.4955015081
20
-6.0822977161
30
0.0000000000
10
6.4968287596
20
-6.3594553666
30
0.0000000000
11
6.4935199274
21
-5.5279798654
31
0.0000000000
11
6.4968287596
21
-6.3594553666
31
0.0000000000
0
SPLINE
5
2AF
100
AcDbEntity
8
0
100
AcDbSpline
62
9
6
CONTINUOUS
70
0
71
3
72
9
73
5
74
3
42
0.0000001000
43
0.0000001000
44
0.0000000001
12
0.0274398599
22
-5.7300119855
32
0.0000000000
13
0.0919172714
23
-5.7293092361
33
0.0000000000
40
0.0000000000
40
0.0000000000
40
0.0000000000
40
0.0000000000
40
0.0475703409
40
1.0000000000
40
1.0000000000
40
1.0000000000
40
1.0000000000
10
6.4968287596
20
-6.3594553666
30
0.0000000000
10
6.4972638674
20
-6.4503149077
30
0.0000000000
10
6.5069176231
20
-8.3603167397
30
0.0000000000
10
6.5272400845
20
-10.2702680733
30
0.0000000000
10
6.5564216630
20
-12.0891894209
30
0.0000000000
11
6.4968287596
21
-6.3594553666
31
0.0000000000
11
6.4982064749
21
-6.6320336699
31
0.0000000000
11
6.5564216630
21
-12.0891894209
31
0.0000000000
0
SPLINE
5
2B0
100
AcDbEntity
8
0
100
AcDbSpline
62
9
6
CONTINUOUS
70
0
71
3
72
10
73
6
74
4
42
0.0000001000
43
0.0000001000
44
0.0000000001
12
-0.2597498518
22
-16.4365931903
32
0.0000000000
13
0.2637034980
23
-16.4365302347
33
0.0000000000
40
0.0000000000
40
0.0000000000
40
0.0000000000
40
0.0000000000
40
0.3350152695
40
0.6683421257
40
1.0000000000
40
1.0000000000
40
1.0000000000
40
1.0000000000
10
7.2540885193
20
4.3524672011
30
0.0000000000
10
7.2250817971
20
2.5169639689
30
0.0000000000
10
7.1863108138
20
-1.1451247221
30
0.0000000000
10
7.1861643899
20
-6.6247657790
30
0.0000000000
10
7.2249354054
20
-10.2684594289
30
0.0000000000
10
7.2540885193
20
-12.0855609881
30
0.0000000000
11
7.2540885193
21
4.3524672011
31
0.0000000000
11
7.1959300594
21
-1.1544229506
31
0.0000000000
11
7.1959300791
21
-6.6338649748
31
0.0000000000
11
7.2540885193
21
-12.0855609881
31
0.0000000000
0
SPLINE
5
2B1
100
AcDbEntity
8
0
100
AcDbSpline
62
9
6
CONTINUOUS
70
0
71
3
72
12
73
8
74
6
42
0.0000001000
43
0.0000001000
44
0.0000000001
12
-0.6425686997
22
-0.3194711730
32
0.0000000000
13
-0.6419990204
23
0.3206144445
33
0.0000000000
40
0.0000000000
40
0.0000000000
40
0.0000000000
40
0.0000000000
40
0.1877386892
40
0.3956571461
40
0.6100134743
40
0.8159170750
40
1.0000000000
40
1.0000000000
40
1.0000000000
40
1.0000000000
10
7.2540885193
20
-12.0855609881
30
0.0000000000
10
7.2138768508
20
-12.1055533545
30
0.0000000000
10
7.1237778523
20
-12.1370682478
30
0.0000000000
10
6.9792031304
20
-12.1605192419
30
0.0000000000
10
6.8282980260
20
-12.1613584249
30
0.0000000000
10
6.6848345975
20
-12.1395205303
30
0.0000000000
10
6.5958153649
20
-12.1088626274
30
0.0000000000
10
6.5564216791
20
-12.0891894125
30
0.0000000000
11
7.2540885193
21
-12.0855609881
31
0.0000000000
11
7.1275462746
21
-12.1317899538
31
0.0000000000
11
6.9803988664
21
-12.1564728935
31
0.0000000000
11
6.8265778591
21
-12.1572728855
31
0.0000000000
11
6.6806466577
21
-12.1341141885
31
0.0000000000
11
6.5564216791
21
-12.0891894125
31
0.0000000000
0
SPLINE
5
2B2
100
AcDbEntity
8
0
100
AcDbSpline
62
9
6
CONTINUOUS
70
0
71
3
72
10
73
6
74
4
42
0.0000001000
43
0.0000001000
44
0.0000000001
12
0.1568366126
22
-9.7768225204
32
0.0000000000
13
1.2956053648
23
-9.6918658192
33
0.0000000000
40
0.0000000000
40
0.0000000000
40
0.0000000000
40
0.0000000000
40
0.3395572856
40
0.6729307170
40
1.0000000000
40
1.0000000000
40
1.0000000000
40
1.0000000000
10
6.5564216630
20
-12.0891894209
30
0.0000000000
10
6.5741733345
20
-13.1957865266
30
0.0000000000
10
6.6493849198
20
-15.3884360826
30
0.0000000000
10
6.8854020269
20
-18.6399797535
30
0.0000000000
10
7.1262630808
20
-20.7797923385
30
0.0000000000
10
7.2675139867
20
-21.8364295399
30
0.0000000000
11
6.5564216630
21
-12.0891894209
31
0.0000000000
11
6.6713649027
21
-15.4074176434
31
0.0000000000
11
6.9085437749
21
-18.6585298670
31
0.0000000000
11
7.2675139867
21
-21.8364295399
31
0.0000000000
0
SPLINE
5
2B3
100
AcDbEntity
8
0
100
AcDbSpline
62
9
6
CONTINUOUS
70
0
71
3
72
10
73
6
74
4
42
0.0000001000
43
0.0000001000
44
0.0000000001
12
0.1559898415
22
-9.7225650537
32
0.0000000000
13
1.2885805073
23
-9.6380581203
33
0.0000000000
40
0.0000000000
40
0.0000000000
40
0.0000000000
40
0.0000000000
40
0.3395548623
40
0.6729333109
40
1.0000000000
40
1.0000000000
40
1.0000000000
40
1.0000000000
10
7.2540885193
20
-12.0855609881
30
0.0000000000
10
7.2717442224
20
-13.1860090675
30
0.0000000000
10
7.3465488524
20
-15.3664985838
30
0.0000000000
10
7.5812886490
20
-18.5999954947
30
0.0000000000
10
7.8208466723
20
-20.7279373180
30
0.0000000000
10
7.9613305923
20
-21.7786999042
30
0.0000000000
11
7.2540885193
21
-12.0855609881
31
0.0000000000
11
7.3684087198
21
-15.3853504034
31
0.0000000000
11
7.6043074133
21
-18.6184666615
31
0.0000000000
11
7.9613305923
21
-21.7786999042
31
0.0000000000
0
SPLINE
5
2B4
100
AcDbEntity
8
0
100
AcDbSpline
62
9
6
CONTINUOUS
70
0
71
3
72
12
73
8
74
6
42
0.0000001000
43
0.0000001000
44
0.0000000001
12
-0.6044460146
22
-0.3951035452
32
0.0000000000
13
-0.6469519120
23
0.3208037088
33
0.0000000000
40
0.0000000000
40
0.0000000000
40
0.0000000000
40
0.0000000000
40
0.1941107554
40
0.4037108479
40
0.6162826690
40
0.8187146220
40
1.0000000000
40
1.0000000000
40
1.0000000000
40
1.0000000000
10
7.9613305922
20
-21.7786999042
30
0.0000000000
10
7.9222207681
20
-21.8042645200
30
0.0000000000
10
7.8339995069
20
-21.8471522326
30
0.0000000000
10
7.6899610382
20
-21.8855360611
30
0.0000000000
10
7.5393142096
20
-21.8982945472
30
0.0000000000
10
7.3956909056
20
-21.8842992143
30
0.0000000000
10
7.3066209563
20
-21.8558065516
30
0.0000000000
10
7.2675266490
20
-21.8364208777
30
0.0000000000
11
7.9613305922
21
-21.7786999042
31
0.0000000000
11
7.8359661005
21
-21.8414047331
31
0.0000000000
11
7.6898786278
21
-21.8809953082
31
0.0000000000
11
7.5369040877
21
-21.8937220144
31
0.0000000000
11
7.3915306660
21
-21.8783795084
31
0.0000000000
11
7.2675266490
21
-21.8364208777
31
0.0000000000
0
SPLINE
5
2B5
100
AcDbEntity
8
0
100
AcDbSpline
62
9
6
CONTINUOUS
70
0
71
3
72
11
73
7
74
5
42
0.0000001000
43
0.0000001000
44
0.0000000001
12
0.0665313364
22
-0.5031299790
32
0.0000000000
13
0.4562824622
23
-0.2280379046
33
0.0000000000
40
0.0000000000
40
0.0000000000
40
0.0000000000
40
0.0000000000
40
0.3510279013
40
0.6646043583
40
0.9532420445
40
1.0000000000
40
1.0000000000
40
1.0000000000
40
1.0000000000
10
7.2675139867
20
-21.8364295399
30
0.0000000000
10
7.2752987718
20
-21.8953004267
30
0.0000000000
10
7.3015152559
20
-22.0059276207
30
0.0000000000
10
7.3807905468
20
-22.1491986086
30
0.0000000000
10
7.4650850595
20
-22.2234566797
30
0.0000000000
10
7.5152868473
20
-22.2505358014
30
0.0000000000
10
7.5223984590
20
-22.2540899968
30
0.0000000000
11
7.2675139867
21
-21.8364295399
31
0.0000000000
11
7.3110979393
21
-22.0091660354
31
0.0000000000
11
7.3904939278
21
-22.1470892422
31
0.0000000000
11
7.5014184535
21
-22.2427659411
31
0.0000000000
11
7.5223984590
21
-22.2540899968
31
0.0000000000
0
SPLINE
5
2B6
100
AcDbEntity
8
0
100
AcDbSpline
62
9
6
CONTINUOUS
70
0
71
3
72
13
73
9
74
7
42
0.0000001000
43
0.0000001000
44
0.0000000001
12
0.0640194391
22
-0.4779039755
32
0.0000000000
13
0.4408378824
23
0.1953270586
33
0.0000000000
40
0.0000000000
40
0.0000000000
40
0.0000000000
40
0.0000000000
40
0.1844227095
40
0.3508641038
40
0.5048271869
40
0.6573240364
40
0.8201178858
40
1.0000000000
40
1.0000000000
40
1.0000000000
40
1.0000000000
10
7.9613305923
20
-21.7786999042
30
0.0000000000
10
7.9652661385
20
-21.8080786862
30
0.0000000000
10
7.9785473391
20
-21.8635394560
30
0.0000000000
10
8.0187047228
20
-21.9354884654
30
0.0000000000
10
8.0772155261
20
-21.9866947141
30
0.0000000000
10
8.1501592219
20
-22.0120412134
30
0.0000000000
10
8.2310886162
20
-22.0103039980
30
0.0000000000
10
8.2841952895
20
-21.9932870567
30
0.0000000000
10
8.3106282397
20
-21.9815751086
30
0.0000000000
11
7.9613305923
21
-21.7786999042
31
0.0000000000
11
7.9832696728
21
-21.8648746624
31
0.0000000000
11
8.0235172570
21
-21.9343063613
31
0.0000000000
11
8.0798503881
21
-21.9826559688
31
0.0000000000
11
8.1491479591
21
-22.0072422468
31
0.0000000000
11
8.2276414647
21
-22.0067947519
31
0.0000000000
11
8.3106282397
21
-21.9815751086
31
0.0000000000
0
SPLINE
5
2B7
100
AcDbEntity
8
0
100
AcDbSpline
62
9
6
CONTINUOUS
70
0
71
3
72
10
73
6
74
4
42
0.0000001000
43
0.0000001000
44
0.0000000001
12
-0.0070490930
22
-0.3248459074
32
0.0000000000
13
-0.2983745548
23
-0.1336116648
33
0.0000000000
40
0.0000000000
40
0.0000000000
40
0.0000000000
40
0.0000000000
40
0.3932222943
40
0.7288944884
40
1.0000000000
40
1.0000000000
40
1.0000000000
40
1.0000000000
10
8.3106282397
20
-21.9815751086
30
0.0000000000
10
8.3097042861
20
-22.0241539930
30
0.0000000000
10
8.2990080625
20
-22.1034940097
30
0.0000000000
10
8.2499329639
20
-22.2031321918
30
0.0000000000
10
8.1960106072
20
-22.2452478498
30
0.0000000000
10
8.1690469451
20
-22.2573221361
30
0.0000000000
11
8.3106282397
21
-21.9815751086
31
0.0000000000
11
8.2908659979
21
-22.1078042239
31
0.0000000000
11
8.2393752232
21
-22.2039520252
31
0.0000000000
11
8.1690469451
21
-22.2573221361
31
0.0000000000
0
SPLINE
5
2B8
100
AcDbEntity
8
0
100
AcDbSpline
62
7
6
CONTINUOUS
70
0
71
3
72
8
73
4
74
2
42
0.0000001000
43
0.0000001000
44
0.0000000001
12
-0.0820391396
22
-0.2983284848
32
0.0000000000
13
-0.0810154767
23
-0.2986094572
33
0.0000000000
40
0.0000000000
40
0.0000000000
40
0.0000000000
40
0.0000000000
40
1.0000000000
40
1.0000000000
40
1.0000000000
40
1.0000000000
10
-1.7759296420
20
-8.7927326559
30
0.0000000000
10
-1.8032760219
20
-8.8921754841
30
0.0000000000
10
-1.8304527273
20
-8.9916652730
30
0.0000000000
10
-1.8574578862
20
-9.0912017587
30
0.0000000000
11
-1.7759296420
21
-8.7927326559
31
0.0000000000
11
-1.8574578862
21
-9.0912017587
31
0.0000000000
0
SPLINE
5
2B9
100
AcDbEntity
8
0
100
AcDbSpline
62
7
6
CONTINUOUS
70
0
71
3
72
10
73
6
74
4
42
0.0000001000
43
0.0000001000
44
0.0000000001
12
-0.5597374516
22
-2.0630983529
32
0.0000000000
13
-0.5087111651
23
-2.0762696758
33
0.0000000000
40
0.0000000000
40
0.0000000000
40
0.0000000000
40
0.0000000000
40
0.2880697904
40
0.7166482497
40
1.0000000000
40
1.0000000000
40
1.0000000000
40
1.0000000000
10
-1.8574578862
20
-9.0912017587
30
0.0000000000
10
-1.9112057030
20
-9.2893071954
30
0.0000000000
10
-2.0432268122
20
-9.7826059795
30
0.0000000000
10
-2.2214511754
20
-10.4725270460
30
0.0000000000
10
-2.3439556905
20
-10.9648118222
30
0.0000000000
10
-2.3920037568
20
-11.1609167045
30
0.0000000000
11
-1.8574578862
21
-9.0912017587
31
0.0000000000
11
-2.0166479808
21
-9.6860709184
31
0.0000000000
11
-2.2457472471
21
-10.5731239574
31
0.0000000000
11
-2.3920037568
21
-11.1609167045
31
0.0000000000
0
SPLINE
5
2BA
100
AcDbEntity
8
0
100
AcDbSpline
62
7
6
CONTINUOUS
70
0
71
3
72
8
73
4
74
2
42
0.0000001000
43
0.0000001000
44
0.0000000001
12
-0.0717101855
22
-0.2926801961
32
0.0000000000
13
-0.0706510383
23
-0.2929362913
33
0.0000000000
40
0.0000000000
40
0.0000000000
40
0.0000000000
40
0.0000000000
40
1.0000000000
40
1.0000000000
40
1.0000000000
40
1.0000000000
10
-2.3920037568
20
-11.1609167045
30
0.0000000000
10
-2.4159071520
20
-11.2584767698
30
0.0000000000
10
-2.4396349893
20
-11.3560796773
30
0.0000000000
10
-2.4631853354
20
-11.4537251078
30
0.0000000000
11
-2.3920037568
21
-11.1609167045
31
0.0000000000
11
-2.4631853354
21
-11.4537251078
31
0.0000000000
0
SPLINE
5
2BB
100
AcDbEntity
8
0
100
AcDbSpline
62
7
6
CONTINUOUS
70
0
71
3
72
8
73
4
74
2
42
0.0000001000
43
0.0000001000
44
0.0000000001
12
0.0048337047
22
0.0200124019
32
0.0000000000
13
0.0072039509
23
0.0193611151
33
0.0000000000
40
0.0000000000
40
0.0000000000
40
0.0000000000
40
0.0000000000
40
1.0000000000
40
1.0000000000
40
1.0000000000
40
1.0000000000
10
-0.9749510058
20
-12.1977723844
30
0.0000000000
10
-0.9733397709
20
-12.1911015838
30
0.0000000000
10
-0.9713604041
20
-12.1844934582
30
0.0000000000
10
-0.9689590871
20
-12.1780397531
30
0.0000000000
11
-0.9749510058
21
-12.1977723844
31
0.0000000000
11
-0.9689590871
21
-12.1780397531
31
0.0000000000
0
SPLINE
5
2BC
100
AcDbEntity
8
0
100
AcDbSpline
62
7
6
CONTINUOUS
70
0
71
3
72
9
73
5
74
3
42
0.0000001000
43
0.0000001000
44
0.0000000001
12
0.0136023410
22
0.0365572303
32
0.0000000000
13
0.0235091525
23
0.0311968629
33
0.0000000000
40
0.0000000000
40
0.0000000000
40
0.0000000000
40
0.0000000000
40
0.5582674753
40
1.0000000000
40
1.0000000000
40
1.0000000000
40
1.0000000000
10
-0.9689590871
20
-12.1780397531
30
0.0000000000
10
-0.9664278389
20
-12.1712368489
30
0.0000000000
10
-0.9610538994
20
-12.1593584556
30
0.0000000000
10
-0.9539733617
20
-12.1483753961
30
0.0000000000
10
-0.9505117760
20
-12.1437818397
30
0.0000000000
11
-0.9689590871
21
-12.1780397531
31
0.0000000000
11
-0.9598957648
21
-12.1582532496
31
0.0000000000
11
-0.9505117760
21
-12.1437818397
31
0.0000000000
0
SPLINE
5
2BD
100
AcDbEntity
8
0
100
AcDbSpline
62
7
6
CONTINUOUS
70
0
71
3
72
8
73
4
74
2
42
0.0000001000
43
0.0000001000
44
0.0000000001
12
0.0024894275
22
0.0033034933
32
0.0000000000
13
0.0026045837
23
0.0032110875
33
0.0000000000
40
0.0000000000
40
0.0000000000
40
0.0000000000
40
0.0000000000
40
1.0000000000
40
1.0000000000
40
1.0000000000
40
1.0000000000
10
-0.9505117760
20
-12.1437818397
30
0.0000000000
10
-0.9496819668
20
-12.1426806753
30
0.0000000000
10
-0.9488329710
20
-12.1415943380
30
0.0000000000
10
-0.9479647765
20
-12.1405239755
30
0.0000000000
11
-0.9505117760
21
-12.1437818397
31
0.0000000000
11
-0.9479647765
21
-12.1405239755
31
0.0000000000
0
SPLINE
5
2BE
100
AcDbEntity
8
0
100
AcDbSpline
62
7
6
CONTINUOUS
70
0
71
3
72
9
73
5
74
3
42
0.0000001000
43
0.0000001000
44
0.0000000001
12
0.0193705231
22
0.0238811466
32
0.0000000000
13
0.0254943641
23
0.0172714666
33
0.0000000000
40
0.0000000000
40
0.0000000000
40
0.0000000000
40
0.0000000000
40
0.5500267553
40
1.0000000000
40
1.0000000000
40
1.0000000000
40
1.0000000000
10
-0.9479647765
20
-12.1405239755
30
0.0000000000
10
-0.9444133411
20
-12.1361455523
30
0.0000000000
10
-0.9373724331
20
-12.1286711583
30
0.0000000000
10
-0.9292669015
20
-12.1223400048
30
0.0000000000
10
-0.9254429742
20
-12.1197494389
30
0.0000000000
11
-0.9479647765
21
-12.1405239755
31
0.0000000000
11
-0.9363458856
21
-12.1282691828
31
0.0000000000
11
-0.9254429742
21
-12.1197494389
31
0.0000000000
0
SPLINE
5
2BF
100
AcDbEntity
8
0
100
AcDbSpline
62
9
6
CONTINUOUS
70
0
71
3
72
10
73
6
74
4
42
0.0000001000
43
0.0000001000
44
0.0000000001
12
0.0039801976
22
-0.2436723515
32
0.0000000000
13
0.2143583651
23
-0.1073077507
33
0.0000000000
40
0.0000000000
40
0.0000000000
40
0.0000000000
40
0.0000000000
40
0.1700507928
40
0.5401421493
40
1.0000000000
40
1.0000000000
40
1.0000000000
40
1.0000000000
10
-8.2382890303
20
-4.5874952955
30
0.0000000000
10
-8.2380634183
20
-4.6013075210
30
0.0000000000
10
-8.2310474080
20
-4.6451069006
30
0.0000000000
10
-8.1816632388
20
-4.7121755543
30
0.0000000000
10
-8.1250969473
20
-4.7484104075
30
0.0000000000
10
-8.0922388217
20
-4.7648591781
30
0.0000000000
11
-8.2382890303
21
-4.5874952955
31
0.0000000000
11
-8.2316973169
21
-4.6281353096
31
0.0000000000
11
-8.1829982882
21
-4.7022917304
31
0.0000000000
11
-8.0922388217
21
-4.7648591781
31
0.0000000000
0
SPLINE
5
2C0
100
AcDbEntity
8
0
100
AcDbSpline
62
7
6
CONTINUOUS
70
0
71
3
72
8
73
4
74
2
42
0.0000001000
43
0.0000001000
44
0.0000000001
12
0.0891938054
22
-0.3470859068
32
0.0000000000
13
0.0902672840
23
-0.3468095225
33
0.0000000000
40
0.0000000000
40
0.0000000000
40
0.0000000000
40
0.0000000000
40
1.0000000000
40
1.0000000000
40
1.0000000000
40
1.0000000000
10
-0.1242100500
20
-9.7725198088
30
0.0000000000
10
-0.0944787815
20
-9.8882151111
30
0.0000000000
10
-0.0645687291
20
-10.0038647391
30
0.0000000000
10
-0.0344796344
20
-10.1194679133
30
0.0000000000
11
-0.1242100500
21
-9.7725198088
31
0.0000000000
11
-0.0344796344
21
-10.1194679133
31
0.0000000000
0
SPLINE
5
2C1
100
AcDbEntity
8
0
100
AcDbSpline
62
7
6
CONTINUOUS
70
0
71
3
72
10
73
6
74
4
42
0.0000001000
43
0.0000001000
44
0.0000000001
12
0.6297830765
22
-2.4196448420
32
0.0000000000
13
0.6823609047
23
-2.4053465468
33
0.0000000000
40
0.0000000000
40
0.0000000000
40
0.0000000000
40
0.0000000000
40
0.2863079288
40
0.7148857609
40
1.0000000000
40
1.0000000000
40
1.0000000000
40
1.0000000000
10
-0.0344796344
20
-10.1194679133
30
0.0000000000
10
0.0256243283
20
-10.3503890810
30
0.0000000000
10
0.1774824484
20
-10.9265161409
30
0.0000000000
10
0.3961536794
20
-11.7307463000
30
0.0000000000
10
0.5566925208
20
-12.3034820641
30
0.0000000000
10
0.6215427909
20
-12.5320815809
30
0.0000000000
11
-0.0344796344
21
-10.1194679133
31
0.0000000000
11
0.1479775217
21
-10.8116691291
31
0.0000000000
11
0.4291387395
21
-11.8456780012
31
0.0000000000
11
0.6215427909
21
-12.5320815809
31
0.0000000000
0
SPLINE
5
2C2
100
AcDbEntity
8
0
100
AcDbSpline
62
7
6
CONTINUOUS
70
0
71
3
72
8
73
4
74
2
42
0.0000001000
43
0.0000001000
44
0.0000000001
12
0.0971518376
22
-0.3424636955
32
0.0000000000
13
0.0982243459
23
-0.3421563605
33
0.0000000000
40
0.0000000000
40
0.0000000000
40
0.0000000000
40
0.0000000000
40
1.0000000000
40
1.0000000000
40
1.0000000000
40
1.0000000000
10
0.6215427909
20
-12.5320815809
30
0.0000000000
10
0.6539267367
20
-12.6462361461
30
0.0000000000
10
0.6864893016
20
-12.7603398876
30
0.0000000000
10
0.7192307503
20
-12.8743920078
30
0.0000000000
11
0.6215427909
21
-12.5320815809
31
0.0000000000
11
0.7192307503
21
-12.8743920078
31
0.0000000000
0
ENDSEC
0
SECTION
2
OBJECTS
0
DICTIONARY
5
2C3
100
AcDbDictionary
3
ACAD_GROUP
350
2C4
3
ACAD_MLINESTYLE
350
2C5
0
DICTIONARY
5
2C4
102
{ACAD_REACTORS
330
2C3
102
}
100
AcDbDictionary
0
DICTIONARY
5
2C5
102
{ACAD_REACTORS
330
2C3
102
}
100
AcDbDictionary
3
STANDARD
350
2C6
0
MLINESTYLE
5
2C6
102
{ACAD_REACTORS
330
2C5
102
}
100
AcDbMlineStyle
2
STANDARD
70
0
3

62
256
51
90.0
52
90.0
71
2
49
0.5
62
256
6
BYLAYER
49
-0.5
62
256
6
BYLAYER
0
ENDSEC
0
EOF
