0
SECTION
2
HEADER
9
$ACADVER
1
AC1014
9
$HANDSEED
5
       321
9
$EXTMAX
10
297.0000000000
20
210.0000000000
9
$EXTMIN
10
0.0000000000
20
0.0000000000
9
$LIMMIN
10
0.0000000000
20
0.0000000000
9
$LIMMAX
10
297.0000000000
20
210.0000000000
9
$VIEWCTR
10
148.5000000000
20
105.0000000000
9
$VIEWSIZE
40
210.0000000000
9
$CLAYER
8
0
9
$LTSCALE
40
16.3350000000
9
$CELTYPE
6
BYLAYER
9
$DIMSCALE
40
1
9
$DIMASZ
40
3.0000000000
9
$DIMEXO
40
1.8562500000
9
$DIMDLI
40
11.2860000000
9
$DIMEXE
40
5.3460000000
9
$DIMCEN
40
2.6730000000
9
$DIMLFAC
40
1.0000000000
9
$DIMTXT
40
3.0000000000
9
$DIMTOL
70
1
9
$DIMLIM
70
0
9
$DIMTFAC
40
1.0000000000
9
$DIMTP
40
0.0100000000
9
$DIMTM
40
0.0100000000
9
$MEASUREMENT
70
1
0
ENDSEC
0
SECTION
2
CLASSES
0
ENDSEC
0
SECTION
2
TABLES
0
TABLE
2
VPORT
5
8
100
AcDbSymbolTable
70
2
0
VPORT
5
1F4
100
AcDbSymbolTableRecord
100
AcDbViewportTableRecord
2
*ACTIVE
70
0
10
0.0
20
0.0
11
1.0
21
1.0
12
148.5000000000
22
105.0000000000
13
0.0
23
0.0
14
1.0
24
1.0
15
0.0
25
0.0
16
0.0
26
0.0
36
1.0
17
0.0
27
0.0
37
0.0
40
210.0000000000
41
1.4142857143
42
50.0
43
0.0
44
0.0
50
0.0
51
0.0
71
0
72
100
73
1
74
1
75
0
76
0
77
0
78
0
0
ENDTAB
0
TABLE
2
LTYPE
5
5
100
AcDbSymbolTable
70
6
0
LTYPE
5
14
100
AcDbSymbolTableRecord
100
AcDbLinetypeTableRecord
2
BYBLOCK
70
0
3

72
65
73
0
40
0.0
0
LTYPE
5
15
100
AcDbSymbolTableRecord
100
AcDbLinetypeTableRecord
2
BYLAYER
70
0
3

72
65
73
0
40
0.0
0
LTYPE
5
16
100
AcDbSymbolTableRecord
100
AcDbLinetypeTableRecord
2
CONTINUOUS
70
64
3
Solid line
72
65
73
0
40
0
0
LTYPE
5
1F5
100
AcDbSymbolTableRecord
100
AcDbLinetypeTableRecord
2
CENTER
70
64
3
____ _ ____ _ ____ _ ____ _ ____ _ ____ _ ____
72
65
73
4
40
0.6
49
0.375
74
0
49
-0.075
74
0
49
0.075
74
0
49
-0.075
74
0
0
LTYPE
5
1F6
100
AcDbSymbolTableRecord
100
AcDbLinetypeTableRecord
2
HIDDEN
70
64
3
- - - - - - - - - - - - - - - - - - - -
72
65
73
2
40
0.2
49
0.1
74
0
49
-0.1
74
0
0
LTYPE
5
1F7
100
AcDbSymbolTableRecord
100
AcDbLinetypeTableRecord
2
PHANTOM
70
64
3
_____ _ _ _____ _ _ _____ _ _ _____
72
65
73
6
40
0.8
49
0.45
74
0
49
-0.05
74
0
49
0.1
74
0
49
-0.05
74
0
49
0.1
74
0
49
-0.05
74
0
0
LTYPE
5
1F8
100
AcDbSymbolTableRecord
100
AcDbLinetypeTableRecord
2
DOT
70
64
3
. . . . . . . . . . . . . . . . . . . .
72
65
73
2
40
0.2
49
0.1
74
0
49
-0.1
74
0
0
LTYPE
5
1F9
100
AcDbSymbolTableRecord
100
AcDbLinetypeTableRecord
2
DASHED
70
64
3
- - - - - - - - - - - - - - - - - - - -
72
65
73
2
40
0.2
49
0.1
74
0
49
-0.1
74
0
0
ENDTAB
0
TABLE
2
LAYER
5
2
100
AcDbSymbolTable
70
36
0
LAYER
5
10
100
AcDbSymbolTableRecord
100
AcDbLayerTableRecord
2
0
70
0
62
7
6
CONTINUOUS
0
LAYER
5
1FA
100
AcDbSymbolTableRecord
100
AcDbLayerTableRecord
2
DEFAULT_1
70
0
62
7
6
CENTER
0
LAYER
5
1FB
100
AcDbSymbolTableRecord
100
AcDbLayerTableRecord
2
DEFAULT_2
70
0
62
8
6
HIDDEN
0
LAYER
5
1FC
100
AcDbSymbolTableRecord
100
AcDbLayerTableRecord
2
DEFAULT_3
70
0
62
7
6
PHANTOM
0
LAYER
5
1FD
100
AcDbSymbolTableRecord
100
AcDbLayerTableRecord
2
ASSI
70
0
62
7
6
CONTINUOUS
0
LAYER
5
1FE
100
AcDbSymbolTableRecord
100
AcDbLayerTableRecord
2
COLOR9
70
0
62
7
6
CONTINUOUS
0
LAYER
5
1FF
100
AcDbSymbolTableRecord
100
AcDbLayerTableRecord
2
COORDINATE
70
0
62
7
6
CONTINUOUS
0
LAYER
5
200
100
AcDbSymbolTableRecord
100
AcDbLayerTableRecord
2
COORD_ORIGINE
70
0
62
7
6
CONTINUOUS
0
LAYER
5
201
100
AcDbSymbolTableRecord
100
AcDbLayerTableRecord
2
CURVE
70
0
62
7
6
CONTINUOUS
0
LAYER
5
202
100
AcDbSymbolTableRecord
100
AcDbLayerTableRecord
2
DRAFT
70
0
62
7
6
CONTINUOUS
0
LAYER
5
203
100
AcDbSymbolTableRecord
100
AcDbLayerTableRecord
2
INTF_YELLOW
70
0
62
7
6
CONTINUOUS
0
LAYER
5
204
100
AcDbSymbolTableRecord
100
AcDbLayerTableRecord
2
NOTE
70
0
62
7
6
CONTINUOUS
0
LAYER
5
205
100
AcDbSymbolTableRecord
100
AcDbLayerTableRecord
2
PIANI
70
0
62
7
6
CONTINUOUS
0
LAYER
5
206
100
AcDbSymbolTableRecord
100
AcDbLayerTableRecord
2
PIANI_ORIGINE
70
0
62
7
6
CONTINUOUS
0
LAYER
5
207
100
AcDbSymbolTableRecord
100
AcDbLayerTableRecord
2
PIANI_RIFERIMENTO
70
0
62
7
6
CONTINUOUS
0
LAYER
5
208
100
AcDbSymbolTableRecord
100
AcDbLayerTableRecord
2
PUNTI
70
0
62
7
6
CONTINUOUS
0
LAYER
5
209
100
AcDbSymbolTableRecord
100
AcDbLayerTableRecord
2
RACCORDO
70
0
62
7
6
CONTINUOUS
0
LAYER
5
20A
100
AcDbSymbolTableRecord
100
AcDbLayerTableRecord
2
SUPERFICI
70
0
62
7
6
CONTINUOUS
0
LAYER
5
20B
100
AcDbSymbolTableRecord
100
AcDbLayerTableRecord
2
TRASH
70
0
62
7
6
CONTINUOUS
0
LAYER
5
20C
100
AcDbSymbolTableRecord
100
AcDbLayerTableRecord
2
XSEC_DATUMS
70
0
62
7
6
CONTINUOUS
0
ENDTAB
0
TABLE
2
STYLE
5
3
100
AcDbSymbolTable
70
1
0
STYLE
5
11
100
AcDbSymbolTableRecord
100
AcDbTextStyleTableRecord
2
STANDARD
70
0
40
0.0
41
0.8000000000
50
0.0
71
0
42
0.2
3
txt
4

0
ENDTAB
0
TABLE
2
VIEW
5
6
100
AcDbSymbolTable
70
0
0
ENDTAB
0
TABLE
2
UCS
5
7
100
AcDbSymbolTable
70
0
0
ENDTAB
0
TABLE
2
APPID
5
9
100
AcDbSymbolTable
70
1
0
APPID
5
20D
100
AcDbSymbolTableRecord
100
AcDbRegAppTableRecord
2
ACAD
70
0
0
ENDTAB
0
TABLE
2
DIMSTYLE
5
A
100
AcDbSymbolTable
70
1
0
DIMSTYLE
105
20E
100
AcDbSymbolTableRecord
100
AcDbDimStyleTableRecord
2
STANDARD
70
0
3

4

5

6

7

40
1.0
41
3.0000000000
42
0.0625
43
0.38
44
0.18
45
0.0
46
0.0
47
0.0100000000
48
0.0100000000
140
3.0000000000
141
0.09
142
0.0
143
25.4
144
1.0000000000
145
0.0
146
1.0000000000
147
0.09
71
1
72
0
73
0
74
0
75
0
76
0
77
1
78
8
170
0
171
2
172
0
173
0
174
0
175
0
176
0
177
0
178
0
270
2
271
2
272
2
273
2
274
2
340
11
275
0
280
0
281
0
282
0
283
1
284
8
285
0
286
0
287
3
288
0
0
ENDTAB
0
TABLE
2
BLOCK_RECORD
5
1
100
AcDbSymbolTable
70
0
0
BLOCK_RECORD
5
1B
100
AcDbSymbolTableRecord
100
AcDbBlockTableRecord
2
*MODEL_SPACE
0
BLOCK_RECORD
5
1C
100
AcDbSymbolTableRecord
100
AcDbBlockTableRecord
2
*PAPER_SPACE
0
ENDTAB
0
ENDSEC
0
SECTION
2
BLOCKS
0
BLOCK
5
1E
100
AcDbEntity
8
0
100
AcDbBlockBegin
2
*MODEL_SPACE
70
0
10
0.0
20
0.0
30
0.0
3
*MODEL_SPACE
1

0
ENDBLK
5
1F
100
AcDbEntity
8
0
100
AcDbBlockEnd
0
BLOCK
5
20
100
AcDbEntity
8
0
100
AcDbBlockBegin
2
*PAPER_SPACE
70
0
10
0.0
20
0.0
30
0.0
3
*PAPER_SPACE
1

0
ENDBLK
5
21
100
AcDbEntity
8
0
100
AcDbBlockEnd
0
ENDSEC
0
SECTION
2
ENTITIES
0
LINE
5
20F
100
AcDbEntity
8
0
100
AcDbLine
62
7
6
CONTINUOUS
10
-7.8019924184
20
23.6301687339
11
-5.0668003593
21
25.1613936047
0
LINE
5
210
100
AcDbEntity
8
0
100
AcDbLine
62
9
6
CONTINUOUS
10
-7.5670042971
20
23.6221197519
11
-4.8354512488
21
25.1513074189
0
LINE
5
211
100
AcDbEntity
8
0
100
AcDbLine
62
7
6
CONTINUOUS
10
-7.9900944572
20
-14.4985344473
11
6.7012816556
21
-21.8442225038
0
LINE
5
212
100
AcDbEntity
8
0
100
AcDbLine
62
7
6
CONTINUOUS
10
6.7007678056
20
-21.8439651393
11
6.7012592919
21
-21.8442113219
0
LINE
5
213
100
AcDbEntity
8
0
100
AcDbLine
62
9
6
CONTINUOUS
10
-8.2388597566
20
-14.0839035835
11
6.4458951342
21
-21.4262810290
0
LINE
5
214
100
AcDbEntity
8
0
100
AcDbLine
62
7
6
CONTINUOUS
10
-8.3860862750
20
22.7063964582
11
-8.3861000104
21
22.7062731194
0
LINE
5
215
100
AcDbEntity
8
0
100
AcDbLine
62
9
6
CONTINUOUS
10
10.0140334640
20
17.7265650625
11
7.1355771505
21
16.2708290281
0
LINE
5
216
100
AcDbEntity
8
0
100
AcDbLine
62
9
6
CONTINUOUS
10
10.3674657006
20
17.1169846249
11
7.4890093872
21
15.6612485905
0
LINE
5
217
100
AcDbEntity
8
0
100
AcDbLine
62
7
6
CONTINUOUS
10
-3.9959354756
20
-9.1700772105
11
-2.9907555796
21
-9.6726671585
0
LINE
5
218
100
AcDbEntity
8
0
100
AcDbLine
62
7
6
CONTINUOUS
10
-0.0513678890
20
-11.1423610038
11
0.9538119894
21
-11.6449509430
0
LINE
5
219
100
AcDbEntity
8
0
100
AcDbLine
62
7
6
CONTINUOUS
10
-4.0158034664
20
-8.6603959470
11
-2.8137219358
21
-9.2614367123
0
LINE
5
21A
100
AcDbEntity
8
0
100
AcDbLine
62
7
6
CONTINUOUS
10
-0.2681375319
20
-10.5342289142
11
0.9339439987
21
-11.1352696795
0
LINE
5
21B
100
AcDbEntity
8
0
100
AcDbLine
62
7
6
CONTINUOUS
10
-8.3852171152
20
-13.9079751810
11
-8.3851655333
21
-13.9083765943
0
LINE
5
21C
100
AcDbEntity
8
0
100
AcDbLine
62
7
6
CONTINUOUS
10
-1.9953879661
20
-8.4088308244
11
-1.1610019627
21
-8.8260238261
0
LINE
5
21D
100
AcDbEntity
8
0
100
AcDbLine
62
7
6
CONTINUOUS
10
-2.4296014557
20
-7.6820582680
11
-0.7466873237
21
-8.5235153340
0
LINE
5
21E
100
AcDbEntity
8
0
100
AcDbLine
62
9
6
CONTINUOUS
10
-8.9138576746
20
-4.3547106674
11
5.7348028105
21
-11.6790409100
0
LINE
5
21F
100
AcDbEntity
8
0
100
AcDbLine
62
9
6
CONTINUOUS
10
-8.9138576746
20
12.0997720045
11
5.7348028105
21
4.7754417619
0
LINE
5
220
100
AcDbEntity
8
0
100
AcDbLine
62
7
6
CONTINUOUS
10
10.3674657006
20
-20.2956095838
11
10.3674657006
21
17.1169846249
0
LINE
5
221
100
AcDbEntity
8
0
100
AcDbLine
62
7
6
CONTINUOUS
10
-0.6157628130
20
-12.0358053814
11
-0.5752705700
21
-12.0205452881
0
LINE
5
222
100
AcDbEntity
8
0
100
AcDbLine
62
9
6
CONTINUOUS
10
-8.2388597566
20
22.5400572443
11
6.4458951342
21
15.1976797989
0
LINE
5
223
100
AcDbEntity
8
0
100
AcDbLine
62
9
6
CONTINUOUS
10
-7.5670042971
20
23.6221197519
11
7.1355771505
21
16.2708290281
0
LINE
5
224
100
AcDbEntity
8
0
100
AcDbLine
62
7
6
CONTINUOUS
10
-4.8354512488
20
25.1513074189
11
10.0140334640
21
17.7265650625
0
LINE
5
225
100
AcDbEntity
8
0
100
AcDbLine
62
9
6
CONTINUOUS
10
7.4890093872
20
-21.5714265977
11
10.3674657006
21
-20.2956095838
0
LINE
5
226
100
AcDbEntity
8
0
100
AcDbLine
62
7
6
CONTINUOUS
10
7.3474375045
20
-21.8471946432
11
10.2296536298
21
-20.5697111695
0
SPLINE
5
227
100
AcDbEntity
8
0
100
AcDbSpline
62
7
6
CONTINUOUS
70
0
71
3
72
11
73
7
74
5
42
0.0000001000
43
0.0000001000
44
0.0000000001
12
0.1098642249
22
-0.0549321109
32
0.0000000000
13
0.1166120309
23
0.0400518467
33
0.0000000000
40
0.0000000000
40
0.0000000000
40
0.0000000000
40
0.0000000000
40
0.3223355672
40
0.6118448388
40
0.8808245254
40
1.0000000000
40
1.0000000000
40
1.0000000000
40
1.0000000000
10
0.9538119921
20
-11.6449509443
30
0.0000000000
10
0.9656163745
20
-11.6508531354
30
0.0000000000
10
0.9889675803
20
-11.6603475109
30
0.0000000000
10
1.0246506526
20
-11.6671915058
30
0.0000000000
10
1.0526873399
20
-11.6657797728
30
0.0000000000
10
1.0681308620
20
-11.6616232694
30
0.0000000000
10
1.0727632934
20
-11.6600322034
30
0.0000000000
11
0.9538119921
21
-11.6449509443
31
0.0000000000
11
0.9906187461
21
-11.6595412353
31
0.0000000000
11
1.0256116218
21
-11.6658722916
31
0.0000000000
11
1.0585895815
21
-11.6638600184
31
0.0000000000
11
1.0727632934
21
-11.6600322034
31
0.0000000000
0
SPLINE
5
228
100
AcDbEntity
8
0
100
AcDbSpline
62
7
6
CONTINUOUS
70
0
71
3
72
15
73
11
74
9
42
0.0000001000
43
0.0000001000
44
0.0000000001
12
0.1824607802
22
-0.2857256691
32
0.0000000000
13
0.3215666973
23
0.1105818652
33
0.0000000000
40
0.0000000000
40
0.0000000000
40
0.0000000000
40
0.0000000000
40
0.1538188706
40
0.3018470319
40
0.4449614032
40
0.5786123270
40
0.7002033630
40
0.8102131435
40
0.9100152767
40
1.0000000000
40
1.0000000000
40
1.0000000000
40
1.0000000000
10
0.1861272041
20
-13.2211272504
30
0.0000000000
10
0.1954825078
20
-13.2357772503
30
0.0000000000
10
0.2152858914
20
-13.2636350445
30
0.0000000000
10
0.2485221696
20
-13.3014847322
30
0.0000000000
10
0.2840602484
20
-13.3339203314
30
0.0000000000
10
0.3209366845
20
-13.3599727256
30
0.0000000000
10
0.3578858275
20
-13.3787468120
30
0.0000000000
10
0.3939251043
20
-13.3897479685
30
0.0000000000
10
0.4280056888
20
-13.3925375108
30
0.0000000000
10
0.4493979587
20
-13.3886804173
30
0.0000000000
10
0.4590433221
20
-13.3853635245
30
0.0000000000
11
0.1861272041
21
-13.2211272504
31
0.0000000000
11
0.2163781189
21
-13.2636028904
31
0.0000000000
11
0.2495639332
21
-13.3012474192
31
0.0000000000
11
0.2855114668
21
-13.3338321042
31
0.0000000000
11
0.3226541885
21
-13.3597817260
31
0.0000000000
11
0.3595417070
21
-13.3781799856
31
0.0000000000
11
0.3953196096
21
-13.3887087670
31
0.0000000000
11
0.4290712517
21
-13.3910739079
31
0.0000000000
11
0.4590433221
21
-13.3853635245
31
0.0000000000
0
SPLINE
5
229
100
AcDbEntity
8
0
100
AcDbSpline
62
7
6
CONTINUOUS
70
0
71
3
72
10
73
6
74
4
42
0.0000001000
43
0.0000001000
44
0.0000000001
12
0.7576387199
22
-1.2029601207
32
0.0000000000
13
0.7651521831
23
-1.1981951505
33
0.0000000000
40
0.0000000000
40
0.0000000000
40
0.0000000000
40
0.0000000000
40
0.3333729498
40
0.6667065209
40
1.0000000000
40
1.0000000000
40
1.0000000000
40
1.0000000000
10
-0.5752705700
20
-12.0205452881
30
0.0000000000
10
-0.4910784850
20
-12.1542234094
30
0.0000000000
10
-0.3224253887
20
-12.4213883471
30
0.0000000000
10
-0.0686255641
20
-12.8215831555
30
0.0000000000
10
0.1011204597
20
-13.0880103736
30
0.0000000000
10
0.1861272041
20
-13.2211272504
30
0.0000000000
11
-0.5752705700
21
-12.0205452881
31
0.0000000000
11
-0.3222761854
21
-12.4213160043
31
0.0000000000
11
-0.0684763232
21
-12.8215108229
31
0.0000000000
11
0.1861272041
21
-13.2211272504
31
0.0000000000
0
SPLINE
5
22A
100
AcDbEntity
8
0
100
AcDbSpline
62
7
6
CONTINUOUS
70
0
71
3
72
13
73
9
74
7
42
0.0000001000
43
0.0000001000
44
0.0000000001
12
0.5731556027
22
-0.1900761447
32
0.0000000000
13
0.5779893329
23
0.1770932580
33
0.0000000000
40
0.0000000000
40
0.0000000000
40
0.0000000000
40
0.0000000000
40
0.2059544475
40
0.4015110226
40
0.5891743340
40
0.7693322133
40
0.9426867856
40
1.0000000000
40
1.0000000000
40
1.0000000000
40
1.0000000000
10
-1.2333469127
20
-12.0159810640
30
0.0000000000
10
-1.1939989309
20
-12.0290300732
30
0.0000000000
10
-1.1161331513
20
-12.0511905929
30
0.0000000000
10
-0.9991834617
20
-12.0720954269
30
0.0000000000
10
-0.8857991809
20
-12.0797318562
30
0.0000000000
10
-0.7767272786
20
-12.0742592115
30
0.0000000000
10
-0.6951314740
20
-12.0594262716
30
0.0000000000
10
-0.6503679675
20
-12.0468522355
30
0.0000000000
10
-0.6393258253
20
-12.0434689742
30
0.0000000000
11
-1.2333469127
21
-12.0159810640
31
0.0000000000
11
-1.1136343298
21
-12.0496821073
31
0.0000000000
11
-0.9973412013
21
-12.0701873623
31
0.0000000000
11
-0.8842610612
21
-12.0775675404
31
0.0000000000
11
-0.7756252910
21
-12.0718039597
31
0.0000000000
11
-0.6726772761
21
-12.0528385758
31
0.0000000000
11
-0.6393258253
21
-12.0434689742
31
0.0000000000
0
SPLINE
5
22B
100
AcDbEntity
8
0
100
AcDbSpline
62
7
6
CONTINUOUS
70
0
71
3
72
8
73
4
74
2
42
0.0000001000
43
0.0000001000
44
0.0000000001
12
0.0236940547
22
0.0072597487
32
0.0000000000
13
0.0234314810
23
0.0080515010
33
0.0000000000
40
0.0000000000
40
0.0000000000
40
0.0000000000
40
0.0000000000
40
1.0000000000
40
1.0000000000
40
1.0000000000
40
1.0000000000
10
-0.6393258253
20
-12.0434689742
30
0.0000000000
10
-0.6314278071
20
-12.0410490579
30
0.0000000000
10
-0.6235707623
20
-12.0384966198
30
0.0000000000
10
-0.6157602686
20
-12.0358127861
30
0.0000000000
11
-0.6393258253
21
-12.0434689742
31
0.0000000000
11
-0.6157602686
21
-12.0358127861
31
0.0000000000
0
SPLINE
5
22C
100
AcDbEntity
8
0
100
AcDbSpline
62
7
6
CONTINUOUS
70
0
71
3
72
20
73
16
74
14
42
0.0000001000
43
0.0000001000
44
0.0000000001
12
0.0408206346
22
-0.5610419108
32
0.0000000000
13
0.5341110341
23
0.1834863021
33
0.0000000000
40
0.0000000000
40
0.0000000000
40
0.0000000000
40
0.0000000000
40
0.0815194960
40
0.1675580070
40
0.2588410544
40
0.3523483744
40
0.4453463911
40
0.5365793271
40
0.6246330194
40
0.7077397649
40
0.7846699947
40
0.8545909994
40
0.9173573996
40
0.9743211547
40
1.0000000000
40
1.0000000000
40
1.0000000000
40
1.0000000000
10
-1.5791989656
20
-12.9957319487
30
0.0000000000
10
-1.5780897397
20
-13.0109772333
30
0.0000000000
10
-1.5734988355
20
-13.0421691551
30
0.0000000000
10
-1.5606701546
20
-13.0890757793
30
0.0000000000
10
-1.5420105497
20
-13.1364096662
30
0.0000000000
10
-1.5180355898
20
-13.1827488871
30
0.0000000000
10
-1.4896212247
20
-13.2264927020
30
0.0000000000
10
-1.4576477910
20
-13.2664097793
30
0.0000000000
10
-1.4229705235
20
-13.3014490164
30
0.0000000000
10
-1.3865829324
20
-13.3306222678
30
0.0000000000
10
-1.3495219279
20
-13.3529444032
30
0.0000000000
10
-1.3129543718
20
-13.3678741392
30
0.0000000000
10
-1.2777955327
20
-13.3747956867
30
0.0000000000
10
-1.2502434237
20
-13.3735705953
30
0.0000000000
10
-1.2351661699
20
-13.3695600270
30
0.0000000000
10
-1.2305943850
20
-13.3679894549
30
0.0000000000
11
-1.5791989656
21
-12.9957319487
31
0.0000000000
11
-1.5727436524
21
-13.0411320665
31
0.0000000000
11
-1.5601228607
21
-13.0878563703
31
0.0000000000
11
-1.5413788147
21
-13.1356620178
31
0.0000000000
11
-1.5172415461
21
-13.1823971612
31
0.0000000000
11
-1.4887308337
21
-13.2262590267
31
0.0000000000
11
-1.4565905688
21
-13.2662693806
31
0.0000000000
11
-1.4216593190
21
-13.3013872757
31
0.0000000000
11
-1.3850515131
21
-13.3304629619
31
0.0000000000
11
-1.3478569077
21
-13.3525831374
31
0.0000000000
11
-1.3113032406
21
-13.3671041623
31
0.0000000000
11
-1.2765851154
21
-13.3735293617
31
0.0000000000
11
-1.2445920069
21
-13.3717323797
31
0.0000000000
11
-1.2305943850
21
-13.3679894549
31
0.0000000000
0
SPLINE
5
22D
100
AcDbEntity
8
0
100
AcDbSpline
62
7
6
CONTINUOUS
70
0
71
3
72
11
73
7
74
5
42
0.0000001000
43
0.0000001000
44
0.0000000001
12
0.5852352232
22
-0.7761392895
32
0.0000000000
13
0.8094218641
23
-0.5382645345
33
0.0000000000
40
0.0000000000
40
0.0000000000
40
0.0000000000
40
0.0000000000
40
0.3488174629
40
0.5187520739
40
0.6845103211
40
1.0000000000
40
1.0000000000
40
1.0000000000
40
1.0000000000
10
-2.3537315445
20
-11.1313147938
30
0.0000000000
10
-2.2856847892
20
-11.2215584397
30
0.0000000000
10
-2.1778322629
20
-11.3509888908
30
0.0000000000
10
-2.0225012045
20
-11.5094361712
30
0.0000000000
10
-1.8668294686
20
-11.6519554797
30
0.0000000000
10
-1.7427323917
20
-11.7472433964
30
0.0000000000
10
-1.6576109771
20
-11.8038490314
30
0.0000000000
11
-2.3537315445
21
-11.1313147938
31
0.0000000000
11
-2.1361811140
21
-11.3913922802
31
0.0000000000
11
-2.0205093991
21
-11.5093178650
31
0.0000000000
11
-1.9015506370
21
-11.6179939248
31
0.0000000000
11
-1.6576109771
21
-11.8038490314
31
0.0000000000
0
SPLINE
5
22E
100
AcDbEntity
8
0
100
AcDbSpline
62
7
6
CONTINUOUS
70
0
71
3
72
22
73
18
74
16
42
0.0000001000
43
0.0000001000
44
0.0000000001
12
-0.5818191619
22
-0.4318318050
32
0.0000000000
13
0.6878312713
23
0.2368300000
33
0.0000000000
40
0.0000000000
40
0.0000000000
40
0.0000000000
40
0.0000000000
40
0.0426383304
40
0.0879388958
40
0.1385819143
40
0.1946030717
40
0.2554056208
40
0.3207050831
40
0.3897928532
40
0.4612860343
40
0.6054750046
40
0.7410867114
40
0.8031741904
40
0.8601858524
40
0.9118709521
40
0.9584939675
40
1.0000000000
40
1.0000000000
40
1.0000000000
40
1.0000000000
10
-3.3362175036
20
-11.1148761275
30
0.0000000000
10
-3.3444867695
20
-11.1210136566
30
0.0000000000
10
-3.3596198222
20
-11.1364308530
30
0.0000000000
10
-3.3757971763
20
-11.1661094245
30
0.0000000000
10
-3.3856622239
20
-11.2017406677
30
0.0000000000
10
-3.3890221009
20
-11.2422382674
30
0.0000000000
10
-3.3859154538
20
-11.2862590901
30
0.0000000000
10
-3.3765184148
20
-11.3325720597
30
0.0000000000
10
-3.3610991056
20
-11.3799529003
30
0.0000000000
10
-3.3330163004
20
-11.4428502934
30
0.0000000000
10
-3.2870024522
20
-11.5148053679
30
0.0000000000
10
-3.2290740217
20
-11.5746938458
30
0.0000000000
10
-3.1786444047
20
-11.6102240240
30
0.0000000000
10
-3.1416864503
20
-11.6289303770
30
0.0000000000
10
-3.1055581146
20
-11.6398579366
30
0.0000000000
10
-3.0715650723
20
-11.6425037077
30
0.0000000000
10
-3.0503733173
20
-11.6386053885
30
0.0000000000
10
-3.0408569349
20
-11.6353287639
30
0.0000000000
11
-3.3362175036
21
-11.1148761275
31
0.0000000000
11
-3.3580173750
21
-11.1367671256
31
0.0000000000
11
-3.3740651821
21
-11.1653997314
31
0.0000000000
11
-3.3842345953
21
-11.2006564852
31
0.0000000000
11
-3.3879289505
21
-11.2410789009
31
0.0000000000
11
-3.3850808345
21
-11.2850420480
31
0.0000000000
11
-3.3758519909
21
-11.3314468512
31
0.0000000000
11
-3.3604738533
21
-11.3790846918
31
0.0000000000
11
-3.3394181852
21
-11.4264137373
31
0.0000000000
11
-3.2830217465
21
-11.5143584445
31
0.0000000000
11
-3.2139604256
21
-11.5842542400
31
0.0000000000
11
-3.1770434624
21
-11.6099623482
31
0.0000000000
11
-3.1400492092
21
-11.6283423120
31
0.0000000000
11
-3.1040946701
21
-11.6388165137
31
0.0000000000
11
-3.0703867716
21
-11.6410427523
31
0.0000000000
11
-3.0408569349
21
-11.6353287639
31
0.0000000000
0
SPLINE
5
22F
100
AcDbEntity
8
0
100
AcDbSpline
62
7
6
CONTINUOUS
70
0
71
3
72
10
73
6
74
4
42
0.0000001000
43
0.0000001000
44
0.0000000001
12
-0.6639730738
22
-0.4908819477
32
0.0000000000
13
-0.6630528451
23
-0.4921242261
33
0.0000000000
40
0.0000000000
40
0.0000000000
40
0.0000000000
40
0.0000000000
40
0.3346202903
40
0.6679542241
40
1.0000000000
40
1.0000000000
40
1.0000000000
40
1.0000000000
10
-2.6727017166
20
-10.6233764298
30
0.0000000000
10
-2.7467613375
20
-10.6781294498
30
0.0000000000
10
-2.8945622242
20
-10.7874705353
30
0.0000000000
10
-3.1157343828
20
-10.9513035449
30
0.0000000000
10
-3.2628295381
20
-11.0604068707
30
0.0000000000
10
-3.3362175036
20
-11.1148761275
30
0.0000000000
11
-2.6727017166
21
-10.6233764298
31
0.0000000000
11
-2.8948297936
21
-10.7877041609
31
0.0000000000
11
-3.1160021434
21
-10.9515377184
31
0.0000000000
11
-3.3362175036
21
-11.1148761275
31
0.0000000000
0
SPLINE
5
230
100
AcDbEntity
8
0
100
AcDbSpline
62
7
6
CONTINUOUS
70
0
71
3
72
11
73
7
74
5
42
0.0000001000
43
0.0000001000
44
0.0000000001
12
0.1521570254
22
-0.9948878672
32
0.0000000000
13
0.4612503740
23
-0.8945399495
33
0.0000000000
40
0.0000000000
40
0.0000000000
40
0.0000000000
40
0.0000000000
40
0.3204136290
40
0.4868092104
40
0.6561446460
40
1.0000000000
40
1.0000000000
40
1.0000000000
40
1.0000000000
10
-2.9907555796
20
-9.6726671585
30
0.0000000000
10
-2.9745045180
20
-9.7789257025
30
0.0000000000
10
-2.9396499738
20
-9.9389803524
30
0.0000000000
10
-2.8751644386
20
-10.1495177750
30
0.0000000000
10
-2.7971204782
20
-10.3638259613
30
0.0000000000
10
-2.7255695202
20
-10.5208456462
30
0.0000000000
10
-2.6727017166
20
-10.6233764298
30
0.0000000000
11
-2.9907555796
21
-9.6726671585
31
0.0000000000
11
-2.9229956429
21
-9.9879501544
31
0.0000000000
11
-2.8740875978
21
-10.1481192717
31
0.0000000000
11
-2.8157888223
21
-10.3082666451
31
0.0000000000
11
-2.6727017166
21
-10.6233764298
31
0.0000000000
0
SPLINE
5
231
100
AcDbEntity
8
0
100
AcDbSpline
62
7
6
CONTINUOUS
70
0
71
3
72
13
73
9
74
7
42
0.0000001000
43
0.0000001000
44
0.0000000001
12
0.0328326665
22
-0.8409608544
32
0.0000000000
13
-0.6972338465
23
-0.4733910978
33
0.0000000000
40
0.0000000000
40
0.0000000000
40
0.0000000000
40
0.0000000000
40
0.3004041926
40
0.4385873054
40
0.5692922218
40
0.8087238262
40
0.9204656992
40
1.0000000000
40
1.0000000000
40
1.0000000000
40
1.0000000000
10
-0.4706940962
20
-10.6830830137
30
0.0000000000
10
-0.4674064060
20
-10.7672924025
30
0.0000000000
10
-0.4721762684
20
-10.8911891391
30
0.0000000000
10
-0.5035753042
20
-11.0480976969
30
0.0000000000
10
-0.5473797863
20
-11.1839954836
30
0.0000000000
10
-0.6140454181
20
-11.3043100958
30
0.0000000000
10
-0.6972644529
20
-11.3926401881
30
0.0000000000
10
-0.7397372921
20
-11.4257502361
30
0.0000000000
10
-0.7582219609
20
-11.4383005128
30
0.0000000000
11
-0.4706940962
21
-10.6830830137
31
0.0000000000
11
-0.4830512475
21
-10.9356014815
31
0.0000000000
11
-0.5061906266
21
-11.0495713278
31
0.0000000000
11
-0.5404181922
21
-11.1541122107
31
0.0000000000
11
-0.6406678590
21
-11.3289111813
31
0.0000000000
11
-0.7053697491
21
-11.3971577135
31
0.0000000000
11
-0.7582219609
21
-11.4383005128
31
0.0000000000
0
SPLINE
5
232
100
AcDbEntity
8
0
100
AcDbSpline
62
7
6
CONTINUOUS
70
0
71
3
72
16
73
12
74
10
42
0.0000001000
43
0.0000001000
44
0.0000000001
12
0.1681158043
22
-0.3516309518
32
0.0000000000
13
0.3697984353
23
0.1269942051
33
0.0000000000
40
0.0000000000
40
0.0000000000
40
0.0000000000
40
0.0000000000
40
0.1346895089
40
0.2666486386
40
0.3966287349
40
0.5203573480
40
0.6350250458
40
0.7403688043
40
0.8366049194
40
0.9244804579
40
1.0000000000
40
1.0000000000
40
1.0000000000
40
1.0000000000
10
-0.6361623919
20
-9.8255260768
30
0.0000000000
10
-0.6286145802
20
-9.8413130768
30
0.0000000000
10
-0.6120258185
20
-9.8718096612
30
0.0000000000
10
-0.5828172863
20
-9.9143678526
30
0.0000000000
10
-0.5501336422
20
-9.9524849122
30
0.0000000000
10
-0.5148721511
20
-9.9850219165
30
0.0000000000
10
-0.4782700744
20
-10.0108581327
30
0.0000000000
10
-0.4413547958
20
-10.0293147248
30
0.0000000000
10
-0.4050032585
20
-10.0398615247
30
0.0000000000
10
-0.3710008989
20
-10.0419855440
30
0.0000000000
10
-0.3499302016
20
-10.0378105923
30
0.0000000000
10
-0.3406211987
20
-10.0346137442
30
0.0000000000
11
-0.6361623919
21
-9.8255260768
31
0.0000000000
11
-0.6110783279
21
-9.8716409246
31
0.0000000000
11
-0.5819334018
21
-9.9140174052
31
0.0000000000
11
-0.5488729636
21
-9.9524029961
31
0.0000000000
11
-0.5133138367
21
-9.9849769325
31
0.0000000000
11
-0.4766648341
21
-10.0105548591
31
0.0000000000
11
-0.4398040813
21
-10.0286392769
31
0.0000000000
11
-0.4036827517
21
-10.0387448022
31
0.0000000000
11
-0.3694776324
21
-10.0404924324
31
0.0000000000
11
-0.3406211987
21
-10.0346137442
31
0.0000000000
0
SPLINE
5
233
100
AcDbEntity
8
0
100
AcDbSpline
62
7
6
CONTINUOUS
70
0
71
3
72
13
73
9
74
7
42
0.0000001000
43
0.0000001000
44
0.0000000001
12
0.6475833908
22
-0.6270129770
32
0.0000000000
13
0.3888026993
23
-0.8132293478
33
0.0000000000
40
0.0000000000
40
0.0000000000
40
0.0000000000
40
0.0000000000
40
0.1602276856
40
0.3235505323
40
0.4909125364
40
0.6603044239
40
0.8296983002
40
1.0000000000
40
1.0000000000
40
1.0000000000
40
1.0000000000
10
-1.1546932105
20
-9.0937225709
30
0.0000000000
10
-1.1201062811
20
-9.1272108503
30
0.0000000000
10
-1.0524758252
20
-9.1971589574
30
0.0000000000
10
-0.9568890586
20
-9.3096164646
30
0.0000000000
10
-0.8666004639
20
-9.4298260183
30
0.0000000000
10
-0.7822467685
20
-9.5564647772
30
0.0000000000
10
-0.7047997081
20
-9.6884650182
30
0.0000000000
10
-0.6582336454
20
-9.7793612967
30
0.0000000000
10
-0.6361623919
20
-9.8255260768
30
0.0000000000
11
-1.1546932105
21
-9.0937225709
31
0.0000000000
11
-1.0542585362
21
-9.1975125562
31
0.0000000000
11
-0.9588179715
21
-9.3096029830
31
0.0000000000
11
-0.8681223843
21
-9.4301547769
31
0.0000000000
11
-0.7834776447
21
-9.5572338887
31
0.0000000000
11
-0.7062088805
21
-9.6889301988
31
0.0000000000
11
-0.6361623919
21
-9.8255260768
31
0.0000000000
0
SPLINE
5
234
100
AcDbEntity
8
0
100
AcDbSpline
62
7
6
CONTINUOUS
70
0
71
3
72
9
73
5
74
3
42
0.0000001000
43
0.0000001000
44
0.0000000001
12
0.0059199915
22
-0.2677076949
32
0.0000000000
13
0.0066980742
23
-0.2676893573
33
0.0000000000
40
0.0000000000
40
0.0000000000
40
0.0000000000
40
0.0000000000
40
0.5001835064
40
1.0000000000
40
1.0000000000
40
1.0000000000
40
1.0000000000
10
-1.1610019627
20
-8.8260238261
30
0.0000000000
10
-1.1600149354
20
-8.8706581506
30
0.0000000000
10
-1.1579768811
20
-8.9598926294
30
0.0000000000
10
-1.1558091464
20
-9.0491240523
30
0.0000000000
10
-1.1546932105
20
-9.0937225709
30
0.0000000000
11
-1.1610019627
21
-8.8260238261
31
0.0000000000
11
-1.1579436892
21
-8.9599246151
31
0.0000000000
11
-1.1546932105
21
-9.0937225709
31
0.0000000000
0
SPLINE
5
235
100
AcDbEntity
8
0
100
AcDbSpline
62
7
6
CONTINUOUS
70
0
71
3
72
21
73
17
74
15
42
0.0000001000
43
0.0000001000
44
0.0000000001
12
-0.4351517938
22
-0.5482124374
32
0.0000000000
13
0.6637010544
23
0.2285050727
33
0.0000000000
40
0.0000000000
40
0.0000000000
40
0.0000000000
40
0.0000000000
40
0.0489340534
40
0.1018927694
40
0.1608546007
40
0.2250041340
40
0.2931279559
40
0.3646303962
40
0.4385848926
40
0.5134420319
40
0.6597176799
40
0.7920887766
40
0.8513338461
40
0.9053522930
40
0.9546467420
40
1.0000000000
40
1.0000000000
40
1.0000000000
40
1.0000000000
10
-2.8355465903
20
-8.4334960663
30
0.0000000000
10
-2.8426445040
20
-8.4424381519
30
0.0000000000
10
-2.8548760298
20
-8.4631573477
30
0.0000000000
10
-2.8663721388
20
-8.4991258134
30
0.0000000000
10
-2.8715219575
20
-8.5400834854
30
0.0000000000
10
-2.8701797561
20
-8.5848296373
30
0.0000000000
10
-2.8624807470
20
-8.6318678765
30
0.0000000000
10
-2.8487125431
20
-8.6798650988
30
0.0000000000
10
-2.8292539757
20
-8.7275485463
30
0.0000000000
10
-2.7967144979
20
-8.7883356636
30
0.0000000000
10
-2.7468764795
20
-8.8548030760
30
0.0000000000
10
-2.6860217996
20
-8.9064609646
30
0.0000000000
10
-2.6348621354
20
-8.9328209530
30
0.0000000000
10
-2.5983511355
20
-8.9439634166
30
0.0000000000
10
-2.5634420254
20
-8.9466996671
30
0.0000000000
10
-2.5414422775
20
-8.9426250598
30
0.0000000000
10
-2.5314086091
20
-8.9391705767
30
0.0000000000
11
-2.8355465903
21
-8.4334960663
31
0.0000000000
11
-2.8532513744
21
-8.4628152098
31
0.0000000000
11
-2.8648851017
21
-8.4980093194
31
0.0000000000
11
-2.8703460854
21
-8.5389152185
31
0.0000000000
11
-2.8692505754
21
-8.5838016631
31
0.0000000000
11
-2.8617215514
21
-8.6308849976
31
0.0000000000
11
-2.8480320289
21
-8.6790225921
31
0.0000000000
11
-2.8285270176
21
-8.7269695974
31
0.0000000000
11
-2.8038116054
21
-8.7731682291
31
0.0000000000
11
-2.7419123943
21
-8.8547190375
31
0.0000000000
11
-2.6702753504
21
-8.9134736741
31
0.0000000000
11
-2.6332675776
21
-8.9321804023
31
0.0000000000
11
-2.5970016677
21
-8.9428710776
31
0.0000000000
11
-2.5625776039
21
-8.9451944230
31
0.0000000000
11
-2.5314086091
21
-8.9391705767
31
0.0000000000
0
SPLINE
5
236
100
AcDbEntity
8
0
100
AcDbSpline
62
7
6
CONTINUOUS
70
0
71
3
72
9
73
5
74
3
42
0.0000001000
43
0.0000001000
44
0.0000000001
12
0.0078081142
22
-0.4715054621
32
0.0000000000
13
0.0102052400
23
-0.4714596700
33
0.0000000000
40
0.0000000000
40
0.0000000000
40
0.0000000000
40
0.0000000000
40
0.5003204021
40
1.0000000000
40
1.0000000000
40
1.0000000000
40
1.0000000000
10
-2.4296014557
20
-7.6820582680
30
0.0000000000
10
-2.4282992694
20
-7.7606928688
30
0.0000000000
10
-2.4254974327
20
-7.9178581222
30
0.0000000000
10
-2.4222960764
20
-8.0750157465
30
0.0000000000
10
-2.4205962930
20
-8.1535420060
30
0.0000000000
11
-2.4296014557
21
-7.6820582680
31
0.0000000000
11
-2.4253956293
21
-7.9179569246
31
0.0000000000
11
-2.4205962930
21
-8.1535420060
31
0.0000000000
0
SPLINE
5
237
100
AcDbEntity
8
0
100
AcDbSpline
62
7
6
CONTINUOUS
70
0
71
3
72
9
73
5
74
3
42
0.0000001000
43
0.0000001000
44
0.0000000001
12
-0.2105428139
22
-0.1428961154
32
0.0000000000
13
-0.1579197840
23
-0.1989490563
33
0.0000000000
40
0.0000000000
40
0.0000000000
40
0.0000000000
40
0.0000000000
40
0.3227723141
40
1.0000000000
40
1.0000000000
40
1.0000000000
40
1.0000000000
10
-2.6503524641
20
-8.2604354428
30
0.0000000000
10
-2.6730049279
20
-8.2758097461
30
0.0000000000
10
-2.7407318491
20
-8.3270620146
30
0.0000000000
10
-2.7998973740
20
-8.3885847964
30
0.0000000000
10
-2.8355465906
20
-8.4334960661
30
0.0000000000
11
-2.6503524641
21
-8.2604354428
31
0.0000000000
11
-2.7158337349
21
-8.3099653750
31
0.0000000000
11
-2.8355465906
21
-8.4334960661
31
0.0000000000
0
SPLINE
5
238
100
AcDbEntity
8
0
100
AcDbSpline
62
7
6
CONTINUOUS
70
0
71
3
72
10
73
6
74
4
42
0.0000001000
43
0.0000001000
44
0.0000000001
12
0.2130931691
22
0.0732473850
32
0.0000000000
13
0.2250548349
23
-0.0045875254
33
0.0000000000
40
0.0000000000
40
0.0000000000
40
0.0000000000
40
0.0000000000
40
0.1497471349
40
0.5662948194
40
1.0000000000
40
1.0000000000
40
1.0000000000
40
1.0000000000
10
-2.2107625635
20
-8.7095772753
30
0.0000000000
10
-2.2001258663
20
-8.7059210800
30
0.0000000000
10
-2.1595065706
20
-8.6932480356
30
0.0000000000
10
-2.0856005740
20
-8.6786975336
30
0.0000000000
10
-2.0216150299
20
-8.6758663530
30
0.0000000000
10
-1.9890792139
20
-8.6765295641
30
0.0000000000
11
-2.2107625635
21
-8.7095772753
31
0.0000000000
11
-2.1785574504
21
-8.6995287223
31
0.0000000000
11
-2.0865933798
21
-8.6812370019
31
0.0000000000
11
-1.9890792139
21
-8.6765295641
31
0.0000000000
0
SPLINE
5
239
100
AcDbEntity
8
0
100
AcDbSpline
62
7
6
CONTINUOUS
70
0
71
3
72
20
73
16
74
14
42
0.0000001000
43
0.0000001000
44
0.0000000001
12
-0.5063326406
22
-0.3440508053
32
0.0000000000
13
0.5455814759
23
-0.2727936435
33
0.0000000000
40
0.0000000000
40
0.0000000000
40
0.0000000000
40
0.0000000000
40
0.0326647840
40
0.0859886065
40
0.1441651047
40
0.2082631619
40
0.2786310244
40
0.3545401512
40
0.5182101870
40
0.6039321596
40
0.6897660330
40
0.7738646729
40
0.8545234792
40
0.9296386836
40
1.0000000000
40
1.0000000000
40
1.0000000000
40
1.0000000000
10
-4.1598205566
20
-8.6578364519
30
0.0000000000
10
-4.1653336387
20
-8.6615825670
30
0.0000000000
10
-4.1789225469
20
-8.6728165621
30
0.0000000000
10
-4.1967058079
20
-8.6965571654
30
0.0000000000
10
-4.2106132250
20
-8.7297627579
30
0.0000000000
10
-4.2182082765
20
-8.7684137019
30
0.0000000000
10
-4.2192825579
20
-8.8113453506
30
0.0000000000
10
-4.2121023812
20
-8.8741102453
30
0.0000000000
10
-4.1922727630
20
-8.9379211884
30
0.0000000000
10
-4.1624526191
20
-8.9992846272
30
0.0000000000
10
-4.1350175974
20
-9.0435577192
30
0.0000000000
10
-4.1037846841
20
-9.0839303648
30
0.0000000000
10
-4.0698293699
20
-9.1190947836
30
0.0000000000
10
-4.0340962645
20
-9.1482042137
30
0.0000000000
10
-4.0087323877
20
-9.1636786863
30
0.0000000000
10
-3.9959364441
20
-9.1700767263
30
0.0000000000
11
-4.1598205566
21
-8.6578364519
31
0.0000000000
11
-4.1752274660
21
-8.6705398359
31
0.0000000000
11
-4.1949812367
21
-8.6963808721
31
0.0000000000
11
-4.2090432963
21
-8.7289623054
31
0.0000000000
11
-4.2169124757
21
-8.7672607494
31
0.0000000000
11
-4.2182972123
21
-8.8101613892
31
0.0000000000
11
-4.2132264892
21
-8.8561859420
31
0.0000000000
11
-4.1845139221
21
-8.9518034202
31
0.0000000000
11
-4.1616762653
21
-8.9988411451
31
0.0000000000
11
-4.1340803011
21
-9.0433350964
31
0.0000000000
11
-4.1026296796
21
-9.0838615383
31
0.0000000000
11
-4.0683571597
21
-9.1191611002
31
0.0000000000
11
-4.0327115651
21
-9.1479491331
31
0.0000000000
11
-3.9959364441
21
-9.1700767263
31
0.0000000000
0
SPLINE
5
23A
100
AcDbEntity
8
0
100
AcDbSpline
62
7
6
CONTINUOUS
70
0
71
3
72
13
73
9
74
7
42
0.0000001000
43
0.0000001000
44
0.0000000001
12
-0.1403800406
22
-0.0951718327
32
0.0000000000
13
0.0065348083
23
-0.1689866301
33
0.0000000000
40
0.0000000000
40
0.0000000000
40
0.0000000000
40
0.0000000000
40
0.0256863077
40
0.1940065791
40
0.3720226488
40
0.5645384560
40
0.7725574233
40
1.0000000000
40
1.0000000000
40
1.0000000000
40
1.0000000000
10
-0.4121617430
20
-10.5316688130
30
0.0000000000
10
-0.4133636913
20
-10.5324836840
30
0.0000000000
10
-0.4223131851
20
-10.5388263586
30
0.0000000000
10
-0.4374844485
20
-10.5536435995
30
0.0000000000
10
-0.4535682609
20
-10.5797173431
30
0.0000000000
10
-0.4646309436
20
-10.6106084671
30
0.0000000000
10
-0.4706349146
20
-10.6456408261
30
0.0000000000
10
-0.4711895267
20
-10.6702714288
30
0.0000000000
10
-0.4706940955
20
-10.6830830136
30
0.0000000000
11
-0.4121617430
21
-10.5316688130
31
0.0000000000
11
-0.4157153098
21
-10.5341874812
31
0.0000000000
11
-0.4361947511
21
-10.5539575629
31
0.0000000000
11
-0.4522180494
21
-10.5794439082
31
0.0000000000
11
-0.4634498432
21
-10.6100020340
31
0.0000000000
11
-0.4696257097
21
-10.6446343752
31
0.0000000000
11
-0.4706940955
21
-10.6830830136
31
0.0000000000
0
SPLINE
5
23B
100
AcDbEntity
8
0
100
AcDbSpline
62
7
6
CONTINUOUS
70
0
71
3
72
8
73
4
74
2
42
0.0000001000
43
0.0000001000
44
0.0000000001
12
-0.0846307960
22
0.1333033513
32
0.0000000000
13
-0.0845381342
23
0.1333621663
33
0.0000000000
40
0.0000000000
40
0.0000000000
40
0.0000000000
40
0.0000000000
40
1.0000000000
40
1.0000000000
40
1.0000000000
40
1.0000000000
10
0.4637830047
20
-13.0148769344
30
0.0000000000
10
0.4355727394
20
-12.9704424840
30
0.0000000000
10
0.4073779140
20
-12.9259982243
30
0.0000000000
10
0.3791985359
20
-12.8815441689
30
0.0000000000
11
0.4637830047
21
-13.0148769344
31
0.0000000000
11
0.3791985359
21
-12.8815441689
31
0.0000000000
0
SPLINE
5
23C
100
AcDbEntity
8
0
100
AcDbSpline
62
7
6
CONTINUOUS
70
0
71
3
72
8
73
4
74
2
42
0.0000001000
43
0.0000001000
44
0.0000000001
12
-0.0845409336
22
0.1333665826
32
0.0000000000
13
-0.0844482213
23
0.1334253212
33
0.0000000000
40
0.0000000000
40
0.0000000000
40
0.0000000000
40
0.0000000000
40
1.0000000000
40
1.0000000000
40
1.0000000000
40
1.0000000000
10
0.3791985359
20
-12.8815441689
30
0.0000000000
10
0.3510182247
20
-12.8370886414
30
0.0000000000
10
0.3228533619
20
-12.7926233174
30
0.0000000000
10
0.2947039548
20
-12.7481482103
30
0.0000000000
11
0.3791985359
21
-12.8815441689
31
0.0000000000
11
0.2947039548
21
-12.7481482103
31
0.0000000000
0
SPLINE
5
23D
100
AcDbEntity
8
0
100
AcDbSpline
62
7
6
CONTINUOUS
70
0
71
3
72
8
73
4
74
2
42
0.0000001000
43
0.0000001000
44
0.0000000001
12
-0.0844512568
22
0.1334301171
32
0.0000000000
13
-0.0843584935
23
0.1334887797
33
0.0000000000
40
0.0000000000
40
0.0000000000
40
0.0000000000
40
0.0000000000
40
1.0000000000
40
1.0000000000
40
1.0000000000
40
1.0000000000
10
0.2947039548
20
-12.7481482103
30
0.0000000000
10
0.2665535359
20
-12.7036715046
30
0.0000000000
10
0.2384185738
20
-12.6591850151
30
0.0000000000
10
0.2102990759
20
-12.6146887552
30
0.0000000000
11
0.2947039548
21
-12.7481482103
31
0.0000000000
11
0.2102990759
21
-12.6146887552
31
0.0000000000
0
SPLINE
5
23E
100
AcDbEntity
8
0
100
AcDbSpline
62
7
6
CONTINUOUS
70
0
71
3
72
8
73
4
74
2
42
0.0000001000
43
0.0000001000
44
0.0000000001
12
-0.0843615190
22
0.1334935671
32
0.0000000000
13
-0.0842687105
23
0.1335521635
33
0.0000000000
40
0.0000000000
40
0.0000000000
40
0.0000000000
40
0.0000000000
40
1.0000000000
40
1.0000000000
40
1.0000000000
40
1.0000000000
10
0.2102990759
20
-12.6146887552
30
0.0000000000
10
0.1821785696
20
-12.5701908995
30
0.0000000000
10
0.1540735286
20
-12.5256832727
30
0.0000000000
10
0.1259839585
20
-12.4811658849
30
0.0000000000
11
0.2102990759
21
-12.6146887552
31
0.0000000000
11
0.1259839585
21
-12.4811658849
31
0.0000000000
0
SPLINE
5
23F
100
AcDbEntity
8
0
100
AcDbSpline
62
7
6
CONTINUOUS
70
0
71
3
72
8
73
4
74
2
42
0.0000001000
43
0.0000001000
44
0.0000000001
12
-0.0842715871
22
0.1335567225
32
0.0000000000
13
-0.0841787395
23
0.1336152623
33
0.0000000000
40
0.0000000000
40
0.0000000000
40
0.0000000000
40
0.0000000000
40
1.0000000000
40
1.0000000000
40
1.0000000000
40
1.0000000000
10
0.1259839585
20
-12.4811658849
30
0.0000000000
10
0.0978934294
20
-12.4366469774
30
0.0000000000
10
0.0698183723
20
-12.3921183082
30
0.0000000000
10
0.0417587924
20
-12.3475798874
30
0.0000000000
11
0.1259839585
21
-12.4811658849
31
0.0000000000
11
0.0417587924
21
-12.3475798874
31
0.0000000000
0
SPLINE
5
240
100
AcDbEntity
8
0
100
AcDbSpline
62
7
6
CONTINUOUS
70
0
71
3
72
8
73
4
74
2
42
0.0000001000
43
0.0000001000
44
0.0000000001
12
-0.0841816320
22
0.1336198534
32
0.0000000000
13
-0.0840887452
23
0.1336783368
33
0.0000000000
40
0.0000000000
40
0.0000000000
40
0.0000000000
40
0.0000000000
40
1.0000000000
40
1.0000000000
40
1.0000000000
40
1.0000000000
10
0.0417587924
20
-12.3475798874
30
0.0000000000
10
0.0136982484
20
-12.3030399363
30
0.0000000000
10
-0.0143468172
20
-12.2584902329
30
0.0000000000
10
-0.0423763989
20
-12.2139307873
30
0.0000000000
11
0.0417587924
21
-12.3475798874
31
0.0000000000
11
-0.0423763989
21
-12.2139307873
31
0.0000000000
0
SPLINE
5
241
100
AcDbEntity
8
0
100
AcDbSpline
62
7
6
CONTINUOUS
70
0
71
3
72
8
73
4
74
2
42
0.0000001000
43
0.0000001000
44
0.0000000001
12
-0.0840914916
22
0.1336827029
32
0.0000000000
13
-0.0839985595
23
0.1337411201
33
0.0000000000
40
0.0000000000
40
0.0000000000
40
0.0000000000
40
0.0000000000
40
1.0000000000
40
1.0000000000
40
1.0000000000
40
1.0000000000
10
-0.0423763989
20
-12.2139307873
30
0.0000000000
10
-0.0704068961
20
-12.1693698863
30
0.0000000000
10
-0.0984219084
20
-12.1247992425
30
0.0000000000
10
-0.1264214282
20
-12.0802188692
30
0.0000000000
11
-0.0423763989
21
-12.2139307873
31
0.0000000000
11
-0.1264214282
21
-12.0802188692
31
0.0000000000
0
SPLINE
5
242
100
AcDbEntity
8
0
100
AcDbSpline
62
7
6
CONTINUOUS
70
0
71
3
72
8
73
4
74
2
42
0.0000001000
43
0.0000001000
44
0.0000000001
12
-0.0840013024
22
0.1337454873
32
0.0000000000
13
-0.0839083185
23
0.1338038290
33
0.0000000000
40
0.0000000000
40
0.0000000000
40
0.0000000000
40
0.0000000000
40
1.0000000000
40
1.0000000000
40
1.0000000000
40
1.0000000000
10
-0.1264214282
20
-12.0802188692
30
0.0000000000
10
-0.1544218623
20
-12.0356370400
30
0.0000000000
10
-0.1824068029
20
-11.9910454807
30
0.0000000000
10
-0.2103762424
20
-11.9464442044
30
0.0000000000
11
-0.1264214282
21
-12.0802188692
31
0.0000000000
11
-0.2103762424
21
-11.9464442044
31
0.0000000000
0
SPLINE
5
243
100
AcDbEntity
8
0
100
AcDbSpline
62
7
6
CONTINUOUS
70
0
71
3
72
8
73
4
74
2
42
0.0000001000
43
0.0000001000
44
0.0000000001
12
-0.0839110221
22
0.1338081403
32
0.0000000000
13
-0.0838179866
23
0.1338664063
33
0.0000000000
40
0.0000000000
40
0.0000000000
40
0.0000000000
40
0.0000000000
40
1.0000000000
40
1.0000000000
40
1.0000000000
40
1.0000000000
10
-0.2103762424
20
-11.9464442044
30
0.0000000000
10
-0.2383465831
20
-11.9018414910
30
0.0000000000
10
-0.2663014217
20
-11.8572290599
30
0.0000000000
10
-0.2942407506
20
-11.8126069245
30
0.0000000000
11
-0.2103762424
21
-11.9464442044
31
0.0000000000
11
-0.2942407506
21
-11.8126069245
31
0.0000000000
0
SPLINE
5
244
100
AcDbEntity
8
0
100
AcDbSpline
62
7
6
CONTINUOUS
70
0
71
3
72
8
73
4
74
2
42
0.0000001000
43
0.0000001000
44
0.0000000001
12
0.2190333536
22
0.1628418487
32
0.0000000000
13
0.2191367462
23
0.1627026956
33
0.0000000000
40
0.0000000000
40
0.0000000000
40
0.0000000000
40
0.0000000000
40
1.0000000000
40
1.0000000000
40
1.0000000000
40
1.0000000000
10
-3.0138731779
20
-11.6211275259
30
0.0000000000
10
-2.9408620600
20
-11.5668469097
30
0.0000000000
10
-2.8678336013
20
-11.5125896135
30
0.0000000000
10
-2.7947880192
20
-11.4583553817
30
0.0000000000
11
-3.0138731779
21
-11.6211275259
31
0.0000000000
11
-2.7947880192
21
-11.4583553817
31
0.0000000000
0
SPLINE
5
245
100
AcDbEntity
8
0
100
AcDbSpline
62
7
6
CONTINUOUS
70
0
71
3
72
8
73
4
74
2
42
0.0000001000
43
0.0000001000
44
0.0000000001
12
0.0732364468
22
0.0543759434
32
0.0000000000
13
0.0732478988
23
0.0543605151
33
0.0000000000
40
0.0000000000
40
0.0000000000
40
0.0000000000
40
0.0000000000
40
1.0000000000
40
1.0000000000
40
1.0000000000
40
1.0000000000
10
-2.7947880192
20
-11.4583553817
30
0.0000000000
10
-2.7703758703
20
-11.4402300672
30
0.0000000000
10
-2.7459618089
20
-11.4221073289
30
0.0000000000
10
-2.7215458426
20
-11.4039871572
30
0.0000000000
11
-2.7947880192
21
-11.4583553817
31
0.0000000000
11
-2.7215458426
21
-11.4039871572
31
0.0000000000
0
SPLINE
5
246
100
AcDbEntity
8
0
100
AcDbSpline
62
7
6
CONTINUOUS
70
0
71
3
72
8
73
4
74
2
42
0.0000001000
43
0.0000001000
44
0.0000000001
12
0.0733436227
22
0.0544315560
32
0.0000000000
13
0.0733550579
23
0.0544161443
33
0.0000000000
40
0.0000000000
40
0.0000000000
40
0.0000000000
40
0.0000000000
40
1.0000000000
40
1.0000000000
40
1.0000000000
40
1.0000000000
10
-2.7215458426
20
-11.4039871572
30
0.0000000000
10
-2.6970979684
20
-11.3858433052
30
0.0000000000
10
-2.6726481844
20
-11.3677020266
30
0.0000000000
10
-2.6481964984
20
-11.3495633118
30
0.0000000000
11
-2.7215458426
21
-11.4039871572
31
0.0000000000
11
-2.6481964984
21
-11.3495633118
31
0.0000000000
0
SPLINE
5
247
100
AcDbEntity
8
0
100
AcDbSpline
62
7
6
CONTINUOUS
70
0
71
3
72
8
73
4
74
2
42
0.0000001000
43
0.0000001000
44
0.0000000001
12
0.0734506646
22
0.0544870671
32
0.0000000000
13
0.0734620827
23
0.0544716723
33
0.0000000000
40
0.0000000000
40
0.0000000000
40
0.0000000000
40
0.0000000000
40
1.0000000000
40
1.0000000000
40
1.0000000000
40
1.0000000000
10
-2.6481964984
20
-11.3495633118
30
0.0000000000
10
-2.6237129436
20
-11.3314009561
30
0.0000000000
10
-2.5992274818
20
-11.3132411710
30
0.0000000000
10
-2.5747401209
20
-11.2950839469
30
0.0000000000
11
-2.6481964984
21
-11.3495633118
31
0.0000000000
11
-2.5747401209
21
-11.2950839469
31
0.0000000000
0
SPLINE
5
248
100
AcDbEntity
8
0
100
AcDbSpline
62
7
6
CONTINUOUS
70
0
71
3
72
8
73
4
74
2
42
0.0000001000
43
0.0000001000
44
0.0000000001
12
0.0735569545
22
0.0545420192
32
0.0000000000
13
0.0735683551
23
0.0545266410
33
0.0000000000
40
0.0000000000
40
0.0000000000
40
0.0000000000
40
0.0000000000
40
1.0000000000
40
1.0000000000
40
1.0000000000
40
1.0000000000
10
-2.5747401209
20
-11.2950839469
30
0.0000000000
10
-2.5502211360
20
-11.2769032739
30
0.0000000000
10
-2.5257002472
20
-11.2587251685
30
0.0000000000
10
-2.5011774622
20
-11.2405496215
30
0.0000000000
11
-2.5747401209
21
-11.2950839469
31
0.0000000000
11
-2.5011774622
21
-11.2405496215
31
0.0000000000
0
SPLINE
5
249
100
AcDbEntity
8
0
100
AcDbSpline
62
7
6
CONTINUOUS
70
0
71
3
72
8
73
4
74
2
42
0.0000001000
43
0.0000001000
44
0.0000000001
12
0.1474231381
22
0.1092655737
32
0.0000000000
13
0.1474686342
23
0.1092041561
33
0.0000000000
40
0.0000000000
40
0.0000000000
40
0.0000000000
40
0.0000000000
40
1.0000000000
40
1.0000000000
40
1.0000000000
40
1.0000000000
10
-2.5011774622
20
-11.2405496215
30
0.0000000000
10
-2.4520364161
20
-11.2041277636
30
0.0000000000
10
-2.4028877559
20
-11.1677161791
30
0.0000000000
10
-2.3537315445
20
-11.1313147938
30
0.0000000000
11
-2.5011774622
21
-11.2405496215
31
0.0000000000
11
-2.3537315445
21
-11.1313147938
31
0.0000000000
0
SPLINE
5
24A
100
AcDbEntity
8
0
100
AcDbSpline
62
7
6
CONTINUOUS
70
0
71
3
72
8
73
4
74
2
42
0.0000001000
43
0.0000001000
44
0.0000000001
12
-0.0096008433
22
0.1319547210
32
0.0000000000
13
-0.0093968639
23
0.1319695140
33
0.0000000000
40
0.0000000000
40
0.0000000000
40
0.0000000000
40
0.0000000000
40
1.0000000000
40
1.0000000000
40
1.0000000000
40
1.0000000000
10
-1.1549349073
20
-13.2078638971
30
0.0000000000
10
-1.1581351884
20
-13.1638789901
30
0.0000000000
10
-1.1613014352
20
-13.1198915834
30
0.0000000000
10
-1.1644337232
20
-13.0759017454
30
0.0000000000
11
-1.1549349073
21
-13.2078638971
31
0.0000000000
11
-1.1644337232
21
-13.0759017454
31
0.0000000000
0
SPLINE
5
24B
100
AcDbEntity
8
0
100
AcDbSpline
62
7
6
CONTINUOUS
70
0
71
3
72
8
73
4
74
2
42
0.0000001000
43
0.0000001000
44
0.0000000001
12
-0.0073276865
22
0.1029099961
32
0.0000000000
13
-0.0072038941
23
0.1029187694
33
0.0000000000
40
0.0000000000
40
0.0000000000
40
0.0000000000
40
0.0000000000
40
1.0000000000
40
1.0000000000
40
1.0000000000
40
1.0000000000
10
-1.1644337232
20
-13.0759017454
30
0.0000000000
10
-1.1668762854
20
-13.0415984134
30
0.0000000000
10
-1.1692981976
20
-13.0072936029
30
0.0000000000
10
-1.1716994956
20
-12.9729873465
30
0.0000000000
11
-1.1644337232
21
-13.0759017454
31
0.0000000000
11
-1.1716994956
21
-12.9729873465
31
0.0000000000
0
SPLINE
5
24C
100
AcDbEntity
8
0
100
AcDbSpline
62
7
6
CONTINUOUS
70
0
71
3
72
8
73
4
74
2
42
0.0000001000
43
0.0000001000
44
0.0000000001
12
-0.0020414342
22
0.0291650454
32
0.0000000000
13
-0.0020315043
23
0.0291657399
33
0.0000000000
40
0.0000000000
40
0.0000000000
40
0.0000000000
40
0.0000000000
40
1.0000000000
40
1.0000000000
40
1.0000000000
40
1.0000000000
10
-1.1716994956
20
-12.9729873465
30
0.0000000000
10
-1.1723799737
20
-12.9632656647
30
0.0000000000
10
-1.1730587964
20
-12.9535438667
30
0.0000000000
10
-1.1737359645
20
-12.9438219534
30
0.0000000000
11
-1.1716994956
21
-12.9729873465
31
0.0000000000
11
-1.1737359645
21
-12.9438219534
31
0.0000000000
0
SPLINE
5
24D
100
AcDbEntity
8
0
100
AcDbSpline
62
7
6
CONTINUOUS
70
0
71
3
72
8
73
4
74
2
42
0.0000001000
43
0.0000001000
44
0.0000000001
12
-0.0092075871
22
0.1321907550
32
0.0000000000
13
-0.0090038785
23
0.1322047700
33
0.0000000000
40
0.0000000000
40
0.0000000000
40
0.0000000000
40
0.0000000000
40
1.0000000000
40
1.0000000000
40
1.0000000000
40
1.0000000000
10
-1.1737359645
20
-12.9438219534
30
0.0000000000
10
-1.1768051602
20
-12.8997583684
30
0.0000000000
10
-1.1798403665
20
-12.8556924132
30
0.0000000000
10
-1.1828416593
20
-12.8116241566
30
0.0000000000
11
-1.1737359645
21
-12.9438219534
31
0.0000000000
11
-1.1828416593
21
-12.8116241566
31
0.0000000000
0
SPLINE
5
24E
100
AcDbEntity
8
0
100
AcDbSpline
62
7
6
CONTINUOUS
70
0
71
3
72
8
73
4
74
2
42
0.0000001000
43
0.0000001000
44
0.0000000001
12
-0.0090109420
22
0.1323084843
32
0.0000000000
13
-0.0088073710
23
0.1323221588
33
0.0000000000
40
0.0000000000
40
0.0000000000
40
0.0000000000
40
0.0000000000
40
1.0000000000
40
1.0000000000
40
1.0000000000
40
1.0000000000
10
-1.1828416593
20
-12.8116241566
30
0.0000000000
10
-1.1858453066
20
-12.7675213285
30
0.0000000000
10
-1.1888149872
20
-12.7234161953
30
0.0000000000
10
-1.1917507776
20
-12.6793088090
30
0.0000000000
11
-1.1828416593
21
-12.8116241566
31
0.0000000000
11
-1.1917507776
21
-12.6793088090
31
0.0000000000
0
SPLINE
5
24F
100
AcDbEntity
8
0
100
AcDbSpline
62
7
6
CONTINUOUS
70
0
71
3
72
8
73
4
74
2
42
0.0000001000
43
0.0000001000
44
0.0000000001
12
-0.0088142703
22
0.1324258142
32
0.0000000000
13
-0.0086108394
23
0.1324391976
33
0.0000000000
40
0.0000000000
40
0.0000000000
40
0.0000000000
40
0.0000000000
40
1.0000000000
40
1.0000000000
40
1.0000000000
40
1.0000000000
10
-1.1917507776
20
-12.6793088090
30
0.0000000000
10
-1.1946888677
20
-12.6351668710
30
0.0000000000
10
-1.1975930143
20
-12.5910226763
30
0.0000000000
10
-1.2004632941
20
-12.5468762771
30
0.0000000000
11
-1.1917507776
21
-12.6793088090
31
0.0000000000
11
-1.2004632941
21
-12.5468762771
31
0.0000000000
0
SPLINE
5
250
100
AcDbEntity
8
0
100
AcDbSpline
62
7
6
CONTINUOUS
70
0
71
3
72
8
73
4
74
2
42
0.0000001000
43
0.0000001000
44
0.0000000001
12
-0.0086175797
22
0.1325428665
32
0.0000000000
13
-0.0084142905
23
0.1325559576
33
0.0000000000
40
0.0000000000
40
0.0000000000
40
0.0000000000
40
0.0000000000
40
1.0000000000
40
1.0000000000
40
1.0000000000
40
1.0000000000
10
-1.2004632941
20
-12.5468762771
30
0.0000000000
10
-1.2033358207
20
-12.5026953216
30
0.0000000000
10
-1.2061744273
20
-12.4585121581
30
0.0000000000
10
-1.2089791908
20
-12.4143268389
30
0.0000000000
11
-1.2004632941
21
-12.5468762771
31
0.0000000000
11
-1.2089791908
21
-12.4143268389
31
0.0000000000
0
SPLINE
5
251
100
AcDbEntity
8
0
100
AcDbSpline
62
7
6
CONTINUOUS
70
0
71
3
72
8
73
4
74
2
42
0.0000001000
43
0.0000001000
44
0.0000000001
12
-0.0084208673
22
0.1326595671
32
0.0000000000
13
-0.0082177162
23
0.1326723215
33
0.0000000000
40
0.0000000000
40
0.0000000000
40
0.0000000000
40
0.0000000000
40
1.0000000000
40
1.0000000000
40
1.0000000000
40
1.0000000000
10
-1.2089791908
20
-12.4143268389
30
0.0000000000
10
-1.2117861466
20
-12.3701069832
30
0.0000000000
10
-1.2145592063
20
-12.3258849684
30
0.0000000000
10
-1.2172984450
20
-12.2816608613
30
0.0000000000
11
-1.2089791908
21
-12.4143268389
31
0.0000000000
11
-1.2172984450
21
-12.2816608613
31
0.0000000000
0
SPLINE
5
252
100
AcDbEntity
8
0
100
AcDbSpline
62
7
6
CONTINUOUS
70
0
71
3
72
8
73
4
74
2
42
0.0000001000
43
0.0000001000
44
0.0000000001
12
-0.0082241283
22
0.1327758421
32
0.0000000000
13
-0.0080211118
23
0.1327882152
33
0.0000000000
40
0.0000000000
40
0.0000000000
40
0.0000000000
40
0.0000000000
40
1.0000000000
40
1.0000000000
40
1.0000000000
40
1.0000000000
10
-1.2172984450
20
-12.2816608613
30
0.0000000000
10
-1.2200398211
20
-12.2374022472
30
0.0000000000
10
-1.2227473235
20
-12.1931415376
30
0.0000000000
10
-1.2254210274
20
-12.1488787992
30
0.0000000000
11
-1.2172984450
21
-12.2816608613
31
0.0000000000
11
-1.2254210274
21
-12.1488787992
31
0.0000000000
0
SPLINE
5
253
100
AcDbEntity
8
0
100
AcDbSpline
62
7
6
CONTINUOUS
70
0
71
3
72
8
73
4
74
2
42
0.0000001000
43
0.0000001000
44
0.0000000001
12
-0.0080273632
22
0.1328917065
32
0.0000000000
13
-0.0078244829
23
0.1329036967
33
0.0000000000
40
0.0000000000
40
0.0000000000
40
0.0000000000
40
0.0000000000
40
1.0000000000
40
1.0000000000
40
1.0000000000
40
1.0000000000
10
-1.2254210274
20
-12.1488787992
30
0.0000000000
10
-1.2280968151
20
-12.1045815637
30
0.0000000000
10
-1.2307387517
20
-12.0602822963
30
0.0000000000
10
-1.2333469127
20
-12.0159810640
30
0.0000000000
11
-1.2254210274
21
-12.1488787992
31
0.0000000000
11
-1.2333469127
21
-12.0159810640
31
0.0000000000
0
SPLINE
5
254
100
AcDbEntity
8
0
100
AcDbSpline
62
7
6
CONTINUOUS
70
0
71
3
72
8
73
4
74
2
42
0.0000001000
43
0.0000001000
44
0.0000000001
12
0.0164733344
22
0.0056715903
32
0.0000000000
13
0.0153440734
23
0.0082778556
33
0.0000000000
40
0.0000000000
40
0.0000000000
40
0.0000000000
40
0.0000000000
40
1.0000000000
40
1.0000000000
40
1.0000000000
40
1.0000000000
10
-2.5314086091
20
-8.9391705767
30
0.0000000000
10
-2.5259174977
20
-8.9372800465
30
0.0000000000
10
-2.5205786259
20
-8.9349387586
30
0.0000000000
10
-2.5154639348
20
-8.9321794734
30
0.0000000000
11
-2.5314086091
21
-8.9391705767
31
0.0000000000
11
-2.5154639348
21
-8.9321794734
31
0.0000000000
0
SPLINE
5
255
100
AcDbEntity
8
0
100
AcDbSpline
62
7
6
CONTINUOUS
70
0
71
3
72
8
73
4
74
2
42
0.0000001000
43
0.0000001000
44
0.0000000001
12
0.0086406465
22
0.0046614756
32
0.0000000000
13
0.0081755682
23
0.0054391842
33
0.0000000000
40
0.0000000000
40
0.0000000000
40
0.0000000000
40
0.0000000000
40
1.0000000000
40
1.0000000000
40
1.0000000000
40
1.0000000000
10
-2.5154639348
20
-8.9321794734
30
0.0000000000
10
-2.5125837193
20
-8.9306256482
30
0.0000000000
10
-2.5097745936
20
-8.9289392760
30
0.0000000000
10
-2.5070494043
20
-8.9271262146
30
0.0000000000
11
-2.5154639348
21
-8.9321794734
31
0.0000000000
11
-2.5070494043
21
-8.9271262146
31
0.0000000000
0
SPLINE
5
256
100
AcDbEntity
8
0
100
AcDbSpline
62
7
6
CONTINUOUS
70
0
71
3
72
9
73
5
74
3
42
0.0000001000
43
0.0000001000
44
0.0000000001
12
0.0106371480
22
0.0070768669
32
0.0000000000
13
0.0097229476
23
0.0082947907
33
0.0000000000
40
0.0000000000
40
0.0000000000
40
0.0000000000
40
0.0000000000
40
0.2942429091
40
1.0000000000
40
1.0000000000
40
1.0000000000
40
1.0000000000
10
-2.5070494043
20
-8.9271262146
30
0.0000000000
10
-2.5060061025
20
-8.9264321086
30
0.0000000000
10
-2.5025021955
20
-8.9240100485
30
0.0000000000
10
-2.4991487041
20
-8.9213773208
30
0.0000000000
10
-2.4968613577
20
-8.9194259517
30
0.0000000000
11
-2.5070494043
21
-8.9271262146
31
0.0000000000
11
-2.5039571257
21
-8.9249885212
31
0.0000000000
11
-2.4968613577
21
-8.9194259517
31
0.0000000000
0
SPLINE
5
257
100
AcDbEntity
8
0
100
AcDbSpline
62
7
6
CONTINUOUS
70
0
71
3
72
8
73
4
74
2
42
0.0000001000
43
0.0000001000
44
0.0000000001
12
0.0173295965
22
0.0147841357
32
0.0000000000
13
0.0140744492
23
0.0177926162
33
0.0000000000
40
0.0000000000
40
0.0000000000
40
0.0000000000
40
0.0000000000
40
1.0000000000
40
1.0000000000
40
1.0000000000
40
1.0000000000
10
-2.4968613577
20
-8.9194259517
30
0.0000000000
10
-2.4910848255
20
-8.9144979065
30
0.0000000000
10
-2.4858147152
20
-8.9089747945
30
0.0000000000
10
-2.4811232322
20
-8.9030439224
30
0.0000000000
11
-2.4968613577
21
-8.9194259517
31
0.0000000000
11
-2.4811232322
21
-8.9030439224
31
0.0000000000
0
SPLINE
5
258
100
AcDbEntity
8
0
100
AcDbSpline
62
7
6
CONTINUOUS
70
0
71
3
72
9
73
5
74
3
42
0.0000001000
43
0.0000001000
44
0.0000000001
12
-0.0606796211
22
0.0303397960
32
0.0000000000
13
-0.0675177567
23
0.0077407033
33
0.0000000000
40
0.0000000000
40
0.0000000000
40
0.0000000000
40
0.0000000000
40
0.5298097607
40
1.0000000000
40
1.0000000000
40
1.0000000000
40
1.0000000000
10
-0.2681375751
20
-10.5342288926
30
0.0000000000
10
-0.2788537936
20
-10.5288707859
30
0.0000000000
10
-0.2998519297
20
-10.5201723690
30
0.0000000000
10
-0.3220482614
20
-10.5152240003
30
0.0000000000
10
-0.3326303247
20
-10.5140107993
30
0.0000000000
11
-0.2681375751
21
-10.5342288926
31
0.0000000000
11
-0.3014401601
21
-10.5207064060
31
0.0000000000
11
-0.3326303247
21
-10.5140107993
31
0.0000000000
0
SPLINE
5
259
100
AcDbEntity
8
0
100
AcDbSpline
62
7
6
CONTINUOUS
70
0
71
3
72
9
73
5
74
3
42
0.0000001000
43
0.0000001000
44
0.0000000001
12
-0.0196567579
22
0.0022535869
32
0.0000000000
13
-0.0197844578
23
-0.0005267934
33
0.0000000000
40
0.0000000000
40
0.0000000000
40
0.0000000000
40
0.0000000000
40
0.0354606539
40
1.0000000000
40
1.0000000000
40
1.0000000000
40
1.0000000000
10
-0.3326303247
20
-10.5140107993
30
0.0000000000
10
-0.3328626719
20
-10.5139841614
30
0.0000000000
10
-0.3394169035
20
-10.5132481037
30
0.0000000000
10
-0.3460259387
20
-10.5129413347
30
0.0000000000
10
-0.3523869014
20
-10.5131107056
30
0.0000000000
11
-0.3326303247
21
-10.5140107993
31
0.0000000000
11
-0.3333275755
21
-10.5139324990
31
0.0000000000
11
-0.3523869014
21
-10.5131107056
31
0.0000000000
0
SPLINE
5
25A
100
AcDbEntity
8
0
100
AcDbSpline
62
7
6
CONTINUOUS
70
0
71
3
72
8
73
4
74
2
42
0.0000001000
43
0.0000001000
44
0.0000000001
12
-0.0044706143
22
-0.0001190374
32
0.0000000000
13
-0.0044636033
23
-0.0002747913
33
0.0000000000
40
0.0000000000
40
0.0000000000
40
0.0000000000
40
0.0000000000
40
1.0000000000
40
1.0000000000
40
1.0000000000
40
1.0000000000
10
-0.3523869014
20
-10.5131107056
30
0.0000000000
10
-0.3538771062
20
-10.5131503848
30
0.0000000000
10
-0.3553665584
20
-10.5132155994
30
0.0000000000
10
-0.3568544261
20
-10.5133071965
30
0.0000000000
11
-0.3523869014
21
-10.5131107056
31
0.0000000000
11
-0.3568544261
21
-10.5133071965
31
0.0000000000
0
SPLINE
5
25B
100
AcDbEntity
8
0
100
AcDbSpline
62
7
6
CONTINUOUS
70
0
71
3
72
9
73
5
74
3
42
0.0000001000
43
0.0000001000
44
0.0000000001
12
-0.0168809503
22
-0.0010392362
32
0.0000000000
13
-0.0165803406
23
-0.0034114311
33
0.0000000000
40
0.0000000000
40
0.0000000000
40
0.0000000000
40
0.0000000000
40
0.4010807852
40
1.0000000000
40
1.0000000000
40
1.0000000000
40
1.0000000000
10
-0.3568544261
20
-10.5133071965
30
0.0000000000
10
-0.3591113011
20
-10.5134461357
30
0.0000000000
10
-0.3647291953
20
-10.5139438937
30
0.0000000000
10
-0.3703063798
20
-10.5148373743
30
0.0000000000
10
-0.3736164746
20
-10.5155184315
30
0.0000000000
11
-0.3568544261
21
-10.5133071965
31
0.0000000000
11
-0.3636112111
21
-10.5139090763
31
0.0000000000
11
-0.3736164746
21
-10.5155184315
31
0.0000000000
0
SPLINE
5
25C
100
AcDbEntity
8
0
100
AcDbSpline
62
7
6
CONTINUOUS
70
0
71
3
72
8
73
4
74
2
42
0.0000001000
43
0.0000001000
44
0.0000000001
12
-0.0161009443
22
-0.0033127945
32
0.0000000000
13
-0.0154254696
23
-0.0056656924
33
0.0000000000
40
0.0000000000
40
0.0000000000
40
0.0000000000
40
0.0000000000
40
1.0000000000
40
1.0000000000
40
1.0000000000
40
1.0000000000
10
-0.3736164746
20
-10.5155184315
30
0.0000000000
10
-0.3789834561
20
-10.5166226963
30
0.0000000000
10
-0.3842710750
20
-10.5181106131
30
0.0000000000
10
-0.3894128982
20
-10.5199991772
30
0.0000000000
11
-0.3736164746
21
-10.5155184315
31
0.0000000000
11
-0.3894128982
21
-10.5199991772
31
0.0000000000
0
SPLINE
5
25D
100
AcDbEntity
8
0
100
AcDbSpline
62
7
6
CONTINUOUS
70
0
71
3
72
9
73
5
74
3
42
0.0000001000
43
0.0000001000
44
0.0000000001
12
-0.0034312085
22
-0.0012602645
32
0.0000000000
13
-0.0033857632
23
-0.0013794336
33
0.0000000000
40
0.0000000000
40
0.0000000000
40
0.0000000000
40
0.0000000000
40
0.5537631073
40
1.0000000000
40
1.0000000000
40
1.0000000000
40
1.0000000000
10
-0.3894128982
20
-10.5199991772
30
0.0000000000
10
-0.3900462571
20
-10.5202318066
30
0.0000000000
10
-0.3911859986
20
-10.5206628722
30
0.0000000000
10
-0.3923181214
20
-10.5211138650
30
0.0000000000
10
-0.3928217389
20
-10.5213190497
30
0.0000000000
11
-0.3894128982
21
-10.5199991772
31
0.0000000000
11
-0.3913062144
21
-10.5207153338
31
0.0000000000
11
-0.3928217389
21
-10.5213190497
31
0.0000000000
0
SPLINE
5
25E
100
AcDbEntity
8
0
100
AcDbSpline
62
7
6
CONTINUOUS
70
0
71
3
72
8
73
4
74
2
42
0.0000001000
43
0.0000001000
44
0.0000000001
12
-0.0147498916
22
-0.0060094270
32
0.0000000000
13
-0.0136792153
23
-0.0081679153
33
0.0000000000
40
0.0000000000
40
0.0000000000
40
0.0000000000
40
0.0000000000
40
1.0000000000
40
1.0000000000
40
1.0000000000
40
1.0000000000
10
-0.3928217389
20
-10.5213190497
30
0.0000000000
10
-0.3977383694
20
-10.5233221920
30
0.0000000000
10
-0.4025046520
20
-10.5257003869
30
0.0000000000
10
-0.4070643905
20
-10.5284230254
30
0.0000000000
11
-0.3928217389
21
-10.5213190497
31
0.0000000000
11
-0.4070643905
21
-10.5284230254
31
0.0000000000
0
SPLINE
5
25F
100
AcDbEntity
8
0
100
AcDbSpline
62
7
6
CONTINUOUS
70
0
71
3
72
8
73
4
74
2
42
0.0000001000
43
0.0000001000
44
0.0000000001
12
-0.0051896036
22
-0.0030987335
32
0.0000000000
13
-0.0050020328
23
-0.0033911704
33
0.0000000000
40
0.0000000000
40
0.0000000000
40
0.0000000000
40
0.0000000000
40
1.0000000000
40
1.0000000000
40
1.0000000000
40
1.0000000000
10
-0.4070643905
20
-10.5284230254
30
0.0000000000
10
-0.4087942584
20
-10.5294559365
30
0.0000000000
10
-0.4104943987
20
-10.5305384228
30
0.0000000000
10
-0.4121617430
20
-10.5316688130
30
0.0000000000
11
-0.4070643905
21
-10.5284230254
31
0.0000000000
11
-0.4121617430
21
-10.5316688130
31
0.0000000000
0
SPLINE
5
260
100
AcDbEntity
8
0
100
AcDbSpline
62
7
6
CONTINUOUS
70
0
71
3
72
17
73
13
74
11
42
0.0000001000
43
0.0000001000
44
0.0000000001
12
0.3188598319
22
0.1095011417
32
0.0000000000
13
-0.1212390693
23
0.3136562084
33
0.0000000000
40
0.0000000000
40
0.0000000000
40
0.0000000000
40
0.0000000000
40
0.0075231156
40
0.1000456351
40
0.1948067938
40
0.2965433956
40
0.4084392100
40
0.5314515480
40
0.6653300865
40
0.8081913356
40
0.9560035031
40
1.0000000000
40
1.0000000000
40
1.0000000000
40
1.0000000000
10
-0.3406211987
20
-10.0346137442
30
0.0000000000
10
-0.3398215923
20
-10.0343391477
30
0.0000000000
10
-0.3292302379
20
-10.0305631066
30
0.0000000000
10
-0.3097770719
20
-10.0199712305
30
0.0000000000
10
-0.2868494732
20
-9.9964957034
30
0.0000000000
10
-0.2698147717
20
-9.9660599665
30
0.0000000000
10
-0.2589264231
20
-9.9296951460
30
0.0000000000
10
-0.2543751229
20
-9.8884470897
30
0.0000000000
10
-0.2562241631
20
-9.8435595723
30
0.0000000000
10
-0.2643386742
20
-9.7965770638
30
0.0000000000
10
-0.2749301210
20
-9.7605398374
30
0.0000000000
10
-0.2823755906
20
-9.7403669628
30
0.0000000000
10
-0.2841536220
20
-9.7357670380
30
0.0000000000
11
-0.3406211987
21
-10.0346137442
31
0.0000000000
11
-0.3382321175
21
-10.0337618482
31
0.0000000000
11
-0.3109390145
21
-10.0188655289
31
0.0000000000
11
-0.2885037878
21
-9.9962640753
31
0.0000000000
11
-0.2714850917
21
-9.9666105533
31
0.0000000000
11
-0.2603521096
21
-9.9306920059
31
0.0000000000
11
-0.2555086440
21
-9.8896365127
31
0.0000000000
11
-0.2571209280
21
-9.8446734482
31
0.0000000000
11
-0.2651241315
21
-9.7973344577
31
0.0000000000
11
-0.2790323069
21
-9.7496466606
31
0.0000000000
11
-0.2841536220
21
-9.7357670380
31
0.0000000000
0
SPLINE
5
261
100
AcDbEntity
8
0
100
AcDbSpline
62
7
6
CONTINUOUS
70
0
71
3
72
8
73
4
74
2
42
0.0000001000
43
0.0000001000
44
0.0000000001
12
-0.0132967588
22
0.0343998924
32
0.0000000000
13
-0.0158149281
23
0.0332922127
33
0.0000000000
40
0.0000000000
40
0.0000000000
40
0.0000000000
40
0.0000000000
40
1.0000000000
40
1.0000000000
40
1.0000000000
40
1.0000000000
10
-0.2841536220
20
-9.7357670380
30
0.0000000000
10
-0.2885858749
20
-9.7243004072
30
0.0000000000
10
-0.2934544237
20
-9.7130032241
30
0.0000000000
10
-0.2987260664
20
-9.7019058198
30
0.0000000000
11
-0.2841536220
21
-9.7357670380
31
0.0000000000
11
-0.2987260664
21
-9.7019058198
31
0.0000000000
0
SPLINE
5
262
100
AcDbEntity
8
0
100
AcDbSpline
62
7
6
CONTINUOUS
70
0
71
3
72
8
73
4
74
2
42
0.0000001000
43
0.0000001000
44
0.0000000001
12
-0.0009917002
22
0.0396334206
32
0.0000000000
13
-0.0009746124
23
0.0396338471
33
0.0000000000
40
0.0000000000
40
0.0000000000
40
0.0000000000
40
0.0000000000
40
1.0000000000
40
1.0000000000
40
1.0000000000
40
1.0000000000
10
-1.9890792139
20
-8.6765295641
30
0.0000000000
10
-1.9894097807
20
-8.6633184239
30
0.0000000000
10
-1.9897374985
20
-8.6501072119
30
0.0000000000
10
-1.9900623693
20
-8.6368959296
30
0.0000000000
11
-1.9890792139
21
-8.6765295641
31
0.0000000000
11
-1.9900623693
21
-8.6368959296
31
0.0000000000
0
SPLINE
5
263
100
AcDbEntity
8
0
100
AcDbSpline
62
7
6
CONTINUOUS
70
0
71
3
72
8
73
4
74
2
42
0.0000001000
43
0.0000001000
44
0.0000000001
12
-0.0002436830
22
0.0099096772
32
0.0000000000
13
-0.0002426152
23
0.0099097035
33
0.0000000000
40
0.0000000000
40
0.0000000000
40
0.0000000000
40
0.0000000000
40
1.0000000000
40
1.0000000000
40
1.0000000000
40
1.0000000000
10
-1.9900623693
20
-8.6368959296
30
0.0000000000
10
-1.9901435970
20
-8.6335927038
30
0.0000000000
10
-1.9902246467
20
-8.6302894737
30
0.0000000000
10
-1.9903055184
20
-8.6269862392
30
0.0000000000
11
-1.9900623693
21
-8.6368959296
31
0.0000000000
11
-1.9903055184
21
-8.6269862392
31
0.0000000000
0
SPLINE
5
264
100
AcDbEntity
8
0
100
AcDbSpline
62
7
6
CONTINUOUS
70
0
71
3
72
8
73
4
74
2
42
0.0000001000
43
0.0000001000
44
0.0000000001
12
-0.0009705793
22
0.0396436615
32
0.0000000000
13
-0.0009534968
23
0.0396440775
33
0.0000000000
40
0.0000000000
40
0.0000000000
40
0.0000000000
40
0.0000000000
40
1.0000000000
40
1.0000000000
40
1.0000000000
40
1.0000000000
10
-1.9903055184
20
-8.6269862392
30
0.0000000000
10
-1.9906290448
20
-8.6137716854
30
0.0000000000
10
-1.9909497232
20
-8.6005570615
30
0.0000000000
10
-1.9912675555
20
-8.5873423690
30
0.0000000000
11
-1.9903055184
21
-8.6269862392
31
0.0000000000
11
-1.9912675555
21
-8.5873423690
31
0.0000000000
0
SPLINE
5
265
100
AcDbEntity
8
0
100
AcDbSpline
62
7
6
CONTINUOUS
70
0
71
3
72
8
73
4
74
2
42
0.0000001000
43
0.0000001000
44
0.0000000001
12
-0.0009537302
22
0.0396537803
32
0.0000000000
13
-0.0009366502
23
0.0396541880
33
0.0000000000
40
0.0000000000
40
0.0000000000
40
0.0000000000
40
0.0000000000
40
1.0000000000
40
1.0000000000
40
1.0000000000
40
1.0000000000
10
-1.9912675555
20
-8.5873423690
30
0.0000000000
10
-1.9915854656
20
-8.5741244422
30
0.0000000000
10
-1.9919005281
20
-8.5609064468
30
0.0000000000
10
-1.9922127448
20
-8.5476883841
30
0.0000000000
11
-1.9912675555
21
-8.5873423690
31
0.0000000000
11
-1.9922127448
21
-8.5476883841
31
0.0000000000
0
SPLINE
5
266
100
AcDbEntity
8
0
100
AcDbSpline
62
7
6
CONTINUOUS
70
0
71
3
72
9
73
5
74
3
42
0.0000001000
43
0.0000001000
44
0.0000000001
12
-0.0002341913
22
0.0099147626
32
0.0000000000
13
-0.0002331239
23
0.0099147878
33
0.0000000000
40
0.0000000000
40
0.0000000000
40
0.0000000000
40
0.0000000000
40
0.4999387674
40
1.0000000000
40
1.0000000000
40
1.0000000000
40
1.0000000000
10
-1.9922127448
20
-8.5476883841
30
0.0000000000
10
-1.9922517719
20
-8.5460361260
30
0.0000000000
10
-1.9923297467
20
-8.5427312031
30
0.0000000000
10
-1.9924075436
20
-8.5394262759
30
0.0000000000
10
-1.9924464024
20
-8.5377736089
30
0.0000000000
11
-1.9922127448
21
-8.5476883841
31
0.0000000000
11
-1.9923296927
21
-8.5427316068
31
0.0000000000
11
-1.9924464024
21
-8.5377736089
31
0.0000000000
0
SPLINE
5
267
100
AcDbEntity
8
0
100
AcDbSpline
62
7
6
CONTINUOUS
70
0
71
3
72
8
73
4
74
2
42
0.0000001000
43
0.0000001000
44
0.0000000001
12
-0.0009326097
22
0.0396639938
32
0.0000000000
13
-0.0009155351
23
0.0396643910
33
0.0000000000
40
0.0000000000
40
0.0000000000
40
0.0000000000
40
0.0000000000
40
1.0000000000
40
1.0000000000
40
1.0000000000
40
1.0000000000
10
-1.9924464024
20
-8.5377736089
30
0.0000000000
10
-1.9927572723
20
-8.5245522776
30
0.0000000000
10
-1.9930652955
20
-8.5113308795
30
0.0000000000
10
-1.9933704738
20
-8.4981094158
30
0.0000000000
11
-1.9924464024
21
-8.5377736089
31
0.0000000000
11
-1.9933704738
21
-8.4981094158
31
0.0000000000
0
SPLINE
5
268
100
AcDbEntity
8
0
100
AcDbSpline
62
7
6
CONTINUOUS
70
0
71
3
72
8
73
4
74
2
42
0.0000001000
43
0.0000001000
44
0.0000000001
12
-0.0009157589
22
0.0396740890
32
0.0000000000
13
-0.0008986869
23
0.0396744779
33
0.0000000000
40
0.0000000000
40
0.0000000000
40
0.0000000000
40
0.0000000000
40
1.0000000000
40
1.0000000000
40
1.0000000000
40
1.0000000000
10
-1.9933704738
20
-8.4981094158
30
0.0000000000
10
-1.9936757268
20
-8.4848847195
30
0.0000000000
10
-1.9939781335
20
-8.4716599576
30
0.0000000000
10
-1.9942776958
20
-8.4584351317
30
0.0000000000
11
-1.9933704738
21
-8.4981094158
31
0.0000000000
11
-1.9942776958
21
-8.4584351317
31
0.0000000000
0
SPLINE
5
269
100
AcDbEntity
8
0
100
AcDbSpline
62
7
6
CONTINUOUS
70
0
71
3
72
8
73
4
74
2
42
0.0000001000
43
0.0000001000
44
0.0000000001
12
-0.0002246992
22
0.0099198326
32
0.0000000000
13
-0.0002236324
23
0.0099198566
33
0.0000000000
40
0.0000000000
40
0.0000000000
40
0.0000000000
40
0.0000000000
40
1.0000000000
40
1.0000000000
40
1.0000000000
40
1.0000000000
10
-1.9942776958
20
-8.4584351317
30
0.0000000000
10
-1.9943525956
20
-8.4551285208
30
0.0000000000
10
-1.9944273175
20
-8.4518219059
30
0.0000000000
10
-1.9945018616
20
-8.4485152870
30
0.0000000000
11
-1.9942776958
21
-8.4584351317
31
0.0000000000
11
-1.9945018616
21
-8.4485152870
31
0.0000000000
0
SPLINE
5
26A
100
AcDbEntity
8
0
100
AcDbSpline
62
7
6
CONTINUOUS
70
0
71
3
72
8
73
4
74
2
42
0.0000001000
43
0.0000001000
44
0.0000000001
12
-0.0008946387
22
0.0396842727
32
0.0000000000
13
-0.0008775721
23
0.0396846511
33
0.0000000000
40
0.0000000000
40
0.0000000000
40
0.0000000000
40
0.0000000000
40
1.0000000000
40
1.0000000000
40
1.0000000000
40
1.0000000000
10
-1.9945018616
20
-8.4485152870
30
0.0000000000
10
-1.9948000745
20
-8.4352871961
30
0.0000000000
10
-1.9950954421
20
-8.4220590415
30
0.0000000000
10
-1.9953879661
20
-8.4088308244
30
0.0000000000
11
-1.9945018616
21
-8.4485152870
31
0.0000000000
11
-1.9953879661
21
-8.4088308244
31
0.0000000000
0
SPLINE
5
26B
100
AcDbEntity
8
0
100
AcDbSpline
62
7
6
CONTINUOUS
70
0
71
3
72
9
73
5
74
3
42
0.0000001000
43
0.0000001000
44
0.0000000001
12
-0.0399896385
22
-0.0271512047
32
0.0000000000
13
-0.0423984045
23
-0.0232044694
33
0.0000000000
40
0.0000000000
40
0.0000000000
40
0.0000000000
40
0.0000000000
40
0.5148066474
40
1.0000000000
40
1.0000000000
40
1.0000000000
40
1.0000000000
10
-0.7582219609
20
-11.4383005128
30
0.0000000000
10
-0.7650842715
20
-11.4429597197
30
0.0000000000
10
-0.7786347731
20
-11.4516842662
30
0.0000000000
10
-0.7925888232
20
-11.4597450461
30
0.0000000000
10
-0.7994459646
20
-11.4634979309
30
0.0000000000
11
-0.7582219609
21
-11.4383005128
31
0.0000000000
11
-0.7791429989
21
-11.4517667134
31
0.0000000000
11
-0.7994459646
21
-11.4634979309
31
0.0000000000
0
SPLINE
5
26C
100
AcDbEntity
8
0
100
AcDbSpline
62
7
6
CONTINUOUS
70
0
71
3
72
24
73
20
74
18
42
0.0000001000
43
0.0000001000
44
0.0000000001
12
-2.4630304992
22
-1.3480062851
32
0.0000000000
13
-0.2865029941
23
2.7925843364
33
0.0000000000
40
0.0000000000
40
0.0000000000
40
0.0000000000
40
0.0000000000
40
0.0243586116
40
0.0576117722
40
0.0919235740
40
0.1279904044
40
0.1663607367
40
0.2070710563
40
0.2953677267
40
0.3433551255
40
0.3934778738
40
0.4985303351
40
0.5532853458
40
0.6089124442
40
0.7207110736
40
0.8313981292
40
0.8853370920
40
0.9376480790
40
1.0000000000
40
1.0000000000
40
1.0000000000
40
1.0000000000
10
-0.7994459646
20
-11.4634979309
30
0.0000000000
10
-0.8194446324
20
-11.4744431181
30
0.0000000000
10
-0.8684892555
20
-11.4971484991
30
0.0000000000
10
-0.9514962797
20
-11.5209506402
30
0.0000000000
10
-1.0482125325
20
-11.5315877641
30
0.0000000000
10
-1.1501172042
20
-11.5267853384
30
0.0000000000
10
-1.2561899280
20
-11.5068314862
30
0.0000000000
10
-1.4056356694
20
-11.4595113079
30
0.0000000000
10
-1.5539423659
20
-11.3833381488
30
0.0000000000
10
-1.6976834952
20
-11.2847069439
30
0.0000000000
10
-1.8455444581
20
-11.1652584685
30
0.0000000000
10
-1.9839391408
20
-11.0250990999
30
0.0000000000
10
-2.1110063879
20
-10.8687702454
30
0.0000000000
10
-2.2317636244
20
-10.6996572902
30
0.0000000000
10
-2.3627657462
20
-10.4743308841
30
0.0000000000
10
-2.4646583440
20
-10.2360877187
30
0.0000000000
10
-2.5254341343
20
-10.0424737469
30
0.0000000000
10
-2.5622955963
20
-9.8891862461
30
0.0000000000
10
-2.5787702849
20
-9.7829348688
30
0.0000000000
10
-2.5847249556
20
-9.7248938695
30
0.0000000000
11
-0.7994459646
21
-11.4634979309
31
0.0000000000
11
-0.8614498797
21
-11.4922508932
31
0.0000000000
11
-0.9510356904
21
-11.5181186598
31
0.0000000000
11
-1.0466381068
21
-11.5289518705
31
0.0000000000
11
-1.1476812862
21
-11.5246304891
31
0.0000000000
11
-1.2535070556
21
-11.5051997439
31
0.0000000000
11
-1.3624414412
21
-11.4710678147
31
0.0000000000
11
-1.5838966997
21
-11.3603412510
31
0.0000000000
11
-1.6950201325
21
-11.2844560351
31
0.0000000000
11
-1.8044569213
21
-11.1962637473
31
0.0000000000
11
-2.0123030660
21
-10.9875129797
31
0.0000000000
11
-2.1092341994
21
-10.8684386810
31
0.0000000000
11
-2.1998945046
21
-10.7415057722
31
0.0000000000
11
-2.3575349334
21
-10.4705272117
31
0.0000000000
11
-2.4789933049
21
-10.1848995846
31
0.0000000000
11
-2.5242055275
21
-10.0405640777
31
0.0000000000
11
-2.5583116360
21
-9.8978981572
31
0.0000000000
11
-2.5847249556
21
-9.7248938695
31
0.0000000000
0
SPLINE
5
26D
100
AcDbEntity
8
0
100
AcDbSpline
62
7
6
CONTINUOUS
70
0
71
3
72
8
73
4
74
2
42
0.0000001000
43
0.0000001000
44
0.0000000001
12
-0.0104818478
22
0.1021680217
32
0.0000000000
13
-0.0039960106
23
0.1025120267
33
0.0000000000
40
0.0000000000
40
0.0000000000
40
0.0000000000
40
0.0000000000
40
1.0000000000
40
1.0000000000
40
1.0000000000
40
1.0000000000
10
-2.5847249556
20
-9.7248938695
30
0.0000000000
10
-2.5882189049
20
-9.6908378622
30
0.0000000000
10
-2.5906786192
20
-9.6566912603
30
0.0000000000
10
-2.5920106227
20
-9.6225205847
30
0.0000000000
11
-2.5847249556
21
-9.7248938695
31
0.0000000000
11
-2.5920106227
21
-9.6225205847
31
0.0000000000
0
SPLINE
5
26E
100
AcDbEntity
8
0
100
AcDbSpline
62
7
6
CONTINUOUS
70
0
71
3
72
9
73
5
74
3
42
0.0000001000
43
0.0000001000
44
0.0000000001
12
0.0289511823
22
0.0099683000
32
0.0000000000
13
0.0244745547
23
0.0181955893
33
0.0000000000
40
0.0000000000
40
0.0000000000
40
0.0000000000
40
0.0000000000
40
0.0206924224
40
1.0000000000
40
1.0000000000
40
1.0000000000
40
1.0000000000
10
-3.0408569349
20
-11.6353287639
30
0.0000000000
10
-3.0406572448
20
-11.6352600078
30
0.0000000000
10
-3.0310167302
20
-11.6319065854
30
0.0000000000
10
-3.0218625501
20
-11.6270672188
30
0.0000000000
10
-3.0138731778
20
-11.6211275260
30
0.0000000000
11
-3.0408569349
21
-11.6353287639
31
0.0000000000
11
-3.0402584819
21
-11.6351205907
31
0.0000000000
11
-3.0138731778
21
-11.6211275260
31
0.0000000000
0
SPLINE
5
26F
100
AcDbEntity
8
0
100
AcDbSpline
62
7
6
CONTINUOUS
70
0
71
3
72
8
73
4
74
2
42
0.0000001000
43
0.0000001000
44
0.0000000001
12
0.0041930749
22
0.0014404717
32
0.0000000000
13
0.0041248058
23
0.0016227722
33
0.0000000000
40
0.0000000000
40
0.0000000000
40
0.0000000000
40
0.0000000000
40
1.0000000000
40
1.0000000000
40
1.0000000000
40
1.0000000000
10
-1.2305943850
20
-13.3679894549
30
0.0000000000
10
-1.2291966934
20
-13.3675092977
30
0.0000000000
10
-1.2278095675
20
-13.3669988201
30
0.0000000000
10
-1.2264346322
20
-13.3664578960
30
0.0000000000
11
-1.2305943850
21
-13.3679894549
31
0.0000000000
11
-1.2264346322
21
-13.3664578960
31
0.0000000000
0
SPLINE
5
270
100
AcDbEntity
8
0
100
AcDbSpline
62
7
6
CONTINUOUS
70
0
71
3
72
13
73
9
74
7
42
0.0000001000
43
0.0000001000
44
0.0000000001
12
0.1736939510
22
0.0683342978
32
0.0000000000
13
-0.0134937533
23
0.1854717612
33
0.0000000000
40
0.0000000000
40
0.0000000000
40
0.0000000000
40
0.0000000000
40
0.0605261473
40
0.2209243996
40
0.3894695714
40
0.5735576632
40
0.7750618318
40
1.0000000000
40
1.0000000000
40
1.0000000000
40
1.0000000000
10
-1.2264346322
20
-13.3664578960
30
0.0000000000
10
-1.2229302903
20
-13.3650792255
30
0.0000000000
10
-1.2104282648
20
-13.3593250726
30
0.0000000000
10
-1.1908801794
20
-13.3444866537
30
0.0000000000
10
-1.1721700447
20
-13.3182583741
30
0.0000000000
10
-1.1598201622
20
-13.2858835458
30
0.0000000000
10
-1.1537573827
20
-13.2483229725
30
0.0000000000
10
-1.1539231366
20
-13.2217704553
30
0.0000000000
10
-1.1549348900
20
-13.2078638959
30
0.0000000000
11
-1.2264346322
21
-13.3664578960
31
0.0000000000
11
-1.2161860820
21
-13.3617264521
31
0.0000000000
11
-1.1923623072
21
-13.3437783163
31
0.0000000000
11
-1.1738794535
21
-13.3184649407
31
0.0000000000
11
-1.1612942656
21
-13.2866288403
31
0.0000000000
11
-1.1549726230
21
-13.2496938216
31
0.0000000000
11
-1.1549348900
21
-13.2078638959
31
0.0000000000
0
SPLINE
5
271
100
AcDbEntity
8
0
100
AcDbSpline
62
7
6
CONTINUOUS
70
0
71
3
72
9
73
5
74
3
42
0.0000001000
43
0.0000001000
44
0.0000000001
12
0.1150496983
22
0.1454423903
32
0.0000000000
13
0.1539408832
23
0.1037213593
33
0.0000000000
40
0.0000000000
40
0.0000000000
40
0.0000000000
40
0.0000000000
40
0.5105371921
40
1.0000000000
40
1.0000000000
40
1.0000000000
40
1.0000000000
10
-2.4811232170
20
-8.9030439345
30
0.0000000000
10
-2.4615441670
20
-8.8782926846
30
0.0000000000
10
-2.4197023889
20
-8.8324131982
30
0.0000000000
10
-2.3711723315
20
-8.7937121707
30
0.0000000000
10
-2.3460562192
20
-8.7767895881
30
0.0000000000
11
-2.4811232170
21
-8.9030439345
31
0.0000000000
11
-2.4170773111
21
-8.8333173689
31
0.0000000000
11
-2.3460562192
21
-8.7767895881
31
0.0000000000
0
SPLINE
5
272
100
AcDbEntity
8
0
100
AcDbSpline
62
7
6
CONTINUOUS
70
0
71
3
72
10
73
6
74
4
42
0.0000001000
43
0.0000001000
44
0.0000000001
12
0.0995431878
22
0.0670696084
32
0.0000000000
13
0.1112721971
23
0.0450434011
33
0.0000000000
40
0.0000000000
40
0.0000000000
40
0.0000000000
40
0.0000000000
40
0.0094745838
40
0.7736608657
40
1.0000000000
40
1.0000000000
40
1.0000000000
40
1.0000000000
10
-2.3460562192
20
-8.7767895881
30
0.0000000000
10
-2.3457418424
20
-8.7765777692
30
0.0000000000
10
-2.3200535224
20
-8.7593072365
30
0.0000000000
10
-2.2850142789
20
-8.7397169407
30
0.0000000000
10
-2.2486191715
20
-8.7239924440
30
0.0000000000
10
-2.2402240872
20
-8.7205940825
30
0.0000000000
11
-2.3460562192
21
-8.7767895881
31
0.0000000000
11
-2.3451124490
21
-8.7761550816
31
0.0000000000
11
-2.2651639057
21
-8.7313708263
31
0.0000000000
11
-2.2402240872
21
-8.7205940825
31
0.0000000000
0
SPLINE
5
273
100
AcDbEntity
8
0
100
AcDbSpline
62
7
6
CONTINUOUS
70
0
71
3
72
8
73
4
74
2
42
0.0000001000
43
0.0000001000
44
0.0000000001
12
0.0291599227
22
0.0118040457
32
0.0000000000
13
0.0297484154
23
0.0102255443
33
0.0000000000
40
0.0000000000
40
0.0000000000
40
0.0000000000
40
0.0000000000
40
1.0000000000
40
1.0000000000
40
1.0000000000
40
1.0000000000
10
-2.2402240872
20
-8.7205940825
30
0.0000000000
10
-2.2305041130
20
-8.7166594006
30
0.0000000000
10
-2.2206787020
20
-8.7129857901
30
0.0000000000
10
-2.2107625635
20
-8.7095772753
30
0.0000000000
11
-2.2402240872
21
-8.7205940825
31
0.0000000000
11
-2.2107625635
21
-8.7095772753
31
0.0000000000
0
SPLINE
5
274
100
AcDbEntity
8
0
100
AcDbSpline
62
7
6
CONTINUOUS
70
0
71
3
72
9
73
5
74
3
42
0.0000001000
43
0.0000001000
44
0.0000000001
12
0.1412935098
22
0.1687700722
32
0.0000000000
13
0.0962818957
23
0.1980529064
33
0.0000000000
40
0.0000000000
40
0.0000000000
40
0.0000000000
40
0.0000000000
40
0.4889811338
40
1.0000000000
40
1.0000000000
40
1.0000000000
40
1.0000000000
10
-0.2942407506
20
-11.8126069245
30
0.0000000000
10
-0.2712107971
20
-11.7850984641
30
0.0000000000
10
-0.2277637032
20
-11.7256852054
30
0.0000000000
10
-0.1920432054
20
-11.6614141766
30
0.0000000000
10
-0.1756425836
20
-11.6276779194
30
0.0000000000
11
-0.2942407506
21
-11.8126069245
31
0.0000000000
11
-0.2305686274
21
-11.7258330337
31
0.0000000000
11
-0.1756425836
21
-11.6276779194
31
0.0000000000
0
SPLINE
5
275
100
AcDbEntity
8
0
100
AcDbSpline
62
7
6
CONTINUOUS
70
0
71
3
72
9
73
5
74
3
42
0.0000001000
43
0.0000001000
44
0.0000000001
12
0.1048301851
22
0.2156368306
32
0.0000000000
13
0.0596511957
23
0.2322793391
33
0.0000000000
40
0.0000000000
40
0.0000000000
40
0.0000000000
40
0.0000000000
40
0.4862848729
40
1.0000000000
40
1.0000000000
40
1.0000000000
40
1.0000000000
10
-0.1756425836
20
-11.6276779194
30
0.0000000000
10
-0.1586501392
20
-11.5927242765
30
0.0000000000
10
-0.1277971578
20
-11.5188738223
30
0.0000000000
10
-0.1044131106
20
-11.4423853482
30
0.0000000000
10
-0.0941985368
20
-11.4026102114
30
0.0000000000
11
-0.1756425836
21
-11.6276779194
31
0.0000000000
11
-0.1304096640
21
-11.5202757386
31
0.0000000000
11
-0.0941985368
21
-11.4026102114
31
0.0000000000
0
SPLINE
5
276
100
AcDbEntity
8
0
100
AcDbSpline
62
7
6
CONTINUOUS
70
0
71
3
72
8
73
4
74
2
42
0.0000001000
43
0.0000001000
44
0.0000000001
12
0.0656501327
22
0.2556389570
32
0.0000000000
13
0.0219509380
23
0.2628349757
33
0.0000000000
40
0.0000000000
40
0.0000000000
40
0.0000000000
40
0.0000000000
40
1.0000000000
40
1.0000000000
40
1.0000000000
40
1.0000000000
10
-0.0941985368
20
-11.4026102114
30
0.0000000000
10
-0.0723151592
20
-11.3173972258
30
0.0000000000
10
-0.0586848684
20
-11.2299726624
30
0.0000000000
10
-0.0513678890
20
-11.1423610038
30
0.0000000000
11
-0.0941985368
21
-11.4026102114
31
0.0000000000
11
-0.0513678890
21
-11.1423610038
31
0.0000000000
0
SPLINE
5
277
100
AcDbEntity
8
0
100
AcDbSpline
62
7
6
CONTINUOUS
70
0
71
3
72
9
73
5
74
3
42
0.0000001000
43
0.0000001000
44
0.0000000001
12
0.0026301875
22
0.0009044812
32
0.0000000000
13
0.0026045010
23
0.0009781680
33
0.0000000000
40
0.0000000000
40
0.0000000000
40
0.0000000000
40
0.0000000000
40
0.2452468212
40
1.0000000000
40
1.0000000000
40
1.0000000000
40
1.0000000000
10
0.4590433221
20
-13.3853635245
30
0.0000000000
10
0.4592583372
20
-13.3852895841
30
0.0000000000
10
0.4601340583
20
-13.3849850750
30
0.0000000000
10
0.4610055852
20
-13.3846682297
30
0.0000000000
10
0.4616608370
20
-13.3844221379
30
0.0000000000
11
0.4590433221
21
-13.3853635245
31
0.0000000000
11
0.4596876206
21
-13.3851394824
31
0.0000000000
11
0.4616608370
21
-13.3844221379
31
0.0000000000
0
SPLINE
5
278
100
AcDbEntity
8
0
100
AcDbSpline
62
7
6
CONTINUOUS
70
0
71
3
72
17
73
13
74
11
42
0.0000001000
43
0.0000001000
44
0.0000000001
12
0.3881609000
22
0.1457809273
32
0.0000000000
13
-0.2214975636
23
0.3488858297
33
0.0000000000
40
0.0000000000
40
0.0000000000
40
0.0000000000
40
0.0000000000
40
0.0676862516
40
0.1419635970
40
0.2215709102
40
0.3094123527
40
0.4069160727
40
0.5137773566
40
0.6289276051
40
0.7501552721
40
0.8736671712
40
1.0000000000
40
1.0000000000
40
1.0000000000
40
1.0000000000
10
0.4616608370
20
-13.3844221379
30
0.0000000000
10
0.4704185558
20
-13.3811330164
30
0.0000000000
10
0.4878367037
20
-13.3716298917
30
0.0000000000
10
0.5095096524
20
-13.3495101357
30
0.0000000000
10
0.5255137988
20
-13.3198992049
30
0.0000000000
10
0.5352249000
20
-13.2844566707
30
0.0000000000
10
0.5385705421
20
-13.2441559132
30
0.0000000000
10
0.5355014908
20
-13.2001059548
30
0.0000000000
10
0.5261362061
20
-13.1536434565
30
0.0000000000
10
0.5108448702
20
-13.1063810328
30
0.0000000000
10
0.4901221582
20
-13.0595648065
30
0.0000000000
10
0.4731104847
20
-13.0295688401
30
0.0000000000
10
0.4637830134
20
-13.0148769289
30
0.0000000000
11
0.4616608370
21
-13.3844221379
31
0.0000000000
11
0.4862251049
21
-13.3710096522
31
0.0000000000
11
0.5078551105
21
-13.3492295924
31
0.0000000000
11
0.5238500664
21
-13.3204812815
31
0.0000000000
11
0.5338215422
21
-13.2855764446
31
0.0000000000
11
0.5374839358
21
-13.2454490007
31
0.0000000000
11
0.5346717415
21
-13.2013773115
31
0.0000000000
11
0.5254491667
21
-13.1546927522
31
0.0000000000
11
0.5101398904
21
-13.1069908593
31
0.0000000000
11
0.4895321215
21
-13.0602935470
31
0.0000000000
11
0.4637830134
21
-13.0148769289
31
0.0000000000
0
SPLINE
5
279
100
AcDbEntity
8
0
100
AcDbSpline
62
7
6
CONTINUOUS
70
0
71
3
72
8
73
4
74
2
42
0.0000001000
43
0.0000001000
44
0.0000000001
12
0.0043114767
22
0.0014808301
32
0.0000000000
13
0.0042438293
23
0.0016626136
33
0.0000000000
40
0.0000000000
40
0.0000000000
40
0.0000000000
40
0.0000000000
40
1.0000000000
40
1.0000000000
40
1.0000000000
40
1.0000000000
10
1.0727632934
20
-11.6600322034
30
0.0000000000
10
1.0742004523
20
-11.6595385934
30
0.0000000000
10
1.0756271008
20
-11.6590146756
30
0.0000000000
10
1.0770417106
20
-11.6584604710
30
0.0000000000
11
1.0727632934
21
-11.6600322034
31
0.0000000000
11
1.0770417106
21
-11.6584604710
31
0.0000000000
0
SPLINE
5
27A
100
AcDbEntity
8
0
100
AcDbSpline
62
7
6
CONTINUOUS
70
0
71
3
72
21
73
17
74
15
42
0.0000001000
43
0.0000001000
44
0.0000000001
12
0.5912020298
22
0.2316164144
32
0.0000000000
13
-0.5658692234
23
0.2829376472
33
0.0000000000
40
0.0000000000
40
0.0000000000
40
0.0000000000
40
0.0000000000
40
0.0190458581
40
0.0678341491
40
0.1190625026
40
0.1750267359
40
0.2367609721
40
0.3045877968
40
0.3777859580
40
0.5356297967
40
0.6182809889
40
0.7010195282
40
0.7820664859
40
0.8597883022
40
0.9321732848
40
1.0000000000
40
1.0000000000
40
1.0000000000
40
1.0000000000
10
1.0770417106
20
-11.6584604710
30
0.0000000000
10
1.0807950272
20
-11.6569900266
30
0.0000000000
10
1.0938610761
20
-11.6509934824
30
0.0000000000
10
1.1142720449
20
-11.6357299655
30
0.0000000000
10
1.1341791483
20
-11.6090493839
30
0.0000000000
10
1.1479883574
20
-11.5758903194
30
0.0000000000
10
1.1555196974
20
-11.5372745087
30
0.0000000000
10
1.1565750215
20
-11.4943601436
30
0.0000000000
10
1.1494279057
20
-11.4315867569
30
0.0000000000
10
1.1297214298
20
-11.3677341428
30
0.0000000000
10
1.1000568140
20
-11.3062890325
30
0.0000000000
10
1.0727476629
20
-11.2619512610
30
0.0000000000
10
1.0416304087
20
-11.2215152489
30
0.0000000000
10
1.0077657399
20
-11.1862968448
30
0.0000000000
10
0.9720875895
20
-11.1571492685
30
0.0000000000
10
0.9467386519
20
-11.1416670748
30
0.0000000000
10
0.9339449684
20
-11.1352701644
30
0.0000000000
11
1.0770417106
21
-11.6584604710
31
0.0000000000
11
1.0880188637
21
-11.6534098981
31
0.0000000000
11
1.1128112175
21
-11.6350229206
31
0.0000000000
11
1.1324515071
21
-11.6092414666
31
0.0000000000
11
1.1464216100
21
-11.5767075784
31
0.0000000000
11
1.1542313567
21
-11.5384394270
31
0.0000000000
11
1.1555971624
21
-11.4955496898
31
0.0000000000
11
1.1505498424
21
-11.4495158456
31
0.0000000000
11
1.1219982339
21
-11.3538226087
31
0.0000000000
11
1.0992783427
21
-11.3067260931
31
0.0000000000
11
1.0718066203
21
-11.2621686919
31
0.0000000000
11
1.0404714785
21
-11.2215821015
31
0.0000000000
11
1.0062913695
21
-11.1862328016
31
0.0000000000
11
0.9707031123
21
-11.1574112614
31
0.0000000000
11
0.9339449684
21
-11.1352701644
31
0.0000000000
0
SPLINE
5
27B
100
AcDbEntity
8
0
100
AcDbSpline
62
7
6
CONTINUOUS
70
0
71
3
72
8
73
4
74
2
42
0.0000001000
43
0.0000001000
44
0.0000000001
12
-0.1616796383
22
-0.0459177629
32
0.0000000000
13
-0.1488528315
23
-0.0788195811
33
0.0000000000
40
0.0000000000
40
0.0000000000
40
0.0000000000
40
0.0000000000
40
1.0000000000
40
1.0000000000
40
1.0000000000
40
1.0000000000
10
-2.4205962930
20
-8.1535420060
30
0.0000000000
10
-2.4744895058
20
-8.1688479270
30
0.0000000000
10
-2.5269962966
20
-8.1897761031
30
0.0000000000
10
-2.5766139071
20
-8.2160492969
30
0.0000000000
11
-2.4205962930
21
-8.1535420060
31
0.0000000000
11
-2.5766139071
21
-8.2160492969
31
0.0000000000
0
SPLINE
5
27C
100
AcDbEntity
8
0
100
AcDbSpline
62
7
6
CONTINUOUS
70
0
71
3
72
8
73
4
74
2
42
0.0000001000
43
0.0000001000
44
0.0000000001
12
-0.0761199959
22
-0.0403065641
32
0.0000000000
13
-0.0712420734
23
-0.0483522347
33
0.0000000000
40
0.0000000000
40
0.0000000000
40
0.0000000000
40
0.0000000000
40
1.0000000000
40
1.0000000000
40
1.0000000000
40
1.0000000000
10
-2.5766139071
20
-8.2160492969
30
0.0000000000
10
-2.6019872390
20
-8.2294848182
30
0.0000000000
10
-2.6266051063
20
-8.2443180313
30
0.0000000000
10
-2.6503524641
20
-8.2604354428
30
0.0000000000
11
-2.5766139071
21
-8.2160492969
31
0.0000000000
11
-2.6503524641
21
-8.2604354428
31
0.0000000000
0
SPLINE
5
27D
100
AcDbEntity
8
0
100
AcDbSpline
62
7
6
CONTINUOUS
70
0
71
3
72
8
73
4
74
2
42
0.0000001000
43
0.0000001000
44
0.0000000001
12
-0.0251859518
22
0.0125929755
32
0.0000000000
13
-0.0265949912
23
0.0093970619
33
0.0000000000
40
0.0000000000
40
0.0000000000
40
0.0000000000
40
0.0000000000
40
1.0000000000
40
1.0000000000
40
1.0000000000
40
1.0000000000
10
-4.0158034688
20
-8.6603959458
30
0.0000000000
10
-4.0241987861
20
-8.6561982873
30
0.0000000000
10
-4.0328473762
20
-8.6524587707
30
0.0000000000
10
-4.0417123733
20
-8.6493264167
30
0.0000000000
11
-4.0158034688
21
-8.6603959458
31
0.0000000000
11
-4.0417123733
21
-8.6493264167
31
0.0000000000
0
SPLINE
5
27E
100
AcDbEntity
8
0
100
AcDbSpline
62
7
6
CONTINUOUS
70
0
71
3
72
9
73
5
74
3
42
0.0000001000
43
0.0000001000
44
0.0000000001
12
-0.0152376857
22
0.0053840768
32
0.0000000000
13
-0.0156403006
23
0.0041014716
33
0.0000000000
40
0.0000000000
40
0.0000000000
40
0.0000000000
40
0.0000000000
40
0.7099568189
40
1.0000000000
40
1.0000000000
40
1.0000000000
40
1.0000000000
10
-4.0417123733
20
-8.6493264167
30
0.0000000000
10
-4.0453184063
20
-8.6480522627
30
0.0000000000
10
-4.0504480709
20
-8.6463990766
30
0.0000000000
10
-4.0556438538
20
-8.6449651061
30
0.0000000000
10
-4.0571559746
20
-8.6445685715
30
0.0000000000
11
-4.0417123733
21
-8.6493264167
31
0.0000000000
11
-4.0526354132
21
-8.6458153744
31
0.0000000000
11
-4.0571559746
21
-8.6445685715
31
0.0000000000
0
SPLINE
5
27F
100
AcDbEntity
8
0
100
AcDbSpline
62
7
6
CONTINUOUS
70
0
71
3
72
8
73
4
74
2
42
0.0000001000
43
0.0000001000
44
0.0000000001
12
-0.0104182724
22
0.0027320606
32
0.0000000000
13
-0.0105641965
23
0.0020847327
33
0.0000000000
40
0.0000000000
40
0.0000000000
40
0.0000000000
40
0.0000000000
40
1.0000000000
40
1.0000000000
40
1.0000000000
40
1.0000000000
10
-4.0571559746
20
-8.6445685715
30
0.0000000000
10
-4.0606287321
20
-8.6436578847
30
0.0000000000
10
-4.0641284918
20
-8.6428494096
30
0.0000000000
10
-4.0676498906
20
-8.6421544987
30
0.0000000000
11
-4.0571559746
21
-8.6445685715
31
0.0000000000
11
-4.0676498906
21
-8.6421544987
31
0.0000000000
0
SPLINE
5
280
100
AcDbEntity
8
0
100
AcDbSpline
62
7
6
CONTINUOUS
70
0
71
3
72
8
73
4
74
2
42
0.0000001000
43
0.0000001000
44
0.0000000001
12
-0.0116145040
22
0.0022919998
32
0.0000000000
13
-0.0117500577
23
0.0014231323
33
0.0000000000
40
0.0000000000
40
0.0000000000
40
0.0000000000
40
0.0000000000
40
1.0000000000
40
1.0000000000
40
1.0000000000
40
1.0000000000
10
-4.0676498906
20
-8.6421544987
30
0.0000000000
10
-4.0715213919
20
-8.6413904987
30
0.0000000000
10
-4.0754190491
20
-8.6407637669
30
0.0000000000
10
-4.0793357350
20
-8.6402893895
30
0.0000000000
11
-4.0676498906
21
-8.6421544987
31
0.0000000000
11
-4.0793357350
21
-8.6402893895
31
0.0000000000
0
SPLINE
5
281
100
AcDbEntity
8
0
100
AcDbSpline
62
7
6
CONTINUOUS
70
0
71
3
72
9
73
5
74
3
42
0.0000001000
43
0.0000001000
44
0.0000000001
12
-0.0136071082
22
0.0016480527
32
0.0000000000
13
-0.0137190616
23
0.0003521398
33
0.0000000000
40
0.0000000000
40
0.0000000000
40
0.0000000000
40
0.0000000000
40
0.6121972490
40
1.0000000000
40
1.0000000000
40
1.0000000000
40
1.0000000000
10
-4.0793357350
20
-8.6402893895
30
0.0000000000
10
-4.0821124797
20
-8.6399530784
30
0.0000000000
10
-4.0866638050
20
-8.6395288104
30
0.0000000000
10
-4.0912338732
20
-8.6393232037
30
0.0000000000
10
-4.0930073032
20
-8.6392776834
30
0.0000000000
11
-4.0793357350
21
-8.6402893895
31
0.0000000000
11
-4.0876921219
21
-8.6395155580
31
0.0000000000
11
-4.0930073032
21
-8.6392776834
31
0.0000000000
0
SPLINE
5
282
100
AcDbEntity
8
0
100
AcDbSpline
62
7
6
CONTINUOUS
70
0
71
3
72
8
73
4
74
2
42
0.0000001000
43
0.0000001000
44
0.0000000001
12
-0.0087254282
22
0.0002239636
32
0.0000000000
13
-0.0087217549
23
-0.0003457965
33
0.0000000000
40
0.0000000000
40
0.0000000000
40
0.0000000000
40
0.0000000000
40
1.0000000000
40
1.0000000000
40
1.0000000000
40
1.0000000000
10
-4.0930073032
20
-8.6392776834
30
0.0000000000
10
-4.0959157792
20
-8.6392030289
30
0.0000000000
10
-4.0988273348
20
-8.6392204011
30
0.0000000000
10
-4.1017345865
20
-8.6393356666
30
0.0000000000
11
-4.0930073032
21
-8.6392776834
31
0.0000000000
11
-4.1017345865
21
-8.6393356666
31
0.0000000000
0
SPLINE
5
283
100
AcDbEntity
8
0
100
AcDbSpline
62
7
6
CONTINUOUS
70
0
71
3
72
8
73
4
74
2
42
0.0000001000
43
0.0000001000
44
0.0000000001
12
-0.0159736874
22
-0.0006333181
32
0.0000000000
13
-0.0157509886
23
-0.0027116196
33
0.0000000000
40
0.0000000000
40
0.0000000000
40
0.0000000000
40
0.0000000000
40
1.0000000000
40
1.0000000000
40
1.0000000000
40
1.0000000000
10
-4.1017345865
20
-8.6393356666
30
0.0000000000
10
-4.1070591489
20
-8.6395467727
30
0.0000000000
10
-4.1123692746
20
-8.6400862425
30
0.0000000000
10
-4.1176196041
20
-8.6409901158
30
0.0000000000
11
-4.1017345865
21
-8.6393356666
31
0.0000000000
11
-4.1176196041
21
-8.6409901158
31
0.0000000000
0
SPLINE
5
284
100
AcDbEntity
8
0
100
AcDbSpline
62
7
6
CONTINUOUS
70
0
71
3
72
9
73
5
74
3
42
0.0000001000
43
0.0000001000
44
0.0000000001
12
-0.0063178883
22
-0.0010876594
32
0.0000000000
13
-0.0062504394
23
-0.0014445922
33
0.0000000000
40
0.0000000000
40
0.0000000000
40
0.0000000000
40
0.0000000000
40
0.4993325187
40
1.0000000000
40
1.0000000000
40
1.0000000000
40
1.0000000000
10
-4.1176196041
20
-8.6409901158
30
0.0000000000
10
-4.1186711798
20
-8.6411711503
30
0.0000000000
10
-4.1207723387
20
-8.6415629787
30
0.0000000000
10
-4.1228624154
20
-8.6420145971
30
0.0000000000
10
-4.1239055460
20
-8.6422556839
30
0.0000000000
11
-4.1176196041
21
-8.6409901158
31
0.0000000000
11
-4.1207667706
21
-8.6415773632
31
0.0000000000
11
-4.1239055460
21
-8.6422556839
31
0.0000000000
0
SPLINE
5
285
100
AcDbEntity
8
0
100
AcDbSpline
62
7
6
CONTINUOUS
70
0
71
3
72
8
73
4
74
2
42
0.0000001000
43
0.0000001000
44
0.0000000001
12
-0.0168219906
22
-0.0038878734
32
0.0000000000
13
-0.0160047772
23
-0.0064790679
33
0.0000000000
40
0.0000000000
40
0.0000000000
40
0.0000000000
40
0.0000000000
40
1.0000000000
40
1.0000000000
40
1.0000000000
40
1.0000000000
10
-4.1239055460
20
-8.6422556839
30
0.0000000000
10
-4.1295128762
20
-8.6435516417
30
0.0000000000
10
-4.1350247682
20
-8.6452803464
30
0.0000000000
10
-4.1403596939
20
-8.6474400358
30
0.0000000000
11
-4.1239055460
21
-8.6422556839
31
0.0000000000
11
-4.1403596939
21
-8.6474400358
31
0.0000000000
0
SPLINE
5
286
100
AcDbEntity
8
0
100
AcDbSpline
62
7
6
CONTINUOUS
70
0
71
3
72
8
73
4
74
2
42
0.0000001000
43
0.0000001000
44
0.0000000001
12
-0.0057411213
22
-0.0023241258
32
0.0000000000
13
-0.0055932051
23
-0.0026566234
33
0.0000000000
40
0.0000000000
40
0.0000000000
40
0.0000000000
40
0.0000000000
40
1.0000000000
40
1.0000000000
40
1.0000000000
40
1.0000000000
10
-4.1403596939
20
-8.6474400358
30
0.0000000000
10
-4.1422734010
20
-8.6482147443
30
0.0000000000
10
-4.1441643370
20
-8.6490449099
30
0.0000000000
10
-4.1460287387
20
-8.6499304510
30
0.0000000000
11
-4.1403596939
21
-8.6474400358
31
0.0000000000
11
-4.1460287387
21
-8.6499304510
31
0.0000000000
0
SPLINE
5
287
100
AcDbEntity
8
0
100
AcDbSpline
62
7
6
CONTINUOUS
70
0
71
3
72
9
73
5
74
3
42
0.0000001000
43
0.0000001000
44
0.0000000001
12
-0.0143732151
22
-0.0068268942
32
0.0000000000
13
-0.0131652304
23
-0.0089457162
33
0.0000000000
40
0.0000000000
40
0.0000000000
40
0.0000000000
40
0.0000000000
40
0.3015306713
40
1.0000000000
40
1.0000000000
40
1.0000000000
40
1.0000000000
10
-4.1460287387
20
-8.6499304510
30
0.0000000000
10
-4.1474733937
20
-8.6506166236
30
0.0000000000
10
-4.1522116300
20
-8.6530025197
30
0.0000000000
10
-4.1567553867
20
-8.6557536824
30
0.0000000000
10
-4.1598205566
20
-8.6578364519
30
0.0000000000
11
-4.1460287387
21
-8.6499304510
31
0.0000000000
11
-4.1503131586
21
-8.6520886756
31
0.0000000000
11
-4.1598205566
21
-8.6578364519
31
0.0000000000
0
SPLINE
5
288
100
AcDbEntity
8
0
100
AcDbSpline
62
7
6
CONTINUOUS
70
0
71
3
72
8
73
4
74
2
42
0.0000001000
43
0.0000001000
44
0.0000000001
12
-0.0011326233
22
0.0523247072
32
0.0000000000
13
-0.0011029968
23
0.0523253460
33
0.0000000000
40
0.0000000000
40
0.0000000000
40
0.0000000000
40
0.0000000000
40
1.0000000000
40
1.0000000000
40
1.0000000000
40
1.0000000000
10
-0.7376821613
20
-8.9949990584
30
0.0000000000
10
-0.7380597024
20
-8.9775574893
30
0.0000000000
10
-0.7384323036
20
-8.9601158120
30
0.0000000000
10
-0.7387999693
20
-8.9426740300
30
0.0000000000
11
-0.7376821613
21
-8.9949990584
31
0.0000000000
11
-0.7387999693
21
-8.9426740300
31
0.0000000000
0
SPLINE
5
289
100
AcDbEntity
8
0
100
AcDbSpline
62
7
6
CONTINUOUS
70
0
71
3
72
8
73
4
74
2
42
0.0000001000
43
0.0000001000
44
0.0000000001
12
-0.0011033118
22
0.0523402859
32
0.0000000000
13
-0.0010736934
23
0.0523409044
33
0.0000000000
40
0.0000000000
40
0.0000000000
40
0.0000000000
40
0.0000000000
40
1.0000000000
40
1.0000000000
40
1.0000000000
40
1.0000000000
10
-0.7387999693
20
-8.9426740300
30
0.0000000000
10
-0.7391677398
20
-8.9252272681
30
0.0000000000
10
-0.7395305720
20
-8.9077804013
30
0.0000000000
10
-0.7398884697
20
-8.8903334332
30
0.0000000000
11
-0.7387999693
21
-8.9426740300
31
0.0000000000
11
-0.7398884697
21
-8.8903334332
31
0.0000000000
0
SPLINE
5
28A
100
AcDbEntity
8
0
100
AcDbSpline
62
7
6
CONTINUOUS
70
0
71
3
72
8
73
4
74
2
42
0.0000001000
43
0.0000001000
44
0.0000000001
12
-0.0010739998
22
0.0523558405
32
0.0000000000
13
-0.0010443894
23
0.0523564387
33
0.0000000000
40
0.0000000000
40
0.0000000000
40
0.0000000000
40
0.0000000000
40
1.0000000000
40
1.0000000000
40
1.0000000000
40
1.0000000000
10
-0.7398884697
20
-8.8903334332
30
0.0000000000
10
-0.7402464697
20
-8.8728814863
30
0.0000000000
10
-0.7405995324
20
-8.8554294381
30
0.0000000000
10
-0.7409476622
20
-8.8379772918
30
0.0000000000
11
-0.7398884697
21
-8.8903334332
31
0.0000000000
11
-0.7409476622
21
-8.8379772918
31
0.0000000000
0
SPLINE
5
28B
100
AcDbEntity
8
0
100
AcDbSpline
62
7
6
CONTINUOUS
70
0
71
3
72
8
73
4
74
2
42
0.0000001000
43
0.0000001000
44
0.0000000001
12
-0.0010446872
22
0.0523713691
32
0.0000000000
13
-0.0010150850
23
0.0523719495
33
0.0000000000
40
0.0000000000
40
0.0000000000
40
0.0000000000
40
0.0000000000
40
1.0000000000
40
1.0000000000
40
1.0000000000
40
1.0000000000
10
-0.7409476622
20
-8.8379772918
30
0.0000000000
10
-0.7412958913
20
-8.8205201688
30
0.0000000000
10
-0.7416391846
20
-8.8030629478
30
0.0000000000
10
-0.7419775463
20
-8.7856056313
30
0.0000000000
11
-0.7409476622
21
-8.8379772918
31
0.0000000000
11
-0.7419775463
21
-8.7856056313
31
0.0000000000
0
SPLINE
5
28C
100
AcDbEntity
8
0
100
AcDbSpline
62
7
6
CONTINUOUS
70
0
71
3
72
8
73
4
74
2
42
0.0000001000
43
0.0000001000
44
0.0000000001
12
-0.0010153742
22
0.0523868728
32
0.0000000000
13
-0.0009857801
23
0.0523874381
33
0.0000000000
40
0.0000000000
40
0.0000000000
40
0.0000000000
40
0.0000000000
40
1.0000000000
40
1.0000000000
40
1.0000000000
40
1.0000000000
10
-0.7419775463
20
-8.7856056313
30
0.0000000000
10
-0.7423160043
20
-8.7681433403
30
0.0000000000
10
-0.7426495280
20
-8.7506809539
30
0.0000000000
10
-0.7429781213
20
-8.7332184745
30
0.0000000000
11
-0.7419775463
21
-8.7856056313
31
0.0000000000
11
-0.7429781213
21
-8.7332184745
31
0.0000000000
0
SPLINE
5
28D
100
AcDbEntity
8
0
100
AcDbSpline
62
7
6
CONTINUOUS
70
0
71
3
72
8
73
4
74
2
42
0.0000001000
43
0.0000001000
44
0.0000000001
12
-0.0009860608
22
0.0524023556
32
0.0000000000
13
-0.0009564748
23
0.0524029056
33
0.0000000000
40
0.0000000000
40
0.0000000000
40
0.0000000000
40
0.0000000000
40
1.0000000000
40
1.0000000000
40
1.0000000000
40
1.0000000000
10
-0.7429781213
20
-8.7332184745
30
0.0000000000
10
-0.7433068082
20
-8.7157510226
30
0.0000000000
10
-0.7436305621
20
-8.6982834778
30
0.0000000000
10
-0.7439493870
20
-8.6808158426
30
0.0000000000
11
-0.7429781213
21
-8.7332184745
31
0.0000000000
11
-0.7439493870
21
-8.6808158426
31
0.0000000000
0
SPLINE
5
28E
100
AcDbEntity
8
0
100
AcDbSpline
62
7
6
CONTINUOUS
70
0
71
3
72
8
73
4
74
2
42
0.0000001000
43
0.0000001000
44
0.0000000001
12
-0.0009567469
22
0.0524178161
32
0.0000000000
13
-0.0009271691
23
0.0524183485
33
0.0000000000
40
0.0000000000
40
0.0000000000
40
0.0000000000
40
0.0000000000
40
1.0000000000
40
1.0000000000
40
1.0000000000
40
1.0000000000
10
-0.7439493870
20
-8.6808158426
30
0.0000000000
10
-0.7442683027
20
-8.6633432372
30
0.0000000000
10
-0.7445822866
20
-8.6458705414
30
0.0000000000
10
-0.7448913429
20
-8.6283977586
30
0.0000000000
11
-0.7439493870
21
-8.6808158426
31
0.0000000000
11
-0.7448913429
21
-8.6283977586
31
0.0000000000
0
SPLINE
5
28F
100
AcDbEntity
8
0
100
AcDbSpline
62
7
6
CONTINUOUS
70
0
71
3
72
8
73
4
74
2
42
0.0000001000
43
0.0000001000
44
0.0000000001
12
-0.0009274327
22
0.0524332531
32
0.0000000000
13
-0.0008978629
23
0.0524337653
33
0.0000000000
40
0.0000000000
40
0.0000000000
40
0.0000000000
40
0.0000000000
40
1.0000000000
40
1.0000000000
40
1.0000000000
40
1.0000000000
10
-0.7448913429
20
-8.6283977586
30
0.0000000000
10
-0.7452004872
20
-8.6109200075
30
0.0000000000
10
-0.7455047010
20
-8.5934421694
30
0.0000000000
10
-0.7458039887
20
-8.5759642477
30
0.0000000000
11
-0.7448913429
21
-8.6283977586
31
0.0000000000
11
-0.7458039887
21
-8.5759642477
31
0.0000000000
0
SPLINE
5
290
100
AcDbEntity
8
0
100
AcDbSpline
62
7
6
CONTINUOUS
70
0
71
3
72
8
73
4
74
2
42
0.0000001000
43
0.0000001000
44
0.0000000001
12
-0.0008981180
22
0.0524486659
32
0.0000000000
13
-0.0008685562
23
0.0524491579
33
0.0000000000
40
0.0000000000
40
0.0000000000
40
0.0000000000
40
0.0000000000
40
1.0000000000
40
1.0000000000
40
1.0000000000
40
1.0000000000
10
-0.7458039887
20
-8.5759642477
30
0.0000000000
10
-0.7461033613
20
-8.5584813590
30
0.0000000000
10
-0.7463978050
20
-8.5409983867
30
0.0000000000
10
-0.7466873237
20
-8.5235153340
30
0.0000000000
11
-0.7458039887
21
-8.5759642477
31
0.0000000000
11
-0.7466873237
21
-8.5235153340
31
0.0000000000
0
SPLINE
5
291
100
AcDbEntity
8
0
100
AcDbSpline
62
7
6
CONTINUOUS
70
0
71
3
72
8
73
4
74
2
42
0.0000001000
43
0.0000001000
44
0.0000000001
12
-0.1200240967
22
0.2526643269
32
0.0000000000
13
-0.1385259927
23
0.2431039126
33
0.0000000000
40
0.0000000000
40
0.0000000000
40
0.0000000000
40
0.0000000000
40
1.0000000000
40
1.0000000000
40
1.0000000000
40
1.0000000000
10
-0.2987260632
20
-9.7019058183
30
0.0000000000
10
-0.3387340954
20
-9.6176843760
30
0.0000000000
10
-0.3818953949
20
-9.5349183299
30
0.0000000000
10
-0.4280707258
20
-9.4538836924
30
0.0000000000
11
-0.2987260632
21
-9.7019058183
31
0.0000000000
11
-0.4280707258
21
-9.4538836924
31
0.0000000000
0
SPLINE
5
292
100
AcDbEntity
8
0
100
AcDbSpline
62
7
6
CONTINUOUS
70
0
71
3
72
8
73
4
74
2
42
0.0000001000
43
0.0000001000
44
0.0000000001
12
-0.1379522547
22
0.2420970405
32
0.0000000000
13
-0.1558096357
23
0.2310172491
33
0.0000000000
40
0.0000000000
40
0.0000000000
40
0.0000000000
40
0.0000000000
40
1.0000000000
40
1.0000000000
40
1.0000000000
40
1.0000000000
10
-0.4280707258
20
-9.4538836924
30
0.0000000000
10
-0.4740548107
20
-9.3731846788
30
0.0000000000
10
-0.5230280627
20
-9.2942027554
30
0.0000000000
10
-0.5749646079
20
-9.2171970057
30
0.0000000000
11
-0.4280707258
21
-9.4538836924
31
0.0000000000
11
-0.5749646079
21
-9.2171970057
31
0.0000000000
0
SPLINE
5
293
100
AcDbEntity
8
0
100
AcDbSpline
62
7
6
CONTINUOUS
70
0
71
3
72
8
73
4
74
2
42
0.0000001000
43
0.0000001000
44
0.0000000001
12
-0.1540435273
22
0.2283986594
32
0.0000000000
13
-0.1713761732
23
0.2155905065
33
0.0000000000
40
0.0000000000
40
0.0000000000
40
0.0000000000
40
0.0000000000
40
1.0000000000
40
1.0000000000
40
1.0000000000
40
1.0000000000
10
-0.5749646079
20
-9.2171970057
30
0.0000000000
10
-0.6263124504
20
-9.1410641193
30
0.0000000000
10
-0.6805567702
20
-9.0668625605
30
0.0000000000
10
-0.7376821613
20
-8.9949990584
30
0.0000000000
11
-0.5749646079
21
-9.2171970057
31
0.0000000000
11
-0.7376821613
21
-8.9949990584
31
0.0000000000
0
SPLINE
5
294
100
AcDbEntity
8
0
100
AcDbSpline
62
7
6
CONTINUOUS
70
0
71
3
72
9
73
5
74
3
42
0.0000001000
43
0.0000001000
44
0.0000000001
12
-0.0032928440
22
0.0844721288
32
0.0000000000
13
-0.0220620732
23
0.0816412021
33
0.0000000000
40
0.0000000000
40
0.0000000000
40
0.0000000000
40
0.0000000000
40
0.4937485530
40
1.0000000000
40
1.0000000000
40
1.0000000000
40
1.0000000000
10
-2.5920106227
20
-9.6225205847
30
0.0000000000
10
-2.5925525684
20
-9.6086179210
30
0.0000000000
10
-2.5955119208
20
-9.5805131392
30
0.0000000000
10
-2.6015432887
20
-9.5529398550
30
0.0000000000
10
-2.6052662742
20
-9.5391628628
30
0.0000000000
11
-2.5920106227
21
-9.6225205847
31
0.0000000000
11
-2.5962238398
21
-9.5809941028
31
0.0000000000
11
-2.6052662742
21
-9.5391628628
31
0.0000000000
0
SPLINE
5
295
100
AcDbEntity
8
0
100
AcDbSpline
62
7
6
CONTINUOUS
70
0
71
3
72
16
73
12
74
10
42
0.0000001000
43
0.0000001000
44
0.0000000001
12
-0.0930214667
22
0.3442280460
32
0.0000000000
13
-0.3188045274
23
0.1594032532
33
0.0000000000
40
0.0000000000
40
0.0000000000
40
0.0000000000
40
0.0000000000
40
0.0023851185
40
0.1308161293
40
0.2624540434
40
0.3951744303
40
0.5266168718
40
0.6544157469
40
0.7768706056
40
0.8917589142
40
1.0000000000
40
1.0000000000
40
1.0000000000
40
1.0000000000
10
-2.6052662742
20
-9.5391628628
30
0.0000000000
10
-2.6053402300
20
-9.5388891879
30
0.0000000000
10
-2.6094109580
20
-9.5238829338
30
0.0000000000
10
-2.6191670801
20
-9.4942118161
30
0.0000000000
10
-2.6379263895
20
-9.4514064717
30
0.0000000000
10
-2.6607292117
20
-9.4102029533
30
0.0000000000
10
-2.6869832058
20
-9.3716566880
30
0.0000000000
10
-2.7160091942
20
-9.3367192576
30
0.0000000000
10
-2.7470262015
20
-9.3062680999
30
0.0000000000
10
-2.7793938501
20
-9.2808668323
30
0.0000000000
10
-2.8022187927
20
-9.2671883195
30
0.0000000000
10
-2.8137213755
20
-9.2614369925
30
0.0000000000
11
-2.6052662742
21
-9.5391628628
31
0.0000000000
11
-2.6054889332
21
-9.5383420539
31
0.0000000000
11
-2.6197193073
21
-9.4948328003
31
0.0000000000
11
-2.6385205277
21
-9.4518440698
31
0.0000000000
11
-2.6614275826
21
-9.4104539844
31
0.0000000000
11
-2.6878313069
21
-9.3717522162
31
0.0000000000
11
-2.7169964475
21
-9.3367611401
31
0.0000000000
11
-2.7482195894
21
-9.3062621174
31
0.0000000000
11
-2.7805271810
21
-9.2810999030
31
0.0000000000
11
-2.8137213755
21
-9.2614369925
31
0.0000000000
0
SPLINE
5
296
100
AcDbEntity
8
0
100
AcDbSpline
62
7
6
CONTINUOUS
70
0
71
3
72
17
73
13
74
11
42
0.0000001000
43
0.0000001000
44
0.0000000001
12
0.1600092228
22
-0.3368375546
32
0.0000000000
13
-0.3538051175
23
-0.1215467481
33
0.0000000000
40
0.0000000000
40
0.0000000000
40
0.0000000000
40
0.0000000000
40
0.1384869747
40
0.2716946209
40
0.4004405223
40
0.5210912460
40
0.6319493998
40
0.7327893936
40
0.8244739518
40
0.9098722726
40
0.9932531421
40
1.0000000000
40
1.0000000000
40
1.0000000000
40
1.0000000000
10
-0.2987260568
20
-9.7019058401
30
0.0000000000
10
-0.2913396591
20
-9.7174550447
30
0.0000000000
10
-0.2784010166
20
-9.7487301714
30
0.0000000000
10
-0.2643386742
20
-9.7965770638
30
0.0000000000
10
-0.2562241631
20
-9.8435595723
30
0.0000000000
10
-0.2543751229
20
-9.8884470897
30
0.0000000000
10
-0.2589264231
20
-9.9296951460
30
0.0000000000
10
-0.2698147717
20
-9.9660599665
30
0.0000000000
10
-0.2868494732
20
-9.9964957034
30
0.0000000000
10
-0.3097770719
20
-10.0199712305
30
0.0000000000
10
-0.3292265880
20
-10.0305611193
30
0.0000000000
10
-0.3398138535
20
-10.0343363884
30
0.0000000000
10
-0.3406095444
20
-10.0346097412
30
0.0000000000
11
-0.2987260568
21
-9.7019058401
31
0.0000000000
11
-0.2790323069
21
-9.7496466606
31
0.0000000000
11
-0.2651241315
21
-9.7973344577
31
0.0000000000
11
-0.2571209280
21
-9.8446734482
31
0.0000000000
11
-0.2555086440
21
-9.8896365127
31
0.0000000000
11
-0.2603521096
21
-9.9306920059
31
0.0000000000
11
-0.2714850917
21
-9.9666105533
31
0.0000000000
11
-0.2885037878
21
-9.9962640753
31
0.0000000000
11
-0.3109390145
21
-10.0188655289
31
0.0000000000
11
-0.3382321175
21
-10.0337618482
31
0.0000000000
11
-0.3406095444
21
-10.0346097412
31
0.0000000000
0
SPLINE
5
297
100
AcDbEntity
8
0
100
AcDbSpline
62
7
6
CONTINUOUS
70
0
71
3
72
10
73
6
74
4
42
0.0000001000
43
0.0000001000
44
0.0000000001
12
0.5187791060
22
-0.6526219377
32
0.0000000000
13
0.3577232359
23
-0.7530479672
33
0.0000000000
40
0.0000000000
40
0.0000000000
40
0.0000000000
40
0.0000000000
40
0.3297091246
40
0.6646295228
40
1.0000000000
40
1.0000000000
40
1.0000000000
40
1.0000000000
10
-0.7376821613
20
-8.9949990584
30
0.0000000000
10
-0.6806667596
20
-9.0667241943
30
0.0000000000
10
-0.5715201268
20
-9.2160030672
30
0.0000000000
10
-0.4249388015
20
-9.4523749680
30
0.0000000000
10
-0.3387159910
20
-9.6177224865
30
0.0000000000
10
-0.2987260536
20
-9.7019058385
30
0.0000000000
11
-0.7376821613
21
-8.9949990584
31
0.0000000000
11
-0.5752612361
21
-9.2167572676
31
0.0000000000
11
-0.4280080659
21
-9.4539936605
31
0.0000000000
11
-0.2987260536
21
-9.7019058385
31
0.0000000000
0
SPLINE
5
298
100
AcDbEntity
8
0
100
AcDbSpline
62
7
6
CONTINUOUS
70
0
71
3
72
9
73
5
74
3
42
0.0000001000
43
0.0000001000
44
0.0000000001
12
-0.0388173036
22
-0.0490717214
32
0.0000000000
13
-0.0593301871
23
-0.0204274169
33
0.0000000000
40
0.0000000000
40
0.0000000000
40
0.0000000000
40
0.0000000000
40
0.5061506499
40
1.0000000000
40
1.0000000000
40
1.0000000000
40
1.0000000000
10
-2.4811234410
20
-8.9030441864
30
0.0000000000
10
-2.4876725755
20
-8.9113234142
30
0.0000000000
10
-2.5028394064
20
-8.9261107670
30
0.0000000000
10
-2.5216408566
20
-8.9358075340
30
0.0000000000
10
-2.5314075814
20
-8.9391702228
30
0.0000000000
11
-2.4811234410
21
-8.9030441864
31
0.0000000000
11
-2.5039571257
21
-8.9249885212
31
0.0000000000
11
-2.5314075814
21
-8.9391702228
31
0.0000000000
0
SPLINE
5
299
100
AcDbEntity
8
0
100
AcDbSpline
62
7
6
CONTINUOUS
70
0
71
3
72
22
73
18
74
16
42
0.0000001000
43
0.0000001000
44
0.0000000001
12
0.2701220654
22
-2.6329118029
32
0.0000000000
13
2.5949938316
23
0.5212279557
33
0.0000000000
40
0.0000000000
40
0.0000000000
40
0.0000000000
40
0.0000000000
40
0.0661331947
40
0.1216165441
40
0.1788265966
40
0.2962261896
40
0.4148047668
40
0.5318227979
40
0.6432460905
40
0.6964084970
40
0.7473060574
40
0.8409574162
40
0.8841365840
40
0.9248338577
40
0.9630879352
40
0.9994805516
40
1.0000000000
40
1.0000000000
40
1.0000000000
40
1.0000000000
10
-2.5847249422
20
-9.7248938681
30
0.0000000000
10
-2.5787702638
20
-9.7829348244
30
0.0000000000
10
-2.5622955650
20
-9.8891861447
30
0.0000000000
10
-2.5254342357
20
-10.0424741514
30
0.0000000000
10
-2.4646577692
20
-10.2360854247
30
0.0000000000
10
-2.3627705338
20
-10.4743499914
30
0.0000000000
10
-2.2059800999
20
-10.7439052035
30
0.0000000000
10
-2.0204898813
20
-10.9880164263
30
0.0000000000
10
-1.8455542346
20
-11.1652561599
30
0.0000000000
10
-1.6976818216
20
-11.2847073391
30
0.0000000000
10
-1.5539432454
20
-11.3833379411
30
0.0000000000
10
-1.4056355431
20
-11.4595113377
30
0.0000000000
10
-1.2561899492
20
-11.5068314811
30
0.0000000000
10
-1.1501171990
20
-11.5267853396
30
0.0000000000
10
-1.0482125338
20
-11.5315877638
30
0.0000000000
10
-0.9820733298
20
-11.5243135896
30
0.0000000000
10
-0.9501367214
20
-11.5179398239
30
0.0000000000
10
-0.9496873996
20
-11.5178495735
30
0.0000000000
11
-2.5847249422
21
-9.7248938681
31
0.0000000000
11
-2.5583116360
21
-9.8978981572
31
0.0000000000
11
-2.5242055275
21
-10.0405640777
31
0.0000000000
11
-2.4789933049
21
-10.1848995846
31
0.0000000000
11
-2.3575349334
21
-10.4705272117
31
0.0000000000
11
-2.1998945046
21
-10.7415057722
31
0.0000000000
11
-2.0123030660
21
-10.9875129797
31
0.0000000000
11
-1.8044569213
21
-11.1962637473
31
0.0000000000
11
-1.6950201325
21
-11.2844560351
31
0.0000000000
11
-1.5838966997
21
-11.3603412510
31
0.0000000000
11
-1.3624414412
21
-11.4710678147
31
0.0000000000
11
-1.2535070556
21
-11.5051997439
31
0.0000000000
11
-1.1476812862
21
-11.5246304891
31
0.0000000000
11
-1.0466381068
21
-11.5289518705
31
0.0000000000
11
-0.9510356904
21
-11.5181186598
31
0.0000000000
11
-0.9496873996
21
-11.5178495735
31
0.0000000000
0
SPLINE
5
29A
100
AcDbEntity
8
0
100
AcDbSpline
62
7
6
CONTINUOUS
70
0
71
3
72
10
73
6
74
4
42
0.0000001000
43
0.0000001000
44
0.0000000001
12
0.2046010589
22
0.0410959712
32
0.0000000000
13
0.1726906120
23
0.1172500260
33
0.0000000000
40
0.0000000000
40
0.0000000000
40
0.0000000000
40
0.0000000000
40
0.4407449449
40
0.8807806486
40
1.0000000000
40
1.0000000000
40
1.0000000000
40
1.0000000000
10
-0.9496873996
20
-11.5178495735
30
0.0000000000
10
-0.9196284388
20
-11.5118119597
30
0.0000000000
10
-0.8605340763
20
-11.4947832498
30
0.0000000000
10
-0.7978090305
20
-11.4640297564
30
0.0000000000
10
-0.7650834788
20
-11.4429592093
30
0.0000000000
10
-0.7582207912
20
-11.4382997186
30
0.0000000000
11
-0.9496873996
21
-11.5178495735
31
0.0000000000
11
-0.8614498797
21
-11.4922508932
31
0.0000000000
11
-0.7791429989
21
-11.4517667134
31
0.0000000000
11
-0.7582207912
21
-11.4382997186
31
0.0000000000
0
SPLINE
5
29B
100
AcDbEntity
8
0
100
AcDbSpline
62
7
6
CONTINUOUS
70
0
71
3
72
17
73
13
74
11
42
0.0000001000
43
0.0000001000
44
0.0000000001
12
0.3944171502
22
-0.1972085751
32
0.0000000000
13
0.0171764694
23
-0.4406371290
33
0.0000000000
40
0.0000000000
40
0.0000000000
40
0.0000000000
40
0.0000000000
40
0.0874920131
40
0.1803555140
40
0.2793350102
40
0.3826340412
40
0.4888781442
40
0.5961552025
40
0.7025573047
40
0.8063672872
40
0.9053458548
40
1.0000000000
40
1.0000000000
40
1.0000000000
40
1.0000000000
10
-2.8137219358
20
-9.2614367123
30
0.0000000000
10
-2.8022191523
20
-9.2671881040
30
0.0000000000
10
-2.7793940147
20
-9.2808667031
30
0.0000000000
10
-2.7470262015
20
-9.3062680999
30
0.0000000000
10
-2.7160091942
20
-9.3367192576
30
0.0000000000
10
-2.6869832058
20
-9.3716566880
30
0.0000000000
10
-2.6607292117
20
-9.4102029533
30
0.0000000000
10
-2.6379263895
20
-9.4514064717
30
0.0000000000
10
-2.6191670801
20
-9.4942118161
30
0.0000000000
10
-2.6049476857
20
-9.5374570029
30
0.0000000000
10
-2.5955416716
20
-9.5802305488
30
0.0000000000
10
-2.5925525587
20
-9.6086180134
30
0.0000000000
10
-2.5920106173
20
-9.6225207236
30
0.0000000000
11
-2.8137219358
21
-9.2614367123
31
0.0000000000
11
-2.7805271810
21
-9.2810999030
31
0.0000000000
11
-2.7482195894
21
-9.3062621174
31
0.0000000000
11
-2.7169964475
21
-9.3367611401
31
0.0000000000
11
-2.6878313069
21
-9.3717522162
31
0.0000000000
11
-2.6614275826
21
-9.4104539844
31
0.0000000000
11
-2.6385205277
21
-9.4518440698
31
0.0000000000
11
-2.6197193073
21
-9.4948328003
31
0.0000000000
11
-2.6054889332
21
-9.5383420539
31
0.0000000000
11
-2.5962238398
21
-9.5809941028
31
0.0000000000
11
-2.5920106173
21
-9.6225207236
31
0.0000000000
0
SPLINE
5
29C
100
AcDbEntity
8
0
100
AcDbSpline
62
7
6
CONTINUOUS
70
0
71
3
72
9
73
5
74
3
42
0.0000001000
43
0.0000001000
44
0.0000000001
12
-0.0244401308
22
-0.0181699969
32
0.0000000000
13
-0.0289064359
23
-0.0099667657
33
0.0000000000
40
0.0000000000
40
0.0000000000
40
0.0000000000
40
0.0000000000
40
0.9806869302
40
1.0000000000
40
1.0000000000
40
1.0000000000
40
1.0000000000
10
-3.0138731778
20
-11.6211275260
30
0.0000000000
10
-3.0218625501
20
-11.6270672188
30
0.0000000000
10
-3.0310038547
20
-11.6318997787
30
0.0000000000
10
-3.0406301267
20
-11.6352505716
30
0.0000000000
10
-3.0408162174
20
-11.6353147346
30
0.0000000000
11
-3.0138731778
21
-11.6211275260
31
0.0000000000
11
-3.0402584819
21
-11.6351205907
31
0.0000000000
11
-3.0408162174
21
-11.6353147346
31
0.0000000000
0
SPLINE
5
29D
100
AcDbEntity
8
0
100
AcDbSpline
62
7
6
CONTINUOUS
70
0
71
3
72
13
73
9
74
7
42
0.0000001000
43
0.0000001000
44
0.0000000001
12
0.0138163383
22
-0.1898927243
32
0.0000000000
13
-0.1807785740
23
-0.0620881413
33
0.0000000000
40
0.0000000000
40
0.0000000000
40
0.0000000000
40
0.0000000000
40
0.2197093319
40
0.4165221029
40
0.5963242762
40
0.7609453981
40
0.9176092761
40
1.0000000000
40
1.0000000000
40
1.0000000000
40
1.0000000000
10
-1.1549350026
20
-13.2078623484
30
0.0000000000
10
-1.1539231431
20
-13.2217694163
30
0.0000000000
10
-1.1537573110
20
-13.2483224440
30
0.0000000000
10
-1.1598201286
20
-13.2858835914
30
0.0000000000
10
-1.1721701540
20
-13.3182582259
30
0.0000000000
10
-1.1908798163
20
-13.3444871465
30
0.0000000000
10
-1.2116252850
20
-13.3602315183
30
0.0000000000
10
-1.2256424864
20
-13.3662910600
30
0.0000000000
10
-1.2306073122
20
-13.3679962223
30
0.0000000000
11
-1.1549350026
21
-13.2078623484
31
0.0000000000
11
-1.1549726230
21
-13.2496938216
31
0.0000000000
11
-1.1612942656
21
-13.2866288403
31
0.0000000000
11
-1.1738794535
21
-13.3184649407
31
0.0000000000
11
-1.1923623072
21
-13.3437783163
31
0.0000000000
11
-1.2161860820
21
-13.3617264521
31
0.0000000000
11
-1.2306073122
21
-13.3679962223
31
0.0000000000
0
SPLINE
5
29E
100
AcDbEntity
8
0
100
AcDbSpline
62
7
6
CONTINUOUS
70
0
71
3
72
18
73
14
74
12
42
0.0000001000
43
0.0000001000
44
0.0000000001
12
0.2229981147
22
-0.3512479832
32
0.0000000000
13
-0.3946763779
23
-0.1356135406
33
0.0000000000
40
0.0000000000
40
0.0000000000
40
0.0000000000
40
0.0000000000
40
0.1254853580
40
0.2481664924
40
0.3685787587
40
0.4829544845
40
0.5890969988
40
0.6859448901
40
0.7731954940
40
0.8522673532
40
0.9260450948
40
0.9983062922
40
1.0000000000
40
1.0000000000
40
1.0000000000
40
1.0000000000
10
0.4637825076
20
-13.0148761322
30
0.0000000000
10
0.4731101737
20
-13.0295682918
30
0.0000000000
10
0.4901220307
20
-13.0595645184
30
0.0000000000
10
0.5108448702
20
-13.1063810328
30
0.0000000000
10
0.5261362061
20
-13.1536434565
30
0.0000000000
10
0.5355014908
20
-13.2001059548
30
0.0000000000
10
0.5385705421
20
-13.2441559132
30
0.0000000000
10
0.5352249000
20
-13.2844566707
30
0.0000000000
10
0.5255137988
20
-13.3198992049
30
0.0000000000
10
0.5095096524
20
-13.3495101357
30
0.0000000000
10
0.4873413414
20
-13.3721354664
30
0.0000000000
10
0.4689606136
20
-13.3819172308
30
0.0000000000
10
0.4592427777
20
-13.3852949934
30
0.0000000000
10
0.4590199555
20
-13.3853715566
30
0.0000000000
11
0.4637825076
21
-13.0148761322
31
0.0000000000
11
0.4895321215
21
-13.0602935470
31
0.0000000000
11
0.5101398904
21
-13.1069908593
31
0.0000000000
11
0.5254491667
21
-13.1546927522
31
0.0000000000
11
0.5346717415
21
-13.2013773115
31
0.0000000000
11
0.5374839358
21
-13.2454490007
31
0.0000000000
11
0.5338215422
21
-13.2855764446
31
0.0000000000
11
0.5238500664
21
-13.3204812815
31
0.0000000000
11
0.5078551105
21
-13.3492295924
31
0.0000000000
11
0.4862251049
21
-13.3710096522
31
0.0000000000
11
0.4596876206
21
-13.3851394824
31
0.0000000000
11
0.4590199555
21
-13.3853715566
31
0.0000000000
0
SPLINE
5
29F
100
AcDbEntity
8
0
100
AcDbSpline
62
7
6
CONTINUOUS
70
0
71
3
72
12
73
8
74
6
42
0.0000001000
43
0.0000001000
44
0.0000000001
12
-0.0602147676
22
-0.7209963875
32
0.0000000000
13
-0.4644407532
23
-0.5547579614
33
0.0000000000
40
0.0000000000
40
0.0000000000
40
0.0000000000
40
0.0000000000
40
0.3645820519
40
0.5347035037
40
0.6969301031
40
0.8512407446
40
1.0000000000
40
1.0000000000
40
1.0000000000
40
1.0000000000
10
-0.0513678890
20
-11.1423610038
30
0.0000000000
10
-0.0586856302
20
-11.2299817846
30
0.0000000000
10
-0.0786791395
20
-11.3582137613
30
0.0000000000
10
-0.1278820944
20
-11.5191485345
30
0.0000000000
10
-0.1732505318
20
-11.6276386167
30
0.0000000000
10
-0.2279283674
20
-11.7259103821
30
0.0000000000
10
-0.2712107971
20
-11.7850984641
30
0.0000000000
10
-0.2942407506
20
-11.8126069245
30
0.0000000000
11
-0.0513678890
21
-11.1423610038
31
0.0000000000
11
-0.0942053726
21
-11.4026368287
31
0.0000000000
11
-0.1304096640
21
-11.5202757386
31
0.0000000000
11
-0.1760077953
21
-11.6284283872
31
0.0000000000
11
-0.2305686274
21
-11.7258330337
31
0.0000000000
11
-0.2942407506
21
-11.8126069245
31
0.0000000000
0
SPLINE
5
2A0
100
AcDbEntity
8
0
100
AcDbSpline
62
7
6
CONTINUOUS
70
0
71
3
72
21
73
17
74
15
42
0.0000001000
43
0.0000001000
44
0.0000000001
12
0.5699522759
22
-0.2849761379
32
0.0000000000
13
-0.6049996306
23
-0.2076617322
33
0.0000000000
40
0.0000000000
40
0.0000000000
40
0.0000000000
40
0.0000000000
40
0.0673426575
40
0.1392092357
40
0.2163744266
40
0.2968409449
40
0.3789869301
40
0.4610461937
40
0.6177595917
40
0.6904335248
40
0.7577745896
40
0.8190666996
40
0.8746301301
40
0.9254915981
40
0.9739304788
40
1.0000000000
40
1.0000000000
40
1.0000000000
40
1.0000000000
10
0.9339439987
20
-11.1352696795
30
0.0000000000
10
0.9467380323
20
-11.1416666963
30
0.0000000000
10
0.9720873090
20
-11.1571490393
30
0.0000000000
10
1.0077657399
20
-11.1862968448
30
0.0000000000
10
1.0416304087
20
-11.2215152489
30
0.0000000000
10
1.0727476629
20
-11.2619512610
30
0.0000000000
10
1.1000568140
20
-11.3062890325
30
0.0000000000
10
1.1297214298
20
-11.3677341428
30
0.0000000000
10
1.1494279057
20
-11.4315867569
30
0.0000000000
10
1.1565750215
20
-11.4943601436
30
0.0000000000
10
1.1555196974
20
-11.5372745087
30
0.0000000000
10
1.1479883574
20
-11.5758903194
30
0.0000000000
10
1.1341791483
20
-11.6090493839
30
0.0000000000
10
1.1142720449
20
-11.6357299655
30
0.0000000000
10
1.0926247669
20
-11.6519180062
30
0.0000000000
10
1.0780005777
20
-11.6582345458
30
0.0000000000
10
1.0727432274
20
-11.6600390931
30
0.0000000000
11
0.9339439987
21
-11.1352696795
31
0.0000000000
11
0.9707031123
21
-11.1574112614
31
0.0000000000
11
1.0062913695
21
-11.1862328016
31
0.0000000000
11
1.0404714785
21
-11.2215821015
31
0.0000000000
11
1.0718066203
21
-11.2621686919
31
0.0000000000
11
1.0992783427
21
-11.3067260931
31
0.0000000000
11
1.1219982339
21
-11.3538226087
31
0.0000000000
11
1.1505498424
21
-11.4495158456
31
0.0000000000
11
1.1555971624
21
-11.4955496898
31
0.0000000000
11
1.1542313567
21
-11.5384394270
31
0.0000000000
11
1.1464216100
21
-11.5767075784
31
0.0000000000
11
1.1324515071
21
-11.6092414666
31
0.0000000000
11
1.1128112175
21
-11.6350229206
31
0.0000000000
11
1.0880188637
21
-11.6534098981
31
0.0000000000
11
1.0727432274
21
-11.6600390931
31
0.0000000000
0
SPLINE
5
2A1
100
AcDbEntity
8
0
100
AcDbSpline
62
7
6
CONTINUOUS
70
0
71
3
72
12
73
8
74
6
42
0.0000001000
43
0.0000001000
44
0.0000000001
12
0.1251831715
22
0.0850647602
32
0.0000000000
13
0.1348888049
23
-0.0674444025
33
0.0000000000
40
0.0000000000
40
0.0000000000
40
0.0000000000
40
0.0000000000
40
0.0734683358
40
0.2814146045
40
0.5011532931
40
0.7373325753
40
1.0000000000
40
1.0000000000
40
1.0000000000
40
1.0000000000
10
-4.1598221597
20
-8.6578375413
30
0.0000000000
10
-4.1567564933
20
-8.6557543525
30
0.0000000000
10
-4.1445979295
20
-8.6483924038
30
0.0000000000
10
-4.1204656030
20
-8.6399396961
30
0.0000000000
10
-4.0867471424
20
-8.6381895895
30
0.0000000000
10
-4.0509952895
20
-8.6449978940
30
0.0000000000
10
-4.0276137647
20
-8.6544907978
30
0.0000000000
10
-4.0158034664
20
-8.6603959470
30
0.0000000000
11
-4.1598221597
21
-8.6578375413
31
0.0000000000
11
-4.1503131586
21
-8.6520886756
31
0.0000000000
11
-4.1207667706
21
-8.6415773632
31
0.0000000000
11
-4.0876921219
21
-8.6395155580
31
0.0000000000
11
-4.0526354132
21
-8.6458153744
31
0.0000000000
11
-4.0158034664
21
-8.6603959470
31
0.0000000000
0
SPLINE
5
2A2
100
AcDbEntity
8
0
100
AcDbSpline
62
7
6
CONTINUOUS
70
0
71
3
72
12
73
8
74
6
42
0.0000001000
43
0.0000001000
44
0.0000000001
12
0.1252460471
22
0.0849113869
32
0.0000000000
13
0.1349522233
23
-0.0674761117
33
0.0000000000
40
0.0000000000
40
0.0000000000
40
0.0000000000
40
0.0000000000
40
0.1559911835
40
0.3450080566
40
0.5457199423
40
0.7617772079
40
1.0000000000
40
1.0000000000
40
1.0000000000
40
1.0000000000
10
-0.4121616351
20
-10.5316687398
30
0.0000000000
10
-0.4056492087
20
-10.5272535973
30
0.0000000000
10
-0.3901389935
20
-10.5191049038
30
0.0000000000
10
-0.3631490233
20
-10.5126408306
30
0.0000000000
10
-0.3324203390
20
-10.5129306284
30
0.0000000000
10
-0.3000686950
20
-10.5200825715
30
0.0000000000
10
-0.2788537637
20
-10.5288707983
30
0.0000000000
10
-0.2681375319
20
-10.5342289142
30
0.0000000000
11
-0.4121616351
21
-10.5316687398
31
0.0000000000
11
-0.3913062144
21
-10.5207153338
31
0.0000000000
11
-0.3636112111
21
-10.5139090763
31
0.0000000000
11
-0.3333275755
21
-10.5139324990
31
0.0000000000
11
-0.3014401601
21
-10.5207064060
31
0.0000000000
11
-0.2681375319
21
-10.5342289142
31
0.0000000000
0
SPLINE
5
2A3
100
AcDbEntity
8
0
100
AcDbSpline
62
7
6
CONTINUOUS
70
0
71
3
72
9
73
5
74
3
42
0.0000001000
43
0.0000001000
44
0.0000000001
12
0.2105532499
22
0.1429014907
32
0.0000000000
13
0.2443547289
23
0.0693978699
33
0.0000000000
40
0.0000000000
40
0.0000000000
40
0.0000000000
40
0.0000000000
40
0.3386407377
40
1.0000000000
40
1.0000000000
40
1.0000000000
40
1.0000000000
10
-2.6503488052
20
-8.2604329595
30
0.0000000000
10
-2.6265815025
20
-8.2443022041
30
0.0000000000
10
-2.5538222042
20
-8.2004669501
30
0.0000000000
10
-2.4744650474
20
-8.1688409807
30
0.0000000000
10
-2.4205962930
20
-8.1535420060
30
0.0000000000
11
-2.6503488052
21
-8.2604329595
31
0.0000000000
11
-2.5765463514
21
-8.2160135294
31
0.0000000000
11
-2.4205962930
21
-8.1535420060
31
0.0000000000
0
SPLINE
5
2A4
100
AcDbEntity
8
0
100
AcDbSpline
62
7
6
CONTINUOUS
70
0
71
3
72
11
73
7
74
5
42
0.0000001000
43
0.0000001000
44
0.0000000001
12
-0.3188122039
22
-0.1095902019
32
0.0000000000
13
-0.2089368642
23
-0.2641320114
33
0.0000000000
40
0.0000000000
40
0.0000000000
40
0.0000000000
40
0.0000000000
40
0.1738834399
40
0.4459824355
40
0.7188752646
40
1.0000000000
40
1.0000000000
40
1.0000000000
40
1.0000000000
10
-2.2107681560
20
-8.7095791977
30
0.0000000000
10
-2.2292468769
20
-8.7159311714
30
0.0000000000
10
-2.2758336428
20
-8.7345840851
30
0.0000000000
10
-2.3465761683
20
-8.7741359380
30
0.0000000000
10
-2.4194461302
20
-8.8321321843
30
0.0000000000
10
-2.4615443189
20
-8.8782928511
30
0.0000000000
10
-2.4811234258
20
-8.9030441984
30
0.0000000000
11
-2.2107681560
21
-8.7095791977
31
0.0000000000
11
-2.2651639057
21
-8.7313708263
31
0.0000000000
11
-2.3451124490
21
-8.7761550816
31
0.0000000000
11
-2.4170773111
21
-8.8333173689
31
0.0000000000
11
-2.4811234258
21
-8.9030441984
31
0.0000000000
0
SPLINE
5
2A5
100
AcDbEntity
8
0
100
AcDbSpline
62
7
6
CONTINUOUS
70
0
71
3
72
9
73
5
74
3
42
0.0000001000
43
0.0000001000
44
0.0000000001
12
0.0374351524
22
-0.2921553736
32
0.0000000000
13
0.1355905890
23
-0.2622046615
33
0.0000000000
40
0.0000000000
40
0.0000000000
40
0.0000000000
40
0.0000000000
40
0.7334712503
40
1.0000000000
40
1.0000000000
40
1.0000000000
40
1.0000000000
10
-8.3851499591
20
-13.9083745893
30
0.0000000000
10
-8.3759974231
20
-13.9798037783
30
0.0000000000
10
-8.3523120420
20
-14.0762078842
30
0.0000000000
10
-8.3115654054
20
-14.1659462410
30
0.0000000000
10
-8.2995191420
20
-14.1892412678
30
0.0000000000
11
-8.3851499591
21
-13.9083745893
31
0.0000000000
11
-8.3320737154
21
-14.1176370183
31
0.0000000000
11
-8.2995191420
21
-14.1892412678
31
0.0000000000
0
SPLINE
5
2A6
100
AcDbEntity
8
0
100
AcDbSpline
62
7
6
CONTINUOUS
70
0
71
3
72
10
73
6
74
4
42
0.0000001000
43
0.0000001000
44
0.0000000001
12
0.2047929816
22
-0.3960280342
32
0.0000000000
13
0.3997192593
23
-0.1989067814
33
0.0000000000
40
0.0000000000
40
0.0000000000
40
0.0000000000
40
0.0000000000
40
0.3392193112
40
0.8286141953
40
1.0000000000
40
1.0000000000
40
1.0000000000
40
1.0000000000
10
-8.2995191420
20
-14.1892412678
30
0.0000000000
10
-8.2763625640
20
-14.2340213868
30
0.0000000000
10
-8.2090914090
20
-14.3377843182
30
0.0000000000
10
-8.0976681380
20
-14.4387987349
30
0.0000000000
10
-8.0120473801
20
-14.4875491063
30
0.0000000000
10
-7.9892119778
20
-14.4989123726
30
0.0000000000
11
-8.2995191420
21
-14.1892412678
31
0.0000000000
11
-8.2170842599
21
-14.3156165539
31
0.0000000000
11
-8.0556551740
21
-14.4610497052
31
0.0000000000
11
-7.9892119778
21
-14.4989123726
31
0.0000000000
0
SPLINE
5
2A7
100
AcDbEntity
8
0
100
AcDbSpline
62
7
6
CONTINUOUS
70
0
71
3
72
10
73
6
74
4
42
0.0000001000
43
0.0000001000
44
0.0000000001
12
0.1486153444
22
-9.7573733946
32
0.0000000000
13
1.2323958817
23
-9.6803749975
33
0.0000000000
40
0.0000000000
40
0.0000000000
40
0.0000000000
40
0.0000000000
40
0.3378858301
40
0.6757897075
40
1.0000000000
40
1.0000000000
40
1.0000000000
40
1.0000000000
10
-9.0603101202
20
-4.1773531933
30
0.0000000000
10
-9.0435717805
20
-5.2763125963
30
0.0000000000
10
-8.9722205437
20
-7.4739350834
30
0.0000000000
10
-8.7481864352
20
-10.7197213356
30
0.0000000000
10
-8.5184022763
20
-12.8618161135
30
0.0000000000
10
-8.3852171332
20
-13.9079751832
30
0.0000000000
11
-9.0603101202
21
-4.1773531933
31
0.0000000000
11
-8.9522113411
21
-7.4728380641
31
0.0000000000
11
-8.7239056577
21
-10.7623482213
31
0.0000000000
11
-8.3852171332
21
-13.9079751832
31
0.0000000000
0
SPLINE
5
2A8
100
AcDbEntity
8
0
100
AcDbSpline
62
7
6
CONTINUOUS
70
0
71
3
72
10
73
6
74
4
42
0.0000001000
43
0.0000001000
44
0.0000000001
12
-0.2466228115
22
-16.4518466370
32
0.0000000000
13
0.2505802708
23
-16.4517870703
33
0.0000000000
40
0.0000000000
40
0.0000000000
40
0.0000000000
40
0.0000000000
40
0.3338803711
40
0.6700007225
40
1.0000000000
40
1.0000000000
40
1.0000000000
40
1.0000000000
10
-9.0603119361
20
12.2757839998
30
0.0000000000
10
-9.0877594414
20
10.4448011129
30
0.0000000000
10
-9.1247376228
20
6.7702523718
30
0.0000000000
10
-9.1248565873
20
1.2856035292
30
0.0000000000
10
-9.0878738882
20
-2.3676607391
30
0.0000000000
10
-9.0603101187
20
-4.1773533548
30
0.0000000000
11
-9.0603119361
21
12.2757839998
31
0.0000000000
11
-9.1154509540
21
6.7824951057
31
0.0000000000
11
-9.1154207633
21
1.2520743597
31
0.0000000000
11
-9.0603101187
21
-4.1773533548
31
0.0000000000
0
SPLINE
5
2A9
100
AcDbEntity
8
0
100
AcDbSpline
62
7
6
CONTINUOUS
70
0
71
3
72
10
73
6
74
4
42
0.0000001000
43
0.0000001000
44
0.0000000001
12
-1.1663605750
22
-10.3907592480
32
0.0000000000
13
-0.1567235961
23
-10.4548433770
33
0.0000000000
40
0.0000000000
40
0.0000000000
40
0.0000000000
40
0.0000000000
40
0.3365887623
40
0.6745322146
40
1.0000000000
40
1.0000000000
40
1.0000000000
40
1.0000000000
10
-8.3860998875
20
22.7063979816
30
0.0000000000
10
-8.5169611749
20
21.5405937167
30
0.0000000000
10
-8.7437530601
20
19.2001326690
30
0.0000000000
10
-8.9694441680
20
15.7215623185
30
0.0000000000
10
-9.0433091015
20
13.4100221287
30
0.0000000000
10
-9.0603119287
20
12.2757838887
30
0.0000000000
11
-8.3860998875
21
22.7063979816
31
0.0000000000
11
-8.7247333860
21
19.2033523974
31
0.0000000000
11
-8.9525745409
21
15.6771742188
31
0.0000000000
11
-9.0603119287
21
12.2757838887
31
0.0000000000
0
SPLINE
5
2AA
100
AcDbEntity
8
0
100
AcDbSpline
62
7
6
CONTINUOUS
70
0
71
3
72
12
73
8
74
6
42
0.0000001000
43
0.0000001000
44
0.0000000001
12
-0.9880157057
22
-0.5533375452
32
0.0000000000
13
-0.1261554788
23
-1.1245416549
33
0.0000000000
40
0.0000000000
40
0.0000000000
40
0.0000000000
40
0.0000000000
40
0.1468236998
40
0.3720613533
40
0.6052180587
40
0.8400277758
40
1.0000000000
40
1.0000000000
40
1.0000000000
40
1.0000000000
10
-7.8018606270
20
23.6302205326
30
0.0000000000
10
-7.8502153341
20
23.6031395107
30
0.0000000000
10
-7.9667897064
20
23.5232013834
30
0.0000000000
10
-8.1262656631
20
23.3579767129
30
0.0000000000
10
-8.2660575082
20
23.1353767111
30
0.0000000000
10
-8.3510492849
20
22.9131606999
30
0.0000000000
10
-8.3793800676
20
22.7662390683
30
0.0000000000
10
-8.3861071917
20
22.7062739250
30
0.0000000000
11
-7.8018606270
21
23.6302205326
31
0.0000000000
11
-7.9393345361
21
23.5366796758
31
0.0000000000
11
-8.1173348123
21
23.3548133140
31
0.0000000000
11
-8.2580211564
21
23.1321014220
31
0.0000000000
11
-8.3522979089
21
22.8841244654
31
0.0000000000
11
-8.3861071917
21
22.7062739250
31
0.0000000000
0
SPLINE
5
2AB
100
AcDbEntity
8
0
100
AcDbSpline
62
7
6
CONTINUOUS
70
0
71
3
72
11
73
7
74
5
42
0.0000001000
43
0.0000001000
44
0.0000000001
12
0.2107777979
22
0.1178606348
32
0.0000000000
13
0.2150399456
23
-0.1075199728
33
0.0000000000
40
0.0000000000
40
0.0000000000
40
0.0000000000
40
0.0000000000
40
0.1579985602
40
0.4151871096
40
0.6932458262
40
1.0000000000
40
1.0000000000
40
1.0000000000
40
1.0000000000
10
-5.0667553454
20
25.1613966159
30
0.0000000000
10
-5.0556544825
20
25.1676038861
30
0.0000000000
10
-5.0248384198
20
25.1809946960
30
0.0000000000
10
-4.9689840872
20
25.1890843589
30
0.0000000000
10
-4.9014478586
20
25.1795470903
30
0.0000000000
10
-4.8574393824
20
25.1623014857
30
0.0000000000
10
-4.8354512488
20
25.1513074189
30
0.0000000000
11
-5.0667553454
21
25.1613966159
31
0.0000000000
11
-5.0318188785
21
25.1765579873
31
0.0000000000
11
-4.9707100884
21
25.1859989503
31
0.0000000000
11
-4.9044048401
21
25.1774709426
31
0.0000000000
11
-4.8354512488
21
25.1513074189
31
0.0000000000
0
SPLINE
5
2AC
100
AcDbEntity
8
0
100
AcDbSpline
62
7
6
CONTINUOUS
70
0
71
3
72
11
73
7
74
5
42
0.0000001000
43
0.0000001000
44
0.0000000001
12
0.5966304465
22
-0.2986818730
32
0.0000000000
13
0.6107472629
23
0.2703592527
33
0.0000000000
40
0.0000000000
40
0.0000000000
40
0.0000000000
40
0.0000000000
40
0.2259440060
40
0.5063644570
40
0.8011935847
40
1.0000000000
40
1.0000000000
40
1.0000000000
40
1.0000000000
10
6.7007111981
20
-21.8439291613
30
0.0000000000
10
6.7456462225
20
-21.8664242876
30
0.0000000000
10
6.8521413341
20
-21.9060699672
30
0.0000000000
10
7.0308086181
20
-21.9269248229
30
0.0000000000
10
7.2027804180
20
-21.9023581524
30
0.0000000000
10
7.3066637665
20
-21.8652226006
30
0.0000000000
10
7.3471372578
20
-21.8473062160
30
0.0000000000
11
6.7007111981
21
-21.8439291613
31
0.0000000000
11
6.8419634232
21
-21.8965354885
31
0.0000000000
11
7.0274817745
21
-21.9186530751
31
0.0000000000
11
7.2220492305
21
-21.8916522822
31
0.0000000000
11
7.3471372578
21
-21.8473062160
31
0.0000000000
0
SPLINE
5
2AD
100
AcDbEntity
8
0
100
AcDbSpline
62
7
6
CONTINUOUS
70
0
71
3
72
15
73
11
74
9
42
0.0000001000
43
0.0000001000
44
0.0000000001
12
0.6579429531
22
-0.3289714766
32
0.0000000000
13
0.0000000000
23
-0.7356025842
33
0.0000000000
40
0.0000000000
40
0.0000000000
40
0.0000000000
40
0.0000000000
40
0.1103200629
40
0.2298775069
40
0.3567611495
40
0.4883322642
40
0.6215380565
40
0.7531889666
40
0.8802256902
40
1.0000000000
40
1.0000000000
40
1.0000000000
40
1.0000000000
10
10.0140334640
20
17.7265650625
30
0.0000000000
10
10.0382282333
20
17.7144676778
30
0.0000000000
10
10.0861853539
20
17.6841947404
30
0.0000000000
10
10.1520474978
20
17.6261861420
30
0.0000000000
10
10.2126924911
20
17.5557294487
30
0.0000000000
10
10.2658502217
20
17.4754631490
30
0.0000000000
10
10.3095549580
20
17.3883811597
30
0.0000000000
10
10.3421693784
20
17.2977332972
30
0.0000000000
10
10.3624738670
20
17.2069330948
30
0.0000000000
10
10.3674657006
20
17.1463533889
30
0.0000000000
10
10.3674657006
20
17.1169846249
30
0.0000000000
11
10.0140334640
21
17.7265650625
31
0.0000000000
11
10.0829871276
21
17.6837749411
31
0.0000000000
11
10.1492925194
21
17.6259975369
31
0.0000000000
11
10.2104014246
21
17.5554475649
31
0.0000000000
11
10.2639626467
21
17.4748352321
31
0.0000000000
11
10.3079159543
21
17.3872597455
31
0.0000000000
11
10.3405720274
21
17.2960890317
31
0.0000000000
11
10.3606779425
21
17.2048290613
31
0.0000000000
11
10.3674657006
21
17.1169846249
31
0.0000000000
0
SPLINE
5
2AE
100
AcDbEntity
8
0
100
AcDbSpline
62
7
6
CONTINUOUS
70
0
71
3
72
12
73
8
74
6
42
0.0000001000
43
0.0000001000
44
0.0000000001
12
0.0000000000
22
-0.3236722686
32
0.0000000000
13
-0.2971401766
23
-0.1319095818
33
0.0000000000
40
0.0000000000
40
0.0000000000
40
0.0000000000
40
0.0000000000
40
0.2513050339
40
0.4797469538
40
0.6867787297
40
0.8781009639
40
1.0000000000
40
1.0000000000
40
1.0000000000
40
1.0000000000
10
10.3674657006
20
-20.2956095838
30
0.0000000000
10
10.3674657006
20
-20.3227230740
30
0.0000000000
10
10.3635281955
20
-20.3746322790
30
0.0000000000
10
10.3440004134
20
-20.4466483556
30
0.0000000000
10
10.3114299518
20
-20.5067628761
30
0.0000000000
10
10.2713510901
20
-20.5473065483
30
0.0000000000
10
10.2417521097
20
-20.5643203590
30
0.0000000000
10
10.2296784094
20
-20.5696802426
30
0.0000000000
11
10.3674657006
21
-20.2956095838
31
0.0000000000
11
10.3606779281
21
-20.3766663434
31
0.0000000000
11
10.3405719380
21
-20.4478205370
31
0.0000000000
11
10.3079157332
21
-20.5063352528
31
0.0000000000
11
10.2639623163
21
-20.5499573764
31
0.0000000000
11
10.2296784094
21
-20.5696802426
31
0.0000000000
0
SPLINE
5
2AF
100
AcDbEntity
8
0
100
AcDbSpline
62
7
6
CONTINUOUS
70
0
71
3
72
10
73
6
74
4
42
0.0000001000
43
0.0000001000
44
0.0000000001
12
-0.5875838575
22
-0.4351203203
32
0.0000000000
13
-0.5868525492
23
-0.4361061625
33
0.0000000000
40
0.0000000000
40
0.0000000000
40
0.0000000000
40
0.0000000000
40
0.3762177074
40
0.7509756146
40
1.0000000000
40
1.0000000000
40
1.0000000000
40
1.0000000000
10
-2.3537315445
20
-11.1313147938
30
0.0000000000
10
-2.4274180284
20
-11.1858814502
30
0.0000000000
10
-2.5744712078
20
-11.2948487807
30
0.0000000000
10
-2.7701962361
20
-11.4400727327
30
0.0000000000
10
-2.8922382288
20
-11.5307252658
30
0.0000000000
10
-2.9409517606
20
-11.5669256221
30
0.0000000000
11
-2.3537315445
21
-11.1313147938
31
0.0000000000
11
-2.5747398797
21
-11.2950837681
31
0.0000000000
11
-2.7947881752
21
-11.4583554974
31
0.0000000000
11
-2.9409517606
21
-11.5669256221
31
0.0000000000
0
SPLINE
5
2B0
100
AcDbEntity
8
0
100
AcDbSpline
62
7
6
CONTINUOUS
70
0
71
3
72
8
73
4
74
2
42
0.0000001000
43
0.0000001000
44
0.0000000001
12
-0.0729267880
22
-0.0541938886
32
0.0000000000
13
-0.0729152819
23
-0.0542093661
33
0.0000000000
40
0.0000000000
40
0.0000000000
40
0.0000000000
40
0.0000000000
40
1.0000000000
40
1.0000000000
40
1.0000000000
40
1.0000000000
10
-2.9409517606
20
-11.5669256221
30
0.0000000000
10
-2.9652606899
20
-11.5849902517
30
0.0000000000
10
-2.9895677056
20
-11.6030574561
30
0.0000000000
10
-3.0138727996
20
-11.6211272448
30
0.0000000000
11
-2.9409517606
21
-11.5669256221
31
0.0000000000
11
-3.0138727996
21
-11.6211272448
31
0.0000000000
0
SPLINE
5
2B1
100
AcDbEntity
8
0
100
AcDbSpline
62
7
6
CONTINUOUS
70
0
71
3
72
10
73
6
74
4
42
0.0000001000
43
0.0000001000
44
0.0000000001
12
0.0702006485
22
-1.1924015651
32
0.0000000000
13
0.0866785642
23
-1.1913171073
33
0.0000000000
40
0.0000000000
40
0.0000000000
40
0.0000000000
40
0.0000000000
40
0.3341160255
40
0.6674500979
40
1.0000000000
40
1.0000000000
40
1.0000000000
40
1.0000000000
10
-1.2333469127
20
-12.0159810640
30
0.0000000000
10
-1.2255285255
20
-12.1487812213
30
0.0000000000
10
-1.2093037448
20
-12.4140354645
30
0.0000000000
10
-1.1831683295
20
-12.8113334458
30
0.0000000000
10
-1.1645433359
20
-13.0758048872
30
0.0000000000
10
-1.1549350199
20
-13.2078623497
30
0.0000000000
11
-1.2333469127
21
-12.0159810640
31
0.0000000000
11
-1.2089791957
21
-12.4143267617
31
0.0000000000
11
-1.1828416552
21
-12.8116242169
31
0.0000000000
11
-1.1549350199
21
-13.2078623497
31
0.0000000000
0
SPLINE
5
2B2
100
AcDbEntity
8
0
100
AcDbSpline
62
7
6
CONTINUOUS
70
0
71
3
72
10
73
6
74
4
42
0.0000001000
43
0.0000001000
44
0.0000000001
12
0.0059199917
22
-0.2677077028
32
0.0000000000
13
0.0066980743
23
-0.2676893652
33
0.0000000000
40
0.0000000000
40
0.0000000000
40
0.0000000000
40
0.0000000000
40
0.3334964027
40
0.6668297809
40
1.0000000000
40
1.0000000000
40
1.0000000000
40
1.0000000000
10
-1.9953879661
20
-8.4088308244
30
0.0000000000
10
-1.9947298675
20
-8.4385906764
30
0.0000000000
10
-1.9933852152
20
-8.4980952005
30
0.0000000000
10
-1.9912823180
20
-8.5873281547
30
0.0000000000
10
-1.9898230802
20
-8.6468008560
30
0.0000000000
10
-1.9890792139
20
-8.6765295641
30
0.0000000000
11
-1.9953879661
21
-8.4088308244
31
0.0000000000
11
-1.9933704739
21
-8.4981094146
31
0.0000000000
11
-1.9912675555
21
-8.5873423678
31
0.0000000000
11
-1.9890792139
21
-8.6765295641
31
0.0000000000
0
SPLINE
5
2B3
100
AcDbEntity
8
0
100
AcDbSpline
62
7
6
CONTINUOUS
70
0
71
3
72
10
73
6
74
4
42
0.0000001000
43
0.0000001000
44
0.0000000001
12
0.7542605352
22
-1.2046357989
32
0.0000000000
13
0.7617812100
23
-1.1998940582
33
0.0000000000
40
0.0000000000
40
0.0000000000
40
0.0000000000
40
0.0000000000
40
0.3333669590
40
0.6667017440
40
1.0000000000
40
1.0000000000
40
1.0000000000
40
1.0000000000
10
-0.2942407506
20
-11.8126069245
30
0.0000000000
10
-0.2104255703
20
-11.9464688488
30
0.0000000000
10
-0.0425241559
20
-12.2140051195
30
0.0000000000
10
0.2101508261
20
-12.6147623443
30
0.0000000000
10
0.3791490493
20
-12.8815686054
30
0.0000000000
10
0.4637824989
20
-13.0148761377
30
0.0000000000
11
-0.2942407506
21
-11.8126069245
31
0.0000000000
11
-0.0423766806
21
-12.2139303394
31
0.0000000000
11
0.2102992542
21
-12.6146890373
31
0.0000000000
11
0.4637824989
21
-13.0148761377
31
0.0000000000
0
SPLINE
5
2B4
100
AcDbEntity
8
0
100
AcDbSpline
62
7
6
CONTINUOUS
70
0
71
3
72
10
73
6
74
4
42
0.0000001000
43
0.0000001000
44
0.0000000001
12
0.0078081151
22
-0.4715055189
32
0.0000000000
13
0.0102052412
23
-0.4714597269
33
0.0000000000
40
0.0000000000
40
0.0000000000
40
0.0000000000
40
0.0000000000
40
0.3336180853
40
0.6669515601
40
1.0000000000
40
1.0000000000
40
1.0000000000
40
1.0000000000
10
-0.7466873237
20
-8.5235153340
30
0.0000000000
10
-0.7458190142
20
-8.5759495902
30
0.0000000000
10
-0.7439945762
20
-8.6807719267
30
0.0000000000
10
-0.7409929651
20
-8.8379333885
30
0.0000000000
10
-0.7388151078
20
-8.9426594162
30
0.0000000000
10
-0.7376821613
20
-8.9949990584
30
0.0000000000
11
-0.7466873237
21
-8.5235153340
31
0.0000000000
11
-0.7439493870
21
-8.6808158436
31
0.0000000000
11
-0.7409476620
21
-8.8379773022
31
0.0000000000
11
-0.7376821613
21
-8.9949990584
31
0.0000000000
0
SPLINE
5
2B5
100
AcDbEntity
8
0
100
AcDbSpline
62
9
6
CONTINUOUS
70
0
71
3
72
11
73
7
74
5
42
0.0000001000
43
0.0000001000
44
0.0000000001
12
0.0665313507
22
-0.5031300266
32
0.0000000000
13
0.4562822546
23
-0.2280379500
33
0.0000000000
40
0.0000000000
40
0.0000000000
40
0.0000000000
40
0.0000000000
40
0.3510397718
40
0.6646203027
40
0.9532437038
40
1.0000000000
40
1.0000000000
40
1.0000000000
40
1.0000000000
10
6.4458951342
20
-21.4262810290
30
0.0000000000
10
6.4536801843
20
-21.4851539122
30
0.0000000000
10
6.4798976713
20
-21.5957837873
30
0.0000000000
10
6.5591751401
20
-21.7390541330
30
0.0000000000
10
6.6434688539
20
-21.8133096485
30
0.0000000000
10
6.6936682640
20
-21.8403874298
30
0.0000000000
10
6.7007796201
20
-21.8439414998
30
0.0000000000
11
6.4458951342
21
-21.4262810290
31
0.0000000000
11
6.4894813295
21
-21.5990231896
31
0.0000000000
11
6.5688802664
21
-21.7369471025
31
0.0000000000
11
6.6798003541
21
-21.8326178684
31
0.0000000000
11
6.7007796201
21
-21.8439414998
31
0.0000000000
0
SPLINE
5
2B6
100
AcDbEntity
8
0
100
AcDbSpline
62
9
6
CONTINUOUS
70
0
71
3
72
12
73
8
74
6
42
0.0000001000
43
0.0000001000
44
0.0000000001
12
-0.6044460142
22
-0.3951035435
32
0.0000000000
13
-0.6469519108
23
0.3208037083
33
0.0000000000
40
0.0000000000
40
0.0000000000
40
0.0000000000
40
0.0000000000
40
0.1941107554
40
0.4037108479
40
0.6162826690
40
0.8187146220
40
1.0000000000
40
1.0000000000
40
1.0000000000
40
1.0000000000
10
7.1397117398
20
-21.3685513932
30
0.0000000000
10
7.1006019156
20
-21.3941160090
30
0.0000000000
10
7.0123806545
20
-21.4370037214
30
0.0000000000
10
6.8683421860
20
-21.4753875496
30
0.0000000000
10
6.7176953578
20
-21.4881460355
30
0.0000000000
10
6.5740720540
20
-21.4741507026
30
0.0000000000
10
6.4850021049
20
-21.4456580398
30
0.0000000000
10
6.4459077977
20
-21.4262723660
30
0.0000000000
11
7.1397117398
21
-21.3685513932
31
0.0000000000
11
7.0143472481
21
-21.4312562219
31
0.0000000000
11
6.8682597757
21
-21.4708467967
31
0.0000000000
11
6.7152852358
21
-21.4835735028
31
0.0000000000
11
6.5699118145
21
-21.4682309967
31
0.0000000000
11
6.4459077977
21
-21.4262723660
31
0.0000000000
0
SPLINE
5
2B7
100
AcDbEntity
8
0
100
AcDbSpline
62
9
6
CONTINUOUS
70
0
71
3
72
10
73
6
74
4
42
0.0000001000
43
0.0000001000
44
0.0000000001
12
-0.0070490930
22
-0.3248459074
32
0.0000000000
13
-0.2983745548
23
-0.1336116648
33
0.0000000000
40
0.0000000000
40
0.0000000000
40
0.0000000000
40
0.0000000000
40
0.3932222943
40
0.7288944884
40
1.0000000000
40
1.0000000000
40
1.0000000000
40
1.0000000000
10
7.4890093872
20
-21.5714265977
30
0.0000000000
10
7.4880854337
20
-21.6140054820
30
0.0000000000
10
7.4773892101
20
-21.6933454988
30
0.0000000000
10
7.4283141114
20
-21.7929836808
30
0.0000000000
10
7.3743917548
20
-21.8350993389
30
0.0000000000
10
7.3474280927
20
-21.8471736252
30
0.0000000000
11
7.4890093872
21
-21.5714265977
31
0.0000000000
11
7.4692471454
21
-21.6976557130
31
0.0000000000
11
7.4177563708
21
-21.7938035142
31
0.0000000000
11
7.3474280927
21
-21.8471736252
31
0.0000000000
0
SPLINE
5
2B8
100
AcDbEntity
8
0
100
AcDbSpline
62
9
6
CONTINUOUS
70
0
71
3
72
10
73
6
74
4
42
0.0000001000
43
0.0000001000
44
0.0000000001
12
0.0039801976
22
-0.2436723515
32
0.0000000000
13
0.2143583651
23
-0.1073077507
33
0.0000000000
40
0.0000000000
40
0.0000000000
40
0.0000000000
40
0.0000000000
40
0.1700507928
40
0.5401421493
40
1.0000000000
40
1.0000000000
40
1.0000000000
40
1.0000000000
10
-9.0599078827
20
-4.1773467846
30
0.0000000000
10
-9.0596822708
20
-4.1911590101
30
0.0000000000
10
-9.0526662604
20
-4.2349583897
30
0.0000000000
10
-9.0032820913
20
-4.3020270433
30
0.0000000000
10
-8.9467157998
20
-4.3382618966
30
0.0000000000
10
-8.9138576741
20
-4.3547106671
30
0.0000000000
11
-9.0599078827
21
-4.1773467846
31
0.0000000000
11
-9.0533161694
21
-4.2179867986
31
0.0000000000
11
-9.0046171407
21
-4.2921432195
31
0.0000000000
11
-8.9138576741
21
-4.3547106671
31
0.0000000000
0
SPLINE
5
2B9
100
AcDbEntity
8
0
100
AcDbSpline
62
7
6
CONTINUOUS
70
0
71
3
72
8
73
4
74
2
42
0.0000001000
43
0.0000001000
44
0.0000000001
12
-0.0665071829
22
0.0013556847
32
0.0000000000
13
-0.0664123539
23
-0.0048705031
33
0.0000000000
40
0.0000000000
40
0.0000000000
40
0.0000000000
40
0.0000000000
40
1.0000000000
40
1.0000000000
40
1.0000000000
40
1.0000000000
10
-1.9890792139
20
-8.6765295641
30
0.0000000000
10
-2.0112482749
20
-8.6760776692
30
0.0000000000
10
-2.0334649456
20
-8.6766041630
30
0.0000000000
10
-2.0556023969
20
-8.6782276640
30
0.0000000000
11
-1.9890792139
21
-8.6765295641
31
0.0000000000
11
-2.0556023969
21
-8.6782276640
31
0.0000000000
0
SPLINE
5
2BA
100
AcDbEntity
8
0
100
AcDbSpline
62
7
6
CONTINUOUS
70
0
71
3
72
9
73
5
74
3
42
0.0000001000
43
0.0000001000
44
0.0000000001
12
-0.0323923746
22
-0.0023755695
32
0.0000000000
13
-0.0322351417
23
-0.0039826577
33
0.0000000000
40
0.0000000000
40
0.0000000000
40
0.0000000000
40
0.0000000000
40
0.9587417141
40
1.0000000000
40
1.0000000000
40
1.0000000000
40
1.0000000000
10
-2.0556023969
20
-8.6782276640
30
0.0000000000
10
-2.0659543705
20
-8.6789868499
30
0.0000000000
10
-2.0767337603
20
-8.6800289131
30
0.0000000000
10
-2.0874801948
20
-8.6813451462
30
0.0000000000
10
-2.0879235170
20
-8.6813999188
30
0.0000000000
11
-2.0556023969
21
-8.6782276640
31
0.0000000000
11
-2.0865933798
21
-8.6812370019
31
0.0000000000
11
-2.0879235170
21
-8.6813999188
31
0.0000000000
0
SPLINE
5
2BB
100
AcDbEntity
8
0
100
AcDbSpline
62
7
6
CONTINUOUS
70
0
71
3
72
8
73
4
74
2
42
0.0000001000
43
0.0000001000
44
0.0000000001
12
-0.0317264205
22
-0.0039198051
32
0.0000000000
13
-0.0314845281
23
-0.0055272844
33
0.0000000000
40
0.0000000000
40
0.0000000000
40
0.0000000000
40
0.0000000000
40
1.0000000000
40
1.0000000000
40
1.0000000000
40
1.0000000000
10
-2.0879235170
20
-8.6813999188
30
0.0000000000
10
-2.0984989906
20
-8.6827065205
30
0.0000000000
10
-2.1090418916
20
-8.6842788868
30
0.0000000000
10
-2.1195367344
20
-8.6861213150
30
0.0000000000
11
-2.0879235170
21
-8.6813999188
31
0.0000000000
11
-2.1195367344
21
-8.6861213150
31
0.0000000000
0
SPLINE
5
2BC
100
AcDbEntity
8
0
100
AcDbSpline
62
7
6
CONTINUOUS
70
0
71
3
72
8
73
4
74
2
42
0.0000001000
43
0.0000001000
44
0.0000000001
12
-0.0259468816
22
-0.0045551197
32
0.0000000000
13
-0.0257250409
23
-0.0056628359
33
0.0000000000
40
0.0000000000
40
0.0000000000
40
0.0000000000
40
0.0000000000
40
1.0000000000
40
1.0000000000
40
1.0000000000
40
1.0000000000
10
-2.1195367344
20
-8.6861213150
30
0.0000000000
10
-2.1281856949
20
-8.6876396882
30
0.0000000000
10
-2.1368020158
20
-8.6893414782
30
0.0000000000
10
-2.1453770295
20
-8.6912290902
30
0.0000000000
11
-2.1195367344
21
-8.6861213150
31
0.0000000000
11
-2.1453770295
21
-8.6912290902
31
0.0000000000
0
SPLINE
5
2BD
100
AcDbEntity
8
0
100
AcDbSpline
62
7
6
CONTINUOUS
70
0
71
3
72
9
73
5
74
3
42
0.0000001000
43
0.0000001000
44
0.0000000001
12
-0.0358545518
22
-0.0078926383
32
0.0000000000
13
-0.0353026969
23
-0.0100778254
33
0.0000000000
40
0.0000000000
40
0.0000000000
40
0.0000000000
40
0.0000000000
40
0.9317758646
40
1.0000000000
40
1.0000000000
40
1.0000000000
40
1.0000000000
10
-2.1453770295
20
-8.6912290902
30
0.0000000000
10
-2.1565131648
20
-8.6936804802
30
0.0000000000
10
-2.1683899143
20
-8.6966477045
30
0.0000000000
10
-2.1801645551
20
-8.6999819685
30
0.0000000000
10
-2.1809673871
20
-8.7002111521
30
0.0000000000
11
-2.1453770295
21
-8.6912290902
31
0.0000000000
11
-2.1785574504
21
-8.6995287223
31
0.0000000000
11
-2.1809673871
21
-8.7002111521
31
0.0000000000
0
SPLINE
5
2BE
100
AcDbEntity
8
0
100
AcDbSpline
62
7
6
CONTINUOUS
70
0
71
3
72
8
73
4
74
2
42
0.0000001000
43
0.0000001000
44
0.0000000001
12
-0.0131050879
22
-0.0037410963
32
0.0000000000
13
-0.0130157525
23
-0.0040432319
33
0.0000000000
40
0.0000000000
40
0.0000000000
40
0.0000000000
40
0.0000000000
40
1.0000000000
40
1.0000000000
40
1.0000000000
40
1.0000000000
10
-2.1809673871
20
-8.7002111521
30
0.0000000000
10
-2.1853357497
20
-8.7014581842
30
0.0000000000
10
-2.1896898214
20
-8.7027557359
30
0.0000000000
10
-2.1940284056
20
-8.7041034799
30
0.0000000000
11
-2.1809673871
21
-8.7002111521
31
0.0000000000
11
-2.1940284056
21
-8.7041034799
31
0.0000000000
0
SPLINE
5
2BF
100
AcDbEntity
8
0
100
AcDbSpline
62
7
6
CONTINUOUS
70
0
71
3
72
8
73
4
74
2
42
0.0000001000
43
0.0000001000
44
0.0000000001
12
-0.0168199238
22
-0.0052249651
32
0.0000000000
13
-0.0166569947
23
-0.0057257639
33
0.0000000000
40
0.0000000000
40
0.0000000000
40
0.0000000000
40
0.0000000000
40
1.0000000000
40
1.0000000000
40
1.0000000000
40
1.0000000000
10
-2.1940284056
20
-8.7041034799
30
0.0000000000
10
-2.1996350469
20
-8.7058451349
30
0.0000000000
10
-2.2052158244
20
-8.7076706097
30
0.0000000000
10
-2.2107681560
20
-8.7095791977
30
0.0000000000
11
-2.1940284056
21
-8.7041034799
31
0.0000000000
11
-2.2107681560
21
-8.7095791977
31
0.0000000000
0
SPLINE
5
2C0
100
AcDbEntity
8
0
100
AcDbSpline
62
9
6
CONTINUOUS
70
0
71
3
72
10
73
6
74
4
42
0.0000001000
43
0.0000001000
44
0.0000000001
12
-0.0024380536
22
-0.2432602782
32
0.0000000000
13
0.2138781075
23
-0.1068067296
33
0.0000000000
40
0.0000000000
40
0.0000000000
40
0.0000000000
40
0.0000000000
40
0.1782173039
40
0.5410344712
40
1.0000000000
40
1.0000000000
40
1.0000000000
40
1.0000000000
10
-9.0598584287
20
12.2757793434
30
0.0000000000
10
-9.0600032632
20
12.2613282798
30
0.0000000000
10
-9.0532662348
20
12.2172389557
30
0.0000000000
10
-9.0025080809
20
12.1514570080
30
0.0000000000
10
-8.9465785407
20
12.1161122197
30
0.0000000000
10
-8.9138576478
20
12.0997720173
30
0.0000000000
11
-9.0598584287
21
12.2757793434
31
0.0000000000
11
-9.0533161412
21
12.2332043303
31
0.0000000000
11
-9.0046171113
21
12.1614295489
31
0.0000000000
11
-8.9138576478
21
12.0997720173
31
0.0000000000
0
SPLINE
5
2C1
100
AcDbEntity
8
0
100
AcDbSpline
62
9
6
CONTINUOUS
70
0
71
3
72
13
73
9
74
7
42
0.0000001000
43
0.0000001000
44
0.0000000001
12
0.1489049544
22
1.3074921613
32
0.0000000000
13
1.1550260056
23
0.6305738368
33
0.0000000000
40
0.0000000000
40
0.0000000000
40
0.0000000000
40
0.0000000000
40
0.1671067420
40
0.3416627613
40
0.5178632254
40
0.6897507039
40
0.8518738082
40
1.0000000000
40
1.0000000000
40
1.0000000000
40
1.0000000000
10
-8.2388597566
20
22.5400572443
30
0.0000000000
10
-8.2305654160
20
22.6128874961
30
0.0000000000
10
-8.2008076824
20
22.7605175743
30
0.0000000000
10
-8.1236646408
20
22.9749271032
30
0.0000000000
10
-8.0166005015
20
23.1784931558
30
0.0000000000
10
-7.8851224474
20
23.3606113483
30
0.0000000000
10
-7.7360783859
20
23.5118482285
30
0.0000000000
10
-7.6240341650
20
23.5909849182
30
0.0000000000
10
-7.5670042971
20
23.6221197519
30
0.0000000000
11
-8.2388597566
21
22.5400572443
31
0.0000000000
11
-8.1963999719
21
22.7558222591
31
0.0000000000
11
-8.1190547766
21
22.9721149710
31
0.0000000000
11
-8.0110038654
21
23.1772701949
31
0.0000000000
11
-7.8780561465
21
23.3602695349
31
0.0000000000
11
-7.7273452520
21
23.5112737710
31
0.0000000000
11
-7.5670042971
21
23.6221197519
31
0.0000000000
0
SPLINE
5
2C2
100
AcDbEntity
8
0
100
AcDbSpline
62
7
6
CONTINUOUS
70
0
71
3
72
8
73
4
74
2
42
0.0000001000
43
0.0000001000
44
0.0000000001
12
-0.1319672114
22
0.2760253801
32
0.0000000000
13
-0.1623045865
23
0.2594914213
33
0.0000000000
40
0.0000000000
40
0.0000000000
40
0.0000000000
40
0.0000000000
40
1.0000000000
40
1.0000000000
40
1.0000000000
40
1.0000000000
10
-0.6361632499
20
-9.8255242822
30
0.0000000000
10
-0.6801523204
20
-9.7335158221
30
0.0000000000
10
-0.7293103150
20
-9.6438362256
30
0.0000000000
10
-0.7834118438
20
-9.5573390852
30
0.0000000000
11
-0.6361632499
21
-9.8255242822
31
0.0000000000
11
-0.7834118438
21
-9.5573390852
31
0.0000000000
0
SPLINE
5
2C3
100
AcDbEntity
8
0
100
AcDbSpline
62
7
6
CONTINUOUS
70
0
71
3
72
9
73
5
74
3
42
0.0000001000
43
0.0000001000
44
0.0000000001
12
-0.1603502521
22
0.2563668452
32
0.0000000000
13
-0.1888098805
23
0.2362356176
33
0.0000000000
40
0.0000000000
40
0.0000000000
40
0.0000000000
40
0.0000000000
40
0.5055571748
40
1.0000000000
40
1.0000000000
40
1.0000000000
40
1.0000000000
10
-0.7834118438
20
-9.5573390852
30
0.0000000000
10
-0.8104339173
20
-9.5141363859
30
0.0000000000
10
-0.8663234595
20
-9.4302512747
30
0.0000000000
10
-0.9268209985
20
-9.3496363894
30
0.0000000000
10
-0.9579395621
20
-9.3107013874
30
0.0000000000
11
-0.7834118438
21
-9.5573390852
31
0.0000000000
11
-0.8681223843
21
-9.4301547769
31
0.0000000000
11
-0.9579395621
21
-9.3107013874
31
0.0000000000
0
SPLINE
5
2C4
100
AcDbEntity
8
0
100
AcDbSpline
62
7
6
CONTINUOUS
70
0
71
3
72
8
73
4
74
2
42
0.0000001000
43
0.0000001000
44
0.0000000001
12
-0.1829622040
22
0.2289191071
32
0.0000000000
13
-0.2104298474
23
0.2037455669
33
0.0000000000
40
0.0000000000
40
0.0000000000
40
0.0000000000
40
0.0000000000
40
1.0000000000
40
1.0000000000
40
1.0000000000
40
1.0000000000
10
-0.9579395621
20
-9.3107013874
30
0.0000000000
10
-1.0189269634
20
-9.2343950184
30
0.0000000000
10
-1.0845499280
20
-9.1616377599
30
0.0000000000
10
-1.1546932105
20
-9.0937225709
30
0.0000000000
11
-0.9579395621
21
-9.3107013874
31
0.0000000000
11
-1.1546932105
21
-9.0937225709
31
0.0000000000
0
SPLINE
5
2C5
100
AcDbEntity
8
0
100
AcDbSpline
62
7
6
CONTINUOUS
70
0
71
3
72
8
73
4
74
2
42
0.0000001000
43
0.0000001000
44
0.0000000001
12
-0.0146459040
22
-0.0050498198
32
0.0000000000
13
-0.0152131537
23
-0.0028573583
33
0.0000000000
40
0.0000000000
40
0.0000000000
40
0.0000000000
40
0.0000000000
40
1.0000000000
40
1.0000000000
40
1.0000000000
40
1.0000000000
10
-3.0408162174
20
-11.6353147346
30
0.0000000000
10
-3.0456981854
20
-11.6369980078
30
0.0000000000
10
-3.0507025277
20
-11.6383019570
30
0.0000000000
10
-3.0557735789
20
-11.6392544098
30
0.0000000000
11
-3.0408162174
21
-11.6353147346
31
0.0000000000
11
-3.0557735789
21
-11.6392544098
31
0.0000000000
0
SPLINE
5
2C6
100
AcDbEntity
8
0
100
AcDbSpline
62
7
6
CONTINUOUS
70
0
71
3
72
8
73
4
74
2
42
0.0000001000
43
0.0000001000
44
0.0000000001
12
-0.0096274440
22
-0.0018082415
32
0.0000000000
13
-0.0097454151
23
-0.0009847906
33
0.0000000000
40
0.0000000000
40
0.0000000000
40
0.0000000000
40
0.0000000000
40
1.0000000000
40
1.0000000000
40
1.0000000000
40
1.0000000000
10
-3.0557735789
20
-11.6392544098
30
0.0000000000
10
-3.0589827269
20
-11.6398571569
30
0.0000000000
10
-3.0622185907
20
-11.6403191360
30
0.0000000000
10
-3.0654670624
20
-11.6406473995
30
0.0000000000
11
-3.0557735789
21
-11.6392544098
31
0.0000000000
11
-3.0654670624
21
-11.6406473995
31
0.0000000000
0
SPLINE
5
2C7
100
AcDbEntity
8
0
100
AcDbSpline
62
7
6
CONTINUOUS
70
0
71
3
72
8
73
4
74
2
42
0.0000001000
43
0.0000001000
44
0.0000000001
12
0.0144312110
22
0.0163122027
32
0.0000000000
13
0.0174024899
23
0.0129162961
33
0.0000000000
40
0.0000000000
40
0.0000000000
40
0.0000000000
40
0.0000000000
40
1.0000000000
40
1.0000000000
40
1.0000000000
40
1.0000000000
10
-3.3521710324
20
-11.1295826645
30
0.0000000000
10
-3.3473606288
20
-11.1241452636
30
0.0000000000
10
-3.3420183332
20
-11.1191815593
30
0.0000000000
10
-3.3362175033
20
-11.1148761273
30
0.0000000000
11
-3.3521710324
21
-11.1295826645
31
0.0000000000
11
-3.3362175033
21
-11.1148761273
31
0.0000000000
0
SPLINE
5
2C8
100
AcDbEntity
8
0
100
AcDbSpline
62
9
6
CONTINUOUS
70
0
71
3
72
10
73
6
74
4
42
0.0000001000
43
0.0000001000
44
0.0000000001
12
0.1568950898
22
10.4645327879
32
0.0000000000
13
1.1676215138
23
10.4003712692
33
0.0000000000
40
0.0000000000
40
0.0000000000
40
0.0000000000
40
0.0000000000
40
0.3279270540
40
0.6613532989
40
1.0000000000
40
1.0000000000
40
1.0000000000
40
1.0000000000
10
-8.9138576746
20
12.0997720045
30
0.0000000000
10
-8.8967076265
20
13.2436398073
30
0.0000000000
10
-8.8226839167
20
15.5501426225
30
0.0000000000
10
-8.5966691894
20
19.0319262195
30
0.0000000000
10
-8.3706634812
20
21.3660401041
30
0.0000000000
10
-8.2388597566
20
22.5400572443
30
0.0000000000
11
-8.9138576746
21
12.0997720045
31
0.0000000000
11
-8.8047488484
21
15.5300262713
31
0.0000000000
11
-8.5796089618
21
19.0122978726
31
0.0000000000
11
-8.2388597566
21
22.5400572443
31
0.0000000000
0
SPLINE
5
2C9
100
AcDbEntity
8
0
100
AcDbSpline
62
9
6
CONTINUOUS
70
0
71
3
72
10
73
6
74
4
42
0.0000001000
43
0.0000001000
44
0.0000000001
12
-0.0200230812
22
-0.2350703809
32
0.0000000000
13
0.2084488152
23
-0.1031234939
33
0.0000000000
40
0.0000000000
40
0.0000000000
40
0.0000000000
40
0.0000000000
40
0.1896383031
40
0.5348853333
40
1.0000000000
40
1.0000000000
40
1.0000000000
40
1.0000000000
10
-8.3855495101
20
22.7062262283
30
0.0000000000
10
-8.3868152245
20
22.6913667789
30
0.0000000000
10
-8.3800063591
20
22.6476580212
30
0.0000000000
10
-8.3249003293
20
22.5887049116
30
0.0000000000
10
-8.2711599887
20
22.5560507959
30
0.0000000000
10
-8.2388424550
20
22.5400627128
30
0.0000000000
11
-8.3855495101
21
22.7062262283
31
0.0000000000
11
-8.3791380382
21
22.6619042211
31
0.0000000000
11
-8.3298568209
21
22.5985157820
31
0.0000000000
11
-8.2388424550
21
22.5400627128
31
0.0000000000
0
SPLINE
5
2CA
100
AcDbEntity
8
0
100
AcDbSpline
62
9
6
CONTINUOUS
70
0
71
3
72
10
73
6
74
4
42
0.0000001000
43
0.0000001000
44
0.0000000001
12
0.2130840017
22
0.1205676646
32
0.0000000000
13
0.2191848260
23
-0.1038237994
33
0.0000000000
40
0.0000000000
40
0.0000000000
40
0.0000000000
40
0.0000000000
40
0.1065267788
40
0.5212691982
40
1.0000000000
40
1.0000000000
40
1.0000000000
40
1.0000000000
10
-7.8018039815
20
23.6301206190
30
0.0000000000
10
-7.7942375974
20
23.6344018473
30
0.0000000000
10
-7.7558626435
20
23.6528158310
30
0.0000000000
10
-7.6722931163
20
23.6612855354
30
0.0000000000
10
-7.6019811396
20
23.6386876354
30
0.0000000000
10
-7.5670042971
20
23.6221197519
30
0.0000000000
11
-7.8018039815
21
23.6301206190
31
0.0000000000
11
-7.7783363193
21
23.6413433831
31
0.0000000000
11
-7.6785790162
21
23.6542437388
31
0.0000000000
11
-7.5670042971
21
23.6221197519
31
0.0000000000
0
SPLINE
5
2CB
100
AcDbEntity
8
0
100
AcDbSpline
62
9
6
CONTINUOUS
70
0
71
3
72
10
73
6
74
4
42
0.0000001000
43
0.0000001000
44
0.0000000001
12
-0.2506073643
22
16.4531307017
32
0.0000000000
13
0.2466495822
23
16.4531905089
33
0.0000000000
40
0.0000000000
40
0.0000000000
40
0.0000000000
40
0.0000000000
40
0.3315679570
40
0.6648942770
40
1.0000000000
40
1.0000000000
40
1.0000000000
40
1.0000000000
10
-8.9138576746
20
-4.3547106674
30
0.0000000000
10
-8.9415554652
20
-2.5362670231
30
0.0000000000
10
-8.9783852209
20
1.1105764513
30
0.0000000000
10
-8.9782386473
20
6.5956729414
30
0.0000000000
10
-8.9414089035
20
10.2619192376
30
0.0000000000
10
-8.9138576746
20
12.0997720045
30
0.0000000000
11
-8.9138576746
21
-4.3547106674
31
0.0000000000
11
-8.9691047828
21
1.1009733277
31
0.0000000000
11
-8.9691047917
21
6.5858709785
31
0.0000000000
11
-8.9138576746
21
12.0997720045
31
0.0000000000
0
SPLINE
5
2CC
100
AcDbEntity
8
0
100
AcDbSpline
62
7
6
CONTINUOUS
70
0
71
3
72
10
73
6
74
4
42
0.0000001000
43
0.0000001000
44
0.0000000001
12
-0.0029589378
22
0.0765049752
32
0.0000000000
13
0.0208586510
23
0.0737846360
33
0.0000000000
40
0.0000000000
40
0.0000000000
40
0.0000000000
40
0.0000000000
40
0.5024061255
40
0.9618848761
40
1.0000000000
40
1.0000000000
40
1.0000000000
40
1.0000000000
10
-0.4706940248
20
-10.6830848424
30
0.0000000000
10
-0.4711895543
20
-10.6702726530
30
0.0000000000
10
-0.4706350180
20
-10.6456414298
30
0.0000000000
10
-0.4663065710
20
-10.6203855264
30
0.0000000000
10
-0.4629414166
20
-10.6081214230
30
0.0000000000
10
-0.4626764066
20
-10.6071839862
30
0.0000000000
11
-0.4706940248
21
-10.6830848424
31
0.0000000000
11
-0.4696257097
21
-10.6446343752
31
0.0000000000
11
-0.4634498432
21
-10.6100020340
31
0.0000000000
11
-0.4626764066
21
-10.6071839862
31
0.0000000000
0
SPLINE
5
2CD
100
AcDbEntity
8
0
100
AcDbSpline
62
7
6
CONTINUOUS
70
0
71
3
72
8
73
4
74
2
42
0.0000001000
43
0.0000001000
44
0.0000000001
12
0.0050283437
22
0.0177870806
32
0.0000000000
13
0.0068696811
23
0.0171592503
33
0.0000000000
40
0.0000000000
40
0.0000000000
40
0.0000000000
40
0.0000000000
40
1.0000000000
40
1.0000000000
40
1.0000000000
40
1.0000000000
10
-0.4626764066
20
-10.6071839862
30
0.0000000000
10
-0.4610002921
20
-10.6012549593
30
0.0000000000
10
-0.4590344411
20
-10.5954051166
30
0.0000000000
10
-0.4567445474
20
-10.5896853665
30
0.0000000000
11
-0.4626764066
21
-10.6071839862
31
0.0000000000
11
-0.4567445474
21
-10.5896853665
31
0.0000000000
0
SPLINE
5
2CE
100
AcDbEntity
8
0
100
AcDbSpline
62
7
6
CONTINUOUS
70
0
71
3
72
8
73
4
74
2
42
0.0000001000
43
0.0000001000
44
0.0000000001
12
0.0020544135
22
0.0051315622
32
0.0000000000
13
0.0022310488
23
0.0050576693
33
0.0000000000
40
0.0000000000
40
0.0000000000
40
0.0000000000
40
0.0000000000
40
1.0000000000
40
1.0000000000
40
1.0000000000
40
1.0000000000
10
-0.4567445474
20
-10.5896853665
30
0.0000000000
10
-0.4560597429
20
-10.5879748458
30
0.0000000000
10
-0.4553459580
20
-10.5862759597
30
0.0000000000
10
-0.4546022750
20
-10.5845900699
30
0.0000000000
11
-0.4567445474
21
-10.5896853665
31
0.0000000000
11
-0.4546022750
21
-10.5845900699
31
0.0000000000
0
SPLINE
5
2CF
100
AcDbEntity
8
0
100
AcDbSpline
62
7
6
CONTINUOUS
70
0
71
3
72
9
73
5
74
3
42
0.0000001000
43
0.0000001000
44
0.0000000001
12
0.0079594787
22
0.0180437163
32
0.0000000000
13
0.0103395456
23
0.0168086465
33
0.0000000000
40
0.0000000000
40
0.0000000000
40
0.0000000000
40
0.0000000000
40
0.2875608569
40
1.0000000000
40
1.0000000000
40
1.0000000000
40
1.0000000000
10
-0.4546022750
20
-10.5845900699
30
0.0000000000
10
-0.4538393302
20
-10.5828605144
30
0.0000000000
10
-0.4510767440
20
-10.5768935087
30
0.0000000000
10
-0.4479216435
20
-10.5711096948
30
0.0000000000
10
-0.4454662112
20
-10.5671179823
30
0.0000000000
11
-0.4546022750
21
-10.5845900699
31
0.0000000000
11
-0.4522180494
21
-10.5794439082
31
0.0000000000
11
-0.4454662112
21
-10.5671179823
31
0.0000000000
0
SPLINE
5
2D0
100
AcDbEntity
8
0
100
AcDbSpline
62
7
6
CONTINUOUS
70
0
71
3
72
9
73
5
74
3
42
0.0000001000
43
0.0000001000
44
0.0000000001
12
0.0099373127
22
0.0161547503
32
0.0000000000
13
0.0122624130
23
0.0144818406
33
0.0000000000
40
0.0000000000
40
0.0000000000
40
0.0000000000
40
0.0000000000
40
0.8494246600
40
1.0000000000
40
1.0000000000
40
1.0000000000
40
1.0000000000
10
-0.4454662112
20
-10.5671179823
30
0.0000000000
10
-0.4426525450
20
-10.5625439012
30
0.0000000000
10
-0.4390191677
20
-10.5573582474
30
0.0000000000
10
-0.4349904687
20
-10.5524820867
30
0.0000000000
10
-0.4343749964
20
-10.5517552173
30
0.0000000000
11
-0.4454662112
21
-10.5671179823
31
0.0000000000
11
-0.4361947511
21
-10.5539575629
31
0.0000000000
11
-0.4343749964
21
-10.5517552173
31
0.0000000000
0
SPLINE
5
2D1
100
AcDbEntity
8
0
100
AcDbSpline
62
7
6
CONTINUOUS
70
0
71
3
72
8
73
4
74
2
42
0.0000001000
43
0.0000001000
44
0.0000000001
12
0.0103930352
22
0.0122741160
32
0.0000000000
13
0.0120146091
23
0.0106914038
33
0.0000000000
40
0.0000000000
40
0.0000000000
40
0.0000000000
40
0.0000000000
40
1.0000000000
40
1.0000000000
40
1.0000000000
40
1.0000000000
10
-0.4343749964
20
-10.5517552173
30
0.0000000000
10
-0.4309106513
20
-10.5476638453
30
0.0000000000
10
-0.4271659246
20
-10.5438056661
30
0.0000000000
10
-0.4231610549
20
-10.5402418648
30
0.0000000000
11
-0.4343749964
21
-10.5517552173
31
0.0000000000
11
-0.4231610549
21
-10.5402418648
31
0.0000000000
0
SPLINE
5
2D2
100
AcDbEntity
8
0
100
AcDbSpline
62
7
6
CONTINUOUS
70
0
71
3
72
8
73
4
74
2
42
0.0000001000
43
0.0000001000
44
0.0000000001
12
0.0036168225
22
0.0032184909
32
0.0000000000
13
0.0037566147
23
0.0030534201
33
0.0000000000
40
0.0000000000
40
0.0000000000
40
0.0000000000
40
0.0000000000
40
1.0000000000
40
1.0000000000
40
1.0000000000
40
1.0000000000
10
-0.4231610549
20
-10.5402418648
30
0.0000000000
10
-0.4219554474
20
-10.5391690345
30
0.0000000000
10
-0.4207262652
20
-10.5381228814
30
0.0000000000
10
-0.4194740603
20
-10.5371050747
30
0.0000000000
11
-0.4231610549
21
-10.5402418648
31
0.0000000000
11
-0.4194740603
21
-10.5371050747
31
0.0000000000
0
SPLINE
5
2D3
100
AcDbEntity
8
0
100
AcDbSpline
62
7
6
CONTINUOUS
70
0
71
3
72
9
73
5
74
3
42
0.0000001000
43
0.0000001000
44
0.0000000001
12
0.0070720760
22
0.0057482657
32
0.0000000000
13
0.0075458924
23
0.0051157877
33
0.0000000000
40
0.0000000000
40
0.0000000000
40
0.0000000000
40
0.0000000000
40
0.5221299722
40
1.0000000000
40
1.0000000000
40
1.0000000000
40
1.0000000000
10
-0.4194740603
20
-10.5371050747
30
0.0000000000
10
-0.4182432127
20
-10.5361046275
30
0.0000000000
10
-0.4158432516
20
-10.5342409927
30
0.0000000000
10
-0.4133636204
20
-10.5324836337
30
0.0000000000
10
-0.4121616351
20
-10.5316687398
30
0.0000000000
11
-0.4194740603
21
-10.5371050747
31
0.0000000000
11
-0.4157153098
21
-10.5341874812
31
0.0000000000
11
-0.4121616351
21
-10.5316687398
31
0.0000000000
0
SPLINE
5
2D4
100
AcDbEntity
8
0
100
AcDbSpline
62
9
6
CONTINUOUS
70
0
71
3
72
8
73
4
74
2
42
0.0000001000
43
0.0000001000
44
0.0000000001
12
-0.0242751717
22
0.1906533926
32
0.0000000000
13
-0.0238179504
23
0.1907133473
33
0.0000000000
40
0.0000000000
40
0.0000000000
40
0.0000000000
40
0.0000000000
40
1.0000000000
40
1.0000000000
40
1.0000000000
40
1.0000000000
10
-8.2388597566
20
-14.0839035835
30
0.0000000000
10
-8.2469514805
20
-14.0203524527
30
0.0000000000
10
-8.2549668722
20
-13.9567912103
30
0.0000000000
10
-8.2629061890
20
-13.8932200946
30
0.0000000000
11
-8.2388597566
21
-14.0839035835
31
0.0000000000
11
-8.2629061890
21
-13.8932200946
31
0.0000000000
0
SPLINE
5
2D5
100
AcDbEntity
8
0
100
AcDbSpline
62
9
6
CONTINUOUS
70
0
71
3
72
10
73
6
74
4
42
0.0000001000
43
0.0000001000
44
0.0000000001
12
-1.1853497097
22
9.4912453530
32
0.0000000000
13
-0.1456904844
23
9.5637543933
33
0.0000000000
40
0.0000000000
40
0.0000000000
40
0.0000000000
40
0.0000000000
40
0.3131110671
40
0.6531988390
40
1.0000000000
40
1.0000000000
40
1.0000000000
40
1.0000000000
10
-8.2629061890
20
-13.8932200946
30
0.0000000000
10
-8.3866215598
20
-12.9026154409
30
0.0000000000
10
-8.6061750051
20
-10.8310571700
30
0.0000000000
10
-8.8257077708
20
-7.6496790140
30
0.0000000000
10
-8.8970157983
20
-5.4602843763
30
0.0000000000
10
-8.9138576746
20
-4.3547106674
30
0.0000000000
11
-8.2629061890
21
-13.8932200946
31
0.0000000000
11
-8.5796089620
21
-10.9151144125
31
0.0000000000
11
-8.8047488496
21
-7.6700216839
31
0.0000000000
11
-8.9138576746
21
-4.3547106674
31
0.0000000000
0
SPLINE
5
2D6
100
AcDbEntity
8
0
100
AcDbSpline
62
7
6
CONTINUOUS
70
0
71
3
72
9
73
5
74
3
42
0.0000001000
43
0.0000001000
44
0.0000000001
12
-0.0362323001
22
-0.0124439314
32
0.0000000000
13
-0.0384646789
23
0.0003550041
33
0.0000000000
40
0.0000000000
40
0.0000000000
40
0.0000000000
40
0.0000000000
40
0.3781469684
40
1.0000000000
40
1.0000000000
40
1.0000000000
40
1.0000000000
10
-1.2306073122
20
-13.3679962223
30
0.0000000000
10
-1.2351743570
20
-13.3695647673
30
0.0000000000
10
-1.2475511160
20
-13.3728550947
30
0.0000000000
10
-1.2603277635
20
-13.3739016933
30
0.0000000000
10
-1.2683008892
20
-13.3738281065
30
0.0000000000
11
-1.2306073122
21
-13.3679962223
31
0.0000000000
11
-1.2445920069
21
-13.3717323797
31
0.0000000000
11
-1.2683008892
21
-13.3738281065
31
0.0000000000
0
SPLINE
5
2D7
100
AcDbEntity
8
0
100
AcDbSpline
62
7
6
CONTINUOUS
70
0
71
3
72
18
73
14
74
12
42
0.0000001000
43
0.0000001000
44
0.0000000001
12
-0.4955227903
22
0.0045733553
32
0.0000000000
13
-0.0826678165
23
0.4851235944
33
0.0000000000
40
0.0000000000
40
0.0000000000
40
0.0000000000
40
0.0000000000
40
0.0877595165
40
0.1677694976
40
0.2558000723
40
0.3508983789
40
0.4516574324
40
0.5560544661
40
0.6624712658
40
0.7694708568
40
0.8739252325
40
0.9723783321
40
1.0000000000
40
1.0000000000
40
1.0000000000
40
1.0000000000
10
-1.2683008892
20
-13.3738281065
30
0.0000000000
10
-1.2827965027
20
-13.3736943213
30
0.0000000000
10
-1.3106841819
20
-13.3688611154
30
0.0000000000
10
-1.3494764055
20
-13.3529458179
30
0.0000000000
10
-1.3865967265
20
-13.3306218392
30
0.0000000000
10
-1.4229664594
20
-13.3014491427
30
0.0000000000
10
-1.4576489505
20
-13.2664097433
30
0.0000000000
10
-1.4896209026
20
-13.2264927120
30
0.0000000000
10
-1.5180356774
20
-13.1827488844
30
0.0000000000
10
-1.5420105267
20
-13.1364096669
30
0.0000000000
10
-1.5606701604
20
-13.0890757791
30
0.0000000000
10
-1.5706549272
20
-13.0525675855
30
0.0000000000
10
-1.5745098863
20
-13.0322437630
30
0.0000000000
10
-1.5752710273
20
-13.0277771220
30
0.0000000000
11
-1.2683008892
21
-13.3738281065
31
0.0000000000
11
-1.3113032406
21
-13.3671041623
31
0.0000000000
11
-1.3478569077
21
-13.3525831374
31
0.0000000000
11
-1.3850515131
21
-13.3304629619
31
0.0000000000
11
-1.4216593190
21
-13.3013872757
31
0.0000000000
11
-1.4565905688
21
-13.2662693806
31
0.0000000000
11
-1.4887308337
21
-13.2262590267
31
0.0000000000
11
-1.5172415461
21
-13.1823971612
31
0.0000000000
11
-1.5413788147
21
-13.1356620178
31
0.0000000000
11
-1.5601228607
21
-13.0878563703
31
0.0000000000
11
-1.5727436524
21
-13.0411320665
31
0.0000000000
11
-1.5752710273
21
-13.0277771220
31
0.0000000000
0
SPLINE
5
2D8
100
AcDbEntity
8
0
100
AcDbSpline
62
7
6
CONTINUOUS
70
0
71
3
72
8
73
4
74
2
42
0.0000001000
43
0.0000001000
44
0.0000000001
12
-0.0054279989
22
0.0318533914
32
0.0000000000
13
-0.0023423216
23
0.0321930466
33
0.0000000000
40
0.0000000000
40
0.0000000000
40
0.0000000000
40
0.0000000000
40
1.0000000000
40
1.0000000000
40
1.0000000000
40
1.0000000000
10
-1.5752710273
20
-13.0277771220
30
0.0000000000
10
-1.5770803602
20
-13.0171593249
30
0.0000000000
10
-1.5784181917
20
-13.0064629642
30
0.0000000000
10
-1.5791989656
20
-12.9957319486
30
0.0000000000
11
-1.5752710273
21
-13.0277771220
31
0.0000000000
11
-1.5791989656
21
-12.9957319486
31
0.0000000000
0
SPLINE
5
2D9
100
AcDbEntity
8
0
100
AcDbSpline
62
7
6
CONTINUOUS
70
0
71
3
72
9
73
5
74
3
42
0.0000001000
43
0.0000001000
44
0.0000000001
12
-0.1552756391
22
-0.0533511060
32
0.0000000000
13
-0.1630412838
23
-0.0190312095
33
0.0000000000
40
0.0000000000
40
0.0000000000
40
0.0000000000
40
0.0000000000
40
0.3617739576
40
1.0000000000
40
1.0000000000
40
1.0000000000
40
1.0000000000
10
-0.6157771066
20
-12.0358184976
30
0.0000000000
10
-0.6345020008
20
-12.0422521778
30
0.0000000000
10
-0.6869999612
20
-12.0579484557
30
0.0000000000
10
-0.7409533384
20
-12.0677568303
30
0.0000000000
10
-0.7756390695
20
-12.0718055681
30
0.0000000000
11
-0.6157771066
21
-12.0358184976
31
0.0000000000
11
-0.6726772761
21
-12.0528385758
31
0.0000000000
11
-0.7756390695
21
-12.0718055681
31
0.0000000000
0
SPLINE
5
2DA
100
AcDbEntity
8
0
100
AcDbSpline
62
7
6
CONTINUOUS
70
0
71
3
72
9
73
5
74
3
42
0.0000001000
43
0.0000001000
44
0.0000000001
12
-0.2199091787
22
-0.0256691898
32
0.0000000000
13
-0.2198665999
23
0.0265812280
33
0.0000000000
40
0.0000000000
40
0.0000000000
40
0.0000000000
40
0.0000000000
40
0.4916248825
40
1.0000000000
40
1.0000000000
40
1.0000000000
40
1.0000000000
10
-0.7756390695
20
-12.0718055681
30
0.0000000000
10
-0.8116766776
20
-12.0760121056
30
0.0000000000
10
-0.8855314987
20
-12.0797133082
30
0.0000000000
10
-0.9592483279
20
-12.0747930185
30
0.0000000000
10
-0.9965065641
20
-12.0702886069
30
0.0000000000
11
-0.7756390695
21
-12.0718055681
31
0.0000000000
11
-0.8842610612
21
-12.0775675404
31
0.0000000000
11
-0.9965065641
21
-12.0702886069
31
0.0000000000
0
SPLINE
5
2DB
100
AcDbEntity
8
0
100
AcDbSpline
62
9
6
CONTINUOUS
70
0
71
3
72
9
73
5
74
3
42
0.0000001000
43
0.0000001000
44
0.0000000001
12
-0.0284798750
22
0.0141719706
32
0.0000000000
13
-0.0270890538
23
0.0166343742
33
0.0000000000
40
0.0000000000
40
0.0000000000
40
0.0000000000
40
0.0000000000
40
0.7476691775
40
1.0000000000
40
1.0000000000
40
1.0000000000
40
1.0000000000
10
-7.9900798573
20
-14.4985051075
30
0.0000000000
10
-7.9971776989
20
-14.4949731256
30
0.0000000000
10
-8.0065129150
20
-14.4899397817
30
0.0000000000
10
-8.0156049231
20
-14.4844960561
30
0.0000000000
10
-8.0178833908
20
-14.4830969343
30
0.0000000000
11
-7.9900798573
21
-14.4985051075
31
0.0000000000
11
-8.0110010501
21
-14.4872171663
31
0.0000000000
11
-8.0178833908
21
-14.4830969343
31
0.0000000000
0
SPLINE
5
2DC
100
AcDbEntity
8
0
100
AcDbSpline
62
9
6
CONTINUOUS
70
0
71
3
72
10
73
6
74
4
42
0.0000001000
43
0.0000001000
44
0.0000000001
12
-0.4023490447
22
0.2470674915
32
0.0000000000
13
-0.0601375668
23
0.4660996326
33
0.0000000000
40
0.0000000000
40
0.0000000000
40
0.0000000000
40
0.0000000000
40
0.2880834921
40
0.6226575017
40
1.0000000000
40
1.0000000000
40
1.0000000000
40
1.0000000000
10
-8.0178833908
20
-14.4830969343
30
0.0000000000
10
-8.0565200968
20
-14.4593715791
30
0.0000000000
10
-8.1302547654
20
-14.3922424592
30
0.0000000000
10
-8.2059352273
20
-14.2523649206
30
0.0000000000
10
-8.2312956034
20
-14.1425299835
30
0.0000000000
10
-8.2388597566
20
-14.0839035835
30
0.0000000000
11
-8.0178833908
21
-14.4830969343
31
0.0000000000
11
-8.1190528620
21
-14.3929805383
31
0.0000000000
11
-8.1963999148
21
-14.2560825674
31
0.0000000000
11
-8.2388597566
21
-14.0839035835
31
0.0000000000
0
SPLINE
5
2DD
100
AcDbEntity
8
0
100
AcDbSpline
62
7
6
CONTINUOUS
70
0
71
3
72
8
73
4
74
2
42
0.0000001000
43
0.0000001000
44
0.0000000001
12
-0.0047221396
22
-0.0016225599
32
0.0000000000
13
-0.0047956093
23
-0.0013877642
33
0.0000000000
40
0.0000000000
40
0.0000000000
40
0.0000000000
40
0.0000000000
40
1.0000000000
40
1.0000000000
40
1.0000000000
40
1.0000000000
10
0.4590199555
20
-13.3853715566
30
0.0000000000
10
0.4574459090
20
-13.3859124100
30
0.0000000000
10
0.4558586259
20
-13.3864136439
30
0.0000000000
10
0.4542600894
20
-13.3868762320
30
0.0000000000
11
0.4590199555
21
-13.3853715566
31
0.0000000000
11
0.4542600894
21
-13.3868762320
31
0.0000000000
0
SPLINE
5
2DE
100
AcDbEntity
8
0
100
AcDbSpline
62
7
6
CONTINUOUS
70
0
71
3
72
15
73
11
74
9
42
0.0000001000
43
0.0000001000
44
0.0000000001
12
-0.2862068081
22
-0.0828231684
32
0.0000000000
13
-0.1775122446
23
0.2384385786
33
0.0000000000
40
0.0000000000
40
0.0000000000
40
0.0000000000
40
0.0000000000
40
0.0858449189
40
0.1997313688
40
0.3252659937
40
0.4640162487
40
0.6165283117
40
0.7798393267
40
0.9487575775
40
1.0000000000
40
1.0000000000
40
1.0000000000
40
1.0000000000
10
0.4542600894
20
-13.3868762320
30
0.0000000000
10
0.4460702894
20
-13.3892462147
30
0.0000000000
10
0.4263282152
20
-13.3924002073
30
0.0000000000
10
0.3939251043
20
-13.3897479685
30
0.0000000000
10
0.3578858275
20
-13.3787468120
30
0.0000000000
10
0.3209366845
20
-13.3599727256
30
0.0000000000
10
0.2840602484
20
-13.3339203314
30
0.0000000000
10
0.2485221696
20
-13.3014847322
30
0.0000000000
10
0.2234211641
20
-13.2728995454
30
0.0000000000
10
0.2101306936
20
-13.2555967000
30
0.0000000000
10
0.2070986411
20
-13.2515239765
30
0.0000000000
11
0.4542600894
21
-13.3868762320
31
0.0000000000
11
0.4290712517
21
-13.3910739079
31
0.0000000000
11
0.3953196096
21
-13.3887087670
31
0.0000000000
11
0.3595417070
21
-13.3781799856
31
0.0000000000
11
0.3226541885
21
-13.3597817260
31
0.0000000000
11
0.2855114668
21
-13.3338321042
31
0.0000000000
11
0.2495639332
21
-13.3012474192
31
0.0000000000
11
0.2163781189
21
-13.2636028904
31
0.0000000000
11
0.2070986411
21
-13.2515239765
31
0.0000000000
0
SPLINE
5
2DF
100
AcDbEntity
8
0
100
AcDbSpline
62
7
6
CONTINUOUS
70
0
71
3
72
8
73
4
74
2
42
0.0000001000
43
0.0000001000
44
0.0000000001
12
-0.0220618867
22
0.0296340397
32
0.0000000000
13
-0.0198724598
23
0.0311194106
33
0.0000000000
40
0.0000000000
40
0.0000000000
40
0.0000000000
40
0.0000000000
40
1.0000000000
40
1.0000000000
40
1.0000000000
40
1.0000000000
10
0.2070986411
20
-13.2515239765
30
0.0000000000
10
0.1997446789
20
-13.2416459633
30
0.0000000000
10
0.1927513559
20
-13.2315003849
30
0.0000000000
10
0.1861272026
20
-13.2211272481
30
0.0000000000
11
0.2070986411
21
-13.2515239765
31
0.0000000000
11
0.1861272026
21
-13.2211272481
31
0.0000000000
0
SPLINE
5
2E0
100
AcDbEntity
8
0
100
AcDbSpline
62
7
6
CONTINUOUS
70
0
71
3
72
8
73
4
74
2
42
0.0000001000
43
0.0000001000
44
0.0000000001
12
-0.0086392617
22
-0.0029653639
32
0.0000000000
13
-0.0088553777
23
-0.0022348123
33
0.0000000000
40
0.0000000000
40
0.0000000000
40
0.0000000000
40
0.0000000000
40
1.0000000000
40
1.0000000000
40
1.0000000000
40
1.0000000000
10
1.0727432274
20
-11.6600390931
30
0.0000000000
10
1.0698634735
20
-11.6610275477
30
0.0000000000
10
1.0669415533
20
-11.6618943284
30
0.0000000000
10
1.0639897607
20
-11.6626392658
30
0.0000000000
11
1.0727432274
21
-11.6600390931
31
0.0000000000
11
1.0639897607
21
-11.6626392658
31
0.0000000000
0
SPLINE
5
2E1
100
AcDbEntity
8
0
100
AcDbSpline
62
7
6
CONTINUOUS
70
0
71
3
72
9
73
5
74
3
42
0.0000001000
43
0.0000001000
44
0.0000000001
12
-0.0084658071
22
-0.0021364972
32
0.0000000000
13
-0.0085987204
23
-0.0014703863
33
0.0000000000
40
0.0000000000
40
0.0000000000
40
0.0000000000
40
0.0000000000
40
0.6343123385
40
1.0000000000
40
1.0000000000
40
1.0000000000
40
1.0000000000
10
1.0639897607
20
-11.6626392658
30
0.0000000000
10
1.0621997721
20
-11.6630910014
30
0.0000000000
10
1.0593605185
20
-11.6637325309
30
0.0000000000
10
1.0565007768
20
-11.6642626080
30
0.0000000000
10
1.0554526282
20
-11.6644418420
30
0.0000000000
11
1.0639897607
21
-11.6626392658
31
0.0000000000
11
1.0585895815
21
-11.6638600184
31
0.0000000000
11
1.0554526282
21
-11.6644418420
31
0.0000000000
0
SPLINE
5
2E2
100
AcDbEntity
8
0
100
AcDbSpline
62
7
6
CONTINUOUS
70
0
71
3
72
8
73
4
74
2
42
0.0000001000
43
0.0000001000
44
0.0000000001
12
-0.0157090246
22
-0.0026862524
32
0.0000000000
13
-0.0159289441
23
-0.0006092369
33
0.0000000000
40
0.0000000000
40
0.0000000000
40
0.0000000000
40
0.0000000000
40
1.0000000000
40
1.0000000000
40
1.0000000000
40
1.0000000000
10
1.0554526282
20
-11.6644418420
30
0.0000000000
10
1.0502162866
20
-11.6653372595
30
0.0000000000
10
1.0449206349
20
-11.6658680752
30
0.0000000000
10
1.0396109868
20
-11.6660711542
30
0.0000000000
11
1.0554526282
21
-11.6644418420
31
0.0000000000
11
1.0396109868
21
-11.6660711542
31
0.0000000000
0
SPLINE
5
2E3
100
AcDbEntity
8
0
100
AcDbSpline
62
7
6
CONTINUOUS
70
0
71
3
72
8
73
4
74
2
42
0.0000001000
43
0.0000001000
44
0.0000000001
12
-0.0086960179
22
-0.0003325980
32
0.0000000000
13
-0.0086989278
23
0.0002354694
33
0.0000000000
40
0.0000000000
40
0.0000000000
40
0.0000000000
40
0.0000000000
40
1.0000000000
40
1.0000000000
40
1.0000000000
40
1.0000000000
10
1.0396109868
20
-11.6660711542
30
0.0000000000
10
1.0367123142
20
-11.6661820202
30
0.0000000000
10
1.0338094702
20
-11.6661952092
30
0.0000000000
10
1.0309098276
20
-11.6661167195
30
0.0000000000
11
1.0396109868
21
-11.6660711542
31
0.0000000000
11
1.0309098276
21
-11.6661167195
31
0.0000000000
0
SPLINE
5
2E4
100
AcDbEntity
8
0
100
AcDbSpline
62
7
6
CONTINUOUS
70
0
71
3
72
9
73
5
74
3
42
0.0000001000
43
0.0000001000
44
0.0000000001
12
-0.0136843298
22
0.0003704181
32
0.0000000000
13
-0.0135707699
23
0.0016613332
33
0.0000000000
40
0.0000000000
40
0.0000000000
40
0.0000000000
40
0.0000000000
40
0.3875561664
40
1.0000000000
40
1.0000000000
40
1.0000000000
40
1.0000000000
10
1.0309098276
20
-11.6661167195
30
0.0000000000
10
1.0291420121
20
-11.6660688668
30
0.0000000000
10
1.0245836392
20
-11.6658574677
30
0.0000000000
10
1.0200443122
20
-11.6654282440
30
0.0000000000
10
1.0172738674
20
-11.6650890863
30
0.0000000000
11
1.0309098276
21
-11.6661167195
31
0.0000000000
11
1.0256116218
21
-11.6658722916
31
0.0000000000
11
1.0172738674
21
-11.6650890863
31
0.0000000000
0
SPLINE
5
2E5
100
AcDbEntity
8
0
100
AcDbSpline
62
7
6
CONTINUOUS
70
0
71
3
72
8
73
4
74
2
42
0.0000001000
43
0.0000001000
44
0.0000000001
12
-0.0117338789
22
0.0014364611
32
0.0000000000
13
-0.0115975625
23
0.0023029557
33
0.0000000000
40
0.0000000000
40
0.0000000000
40
0.0000000000
40
0.0000000000
40
1.0000000000
40
1.0000000000
40
1.0000000000
40
1.0000000000
10
1.0172738674
20
-11.6650890863
30
0.0000000000
10
1.0133625745
20
-11.6646102659
30
0.0000000000
10
1.0094704917
20
-11.6639794028
30
0.0000000000
10
1.0056046375
20
-11.6632117509
30
0.0000000000
11
1.0172738674
21
-11.6650890863
31
0.0000000000
11
1.0056046375
21
-11.6632117509
31
0.0000000000
0
SPLINE
5
2E6
100
AcDbEntity
8
0
100
AcDbSpline
62
7
6
CONTINUOUS
70
0
71
3
72
8
73
4
74
2
42
0.0000001000
43
0.0000001000
44
0.0000000001
12
-0.0105275726
22
0.0020904852
32
0.0000000000
13
-0.0103821507
23
0.0027325336
33
0.0000000000
40
0.0000000000
40
0.0000000000
40
0.0000000000
40
0.0000000000
40
1.0000000000
40
1.0000000000
40
1.0000000000
40
1.0000000000
10
1.0056046375
20
-11.6632117509
30
0.0000000000
10
1.0020954466
20
-11.6625149225
30
0.0000000000
10
0.9986078680
20
-11.6617053813
30
0.0000000000
10
0.9951471510
20
-11.6607945367
30
0.0000000000
11
1.0056046375
21
-11.6632117509
31
0.0000000000
11
0.9951471510
21
-11.6607945367
31
0.0000000000
0
SPLINE
5
2E7
100
AcDbEntity
8
0
100
AcDbSpline
62
7
6
CONTINUOUS
70
0
71
3
72
9
73
5
74
3
42
0.0000001000
43
0.0000001000
44
0.0000000001
12
-0.0156415767
22
0.0041167900
32
0.0000000000
13
-0.0152388510
23
0.0053958041
33
0.0000000000
40
0.0000000000
40
0.0000000000
40
0.0000000000
40
0.0000000000
40
0.2905259509
40
1.0000000000
40
1.0000000000
40
1.0000000000
40
1.0000000000
10
0.9951471510
20
-11.6607945367
30
0.0000000000
10
0.9936323897
20
-11.6603958586
30
0.0000000000
10
0.9884362444
20
-11.6589567924
30
0.0000000000
10
0.9833062852
20
-11.6572991240
30
0.0000000000
10
0.9797024287
20
-11.6560230630
30
0.0000000000
11
0.9951471510
21
-11.6607945367
31
0.0000000000
11
0.9906187461
21
-11.6595412353
31
0.0000000000
11
0.9797024287
21
-11.6560230630
31
0.0000000000
0
SPLINE
5
2E8
100
AcDbEntity
8
0
100
AcDbSpline
62
7
6
CONTINUOUS
70
0
71
3
72
8
73
4
74
2
42
0.0000001000
43
0.0000001000
44
0.0000000001
12
-0.0265733990
22
0.0094091645
32
0.0000000000
13
-0.0251718217
23
0.0125859108
33
0.0000000000
40
0.0000000000
40
0.0000000000
40
0.0000000000
40
0.0000000000
40
1.0000000000
40
1.0000000000
40
1.0000000000
40
1.0000000000
10
0.9797024287
20
-11.6560230630
30
0.0000000000
10
0.9708446291
20
-11.6528866748
30
0.0000000000
10
0.9622025967
20
-11.6491462466
30
0.0000000000
10
0.9538119894
20
-11.6449509430
30
0.0000000000
11
0.9797024287
21
-11.6560230630
31
0.0000000000
11
0.9538119894
21
-11.6449509430
31
0.0000000000
0
SPLINE
5
2E9
100
AcDbEntity
8
0
100
AcDbSpline
62
7
6
CONTINUOUS
70
0
71
3
72
20
73
16
74
14
42
0.0000001000
43
0.0000001000
44
0.0000000001
12
-0.5455818537
22
0.2727909269
32
0.0000000000
13
0.5063256865
23
0.3440596095
33
0.0000000000
40
0.0000000000
40
0.0000000000
40
0.0000000000
40
0.0000000000
40
0.0703631894
40
0.1454784983
40
0.2261374168
40
0.3102361737
40
0.3960701664
40
0.4817922583
40
0.6454625218
40
0.7213717542
40
0.7917397146
40
0.8558378610
40
0.9140144401
40
0.9673383368
40
1.0000000000
40
1.0000000000
40
1.0000000000
40
1.0000000000
10
-3.9959354756
20
-9.1700772105
30
0.0000000000
10
-4.0087317687
20
-9.1636790639
30
0.0000000000
10
-4.0340959840
20
-9.1482044422
30
0.0000000000
10
-4.0698293699
20
-9.1190947836
30
0.0000000000
10
-4.1037846841
20
-9.0839303648
30
0.0000000000
10
-4.1350175974
20
-9.0435577192
30
0.0000000000
10
-4.1624526191
20
-8.9992846272
30
0.0000000000
10
-4.1922727630
20
-8.9379211884
30
0.0000000000
10
-4.2121023812
20
-8.8741102453
30
0.0000000000
10
-4.2192825579
20
-8.8113453506
30
0.0000000000
10
-4.2182082765
20
-8.7684137019
30
0.0000000000
10
-4.2106132250
20
-8.7297627579
30
0.0000000000
10
-4.1967058079
20
-8.6965571654
30
0.0000000000
10
-4.1789229374
20
-8.6728170835
30
0.0000000000
10
-4.1653346394
20
-8.6615833943
30
0.0000000000
10
-4.1598221597
20
-8.6578375413
30
0.0000000000
11
-3.9959354756
21
-9.1700772105
31
0.0000000000
11
-4.0327115651
21
-9.1479491331
31
0.0000000000
11
-4.0683571597
21
-9.1191611002
31
0.0000000000
11
-4.1026296796
21
-9.0838615383
31
0.0000000000
11
-4.1340803011
21
-9.0433350964
31
0.0000000000
11
-4.1616762653
21
-8.9988411451
31
0.0000000000
11
-4.1845139221
21
-8.9518034202
31
0.0000000000
11
-4.2132264892
21
-8.8561859420
31
0.0000000000
11
-4.2182972123
21
-8.8101613892
31
0.0000000000
11
-4.2169124757
21
-8.7672607494
31
0.0000000000
11
-4.2090432963
21
-8.7289623054
31
0.0000000000
11
-4.1949812367
21
-8.6963808721
31
0.0000000000
11
-4.1752274660
21
-8.6705398359
31
0.0000000000
11
-4.1598221597
21
-8.6578375413
31
0.0000000000
0
SPLINE
5
2EA
100
AcDbEntity
8
0
100
AcDbSpline
62
7
6
CONTINUOUS
70
0
71
3
72
8
73
4
74
2
42
0.0000001000
43
0.0000001000
44
0.0000000001
12
-0.1585976520
22
0.3075811828
32
0.0000000000
13
-0.1268297794
23
0.3220991841
33
0.0000000000
40
0.0000000000
40
0.0000000000
40
0.0000000000
40
0.0000000000
40
1.0000000000
40
1.0000000000
40
1.0000000000
40
1.0000000000
10
-2.6727017166
20
-10.6233764298
30
0.0000000000
10
-2.7255676006
20
-10.5208493689
30
0.0000000000
10
-2.7735076241
20
-10.4156447351
30
0.0000000000
10
-2.8157842172
20
-10.3082783404
30
0.0000000000
11
-2.6727017166
21
-10.6233764298
31
0.0000000000
11
-2.8157842172
21
-10.3082783404
31
0.0000000000
0
SPLINE
5
2EB
100
AcDbEntity
8
0
100
AcDbSpline
62
7
6
CONTINUOUS
70
0
71
3
72
9
73
5
74
3
42
0.0000001000
43
0.0000001000
44
0.0000000001
12
-0.1234058183
22
0.3134036311
32
0.0000000000
13
-0.0896178059
23
0.3247275157
33
0.0000000000
40
0.0000000000
40
0.0000000000
40
0.0000000000
40
0.0000000000
40
0.5061805422
40
1.0000000000
40
1.0000000000
40
1.0000000000
40
1.0000000000
10
-2.8157842172
20
-10.3082783404
30
0.0000000000
10
-2.8366060919
20
-10.2553987338
30
0.0000000000
10
-2.8750273330
20
-10.1498949006
30
0.0000000000
10
-2.9079272630
20
-10.0425508931
30
0.0000000000
10
-2.9226789351
20
-9.9890986379
30
0.0000000000
11
-2.8157842172
21
-10.3082783404
31
0.0000000000
11
-2.8740875978
21
-10.1481192717
31
0.0000000000
11
-2.9226789351
21
-9.9890986379
31
0.0000000000
0
SPLINE
5
2EC
100
AcDbEntity
8
0
100
AcDbSpline
62
7
6
CONTINUOUS
70
0
71
3
72
8
73
4
74
2
42
0.0000001000
43
0.0000001000
44
0.0000000001
12
-0.0861453082
22
0.3121450212
32
0.0000000000
13
-0.0489332153
23
0.3199527727
33
0.0000000000
40
0.0000000000
40
0.0000000000
40
0.0000000000
40
0.0000000000
40
1.0000000000
40
1.0000000000
40
1.0000000000
40
1.0000000000
10
-2.9226789351
20
-9.9890986379
30
0.0000000000
10
-2.9513940378
20
-9.8850502974
30
0.0000000000
10
-2.9744445078
20
-9.7793180827
30
0.0000000000
10
-2.9907555796
20
-9.6726671585
30
0.0000000000
11
-2.9226789351
21
-9.9890986379
31
0.0000000000
11
-2.9907555796
21
-9.6726671585
31
0.0000000000
0
SPLINE
5
2ED
100
AcDbEntity
8
0
100
AcDbSpline
62
7
6
CONTINUOUS
70
0
71
3
72
8
73
4
74
2
42
0.0000001000
43
0.0000001000
44
0.0000000001
12
-0.0136639664
22
-0.0047045113
32
0.0000000000
13
-0.0141641584
23
-0.0028941759
33
0.0000000000
40
0.0000000000
40
0.0000000000
40
0.0000000000
40
0.0000000000
40
1.0000000000
40
1.0000000000
40
1.0000000000
40
1.0000000000
10
-2.5314075814
20
-8.9391702228
30
0.0000000000
10
-2.5359622369
20
-8.9407383933
30
0.0000000000
10
-2.5406216080
20
-8.9419970569
30
0.0000000000
10
-2.5453429941
20
-8.9429617822
30
0.0000000000
11
-2.5314075814
21
-8.9391702228
31
0.0000000000
11
-2.5453429941
21
-8.9429617822
31
0.0000000000
0
SPLINE
5
2EE
100
AcDbEntity
8
0
100
AcDbSpline
62
7
6
CONTINUOUS
70
0
71
3
72
21
73
17
74
15
42
0.0000001000
43
0.0000001000
44
0.0000000001
12
-0.6738318884
22
-0.1376847091
32
0.0000000000
13
0.4261959110
23
0.5369256876
33
0.0000000000
40
0.0000000000
40
0.0000000000
40
0.0000000000
40
0.0000000000
40
0.0252877631
40
0.0756182871
40
0.1307720985
40
0.1912623860
40
0.3264156701
40
0.4757657524
40
0.5521962456
40
0.6277051241
40
0.7007104090
40
0.7702660633
40
0.8357638972
40
0.8959649934
40
0.9500368003
40
1.0000000000
40
1.0000000000
40
1.0000000000
40
1.0000000000
10
-2.5453429941
20
-8.9429617822
30
0.0000000000
10
-2.5510228945
20
-8.9441223616
30
0.0000000000
10
-2.5682759490
20
-8.9463207739
30
0.0000000000
10
-2.5983511355
20
-8.9439634166
30
0.0000000000
10
-2.6348621354
20
-8.9328209530
30
0.0000000000
10
-2.6860217996
20
-8.9064609646
30
0.0000000000
10
-2.7468764795
20
-8.8548030760
30
0.0000000000
10
-2.7967144979
20
-8.7883356636
30
0.0000000000
10
-2.8292539757
20
-8.7275485463
30
0.0000000000
10
-2.8487125431
20
-8.6798650988
30
0.0000000000
10
-2.8624807470
20
-8.6318678765
30
0.0000000000
10
-2.8701797561
20
-8.5848296373
30
0.0000000000
10
-2.8715219575
20
-8.5400834854
30
0.0000000000
10
-2.8663721388
20
-8.4991258134
30
0.0000000000
10
-2.8548759845
20
-8.4631572063
30
0.0000000000
10
-2.8426443521
20
-8.4424378945
30
0.0000000000
10
-2.8355463150
20
-8.4334957194
30
0.0000000000
11
-2.5453429941
21
-8.9429617822
31
0.0000000000
11
-2.5625776039
21
-8.9451944230
31
0.0000000000
11
-2.5970016677
21
-8.9428710776
31
0.0000000000
11
-2.6332675776
21
-8.9321804023
31
0.0000000000
11
-2.6702753504
21
-8.9134736741
31
0.0000000000
11
-2.7419123943
21
-8.8547190375
31
0.0000000000
11
-2.8038116054
21
-8.7731682291
31
0.0000000000
11
-2.8285270176
21
-8.7269695974
31
0.0000000000
11
-2.8480320289
21
-8.6790225921
31
0.0000000000
11
-2.8617215514
21
-8.6308849976
31
0.0000000000
11
-2.8692505754
21
-8.5838016631
31
0.0000000000
11
-2.8703460854
21
-8.5389152185
31
0.0000000000
11
-2.8648851017
21
-8.4980093194
31
0.0000000000
11
-2.8532513744
21
-8.4628152098
31
0.0000000000
11
-2.8355463150
21
-8.4334957194
31
0.0000000000
0
SPLINE
5
2EF
100
AcDbEntity
8
0
100
AcDbSpline
62
7
6
CONTINUOUS
70
0
71
3
72
8
73
4
74
2
42
0.0000001000
43
0.0000001000
44
0.0000000001
12
-0.2553755547
22
0.1698244267
32
0.0000000000
13
-0.2324025993
23
0.2003559389
33
0.0000000000
40
0.0000000000
40
0.0000000000
40
0.0000000000
40
0.0000000000
40
1.0000000000
40
1.0000000000
40
1.0000000000
40
1.0000000000
10
-1.6576109771
20
-11.8038490314
30
0.0000000000
10
-1.7427361620
20
-11.7472408892
30
0.0000000000
10
-1.8240933972
20
-11.6847703639
30
0.0000000000
10
-1.9015609303
20
-11.6179850509
30
0.0000000000
11
-1.6576109771
21
-11.8038490314
31
0.0000000000
11
-1.9015609303
21
-11.6179850509
31
0.0000000000
0
SPLINE
5
2F0
100
AcDbEntity
8
0
100
AcDbSpline
62
7
6
CONTINUOUS
70
0
71
3
72
9
73
5
74
3
42
0.0000001000
43
0.0000001000
44
0.0000000001
12
-0.2463418100
22
0.2123730318
32
0.0000000000
13
-0.2215100742
23
0.2380727300
33
0.0000000000
40
0.0000000000
40
0.0000000000
40
0.0000000000
40
0.0000000000
40
0.4956065000
40
1.0000000000
40
1.0000000000
40
1.0000000000
40
1.0000000000
10
-1.9015609303
20
-11.6179850509
30
0.0000000000
10
-1.9422571310
20
-11.5829005659
30
0.0000000000
10
-2.0222051383
20
-11.5097068930
30
0.0000000000
10
-2.0981094498
20
-11.4323109711
30
0.0000000000
10
-2.1353521970
20
-11.3922835253
30
0.0000000000
11
-1.9015609303
21
-11.6179850509
31
0.0000000000
11
-2.0205093991
21
-11.5093178650
31
0.0000000000
11
-2.1353521970
21
-11.3922835253
31
0.0000000000
0
SPLINE
5
2F1
100
AcDbEntity
8
0
100
AcDbSpline
62
7
6
CONTINUOUS
70
0
71
3
72
8
73
4
74
2
42
0.0000001000
43
0.0000001000
44
0.0000000001
12
-0.2318706784
22
0.2492080129
32
0.0000000000
13
-0.2048728200
23
0.2717024517
33
0.0000000000
40
0.0000000000
40
0.0000000000
40
0.0000000000
40
0.0000000000
40
1.0000000000
40
1.0000000000
40
1.0000000000
40
1.0000000000
10
-2.1353521970
20
-11.3922835253
30
0.0000000000
10
-2.2126424231
20
-11.3092141876
30
0.0000000000
10
-2.2854406045
20
-11.2218822777
30
0.0000000000
10
-2.3537315445
20
-11.1313147938
30
0.0000000000
11
-2.1353521970
21
-11.3922835253
31
0.0000000000
11
-2.3537315445
21
-11.1313147938
31
0.0000000000
0
SPLINE
5
2F2
100
AcDbEntity
8
0
100
AcDbSpline
62
9
6
CONTINUOUS
70
0
71
3
72
10
73
6
74
4
42
0.0000001000
43
0.0000001000
44
0.0000000001
12
0.0294125999
22
-0.2369498060
32
0.0000000000
13
0.2109390507
23
-0.1063401369
33
0.0000000000
40
0.0000000000
40
0.0000000000
40
0.0000000000
40
0.0000000000
40
0.1202505593
40
0.5251863652
40
1.0000000000
40
1.0000000000
40
1.0000000000
40
1.0000000000
10
-8.3849874195
20
-13.9083544850
30
0.0000000000
10
-8.3838084590
20
-13.9178522673
30
0.0000000000
10
-8.3753480318
20
-13.9588354926
30
0.0000000000
10
-8.3309208575
20
-14.0276201031
30
0.0000000000
10
-8.2722453092
20
-14.0670729831
30
0.0000000000
10
-8.2388597301
20
-14.0839035654
30
0.0000000000
11
-8.3849874195
21
-13.9083544850
31
0.0000000000
11
-8.3791544481
21
-13.9363652015
31
0.0000000000
11
-8.3298747806
21
-14.0183516842
31
0.0000000000
11
-8.2388597301
21
-14.0839035654
31
0.0000000000
0
SPLINE
5
2F3
100
AcDbEntity
8
0
100
AcDbSpline
62
7
6
CONTINUOUS
70
0
71
3
72
8
73
4
74
2
42
0.0000001000
43
0.0000001000
44
0.0000000001
12
0.1071479544
22
0.1349860185
32
0.0000000000
13
0.1322766799
23
0.1110179413
33
0.0000000000
40
0.0000000000
40
0.0000000000
40
0.0000000000
40
0.0000000000
40
1.0000000000
40
1.0000000000
40
1.0000000000
40
1.0000000000
10
-2.8355463153
20
-8.4334957192
30
0.0000000000
10
-2.7998303304
20
-8.3885003797
30
0.0000000000
10
-2.7596784666
20
-8.3467635520
30
0.0000000000
10
-2.7155862400
20
-8.3097575716
30
0.0000000000
11
-2.8355463153
21
-8.4334957192
31
0.0000000000
11
-2.7155862400
21
-8.3097575716
31
0.0000000000
0
SPLINE
5
2F4
100
AcDbEntity
8
0
100
AcDbSpline
62
7
6
CONTINUOUS
70
0
71
3
72
8
73
4
74
2
42
0.0000001000
43
0.0000001000
44
0.0000000001
12
0.0626821951
22
0.0526082773
32
0.0000000000
13
0.0676939778
23
0.0459435813
33
0.0000000000
40
0.0000000000
40
0.0000000000
40
0.0000000000
40
0.0000000000
40
1.0000000000
40
1.0000000000
40
1.0000000000
40
1.0000000000
10
-2.7155862400
20
-8.3097575716
30
0.0000000000
10
-2.6946921749
20
-8.2922214791
30
0.0000000000
10
-2.6729134645
20
-8.2757474866
30
0.0000000000
10
-2.6503488052
20
-8.2604329595
30
0.0000000000
11
-2.7155862400
21
-8.3097575716
31
0.0000000000
11
-2.6503488052
21
-8.2604329595
31
0.0000000000
0
SPLINE
5
2F5
100
AcDbEntity
8
0
100
AcDbSpline
62
7
6
CONTINUOUS
70
0
71
3
72
8
73
4
74
2
42
0.0000001000
43
0.0000001000
44
0.0000000001
12
0.0483382362
22
0.0328197311
32
0.0000000000
13
0.0443238434
23
0.0380517745
33
0.0000000000
40
0.0000000000
40
0.0000000000
40
0.0000000000
40
0.0000000000
40
1.0000000000
40
1.0000000000
40
1.0000000000
40
1.0000000000
10
-0.7582207912
20
-11.4382997186
30
0.0000000000
10
-0.7421080458
20
-11.4273598082
30
0.0000000000
10
-0.7266214736
20
-11.4154950561
30
0.0000000000
10
-0.7118468591
20
-11.4028111313
30
0.0000000000
11
-0.7582207912
21
-11.4382997186
31
0.0000000000
11
-0.7118468591
21
-11.4028111313
31
0.0000000000
0
SPLINE
5
2F6
100
AcDbEntity
8
0
100
AcDbSpline
62
7
6
CONTINUOUS
70
0
71
3
72
8
73
4
74
2
42
0.0000001000
43
0.0000001000
44
0.0000000001
12
0.0025798119
22
0.0986437719
32
0.0000000000
13
-0.0038422507
23
0.0984164973
33
0.0000000000
40
0.0000000000
40
0.0000000000
40
0.0000000000
40
0.0000000000
40
1.0000000000
40
1.0000000000
40
1.0000000000
40
1.0000000000
10
-0.4699872458
20
-10.7816760365
30
0.0000000000
10
-0.4691273086
20
-10.7487947792
30
0.0000000000
10
-0.4694132746
20
-10.7158903415
30
0.0000000000
10
-0.4706940248
20
-10.6830848424
30
0.0000000000
11
-0.4699872458
21
-10.7816760365
31
0.0000000000
11
-0.4706940248
21
-10.6830848424
31
0.0000000000
0
SPLINE
5
2F7
100
AcDbEntity
8
0
100
AcDbSpline
62
7
6
CONTINUOUS
70
0
71
3
72
10
73
6
74
4
42
0.0000001000
43
0.0000001000
44
0.0000000001
12
0.0702007446
22
-1.1924031982
32
0.0000000000
13
0.0866787057
23
-1.1913187372
33
0.0000000000
40
0.0000000000
40
0.0000000000
40
0.0000000000
40
0.0000000000
40
0.3341160276
40
0.6674501000
40
1.0000000000
40
1.0000000000
40
1.0000000000
40
1.0000000000
10
-1.6576109771
20
-11.8038490314
30
0.0000000000
10
-1.6497925791
20
-11.9366493713
30
0.0000000000
10
-1.6335677730
20
-12.2019039786
30
0.0000000000
10
-1.6074323182
20
-12.5992025037
30
0.0000000000
10
-1.5888072972
20
-12.8636743064
30
0.0000000000
10
-1.5791989656
20
-12.9957319486
30
0.0000000000
11
-1.6576109771
21
-11.8038490314
31
0.0000000000
11
-1.6332432236
21
-12.2021952769
31
0.0000000000
11
-1.6071056435
21
-12.5994932761
31
0.0000000000
11
-1.5791989656
21
-12.9957319486
31
0.0000000000
0
SPLINE
5
2F8
100
AcDbEntity
8
0
100
AcDbSpline
62
7
6
CONTINUOUS
70
0
71
3
72
8
73
4
74
2
42
0.0000001000
43
0.0000001000
44
0.0000000001
12
0.0008775722
22
-0.0396846554
32
0.0000000000
13
0.0008946388
23
-0.0396842761
33
0.0000000000
40
0.0000000000
40
0.0000000000
40
0.0000000000
40
0.0000000000
40
1.0000000000
40
1.0000000000
40
1.0000000000
40
1.0000000000
10
-1.1610019627
20
-8.8260238261
30
0.0000000000
10
-1.1607094387
20
-8.8392520446
30
0.0000000000
10
-1.1604140711
20
-8.8524802006
30
0.0000000000
10
-1.1601158582
20
-8.8657082926
30
0.0000000000
11
-1.1610019627
21
-8.8260238261
31
0.0000000000
11
-1.1601158582
21
-8.8657082926
31
0.0000000000
0
SPLINE
5
2F9
100
AcDbEntity
8
0
100
AcDbSpline
62
7
6
CONTINUOUS
70
0
71
3
72
8
73
4
74
2
42
0.0000001000
43
0.0000001000
44
0.0000000001
12
0.0002236323
22
-0.0099198539
32
0.0000000000
13
0.0002246991
23
-0.0099198299
33
0.0000000000
40
0.0000000000
40
0.0000000000
40
0.0000000000
40
0.0000000000
40
1.0000000000
40
1.0000000000
40
1.0000000000
40
1.0000000000
10
-1.1601158582
20
-8.8657082926
30
0.0000000000
10
-1.1600413141
20
-8.8690149106
30
0.0000000000
10
-1.1599665922
20
-8.8723215246
30
0.0000000000
10
-1.1598916924
20
-8.8756281345
30
0.0000000000
11
-1.1601158582
21
-8.8657082926
31
0.0000000000
11
-1.1598916924
21
-8.8756281345
31
0.0000000000
0
SPLINE
5
2FA
100
AcDbEntity
8
0
100
AcDbSpline
62
7
6
CONTINUOUS
70
0
71
3
72
9
73
5
74
3
42
0.0000001000
43
0.0000001000
44
0.0000000001
12
0.0017971544
22
-0.0793392675
32
0.0000000000
13
0.0018654474
23
-0.0793376900
33
0.0000000000
40
0.0000000000
40
0.0000000000
40
0.0000000000
40
0.0000000000
40
0.5000610573
40
1.0000000000
40
1.0000000000
40
1.0000000000
40
1.0000000000
10
-1.1598916924
20
-8.8756281345
30
0.0000000000
10
-1.1595921301
20
-8.8888529605
30
0.0000000000
10
-1.1589873905
20
-8.9152992544
30
0.0000000000
10
-1.1583712688
20
-8.9417452849
30
0.0000000000
10
-1.1580603988
20
-8.9549666186
30
0.0000000000
11
-1.1598916924
21
-8.8756281345
31
0.0000000000
11
-1.1589844705
21
-8.9153024180
31
0.0000000000
11
-1.1580603988
21
-8.9549666186
31
0.0000000000
0
SPLINE
5
2FB
100
AcDbEntity
8
0
100
AcDbSpline
62
7
6
CONTINUOUS
70
0
71
3
72
8
73
4
74
2
42
0.0000001000
43
0.0000001000
44
0.0000000001
12
0.0002331238
22
-0.0099147834
32
0.0000000000
13
0.0002341912
23
-0.0099147583
33
0.0000000000
40
0.0000000000
40
0.0000000000
40
0.0000000000
40
0.0000000000
40
1.0000000000
40
1.0000000000
40
1.0000000000
40
1.0000000000
10
-1.1580603988
20
-8.9549666186
30
0.0000000000
10
-1.1579826909
20
-8.9582715464
30
0.0000000000
10
-1.1579048051
20
-8.9615764700
30
0.0000000000
10
-1.1578267414
20
-8.9648813894
30
0.0000000000
11
-1.1580603988
21
-8.9549666186
31
0.0000000000
11
-1.1578267414
21
-8.9648813894
31
0.0000000000
0
SPLINE
5
2FC
100
AcDbEntity
8
0
100
AcDbSpline
62
7
6
CONTINUOUS
70
0
71
3
72
9
73
5
74
3
42
0.0000001000
43
0.0000001000
44
0.0000000001
12
0.0018730713
22
-0.0792986743
32
0.0000000000
13
0.0019413963
23
-0.0792970321
33
0.0000000000
40
0.0000000000
40
0.0000000000
40
0.0000000000
40
0.0000000000
40
0.5000611494
40
1.0000000000
40
1.0000000000
40
1.0000000000
40
1.0000000000
10
-1.1578267414
20
-8.9648813894
30
0.0000000000
10
-1.1575145246
20
-8.9780994515
30
0.0000000000
10
-1.1568844767
20
-9.0045322085
30
0.0000000000
10
-1.1562430413
20
-9.0309646923
30
0.0000000000
10
-1.1559195148
20
-9.0441792480
30
0.0000000000
11
-1.1578267414
21
-8.9648813894
31
0.0000000000
11
-1.1568815521
21
-9.0045353729
31
0.0000000000
11
-1.1559195148
21
-9.0441792480
31
0.0000000000
0
SPLINE
5
2FD
100
AcDbEntity
8
0
100
AcDbSpline
62
7
6
CONTINUOUS
70
0
71
3
72
8
73
4
74
2
42
0.0000001000
43
0.0000001000
44
0.0000000001
12
0.0002426151
22
-0.0099097017
32
0.0000000000
13
0.0002436829
23
-0.0099096754
33
0.0000000000
40
0.0000000000
40
0.0000000000
40
0.0000000000
40
0.0000000000
40
1.0000000000
40
1.0000000000
40
1.0000000000
40
1.0000000000
10
-1.1559195148
20
-9.0441792480
30
0.0000000000
10
-1.1558386431
20
-9.0474824819
30
0.0000000000
10
-1.1557575935
20
-9.0507857114
30
0.0000000000
10
-1.1556763658
20
-9.0540889366
30
0.0000000000
11
-1.1559195148
21
-9.0441792480
31
0.0000000000
11
-1.1556763658
21
-9.0540889366
31
0.0000000000
0
SPLINE
5
2FE
100
AcDbEntity
8
0
100
AcDbSpline
62
7
6
CONTINUOUS
70
0
71
3
72
8
73
4
74
2
42
0.0000001000
43
0.0000001000
44
0.0000000001
12
0.0009746124
22
-0.0396338464
32
0.0000000000
13
0.0009917002
23
-0.0396334208
33
0.0000000000
40
0.0000000000
40
0.0000000000
40
0.0000000000
40
0.0000000000
40
1.0000000000
40
1.0000000000
40
1.0000000000
40
1.0000000000
10
-1.1556763658
20
-9.0540889366
30
0.0000000000
10
-1.1553514950
20
-9.0673002187
30
0.0000000000
10
-1.1550237772
20
-9.0805114307
30
0.0000000000
10
-1.1546932105
20
-9.0937225709
30
0.0000000000
11
-1.1556763658
21
-9.0540889366
31
0.0000000000
11
-1.1546932105
21
-9.0937225709
31
0.0000000000
0
SPLINE
5
2FF
100
AcDbEntity
8
0
100
AcDbSpline
62
7
6
CONTINUOUS
70
0
71
3
72
15
73
11
74
9
42
0.0000001000
43
0.0000001000
44
0.0000000001
12
-0.2791168018
22
-0.0958528025
32
0.0000000000
13
-0.1752992690
23
0.2363971357
33
0.0000000000
40
0.0000000000
40
0.0000000000
40
0.0000000000
40
0.0000000000
40
0.1000549172
40
0.2164801429
40
0.3439821942
40
0.4835508508
40
0.6354726804
40
0.7993992058
40
0.9716082449
40
1.0000000000
40
1.0000000000
40
1.0000000000
40
1.0000000000
10
-0.3406211987
20
-10.0346137442
30
0.0000000000
10
-0.3499302016
20
-10.0378105923
30
0.0000000000
10
-0.3710008989
20
-10.0419855440
30
0.0000000000
10
-0.4050032585
20
-10.0398615247
30
0.0000000000
10
-0.4413547958
20
-10.0293147248
30
0.0000000000
10
-0.4782700744
20
-10.0108581327
30
0.0000000000
10
-0.5148721511
20
-9.9850219165
30
0.0000000000
10
-0.5501336422
20
-9.9524849122
30
0.0000000000
10
-0.5734503935
20
-9.9252919224
30
0.0000000000
10
-0.5853099082
20
-9.9095865796
30
0.0000000000
10
-0.5869689262
20
-9.9073493364
30
0.0000000000
11
-0.3406211987
21
-10.0346137442
31
0.0000000000
11
-0.3694776324
21
-10.0404924324
31
0.0000000000
11
-0.4036827517
21
-10.0387448022
31
0.0000000000
11
-0.4398040813
21
-10.0286392769
31
0.0000000000
11
-0.4766648341
21
-10.0105548591
31
0.0000000000
11
-0.5133138367
21
-9.9849769325
31
0.0000000000
11
-0.5488729636
21
-9.9524029961
31
0.0000000000
11
-0.5819334018
21
-9.9140174052
31
0.0000000000
11
-0.5869689262
21
-9.9073493364
31
0.0000000000
0
SPLINE
5
300
100
AcDbEntity
8
0
100
AcDbSpline
62
9
6
CONTINUOUS
70
0
71
3
72
13
73
9
74
7
42
0.0000001000
43
0.0000001000
44
0.0000000001
12
-0.5897804996
22
-0.2984622435
32
0.0000000000
13
-0.0779392504
23
-0.6563887733
33
0.0000000000
40
0.0000000000
40
0.0000000000
40
0.0000000000
40
0.0000000000
40
0.1494523591
40
0.3128318065
40
0.4852170799
40
0.6611085605
40
0.8348078462
40
1.0000000000
40
1.0000000000
40
1.0000000000
40
1.0000000000
10
7.4890093872
20
15.6612485905
30
0.0000000000
10
7.4596280249
20
15.6463799617
30
0.0000000000
10
7.4015926792
20
15.6081905926
30
0.0000000000
10
7.3239419447
20
15.5340457008
30
0.0000000000
10
7.2553298294
20
15.4440433884
30
0.0000000000
10
7.1995138232
20
15.3430221162
30
0.0000000000
10
7.1594237617
20
15.2365066573
30
0.0000000000
10
7.1440033907
20
15.1630457206
30
0.0000000000
10
7.1397117399
20
15.1269022955
30
0.0000000000
11
7.4890093872
21
15.6612485905
31
0.0000000000
11
7.4059958607
21
15.6076965635
31
0.0000000000
11
7.3274449633
21
15.5335857423
31
0.0000000000
11
7.2581179380
21
15.4431556658
31
0.0000000000
11
7.2018506513
21
15.3414140085
31
0.0000000000
11
7.1616436060
21
15.2338690297
31
0.0000000000
11
7.1397117399
21
15.1269022955
31
0.0000000000
0
SPLINE
5
301
100
AcDbEntity
8
0
100
AcDbSpline
62
9
6
CONTINUOUS
70
0
71
3
72
13
73
9
74
7
42
0.0000001000
43
0.0000001000
44
0.0000000001
12
-1.1715812398
22
-0.6078998354
32
0.0000000000
13
-0.1535091556
23
-1.3109461280
33
0.0000000000
40
0.0000000000
40
0.0000000000
40
0.0000000000
40
0.0000000000
40
0.1494499501
40
0.3121862978
40
0.4840734200
40
0.6598133699
40
0.8336458817
40
1.0000000000
40
1.0000000000
40
1.0000000000
40
1.0000000000
10
7.1355771505
20
16.2708290281
30
0.0000000000
10
7.0772128979
20
16.2405454947
30
0.0000000000
10
6.9624227772
20
16.1631403877
30
0.0000000000
10
6.8092891814
20
16.0138559095
30
0.0000000000
10
6.6742087198
20
15.8334224269
30
0.0000000000
10
6.5642165438
20
15.6311848754
30
0.0000000000
10
6.4849637800
20
15.4176814698
30
0.0000000000
10
6.4544074276
20
15.2703735613
30
0.0000000000
10
6.4458951342
20
15.1976797989
30
0.0000000000
11
7.1355771505
21
16.2708290281
31
0.0000000000
11
6.9709822437
21
16.1621100232
31
0.0000000000
11
6.8162731891
21
16.0131048671
31
0.0000000000
11
6.6797961989
21
15.8318701628
31
0.0000000000
11
6.5688782951
21
15.6281484352
31
0.0000000000
11
6.4894812914
21
15.4128816274
31
0.0000000000
11
6.4458951342
21
15.1976797989
31
0.0000000000
0
SPLINE
5
302
100
AcDbEntity
8
0
100
AcDbSpline
62
9
6
CONTINUOUS
70
0
71
3
72
12
73
8
74
6
42
0.0000001000
43
0.0000001000
44
0.0000000001
12
-0.0162126976
22
0.7317494026
32
0.0000000000
13
-0.6473188126
23
0.3416114672
33
0.0000000000
40
0.0000000000
40
0.0000000000
40
0.0000000000
40
0.0000000000
40
0.1947688123
40
0.4051365031
40
0.6180979651
40
0.8201121018
40
1.0000000000
40
1.0000000000
40
1.0000000000
40
1.0000000000
10
7.4890093872
20
15.6612485905
30
0.0000000000
10
7.4879568112
20
15.7087559111
30
0.0000000000
10
7.4729771290
20
15.8074293945
30
0.0000000000
10
7.4216977424
20
15.9500428658
30
0.0000000000
10
7.3449624100
20
16.0829300151
30
0.0000000000
10
7.2499550388
20
16.1937166773
30
0.0000000000
10
7.1743920941
20
16.2503451068
30
0.0000000000
10
7.1355771539
20
16.2708290298
30
0.0000000000
11
7.4890093872
21
15.6612485905
31
0.0000000000
11
7.4692477350
21
15.8024291770
31
0.0000000000
11
7.4177579153
21
15.9475389835
31
0.0000000000
11
7.3395749408
21
16.0823859738
31
0.0000000000
11
7.2423448812
21
16.1937811969
31
0.0000000000
11
7.1355771539
21
16.2708290298
31
0.0000000000
0
SPLINE
5
303
100
AcDbEntity
8
0
100
AcDbSpline
62
9
6
CONTINUOUS
70
0
71
3
72
10
73
6
74
4
42
0.0000001000
43
0.0000001000
44
0.0000000001
12
-1.2244129248
22
-10.3200288610
32
0.0000000000
13
-0.1642166672
23
-10.3911123364
33
0.0000000000
40
0.0000000000
40
0.0000000000
40
0.0000000000
40
0.0000000000
40
0.3384421673
40
0.6718599930
40
1.0000000000
40
1.0000000000
40
1.0000000000
40
1.0000000000
10
7.1397117399
20
15.1269022955
30
0.0000000000
10
7.0015807519
20
13.9626579841
30
0.0000000000
10
6.7647237684
20
11.6468165462
30
0.0000000000
10
6.5279345087
20
8.1901795165
30
0.0000000000
10
6.4504316863
20
5.8991956037
30
0.0000000000
10
6.4324696668
20
4.7626157120
30
0.0000000000
11
7.1397117399
21
15.1269022955
31
0.0000000000
11
6.7826863002
21
11.6278398907
31
0.0000000000
11
6.5467884909
21
8.1708644653
31
0.0000000000
11
6.4324696668
21
4.7626157120
31
0.0000000000
0
SPLINE
5
304
100
AcDbEntity
8
0
100
AcDbSpline
62
9
6
CONTINUOUS
70
0
71
3
72
10
73
6
74
4
42
0.0000001000
43
0.0000001000
44
0.0000000001
12
-1.2310774336
22
-10.3777460370
32
0.0000000000
13
-0.1651090145
23
-10.4492058775
33
0.0000000000
40
0.0000000000
40
0.0000000000
40
0.0000000000
40
0.0000000000
40
0.3384439934
40
0.6718567923
40
1.0000000000
40
1.0000000000
40
1.0000000000
40
1.0000000000
10
6.4458951342
20
15.1976797989
30
0.0000000000
10
6.3070115466
20
14.0269178619
30
0.0000000000
10
6.0688669692
20
11.6981369613
30
0.0000000000
10
5.8307882348
20
8.2221729349
30
0.0000000000
10
5.7528626111
20
5.9183870733
30
0.0000000000
10
5.7348028105
20
4.7754417619
30
0.0000000000
11
6.4458951342
21
15.1976797989
31
0.0000000000
11
6.0869249239
21
11.6790309297
31
0.0000000000
11
5.8497460502
21
8.2027788220
31
0.0000000000
11
5.7348028105
21
4.7754417619
31
0.0000000000
0
SPLINE
5
305
100
AcDbEntity
8
0
100
AcDbSpline
62
7
6
CONTINUOUS
70
0
71
3
72
8
73
4
74
2
42
0.0000001000
43
0.0000001000
44
0.0000000001
12
0.0011579927
22
-0.0699272436
32
0.0000000000
13
0.0012105469
23
-0.0699263629
33
0.0000000000
40
0.0000000000
40
0.0000000000
40
0.0000000000
40
0.0000000000
40
1.0000000000
40
1.0000000000
40
1.0000000000
40
1.0000000000
10
-2.4296014557
20
-7.6820582680
30
0.0000000000
10
-2.4292154581
20
-7.7053673492
30
0.0000000000
10
-2.4288207064
20
-7.7286762877
30
0.0000000000
10
-2.4284171908
20
-7.7519850753
30
0.0000000000
11
-2.4296014557
21
-7.6820582680
31
0.0000000000
11
-2.4284171908
21
-7.7519850753
31
0.0000000000
0
SPLINE
5
306
100
AcDbEntity
8
0
100
AcDbSpline
62
7
6
CONTINUOUS
70
0
71
3
72
8
73
4
74
2
42
0.0000001000
43
0.0000001000
44
0.0000000001
12
0.0003025721
22
-0.0174778595
32
0.0000000000
13
0.0003058577
23
-0.0174778026
33
0.0000000000
40
0.0000000000
40
0.0000000000
40
0.0000000000
40
0.0000000000
40
1.0000000000
40
1.0000000000
40
1.0000000000
40
1.0000000000
10
-2.4284171908
20
-7.7519850753
30
0.0000000000
10
-2.4283163334
20
-7.7578110285
30
0.0000000000
10
-2.4282149285
20
-7.7636369722
30
0.0000000000
10
-2.4281129760
20
-7.7694629064
30
0.0000000000
11
-2.4284171908
21
-7.7519850753
31
0.0000000000
11
-2.4281129760
21
-7.7694629064
31
0.0000000000
0
SPLINE
5
307
100
AcDbEntity
8
0
100
AcDbSpline
62
7
6
CONTINUOUS
70
0
71
3
72
9
73
5
74
3
42
0.0000001000
43
0.0000001000
44
0.0000000001
12
0.0024458190
22
-0.1397628548
32
0.0000000000
13
0.0026561795
23
-0.1397590093
33
0.0000000000
40
0.0000000000
40
0.0000000000
40
0.0000000000
40
0.0000000000
40
0.5001067133
40
1.0000000000
40
1.0000000000
40
1.0000000000
40
1.0000000000
10
-2.4281129760
20
-7.7694629064
30
0.0000000000
10
-2.4277052525
20
-7.7927616871
30
0.0000000000
10
-2.4268724654
20
-7.8393490000
30
0.0000000000
10
-2.4260046182
20
-7.8859356700
30
0.0000000000
10
-2.4255620162
20
-7.9092238669
30
0.0000000000
11
-2.4281129760
21
-7.7694629064
31
0.0000000000
11
-2.4268635189
21
-7.8393587821
31
0.0000000000
11
-2.4255620162
21
-7.9092238669
31
0.0000000000
0
SPLINE
5
308
100
AcDbEntity
8
0
100
AcDbSpline
62
7
6
CONTINUOUS
70
0
71
3
72
8
73
4
74
2
42
0.0000001000
43
0.0000001000
44
0.0000000001
12
0.0003318805
22
-0.0174624057
32
0.0000000000
13
0.0003351687
23
-0.0174623429
33
0.0000000000
40
0.0000000000
40
0.0000000000
40
0.0000000000
40
0.0000000000
40
1.0000000000
40
1.0000000000
40
1.0000000000
40
1.0000000000
10
-2.4255620162
20
-7.9092238669
30
0.0000000000
10
-2.4254513893
20
-7.9150446687
30
0.0000000000
10
-2.4253402146
20
-7.9208654602
30
0.0000000000
10
-2.4252284917
20
-7.9266862412
30
0.0000000000
11
-2.4255620162
21
-7.9092238669
31
0.0000000000
11
-2.4252284917
21
-7.9266862412
31
0.0000000000
0
SPLINE
5
309
100
AcDbEntity
8
0
100
AcDbSpline
62
7
6
CONTINUOUS
70
0
71
3
72
9
73
5
74
3
42
0.0000001000
43
0.0000001000
44
0.0000000001
12
0.0026802056
22
-0.1396391471
32
0.0000000000
13
0.0028907394
23
-0.1396349534
33
0.0000000000
40
0.0000000000
40
0.0000000000
40
0.0000000000
40
0.0000000000
40
0.5001069993
40
1.0000000000
40
1.0000000000
40
1.0000000000
40
1.0000000000
10
-2.4252284917
20
-7.9266862412
30
0.0000000000
10
-2.4247816951
20
-7.9499644128
30
0.0000000000
10
-2.4238707648
20
-7.9965104589
30
0.0000000000
10
-2.4229247454
20
-8.0430558080
30
0.0000000000
10
-2.4224430586
20
-8.0663233200
30
0.0000000000
11
-2.4252284917
21
-7.9266862412
31
0.0000000000
11
-2.4238617938
21
-7.9965202453
31
0.0000000000
11
-2.4224430586
21
-8.0663233200
31
0.0000000000
0
SPLINE
5
30A
100
AcDbEntity
8
0
100
AcDbSpline
62
7
6
CONTINUOUS
70
0
71
3
72
8
73
4
74
2
42
0.0000001000
43
0.0000001000
44
0.0000000001
12
0.0003611876
22
-0.0174468906
32
0.0000000000
13
0.0003644785
23
-0.0174468219
33
0.0000000000
40
0.0000000000
40
0.0000000000
40
0.0000000000
40
0.0000000000
40
1.0000000000
40
1.0000000000
40
1.0000000000
40
1.0000000000
10
-2.4224430586
20
-8.0663233200
30
0.0000000000
10
-2.4223226628
20
-8.0721389502
30
0.0000000000
10
-2.4222017185
20
-8.0779545690
30
0.0000000000
10
-2.4220802257
20
-8.0837701763
30
0.0000000000
11
-2.4224430586
21
-8.0663233200
31
0.0000000000
11
-2.4220802257
21
-8.0837701763
31
0.0000000000
0
SPLINE
5
30B
100
AcDbEntity
8
0
100
AcDbSpline
62
7
6
CONTINUOUS
70
0
71
3
72
8
73
4
74
2
42
0.0000001000
43
0.0000001000
44
0.0000000001
12
0.0014576029
22
-0.0697723904
32
0.0000000000
13
0.0015102723
23
-0.0697712608
33
0.0000000000
40
0.0000000000
40
0.0000000000
40
0.0000000000
40
0.0000000000
40
1.0000000000
40
1.0000000000
40
1.0000000000
40
1.0000000000
10
-2.4220802257
20
-8.0837701763
30
0.0000000000
10
-2.4215943580
20
-8.1070276398
30
0.0000000000
10
-2.4210997171
20
-8.1302849191
30
0.0000000000
10
-2.4205962930
20
-8.1535420060
30
0.0000000000
11
-2.4220802257
21
-8.0837701763
31
0.0000000000
11
-2.4205962930
21
-8.1535420060
31
0.0000000000
0
SPLINE
5
30C
100
AcDbEntity
8
0
100
AcDbSpline
62
9
6
CONTINUOUS
70
0
71
3
72
12
73
8
74
6
42
0.0000001000
43
0.0000001000
44
0.0000000001
12
-0.6810654736
22
-0.2011035555
32
0.0000000000
13
-0.6338189689
23
0.3202597916
33
0.0000000000
40
0.0000000000
40
0.0000000000
40
0.0000000000
40
0.0000000000
40
0.1796434702
40
0.3854501155
40
0.6019884943
40
0.8122092966
40
1.0000000000
40
1.0000000000
40
1.0000000000
40
1.0000000000
10
7.1397117399
20
15.1269022955
30
0.0000000000
10
7.0989287515
20
15.1148599820
30
0.0000000000
10
7.0083951607
20
15.0993017732
30
0.0000000000
10
6.8656023218
20
15.0960493551
30
0.0000000000
10
6.7162353665
20
15.1113808377
30
0.0000000000
10
6.5741104597
20
15.1439027572
30
0.0000000000
10
6.4855702535
20
15.1776325334
30
0.0000000000
10
6.4458951501
20
15.1976798039
30
0.0000000000
11
7.1397117399
21
15.1269022955
31
0.0000000000
11
7.0143456973
21
15.1032849193
31
0.0000000000
11
6.8682555421
21
15.0990798660
31
0.0000000000
11
6.7152778074
21
15.1146854060
31
0.0000000000
11
6.5699013647
21
15.1486235031
31
0.0000000000
11
6.4458951501
21
15.1976798039
31
0.0000000000
0
SPLINE
5
30D
100
AcDbEntity
8
0
100
AcDbSpline
62
9
6
CONTINUOUS
70
0
71
3
72
10
73
6
74
4
42
0.0000001000
43
0.0000001000
44
0.0000000001
12
-0.2597498518
22
-16.4365931903
32
0.0000000000
13
0.2637034980
23
-16.4365302347
33
0.0000000000
40
0.0000000000
40
0.0000000000
40
0.0000000000
40
0.0000000000
40
0.3350160337
40
0.6683413772
40
1.0000000000
40
1.0000000000
40
1.0000000000
40
1.0000000000
10
6.4324696668
20
4.7626157120
30
0.0000000000
10
6.4034628785
20
2.9271082925
30
0.0000000000
10
6.3646919822
20
-0.7349762980
30
0.0000000000
10
6.3645455607
20
-6.2146173537
30
0.0000000000
10
6.4033164872
20
-9.8583068170
30
0.0000000000
10
6.4324696668
20
-11.6754124772
30
0.0000000000
11
6.4324696668
21
4.7626157120
31
0.0000000000
11
6.3743111405
21
-0.7442870032
31
0.0000000000
11
6.3743111612
21
-6.2237041593
31
0.0000000000
11
6.4324696668
21
-11.6754124772
31
0.0000000000
0
SPLINE
5
30E
100
AcDbEntity
8
0
100
AcDbSpline
62
9
6
CONTINUOUS
70
0
71
3
72
8
73
4
74
2
42
0.0000001000
43
0.0000001000
44
0.0000000001
12
-0.0238286353
22
-1.5078798961
32
0.0000000000
13
-0.0195174236
23
-1.5079474969
33
0.0000000000
40
0.0000000000
40
0.0000000000
40
0.0000000000
40
0.0000000000
40
1.0000000000
40
1.0000000000
40
1.0000000000
40
1.0000000000
10
5.7348028105
20
4.7754417619
30
0.0000000000
10
5.7268599321
20
4.2728151299
30
0.0000000000
10
5.7196341040
20
3.7701760012
30
0.0000000000
10
5.7131282961
20
3.2675268356
30
0.0000000000
11
5.7348028105
21
4.7754417619
31
0.0000000000
11
5.7131282961
21
3.2675268356
31
0.0000000000
0
SPLINE
5
30F
100
AcDbEntity
8
0
100
AcDbSpline
62
9
6
CONTINUOUS
70
0
71
3
72
8
73
4
74
2
42
0.0000001000
43
0.0000001000
44
0.0000000001
12
-0.0040015634
22
-0.3091672124
32
0.0000000000
13
-0.0038198889
23
-0.3091696803
33
0.0000000000
40
0.0000000000
40
0.0000000000
40
0.0000000000
40
0.0000000000
40
1.0000000000
40
1.0000000000
40
1.0000000000
40
1.0000000000
10
5.7131282961
20
3.2675268356
30
0.0000000000
10
5.7117944417
20
3.1644710981
30
0.0000000000
10
5.7104908535
20
3.0614149388
30
0.0000000000
10
5.7092175572
20
2.9583583787
30
0.0000000000
11
5.7131282961
21
3.2675268356
31
0.0000000000
11
5.7092175572
21
2.9583583787
31
0.0000000000
0
SPLINE
5
310
100
AcDbEntity
8
0
100
AcDbSpline
62
9
6
CONTINUOUS
70
0
71
3
72
8
73
4
74
2
42
0.0000001000
43
0.0000001000
44
0.0000000001
12
-0.0002890208
22
-0.0233924260
32
0.0000000000
13
-0.0002879803
23
-0.0233924397
33
0.0000000000
40
0.0000000000
40
0.0000000000
40
0.0000000000
40
0.0000000000
40
1.0000000000
40
1.0000000000
40
1.0000000000
40
1.0000000000
10
5.7092175572
20
2.9583583787
30
0.0000000000
10
5.7091212170
20
2.9505609033
30
0.0000000000
10
5.7090250501
20
2.9427634257
30
0.0000000000
10
5.7089290567
20
2.9349659458
30
0.0000000000
11
5.7092175572
21
2.9583583787
31
0.0000000000
11
5.7089290567
21
2.9349659458
31
0.0000000000
0
SPLINE
5
311
100
AcDbEntity
8
0
100
AcDbSpline
62
9
6
CONTINUOUS
70
0
71
3
72
8
73
4
74
2
42
0.0000001000
43
0.0000001000
44
0.0000000001
12
-0.0042365639
22
-0.3441331623
32
0.0000000000
13
-0.0040112603
23
-0.3441360415
33
0.0000000000
40
0.0000000000
40
0.0000000000
40
0.0000000000
40
0.0000000000
40
1.0000000000
40
1.0000000000
40
1.0000000000
40
1.0000000000
10
5.7089290567
20
2.9349659458
30
0.0000000000
10
5.7075168687
20
2.8202548917
30
0.0000000000
10
5.7061422137
20
2.7055433431
30
0.0000000000
10
5.7048051269
20
2.5908313293
30
0.0000000000
11
5.7089290567
21
2.9349659458
31
0.0000000000
11
5.7048051269
21
2.5908313293
31
0.0000000000
0
SPLINE
5
312
100
AcDbEntity
8
0
100
AcDbSpline
62
9
6
CONTINUOUS
70
0
71
3
72
8
73
4
74
2
42
0.0000001000
43
0.0000001000
44
0.0000000001
12
-0.0036040211
22
-0.3091979786
32
0.0000000000
13
-0.0034219805
23
-0.3092001684
33
0.0000000000
40
0.0000000000
40
0.0000000000
40
0.0000000000
40
0.0000000000
40
1.0000000000
40
1.0000000000
40
1.0000000000
40
1.0000000000
10
5.7048051269
20
2.5908313293
30
0.0000000000
10
5.7036037866
20
2.4877653364
30
0.0000000000
10
5.7024327735
20
2.3846989680
30
0.0000000000
10
5.7012921133
20
2.2816322452
30
0.0000000000
11
5.7048051269
21
2.5908313293
31
0.0000000000
11
5.7012921133
21
2.2816322452
31
0.0000000000
0
SPLINE
5
313
100
AcDbEntity
8
0
100
AcDbSpline
62
9
6
CONTINUOUS
70
0
71
3
72
8
73
4
74
2
42
0.0000001000
43
0.0000001000
44
0.0000000001
12
-0.0041923211
22
-0.3788058987
32
0.0000000000
13
-0.0039188383
23
-0.3788089730
33
0.0000000000
40
0.0000000000
40
0.0000000000
40
0.0000000000
40
0.0000000000
40
1.0000000000
40
1.0000000000
40
1.0000000000
40
1.0000000000
10
5.7012921133
20
2.2816322452
30
0.0000000000
10
5.6998946730
20
2.1553636123
30
0.0000000000
10
5.6985427896
20
2.0290944475
30
0.0000000000
10
5.6972365101
20
1.9028247898
30
0.0000000000
11
5.7012921133
21
2.2816322452
31
0.0000000000
11
5.6972365101
21
1.9028247898
31
0.0000000000
0
SPLINE
5
314
100
AcDbEntity
8
0
100
AcDbSpline
62
9
6
CONTINUOUS
70
0
71
3
72
8
73
4
74
2
42
0.0000001000
43
0.0000001000
44
0.0000000001
12
-0.0126571870
22
-1.2234891233
32
0.0000000000
13
-0.0097980344
23
-1.2235160333
33
0.0000000000
40
0.0000000000
40
0.0000000000
40
0.0000000000
40
0.0000000000
40
1.0000000000
40
1.0000000000
40
1.0000000000
40
1.0000000000
10
5.6972365101
20
1.9028247898
30
0.0000000000
10
5.6930174478
20
1.4949950820
30
0.0000000000
10
5.6892741178
20
1.0871602325
30
0.0000000000
10
5.6860081063
20
0.6793215547
30
0.0000000000
11
5.6972365101
21
1.9028247898
31
0.0000000000
11
5.6860081063
21
0.6793215547
31
0.0000000000
0
SPLINE
5
315
100
AcDbEntity
8
0
100
AcDbSpline
62
9
6
CONTINUOUS
70
0
71
3
72
9
73
5
74
3
42
0.0000001000
43
0.0000001000
44
0.0000000001
12
-0.0464231093
22
-5.7970217207
32
0.0000000000
13
0.0183814641
23
-5.7971701671
33
0.0000000000
40
0.0000000000
40
0.0000000000
40
0.0000000000
40
0.0000000000
40
0.2443122457
40
1.0000000000
40
1.0000000000
40
1.0000000000
40
1.0000000000
10
5.6860081063
20
0.6793215547
30
0.0000000000
10
5.6822275283
20
0.2072270898
30
0.0000000000
10
5.6693710041
20
-1.7251344795
30
0.0000000000
10
5.6672708592
20
-3.6575478529
30
0.0000000000
10
5.6719010750
20
-5.1178313546
30
0.0000000000
11
5.6860081063
21
0.6793215547
31
0.0000000000
11
5.6765875476
21
-0.7369751911
31
0.0000000000
11
5.6719010750
21
-5.1178313546
31
0.0000000000
0
SPLINE
5
316
100
AcDbEntity
8
0
100
AcDbSpline
62
9
6
CONTINUOUS
70
0
71
3
72
8
73
4
74
2
42
0.0000001000
43
0.0000001000
44
0.0000000001
12
0.0026364204
22
-0.8314777282
32
0.0000000000
13
0.0039817545
23
-0.8314729514
33
0.0000000000
40
0.0000000000
40
0.0000000000
40
0.0000000000
40
0.0000000000
40
1.0000000000
40
1.0000000000
40
1.0000000000
40
1.0000000000
10
5.6719010750
20
-5.1178313546
30
0.0000000000
10
5.6727798818
20
-5.3949905974
30
0.0000000000
10
5.6738826556
20
-5.6721492054
30
0.0000000000
10
5.6752099071
20
-5.9493068558
30
0.0000000000
11
5.6719010750
21
-5.1178313546
31
0.0000000000
11
5.6752099071
21
-5.9493068558
31
0.0000000000
0
SPLINE
5
317
100
AcDbEntity
8
0
100
AcDbSpline
62
9
6
CONTINUOUS
70
0
71
3
72
9
73
5
74
3
42
0.0000001000
43
0.0000001000
44
0.0000000001
12
0.0274398599
22
-5.7300119852
32
0.0000000000
13
0.0919172714
23
-5.7293092359
33
0.0000000000
40
0.0000000000
40
0.0000000000
40
0.0000000000
40
0.0000000000
40
0.0475681913
40
1.0000000000
40
1.0000000000
40
1.0000000000
40
1.0000000000
10
5.6752099071
20
-5.9493068558
30
0.0000000000
10
5.6756449953
20
-6.0401622913
30
0.0000000000
10
5.6852987281
20
-7.9501641233
30
0.0000000000
10
5.7056211662
20
-9.8601154574
30
0.0000000000
10
5.7348028105
20
-11.6790409100
30
0.0000000000
11
5.6752099071
21
-5.9493068558
31
0.0000000000
11
5.6765875570
21
-6.2218728422
31
0.0000000000
11
5.7348028105
21
-11.6790409100
31
0.0000000000
0
SPLINE
5
318
100
AcDbEntity
8
0
100
AcDbSpline
62
9
6
CONTINUOUS
70
0
71
3
72
12
73
8
74
6
42
0.0000001000
43
0.0000001000
44
0.0000000001
12
-0.6525136872
22
-0.2947967346
32
0.0000000000
13
-0.6402658447
23
0.3205290544
33
0.0000000000
40
0.0000000000
40
0.0000000000
40
0.0000000000
40
0.0000000000
40
0.1858728116
40
0.3932996248
40
0.6081648741
40
0.8150726663
40
1.0000000000
40
1.0000000000
40
1.0000000000
40
1.0000000000
10
6.4324696668
20
4.7626157120
30
0.0000000000
10
6.3920414823
20
4.7443508127
30
0.0000000000
10
6.3016411458
20
4.7163359342
30
0.0000000000
10
6.1572294978
20
4.6973857549
30
0.0000000000
10
6.0064904536
20
4.7001436355
30
0.0000000000
10
5.8632198159
20
4.7243541349
30
0.0000000000
10
5.7742703627
20
4.7556835676
30
0.0000000000
10
5.7348028109
20
4.7754417621
30
0.0000000000
11
6.4324696668
21
4.7626157120
31
0.0000000000
11
6.3059274221
21
4.7213911783
31
0.0000000000
11
6.1587800112
21
4.7012388633
31
0.0000000000
11
6.0049589997
21
4.7040667402
31
0.0000000000
11
5.8590277935
21
4.7296070724
31
0.0000000000
11
5.7348028109
21
4.7754417621
31
0.0000000000
0
SPLINE
5
319
100
AcDbEntity
8
0
100
AcDbSpline
62
9
6
CONTINUOUS
70
0
71
3
72
10
73
6
74
4
42
0.0000001000
43
0.0000001000
44
0.0000000001
12
0.1559898415
22
-9.7225650537
32
0.0000000000
13
1.2885805073
23
-9.6380581203
33
0.0000000000
40
0.0000000000
40
0.0000000000
40
0.0000000000
40
0.0000000000
40
0.3395548625
40
0.6729333107
40
1.0000000000
40
1.0000000000
40
1.0000000000
40
1.0000000000
10
6.4324696668
20
-11.6754124772
30
0.0000000000
10
6.4501253699
20
-12.7758605571
30
0.0000000000
10
6.5249299999
20
-14.9563500728
30
0.0000000000
10
6.7596697965
20
-18.1898469836
30
0.0000000000
10
6.9992278197
20
-20.3177888065
30
0.0000000000
10
7.1397117399
20
-21.3685513933
30
0.0000000000
11
6.4324696668
21
-11.6754124772
31
0.0000000000
11
6.5467898674
21
-14.9752018940
31
0.0000000000
11
6.7826885606
21
-18.2083181488
31
0.0000000000
11
7.1397117399
21
-21.3685513933
31
0.0000000000
0
SPLINE
5
31A
100
AcDbEntity
8
0
100
AcDbSpline
62
9
6
CONTINUOUS
70
0
71
3
72
10
73
6
74
4
42
0.0000001000
43
0.0000001000
44
0.0000000001
12
0.1568366126
22
-9.7768225204
32
0.0000000000
13
1.2956053648
23
-9.6918658192
33
0.0000000000
40
0.0000000000
40
0.0000000000
40
0.0000000000
40
0.0000000000
40
0.3395572858
40
0.6729307169
40
1.0000000000
40
1.0000000000
40
1.0000000000
40
1.0000000000
10
5.7348028105
20
-11.6790409100
30
0.0000000000
10
5.7525544820
20
-12.7856380161
30
0.0000000000
10
5.8277660674
20
-14.9782875717
30
0.0000000000
10
6.0637831744
20
-18.2298312426
30
0.0000000000
10
6.3046442283
20
-20.3696438271
30
0.0000000000
10
6.4458951342
20
-21.4262810290
30
0.0000000000
11
5.7348028105
21
-11.6790409100
31
0.0000000000
11
5.8497460503
21
-14.9972691338
31
0.0000000000
11
6.0869249223
21
-18.2483813547
31
0.0000000000
11
6.4458951342
21
-21.4262810290
31
0.0000000000
0
SPLINE
5
31B
100
AcDbEntity
8
0
100
AcDbSpline
62
9
6
CONTINUOUS
70
0
71
3
72
12
73
8
74
6
42
0.0000001000
43
0.0000001000
44
0.0000000001
12
-0.6425686997
22
-0.3194711730
32
0.0000000000
13
-0.6419990204
23
0.3206144445
33
0.0000000000
40
0.0000000000
40
0.0000000000
40
0.0000000000
40
0.0000000000
40
0.1877386892
40
0.3956571461
40
0.6100134743
40
0.8159170750
40
1.0000000000
40
1.0000000000
40
1.0000000000
40
1.0000000000
10
6.4324696668
20
-11.6754124772
30
0.0000000000
10
6.3922579984
20
-11.6954048436
30
0.0000000000
10
6.3021589998
20
-11.7269197369
30
0.0000000000
10
6.1575842780
20
-11.7503707310
30
0.0000000000
10
6.0066791736
20
-11.7512099140
30
0.0000000000
10
5.8632157451
20
-11.7293720194
30
0.0000000000
10
5.7741965125
20
-11.6987141165
30
0.0000000000
10
5.7348028266
20
-11.6790409016
30
0.0000000000
11
6.4324696668
21
-11.6754124772
31
0.0000000000
11
6.3059274221
21
-11.7216414429
31
0.0000000000
11
6.1587800139
21
-11.7463243826
31
0.0000000000
11
6.0049590067
21
-11.7471243746
31
0.0000000000
11
5.8590278053
21
-11.7239656776
31
0.0000000000
11
5.7348028266
21
-11.6790409016
31
0.0000000000
0
SPLINE
5
31C
100
AcDbEntity
8
0
100
AcDbSpline
62
9
6
CONTINUOUS
70
0
71
3
72
13
73
9
74
7
42
0.0000001000
43
0.0000001000
44
0.0000000001
12
0.0640194593
22
-0.4779040034
32
0.0000000000
13
0.4408379163
23
0.1953270569
33
0.0000000000
40
0.0000000000
40
0.0000000000
40
0.0000000000
40
0.0000000000
40
0.1844289451
40
0.3508726010
40
0.5048280752
40
0.6573170132
40
0.8201120304
40
1.0000000000
40
1.0000000000
40
1.0000000000
40
1.0000000000
10
7.1397117399
20
-21.3685513933
30
0.0000000000
10
7.1436474203
20
-21.3979311703
30
0.0000000000
10
7.1569291317
20
-21.4533932941
30
0.0000000000
10
7.1970876097
20
-21.5253419749
30
0.0000000000
10
7.2555972749
20
-21.5765459646
30
0.0000000000
10
7.3285383518
20
-21.6018922334
30
0.0000000000
10
7.4094676993
20
-21.6001560628
30
0.0000000000
10
7.4625755746
20
-21.5831389269
30
0.0000000000
10
7.4890093872
20
-21.5714265977
30
0.0000000000
11
7.1397117399
21
-21.3685513933
31
0.0000000000
11
7.1616519452
21
-21.4547289734
31
0.0000000000
11
7.2019010385
21
-21.5241610638
31
0.0000000000
11
7.2582319116
21
-21.5725076762
31
0.0000000000
11
7.3275257132
21
-21.5970931834
31
0.0000000000
11
7.4060197926
21
-21.5966466913
31
0.0000000000
11
7.4890093872
21
-21.5714265977
31
0.0000000000
0
ENDSEC
0
SECTION
2
OBJECTS
0
DICTIONARY
5
31D
100
AcDbDictionary
3
ACAD_GROUP
350
31E
3
ACAD_MLINESTYLE
350
31F
0
DICTIONARY
5
31E
102
{ACAD_REACTORS
330
31D
102
}
100
AcDbDictionary
0
DICTIONARY
5
31F
102
{ACAD_REACTORS
330
31D
102
}
100
AcDbDictionary
3
STANDARD
350
320
0
MLINESTYLE
5
320
102
{ACAD_REACTORS
330
31F
102
}
100
AcDbMlineStyle
2
STANDARD
70
0
3

62
256
51
90.0
52
90.0
71
2
49
0.5
62
256
6
BYLAYER
49
-0.5
62
256
6
BYLAYER
0
ENDSEC
0
EOF
