0
SECTION
2
HEADER
9
$ACADVER
1
AC1014
9
$HANDSEED
5
       310
9
$EXTMAX
10
297.0000000000
20
210.0000000000
9
$EXTMIN
10
0.0000000000
20
0.0000000000
9
$LIMMIN
10
0.0000000000
20
0.0000000000
9
$LIMMAX
10
297.0000000000
20
210.0000000000
9
$VIEWCTR
10
148.5000000000
20
105.0000000000
9
$VIEWSIZE
40
210.0000000000
9
$CLAYER
8
0
9
$LTSCALE
40
16.3350000000
9
$CELTYPE
6
BYLAYER
9
$DIMSCALE
40
1
9
$DIMASZ
40
3.0000000000
9
$DIMEXO
40
1.8562500000
9
$DIMDLI
40
11.2860000000
9
$DIMEXE
40
5.3460000000
9
$DIMCEN
40
2.6730000000
9
$DIMLFAC
40
1.0000000000
9
$DIMTXT
40
3.0000000000
9
$DIMTOL
70
1
9
$DIMLIM
70
0
9
$DIMTFAC
40
1.0000000000
9
$DIMTP
40
0.0100000000
9
$DIMTM
40
0.0100000000
9
$MEASUREMENT
70
1
0
ENDSEC
0
SECTION
2
CLASSES
0
ENDSEC
0
SECTION
2
TABLES
0
TABLE
2
VPORT
5
8
100
AcDbSymbolTable
70
2
0
VPORT
5
1F4
100
AcDbSymbolTableRecord
100
AcDbViewportTableRecord
2
*ACTIVE
70
0
10
0.0
20
0.0
11
1.0
21
1.0
12
148.5000000000
22
105.0000000000
13
0.0
23
0.0
14
1.0
24
1.0
15
0.0
25
0.0
16
0.0
26
0.0
36
1.0
17
0.0
27
0.0
37
0.0
40
210.0000000000
41
1.4142857143
42
50.0
43
0.0
44
0.0
50
0.0
51
0.0
71
0
72
100
73
1
74
1
75
0
76
0
77
0
78
0
0
ENDTAB
0
TABLE
2
LTYPE
5
5
100
AcDbSymbolTable
70
6
0
LTYPE
5
14
100
AcDbSymbolTableRecord
100
AcDbLinetypeTableRecord
2
BYBLOCK
70
0
3

72
65
73
0
40
0.0
0
LTYPE
5
15
100
AcDbSymbolTableRecord
100
AcDbLinetypeTableRecord
2
BYLAYER
70
0
3

72
65
73
0
40
0.0
0
LTYPE
5
16
100
AcDbSymbolTableRecord
100
AcDbLinetypeTableRecord
2
CONTINUOUS
70
64
3
Solid line
72
65
73
0
40
0
0
LTYPE
5
1F5
100
AcDbSymbolTableRecord
100
AcDbLinetypeTableRecord
2
CENTER
70
64
3
____ _ ____ _ ____ _ ____ _ ____ _ ____ _ ____
72
65
73
4
40
0.6
49
0.375
74
0
49
-0.075
74
0
49
0.075
74
0
49
-0.075
74
0
0
LTYPE
5
1F6
100
AcDbSymbolTableRecord
100
AcDbLinetypeTableRecord
2
HIDDEN
70
64
3
- - - - - - - - - - - - - - - - - - - -
72
65
73
2
40
0.2
49
0.1
74
0
49
-0.1
74
0
0
LTYPE
5
1F7
100
AcDbSymbolTableRecord
100
AcDbLinetypeTableRecord
2
PHANTOM
70
64
3
_____ _ _ _____ _ _ _____ _ _ _____
72
65
73
6
40
0.8
49
0.45
74
0
49
-0.05
74
0
49
0.1
74
0
49
-0.05
74
0
49
0.1
74
0
49
-0.05
74
0
0
LTYPE
5
1F8
100
AcDbSymbolTableRecord
100
AcDbLinetypeTableRecord
2
DOT
70
64
3
. . . . . . . . . . . . . . . . . . . .
72
65
73
2
40
0.2
49
0.1
74
0
49
-0.1
74
0
0
LTYPE
5
1F9
100
AcDbSymbolTableRecord
100
AcDbLinetypeTableRecord
2
DASHED
70
64
3
- - - - - - - - - - - - - - - - - - - -
72
65
73
2
40
0.2
49
0.1
74
0
49
-0.1
74
0
0
ENDTAB
0
TABLE
2
LAYER
5
2
100
AcDbSymbolTable
70
36
0
LAYER
5
10
100
AcDbSymbolTableRecord
100
AcDbLayerTableRecord
2
0
70
0
62
7
6
CONTINUOUS
0
LAYER
5
1FA
100
AcDbSymbolTableRecord
100
AcDbLayerTableRecord
2
DEFAULT_1
70
0
62
7
6
CENTER
0
LAYER
5
1FB
100
AcDbSymbolTableRecord
100
AcDbLayerTableRecord
2
DEFAULT_2
70
0
62
8
6
HIDDEN
0
LAYER
5
1FC
100
AcDbSymbolTableRecord
100
AcDbLayerTableRecord
2
DEFAULT_3
70
0
62
7
6
PHANTOM
0
LAYER
5
1FD
100
AcDbSymbolTableRecord
100
AcDbLayerTableRecord
2
ASSI
70
0
62
7
6
CONTINUOUS
0
LAYER
5
1FE
100
AcDbSymbolTableRecord
100
AcDbLayerTableRecord
2
COLOR9
70
0
62
7
6
CONTINUOUS
0
LAYER
5
1FF
100
AcDbSymbolTableRecord
100
AcDbLayerTableRecord
2
COORDINATE
70
0
62
7
6
CONTINUOUS
0
LAYER
5
200
100
AcDbSymbolTableRecord
100
AcDbLayerTableRecord
2
COORD_ORIGINE
70
0
62
7
6
CONTINUOUS
0
LAYER
5
201
100
AcDbSymbolTableRecord
100
AcDbLayerTableRecord
2
CURVE
70
0
62
7
6
CONTINUOUS
0
LAYER
5
202
100
AcDbSymbolTableRecord
100
AcDbLayerTableRecord
2
DRAFT
70
0
62
7
6
CONTINUOUS
0
LAYER
5
203
100
AcDbSymbolTableRecord
100
AcDbLayerTableRecord
2
NOTE
70
0
62
7
6
CONTINUOUS
0
LAYER
5
204
100
AcDbSymbolTableRecord
100
AcDbLayerTableRecord
2
PIANI
70
0
62
7
6
CONTINUOUS
0
LAYER
5
205
100
AcDbSymbolTableRecord
100
AcDbLayerTableRecord
2
PIANI_ORIGINE
70
0
62
7
6
CONTINUOUS
0
LAYER
5
206
100
AcDbSymbolTableRecord
100
AcDbLayerTableRecord
2
PIANI_RIFERIMENTO
70
0
62
7
6
CONTINUOUS
0
LAYER
5
207
100
AcDbSymbolTableRecord
100
AcDbLayerTableRecord
2
PUNTI
70
0
62
7
6
CONTINUOUS
0
LAYER
5
208
100
AcDbSymbolTableRecord
100
AcDbLayerTableRecord
2
RACCORDO
70
0
62
7
6
CONTINUOUS
0
LAYER
5
209
100
AcDbSymbolTableRecord
100
AcDbLayerTableRecord
2
SUPERFICI
70
0
62
7
6
CONTINUOUS
0
LAYER
5
20A
100
AcDbSymbolTableRecord
100
AcDbLayerTableRecord
2
TRASH
70
0
62
7
6
CONTINUOUS
0
LAYER
5
20B
100
AcDbSymbolTableRecord
100
AcDbLayerTableRecord
2
XSEC_DATUMS
70
0
62
7
6
CONTINUOUS
0
ENDTAB
0
TABLE
2
STYLE
5
3
100
AcDbSymbolTable
70
1
0
STYLE
5
11
100
AcDbSymbolTableRecord
100
AcDbTextStyleTableRecord
2
STANDARD
70
0
40
0.0
41
0.8000000000
50
0.0
71
0
42
0.2
3
txt
4

0
ENDTAB
0
TABLE
2
VIEW
5
6
100
AcDbSymbolTable
70
0
0
ENDTAB
0
TABLE
2
UCS
5
7
100
AcDbSymbolTable
70
0
0
ENDTAB
0
TABLE
2
APPID
5
9
100
AcDbSymbolTable
70
1
0
APPID
5
20C
100
AcDbSymbolTableRecord
100
AcDbRegAppTableRecord
2
ACAD
70
0
0
ENDTAB
0
TABLE
2
DIMSTYLE
5
A
100
AcDbSymbolTable
70
1
0
DIMSTYLE
105
20D
100
AcDbSymbolTableRecord
100
AcDbDimStyleTableRecord
2
STANDARD
70
0
3

4

5

6

7

40
1.0
41
3.0000000000
42
0.0625
43
0.38
44
0.18
45
0.0
46
0.0
47
0.0100000000
48
0.0100000000
140
3.0000000000
141
0.09
142
0.0
143
25.4
144
1.0000000000
145
0.0
146
1.0000000000
147
0.09
71
1
72
0
73
0
74
0
75
0
76
0
77
1
78
8
170
0
171
2
172
0
173
0
174
0
175
0
176
0
177
0
178
0
270
2
271
2
272
2
273
2
274
2
340
11
275
0
280
0
281
0
282
0
283
1
284
8
285
0
286
0
287
3
288
0
0
ENDTAB
0
TABLE
2
BLOCK_RECORD
5
1
100
AcDbSymbolTable
70
0
0
BLOCK_RECORD
5
1B
100
AcDbSymbolTableRecord
100
AcDbBlockTableRecord
2
*MODEL_SPACE
0
BLOCK_RECORD
5
1C
100
AcDbSymbolTableRecord
100
AcDbBlockTableRecord
2
*PAPER_SPACE
0
ENDTAB
0
ENDSEC
0
SECTION
2
BLOCKS
0
BLOCK
5
1E
100
AcDbEntity
8
0
100
AcDbBlockBegin
2
*MODEL_SPACE
70
0
10
0.0
20
0.0
30
0.0
3
*MODEL_SPACE
1

0
ENDBLK
5
1F
100
AcDbEntity
8
0
100
AcDbBlockEnd
0
BLOCK
5
20
100
AcDbEntity
8
0
100
AcDbBlockBegin
2
*PAPER_SPACE
70
0
10
0.0
20
0.0
30
0.0
3
*PAPER_SPACE
1

0
ENDBLK
5
21
100
AcDbEntity
8
0
100
AcDbBlockEnd
0
ENDSEC
0
SECTION
2
ENTITIES
0
LINE
5
20E
100
AcDbEntity
8
0
100
AcDbLine
62
7
6
CONTINUOUS
10
-5.8514714285
20
23.9634176377
11
-3.1162793695
21
25.4946425086
0
LINE
5
20F
100
AcDbEntity
8
0
100
AcDbLine
62
9
6
CONTINUOUS
10
-5.6164833072
20
23.9553686557
11
-2.8849302589
21
25.4845563227
0
LINE
5
210
100
AcDbEntity
8
0
100
AcDbLine
62
7
6
CONTINUOUS
10
-6.0395734733
20
-14.1652855405
11
8.6518026511
21
-21.5109736027
0
LINE
5
211
100
AcDbEntity
8
0
100
AcDbLine
62
7
6
CONTINUOUS
10
8.6512858380
20
-21.5107147514
11
8.6517802883
21
-21.5109624213
0
LINE
5
212
100
AcDbEntity
8
0
100
AcDbLine
62
9
6
CONTINUOUS
10
-6.2883387667
20
-13.7506546797
11
8.3964161241
21
-21.0930321251
0
LINE
5
213
100
AcDbEntity
8
0
100
AcDbLine
62
9
6
CONTINUOUS
10
11.9645544538
20
18.0598139664
11
9.0860981404
21
16.6040779319
0
LINE
5
214
100
AcDbEntity
8
0
100
AcDbLine
62
9
6
CONTINUOUS
10
12.3179866905
20
17.4502335288
11
9.4395303770
21
15.9944974943
0
LINE
5
215
100
AcDbEntity
8
0
100
AcDbLine
62
7
6
CONTINUOUS
10
-1.9575953291
20
-10.0685416923
11
-1.4707237315
21
-10.3119774914
0
LINE
5
216
100
AcDbEntity
8
0
100
AcDbLine
62
7
6
CONTINUOUS
10
-1.8743601793
20
-9.6172311745
11
-1.5966976646
21
-9.7560624319
0
LINE
5
217
100
AcDbEntity
8
0
100
AcDbLine
62
7
6
CONTINUOUS
10
-6.4355650799
20
23.0396453393
11
-6.4355789705
21
23.0395205957
0
LINE
5
218
100
AcDbEntity
8
0
100
AcDbLine
62
7
6
CONTINUOUS
10
-1.9217931087
20
-8.5324351177
11
0.4810601282
21
-9.7338617362
0
LINE
5
219
100
AcDbEntity
8
0
100
AcDbLine
62
7
6
CONTINUOUS
10
-2.0495030570
20
-7.9667525687
11
0.3327248705
21
-9.1578665325
0
LINE
5
21A
100
AcDbEntity
8
0
100
AcDbLine
62
7
6
CONTINUOUS
10
-6.4346961243
20
-13.5747262799
11
-6.4346436690
21
-13.5751344268
0
LINE
5
21B
100
AcDbEntity
8
0
100
AcDbLine
62
9
6
CONTINUOUS
10
-6.9633366848
20
-4.0214617636
11
7.6853238004
21
-11.3457920062
0
LINE
5
21C
100
AcDbEntity
8
0
100
AcDbLine
62
7
6
CONTINUOUS
10
-1.3309445364
20
-9.4896997238
11
-1.3154462264
21
-9.4770935427
0
LINE
5
21D
100
AcDbEntity
8
0
100
AcDbLine
62
7
6
CONTINUOUS
10
-0.3179925692
20
-9.9961755715
11
-0.3024942335
21
-9.9835694653
0
LINE
5
21E
100
AcDbEntity
8
0
100
AcDbLine
62
7
6
CONTINUOUS
10
-1.3153017288
20
-9.4773350229
11
-1.3309437299
21
-9.4896989167
0
LINE
5
21F
100
AcDbEntity
8
0
100
AcDbLine
62
7
6
CONTINUOUS
10
-0.3023496723
20
-9.9838110506
11
-0.3179916519
21
-9.9961749231
0
LINE
5
220
100
AcDbEntity
8
0
100
AcDbLine
62
9
6
CONTINUOUS
10
-6.9633366848
20
12.4330209083
11
7.6853238004
21
5.1086906658
0
LINE
5
221
100
AcDbEntity
8
0
100
AcDbLine
62
7
6
CONTINUOUS
10
12.3179866905
20
-19.9623606800
11
12.3179866905
21
17.4502335288
0
LINE
5
222
100
AcDbEntity
8
0
100
AcDbLine
62
9
6
CONTINUOUS
10
-6.2883387667
20
22.8733061482
11
8.3964161241
21
15.5309287028
0
LINE
5
223
100
AcDbEntity
8
0
100
AcDbLine
62
9
6
CONTINUOUS
10
-5.6164833072
20
23.9553686557
11
9.0860981404
21
16.6040779319
0
LINE
5
224
100
AcDbEntity
8
0
100
AcDbLine
62
7
6
CONTINUOUS
10
-2.8849302589
20
25.4845563227
11
11.9645544538
21
18.0598139664
0
LINE
5
225
100
AcDbEntity
8
0
100
AcDbLine
62
9
6
CONTINUOUS
10
9.4395303770
20
-21.2381776939
11
12.3179866905
21
-19.9623606800
0
LINE
5
226
100
AcDbEntity
8
0
100
AcDbLine
62
7
6
CONTINUOUS
10
9.2979584943
20
-21.5139457393
11
12.1801746196
21
-20.2364622656
0
SPLINE
5
227
100
AcDbEntity
8
0
100
AcDbSpline
62
7
6
CONTINUOUS
70
0
71
3
72
11
73
7
74
5
42
0.0000001000
43
0.0000001000
44
0.0000000001
12
0.1094886706
22
-0.0547442229
32
0.0000000000
13
0.1161976690
23
0.0399116366
33
0.0000000000
40
0.0000000000
40
0.0000000000
40
0.0000000000
40
0.0000000000
40
0.3231293136
40
0.6153971929
40
0.8818649193
40
1.0000000000
40
1.0000000000
40
1.0000000000
40
1.0000000000
10
-1.4707235419
20
-10.3119775862
30
0.0000000000
10
-1.4589305422
20
-10.3178740739
30
0.0000000000
10
-1.4355397732
20
-10.3274167304
30
0.0000000000
10
-1.3999498189
20
-10.3343285219
30
0.0000000000
10
-1.3720370069
20
-10.3329685188
30
0.0000000000
10
-1.3567876701
20
-10.3288781266
30
0.0000000000
10
-1.3522119964
20
-10.3273064718
30
0.0000000000
11
-1.4707235419
21
-10.3119775862
31
0.0000000000
11
-1.4339683117
21
-10.3265941413
31
0.0000000000
11
-1.3987739857
21
-10.3330253162
31
0.0000000000
11
-1.3662133205
21
-10.3310779349
31
0.0000000000
11
-1.3522119964
21
-10.3273064718
31
0.0000000000
0
SPLINE
5
228
100
AcDbEntity
8
0
100
AcDbSpline
62
7
6
CONTINUOUS
70
0
71
3
72
12
73
8
74
6
42
0.0000001000
43
0.0000001000
44
0.0000000001
12
0.1195718363
22
-0.2410770562
32
0.0000000000
13
0.2406920821
23
-0.1203448644
33
0.0000000000
40
0.0000000000
40
0.0000000000
40
0.0000000000
40
0.0000000000
40
0.2136582526
40
0.4251902923
40
0.6296088730
40
0.8223496873
40
1.0000000000
40
1.0000000000
40
1.0000000000
40
1.0000000000
10
-2.1372923640
20
-9.8738337142
30
0.0000000000
10
-2.1287765274
20
-9.8910030817
30
0.0000000000
10
-2.1099021670
20
-9.9242517944
30
0.0000000000
10
-2.0767073439
20
-9.9700810875
30
0.0000000000
10
-2.0397022041
20
-10.0104145468
30
0.0000000000
10
-2.0002176532
20
-10.0437925252
30
0.0000000000
10
-1.9718474378
20
-10.0614156313
30
0.0000000000
10
-1.9575944299
20
-10.0685420656
30
0.0000000000
11
-2.1372923640
21
-9.8738337142
31
0.0000000000
11
-2.1089131739
21
-9.9238375285
31
0.0000000000
11
-2.0754639952
21
-9.9698966792
31
0.0000000000
11
-2.0381613863
21
-10.0103261442
31
0.0000000000
11
-1.9983883412
21
-10.0436168708
31
0.0000000000
11
-1.9575944299
21
-10.0685420656
31
0.0000000000
0
SPLINE
5
229
100
AcDbEntity
8
0
100
AcDbSpline
62
7
6
CONTINUOUS
70
0
71
3
72
10
73
6
74
4
42
0.0000001000
43
0.0000001000
44
0.0000000001
12
0.5015097080
22
-1.0286887747
32
0.0000000000
13
0.5085117793
23
-1.0252455085
33
0.0000000000
40
0.0000000000
40
0.0000000000
40
0.0000000000
40
0.0000000000
40
0.3334186554
40
0.6667522947
40
1.0000000000
40
1.0000000000
40
1.0000000000
40
1.0000000000
10
-2.6423040413
20
-8.8468617196
30
0.0000000000
10
-2.5865664771
20
-8.9611897290
30
0.0000000000
10
-2.4748459046
20
-9.1896901172
30
0.0000000000
10
-2.3065083320
20
-9.5320149737
30
0.0000000000
10
-2.1937791972
20
-9.7599467318
30
0.0000000000
10
-2.1372924027
20
-9.8738336362
30
0.0000000000
11
-2.6423040413
21
-8.8468617196
31
0.0000000000
11
-2.4747019037
21
-9.1896556104
31
0.0000000000
11
-2.3063642203
21
-9.5319804733
31
0.0000000000
11
-2.1372924027
21
-9.8738336362
31
0.0000000000
0
SPLINE
5
22A
100
AcDbEntity
8
0
100
AcDbSpline
62
7
6
CONTINUOUS
70
0
71
3
72
13
73
9
74
7
42
0.0000001000
43
0.0000001000
44
0.0000000001
12
-0.1853070881
22
-0.2422569478
32
0.0000000000
13
0.1336584560
23
-0.2741579106
33
0.0000000000
40
0.0000000000
40
0.0000000000
40
0.0000000000
40
0.0000000000
40
0.1296693262
40
0.2744100969
40
0.4358553720
40
0.6128820374
40
0.8024247198
40
1.0000000000
40
1.0000000000
40
1.0000000000
40
1.0000000000
10
-2.6550568511
20
-8.5551987713
30
0.0000000000
10
-2.6630663995
20
-8.5656698697
30
0.0000000000
10
-2.6764026517
20
-8.5906881657
30
0.0000000000
10
-2.6867903898
20
-8.6341159979
30
0.0000000000
10
-2.6885061452
20
-8.6834854506
30
0.0000000000
10
-2.6815627779
20
-8.7369195656
30
0.0000000000
10
-2.6662818384
20
-8.7923672627
30
0.0000000000
10
-2.6511065692
20
-8.8288061072
30
0.0000000000
10
-2.6423040336
20
-8.8468617159
30
0.0000000000
11
-2.6550568511
21
-8.5551987713
31
0.0000000000
11
-2.6741526341
21
-8.5898328876
31
0.0000000000
11
-2.6850045162
21
-8.6326247694
31
0.0000000000
11
-2.6871647574
21
-8.6818187375
31
0.0000000000
11
-2.6805358755
21
-8.7354040295
31
0.0000000000
11
-2.6653752051
21
-8.7911919055
31
0.0000000000
11
-2.6423040336
21
-8.8468617159
31
0.0000000000
0
SPLINE
5
22B
100
AcDbEntity
8
0
100
AcDbSpline
62
7
6
CONTINUOUS
70
0
71
3
72
10
73
6
74
4
42
0.0000001000
43
0.0000001000
44
0.0000000001
12
-0.4366801770
22
-0.5652885606
32
0.0000000000
13
-0.4339853632
23
-0.5673600605
33
0.0000000000
40
0.0000000000
40
0.0000000000
40
0.0000000000
40
0.0000000000
40
0.3344842705
40
0.6678177987
40
1.0000000000
40
1.0000000000
40
1.0000000000
40
1.0000000000
10
-2.2197162887
20
-7.9888786562
30
0.0000000000
10
-2.2684038388
20
-8.0519053668
30
0.0000000000
10
-2.3655128439
20
-8.1778181544
30
0.0000000000
10
-2.5106270461
20
-8.3665913676
30
0.0000000000
10
-2.6070027800
20
-8.4923764667
30
0.0000000000
10
-2.6550568511
20
-8.5551987713
30
0.0000000000
11
-2.2197162887
21
-7.9888786562
31
0.0000000000
11
-2.3656302149
21
-8.1780735828
31
0.0000000000
11
-2.5107439342
21
-8.3668472293
31
0.0000000000
11
-2.6550568511
21
-8.5551987713
31
0.0000000000
0
SPLINE
5
22C
100
AcDbEntity
8
0
100
AcDbSpline
62
7
6
CONTINUOUS
70
0
71
3
72
24
73
20
74
18
42
0.0000001000
43
0.0000001000
44
0.0000000001
12
1.3116990232
22
-3.5806047568
32
0.0000000000
13
3.6114822191
23
1.2415010327
33
0.0000000000
40
0.0000000000
40
0.0000000000
40
0.0000000000
40
0.0000000000
40
0.0707283847
40
0.1418783563
40
0.2138742831
40
0.2859479112
40
0.3571747881
40
0.4271783878
40
0.4956380158
40
0.5618988553
40
0.6253555938
40
0.6858858088
40
0.7434453835
40
0.7976950078
40
0.8484258186
40
0.8960691808
40
0.9412482204
40
0.9843439822
40
1.0000000000
40
1.0000000000
40
1.0000000000
40
1.0000000000
10
0.3540783200
20
-11.0804931665
30
0.0000000000
10
0.3850031044
20
-11.1649099634
30
0.0000000000
10
0.4526849913
20
-11.3322389076
30
0.0000000000
10
0.5711010595
20
-11.5771494445
30
0.0000000000
10
0.7055713968
20
-11.8155874127
30
0.0000000000
10
0.8544706316
20
-12.0454073637
30
0.0000000000
10
1.0161308302
20
-12.2633046319
30
0.0000000000
10
1.1885936588
20
-12.4667775569
30
0.0000000000
10
1.3698682940
20
-12.6537542775
30
0.0000000000
10
1.5574712587
20
-12.8221872754
30
0.0000000000
10
1.7492323400
20
-12.9699267085
30
0.0000000000
10
1.9432508955
20
-13.0953944317
30
0.0000000000
10
2.1375189346
20
-13.1973298204
30
0.0000000000
10
2.3294549587
20
-13.2748281371
30
0.0000000000
10
2.5169119070
20
-13.3266366257
30
0.0000000000
10
2.6982387716
20
-13.3518375077
30
0.0000000000
10
2.8716849146
20
-13.3500536652
30
0.0000000000
10
3.0024701894
20
-13.3273143781
30
0.0000000000
10
3.0740301817
20
-13.3054210784
30
0.0000000000
10
3.0928773250
20
-13.2989420910
30
0.0000000000
11
0.3540783200
21
-11.0804931665
31
0.0000000000
11
0.4551857721
21
-11.3305334117
31
0.0000000000
11
0.5731483177
21
-11.5748640332
31
0.0000000000
11
0.7079260561
21
-11.8140469193
31
0.0000000000
11
0.8574590598
21
-12.0446464711
31
0.0000000000
11
1.0193777448
21
-12.2627156677
31
0.0000000000
11
1.1920929791
21
-12.4662569949
31
0.0000000000
11
1.3739437331
21
-12.6535568708
31
0.0000000000
11
1.5622009361
21
-12.8220879362
31
0.0000000000
11
1.7541549572
21
-12.9694238921
31
0.0000000000
11
1.9482419694
21
-13.0943564575
31
0.0000000000
11
2.1428386974
21
-13.1958892687
31
0.0000000000
11
2.3349382694
21
-13.2726556144
31
0.0000000000
11
2.5216171571
21
-13.3233967611
31
0.0000000000
11
2.7016688009
21
-13.3476562361
31
0.0000000000
11
2.8739336818
21
-13.3452707349
31
0.0000000000
11
3.0357234755
21
-13.3164473646
31
0.0000000000
11
3.0928773250
21
-13.2989420910
31
0.0000000000
0
SPLINE
5
22D
100
AcDbEntity
8
0
100
AcDbSpline
62
7
6
CONTINUOUS
70
0
71
3
72
11
73
7
74
5
42
0.0000001000
43
0.0000001000
44
0.0000000001
12
0.1099689738
22
-0.0549844410
32
0.0000000000
13
0.1167292163
23
0.0402807992
33
0.0000000000
40
0.0000000000
40
0.0000000000
40
0.0000000000
40
0.0000000000
40
0.3484201647
40
0.6622079395
40
0.9491250233
40
1.0000000000
40
1.0000000000
40
1.0000000000
40
1.0000000000
10
0.4810602039
20
-9.7338617740
30
0.0000000000
10
0.4938320065
20
-9.7402476700
30
0.0000000000
10
0.5192262742
20
-9.7503808418
30
0.0000000000
10
0.5579902090
20
-9.7566719769
30
0.0000000000
10
0.5849253527
20
-9.7536923870
30
0.0000000000
10
0.5981981734
20
-9.7495417052
30
0.0000000000
10
0.6001777054
20
-9.7488586103
30
0.0000000000
11
0.4810602039
21
-9.7338617740
31
0.0000000000
11
0.5210115338
21
-9.7493207102
31
0.0000000000
11
0.5591690296
21
-9.7550140700
31
0.0000000000
11
0.5941844534
21
-9.7507328632
31
0.0000000000
11
0.6001777054
21
-9.7488586103
31
0.0000000000
0
SPLINE
5
22E
100
AcDbEntity
8
0
100
AcDbSpline
62
7
6
CONTINUOUS
70
0
71
3
72
8
73
4
74
2
42
0.0000001000
43
0.0000001000
44
0.0000000001
12
-0.0296272551
22
-0.0296437373
32
0.0000000000
13
-0.0296215523
23
-0.0296494366
33
0.0000000000
40
0.0000000000
40
0.0000000000
40
0.0000000000
40
0.0000000000
40
1.0000000000
40
1.0000000000
40
1.0000000000
40
1.0000000000
10
-1.3309437299
20
-9.4896989167
30
0.0000000000
10
-1.3408194815
20
-9.4995801625
30
0.0000000000
10
-1.3506942838
20
-9.5094623574
30
0.0000000000
10
-1.3605681345
20
-9.5193455029
30
0.0000000000
11
-1.3309437299
21
-9.4896989167
31
0.0000000000
11
-1.3605681345
21
-9.5193455029
31
0.0000000000
0
SPLINE
5
22F
100
AcDbEntity
8
0
100
AcDbSpline
62
7
6
CONTINUOUS
70
0
71
3
72
10
73
6
74
4
42
0.0000001000
43
0.0000001000
44
0.0000000001
12
-0.2363121827
22
-0.2365346352
32
0.0000000000
13
-0.2359458824
23
-0.2369000190
33
0.0000000000
40
0.0000000000
40
0.0000000000
40
0.0000000000
40
0.0000000000
40
0.2504655031
40
0.6255809394
40
1.0000000000
40
1.0000000000
40
1.0000000000
40
1.0000000000
10
-1.3605681345
20
-9.5193455029
30
0.0000000000
10
-1.3802974844
20
-9.5390934250
30
0.0000000000
10
-1.4295654623
20
-9.5884267580
30
0.0000000000
10
-1.5082829858
20
-9.6673247604
30
0.0000000000
10
-1.5672501194
20
-9.7264958043
30
0.0000000000
10
-1.5966976646
20
-9.7560624319
30
0.0000000000
11
-1.3605681345
21
-9.5193455029
31
0.0000000000
11
-1.4197447725
21
-9.5786006679
31
0.0000000000
11
-1.5083291954
21
-9.6673882863
31
0.0000000000
11
-1.5966976646
21
-9.7560624319
31
0.0000000000
0
SPLINE
5
230
100
AcDbEntity
8
0
100
AcDbSpline
62
7
6
CONTINUOUS
70
0
71
3
72
22
73
18
74
16
42
0.0000001000
43
0.0000001000
44
0.0000000001
12
-0.5010735570
22
-0.5034929241
32
0.0000000000
13
0.6742931530
23
0.2312720244
33
0.0000000000
40
0.0000000000
40
0.0000000000
40
0.0000000000
40
0.0000000000
40
0.0454044320
40
0.0943628553
40
0.1491896255
40
0.2094529651
40
0.2741927600
40
0.3429408579
40
0.4148557000
40
0.4884352254
40
0.6343851031
40
0.7687916025
40
0.8294807779
40
0.8848591642
40
0.9350325105
40
0.9807214672
40
1.0000000000
40
1.0000000000
40
1.0000000000
40
1.0000000000
10
-0.6427631576
20
-10.3218176271
30
0.0000000000
10
-0.6503468110
20
-10.3294378971
30
0.0000000000
10
-0.6637676998
20
-10.3477108796
30
0.0000000000
10
-0.6770855800
20
-10.3807254698
30
0.0000000000
10
-0.6840523194
20
-10.4191716359
30
0.0000000000
10
-0.6845067066
20
-10.4619140646
30
0.0000000000
10
-0.6785486805
20
-10.5075319516
30
0.0000000000
10
-0.6664229571
20
-10.5547403951
30
0.0000000000
10
-0.6484665177
20
-10.6022895695
30
0.0000000000
10
-0.6175193307
20
-10.6640818341
30
0.0000000000
10
-0.5689933067
20
-10.7331039941
30
0.0000000000
10
-0.5092392873
20
-10.7886734837
30
0.0000000000
10
-0.4582967656
20
-10.8194332839
30
0.0000000000
10
-0.4215815910
20
-10.8341881784
30
0.0000000000
10
-0.3861147263
20
-10.8408663755
30
0.0000000000
10
-0.3585706115
20
-10.8393415237
30
0.0000000000
10
-0.3436416904
20
-10.8352861114
30
0.0000000000
10
-0.3393085629
20
-10.8337999163
30
0.0000000000
11
-0.6427631576
21
-10.3218176271
31
0.0000000000
11
-0.6621052398
21
-10.3476266700
31
0.0000000000
11
-0.6754808603
21
-10.3797285999
31
0.0000000000
11
-0.6827782503
21
-10.4179843488
31
0.0000000000
11
-0.6835285918
21
-10.4607851021
31
0.0000000000
11
-0.6777839127
21
-10.5064120060
31
0.0000000000
11
-0.6657772985
21
-10.5537473772
31
0.0000000000
11
-0.6478108060
21
-10.6015674894
31
0.0000000000
11
-0.6244415247
21
-10.6483183710
31
0.0000000000
11
-0.5645155112
21
-10.7329180932
31
0.0000000000
11
-0.4937144007
21
-10.7969687876
31
0.0000000000
11
-0.4566622319
21
-10.8190049652
31
0.0000000000
11
-0.4200354098
21
-10.8333543210
31
0.0000000000
11
-0.3849392933
21
-10.8395570667
31
0.0000000000
11
-0.3525556923
21
-10.8374115885
31
0.0000000000
11
-0.3393085629
21
-10.8337999163
31
0.0000000000
0
SPLINE
5
231
100
AcDbEntity
8
0
100
AcDbSpline
62
7
6
CONTINUOUS
70
0
71
3
72
8
73
4
74
2
42
0.0000001000
43
0.0000001000
44
0.0000000001
12
-0.0362338080
22
-0.0362539451
32
0.0000000000
13
-0.0362252766
23
-0.0362624712
33
0.0000000000
40
0.0000000000
40
0.0000000000
40
0.0000000000
40
0.0000000000
40
1.0000000000
40
1.0000000000
40
1.0000000000
40
1.0000000000
10
-0.3179916519
20
-9.9961749231
30
0.0000000000
10
-0.3300695879
20
-10.0082595715
30
0.0000000000
10
-0.3421461038
20
-10.0203456395
30
0.0000000000
10
-0.3542211959
20
-10.0324331299
30
0.0000000000
11
-0.3179916519
21
-9.9961749231
31
0.0000000000
11
-0.3542211959
21
-10.0324331299
31
0.0000000000
0
SPLINE
5
232
100
AcDbEntity
8
0
100
AcDbSpline
62
7
6
CONTINUOUS
70
0
71
3
72
10
73
6
74
4
42
0.0000001000
43
0.0000001000
44
0.0000000001
12
-0.2888152690
22
-0.2891118128
32
0.0000000000
13
-0.2882668300
23
-0.2896586407
33
0.0000000000
40
0.0000000000
40
0.0000000000
40
0.0000000000
40
0.0000000000
40
0.2505695047
40
0.6257111925
40
1.0000000000
40
1.0000000000
40
1.0000000000
40
1.0000000000
10
-0.3542211959
20
-10.0324331299
30
0.0000000000
10
-0.3783439622
20
-10.0565806644
30
0.0000000000
10
-0.4385680892
20
-10.1168950058
30
0.0000000000
10
-0.5347602587
20
-10.2133450605
30
0.0000000000
10
-0.6067981416
20
-10.2856789647
30
0.0000000000
10
-0.6427631576
20
-10.3218176271
30
0.0000000000
11
-0.3542211959
21
-10.0324331299
31
0.0000000000
11
-0.4265724206
21
-10.1048927860
31
0.0000000000
11
-0.5348294042
21
-10.2134401730
31
0.0000000000
11
-0.6427631576
21
-10.3218176271
31
0.0000000000
0
SPLINE
5
233
100
AcDbEntity
8
0
100
AcDbSpline
62
7
6
CONTINUOUS
70
0
71
3
72
12
73
8
74
6
42
0.0000001000
43
0.0000001000
44
0.0000000001
12
0.2374771472
22
-0.1187380058
32
0.0000000000
13
0.2516740667
23
0.0865635550
33
0.0000000000
40
0.0000000000
40
0.0000000000
40
0.0000000000
40
0.0000000000
40
0.2646168386
40
0.5069405997
40
0.7325232905
40
0.9444896971
40
1.0000000000
40
1.0000000000
40
1.0000000000
40
1.0000000000
10
2.5906508131
20
-11.8579754121
30
0.0000000000
10
2.6115976304
20
-11.8684487707
30
0.0000000000
10
2.6530756609
20
-11.8860067637
30
0.0000000000
10
2.7162151780
20
-11.9019334893
30
0.0000000000
10
2.7766324473
20
-11.9059623891
30
0.0000000000
10
2.8201914481
20
-11.8996443672
30
0.0000000000
10
2.8428775382
20
-11.8926532187
30
0.0000000000
10
2.8475343728
20
-11.8910514957
30
0.0000000000
11
2.5906508131
21
-11.8579754121
31
0.0000000000
11
2.6555038889
21
-11.8849980303
31
0.0000000000
11
2.7179933678
21
-11.9003125796
31
0.0000000000
11
2.7777818479
21
-11.9038636057
31
0.0000000000
11
2.8334206472
21
-11.8954015201
31
0.0000000000
11
2.8475343728
21
-11.8910514957
31
0.0000000000
0
SPLINE
5
234
100
AcDbEntity
8
0
100
AcDbSpline
62
7
6
CONTINUOUS
70
0
71
3
72
24
73
20
74
18
42
0.0000001000
43
0.0000001000
44
0.0000000001
12
-1.0958054445
22
-0.7439051755
32
0.0000000000
13
1.1816880837
23
-0.5908412166
33
0.0000000000
40
0.0000000000
40
0.0000000000
40
0.0000000000
40
0.0000000000
40
0.0264167497
40
0.0693656595
40
0.1151128928
40
0.1648518311
40
0.2186796416
40
0.2761403135
40
0.3374384052
40
0.4027156822
40
0.4706837233
40
0.5398408406
40
0.6098687531
40
0.6803195824
40
0.7499153544
40
0.8173837884
40
0.8819971610
40
0.9427187506
40
1.0000000000
40
1.0000000000
40
1.0000000000
40
1.0000000000
10
2.2306047997
20
-10.7506671957
30
0.0000000000
10
2.2209555937
20
-10.7572177146
30
0.0000000000
10
2.1969284132
20
-10.7763480889
30
0.0000000000
10
2.1639462330
20
-10.8154234914
30
0.0000000000
10
2.1351159899
20
-10.8695864485
30
0.0000000000
10
2.1152915121
20
-10.9326186968
30
0.0000000000
10
2.1048322645
20
-11.0030080360
30
0.0000000000
10
2.1038002645
20
-11.0792008736
30
0.0000000000
10
2.1121248779
20
-11.1599816429
30
0.0000000000
10
2.1297341667
20
-11.2439713643
30
0.0000000000
10
2.1562628462
20
-11.3291990308
30
0.0000000000
10
2.1910112837
20
-11.4136702920
30
0.0000000000
10
2.2332349367
20
-11.4958929327
30
0.0000000000
10
2.2823339093
20
-11.5744297098
30
0.0000000000
10
2.3371025342
20
-11.6477269387
30
0.0000000000
10
2.3964396823
20
-11.7139765581
30
0.0000000000
10
2.4588191628
20
-11.7717817804
30
0.0000000000
10
2.5231616567
20
-11.8202623639
30
0.0000000000
10
2.5680879565
20
-11.8466940377
30
0.0000000000
10
2.5906508131
20
-11.8579754121
30
0.0000000000
11
2.2306047997
21
-10.7506671957
31
0.0000000000
11
2.2032571503
21
-10.7724291496
31
0.0000000000
11
2.1663756217
21
-10.8155508491
31
0.0000000000
11
2.1376017924
21
-10.8687018032
31
0.0000000000
11
2.1174543839
21
-10.9312504518
31
0.0000000000
11
2.1066036281
21
-11.0015332603
31
0.0000000000
11
2.1052470395
21
-11.0774362362
31
0.0000000000
11
2.1132891163
21
-11.1580209115
31
0.0000000000
11
2.1307874751
21
-11.2424691965
31
0.0000000000
11
2.1573425120
21
-11.3282499949
31
0.0000000000
11
2.1920222403
21
-11.4127806776
31
0.0000000000
11
2.2342775607
21
-11.4950859801
31
0.0000000000
11
2.2836042118
21
-11.5740179562
31
0.0000000000
11
2.3387344456
21
-11.6476047427
31
0.0000000000
11
2.3982902096
21
-11.7139260696
31
0.0000000000
11
2.4610375620
21
-11.7718048542
31
0.0000000000
11
2.5252607314
21
-11.8198794246
31
0.0000000000
11
2.5906508131
21
-11.8579754121
31
0.0000000000
0
SPLINE
5
235
100
AcDbEntity
8
0
100
AcDbSpline
62
7
6
CONTINUOUS
70
0
71
3
72
31
73
27
74
25
42
0.0000001000
43
0.0000001000
44
0.0000000001
12
4.5402692911
22
1.5611969247
32
0.0000000000
13
-3.9733586149
23
-2.6955145007
33
0.0000000000
40
0.0000000000
40
0.0000000000
40
0.0000000000
40
0.0000000000
40
0.0067143139
40
0.0351140214
40
0.0647769255
40
0.0961071454
40
0.1293786197
40
0.1647296387
40
0.2021877839
40
0.2416720325
40
0.2830261260
40
0.3260182779
40
0.4156952947
40
0.5080638095
40
0.6000482243
40
0.6885730930
40
0.7306995672
40
0.7710024202
40
0.8092610170
40
0.8453364290
40
0.8791771743
40
0.9108651434
40
0.9406140401
40
0.9687977736
40
0.9959363483
40
1.0000000000
40
1.0000000000
40
1.0000000000
40
1.0000000000
10
1.1201399377
20
-9.2356886705
30
0.0000000000
10
1.1303015355
20
-9.2321945484
30
0.0000000000
10
1.1838557404
20
-9.2151235330
30
0.0000000000
10
1.2860164919
20
-9.1952963825
30
0.0000000000
10
1.4294748332
20
-9.1926006845
30
0.0000000000
10
1.5792356956
20
-9.2131988976
30
0.0000000000
10
1.7333357884
20
-9.2568771243
30
0.0000000000
10
1.8898969009
20
-9.3228223401
30
0.0000000000
10
2.0469540154
20
-9.4102512195
30
0.0000000000
10
2.2026433380
20
-9.5179228224
30
0.0000000000
10
2.3549942875
20
-9.6445604650
30
0.0000000000
10
2.5540060441
20
-9.8391284131
30
0.0000000000
10
2.7818015115
20
-10.1190940465
30
0.0000000000
10
3.0107780968
20
-10.4937596676
30
0.0000000000
10
3.1885293652
20
-10.8932396523
30
0.0000000000
10
3.2888111126
20
-11.2359451604
30
0.0000000000
10
3.3352499819
20
-11.5053878716
30
0.0000000000
10
3.3524916819
20
-11.6977046831
30
0.0000000000
10
3.3524161323
20
-11.8811541163
30
0.0000000000
10
3.3350823503
20
-12.0534648861
30
0.0000000000
10
3.3005000603
20
-12.2124981273
30
0.0000000000
10
3.2490634618
20
-12.3563106293
30
0.0000000000
10
3.1810770078
20
-12.4830254445
30
0.0000000000
10
3.0972899824
20
-12.5909742295
30
0.0000000000
10
3.0257910898
20
-12.6542506916
30
0.0000000000
10
2.9848816508
20
-12.6828975662
30
0.0000000000
10
2.9794995357
20
-12.6865487768
30
0.0000000000
11
1.1201399377
21
-9.2356886705
31
0.0000000000
11
1.1508489447
21
-9.2258972883
31
0.0000000000
11
1.2844089473
21
-9.1995159200
31
0.0000000000
11
1.4265671478
21
-9.1962382881
31
0.0000000000
11
1.5754374542
21
-9.2160942827
31
0.0000000000
11
1.7290672470
21
-9.2589472948
31
0.0000000000
11
1.8854613601
21
-9.3242058730
31
0.0000000000
11
2.0426151011
21
-9.4110737513
31
0.0000000000
11
2.1985282209
21
-9.5183902459
31
0.0000000000
11
2.3512205487
21
-9.6448193077
31
0.0000000000
11
2.4987877864
21
-9.7886878440
31
0.0000000000
11
2.7712727452
21
-10.1211862636
31
0.0000000000
11
3.0025744357
21
-10.4987605465
31
0.0000000000
11
3.1813629075
21
-10.9018365827
31
0.0000000000
11
3.2989865748
21
-11.3095740182
31
0.0000000000
11
3.3329727557
21
-11.5086365894
31
0.0000000000
11
3.3498163206
21
-11.7011019974
31
0.0000000000
11
3.3492723904
21
-11.8845026090
31
0.0000000000
11
3.3313713944
21
-12.0565094442
31
0.0000000000
11
3.2962808716
21
-12.2148921939
31
0.0000000000
11
3.2444414915
21
-12.3576765816
31
0.0000000000
11
3.1764326158
21
-12.4830236726
31
0.0000000000
11
3.0931152452
21
-12.5893798674
31
0.0000000000
11
2.9954807099
21
-12.6753578466
31
0.0000000000
11
2.9794995357
21
-12.6865487768
31
0.0000000000
0
SPLINE
5
236
100
AcDbEntity
8
0
100
AcDbSpline
62
7
6
CONTINUOUS
70
0
71
3
72
16
73
12
74
10
42
0.0000001000
43
0.0000001000
44
0.0000000001
12
-0.2368566538
22
-0.1605098929
32
0.0000000000
13
0.0980580402
23
-0.2676754456
33
0.0000000000
40
0.0000000000
40
0.0000000000
40
0.0000000000
40
0.0000000000
40
0.0102100722
40
0.1188848886
40
0.1761158635
40
0.2359168994
40
0.3644400413
40
0.5064509181
40
0.6612857621
40
0.8253084247
40
1.0000000000
40
1.0000000000
40
1.0000000000
40
1.0000000000
10
0.3855986589
20
-10.8154883120
30
0.0000000000
10
0.3847925511
20
-10.8160345845
30
0.0000000000
10
0.3754991531
20
-10.8225312050
30
0.0000000000
10
0.3634113716
20
-10.8344668968
30
0.0000000000
10
0.3514623885
20
-10.8523316703
30
0.0000000000
10
0.3409821507
20
-10.8732428807
30
0.0000000000
10
0.3319932401
20
-10.9035850342
30
0.0000000000
10
0.3279090218
20
-10.9439799892
30
0.0000000000
10
0.3302629388
20
-10.9878609025
30
0.0000000000
10
0.3388623423
20
-11.0340751537
30
0.0000000000
10
0.3483682254
20
-11.0649063300
30
0.0000000000
10
0.3540781966
20
-11.0804932118
30
0.0000000000
11
0.3855986589
21
-10.8154883120
31
0.0000000000
11
0.3832046416
21
-10.8171619793
31
0.0000000000
11
0.3609977799
21
-10.8387633346
31
0.0000000000
11
0.3518856100
21
-10.8522964114
31
0.0000000000
11
0.3442089278
21
-10.8675176909
31
0.0000000000
11
0.3334354826
21
-10.9025361538
31
0.0000000000
11
0.3290314625
21
-10.9427790847
31
0.0000000000
11
0.3311420128
21
-10.9868675313
31
0.0000000000
11
0.3395216465
21
-11.0328686524
31
0.0000000000
11
0.3540781966
21
-11.0804932118
31
0.0000000000
0
SPLINE
5
237
100
AcDbEntity
8
0
100
AcDbSpline
62
7
6
CONTINUOUS
70
0
71
3
72
10
73
6
74
4
42
0.0000001000
43
0.0000001000
44
0.0000000001
12
-0.3984007566
22
-0.2703742905
32
0.0000000000
13
-0.2326112545
23
-0.4208410606
33
0.0000000000
40
0.0000000000
40
0.0000000000
40
0.0000000000
40
0.0000000000
40
0.2839699095
40
0.6333611478
40
1.0000000000
40
1.0000000000
40
1.0000000000
40
1.0000000000
10
0.6503418741
20
-8.8021226421
30
0.0000000000
10
0.6126305985
20
-8.8277153630
30
0.0000000000
10
0.5326992965
20
-8.8909490967
30
0.0000000000
10
0.4239107035
20
-9.0096910062
30
0.0000000000
10
0.3611529783
20
-9.1064343047
30
0.0000000000
10
0.3327248705
20
-9.1578665325
30
0.0000000000
11
0.6503418741
21
-8.8021226421
31
0.0000000000
11
0.5431726136
21
-8.8868243210
31
0.0000000000
11
0.4293914653
21
-9.0104336604
31
0.0000000000
11
0.3327248705
21
-9.1578665325
31
0.0000000000
0
SPLINE
5
238
100
AcDbEntity
8
0
100
AcDbSpline
62
7
6
CONTINUOUS
70
0
71
3
72
9
73
5
74
3
42
0.0000001000
43
0.0000001000
44
0.0000000001
12
-0.0295088353
22
-0.0200596120
32
0.0000000000
13
-0.0217135496
23
-0.0281081920
33
0.0000000000
40
0.0000000000
40
0.0000000000
40
0.0000000000
40
0.0000000000
40
0.0196968725
40
1.0000000000
40
1.0000000000
40
1.0000000000
40
1.0000000000
10
-2.1939582708
20
-7.9644315852
30
0.0000000000
10
-2.1941520148
20
-7.9645632890
30
0.0000000000
10
-2.2039657320
20
-7.9712832073
30
0.0000000000
10
-2.2126210637
20
-7.9796937589
30
0.0000000000
10
-2.2197163506
20
-7.9888786084
30
0.0000000000
11
-2.1939582708
21
-7.9644315852
31
0.0000000000
11
-2.1945381644
21
-7.9648286677
31
0.0000000000
11
-2.2197163506
21
-7.9888786084
31
0.0000000000
0
SPLINE
5
239
100
AcDbEntity
8
0
100
AcDbSpline
62
7
6
CONTINUOUS
70
0
71
3
72
8
73
4
74
2
42
0.0000001000
43
0.0000001000
44
0.0000000001
12
0.0357381281
22
0.0360114455
32
0.0000000000
13
0.0357467820
23
0.0360028566
33
0.0000000000
40
0.0000000000
40
0.0000000000
40
0.0000000000
40
0.0000000000
40
1.0000000000
40
1.0000000000
40
1.0000000000
40
1.0000000000
10
-0.2998876076
20
-10.8090280501
30
0.0000000000
10
-0.2879748982
20
-10.7970242349
30
0.0000000000
10
-0.2760607447
20
-10.7850218526
30
0.0000000000
10
-0.2641451507
20
-10.7730209004
30
0.0000000000
11
-0.2998876076
21
-10.8090280501
31
0.0000000000
11
-0.2641451507
21
-10.7730209004
31
0.0000000000
0
SPLINE
5
23A
100
AcDbEntity
8
0
100
AcDbSpline
62
7
6
CONTINUOUS
70
0
71
3
72
8
73
4
74
2
42
0.0000001000
43
0.0000001000
44
0.0000000001
12
0.0357737513
22
0.0360300192
32
0.0000000000
13
0.0357823961
23
0.0360214345
33
0.0000000000
40
0.0000000000
40
0.0000000000
40
0.0000000000
40
0.0000000000
40
1.0000000000
40
1.0000000000
40
1.0000000000
40
1.0000000000
10
-0.2641451507
20
-10.7730209004
30
0.0000000000
10
-0.2522205669
20
-10.7610108940
30
0.0000000000
10
-0.2402945405
20
-10.7490023198
30
0.0000000000
10
-0.2283670751
20
-10.7369951750
30
0.0000000000
11
-0.2641451507
21
-10.7730209004
31
0.0000000000
11
-0.2283670751
21
-10.7369951750
31
0.0000000000
0
SPLINE
5
23B
100
AcDbEntity
8
0
100
AcDbSpline
62
7
6
CONTINUOUS
70
0
71
3
72
8
73
4
74
2
42
0.0000001000
43
0.0000001000
44
0.0000000001
12
0.0358098744
22
0.0360490963
32
0.0000000000
13
0.0358185102
23
0.0360405155
33
0.0000000000
40
0.0000000000
40
0.0000000000
40
0.0000000000
40
0.0000000000
40
1.0000000000
40
1.0000000000
40
1.0000000000
40
1.0000000000
10
-0.2283670751
20
-10.7369951750
30
0.0000000000
10
-0.2164304504
20
-10.7249788096
30
0.0000000000
10
-0.2044923844
20
-10.7129638757
30
0.0000000000
10
-0.1925528810
20
-10.7009503705
30
0.0000000000
11
-0.2283670751
21
-10.7369951750
31
0.0000000000
11
-0.1925528810
21
-10.7009503705
31
0.0000000000
0
SPLINE
5
23C
100
AcDbEntity
8
0
100
AcDbSpline
62
7
6
CONTINUOUS
70
0
71
3
72
8
73
4
74
2
42
0.0000001000
43
0.0000001000
44
0.0000000001
12
0.0358458472
22
0.0360680219
32
0.0000000000
13
0.0358544744
23
0.0360594453
33
0.0000000000
40
0.0000000000
40
0.0000000000
40
0.0000000000
40
0.0000000000
40
1.0000000000
40
1.0000000000
40
1.0000000000
40
1.0000000000
10
-0.1925528810
20
-10.7009503705
30
0.0000000000
10
-0.1806042653
20
-10.6889276966
30
0.0000000000
10
-0.1686542099
20
-10.6769064535
30
0.0000000000
10
-0.1567027184
20
-10.6648866384
30
0.0000000000
11
-0.1925528810
21
-10.7009503705
31
0.0000000000
11
-0.1567027184
21
-10.6648866384
31
0.0000000000
0
SPLINE
5
23D
100
AcDbEntity
8
0
100
AcDbSpline
62
7
6
CONTINUOUS
70
0
71
3
72
8
73
4
74
2
42
0.0000001000
43
0.0000001000
44
0.0000000001
12
0.0358819164
22
0.0360870442
32
0.0000000000
13
0.0358905355
23
0.0360784721
33
0.0000000000
40
0.0000000000
40
0.0000000000
40
0.0000000000
40
0.0000000000
40
1.0000000000
40
1.0000000000
40
1.0000000000
40
1.0000000000
10
-0.1567027184
20
-10.6648866384
30
0.0000000000
10
-0.1447420796
20
-10.6528576237
30
0.0000000000
10
-0.1327800025
20
-10.6408300391
30
0.0000000000
10
-0.1208164907
20
-10.6288038817
30
0.0000000000
11
-0.1567027184
21
-10.6648866384
31
0.0000000000
11
-0.1208164907
21
-10.6288038817
31
0.0000000000
0
SPLINE
5
23E
100
AcDbEntity
8
0
100
AcDbSpline
62
7
6
CONTINUOUS
70
0
71
3
72
8
73
4
74
2
42
0.0000001000
43
0.0000001000
44
0.0000000001
12
0.0359179901
22
0.0361060704
32
0.0000000000
13
0.0359266010
23
0.0360975027
33
0.0000000000
40
0.0000000000
40
0.0000000000
40
0.0000000000
40
0.0000000000
40
1.0000000000
40
1.0000000000
40
1.0000000000
40
1.0000000000
10
-0.1208164907
20
-10.6288038817
30
0.0000000000
10
-0.1088438273
20
-10.6167685249
30
0.0000000000
10
-0.0968697270
20
-10.6047345975
30
0.0000000000
10
-0.0848941933
20
-10.5927020966
30
0.0000000000
11
-0.1208164907
21
-10.6288038817
31
0.0000000000
11
-0.0848941933
21
-10.5927020966
31
0.0000000000
0
SPLINE
5
23F
100
AcDbEntity
8
0
100
AcDbSpline
62
7
6
CONTINUOUS
70
0
71
3
72
8
73
4
74
2
42
0.0000001000
43
0.0000001000
44
0.0000000001
12
0.0359539980
22
0.0361250300
32
0.0000000000
13
0.0359626004
23
0.0361164664
33
0.0000000000
40
0.0000000000
40
0.0000000000
40
0.0000000000
40
0.0000000000
40
1.0000000000
40
1.0000000000
40
1.0000000000
40
1.0000000000
10
-0.0848941933
20
-10.5927020966
30
0.0000000000
10
-0.0729095273
20
-10.5806604199
30
0.0000000000
10
-0.0609234258
20
-10.5686201719
30
0.0000000000
10
-0.0489358923
20
-10.5565813498
30
0.0000000000
11
-0.0848941933
21
-10.5927020966
31
0.0000000000
11
-0.0489358923
21
-10.5565813498
31
0.0000000000
0
SPLINE
5
240
100
AcDbEntity
8
0
100
AcDbSpline
62
7
6
CONTINUOUS
70
0
71
3
72
8
73
4
74
2
42
0.0000001000
43
0.0000001000
44
0.0000000001
12
0.0359900330
22
0.0361440165
32
0.0000000000
13
0.0359986267
23
0.0361354567
33
0.0000000000
40
0.0000000000
40
0.0000000000
40
0.0000000000
40
0.0000000000
40
1.0000000000
40
1.0000000000
40
1.0000000000
40
1.0000000000
10
-0.0489358923
20
-10.5565813498
30
0.0000000000
10
-0.0369392146
20
-10.5445333443
30
0.0000000000
10
-0.0249411028
20
-10.5324867669
30
0.0000000000
10
-0.0129415606
20
-10.5204416146
30
0.0000000000
11
-0.0489358923
21
-10.5565813498
31
0.0000000000
11
-0.0129415606
21
-10.5204416146
31
0.0000000000
0
SPLINE
5
241
100
AcDbEntity
8
0
100
AcDbSpline
62
7
6
CONTINUOUS
70
0
71
3
72
8
73
4
74
2
42
0.0000001000
43
0.0000001000
44
0.0000000001
12
0.0360260665
22
0.0361630008
32
0.0000000000
13
0.0360346514
23
0.0361544449
33
0.0000000000
40
0.0000000000
40
0.0000000000
40
0.0000000000
40
0.0000000000
40
1.0000000000
40
1.0000000000
40
1.0000000000
40
1.0000000000
10
-0.0129415606
20
-10.5204416146
30
0.0000000000
10
-0.0009328718
20
-10.5083872810
30
0.0000000000
10
0.0110772497
20
-10.4963343748
30
0.0000000000
10
0.0230888002
20
-10.4842828932
30
0.0000000000
11
-0.0129415606
21
-10.5204416146
31
0.0000000000
11
0.0230888002
21
-10.4842828932
31
0.0000000000
0
SPLINE
5
242
100
AcDbEntity
8
0
100
AcDbSpline
62
7
6
CONTINUOUS
70
0
71
3
72
8
73
4
74
2
42
0.0000001000
43
0.0000001000
44
0.0000000001
12
0.0408428506
22
0.0964620903
32
0.0000000000
13
0.0508867195
23
0.0917091548
33
0.0000000000
40
0.0000000000
40
0.0000000000
40
0.0000000000
40
0.0000000000
40
1.0000000000
40
1.0000000000
40
1.0000000000
40
1.0000000000
10
0.6685630355
20
-9.6811310673
30
0.0000000000
10
0.6821773190
20
-9.6489770372
30
0.0000000000
10
0.6973886284
20
-9.6174371485
30
0.0000000000
10
0.7143508682
20
-9.5868674302
30
0.0000000000
11
0.6685630355
21
-9.6811310673
31
0.0000000000
11
0.7143508682
21
-9.5868674302
31
0.0000000000
0
SPLINE
5
243
100
AcDbEntity
8
0
100
AcDbSpline
62
7
6
CONTINUOUS
70
0
71
3
72
12
73
8
74
6
42
0.0000001000
43
0.0000001000
44
0.0000000001
12
0.2648741310
22
0.4773619310
32
0.0000000000
13
0.5156391201
23
0.1798523248
33
0.0000000000
40
0.0000000000
40
0.0000000000
40
0.0000000000
40
0.0000000000
40
0.0779021940
40
0.3321168595
40
0.5784783149
40
0.8212838168
40
1.0000000000
40
1.0000000000
40
1.0000000000
40
1.0000000000
10
0.7143508682
20
-9.5868674302
30
0.0000000000
10
0.7212289602
20
-9.5744715829
30
0.0000000000
10
0.7517793969
20
-9.5223050127
30
0.0000000000
10
0.8144309073
20
-9.4372432635
30
0.0000000000
10
0.9130724457
20
-9.3438247484
30
0.0000000000
10
1.0157302674
20
-9.2776688537
30
0.0000000000
10
1.0864534873
20
-9.2474309957
30
0.0000000000
10
1.1171711724
20
-9.2367168220
30
0.0000000000
11
0.7143508682
21
-9.5868674302
31
0.0000000000
11
0.7358590992
21
-9.5501821889
31
0.0000000000
11
0.8184300975
21
-9.4388482982
31
0.0000000000
11
0.9161515411
21
-9.3466800298
31
0.0000000000
11
1.0275496696
21
-9.2751413491
31
0.0000000000
11
1.1171711724
21
-9.2367168220
31
0.0000000000
0
SPLINE
5
244
100
AcDbEntity
8
0
100
AcDbSpline
62
7
6
CONTINUOUS
70
0
71
3
72
8
73
4
74
2
42
0.0000001000
43
0.0000001000
44
0.0000000001
12
0.0029664991
22
0.0010346999
32
0.0000000000
13
0.0029710203
23
0.0010216019
33
0.0000000000
40
0.0000000000
40
0.0000000000
40
0.0000000000
40
0.0000000000
40
1.0000000000
40
1.0000000000
40
1.0000000000
40
1.0000000000
10
1.1171711724
20
-9.2367168220
30
0.0000000000
10
1.1181600055
20
-9.2363719221
30
0.0000000000
10
1.1191495976
20
-9.2360292045
30
0.0000000000
10
1.1201399377
20
-9.2356886705
30
0.0000000000
11
1.1171711724
21
-9.2367168220
31
0.0000000000
11
1.1201399377
21
-9.2356886705
31
0.0000000000
0
SPLINE
5
245
100
AcDbEntity
8
0
100
AcDbSpline
62
7
6
CONTINUOUS
70
0
71
3
72
8
73
4
74
2
42
0.0000001000
43
0.0000001000
44
0.0000000001
12
-0.0224008919
22
0.0112004300
32
0.0000000000
13
-0.0235362335
23
0.0087049815
33
0.0000000000
40
0.0000000000
40
0.0000000000
40
0.0000000000
40
0.0000000000
40
1.0000000000
40
1.0000000000
40
1.0000000000
40
1.0000000000
10
-2.0495031849
20
-7.9667525047
30
0.0000000000
10
-2.0569701489
20
-7.9630190281
30
0.0000000000
10
-2.0646400882
20
-7.9596480395
30
0.0000000000
10
-2.0724854994
20
-7.9567463790
30
0.0000000000
11
-2.0495031849
21
-7.9667525047
31
0.0000000000
11
-2.0724854994
21
-7.9567463790
31
0.0000000000
0
SPLINE
5
246
100
AcDbEntity
8
0
100
AcDbSpline
62
7
6
CONTINUOUS
70
0
71
3
72
9
73
5
74
3
42
0.0000001000
43
0.0000001000
44
0.0000000001
12
-0.0217827028
22
0.0080564303
32
0.0000000000
13
-0.0226131879
23
0.0053857812
33
0.0000000000
40
0.0000000000
40
0.0000000000
40
0.0000000000
40
0.0000000000
40
0.7839121824
40
1.0000000000
40
1.0000000000
40
1.0000000000
40
1.0000000000
10
-2.0724854994
20
-7.9567463790
30
0.0000000000
10
-2.0781774081
20
-7.9546412010
30
0.0000000000
10
-2.0855561305
20
-7.9522708570
30
0.0000000000
10
-2.0930680609
20
-7.9503689067
30
0.0000000000
10
-2.0946968724
20
-7.9499809728
30
0.0000000000
11
-2.0724854994
21
-7.9567463790
31
0.0000000000
11
-2.0898278076
21
-7.9512127544
31
0.0000000000
11
-2.0946968724
21
-7.9499809728
31
0.0000000000
0
SPLINE
5
247
100
AcDbEntity
8
0
100
AcDbSpline
62
7
6
CONTINUOUS
70
0
71
3
72
8
73
4
74
2
42
0.0000001000
43
0.0000001000
44
0.0000000001
12
-0.0216761772
22
0.0051626134
32
0.0000000000
13
-0.0221654379
23
0.0021307605
33
0.0000000000
40
0.0000000000
40
0.0000000000
40
0.0000000000
40
0.0000000000
40
1.0000000000
40
1.0000000000
40
1.0000000000
40
1.0000000000
10
-2.0946968724
20
-7.9499809728
30
0.0000000000
10
-2.1019222648
20
-7.9482601016
30
0.0000000000
10
-2.1092573590
20
-7.9469928953
30
0.0000000000
10
-2.1166458383
20
-7.9462826418
30
0.0000000000
11
-2.0946968724
21
-7.9499809728
31
0.0000000000
11
-2.1166458383
21
-7.9462826418
31
0.0000000000
0
SPLINE
5
248
100
AcDbEntity
8
0
100
AcDbSpline
62
7
6
CONTINUOUS
70
0
71
3
72
9
73
5
74
3
42
0.0000001000
43
0.0000001000
44
0.0000000001
12
-0.0396311669
22
0.0038097386
32
0.0000000000
13
-0.0389489619
23
-0.0084463765
33
0.0000000000
40
0.0000000000
40
0.0000000000
40
0.0000000000
40
0.0000000000
40
0.2949011762
40
1.0000000000
40
1.0000000000
40
1.0000000000
40
1.0000000000
10
-2.1166458383
20
-7.9462826418
30
0.0000000000
10
-2.1205415976
20
-7.9459081430
30
0.0000000000
10
-2.1338023154
20
-7.9451632987
30
0.0000000000
10
-2.1471387684
20
-7.9463730480
30
0.0000000000
10
-2.1562930574
20
-7.9483582247
30
0.0000000000
11
-2.1166458383
21
-7.9462826418
31
0.0000000000
11
-2.1283693866
21
-7.9456388166
31
0.0000000000
11
-2.1562930574
21
-7.9483582247
31
0.0000000000
0
SPLINE
5
249
100
AcDbEntity
8
0
100
AcDbSpline
62
7
6
CONTINUOUS
70
0
71
3
72
9
73
5
74
3
42
0.0000001000
43
0.0000001000
44
0.0000000001
12
-0.0191275843
22
-0.0041479611
32
0.0000000000
13
-0.0180978851
23
-0.0075071367
33
0.0000000000
40
0.0000000000
40
0.0000000000
40
0.0000000000
40
0.0000000000
40
0.3908759800
40
1.0000000000
40
1.0000000000
40
1.0000000000
40
1.0000000000
10
-2.1562930574
20
-7.9483582247
30
0.0000000000
10
-2.1587852285
20
-7.9488986708
30
0.0000000000
10
-2.1651138331
20
-7.9504960010
30
0.0000000000
10
-2.1712836515
20
-7.9526637369
30
0.0000000000
10
-2.1749582703
20
-7.9541879960
30
0.0000000000
11
-2.1562930574
21
-7.9483582247
31
0.0000000000
11
-2.1637083676
21
-7.9502345357
31
0.0000000000
11
-2.1749582703
21
-7.9541879960
31
0.0000000000
0
SPLINE
5
24A
100
AcDbEntity
8
0
100
AcDbSpline
62
7
6
CONTINUOUS
70
0
71
3
72
8
73
4
74
2
42
0.0000001000
43
0.0000001000
44
0.0000000001
12
-0.0168276708
22
-0.0069802424
32
0.0000000000
13
-0.0153963127
23
-0.0097468484
33
0.0000000000
40
0.0000000000
40
0.0000000000
40
0.0000000000
40
0.0000000000
40
1.0000000000
40
1.0000000000
40
1.0000000000
40
1.0000000000
10
-2.1749582703
20
-7.9541879960
30
0.0000000000
10
-2.1805674939
20
-7.9565147434
30
0.0000000000
10
-2.1859819982
20
-7.9593164633
30
0.0000000000
10
-2.1911141024
20
-7.9625654128
30
0.0000000000
11
-2.1749582703
21
-7.9541879960
31
0.0000000000
11
-2.1911141024
21
-7.9625654128
31
0.0000000000
0
SPLINE
5
24B
100
AcDbEntity
8
0
100
AcDbSpline
62
7
6
CONTINUOUS
70
0
71
3
72
8
73
4
74
2
42
0.0000001000
43
0.0000001000
44
0.0000000001
12
-0.0028742650
22
-0.0018195932
32
0.0000000000
13
-0.0028135014
23
-0.0019125711
33
0.0000000000
40
0.0000000000
40
0.0000000000
40
0.0000000000
40
0.0000000000
40
1.0000000000
40
1.0000000000
40
1.0000000000
40
1.0000000000
10
-2.1911141024
20
-7.9625654128
30
0.0000000000
10
-2.1920721908
20
-7.9631719438
30
0.0000000000
10
-2.1930204371
20
-7.9637940615
30
0.0000000000
10
-2.1939582708
20
-7.9644315852
30
0.0000000000
11
-2.1911141024
21
-7.9625654128
31
0.0000000000
11
-2.1939582708
21
-7.9644315852
31
0.0000000000
0
SPLINE
5
24C
100
AcDbEntity
8
0
100
AcDbSpline
62
7
6
CONTINUOUS
70
0
71
3
72
8
73
4
74
2
42
0.0000001000
43
0.0000001000
44
0.0000000001
12
0.0325797637
22
0.0426702862
32
0.0000000000
13
0.0325953313
23
0.0426583987
33
0.0000000000
40
0.0000000000
40
0.0000000000
40
0.0000000000
40
0.0000000000
40
1.0000000000
40
1.0000000000
40
1.0000000000
40
1.0000000000
10
-2.2165702153
20
-8.9172020645
30
0.0000000000
10
-2.2057102940
20
-8.9029786357
30
0.0000000000
10
-2.1948477747
20
-8.8887571900
30
0.0000000000
10
-2.1839826643
20
-8.8745377238
30
0.0000000000
11
-2.2165702153
21
-8.9172020645
31
0.0000000000
11
-2.1839826643
21
-8.8745377238
31
0.0000000000
0
SPLINE
5
24D
100
AcDbEntity
8
0
100
AcDbSpline
62
7
6
CONTINUOUS
70
0
71
3
72
8
73
4
74
2
42
0.0000001000
43
0.0000001000
44
0.0000000001
12
0.0326211720
22
0.0426922170
32
0.0000000000
13
0.0326367224
23
0.0426803318
33
0.0000000000
40
0.0000000000
40
0.0000000000
40
0.0000000000
40
0.0000000000
40
1.0000000000
40
1.0000000000
40
1.0000000000
40
1.0000000000
10
-2.1839826643
20
-8.8745377238
30
0.0000000000
10
-2.1731089403
20
-8.8603069848
30
0.0000000000
10
-2.1622326211
20
-8.8460782284
30
0.0000000000
10
-2.1513537136
20
-8.8318514511
30
0.0000000000
11
-2.1839826643
21
-8.8745377238
31
0.0000000000
11
-2.1513537136
21
-8.8318514511
31
0.0000000000
0
SPLINE
5
24E
100
AcDbEntity
8
0
100
AcDbSpline
62
7
6
CONTINUOUS
70
0
71
3
72
8
73
4
74
2
42
0.0000001000
43
0.0000001000
44
0.0000000001
12
0.0326625667
22
0.0427141295
32
0.0000000000
13
0.0326780999
23
0.0427022467
33
0.0000000000
40
0.0000000000
40
0.0000000000
40
0.0000000000
40
0.0000000000
40
1.0000000000
40
1.0000000000
40
1.0000000000
40
1.0000000000
10
-2.1513537136
20
-8.8318514511
30
0.0000000000
10
-2.1404661914
20
-8.8176134080
30
0.0000000000
10
-2.1295760768
20
-8.8033773470
30
0.0000000000
10
-2.1186833768
20
-8.7891432648
30
0.0000000000
11
-2.1513537136
21
-8.8318514511
31
0.0000000000
11
-2.1186833768
21
-8.7891432648
31
0.0000000000
0
SPLINE
5
24F
100
AcDbEntity
8
0
100
AcDbSpline
62
7
6
CONTINUOUS
70
0
71
3
72
8
73
4
74
2
42
0.0000001000
43
0.0000001000
44
0.0000000001
12
0.0327039474
22
0.0427360231
32
0.0000000000
13
0.0327194640
23
0.0427241436
33
0.0000000000
40
0.0000000000
40
0.0000000000
40
0.0000000000
40
0.0000000000
40
1.0000000000
40
1.0000000000
40
1.0000000000
40
1.0000000000
10
-2.1186833768
20
-8.7891432648
30
0.0000000000
10
-2.1077820610
20
-8.7748979238
30
0.0000000000
10
-2.0968781557
20
-8.7606545646
30
0.0000000000
10
-2.0859716677
20
-8.7464131834
30
0.0000000000
11
-2.1186833768
21
-8.7891432648
31
0.0000000000
11
-2.0859716677
21
-8.7464131834
31
0.0000000000
0
SPLINE
5
250
100
AcDbEntity
8
0
100
AcDbSpline
62
7
6
CONTINUOUS
70
0
71
3
72
8
73
4
74
2
42
0.0000001000
43
0.0000001000
44
0.0000000001
12
0.0327453276
22
0.0427579155
32
0.0000000000
13
0.0327608285
23
0.0427460400
33
0.0000000000
40
0.0000000000
40
0.0000000000
40
0.0000000000
40
0.0000000000
40
1.0000000000
40
1.0000000000
40
1.0000000000
40
1.0000000000
10
-2.0859716677
20
-8.7464131834
30
0.0000000000
10
-2.0750565585
20
-8.7321605449
30
0.0000000000
10
-2.0641388625
20
-8.7179098875
30
0.0000000000
10
-2.0532185863
20
-8.7036612075
30
0.0000000000
11
-2.0859716677
21
-8.7464131834
31
0.0000000000
11
-2.0532185863
21
-8.7036612075
31
0.0000000000
0
SPLINE
5
251
100
AcDbEntity
8
0
100
AcDbSpline
62
7
6
CONTINUOUS
70
0
71
3
72
8
73
4
74
2
42
0.0000001000
43
0.0000001000
44
0.0000000001
12
0.0327866562
22
0.0427797397
32
0.0000000000
13
0.0328021412
23
0.0427678683
33
0.0000000000
40
0.0000000000
40
0.0000000000
40
0.0000000000
40
0.0000000000
40
1.0000000000
40
1.0000000000
40
1.0000000000
40
1.0000000000
10
-2.0532185863
20
-8.7036612075
30
0.0000000000
10
-2.0422897009
20
-8.6894012943
30
0.0000000000
10
-2.0313582313
20
-8.6751433615
30
0.0000000000
10
-2.0204241843
20
-8.6608874054
30
0.0000000000
11
-2.0532185863
21
-8.7036612075
31
0.0000000000
11
-2.0204241843
21
-8.6608874054
31
0.0000000000
0
SPLINE
5
252
100
AcDbEntity
8
0
100
AcDbSpline
62
7
6
CONTINUOUS
70
0
71
3
72
8
73
4
74
2
42
0.0000001000
43
0.0000001000
44
0.0000000001
12
0.0328279840
22
0.0428015625
32
0.0000000000
13
0.0328434526
23
0.0427896944
33
0.0000000000
40
0.0000000000
40
0.0000000000
40
0.0000000000
40
0.0000000000
40
1.0000000000
40
1.0000000000
40
1.0000000000
40
1.0000000000
10
-2.0204241843
20
-8.6608874054
30
0.0000000000
10
-2.0094815229
20
-8.6466202179
30
0.0000000000
10
-1.9985362801
20
-8.6323550102
30
0.0000000000
10
-1.9875884626
20
-8.6180917787
30
0.0000000000
11
-2.0204241843
21
-8.6608874054
31
0.0000000000
11
-1.9875884626
21
-8.6180917787
31
0.0000000000
0
SPLINE
5
253
100
AcDbEntity
8
0
100
AcDbSpline
62
7
6
CONTINUOUS
70
0
71
3
72
8
73
4
74
2
42
0.0000001000
43
0.0000001000
44
0.0000000001
12
0.0328693001
22
0.0428233695
32
0.0000000000
13
0.0328847518
23
0.0428115038
33
0.0000000000
40
0.0000000000
40
0.0000000000
40
0.0000000000
40
0.0000000000
40
1.0000000000
40
1.0000000000
40
1.0000000000
40
1.0000000000
10
-1.9875884626
20
-8.6180917787
30
0.0000000000
10
-1.9766320292
20
-8.6038173222
30
0.0000000000
10
-1.9656730171
20
-8.5895448451
30
0.0000000000
10
-1.9547114332
20
-8.5752743438
30
0.0000000000
11
-1.9875884626
21
-8.6180917787
31
0.0000000000
11
-1.9547114332
21
-8.5752743438
31
0.0000000000
0
SPLINE
5
254
100
AcDbEntity
8
0
100
AcDbSpline
62
7
6
CONTINUOUS
70
0
71
3
72
8
73
4
74
2
42
0.0000001000
43
0.0000001000
44
0.0000000001
12
0.0329106037
22
0.0428451595
32
0.0000000000
13
0.0329260383
23
0.0428332962
33
0.0000000000
40
0.0000000000
40
0.0000000000
40
0.0000000000
40
0.0000000000
40
1.0000000000
40
1.0000000000
40
1.0000000000
40
1.0000000000
10
-1.9547114332
20
-8.5752743438
30
0.0000000000
10
-1.9437412319
20
-8.5609926240
30
0.0000000000
10
-1.9327684548
20
-8.5467128831
30
0.0000000000
10
-1.9217931087
20
-8.5324351177
30
0.0000000000
11
-1.9547114332
21
-8.5752743438
31
0.0000000000
11
-1.9217931087
21
-8.5324351177
31
0.0000000000
0
SPLINE
5
255
100
AcDbEntity
8
0
100
AcDbSpline
62
7
6
CONTINUOUS
70
0
71
3
72
9
73
5
74
3
42
0.0000001000
43
0.0000001000
44
0.0000000001
12
-0.1158718602
22
0.0579356465
32
0.0000000000
13
-0.1279146717
23
0.0214431468
33
0.0000000000
40
0.0000000000
40
0.0000000000
40
0.0000000000
40
0.0000000000
40
0.5428979471
40
1.0000000000
40
1.0000000000
40
1.0000000000
40
1.0000000000
10
2.5424748029
20
-10.7562285390
30
0.0000000000
10
2.5215059379
20
-10.7457441578
30
0.0000000000
10
2.4815647965
20
-10.7288783564
30
0.0000000000
10
2.4395640716
20
-10.7181203062
30
0.0000000000
10
2.4200740519
20
-10.7148530708
30
0.0000000000
11
2.5424748029
21
-10.7562285390
31
0.0000000000
11
2.4775309727
21
-10.7292315274
31
0.0000000000
11
2.4200740519
21
-10.7148530708
31
0.0000000000
0
SPLINE
5
256
100
AcDbEntity
8
0
100
AcDbSpline
62
7
6
CONTINUOUS
70
0
71
3
72
9
73
5
74
3
42
0.0000001000
43
0.0000001000
44
0.0000000001
12
-0.0172060303
22
0.0028843559
32
0.0000000000
13
-0.0173393845
23
0.0019965108
33
0.0000000000
40
0.0000000000
40
0.0000000000
40
0.0000000000
40
0.0000000000
40
0.3042766136
40
1.0000000000
40
1.0000000000
40
1.0000000000
40
1.0000000000
10
2.4200740519
20
-10.7148530708
30
0.0000000000
10
2.4183289211
20
-10.7145605234
30
0.0000000000
10
2.4125858995
20
-10.7136425549
30
0.0000000000
10
2.4068187211
20
-10.7128703946
30
0.0000000000
10
2.4027975827
20
-10.7124073882
30
0.0000000000
11
2.4200740519
21
-10.7148530708
31
0.0000000000
11
2.4148317502
21
-10.7140153903
31
0.0000000000
11
2.4027975827
21
-10.7124073882
31
0.0000000000
0
SPLINE
5
257
100
AcDbEntity
8
0
100
AcDbSpline
62
7
6
CONTINUOUS
70
0
71
3
72
8
73
4
74
2
42
0.0000001000
43
0.0000001000
44
0.0000000001
12
-0.0120664819
22
0.0013893723
32
0.0000000000
13
-0.0121104222
23
0.0009330332
33
0.0000000000
40
0.0000000000
40
0.0000000000
40
0.0000000000
40
0.0000000000
40
1.0000000000
40
1.0000000000
40
1.0000000000
40
1.0000000000
10
2.4027975827
20
-10.7124073882
30
0.0000000000
10
2.3987754220
20
-10.7119442641
30
0.0000000000
10
2.3947444794
20
-10.7115553812
30
0.0000000000
10
2.3907076720
20
-10.7112443702
30
0.0000000000
11
2.4027975827
21
-10.7124073882
31
0.0000000000
11
2.3907076720
21
-10.7112443702
31
0.0000000000
0
SPLINE
5
258
100
AcDbEntity
8
0
100
AcDbSpline
62
7
6
CONTINUOUS
70
0
71
3
72
8
73
4
74
2
42
0.0000001000
43
0.0000001000
44
0.0000000001
12
-0.0323300931
22
0.0024908340
32
0.0000000000
13
-0.0324143617
23
-0.0010462536
33
0.0000000000
40
0.0000000000
40
0.0000000000
40
0.0000000000
40
0.0000000000
40
1.0000000000
40
1.0000000000
40
1.0000000000
40
1.0000000000
10
2.3907076720
20
-10.7112443702
30
0.0000000000
10
2.3799309743
20
-10.7104140922
30
0.0000000000
10
2.3691124798
20
-10.7101387918
30
0.0000000000
10
2.3583076926
20
-10.7104875430
30
0.0000000000
11
2.3907076720
21
-10.7112443702
31
0.0000000000
11
2.3583076926
21
-10.7104875430
31
0.0000000000
0
SPLINE
5
259
100
AcDbEntity
8
0
100
AcDbSpline
62
7
6
CONTINUOUS
70
0
71
3
72
9
73
5
74
3
42
0.0000001000
43
0.0000001000
44
0.0000000001
12
-0.0087677032
22
-0.0002829993
32
0.0000000000
13
-0.0087574679
23
-0.0005607594
33
0.0000000000
40
0.0000000000
40
0.0000000000
40
0.0000000000
40
0.0000000000
40
0.4082994868
40
1.0000000000
40
1.0000000000
40
1.0000000000
40
1.0000000000
10
2.3583076926
20
-10.7104875430
30
0.0000000000
10
2.3571144097
20
-10.7105260592
30
0.0000000000
10
2.3541922514
20
-10.7106390344
30
0.0000000000
10
2.3512715446
20
-10.7107982259
30
0.0000000000
10
2.3495442785
20
-10.7109088264
30
0.0000000000
11
2.3583076926
21
-10.7104875430
31
0.0000000000
11
2.3547284202
21
-10.7106260193
31
0.0000000000
11
2.3495442785
21
-10.7109088264
31
0.0000000000
0
SPLINE
5
25A
100
AcDbEntity
8
0
100
AcDbSpline
62
7
6
CONTINUOUS
70
0
71
3
72
8
73
4
74
2
42
0.0000001000
43
0.0000001000
44
0.0000000001
12
-0.0315000405
22
-0.0020170149
32
0.0000000000
13
-0.0310205718
23
-0.0058072463
33
0.0000000000
40
0.0000000000
40
0.0000000000
40
0.0000000000
40
0.0000000000
40
1.0000000000
40
1.0000000000
40
1.0000000000
40
1.0000000000
10
2.3495442785
20
-10.7109088264
30
0.0000000000
10
2.3390442650
20
-10.7115811647
30
0.0000000000
10
2.3285781631
20
-10.7128598033
30
0.0000000000
10
2.3182379725
20
-10.7147955520
30
0.0000000000
11
2.3495442785
21
-10.7109088264
31
0.0000000000
11
2.3182379725
21
-10.7147955520
31
0.0000000000
0
SPLINE
5
25B
100
AcDbEntity
8
0
100
AcDbSpline
62
7
6
CONTINUOUS
70
0
71
3
72
8
73
4
74
2
42
0.0000001000
43
0.0000001000
44
0.0000000001
12
-0.0130569218
22
-0.0024443380
32
0.0000000000
13
-0.0129024965
23
-0.0031542130
33
0.0000000000
40
0.0000000000
40
0.0000000000
40
0.0000000000
40
0.0000000000
40
1.0000000000
40
1.0000000000
40
1.0000000000
40
1.0000000000
10
2.3182379725
20
-10.7147955520
30
0.0000000000
10
2.3138856653
20
-10.7156103313
30
0.0000000000
10
2.3095556653
20
-10.7165415287
30
0.0000000000
10
2.3052548331
20
-10.7175929330
30
0.0000000000
11
2.3182379725
21
-10.7147955520
31
0.0000000000
11
2.3052548331
21
-10.7175929330
31
0.0000000000
0
SPLINE
5
25C
100
AcDbEntity
8
0
100
AcDbSpline
62
7
6
CONTINUOUS
70
0
71
3
72
9
73
5
74
3
42
0.0000001000
43
0.0000001000
44
0.0000000001
12
-0.0248099201
22
-0.0060651652
32
0.0000000000
13
-0.0240102772
23
-0.0087463128
33
0.0000000000
40
0.0000000000
40
0.0000000000
40
0.0000000000
40
0.0000000000
40
0.2655025977
40
1.0000000000
40
1.0000000000
40
1.0000000000
40
1.0000000000
10
2.3052548331
20
-10.7175929330
30
0.0000000000
10
2.3030591337
20
-10.7181297054
30
0.0000000000
10
2.2948177939
20
-10.7202694325
30
0.0000000000
10
2.2866972513
20
-10.7228607723
30
0.0000000000
10
2.2808187559
20
-10.7250021536
30
0.0000000000
11
2.3052548331
21
-10.7175929330
31
0.0000000000
11
2.2986914546
21
-10.7192977465
31
0.0000000000
11
2.2808187559
21
-10.7250021536
31
0.0000000000
0
SPLINE
5
25D
100
AcDbEntity
8
0
100
AcDbSpline
62
7
6
CONTINUOUS
70
0
71
3
72
8
73
4
74
2
42
0.0000001000
43
0.0000001000
44
0.0000000001
12
-0.0135160291
22
-0.0049235340
32
0.0000000000
13
-0.0131846969
23
-0.0057549443
33
0.0000000000
40
0.0000000000
40
0.0000000000
40
0.0000000000
40
0.0000000000
40
1.0000000000
40
1.0000000000
40
1.0000000000
40
1.0000000000
10
2.2808187559
20
-10.7250021536
30
0.0000000000
10
2.2763134129
20
-10.7266433316
30
0.0000000000
10
2.2718585980
20
-10.7284243362
30
0.0000000000
10
2.2674636990
20
-10.7303426510
30
0.0000000000
11
2.2808187559
21
-10.7250021536
31
0.0000000000
11
2.2674636990
21
-10.7303426510
31
0.0000000000
0
SPLINE
5
25E
100
AcDbEntity
8
0
100
AcDbSpline
62
7
6
CONTINUOUS
70
0
71
3
72
9
73
5
74
3
42
0.0000001000
43
0.0000001000
44
0.0000000001
12
-0.0253554750
22
-0.0110673266
32
0.0000000000
13
-0.0238276224
23
-0.0140568822
33
0.0000000000
40
0.0000000000
40
0.0000000000
40
0.0000000000
40
0.0000000000
40
0.7946924594
40
1.0000000000
40
1.0000000000
40
1.0000000000
40
1.0000000000
10
2.2674636990
20
-10.7303426510
30
0.0000000000
10
2.2607470974
20
-10.7332743580
30
0.0000000000
10
2.2524713665
20
-10.7373670239
30
0.0000000000
10
2.2444702836
20
-10.7419532822
30
0.0000000000
10
2.2428396201
20
-10.7429152769
30
0.0000000000
11
2.2674636990
21
-10.7303426510
31
0.0000000000
11
2.2477672256
21
-10.7400909009
31
0.0000000000
11
2.2428396201
21
-10.7429152769
31
0.0000000000
0
SPLINE
5
25F
100
AcDbEntity
8
0
100
AcDbSpline
62
7
6
CONTINUOUS
70
0
71
3
72
8
73
4
74
2
42
0.0000001000
43
0.0000001000
44
0.0000000001
12
-0.0094618567
22
-0.0055819335
32
0.0000000000
13
-0.0091824761
23
-0.0060310766
33
0.0000000000
40
0.0000000000
40
0.0000000000
40
0.0000000000
40
0.0000000000
40
1.0000000000
40
1.0000000000
40
1.0000000000
40
1.0000000000
10
2.2428396201
20
-10.7429152769
30
0.0000000000
10
2.2396856678
20
-10.7447759214
30
0.0000000000
10
2.2365766785
20
-10.7467128857
30
0.0000000000
10
2.2335158532
20
-10.7487232446
30
0.0000000000
11
2.2428396201
21
-10.7429152769
31
0.0000000000
11
2.2335158532
21
-10.7487232446
31
0.0000000000
0
SPLINE
5
260
100
AcDbEntity
8
0
100
AcDbSpline
62
7
6
CONTINUOUS
70
0
71
3
72
8
73
4
74
2
42
0.0000001000
43
0.0000001000
44
0.0000000001
12
-0.0029258267
22
-0.0019216913
32
0.0000000000
13
-0.0028961767
23
-0.0019661162
33
0.0000000000
40
0.0000000000
40
0.0000000000
40
0.0000000000
40
0.0000000000
40
1.0000000000
40
1.0000000000
40
1.0000000000
40
1.0000000000
10
2.2335158532
20
-10.7487232446
30
0.0000000000
10
2.2325405776
20
-10.7493638084
30
0.0000000000
10
2.2315701919
20
-10.7500118236
30
0.0000000000
10
2.2306047997
20
-10.7506671957
30
0.0000000000
11
2.2335158532
21
-10.7487232446
31
0.0000000000
11
2.2306047997
21
-10.7506671957
31
0.0000000000
0
SPLINE
5
261
100
AcDbEntity
8
0
100
AcDbSpline
62
7
6
CONTINUOUS
70
0
71
3
72
24
73
20
74
18
42
0.0000001000
43
0.0000001000
44
0.0000000001
12
1.2152733052
22
0.4179945075
32
0.0000000000
13
-1.0442858954
23
0.7449250240
33
0.0000000000
40
0.0000000000
40
0.0000000000
40
0.0000000000
40
0.0000000000
40
0.0310092214
40
0.0735109676
40
0.1174041134
40
0.1642619957
40
0.2153283552
40
0.2706995019
40
0.3298834896
40
0.3930675385
40
0.4603706845
40
0.5304464048
40
0.6017311765
40
0.6738869587
40
0.7464498827
40
0.8181038493
40
0.8875461778
40
0.9540478538
40
1.0000000000
40
1.0000000000
40
1.0000000000
40
1.0000000000
10
2.8475343728
20
-11.8910514957
30
0.0000000000
10
2.8600959324
20
-11.8867309342
30
0.0000000000
10
2.8889899889
20
-11.8738869001
30
0.0000000000
10
2.9299155033
20
-11.8439926445
30
0.0000000000
10
2.9668115410
20
-11.7999602890
30
0.0000000000
10
2.9952361845
20
-11.7459907742
30
0.0000000000
10
3.0147417490
20
-11.6831200960
30
0.0000000000
10
3.0250014832
20
-11.6128440379
30
0.0000000000
10
3.0259701387
20
-11.5367032050
30
0.0000000000
10
3.0177223014
20
-11.4559097216
30
0.0000000000
10
3.0003253836
20
-11.3718421414
30
0.0000000000
10
2.9741272431
20
-11.2864758578
30
0.0000000000
10
2.9397970710
20
-11.2018147386
30
0.0000000000
10
2.8980446220
20
-11.1193650435
30
0.0000000000
10
2.8494308320
20
-11.0405812764
30
0.0000000000
10
2.7951230545
20
-10.9670382627
30
0.0000000000
10
2.7361804489
20
-10.9005655736
30
0.0000000000
10
2.6792774952
20
-10.8474180701
30
0.0000000000
10
2.6413104533
20
-10.8178623860
30
0.0000000000
10
2.6253147273
20
-10.8064520848
30
0.0000000000
11
2.8475343728
21
-11.8910514957
31
0.0000000000
11
2.8838910523
21
-11.8748497042
31
0.0000000000
11
2.9279313494
21
-11.8427617381
31
0.0000000000
11
2.9643675060
21
-11.7998760613
31
0.0000000000
11
2.9927516137
21
-11.7469292894
31
0.0000000000
11
3.0125942444
21
-11.6845379558
31
0.0000000000
11
3.0232531987
21
-11.6143530178
31
0.0000000000
11
3.0245475966
21
-11.5384860190
31
0.0000000000
11
3.0165780277
21
-11.4578726030
31
0.0000000000
11
2.9992861668
21
-11.3733356156
31
0.0000000000
11
2.9730551189
21
-11.2874082127
31
0.0000000000
11
2.9387854022
21
-11.2026845327
31
0.0000000000
11
2.8969943477
21
-11.1201534188
31
0.0000000000
11
2.8481494443
21
-11.0409770262
31
0.0000000000
11
2.7934784413
21
-10.9671506157
31
0.0000000000
11
2.7343201802
21
-10.9006176684
31
0.0000000000
11
2.6718739747
21
-10.8425684622
31
0.0000000000
11
2.6253147273
21
-10.8064520848
31
0.0000000000
0
SPLINE
5
262
100
AcDbEntity
8
0
100
AcDbSpline
62
7
6
CONTINUOUS
70
0
71
3
72
9
73
5
74
3
42
0.0000001000
43
0.0000001000
44
0.0000000001
12
-0.0789365035
22
0.0563081212
32
0.0000000000
13
-0.0866793734
23
0.0433394746
33
0.0000000000
40
0.0000000000
40
0.0000000000
40
0.0000000000
40
0.0000000000
40
0.2191682766
40
1.0000000000
40
1.0000000000
40
1.0000000000
40
1.0000000000
10
2.6253147273
20
-10.8064520848
30
0.0000000000
10
2.6195479348
20
-10.8023384335
30
0.0000000000
10
2.5929503931
20
-10.7839646611
30
0.0000000000
10
2.5650354710
20
-10.7675088179
30
0.0000000000
10
2.5424748029
20
-10.7562285390
30
0.0000000000
11
2.6253147273
21
-10.8064520848
31
0.0000000000
11
2.6078259801
21
-10.7943766646
31
0.0000000000
11
2.5424748029
21
-10.7562285390
31
0.0000000000
0
SPLINE
5
263
100
AcDbEntity
8
0
100
AcDbSpline
62
7
6
CONTINUOUS
70
0
71
3
72
8
73
4
74
2
42
0.0000001000
43
0.0000001000
44
0.0000000001
12
-0.0381950878
22
0.0776750910
32
0.0000000000
13
-0.0381550337
23
0.0776947829
33
0.0000000000
40
0.0000000000
40
0.0000000000
40
0.0000000000
40
0.0000000000
40
1.0000000000
40
1.0000000000
40
1.0000000000
40
1.0000000000
10
-1.8743601793
20
-9.6172311745
30
0.0000000000
10
-1.8870918752
20
-9.5913394775
30
0.0000000000
10
-1.8998168960
20
-9.5654444963
30
0.0000000000
10
-1.9125352406
20
-9.5395462353
30
0.0000000000
11
-1.8743601793
21
-9.6172311745
31
0.0000000000
11
-1.9125352406
21
-9.5395462353
31
0.0000000000
0
SPLINE
5
264
100
AcDbEntity
8
0
100
AcDbSpline
62
7
6
CONTINUOUS
70
0
71
3
72
8
73
4
74
2
42
0.0000001000
43
0.0000001000
44
0.0000000001
12
-0.0381572061
22
0.0776992065
32
0.0000000000
13
-0.0381171413
23
0.0777188730
33
0.0000000000
40
0.0000000000
40
0.0000000000
40
0.0000000000
40
0.0000000000
40
1.0000000000
40
1.0000000000
40
1.0000000000
40
1.0000000000
10
-1.9125352406
20
-9.5395462353
30
0.0000000000
10
-1.9252543093
20
-9.5136464998
30
0.0000000000
10
-1.9379667010
20
-9.4877434842
30
0.0000000000
10
-1.9506724148
20
-9.4618371932
30
0.0000000000
11
-1.9125352406
21
-9.5395462353
31
0.0000000000
11
-1.9506724148
21
-9.4618371932
31
0.0000000000
0
SPLINE
5
265
100
AcDbEntity
8
0
100
AcDbSpline
62
7
6
CONTINUOUS
70
0
71
3
72
8
73
4
74
2
42
0.0000001000
43
0.0000001000
44
0.0000000001
12
-0.0381193071
22
0.0777232890
32
0.0000000000
13
-0.0380792316
23
0.0777429299
33
0.0000000000
40
0.0000000000
40
0.0000000000
40
0.0000000000
40
0.0000000000
40
1.0000000000
40
1.0000000000
40
1.0000000000
40
1.0000000000
10
-1.9506724148
20
-9.4618371932
30
0.0000000000
10
-1.9633788505
20
-9.4359294302
30
0.0000000000
10
-1.9760786075
20
-9.4100183914
30
0.0000000000
10
-1.9887716847
20
-9.3841040814
30
0.0000000000
11
-1.9506724148
21
-9.4618371932
31
0.0000000000
11
-1.9887716847
21
-9.3841040814
31
0.0000000000
0
SPLINE
5
266
100
AcDbEntity
8
0
100
AcDbSpline
62
7
6
CONTINUOUS
70
0
71
3
72
8
73
4
74
2
42
0.0000001000
43
0.0000001000
44
0.0000000001
12
-0.0761649406
22
0.1554990844
32
0.0000000000
13
-0.0760045859
23
0.1555775201
33
0.0000000000
40
0.0000000000
40
0.0000000000
40
0.0000000000
40
0.0000000000
40
1.0000000000
40
1.0000000000
40
1.0000000000
40
1.0000000000
10
-1.9887716847
20
-9.3841040814
30
0.0000000000
10
-2.0141599982
20
-9.3322710533
30
0.0000000000
10
-2.0395215881
20
-9.2804249382
30
0.0000000000
10
-2.0648564501
20
-9.2285657649
30
0.0000000000
11
-1.9887716847
21
-9.3841040814
31
0.0000000000
11
-2.0648564501
21
-9.2285657649
31
0.0000000000
0
SPLINE
5
267
100
AcDbEntity
8
0
100
AcDbSpline
62
7
6
CONTINUOUS
70
0
71
3
72
8
73
4
74
2
42
0.0000001000
43
0.0000001000
44
0.0000000001
12
-0.0380054949
22
0.0777953143
32
0.0000000000
13
-0.0379653947
23
0.0778148943
33
0.0000000000
40
0.0000000000
40
0.0000000000
40
0.0000000000
40
0.0000000000
40
1.0000000000
40
1.0000000000
40
1.0000000000
40
1.0000000000
10
-2.0648564501
20
-9.2285657649
30
0.0000000000
10
-2.0775249484
20
-9.2026339934
30
0.0000000000
10
-2.0901867636
20
-9.1766989569
30
0.0000000000
10
-2.1028418952
20
-9.1507606587
30
0.0000000000
11
-2.0648564501
21
-9.2285657649
31
0.0000000000
11
-2.1028418952
21
-9.1507606587
31
0.0000000000
0
SPLINE
5
268
100
AcDbEntity
8
0
100
AcDbSpline
62
7
6
CONTINUOUS
70
0
71
3
72
8
73
4
74
2
42
0.0000001000
43
0.0000001000
44
0.0000000001
12
-0.0379675055
22
0.0778192208
32
0.0000000000
13
-0.0379273961
23
0.0778387784
33
0.0000000000
40
0.0000000000
40
0.0000000000
40
0.0000000000
40
0.0000000000
40
1.0000000000
40
1.0000000000
40
1.0000000000
40
1.0000000000
10
-2.1028418952
20
-9.1507606587
30
0.0000000000
10
-2.1154977303
20
-9.1248209185
30
0.0000000000
10
-2.1281468811
20
-9.0988779163
30
0.0000000000
10
-2.1407893465
20
-9.0729316569
30
0.0000000000
11
-2.1028418952
21
-9.1507606587
31
0.0000000000
11
-2.1407893465
21
-9.0729316569
31
0.0000000000
0
SPLINE
5
269
100
AcDbEntity
8
0
100
AcDbSpline
62
7
6
CONTINUOUS
70
0
71
3
72
8
73
4
74
2
42
0.0000001000
43
0.0000001000
44
0.0000000001
12
-0.0379295055
22
0.0778431077
32
0.0000000000
13
-0.0378893853
23
0.0778626399
33
0.0000000000
40
0.0000000000
40
0.0000000000
40
0.0000000000
40
0.0000000000
40
1.0000000000
40
1.0000000000
40
1.0000000000
40
1.0000000000
10
-2.1407893465
20
-9.0729316569
30
0.0000000000
10
-2.1534325150
20
-9.0469839543
30
0.0000000000
10
-2.1660689973
20
-9.0210329941
30
0.0000000000
10
-2.1786987924
20
-8.9950787808
30
0.0000000000
11
-2.1407893465
21
-9.0729316569
31
0.0000000000
11
-2.1786987924
21
-8.9950787808
31
0.0000000000
0
SPLINE
5
26A
100
AcDbEntity
8
0
100
AcDbSpline
62
7
6
CONTINUOUS
70
0
71
3
72
8
73
4
74
2
42
0.0000001000
43
0.0000001000
44
0.0000000001
12
-0.0378914879
22
0.0778669606
32
0.0000000000
13
-0.0378513568
23
0.0778864674
33
0.0000000000
40
0.0000000000
40
0.0000000000
40
0.0000000000
40
0.0000000000
40
1.0000000000
40
1.0000000000
40
1.0000000000
40
1.0000000000
10
-2.1786987924
20
-8.9950787808
30
0.0000000000
10
-2.1913292884
20
-8.9691231273
30
0.0000000000
10
-2.2039530963
20
-8.9431642203
30
0.0000000000
10
-2.2165702153
20
-8.9172020645
30
0.0000000000
11
-2.1786987924
21
-8.9950787808
31
0.0000000000
11
-2.2165702153
21
-8.9172020645
31
0.0000000000
0
SPLINE
5
26B
100
AcDbEntity
8
0
100
AcDbSpline
62
7
6
CONTINUOUS
70
0
71
3
72
8
73
4
74
2
42
0.0000001000
43
0.0000001000
44
0.0000000001
12
0.0070019899
22
0.0024015732
32
0.0000000000
13
0.0068131722
23
0.0028945277
33
0.0000000000
40
0.0000000000
40
0.0000000000
40
0.0000000000
40
0.0000000000
40
1.0000000000
40
1.0000000000
40
1.0000000000
40
1.0000000000
10
-0.3393085629
20
-10.8337999163
30
0.0000000000
10
-0.3369745662
20
-10.8329993919
30
0.0000000000
10
-0.3346686832
20
-10.8321168216
30
0.0000000000
10
-0.3323976258
20
-10.8311519790
30
0.0000000000
11
-0.3393085629
21
-10.8337999163
31
0.0000000000
11
-0.3323976258
21
-10.8311519790
31
0.0000000000
0
SPLINE
5
26C
100
AcDbEntity
8
0
100
AcDbSpline
62
7
6
CONTINUOUS
70
0
71
3
72
9
73
5
74
3
42
0.0000001000
43
0.0000001000
44
0.0000000001
12
0.0364173967
22
0.0154716718
32
0.0000000000
13
0.0277732151
23
0.0279850557
33
0.0000000000
40
0.0000000000
40
0.0000000000
40
0.0000000000
40
0.0000000000
40
0.2310474585
40
1.0000000000
40
1.0000000000
40
1.0000000000
40
1.0000000000
10
-0.3323976258
20
-10.8311519790
30
0.0000000000
10
-0.3295929102
20
-10.8299604156
30
0.0000000000
10
-0.3176836677
20
-10.8242600995
30
0.0000000000
10
-0.3070062449
20
-10.8162012332
30
0.0000000000
10
-0.2998874834
20
-10.8090281733
30
0.0000000000
11
-0.3323976258
21
-10.8311519790
31
0.0000000000
11
-0.3241554679
21
-10.8272004222
31
0.0000000000
11
-0.2998874834
21
-10.8090281733
31
0.0000000000
0
SPLINE
5
26D
100
AcDbEntity
8
0
100
AcDbSpline
62
7
6
CONTINUOUS
70
0
71
3
72
8
73
4
74
2
42
0.0000001000
43
0.0000001000
44
0.0000000001
12
-0.0125292267
22
0.0344191250
32
0.0000000000
13
-0.0150639014
23
0.0334129321
33
0.0000000000
40
0.0000000000
40
0.0000000000
40
0.0000000000
40
0.0000000000
40
1.0000000000
40
1.0000000000
40
1.0000000000
40
1.0000000000
10
0.7290058182
20
-11.0633872008
30
0.0000000000
10
0.7248294093
20
-11.0519141591
30
0.0000000000
10
0.7202129242
20
-11.0405949913
30
0.0000000000
10
0.7151916237
20
-11.0294573473
30
0.0000000000
11
0.7290058182
21
-11.0633872008
31
0.0000000000
11
0.7151916237
21
-11.0294573473
31
0.0000000000
0
SPLINE
5
26E
100
AcDbEntity
8
0
100
AcDbSpline
62
7
6
CONTINUOUS
70
0
71
3
72
18
73
14
74
12
42
0.0000001000
43
0.0000001000
44
0.0000000001
12
-0.1793647607
22
0.3978453139
32
0.0000000000
13
-0.3623754596
23
-0.2455594290
33
0.0000000000
40
0.0000000000
40
0.0000000000
40
0.0000000000
40
0.0000000000
40
0.0348861636
40
0.1540419230
40
0.2740719051
40
0.3908346938
40
0.5012209186
40
0.6043454995
40
0.6994831942
40
0.7859891562
40
0.8645479244
40
0.9370625352
40
1.0000000000
40
1.0000000000
40
1.0000000000
40
1.0000000000
10
0.7151916237
20
-11.0294573473
30
0.0000000000
10
0.7131058409
20
-11.0248309151
30
0.0000000000
10
0.7035875192
20
-11.0045409302
30
0.0000000000
10
0.6843171229
20
-10.9695961837
30
0.0000000000
10
0.6548550314
20
-10.9269426839
30
0.0000000000
10
0.6219172685
20
-10.8885691912
30
0.0000000000
10
0.5866694405
20
-10.8558024286
30
0.0000000000
10
0.5501341201
20
-10.8295201947
30
0.0000000000
10
0.5132164491
20
-10.8104103129
30
0.0000000000
10
0.4768816805
20
-10.7990505180
30
0.0000000000
10
0.4421495022
20
-10.7960783882
30
0.0000000000
10
0.4110900693
20
-10.8014822544
30
0.0000000000
10
0.3932026272
20
-10.8103355731
30
0.0000000000
10
0.3856002963
20
-10.8154872024
30
0.0000000000
11
0.7151916237
21
-11.0294573473
31
0.0000000000
11
0.7087272544
21
-11.0156739961
31
0.0000000000
11
0.6836390118
21
-10.9701630351
31
0.0000000000
11
0.6538482860
21
-10.9271170822
31
0.0000000000
11
0.6206010341
21
-10.8885437300
31
0.0000000000
11
0.5852296541
21
-10.8558843065
31
0.0000000000
11
0.5485842245
21
-10.8298080597
31
0.0000000000
11
0.5115991643
21
-10.8109995258
31
0.0000000000
11
0.4754749152
21
-10.8001156476
31
0.0000000000
11
0.4413092679
21
-10.7975453244
31
0.0000000000
11
0.4102076353
21
-10.8032812193
31
0.0000000000
11
0.3856002963
21
-10.8154872024
31
0.0000000000
0
SPLINE
5
26F
100
AcDbEntity
8
0
100
AcDbSpline
62
7
6
CONTINUOUS
70
0
71
3
72
8
73
4
74
2
42
0.0000001000
43
0.0000001000
44
0.0000000001
12
0.0160174406
22
0.0160706917
32
0.0000000000
13
0.0126673257
23
0.0189435726
33
0.0000000000
40
0.0000000000
40
0.0000000000
40
0.0000000000
40
0.0000000000
40
1.0000000000
40
1.0000000000
40
1.0000000000
40
1.0000000000
10
-0.9898632561
20
-9.9778068650
30
0.0000000000
10
-0.9845241092
20
-9.9724499678
30
0.0000000000
10
-0.9797385888
20
-9.9665162267
30
0.0000000000
10
-0.9755161469
20
-9.9602017025
30
0.0000000000
11
-0.9898632561
21
-9.9778068650
31
0.0000000000
11
-0.9755161469
21
-9.9602017025
31
0.0000000000
0
SPLINE
5
270
100
AcDbEntity
8
0
100
AcDbSpline
62
7
6
CONTINUOUS
70
0
71
3
72
22
73
18
74
16
42
0.0000001000
43
0.0000001000
44
0.0000000001
12
0.3873088885
22
0.5792078152
32
0.0000000000
13
-0.6462228949
23
-0.2589406312
33
0.0000000000
40
0.0000000000
40
0.0000000000
40
0.0000000000
40
0.0000000000
40
0.0138994182
40
0.0641736586
40
0.1204718483
40
0.1823293307
40
0.2487399729
40
0.3192150843
40
0.3928869629
40
0.4682162869
40
0.6175293325
40
0.7550013508
40
0.8171275704
40
0.8738980542
40
0.9254523358
40
0.9725424026
40
1.0000000000
40
1.0000000000
40
1.0000000000
40
1.0000000000
10
-0.9755161469
20
-9.9602017025
30
0.0000000000
10
-0.9737216908
20
-9.9575181520
30
0.0000000000
10
-0.9659062158
20
-9.9448106667
30
0.0000000000
10
-0.9553330665
20
-9.9188052772
30
0.0000000000
10
-0.9481876603
20
-9.8802866697
30
0.0000000000
10
-0.9475023815
20
-9.8374482850
30
0.0000000000
10
-0.9531844108
20
-9.7917127428
30
0.0000000000
10
-0.9649999447
20
-9.7443683772
30
0.0000000000
10
-0.9826275104
20
-9.6966689004
30
0.0000000000
10
-1.0131322902
20
-9.6346823673
30
0.0000000000
10
-1.0611869556
20
-9.5654015629
30
0.0000000000
10
-1.1206933843
20
-9.5096320193
30
0.0000000000
10
-1.1715898215
20
-9.4788277913
30
0.0000000000
10
-1.2083730557
20
-9.4640838783
30
0.0000000000
10
-1.2439879570
20
-9.4574715637
30
0.0000000000
10
-1.2734434732
20
-9.4591930986
30
0.0000000000
10
-1.2900858446
20
-9.4641669750
30
0.0000000000
10
-1.2960004206
20
-9.4665369376
30
0.0000000000
11
-0.9755161469
21
-9.9602017025
31
0.0000000000
11
-0.9704385945
21
-9.9519597815
31
0.0000000000
11
-0.9569370709
21
-9.9198013581
31
0.0000000000
11
-0.9494619072
21
-9.8814665446
31
0.0000000000
11
-0.9484829046
21
-9.8385641273
31
0.0000000000
11
-0.9539550673
21
-9.7928179175
31
0.0000000000
11
-0.9656544300
21
-9.7453462580
31
0.0000000000
11
-0.9832936069
21
-9.6973767610
31
0.0000000000
11
-1.0063360581
21
-9.6504713433
31
0.0000000000
11
-1.0657002146
21
-9.5655836551
31
0.0000000000
11
-1.1361926973
21
-9.5013461265
31
0.0000000000
11
-1.1732137509
21
-9.4792768378
31
0.0000000000
11
-1.2098962201
21
-9.4649403793
31
0.0000000000
11
-1.2451301954
21
-9.4587958146
31
0.0000000000
11
-1.2777217446
21
-9.4610396904
31
0.0000000000
11
-1.2960004206
21
-9.4665369376
31
0.0000000000
0
SPLINE
5
271
100
AcDbEntity
8
0
100
AcDbSpline
62
7
6
CONTINUOUS
70
0
71
3
72
9
73
5
74
3
42
0.0000001000
43
0.0000001000
44
0.0000000001
12
-0.0205860400
22
-0.0082487981
32
0.0000000000
13
-0.0183568467
23
-0.0124891590
33
0.0000000000
40
0.0000000000
40
0.0000000000
40
0.0000000000
40
0.0000000000
40
0.5166084345
40
1.0000000000
40
1.0000000000
40
1.0000000000
40
1.0000000000
10
-1.2960004206
20
-9.4665369376
30
0.0000000000
10
-1.2995453946
20
-9.4679574038
30
0.0000000000
10
-1.3062577727
20
-9.4710810932
30
0.0000000000
10
-1.3125912626
20
-9.4749299360
30
0.0000000000
10
-1.3155491109
20
-9.4769423207
30
0.0000000000
11
-1.2960004206
21
-9.4665369376
31
0.0000000000
11
-1.3063796176
21
-9.4713783844
31
0.0000000000
11
-1.3155491109
21
-9.4769423207
31
0.0000000000
0
SPLINE
5
272
100
AcDbEntity
8
0
100
AcDbSpline
62
7
6
CONTINUOUS
70
0
71
3
72
8
73
4
74
2
42
0.0000001000
43
0.0000001000
44
0.0000000001
12
0.0261757700
22
0.0090327081
32
0.0000000000
13
0.0229222601
23
0.0154925132
33
0.0000000000
40
0.0000000000
40
0.0000000000
40
0.0000000000
40
0.0000000000
40
1.0000000000
40
1.0000000000
40
1.0000000000
40
1.0000000000
10
0.6001777054
20
-9.7488586103
30
0.0000000000
10
0.6089029621
20
-9.7458477076
30
0.0000000000
10
0.6172495227
20
-9.7417107598
30
0.0000000000
10
0.6248902761
20
-9.7365465888
30
0.0000000000
11
0.6001777054
21
-9.7488586103
31
0.0000000000
11
0.6248902761
21
-9.7365465888
31
0.0000000000
0
SPLINE
5
273
100
AcDbEntity
8
0
100
AcDbSpline
62
7
6
CONTINUOUS
70
0
71
3
72
9
73
5
74
3
42
0.0000001000
43
0.0000001000
44
0.0000000001
12
0.0592816425
22
0.0400668006
32
0.0000000000
13
0.0278036847
23
0.0656589317
33
0.0000000000
40
0.0000000000
40
0.0000000000
40
0.0000000000
40
0.0000000000
40
0.4806822635
40
1.0000000000
40
1.0000000000
40
1.0000000000
40
1.0000000000
10
0.6248902761
20
-9.7365465888
30
0.0000000000
10
0.6343888208
20
-9.7301267887
30
0.0000000000
10
0.6518829150
20
-9.7134712506
30
0.0000000000
10
0.6637499278
20
-9.6924969635
30
0.0000000000
10
0.6685629100
20
-9.6811310142
30
0.0000000000
11
0.6248902761
21
-9.7365465888
31
0.0000000000
11
0.6499068546
21
-9.7131168747
31
0.0000000000
11
0.6685629100
21
-9.6811310142
31
0.0000000000
0
SPLINE
5
274
100
AcDbEntity
8
0
100
AcDbSpline
62
7
6
CONTINUOUS
70
0
71
3
72
8
73
4
74
2
42
0.0000001000
43
0.0000001000
44
0.0000000001
12
0.1072954031
22
0.1081159742
32
0.0000000000
13
0.1073732061
23
0.1080387117
33
0.0000000000
40
0.0000000000
40
0.0000000000
40
0.0000000000
40
0.0000000000
40
1.0000000000
40
1.0000000000
40
1.0000000000
40
1.0000000000
10
-1.3128392946
20
-10.3025516499
30
0.0000000000
10
-1.2770741602
20
-10.2665129918
30
0.0000000000
10
-1.2412960089
20
-10.2304872492
30
0.0000000000
10
-1.2055049402
20
-10.1944743453
30
0.0000000000
11
-1.3128392946
21
-10.3025516499
31
0.0000000000
11
-1.2055049402
21
-10.1944743453
31
0.0000000000
0
SPLINE
5
275
100
AcDbEntity
8
0
100
AcDbSpline
62
7
6
CONTINUOUS
70
0
71
3
72
8
73
4
74
2
42
0.0000001000
43
0.0000001000
44
0.0000000001
12
0.1076198551
22
0.1082868896
32
0.0000000000
13
0.1076974270
23
0.1082097402
33
0.0000000000
40
0.0000000000
40
0.0000000000
40
0.0000000000
40
0.0000000000
40
1.0000000000
40
1.0000000000
40
1.0000000000
40
1.0000000000
10
-1.2055049402
20
-10.1944743453
30
0.0000000000
10
-1.1696316551
20
-10.1583787155
30
0.0000000000
10
-1.1337453934
20
-10.1222959834
30
0.0000000000
10
-1.0978462510
20
-10.0862260700
30
0.0000000000
11
-1.2055049402
21
-10.1944743453
31
0.0000000000
11
-1.0978462510
21
-10.0862260700
31
0.0000000000
0
SPLINE
5
276
100
AcDbEntity
8
0
100
AcDbSpline
62
7
6
CONTINUOUS
70
0
71
3
72
8
73
4
74
2
42
0.0000001000
43
0.0000001000
44
0.0000000001
12
0.0359539985
22
0.0361250305
32
0.0000000000
13
0.0359626009
23
0.0361164670
33
0.0000000000
40
0.0000000000
40
0.0000000000
40
0.0000000000
40
0.0000000000
40
1.0000000000
40
1.0000000000
40
1.0000000000
40
1.0000000000
10
-1.0978462510
20
-10.0862260700
30
0.0000000000
10
-1.0858615849
20
-10.0741843931
30
0.0000000000
10
-1.0738754832
20
-10.0621441450
30
0.0000000000
10
-1.0618879495
20
-10.0501053226
30
0.0000000000
11
-1.0978462510
21
-10.0862260700
31
0.0000000000
11
-1.0618879495
21
-10.0501053226
31
0.0000000000
0
SPLINE
5
277
100
AcDbEntity
8
0
100
AcDbSpline
62
7
6
CONTINUOUS
70
0
71
3
72
8
73
4
74
2
42
0.0000001000
43
0.0000001000
44
0.0000000001
12
0.0359900335
22
0.0361440170
32
0.0000000000
13
0.0359986273
23
0.0361354573
33
0.0000000000
40
0.0000000000
40
0.0000000000
40
0.0000000000
40
0.0000000000
40
1.0000000000
40
1.0000000000
40
1.0000000000
40
1.0000000000
10
-1.0618879495
20
-10.0501053226
30
0.0000000000
10
-1.0498912717
20
-10.0380573170
30
0.0000000000
10
-1.0378931597
20
-10.0260107393
30
0.0000000000
10
-1.0258936173
20
-10.0139655869
30
0.0000000000
11
-1.0618879495
21
-10.0501053226
31
0.0000000000
11
-1.0258936173
21
-10.0139655869
31
0.0000000000
0
SPLINE
5
278
100
AcDbEntity
8
0
100
AcDbSpline
62
7
6
CONTINUOUS
70
0
71
3
72
8
73
4
74
2
42
0.0000001000
43
0.0000001000
44
0.0000000001
12
0.0360260670
22
0.0361630012
32
0.0000000000
13
0.0360346519
23
0.0361544454
33
0.0000000000
40
0.0000000000
40
0.0000000000
40
0.0000000000
40
0.0000000000
40
1.0000000000
40
1.0000000000
40
1.0000000000
40
1.0000000000
10
-1.0258936173
20
-10.0139655869
30
0.0000000000
10
-1.0138849283
20
-10.0019112532
30
0.0000000000
10
-1.0018748067
20
-9.9898583468
30
0.0000000000
10
-0.9898632561
20
-9.9778068650
30
0.0000000000
11
-1.0258936173
21
-10.0139655869
31
0.0000000000
11
-0.9898632561
21
-9.9778068650
31
0.0000000000
0
SPLINE
5
279
100
AcDbEntity
8
0
100
AcDbSpline
62
7
6
CONTINUOUS
70
0
71
3
72
8
73
4
74
2
42
0.0000001000
43
0.0000001000
44
0.0000000001
12
-0.0161574465
22
-0.0109611630
32
0.0000000000
13
-0.0164758960
23
-0.0104777553
33
0.0000000000
40
0.0000000000
40
0.0000000000
40
0.0000000000
40
0.0000000000
40
1.0000000000
40
1.0000000000
40
1.0000000000
40
1.0000000000
10
2.9794995357
20
-12.6865487768
30
0.0000000000
10
2.9741137202
20
-12.6902024978
30
0.0000000000
10
2.9686735947
20
-12.6937764669
30
0.0000000000
10
2.9631816294
20
-12.6972690520
30
0.0000000000
11
2.9794995357
21
-12.6865487768
31
0.0000000000
11
2.9631816294
21
-12.6972690520
31
0.0000000000
0
SPLINE
5
27A
100
AcDbEntity
8
0
100
AcDbSpline
62
7
6
CONTINUOUS
70
0
71
3
72
8
73
4
74
2
42
0.0000001000
43
0.0000001000
44
0.0000000001
12
-0.0598639794
22
0.1422861386
32
0.0000000000
13
-0.0527884454
23
0.1450155460
33
0.0000000000
40
0.0000000000
40
0.0000000000
40
0.0000000000
40
0.0000000000
40
1.0000000000
40
1.0000000000
40
1.0000000000
40
1.0000000000
10
0.7853493757
20
-11.2070712615
30
0.0000000000
10
0.7653947159
20
-11.1596425486
30
0.0000000000
10
0.7466019666
20
-11.1117257161
30
0.0000000000
10
0.7290058182
20
-11.0633872008
30
0.0000000000
11
0.7853493757
21
-11.2070712615
31
0.0000000000
11
0.7290058182
21
-11.0633872008
31
0.0000000000
0
SPLINE
5
27B
100
AcDbEntity
8
0
100
AcDbSpline
62
7
6
CONTINUOUS
70
0
71
3
72
8
73
4
74
2
42
0.0000001000
43
0.0000001000
44
0.0000000001
12
0.0482681730
22
0.0165929065
32
0.0000000000
13
0.0471977246
23
0.0194186059
33
0.0000000000
40
0.0000000000
40
0.0000000000
40
0.0000000000
40
0.0000000000
40
1.0000000000
40
1.0000000000
40
1.0000000000
40
1.0000000000
10
3.0928773250
20
-13.2989420910
30
0.0000000000
10
3.1089667160
20
-13.2934111221
30
0.0000000000
10
3.1248943407
20
-13.2874101581
30
0.0000000000
10
3.1406269155
20
-13.2809372895
30
0.0000000000
11
3.0928773250
21
-13.2989420910
31
0.0000000000
11
3.1406269155
21
-13.2809372895
31
0.0000000000
0
SPLINE
5
27C
100
AcDbEntity
8
0
100
AcDbSpline
62
7
6
CONTINUOUS
70
0
71
3
72
8
73
4
74
2
42
0.0000001000
43
0.0000001000
44
0.0000000001
12
0.0389094544
22
0.0160085548
32
0.0000000000
13
0.0380581483
23
0.0179360675
33
0.0000000000
40
0.0000000000
40
0.0000000000
40
0.0000000000
40
0.0000000000
40
1.0000000000
40
1.0000000000
40
1.0000000000
40
1.0000000000
10
3.1406269155
20
-13.2809372895
30
0.0000000000
10
3.1535967337
20
-13.2756011045
30
0.0000000000
10
3.1664339914
20
-13.2699442024
30
0.0000000000
10
3.1791200409
20
-13.2639655132
30
0.0000000000
11
3.1406269155
21
-13.2809372895
31
0.0000000000
11
3.1791200409
21
-13.2639655132
31
0.0000000000
0
SPLINE
5
27D
100
AcDbEntity
8
0
100
AcDbSpline
62
7
6
CONTINUOUS
70
0
71
3
72
9
73
5
74
3
42
0.0000001000
43
0.0000001000
44
0.0000000001
12
0.0606872410
22
0.0286007203
32
0.0000000000
13
0.0581968079
23
0.0333963823
33
0.0000000000
40
0.0000000000
40
0.0000000000
40
0.0000000000
40
0.0000000000
40
0.0873509062
40
1.0000000000
40
1.0000000000
40
1.0000000000
40
1.0000000000
10
3.1791200409
20
-13.2639655132
30
0.0000000000
10
3.1808870694
20
-13.2631327469
30
0.0000000000
10
3.2010825649
20
-13.2535277016
30
0.0000000000
10
3.2208869745
20
-13.2431040613
30
0.0000000000
10
3.2385913959
20
-13.2329443353
30
0.0000000000
11
3.1791200409
21
-13.2639655132
31
0.0000000000
11
3.1844122750
21
-13.2614484820
31
0.0000000000
11
3.2385913959
21
-13.2329443353
31
0.0000000000
0
SPLINE
5
27E
100
AcDbEntity
8
0
100
AcDbSpline
62
7
6
CONTINUOUS
70
0
71
3
72
8
73
4
74
2
42
0.0000001000
43
0.0000001000
44
0.0000000001
12
0.0261582567
22
0.0150109804
32
0.0000000000
13
0.0256038235
23
0.0159393743
33
0.0000000000
40
0.0000000000
40
0.0000000000
40
0.0000000000
40
0.0000000000
40
1.0000000000
40
1.0000000000
40
1.0000000000
40
1.0000000000
10
3.2385913959
20
-13.2329443353
30
0.0000000000
10
3.2473108148
20
-13.2279406752
30
0.0000000000
10
3.2559404746
20
-13.2227801784
30
0.0000000000
10
3.2644750825
20
-13.2174670537
30
0.0000000000
11
3.2385913959
21
-13.2329443353
31
0.0000000000
11
3.2644750825
21
-13.2174670537
31
0.0000000000
0
SPLINE
5
27F
100
AcDbEntity
8
0
100
AcDbSpline
62
7
6
CONTINUOUS
70
0
71
3
72
9
73
5
74
3
42
0.0000001000
43
0.0000001000
44
0.0000000001
12
0.0596088666
22
0.0371088339
32
0.0000000000
13
0.0563177442
23
0.0419128307
33
0.0000000000
40
0.0000000000
40
0.0000000000
40
0.0000000000
40
0.0000000000
40
0.9411745792
40
1.0000000000
40
1.0000000000
40
1.0000000000
40
1.0000000000
10
3.2644750825
20
-13.2174670537
30
0.0000000000
10
3.2831758658
20
-13.2058250900
30
0.0000000000
10
3.3025605973
20
-13.1926768749
30
0.0000000000
10
3.3213672686
20
-13.1787513751
30
0.0000000000
10
3.3224715736
20
-13.1779295285
30
0.0000000000
11
3.2644750825
21
-13.2174670537
31
0.0000000000
11
3.3191526476
21
-13.1803870322
31
0.0000000000
11
3.3224715736
21
-13.1779295285
31
0.0000000000
0
SPLINE
5
280
100
AcDbEntity
8
0
100
AcDbSpline
62
7
6
CONTINUOUS
70
0
71
3
72
8
73
4
74
2
42
0.0000001000
43
0.0000001000
44
0.0000000001
12
0.0116846955
22
0.1455939514
32
0.0000000000
13
0.0024786518
23
0.1460386577
33
0.0000000000
40
0.0000000000
40
0.0000000000
40
0.0000000000
40
0.0000000000
40
1.0000000000
40
1.0000000000
40
1.0000000000
40
1.0000000000
10
3.7693998442
20
-12.2154942138
30
0.0000000000
10
3.7732947427
20
-12.1669628967
30
0.0000000000
10
3.7755827202
20
-12.1183088224
30
0.0000000000
10
3.7764089374
20
-12.0696292699
30
0.0000000000
11
3.7693998442
21
-12.2154942138
31
0.0000000000
11
3.7764089374
21
-12.0696292699
31
0.0000000000
0
SPLINE
5
281
100
AcDbEntity
8
0
100
AcDbSpline
62
7
6
CONTINUOUS
70
0
71
3
72
10
73
6
74
4
42
0.0000001000
43
0.0000001000
44
0.0000000001
12
0.0079839276
22
0.4704017120
32
0.0000000000
13
-0.0694455502
23
0.4652518850
33
0.0000000000
40
0.0000000000
40
0.0000000000
40
0.0000000000
40
0.0000000000
40
0.1559849959
40
0.6527905205
40
1.0000000000
40
1.0000000000
40
1.0000000000
40
1.0000000000
10
3.7764089374
20
-12.0696292699
30
0.0000000000
10
3.7768240617
20
-12.0451707335
30
0.0000000000
10
3.7770170276
20
-11.9427858902
30
0.0000000000
10
3.7679062237
20
-11.7861025611
30
0.0000000000
10
3.7515750006
20
-11.6547334282
30
0.0000000000
10
3.7435376161
20
-11.6008868066
30
0.0000000000
11
3.7764089374
21
-12.0696292699
31
0.0000000000
11
3.7765656776
21
-11.9962467038
31
0.0000000000
11
3.7635491921
21
-11.7629661562
31
0.0000000000
11
3.7435376161
21
-11.6008868066
31
0.0000000000
0
SPLINE
5
282
100
AcDbEntity
8
0
100
AcDbSpline
62
7
6
CONTINUOUS
70
0
71
3
72
8
73
4
74
2
42
0.0000001000
43
0.0000001000
44
0.0000000001
12
-0.0028077678
22
0.0188106982
32
0.0000000000
13
-0.0029144063
23
0.0187945420
33
0.0000000000
40
0.0000000000
40
0.0000000000
40
0.0000000000
40
0.0000000000
40
1.0000000000
40
1.0000000000
40
1.0000000000
40
1.0000000000
10
3.7435376161
20
-11.6008868066
30
0.0000000000
10
3.7426016935
20
-11.5946165739
30
0.0000000000
10
3.7416478846
20
-11.5883489961
30
0.0000000000
10
3.7406764159
20
-11.5820841487
30
0.0000000000
11
3.7435376161
21
-11.6008868066
31
0.0000000000
11
3.7406764159
21
-11.5820841487
31
0.0000000000
0
SPLINE
5
283
100
AcDbEntity
8
0
100
AcDbSpline
62
7
6
CONTINUOUS
70
0
71
3
72
20
73
16
74
14
42
0.0000001000
43
0.0000001000
44
0.0000000001
12
-0.4852315589
22
3.1291810584
32
0.0000000000
13
-2.6488440042
23
1.7356360464
33
0.0000000000
40
0.0000000000
40
0.0000000000
40
0.0000000000
40
0.0000000000
40
0.0201305096
40
0.1007997766
40
0.1834091364
40
0.2679175680
40
0.3542409408
40
0.4411928243
40
0.5275738955
40
0.6132324385
40
0.6980554522
40
0.7810125240
40
0.8610941340
40
0.9382218460
40
1.0000000000
40
1.0000000000
40
1.0000000000
40
1.0000000000
10
3.7406764159
20
-11.5820841487
30
0.0000000000
10
3.7374204297
20
-11.5610868123
30
0.0000000000
10
3.7201233401
20
-11.4561001492
30
0.0000000000
10
3.6799890388
20
-11.2666020344
30
0.0000000000
10
3.6083127329
20
-11.0149287038
30
0.0000000000
10
3.5180911199
20
-10.7629589479
30
0.0000000000
10
3.4103151995
20
-10.5130020087
30
0.0000000000
10
3.2866711561
20
-10.2682867911
30
0.0000000000
10
3.1483650621
20
-10.0323485618
30
0.0000000000
10
2.9964944298
20
-9.8076033805
30
0.0000000000
10
2.8325418654
20
-9.5960654485
30
0.0000000000
10
2.6588034162
20
-9.4002674963
30
0.0000000000
10
2.4772093055
20
-9.2231355166
30
0.0000000000
10
2.2995128865
20
-9.0750019138
30
0.0000000000
10
2.1799146755
20
-8.9900052170
30
0.0000000000
10
2.1253677779
20
-8.9542637533
30
0.0000000000
11
3.7406764159
21
-11.5820841487
31
0.0000000000
11
3.7303218429
21
-11.5191870043
31
0.0000000000
11
3.6776060915
21
-11.2693046017
31
0.0000000000
11
3.6061375096
21
-11.0177350964
31
0.0000000000
11
3.5161410953
21
-10.7657899219
31
0.0000000000
11
3.4080795118
21
-10.5147803237
31
0.0000000000
11
3.2838766571
21
-10.2691215098
31
0.0000000000
11
3.1454968505
21
-10.0332528538
31
0.0000000000
11
2.9936048629
21
-9.8086064291
31
0.0000000000
11
2.8290174916
21
-9.5964258572
31
0.0000000000
11
2.6544591868
21
-9.4002082531
31
0.0000000000
11
2.4727188200
21
-9.2234489871
31
0.0000000000
11
2.2849352928
21
-9.0673829572
31
0.0000000000
11
2.1253677779
21
-8.9542637533
31
0.0000000000
0
SPLINE
5
284
100
AcDbEntity
8
0
100
AcDbSpline
62
7
6
CONTINUOUS
70
0
71
3
72
8
73
4
74
2
42
0.0000001000
43
0.0000001000
44
0.0000000001
12
-0.0087652393
22
0.0052452759
32
0.0000000000
13
-0.0087874714
23
0.0052078737
33
0.0000000000
40
0.0000000000
40
0.0000000000
40
0.0000000000
40
0.0000000000
40
1.0000000000
40
1.0000000000
40
1.0000000000
40
1.0000000000
10
2.0387761465
20
-8.8999867804
30
0.0000000000
10
2.0358544001
20
-8.8982383551
30
0.0000000000
10
2.0329289492
20
-8.8964961290
30
0.0000000000
10
2.0299997921
20
-8.8947601711
30
0.0000000000
11
2.0387761465
21
-8.8999867804
31
0.0000000000
11
2.0299997921
21
-8.8947601711
31
0.0000000000
0
SPLINE
5
285
100
AcDbEntity
8
0
100
AcDbSpline
62
7
6
CONTINUOUS
70
0
71
3
72
14
73
10
74
8
42
0.0000001000
43
0.0000001000
44
0.0000000001
12
-1.0463614629
22
0.5932712079
32
0.0000000000
13
-1.1240427610
23
-0.4310804064
33
0.0000000000
40
0.0000000000
40
0.0000000000
40
0.0000000000
40
0.0000000000
40
0.0879884814
40
0.2636808550
40
0.4295700814
40
0.5868562731
40
0.7361382654
40
0.8784902835
40
1.0000000000
40
1.0000000000
40
1.0000000000
40
1.0000000000
10
1.9910386961
20
-8.8721696613
30
0.0000000000
10
1.9603494441
20
-8.8547693171
30
0.0000000000
10
1.8671857153
20
-8.8047392249
30
0.0000000000
10
1.7095426451
20
-8.7346819509
30
0.0000000000
10
1.5182382735
20
-8.6748624877
30
0.0000000000
10
1.3312055765
20
-8.6418330824
30
0.0000000000
10
1.1507134955
20
-8.6357260838
30
0.0000000000
10
0.9856542779
20
-8.6563823528
30
0.0000000000
10
0.8837769116
20
-8.6864523291
30
0.0000000000
10
0.8382495392
20
-8.7039124818
30
0.0000000000
11
1.9910386961
21
-8.8721696613
31
0.0000000000
11
1.8977722234
21
-8.8221624089
31
0.0000000000
11
1.7044541833
21
-8.7369849293
31
0.0000000000
11
1.5138837414
21
-8.6780885805
31
0.0000000000
11
1.3275377339
21
-8.6458172058
31
0.0000000000
11
1.1481211967
21
-8.6404918993
31
0.0000000000
11
0.9783578958
21
-8.6623366880
31
0.0000000000
11
0.8382495392
21
-8.7039124818
31
0.0000000000
0
SPLINE
5
286
100
AcDbEntity
8
0
100
AcDbSpline
62
7
6
CONTINUOUS
70
0
71
3
72
8
73
4
74
2
42
0.0000001000
43
0.0000001000
44
0.0000000001
12
-0.0173253488
22
-0.0066444255
32
0.0000000000
13
-0.0171874754
23
-0.0069934247
33
0.0000000000
40
0.0000000000
40
0.0000000000
40
0.0000000000
40
0.0000000000
40
1.0000000000
40
1.0000000000
40
1.0000000000
40
1.0000000000
10
0.8382495392
20
-8.7039124818
30
0.0000000000
10
0.8324744229
20
-8.7061272903
30
0.0000000000
10
0.8267216356
20
-8.7084002310
30
0.0000000000
10
0.8209924772
20
-8.7107313725
30
0.0000000000
11
0.8382495392
21
-8.7039124818
31
0.0000000000
11
0.8209924772
21
-8.7107313725
31
0.0000000000
0
SPLINE
5
287
100
AcDbEntity
8
0
100
AcDbSpline
62
7
6
CONTINUOUS
70
0
71
3
72
8
73
4
74
2
42
0.0000001000
43
0.0000001000
44
0.0000000001
12
0.0160174409
22
0.0160706919
32
0.0000000000
13
0.0126673258
23
0.0189435729
33
0.0000000000
40
0.0000000000
40
0.0000000000
40
0.0000000000
40
0.0000000000
40
1.0000000000
40
1.0000000000
40
1.0000000000
40
1.0000000000
10
0.0230888002
20
-10.4842828932
30
0.0000000000
10
0.0284279472
20
-10.4789259959
30
0.0000000000
10
0.0332134677
20
-10.4729922547
30
0.0000000000
10
0.0374359096
20
-10.4666777304
30
0.0000000000
11
0.0230888002
21
-10.4842828932
31
0.0000000000
11
0.0374359096
21
-10.4666777304
31
0.0000000000
0
SPLINE
5
288
100
AcDbEntity
8
0
100
AcDbSpline
62
7
6
CONTINUOUS
70
0
71
3
72
22
73
18
74
16
42
0.0000001000
43
0.0000001000
44
0.0000000001
12
0.3873074426
22
0.5792056563
32
0.0000000000
13
-0.6462268702
23
-0.2589237014
33
0.0000000000
40
0.0000000000
40
0.0000000000
40
0.0000000000
40
0.0000000000
40
0.0138994668
40
0.0641738916
40
0.1204722872
40
0.1823299958
40
0.2487408808
40
0.3192162500
40
0.3928883981
40
0.4682179983
40
0.6175315937
40
0.7550041220
40
0.8171305732
40
0.8739012694
40
0.9254557446
40
0.9725459879
40
1.0000000000
40
1.0000000000
40
1.0000000000
40
1.0000000000
10
0.0374359096
20
-10.4666777304
30
0.0000000000
10
0.0392303652
20
-10.4639941805
30
0.0000000000
10
0.0470458396
20
-10.4512866965
30
0.0000000000
10
0.0576189884
20
-10.4252813094
30
0.0000000000
10
0.0647643952
20
-10.3867627047
30
0.0000000000
10
0.0654496752
20
-10.3439243231
30
0.0000000000
10
0.0597676478
20
-10.2981887841
30
0.0000000000
10
0.0479521164
20
-10.2508444214
30
0.0000000000
10
0.0303245538
20
-10.2031449472
30
0.0000000000
10
-0.0001802217
20
-10.1411584163
30
0.0000000000
10
-0.0482348817
20
-10.0718776123
30
0.0000000000
10
-0.1077413047
20
-10.0161080662
30
0.0000000000
10
-0.1586377383
20
-9.9853038332
30
0.0000000000
10
-0.1954209708
20
-9.9705599151
30
0.0000000000
10
-0.2310358715
20
-9.9639475940
30
0.0000000000
10
-0.2604905271
20
-9.9656690718
30
0.0000000000
10
-0.2771321148
20
-9.9706425021
30
0.0000000000
10
-0.2830459549
20
-9.9730120003
30
0.0000000000
11
0.0374359096
21
-10.4666777304
31
0.0000000000
11
0.0425134608
21
-10.4584358113
31
0.0000000000
11
0.0560149842
21
-10.4262773901
31
0.0000000000
11
0.0634901484
21
-10.3879425795
31
0.0000000000
11
0.0644691521
21
-10.3450401653
31
0.0000000000
11
0.0589969913
21
-10.2992939587
31
0.0000000000
11
0.0472976311
21
-10.2518223022
31
0.0000000000
11
0.0296584574
21
-10.2038528078
31
0.0000000000
11
0.0066160096
21
-10.1569473921
31
0.0000000000
11
-0.0527481396
21
-10.0720597047
31
0.0000000000
11
-0.1232406162
21
-10.0078221720
31
0.0000000000
11
-0.1602616674
21
-9.9857528794
31
0.0000000000
11
-0.1969441351
21
-9.9714164157
31
0.0000000000
11
-0.2321781102
21
-9.9652718444
31
0.0000000000
11
-0.2647696605
21
-9.9675157128
31
0.0000000000
11
-0.2830459549
21
-9.9730120003
31
0.0000000000
0
SPLINE
5
289
100
AcDbEntity
8
0
100
AcDbSpline
62
7
6
CONTINUOUS
70
0
71
3
72
9
73
5
74
3
42
0.0000001000
43
0.0000001000
44
0.0000000001
12
-0.0205886464
22
-0.0082492524
32
0.0000000000
13
-0.0183589903
23
-0.0124906156
33
0.0000000000
40
0.0000000000
40
0.0000000000
40
0.0000000000
40
0.0000000000
40
0.5166638630
40
1.0000000000
40
1.0000000000
40
1.0000000000
40
1.0000000000
10
-0.2830459549
20
-9.9730120003
30
0.0000000000
10
-0.2865917581
20
-9.9744326971
30
0.0000000000
10
-0.2933049645
20
-9.9775566653
30
0.0000000000
10
-0.2996391944
20
-9.9814059563
30
0.0000000000
10
-0.3025970489
20
-9.9834183449
30
0.0000000000
11
-0.2830459549
21
-9.9730120003
31
0.0000000000
11
-0.2934275358
21
-9.9778543989
31
0.0000000000
11
-0.3025970489
21
-9.9834183449
31
0.0000000000
0
SPLINE
5
28A
100
AcDbEntity
8
0
100
AcDbSpline
62
7
6
CONTINUOUS
70
0
71
3
72
9
73
5
74
3
42
0.0000001000
43
0.0000001000
44
0.0000000001
12
0.0443762356
22
0.0152423728
32
0.0000000000
13
0.0329309110
23
0.0331824159
33
0.0000000000
40
0.0000000000
40
0.0000000000
40
0.0000000000
40
0.0000000000
40
0.3474382165
40
1.0000000000
40
1.0000000000
40
1.0000000000
40
1.0000000000
10
-1.3522119964
20
-10.3273064718
30
0.0000000000
10
-1.3470726631
20
-10.3255412109
30
0.0000000000
10
-1.3326739368
20
-10.3193157669
30
0.0000000000
10
-1.3200023948
20
-10.3097695595
30
0.0000000000
10
-1.3128392435
20
-10.3025517006
30
0.0000000000
11
-1.3522119964
21
-10.3273064718
31
0.0000000000
11
-1.3372758217
21
-10.3208144362
31
0.0000000000
11
-1.3128392435
21
-10.3025517006
31
0.0000000000
0
SPLINE
5
28B
100
AcDbEntity
8
0
100
AcDbSpline
62
7
6
CONTINUOUS
70
0
71
3
72
8
73
4
74
2
42
0.0000001000
43
0.0000001000
44
0.0000000001
12
-0.0392371422
22
-0.0159652300
32
0.0000000000
13
-0.0384595510
23
-0.0177623432
33
0.0000000000
40
0.0000000000
40
0.0000000000
40
0.0000000000
40
0.0000000000
40
1.0000000000
40
1.0000000000
40
1.0000000000
40
1.0000000000
10
0.8209924772
20
-8.7107313725
30
0.0000000000
10
0.8079134298
20
-8.7160531158
30
0.0000000000
10
0.7949576027
20
-8.7216784304
30
0.0000000000
10
0.7821377524
20
-8.7275992115
30
0.0000000000
11
0.8209924772
21
-8.7107313725
31
0.0000000000
11
0.7821377524
21
-8.7275992115
31
0.0000000000
0
SPLINE
5
28C
100
AcDbEntity
8
0
100
AcDbSpline
62
7
6
CONTINUOUS
70
0
71
3
72
8
73
4
74
2
42
0.0000001000
43
0.0000001000
44
0.0000000001
12
-0.0468746215
22
-0.0216487997
32
0.0000000000
13
-0.0455934491
23
-0.0242380408
33
0.0000000000
40
0.0000000000
40
0.0000000000
40
0.0000000000
40
0.0000000000
40
1.0000000000
40
1.0000000000
40
1.0000000000
40
1.0000000000
10
0.7821377524
20
-8.7275992115
30
0.0000000000
10
0.7665128785
20
-8.7348154780
30
0.0000000000
10
0.7510899921
20
-8.7424706430
30
0.0000000000
10
0.7358921757
20
-8.7505499899
30
0.0000000000
11
0.7821377524
21
-8.7275992115
31
0.0000000000
11
0.7358921757
21
-8.7505499899
31
0.0000000000
0
SPLINE
5
28D
100
AcDbEntity
8
0
100
AcDbSpline
62
7
6
CONTINUOUS
70
0
71
3
72
9
73
5
74
3
42
0.0000001000
43
0.0000001000
44
0.0000000001
12
-0.0815347854
22
-0.0433448992
32
0.0000000000
13
-0.0768240432
23
-0.0512280271
33
0.0000000000
40
0.0000000000
40
0.0000000000
40
0.0000000000
40
0.0000000000
40
0.7759273535
40
1.0000000000
40
1.0000000000
40
1.0000000000
40
1.0000000000
10
0.7358921757
20
-8.7505499899
30
0.0000000000
10
0.7148038189
20
-8.7617608209
30
0.0000000000
10
0.6881840528
20
-8.7772616987
30
0.0000000000
10
0.6623864954
20
-8.7940538139
30
0.0000000000
10
0.6566484398
20
-8.7978800805
30
0.0000000000
11
0.7358921757
21
-8.7505499899
31
0.0000000000
11
0.6739888312
21
-8.7865933377
31
0.0000000000
11
0.6566484398
21
-8.7978800805
31
0.0000000000
0
SPLINE
5
28E
100
AcDbEntity
8
0
100
AcDbSpline
62
7
6
CONTINUOUS
70
0
71
3
72
8
73
4
74
2
42
0.0000001000
43
0.0000001000
44
0.0000000001
12
-0.0063238198
22
-0.0042168675
32
0.0000000000
13
-0.0062892527
23
-0.0042681953
33
0.0000000000
40
0.0000000000
40
0.0000000000
40
0.0000000000
40
0.0000000000
40
1.0000000000
40
1.0000000000
40
1.0000000000
40
1.0000000000
10
0.6566484398
20
-8.7978800805
30
0.0000000000
10
0.6545404999
20
-8.7992857030
30
0.0000000000
10
0.6524382916
20
-8.8006999103
30
0.0000000000
10
0.6503418741
20
-8.8021226421
30
0.0000000000
11
0.6566484398
21
-8.7978800805
31
0.0000000000
11
0.6503418741
21
-8.8021226421
31
0.0000000000
0
SPLINE
5
28F
100
AcDbEntity
8
0
100
AcDbSpline
62
7
6
CONTINUOUS
70
0
71
3
72
24
73
20
74
18
42
0.0000001000
43
0.0000001000
44
0.0000000001
12
1.2332569513
22
-0.6166284756
32
0.0000000000
13
-1.3070028115
23
-0.4494869740
33
0.0000000000
40
0.0000000000
40
0.0000000000
40
0.0000000000
40
0.0000000000
40
0.0548798707
40
0.1130117413
40
0.1748469589
40
0.2394164816
40
0.3733934977
40
0.4404860697
40
0.5067687505
40
0.5719272197
40
0.6345076676
40
0.6932580577
40
0.7482890731
40
0.7997747965
40
0.8472578020
40
0.8908276413
40
0.9316407815
40
0.9711601572
40
1.0000000000
40
1.0000000000
40
1.0000000000
40
1.0000000000
10
2.5424757605
20
-10.7562290178
30
0.0000000000
10
2.5650360878
20
-10.7675091814
30
0.0000000000
10
2.6099212258
20
-10.7939687766
30
0.0000000000
10
2.6740930877
20
-10.8425773471
30
0.0000000000
10
2.7361877706
20
-10.9005662366
30
0.0000000000
10
2.8156472796
20
-10.9902277186
30
0.0000000000
10
2.8842118018
20
-11.0921120655
30
0.0000000000
10
2.9397984503
20
-11.2018057292
30
0.0000000000
10
2.9741268818
20
-11.2864782177
30
0.0000000000
10
3.0003254757
20
-11.3718415398
30
0.0000000000
10
3.0177222787
20
-11.4559098696
30
0.0000000000
10
3.0259701442
20
-11.5367031690
30
0.0000000000
10
3.0250014818
20
-11.6128440466
30
0.0000000000
10
3.0147417493
20
-11.6831200939
30
0.0000000000
10
2.9952361844
20
-11.7459907747
30
0.0000000000
10
2.9668115410
20
-11.7999602889
30
0.0000000000
10
2.9299155033
20
-11.8439926445
30
0.0000000000
10
2.8889875314
20
-11.8738886952
30
0.0000000000
10
2.8600903903
20
-11.8867333977
30
0.0000000000
10
2.8475258051
20
-11.8910544423
30
0.0000000000
11
2.5424757605
21
-10.7562290178
31
0.0000000000
11
2.6078259801
21
-10.7943766646
31
0.0000000000
11
2.6718739747
21
-10.8425684622
31
0.0000000000
11
2.7343201802
21
-10.9006176684
31
0.0000000000
11
2.7934784413
21
-10.9671506157
31
0.0000000000
11
2.8969943477
21
-11.1201534188
31
0.0000000000
11
2.9387854022
21
-11.2026845327
31
0.0000000000
11
2.9730551189
21
-11.2874082127
31
0.0000000000
11
2.9992861668
21
-11.3733356156
31
0.0000000000
11
3.0165780277
21
-11.4578726030
31
0.0000000000
11
3.0245475966
21
-11.5384860190
31
0.0000000000
11
3.0232531987
21
-11.6143530178
31
0.0000000000
11
3.0125942444
21
-11.6845379558
31
0.0000000000
11
2.9927516137
21
-11.7469292894
31
0.0000000000
11
2.9643675060
21
-11.7998760613
31
0.0000000000
11
2.9279313494
21
-11.8427617381
31
0.0000000000
11
2.8838910523
21
-11.8748497042
31
0.0000000000
11
2.8475258051
21
-11.8910544423
31
0.0000000000
0
SPLINE
5
290
100
AcDbEntity
8
0
100
AcDbSpline
62
7
6
CONTINUOUS
70
0
71
3
72
9
73
5
74
3
42
0.0000001000
43
0.0000001000
44
0.0000000001
12
-0.0329323673
22
-0.0331842264
32
0.0000000000
13
-0.0443787002
23
-0.0152423767
33
0.0000000000
40
0.0000000000
40
0.0000000000
40
0.0000000000
40
0.0000000000
40
0.6525409287
40
1.0000000000
40
1.0000000000
40
1.0000000000
40
1.0000000000
10
-1.3128388622
20
-10.3025513165
30
0.0000000000
10
-1.3200021014
20
-10.3097693384
30
0.0000000000
10
-1.3326742532
20
-10.3193160588
30
0.0000000000
10
-1.3470737609
20
-10.3255416856
30
0.0000000000
10
-1.3522136883
20
-10.3273070529
30
0.0000000000
11
-1.3128388622
21
-10.3025513165
31
0.0000000000
11
-1.3372758217
21
-10.3208144362
31
0.0000000000
11
-1.3522136883
21
-10.3273070529
31
0.0000000000
0
SPLINE
5
291
100
AcDbEntity
8
0
100
AcDbSpline
62
7
6
CONTINUOUS
70
0
71
3
72
10
73
6
74
4
42
0.0000001000
43
0.0000001000
44
0.0000000001
12
-0.0385583738
22
-0.0910652219
32
0.0000000000
13
-0.0938929689
23
-0.0323878902
33
0.0000000000
40
0.0000000000
40
0.0000000000
40
0.0000000000
40
0.0000000000
40
0.3744947059
40
0.7221736567
40
1.0000000000
40
1.0000000000
40
1.0000000000
40
1.0000000000
10
0.6685650971
20
-9.6811258490
30
0.0000000000
10
0.6637517948
20
-9.6924936635
30
0.0000000000
10
0.6518662223
20
-9.7135018779
30
0.0000000000
10
0.6275913266
20
-9.7365927544
30
0.0000000000
10
0.6088608241
20
-9.7458634146
30
0.0000000000
10
0.6001655107
20
-9.7488628176
30
0.0000000000
11
0.6685650971
21
-9.6811258490
31
0.0000000000
11
0.6499068546
21
-9.7131168747
31
0.0000000000
11
0.6247999766
21
-9.7366075498
31
0.0000000000
11
0.6001655107
21
-9.7488628176
31
0.0000000000
0
SPLINE
5
292
100
AcDbEntity
8
0
100
AcDbSpline
62
7
6
CONTINUOUS
70
0
71
3
72
22
73
18
74
16
42
0.0000001000
43
0.0000001000
44
0.0000000001
12
1.0585586049
22
-2.9079744018
32
0.0000000000
13
2.5650636594
23
1.7401005243
33
0.0000000000
40
0.0000000000
40
0.0000000000
40
0.0000000000
40
0.0000000000
40
0.0705752082
40
0.1415025803
40
0.2132346995
40
0.2850003780
40
0.4250924976
40
0.5573021706
40
0.6193149550
40
0.6781046315
40
0.7334727558
40
0.7853858666
40
0.8339837830
40
0.8796502177
40
0.9229977135
40
0.9648752350
40
1.0000000000
40
1.0000000000
40
1.0000000000
40
1.0000000000
10
0.7290058320
20
-11.0633872388
30
0.0000000000
10
0.7539084967
20
-11.1317975385
30
0.0000000000
10
0.8086431695
20
-11.2672657654
30
0.0000000000
10
0.9050486010
20
-11.4651520880
30
0.0000000000
10
1.0149477863
20
-11.6572996241
30
0.0000000000
10
1.1764560833
20
-11.9014210709
30
0.0000000000
10
1.4015563472
20
-12.1772979590
30
0.0000000000
10
1.6561344586
20
-12.4121243186
30
0.0000000000
10
1.8689345257
20
-12.5637517918
30
0.0000000000
10
2.0261695712
20
-12.6554400052
30
0.0000000000
10
2.1824996705
20
-12.7263078832
30
0.0000000000
10
2.3360061931
20
-12.7755338704
30
0.0000000000
10
2.4849107171
20
-12.8022873173
30
0.0000000000
10
2.6274233697
20
-12.8061641459
30
0.0000000000
10
2.7617669783
20
-12.7867107815
30
0.0000000000
10
2.8799220213
20
-12.7461529388
30
0.0000000000
10
2.9494626175
20
-12.7069253694
30
0.0000000000
10
2.9794950369
20
-12.6865518288
30
0.0000000000
11
0.7290058320
21
-11.0633872388
31
0.0000000000
11
0.8108054618
21
-11.2658960702
31
0.0000000000
11
0.9068153898
21
-11.4632797957
31
0.0000000000
11
1.0169739078
21
-11.6560045009
31
0.0000000000
11
1.1396027980
21
-11.8411692533
31
0.0000000000
11
1.4144439149
21
-12.1764541270
31
0.0000000000
11
1.7167502764
21
-12.4521507591
31
0.0000000000
11
1.8732831922
21
-12.5631736628
31
0.0000000000
11
2.0307017186
21
-12.6543833425
31
0.0000000000
11
2.1869931740
21
-12.7246121610
31
0.0000000000
11
2.3401792548
21
-12.7730207263
31
0.0000000000
11
2.4883217498
21
-12.7989441771
31
0.0000000000
11
2.6296084404
21
-12.8020875286
31
0.0000000000
11
2.7622921676
21
-12.7823390406
31
0.0000000000
11
2.8847600178
21
-12.7399500755
31
0.0000000000
11
2.9794950369
21
-12.6865518288
31
0.0000000000
0
SPLINE
5
293
100
AcDbEntity
8
0
100
AcDbSpline
62
7
6
CONTINUOUS
70
0
71
3
72
9
73
5
74
3
42
0.0000001000
43
0.0000001000
44
0.0000000001
12
-0.0329495779
22
-0.0332015886
32
0.0000000000
13
-0.0443985884
23
-0.0152414579
33
0.0000000000
40
0.0000000000
40
0.0000000000
40
0.0000000000
40
0.0000000000
40
0.6481665385
40
1.0000000000
40
1.0000000000
40
1.0000000000
40
1.0000000000
10
-0.2998867197
20
-10.8090274037
30
0.0000000000
10
-0.3070056576
20
-10.8162007899
30
0.0000000000
10
-0.3196732338
20
-10.8257618469
30
0.0000000000
10
-0.3340746301
20
-10.8320031794
30
0.0000000000
10
-0.3392815998
20
-10.8337906643
30
0.0000000000
11
-0.2998867197
21
-10.8090274037
31
0.0000000000
11
-0.3241554679
21
-10.8272004222
31
0.0000000000
11
-0.3392815998
21
-10.8337906643
31
0.0000000000
0
SPLINE
5
294
100
AcDbEntity
8
0
100
AcDbSpline
62
7
6
CONTINUOUS
70
0
71
3
72
9
73
5
74
3
42
0.0000001000
43
0.0000001000
44
0.0000000001
12
0.0221654460
22
0.0150803536
32
0.0000000000
13
0.0252655872
23
0.0088720735
33
0.0000000000
40
0.0000000000
40
0.0000000000
40
0.0000000000
40
0.0000000000
40
0.4003331784
40
1.0000000000
40
1.0000000000
40
1.0000000000
40
1.0000000000
10
-0.3025970489
20
-9.9834183449
30
0.0000000000
10
-0.2996391944
20
-9.9814059563
30
0.0000000000
10
-0.2919916588
20
-9.9767585738
30
0.0000000000
10
-0.2837917056
20
-9.9731684630
30
0.0000000000
10
-0.2787413941
20
-9.9713950337
30
0.0000000000
11
-0.3025970489
21
-9.9834183449
31
0.0000000000
11
-0.2934275358
21
-9.9778543989
31
0.0000000000
11
-0.2787413941
21
-9.9713950337
31
0.0000000000
0
SPLINE
5
295
100
AcDbEntity
8
0
100
AcDbSpline
62
7
6
CONTINUOUS
70
0
71
3
72
10
73
6
74
4
42
0.0000001000
43
0.0000001000
44
0.0000000001
12
0.0708958051
22
0.0248952375
32
0.0000000000
13
0.0730012357
23
-0.0173753442
33
0.0000000000
40
0.0000000000
40
0.0000000000
40
0.0000000000
40
0.0000000000
40
0.1931570587
40
0.6294410982
40
1.0000000000
40
1.0000000000
40
1.0000000000
40
1.0000000000
10
-0.2787413941
20
-9.9713950337
30
0.0000000000
10
-0.2741767191
20
-9.9697921367
30
0.0000000000
10
-0.2589475552
20
-9.9655788928
30
0.0000000000
10
-0.2337356978
20
-9.9641053854
30
0.0000000000
10
-0.2137338700
20
-9.9672371328
30
0.0000000000
10
-0.2047167841
20
-9.9693833290
30
0.0000000000
11
-0.2787413941
21
-9.9713950337
31
0.0000000000
11
-0.2647696605
21
-9.9675157128
31
0.0000000000
11
-0.2321781102
21
-9.9652718444
31
0.0000000000
11
-0.2047167841
21
-9.9693833290
31
0.0000000000
0
SPLINE
5
296
100
AcDbEntity
8
0
100
AcDbSpline
62
7
6
CONTINUOUS
70
0
71
3
72
20
73
16
74
14
42
0.0000001000
43
0.0000001000
44
0.0000000001
12
0.6209972179
22
-0.1478062711
32
0.0000000000
13
-0.4496608922
23
-0.4511557434
33
0.0000000000
40
0.0000000000
40
0.0000000000
40
0.0000000000
40
0.0000000000
40
0.0125884292
40
0.0744189876
40
0.1420826490
40
0.2918078377
40
0.4544294647
40
0.5364730462
40
0.6167114503
40
0.6934681527
40
0.7657981112
40
0.8331690776
40
0.8944852402
40
0.9492405271
40
1.0000000000
40
1.0000000000
40
1.0000000000
40
1.0000000000
10
-0.2047167841
20
-9.9693833290
30
0.0000000000
10
-0.2021109909
20
-9.9700035453
30
0.0000000000
10
-0.1867898417
20
-9.9740195529
30
0.0000000000
10
-0.1586377383
20
-9.9853038332
30
0.0000000000
10
-0.1077413047
20
-10.0161080662
30
0.0000000000
10
-0.0482348817
20
-10.0718776123
30
0.0000000000
10
-0.0001802217
20
-10.1411584163
30
0.0000000000
10
0.0303245538
20
-10.2031449472
30
0.0000000000
10
0.0479521164
20
-10.2508444214
30
0.0000000000
10
0.0597676478
20
-10.2981887841
30
0.0000000000
10
0.0654496752
20
-10.3439243231
30
0.0000000000
10
0.0647643952
20
-10.3867627047
30
0.0000000000
10
0.0576189884
20
-10.4252813094
30
0.0000000000
10
0.0441754129
20
-10.4583467085
30
0.0000000000
10
0.0306969770
20
-10.4766494237
30
0.0000000000
10
0.0230887938
20
-10.4842828996
30
0.0000000000
11
-0.2047167841
21
-9.9693833290
31
0.0000000000
11
-0.1969441351
21
-9.9714164157
31
0.0000000000
11
-0.1602616674
21
-9.9857528794
31
0.0000000000
11
-0.1232406162
21
-10.0078221720
31
0.0000000000
11
-0.0527481396
21
-10.0720597047
31
0.0000000000
11
0.0066160096
21
-10.1569473921
31
0.0000000000
11
0.0296584574
21
-10.2038528078
31
0.0000000000
11
0.0472976311
21
-10.2518223022
31
0.0000000000
11
0.0589969913
21
-10.2992939587
31
0.0000000000
11
0.0644691521
21
-10.3450401653
31
0.0000000000
11
0.0634901484
21
-10.3879425795
31
0.0000000000
11
0.0560149842
21
-10.4262773901
31
0.0000000000
11
0.0425134608
21
-10.4584358113
31
0.0000000000
11
0.0230887938
21
-10.4842828996
31
0.0000000000
0
SPLINE
5
297
100
AcDbEntity
8
0
100
AcDbSpline
62
7
6
CONTINUOUS
70
0
71
3
72
9
73
5
74
3
42
0.0000001000
43
0.0000001000
44
0.0000000001
12
0.0221654557
22
0.0150803625
32
0.0000000000
13
0.0252655999
23
0.0088720764
33
0.0000000000
40
0.0000000000
40
0.0000000000
40
0.0000000000
40
0.0000000000
40
0.4003321640
40
1.0000000000
40
1.0000000000
40
1.0000000000
40
1.0000000000
10
-1.3155491109
20
-9.4769423207
30
0.0000000000
10
-1.3125912626
20
-9.4749299360
30
0.0000000000
10
-1.3049437242
20
-9.4702825499
30
0.0000000000
10
-1.2967437672
20
-9.4666924365
30
0.0000000000
10
-1.2916934447
20
-9.4649190035
30
0.0000000000
11
-1.3155491109
21
-9.4769423207
31
0.0000000000
11
-1.3063796176
21
-9.4713783844
31
0.0000000000
11
-1.2916934447
21
-9.4649190035
31
0.0000000000
0
SPLINE
5
298
100
AcDbEntity
8
0
100
AcDbSpline
62
7
6
CONTINUOUS
70
0
71
3
72
10
73
6
74
4
42
0.0000001000
43
0.0000001000
44
0.0000000001
12
0.0708958078
22
0.0248952342
32
0.0000000000
13
0.0730012364
23
-0.0173753476
33
0.0000000000
40
0.0000000000
40
0.0000000000
40
0.0000000000
40
0.0000000000
40
0.1931565965
40
0.6294406197
40
1.0000000000
40
1.0000000000
40
1.0000000000
40
1.0000000000
10
-1.2916934447
20
-9.4649190035
30
0.0000000000
10
-1.2871287804
20
-9.4633161106
30
0.0000000000
10
-1.2718996284
20
-9.4591028682
30
0.0000000000
10
-1.2466877708
20
-9.4576293550
30
0.0000000000
10
-1.2266859307
20
-9.4607611033
30
0.0000000000
10
-1.2176688330
20
-9.4629073026
30
0.0000000000
11
-1.2916934447
21
-9.4649190035
31
0.0000000000
11
-1.2777217446
21
-9.4610396904
31
0.0000000000
11
-1.2451301954
21
-9.4587958146
31
0.0000000000
11
-1.2176688330
21
-9.4629073026
31
0.0000000000
0
SPLINE
5
299
100
AcDbEntity
8
0
100
AcDbSpline
62
7
6
CONTINUOUS
70
0
71
3
72
20
73
16
74
14
42
0.0000001000
43
0.0000001000
44
0.0000000001
12
0.6209972047
22
-0.1478062955
32
0.0000000000
13
-0.4496608868
23
-0.4511557380
33
0.0000000000
40
0.0000000000
40
0.0000000000
40
0.0000000000
40
0.0000000000
40
0.0125883707
40
0.0744189291
40
0.1420825915
40
0.2918077846
40
0.4544294212
40
0.5364730088
40
0.6167114195
40
0.6934681282
40
0.7657980929
40
0.8331690650
40
0.8944852326
40
0.9492405236
40
1.0000000000
40
1.0000000000
40
1.0000000000
40
1.0000000000
10
-1.2176688330
20
-9.4629073026
30
0.0000000000
10
-1.2150630520
20
-9.4635275161
30
0.0000000000
10
-1.1997419148
20
-9.4675435195
30
0.0000000000
10
-1.1715898215
20
-9.4788277913
30
0.0000000000
10
-1.1206933843
20
-9.5096320193
30
0.0000000000
10
-1.0611869556
20
-9.5654015629
30
0.0000000000
10
-1.0131322902
20
-9.6346823673
30
0.0000000000
10
-0.9826275104
20
-9.6966689004
30
0.0000000000
10
-0.9649999447
20
-9.7443683772
30
0.0000000000
10
-0.9531844108
20
-9.7917127428
30
0.0000000000
10
-0.9475023815
20
-9.8374482850
30
0.0000000000
10
-0.9481876603
20
-9.8802866697
30
0.0000000000
10
-0.9553330665
20
-9.9188052772
30
0.0000000000
10
-0.9687766423
20
-9.9518706787
30
0.0000000000
10
-0.9822550788
20
-9.9701733951
30
0.0000000000
10
-0.9898632625
20
-9.9778068715
30
0.0000000000
11
-1.2176688330
21
-9.4629073026
31
0.0000000000
11
-1.2098962201
21
-9.4649403793
31
0.0000000000
11
-1.1732137509
21
-9.4792768378
31
0.0000000000
11
-1.1361926973
21
-9.5013461265
31
0.0000000000
11
-1.0657002146
21
-9.5655836551
31
0.0000000000
11
-1.0063360581
21
-9.6504713433
31
0.0000000000
11
-0.9832936069
21
-9.6973767610
31
0.0000000000
11
-0.9656544300
21
-9.7453462580
31
0.0000000000
11
-0.9539550673
21
-9.7928179175
31
0.0000000000
11
-0.9484829046
21
-9.8385641273
31
0.0000000000
11
-0.9494619072
21
-9.8814665446
31
0.0000000000
11
-0.9569370709
21
-9.9198013581
31
0.0000000000
11
-0.9704385945
21
-9.9519597815
31
0.0000000000
11
-0.9898632625
21
-9.9778068715
31
0.0000000000
0
SPLINE
5
29A
100
AcDbEntity
8
0
100
AcDbSpline
62
7
6
CONTINUOUS
70
0
71
3
72
12
73
8
74
6
42
0.0000001000
43
0.0000001000
44
0.0000000001
12
-0.6185842626
22
-0.2127184233
32
0.0000000000
13
-0.2546550979
23
-0.6014321686
33
0.0000000000
40
0.0000000000
40
0.0000000000
40
0.0000000000
40
0.0000000000
40
0.1539794917
40
0.3566836889
40
0.5623565448
40
0.7745855893
40
1.0000000000
40
1.0000000000
40
1.0000000000
40
1.0000000000
10
1.1201257729
20
-9.2356935496
30
0.0000000000
10
1.0883760094
20
-9.2466116412
30
0.0000000000
10
1.0166101441
20
-9.2771017837
30
0.0000000000
10
0.9130724886
20
-9.3438247360
30
0.0000000000
10
0.8144308953
20
-9.4372432670
30
0.0000000000
10
0.7309735193
20
-9.5505530880
30
0.0000000000
10
0.6876995321
20
-9.6359354094
30
0.0000000000
10
0.6685652225
20
-9.6811259021
30
0.0000000000
11
1.1201257729
21
-9.2356935496
31
0.0000000000
11
1.0275496696
21
-9.2751413491
31
0.0000000000
11
0.9161515411
21
-9.3466800298
31
0.0000000000
11
0.8184300975
21
-9.4388482982
31
0.0000000000
11
0.7358590992
21
-9.5501821889
31
0.0000000000
11
0.6685652225
21
-9.6811259021
31
0.0000000000
0
SPLINE
5
29B
100
AcDbEntity
8
0
100
AcDbSpline
62
7
6
CONTINUOUS
70
0
71
3
72
18
73
14
74
12
42
0.0000001000
43
0.0000001000
44
0.0000000001
12
0.3927498535
22
0.2661074403
32
0.0000000000
13
0.1617135460
23
-0.4442445132
33
0.0000000000
40
0.0000000000
40
0.0000000000
40
0.0000000000
40
0.0000000000
40
0.0580598466
40
0.1249562770
40
0.1974285844
40
0.2772323646
40
0.3649991208
40
0.4601339670
40
0.5619678501
40
0.6696842630
40
0.7804147385
40
0.8903387232
40
1.0000000000
40
1.0000000000
40
1.0000000000
40
1.0000000000
10
0.3856004044
20
-10.8154873619
30
0.0000000000
10
0.3932014032
20
-10.8103373096
30
0.0000000000
10
0.4110911738
20
-10.8014811743
30
0.0000000000
10
0.4421492310
20
-10.7960787099
30
0.0000000000
10
0.4768817638
20
-10.7990504191
30
0.0000000000
10
0.5132164234
20
-10.8104103434
30
0.0000000000
10
0.5501341279
20
-10.8295201854
30
0.0000000000
10
0.5866694382
20
-10.8558024313
30
0.0000000000
10
0.6219172692
20
-10.8885691904
30
0.0000000000
10
0.6548550312
20
-10.9269426841
30
0.0000000000
10
0.6843171230
20
-10.9695961836
30
0.0000000000
10
0.7094926149
20
-11.0152491727
30
0.0000000000
10
0.7230945940
20
-11.0471484320
30
0.0000000000
10
0.7290058320
20
-11.0633872388
30
0.0000000000
11
0.3856004044
21
-10.8154873619
31
0.0000000000
11
0.4102076353
21
-10.8032812193
31
0.0000000000
11
0.4413092679
21
-10.7975453244
31
0.0000000000
11
0.4754749152
21
-10.8001156476
31
0.0000000000
11
0.5115991643
21
-10.8109995258
31
0.0000000000
11
0.5485842245
21
-10.8298080597
31
0.0000000000
11
0.5852296541
21
-10.8558843065
31
0.0000000000
11
0.6206010341
21
-10.8885437300
31
0.0000000000
11
0.6538482860
21
-10.9271170822
31
0.0000000000
11
0.6836390118
21
-10.9701630351
31
0.0000000000
11
0.7087272544
21
-11.0156739961
31
0.0000000000
11
0.7290058320
21
-11.0633872388
31
0.0000000000
0
SPLINE
5
29C
100
AcDbEntity
8
0
100
AcDbSpline
62
7
6
CONTINUOUS
70
0
71
3
72
16
73
12
74
10
42
0.0000001000
43
0.0000001000
44
0.0000000001
12
1.1720545303
22
0.7953962906
32
0.0000000000
13
1.2310291111
23
-0.6979749862
33
0.0000000000
40
0.0000000000
40
0.0000000000
40
0.0000000000
40
0.0000000000
40
0.0199663333
40
0.1360142821
40
0.2532927371
40
0.3742904166
40
0.5011784994
40
0.6348700654
40
0.7758741181
40
0.9252107401
40
1.0000000000
40
1.0000000000
40
1.0000000000
40
1.0000000000
10
0.6503497278
20
-8.8021173122
30
0.0000000000
10
0.6581502716
20
-8.7968235964
30
0.0000000000
10
0.7118351225
20
-8.7615658212
30
0.0000000000
10
0.8184754880
20
-8.7063751351
30
0.0000000000
10
0.9790755054
20
-8.6572056506
30
0.0000000000
10
1.1507134955
20
-8.6357260838
30
0.0000000000
10
1.3312055765
20
-8.6418330824
30
0.0000000000
10
1.5182382735
20
-8.6748624877
30
0.0000000000
10
1.7095426451
20
-8.7346819509
30
0.0000000000
10
1.8671857153
20
-8.8047392249
30
0.0000000000
10
1.9603494441
20
-8.8547693171
30
0.0000000000
10
1.9910386961
20
-8.8721696613
30
0.0000000000
11
0.6503497278
21
-8.8021173122
31
0.0000000000
11
0.6739888312
21
-8.7865933377
31
0.0000000000
11
0.8198183177
21
-8.7112100773
31
0.0000000000
11
0.9783578958
21
-8.6623366880
31
0.0000000000
11
1.1481211967
21
-8.6404918993
31
0.0000000000
11
1.3275377339
21
-8.6458172058
31
0.0000000000
11
1.5138837414
21
-8.6780885805
31
0.0000000000
11
1.7044541833
21
-8.7369849293
31
0.0000000000
11
1.8977722234
21
-8.8221624089
31
0.0000000000
11
1.9910386961
21
-8.8721696613
31
0.0000000000
0
SPLINE
5
29D
100
AcDbEntity
8
0
100
AcDbSpline
62
7
6
CONTINUOUS
70
0
71
3
72
8
73
4
74
2
42
0.0000001000
43
0.0000001000
44
0.0000000001
12
0.0476053250
22
-0.0269915031
32
0.0000000000
13
0.0469664300
23
-0.0280916071
33
0.0000000000
40
0.0000000000
40
0.0000000000
40
0.0000000000
40
0.0000000000
40
1.0000000000
40
1.0000000000
40
1.0000000000
40
1.0000000000
10
1.9910386961
20
-8.8721696613
30
0.0000000000
10
2.0069071378
20
-8.8811668290
30
0.0000000000
10
2.0226689454
20
-8.8903526585
30
0.0000000000
10
2.0383244221
20
-8.8997165275
30
0.0000000000
11
1.9910386961
21
-8.8721696613
31
0.0000000000
11
2.0383244221
21
-8.8997165275
31
0.0000000000
0
SPLINE
5
29E
100
AcDbEntity
8
0
100
AcDbSpline
62
7
6
CONTINUOUS
70
0
71
3
72
9
73
5
74
3
42
0.0000001000
43
0.0000001000
44
0.0000000001
12
0.0881656083
22
-0.0527337000
32
0.0000000000
13
0.0859221758
23
-0.0562998898
33
0.0000000000
40
0.0000000000
40
0.0000000000
40
0.0000000000
40
0.0000000000
40
0.6169233842
40
1.0000000000
40
1.0000000000
40
1.0000000000
40
1.0000000000
10
2.0383244221
20
-8.8997165275
30
0.0000000000
10
2.0564548972
20
-8.9105607451
30
0.0000000000
10
2.0856122726
20
-8.9285256986
30
0.0000000000
10
2.1143961858
20
-8.9470746962
30
0.0000000000
10
2.1253677779
20
-8.9542637533
30
0.0000000000
11
2.0383244221
21
-8.8997165275
31
0.0000000000
11
2.0922884929
21
-8.9329490289
31
0.0000000000
11
2.1253677779
21
-8.9542637533
31
0.0000000000
0
SPLINE
5
29F
100
AcDbEntity
8
0
100
AcDbSpline
62
7
6
CONTINUOUS
70
0
71
3
72
22
73
18
74
16
42
0.0000001000
43
0.0000001000
44
0.0000000001
12
3.1255535303
22
-2.0479965462
32
0.0000000000
13
-0.1904256332
23
-3.7319944129
33
0.0000000000
40
0.0000000000
40
0.0000000000
40
0.0000000000
40
0.0000000000
40
0.0523557479
40
0.1177199388
40
0.1855874990
40
0.2558919555
40
0.3277777604
40
0.4003716597
40
0.4735778871
40
0.5472678665
40
0.6204251957
40
0.6920443985
40
0.7620541761
40
0.8304197638
40
0.8962825812
40
0.9588286673
40
1.0000000000
40
1.0000000000
40
1.0000000000
40
1.0000000000
10
2.1253677779
20
-8.9542637533
30
0.0000000000
10
2.1799146755
20
-8.9900052170
30
0.0000000000
10
2.2995128865
20
-9.0750019138
30
0.0000000000
10
2.4772093055
20
-9.2231355166
30
0.0000000000
10
2.6588034162
20
-9.4002674963
30
0.0000000000
10
2.8325418654
20
-9.5960654485
30
0.0000000000
10
2.9964944298
20
-9.8076033805
30
0.0000000000
10
3.1483650621
20
-10.0323485618
30
0.0000000000
10
3.2866711561
20
-10.2682867911
30
0.0000000000
10
3.4103151995
20
-10.5130020087
30
0.0000000000
10
3.5180911199
20
-10.7629589479
30
0.0000000000
10
3.6083127329
20
-11.0149287038
30
0.0000000000
10
3.6799890388
20
-11.2666020344
30
0.0000000000
10
3.7327244379
20
-11.5155974918
30
0.0000000000
10
3.7663032603
20
-11.7585355480
30
0.0000000000
10
3.7785753412
20
-11.9695850368
30
0.0000000000
10
3.7763013951
20
-12.0988303403
30
0.0000000000
10
3.7736880360
20
-12.1500474015
30
0.0000000000
11
2.1253677779
21
-8.9542637533
31
0.0000000000
11
2.2849352928
21
-9.0673829572
31
0.0000000000
11
2.4727188200
21
-9.2234489871
31
0.0000000000
11
2.6544591868
21
-9.4002082531
31
0.0000000000
11
2.8290174916
21
-9.5964258572
31
0.0000000000
11
2.9936048629
21
-9.8086064291
31
0.0000000000
11
3.1454968505
21
-10.0332528538
31
0.0000000000
11
3.2838766571
21
-10.2691215098
31
0.0000000000
11
3.4080795118
21
-10.5147803237
31
0.0000000000
11
3.5161410953
21
-10.7657899219
31
0.0000000000
11
3.6061375096
21
-11.0177350964
31
0.0000000000
11
3.6776060915
21
-11.2693046017
31
0.0000000000
11
3.7303218429
21
-11.5191870043
31
0.0000000000
11
3.7635491921
21
-11.7629661562
31
0.0000000000
11
3.7765656776
21
-11.9962467038
31
0.0000000000
11
3.7736880360
21
-12.1500474015
31
0.0000000000
0
SPLINE
5
2A0
100
AcDbEntity
8
0
100
AcDbSpline
62
7
6
CONTINUOUS
70
0
71
3
72
15
73
11
74
9
42
0.0000001000
43
0.0000001000
44
0.0000000001
12
-0.0640165446
22
-1.2546072864
32
0.0000000000
13
-1.0885951176
23
-0.6298739032
33
0.0000000000
40
0.0000000000
40
0.0000000000
40
0.0000000000
40
0.0000000000
40
0.0540686088
40
0.2218046525
40
0.3796467364
40
0.5268927236
40
0.6654642545
40
0.7979583867
40
0.9258595014
40
1.0000000000
40
1.0000000000
40
1.0000000000
40
1.0000000000
10
3.7736880360
20
-12.1500474015
30
0.0000000000
10
3.7725342742
20
-12.1726590251
30
0.0000000000
10
3.7664333835
20
-12.2653481159
30
0.0000000000
10
3.7459660432
20
-12.4232228154
30
0.0000000000
10
3.6994633680
20
-12.6160599072
30
0.0000000000
10
3.6334663752
20
-12.7902594280
30
0.0000000000
10
3.5480425882
20
-12.9439068728
30
0.0000000000
10
3.4440157400
20
-13.0755452550
30
0.0000000000
10
3.3390541591
20
-13.1693861838
30
0.0000000000
10
3.2680921883
20
-13.2158810179
30
0.0000000000
10
3.2411891934
20
-13.2314474064
30
0.0000000000
11
3.7736880360
21
-12.1500474015
31
0.0000000000
11
3.7692118526
21
-12.2178211848
31
0.0000000000
11
3.7415923431
21
-12.4266453946
31
0.0000000000
11
3.6943050537
21
-12.6191402667
31
0.0000000000
11
3.6279693287
21
-12.7917432714
31
0.0000000000
11
3.5427969958
21
-12.9434928886
31
0.0000000000
11
3.4392442968
21
-13.0737278682
31
0.0000000000
11
3.3191526476
21
-13.1803870322
31
0.0000000000
11
3.2411891934
21
-13.2314474064
31
0.0000000000
0
SPLINE
5
2A1
100
AcDbEntity
8
0
100
AcDbSpline
62
7
6
CONTINUOUS
70
0
71
3
72
8
73
4
74
2
42
0.0000001000
43
0.0000001000
44
0.0000000001
12
0.0182821798
22
0.0124289297
32
0.0000000000
13
0.0204508380
23
0.0083771394
33
0.0000000000
40
0.0000000000
40
0.0000000000
40
0.0000000000
40
0.0000000000
40
1.0000000000
40
1.0000000000
40
1.0000000000
40
1.0000000000
10
-2.1939615126
20
-7.9644337889
30
0.0000000000
10
-2.1878674527
20
-7.9602908124
30
0.0000000000
10
-2.1813336824
20
-7.9567983699
30
0.0000000000
10
-2.1745167364
20
-7.9540059900
30
0.0000000000
11
-2.1939615126
21
-7.9644337889
31
0.0000000000
11
-2.1745167364
21
-7.9540059900
31
0.0000000000
0
SPLINE
5
2A2
100
AcDbEntity
8
0
100
AcDbSpline
62
7
6
CONTINUOUS
70
0
71
3
72
10
73
6
74
4
42
0.0000001000
43
0.0000001000
44
0.0000000001
12
0.0553818521
22
0.0226856962
32
0.0000000000
13
0.0594176722
23
-0.0060498875
33
0.0000000000
40
0.0000000000
40
0.0000000000
40
0.0000000000
40
0.0000000000
40
0.1914322018
40
0.7894312430
40
1.0000000000
40
1.0000000000
40
1.0000000000
40
1.0000000000
10
-2.1745167364
20
-7.9540059900
30
0.0000000000
10
-2.1709827798
20
-7.9525583991
30
0.0000000000
10
-2.1560955591
20
-7.9473646522
30
0.0000000000
10
-2.1360678016
20
-7.9449870813
30
0.0000000000
10
-2.1199854231
20
-7.9459402444
30
0.0000000000
10
-2.1158149213
20
-7.9463648835
30
0.0000000000
11
-2.1745167364
21
-7.9540059900
31
0.0000000000
11
-2.1637083676
21
-7.9502345357
31
0.0000000000
11
-2.1283693866
21
-7.9456388166
31
0.0000000000
11
-2.1158149213
21
-7.9463648835
31
0.0000000000
0
SPLINE
5
2A3
100
AcDbEntity
8
0
100
AcDbSpline
62
7
6
CONTINUOUS
70
0
71
3
72
9
73
5
74
3
42
0.0000001000
43
0.0000001000
44
0.0000000001
12
0.0694047328
22
-0.0070667667
32
0.0000000000
13
0.0622606572
23
-0.0311303286
33
0.0000000000
40
0.0000000000
40
0.0000000000
40
0.0000000000
40
0.0000000000
40
0.3791740039
40
1.0000000000
40
1.0000000000
40
1.0000000000
40
1.0000000000
10
-2.1158149213
20
-7.9463648835
30
0.0000000000
10
-2.1070427645
20
-7.9472580616
30
0.0000000000
10
-2.0841143973
20
-7.9516720611
30
0.0000000000
10
-2.0623874018
20
-7.9603103963
30
0.0000000000
10
-2.0495030570
20
-7.9667525687
30
0.0000000000
11
-2.1158149213
21
-7.9463648835
31
0.0000000000
11
-2.0898278076
21
-7.9512127544
31
0.0000000000
11
-2.0495030570
21
-7.9667525687
31
0.0000000000
0
SPLINE
5
2A4
100
AcDbEntity
8
0
100
AcDbSpline
62
7
6
CONTINUOUS
70
0
71
3
72
13
73
9
74
7
42
0.0000001000
43
0.0000001000
44
0.0000000001
12
0.2711193460
22
0.1840676429
32
0.0000000000
13
0.2923747448
23
-0.1461873724
33
0.0000000000
40
0.0000000000
40
0.0000000000
40
0.0000000000
40
0.0000000000
40
0.0615644268
40
0.2298369537
40
0.4033046512
40
0.5874637272
40
0.7848395307
40
1.0000000000
40
1.0000000000
40
1.0000000000
40
1.0000000000
10
2.2305981267
20
-10.7506717259
30
0.0000000000
10
2.2361618958
20
-10.7468943862
30
0.0000000000
10
2.2575522221
20
-10.7337047978
30
0.0000000000
10
2.2986585589
20
-10.7169796852
30
0.0000000000
10
2.3558298357
20
-10.7085159754
30
0.0000000000
10
2.4165664098
20
-10.7123670045
30
0.0000000000
10
2.4799304018
20
-10.7281881464
30
0.0000000000
10
2.5215065980
20
-10.7457444366
30
0.0000000000
10
2.5424757605
20
-10.7562290178
30
0.0000000000
11
2.2305981267
21
-10.7506717259
31
0.0000000000
11
2.2477672256
21
-10.7400909009
31
0.0000000000
11
2.2986914546
21
-10.7192977465
31
0.0000000000
11
2.3547284202
21
-10.7106260193
31
0.0000000000
11
2.4148317502
21
-10.7140153903
31
0.0000000000
11
2.4775309727
21
-10.7292315274
31
0.0000000000
11
2.5424757605
21
-10.7562290178
31
0.0000000000
0
SPLINE
5
2A5
100
AcDbEntity
8
0
100
AcDbSpline
62
7
6
CONTINUOUS
70
0
71
3
72
9
73
5
74
3
42
0.0000001000
43
0.0000001000
44
0.0000000001
12
0.0374834208
22
-0.2925082766
32
0.0000000000
13
0.1358780168
23
-0.2624548472
33
0.0000000000
40
0.0000000000
40
0.0000000000
40
0.0000000000
40
0.0000000000
40
0.7330811209
40
1.0000000000
40
1.0000000000
40
1.0000000000
40
1.0000000000
10
-6.4346276796
20
-13.5751323681
30
0.0000000000
10
-6.4254682169
20
-13.6466097999
30
0.0000000000
10
-6.4017468740
20
-13.7431285289
30
0.0000000000
10
-6.3609212507
20
-13.8329618590
30
0.0000000000
10
-6.3488317814
20
-13.8563132436
30
0.0000000000
11
-6.4346276796
21
-13.5751323681
31
0.0000000000
11
-6.3814969037
21
-13.7845291296
31
0.0000000000
11
-6.3488317814
21
-13.8563132436
31
0.0000000000
0
SPLINE
5
2A6
100
AcDbEntity
8
0
100
AcDbSpline
62
7
6
CONTINUOUS
70
0
71
3
72
10
73
6
74
4
42
0.0000001000
43
0.0000001000
44
0.0000000001
12
0.2048134409
22
-0.3956068952
32
0.0000000000
13
0.3994051903
23
-0.1987406643
33
0.0000000000
40
0.0000000000
40
0.0000000000
40
0.0000000000
40
0.0000000000
40
0.3403828796
40
0.8315001725
40
1.0000000000
40
1.0000000000
40
1.0000000000
40
1.0000000000
10
-6.3488317814
20
-13.8563132436
30
0.0000000000
10
-6.3255934518
20
-13.9011991816
30
0.0000000000
10
-6.2580640558
20
-14.0051905759
30
0.0000000000
10
-6.1465718296
20
-14.1059617000
30
0.0000000000
10
-6.0611290440
20
-14.1544987191
30
0.0000000000
10
-6.0386958088
20
-14.1656613083
30
0.0000000000
11
-6.3488317814
21
-13.8563132436
31
0.0000000000
11
-6.2660868384
21
-13.9829539501
31
0.0000000000
11
-6.1040053512
21
-14.1285308192
31
0.0000000000
11
-6.0386958088
21
-14.1656613083
31
0.0000000000
0
SPLINE
5
2A7
100
AcDbEntity
8
0
100
AcDbSpline
62
7
6
CONTINUOUS
70
0
71
3
72
10
73
6
74
4
42
0.0000001000
43
0.0000001000
44
0.0000000001
12
0.1486153144
22
-9.7573736574
32
0.0000000000
13
1.2323959504
23
-9.6803752886
33
0.0000000000
40
0.0000000000
40
0.0000000000
40
0.0000000000
40
0.0000000000
40
0.3378549538
40
0.6758289699
40
1.0000000000
40
1.0000000000
40
1.0000000000
40
1.0000000000
10
-7.1097891305
20
-3.8441042866
30
0.0000000000
10
-7.0930523237
20
-4.9429632953
30
0.0000000000
10
-7.0217003885
20
-7.1407134813
30
0.0000000000
10
-6.7976651420
20
-10.3864998238
30
0.0000000000
10
-6.5678651644
20
-12.5286938726
30
0.0000000000
10
-6.4346961429
20
-13.5747262823
30
0.0000000000
11
-7.1097891305
21
-3.8441042866
31
0.0000000000
11
-7.0017056164
21
-7.1392882282
31
0.0000000000
11
-6.7733508883
21
-10.4294809553
31
0.0000000000
11
-6.4346961429
21
-13.5747262823
31
0.0000000000
0
SPLINE
5
2A8
100
AcDbEntity
8
0
100
AcDbSpline
62
7
6
CONTINUOUS
70
0
71
3
72
10
73
6
74
4
42
0.0000001000
43
0.0000001000
44
0.0000000001
12
-0.2466228127
22
-16.4518466567
32
0.0000000000
13
0.2505802719
23
-16.4517870937
33
0.0000000000
40
0.0000000000
40
0.0000000000
40
0.0000000000
40
0.0000000000
40
0.3338615333
40
0.6700250302
40
1.0000000000
40
1.0000000000
40
1.0000000000
40
1.0000000000
10
-7.1097909463
20
12.6090329037
30
0.0000000000
10
-7.1372369031
20
10.7781533200
30
0.0000000000
10
-7.1742174470
20
7.1034712824
30
0.0000000000
10
-7.1743359871
20
1.6188224270
30
0.0000000000
10
-7.1373508681
20
-2.0345451344
30
0.0000000000
10
-7.1097891289
20
-3.8441044509
30
0.0000000000
11
-7.1097909463
21
12.6090329037
31
0.0000000000
11
-7.1649283960
21
7.1160539571
31
0.0000000000
11
-7.1648977347
21
1.5849233176
31
0.0000000000
11
-7.1097891289
21
-3.8441044509
31
0.0000000000
0
SPLINE
5
2A9
100
AcDbEntity
8
0
100
AcDbSpline
62
7
6
CONTINUOUS
70
0
71
3
72
10
73
6
74
4
42
0.0000001000
43
0.0000001000
44
0.0000000001
12
-1.1663606259
22
-10.3907594526
32
0.0000000000
13
-0.1567235711
23
-10.4548436177
33
0.0000000000
40
0.0000000000
40
0.0000000000
40
0.0000000000
40
0.0000000000
40
0.3365579361
40
0.6745715500
40
1.0000000000
40
1.0000000000
40
1.0000000000
40
1.0000000000
10
-6.4355788977
20
23.0396468856
30
0.0000000000
10
-6.5664282060
20
21.8739493672
30
0.0000000000
10
-6.7932365518
20
19.5333522210
30
0.0000000000
10
-7.0189265286
20
16.0547816613
30
0.0000000000
10
-7.0927901692
20
13.7431339751
30
0.0000000000
10
-7.1097909388
20
12.6090327907
30
0.0000000000
11
-6.4355788977
21
23.0396468856
31
0.0000000000
11
-6.7741864037
21
19.5369225781
31
0.0000000000
11
-7.0020733084
21
16.0100123137
31
0.0000000000
11
-7.1097909388
21
12.6090327907
31
0.0000000000
0
SPLINE
5
2AA
100
AcDbEntity
8
0
100
AcDbSpline
62
7
6
CONTINUOUS
70
0
71
3
72
12
73
8
74
6
42
0.0000001000
43
0.0000001000
44
0.0000000001
12
-0.9880475820
22
-0.5533563935
32
0.0000000000
13
-0.1261571630
23
-1.1245622070
33
0.0000000000
40
0.0000000000
40
0.0000000000
40
0.0000000000
40
0.0000000000
40
0.1460701574
40
0.3717280744
40
0.6053694266
40
0.8406730505
40
1.0000000000
40
1.0000000000
40
1.0000000000
40
1.0000000000
10
-5.8513394370
20
23.9634689054
30
0.0000000000
10
-5.8994475256
20
23.9365259535
30
0.0000000000
10
-6.0159522285
20
23.8567161336
30
0.0000000000
10
-6.1755558092
20
23.6915270060
30
0.0000000000
10
-6.3156473961
20
23.4684831984
30
0.0000000000
10
-6.4006129018
20
23.2461179531
30
0.0000000000
10
-6.4288860828
20
23.0992457578
30
0.0000000000
10
-6.4355861614
20
23.0395214024
30
0.0000000000
11
-5.8513394370
21
23.9634689054
31
0.0000000000
11
-5.9881517838
21
23.8704645174
31
0.0000000000
11
-6.1665815561
21
23.6883575912
31
0.0000000000
11
-6.3075770345
21
23.4651963065
31
0.0000000000
11
-6.4019655860
21
23.2166676020
31
0.0000000000
11
-6.4355861614
21
23.0395214024
31
0.0000000000
0
SPLINE
5
2AB
100
AcDbEntity
8
0
100
AcDbSpline
62
7
6
CONTINUOUS
70
0
71
3
72
11
73
7
74
5
42
0.0000001000
43
0.0000001000
44
0.0000000001
12
0.2107777979
22
0.1178606348
32
0.0000000000
13
0.2150399456
23
-0.1075199728
33
0.0000000000
40
0.0000000000
40
0.0000000000
40
0.0000000000
40
0.0000000000
40
0.1579985595
40
0.4151871091
40
0.6932458260
40
1.0000000000
40
1.0000000000
40
1.0000000000
40
1.0000000000
10
-3.1162343555
20
25.4946455198
30
0.0000000000
10
-3.1051334927
20
25.5008527899
30
0.0000000000
10
-3.0743174301
20
25.5142435999
30
0.0000000000
10
-3.0184630975
20
25.5223332628
30
0.0000000000
10
-2.9509268688
20
25.5127959941
30
0.0000000000
10
-2.9069183926
20
25.4955503896
30
0.0000000000
10
-2.8849302589
20
25.4845563227
30
0.0000000000
11
-3.1162343555
21
25.4946455198
31
0.0000000000
11
-3.0812978888
21
25.5098068911
31
0.0000000000
11
-3.0201890987
21
25.5192478542
31
0.0000000000
11
-2.9538838503
21
25.5107198464
31
0.0000000000
11
-2.8849302589
21
25.4845563227
31
0.0000000000
0
SPLINE
5
2AC
100
AcDbEntity
8
0
100
AcDbSpline
62
7
6
CONTINUOUS
70
0
71
3
72
11
73
7
74
5
42
0.0000001000
43
0.0000001000
44
0.0000000001
12
0.5966327385
22
-0.2986845533
32
0.0000000000
13
0.6107556806
23
0.2703660425
33
0.0000000000
40
0.0000000000
40
0.0000000000
40
0.0000000000
40
0.0000000000
40
0.2260380166
40
0.5069627439
40
0.8023481158
40
1.0000000000
40
1.0000000000
40
1.0000000000
40
1.0000000000
10
8.6512295445
20
-21.5106788278
30
0.0000000000
10
8.6961834382
20
-21.5331835158
30
0.0000000000
10
8.8028072011
20
-21.5728721799
30
0.0000000000
10
8.9817438851
20
-21.5936996592
30
0.0000000000
10
9.1536803772
20
-21.5690042226
30
0.0000000000
10
9.2574173586
20
-21.5318706420
30
0.0000000000
10
9.2976563623
20
-21.5140578561
30
0.0000000000
11
8.6512295445
21
-21.5106788278
31
0.0000000000
11
8.7925431922
21
-21.5633013886
31
0.0000000000
11
8.9784004490
21
-21.5854002418
31
0.0000000000
11
9.1733130924
21
-21.5582038441
31
0.0000000000
11
9.2976563623
21
-21.5140578561
31
0.0000000000
0
SPLINE
5
2AD
100
AcDbEntity
8
0
100
AcDbSpline
62
7
6
CONTINUOUS
70
0
71
3
72
15
73
11
74
9
42
0.0000001000
43
0.0000001000
44
0.0000000001
12
0.6579429531
22
-0.3289714766
32
0.0000000000
13
0.0000000000
23
-0.7356025842
33
0.0000000000
40
0.0000000000
40
0.0000000000
40
0.0000000000
40
0.0000000000
40
0.1103200629
40
0.2298775067
40
0.3567611492
40
0.4883322638
40
0.6215380562
40
0.7531889664
40
0.8802256901
40
1.0000000000
40
1.0000000000
40
1.0000000000
40
1.0000000000
10
11.9645544538
20
18.0598139664
30
0.0000000000
10
11.9887492231
20
18.0477165817
30
0.0000000000
10
12.0367063437
20
18.0174436443
30
0.0000000000
10
12.1025684875
20
17.9594350460
30
0.0000000000
10
12.1632134808
20
17.8889783528
30
0.0000000000
10
12.2163712114
20
17.8087120531
30
0.0000000000
10
12.2600759478
20
17.7216300637
30
0.0000000000
10
12.2926903682
20
17.6309822012
30
0.0000000000
10
12.3129948568
20
17.5401819988
30
0.0000000000
10
12.3179866905
20
17.4796022927
30
0.0000000000
10
12.3179866905
20
17.4502335288
30
0.0000000000
11
11.9645544538
21
18.0598139664
31
0.0000000000
11
12.0335081174
21
18.0170238450
31
0.0000000000
11
12.0998135092
21
17.9592464409
31
0.0000000000
11
12.1609224143
21
17.8886964690
31
0.0000000000
11
12.2144836363
21
17.8080841362
31
0.0000000000
11
12.2584369440
21
17.7205086496
31
0.0000000000
11
12.2910930172
21
17.6293379357
31
0.0000000000
11
12.3111989324
21
17.5380779652
31
0.0000000000
11
12.3179866905
21
17.4502335288
31
0.0000000000
0
SPLINE
5
2AE
100
AcDbEntity
8
0
100
AcDbSpline
62
7
6
CONTINUOUS
70
0
71
3
72
12
73
8
74
6
42
0.0000001000
43
0.0000001000
44
0.0000000001
12
0.0000000000
22
-0.3236722686
32
0.0000000000
13
-0.2971401766
23
-0.1319095818
33
0.0000000000
40
0.0000000000
40
0.0000000000
40
0.0000000000
40
0.0000000000
40
0.2513050338
40
0.4797469535
40
0.6867787291
40
0.8781009633
40
1.0000000000
40
1.0000000000
40
1.0000000000
40
1.0000000000
10
12.3179866905
20
-19.9623606800
30
0.0000000000
10
12.3179866905
20
-19.9894741701
30
0.0000000000
10
12.3140491853
20
-20.0413833751
30
0.0000000000
10
12.2945214033
20
-20.1133994516
30
0.0000000000
10
12.2619509418
20
-20.1735139721
30
0.0000000000
10
12.2218720801
20
-20.2140576443
30
0.0000000000
10
12.1922730997
20
-20.2310714551
30
0.0000000000
10
12.1801993992
20
-20.2364313387
30
0.0000000000
11
12.3179866905
21
-19.9623606800
31
0.0000000000
11
12.3111989180
21
-20.0434174395
31
0.0000000000
11
12.2910929279
21
-20.1145716331
31
0.0000000000
11
12.2584367231
21
-20.1730863488
31
0.0000000000
11
12.2144833064
21
-20.2167084724
31
0.0000000000
11
12.1801993992
21
-20.2364313387
31
0.0000000000
0
SPLINE
5
2AF
100
AcDbEntity
8
0
100
AcDbSpline
62
7
6
CONTINUOUS
70
0
71
3
72
10
73
6
74
4
42
0.0000001000
43
0.0000001000
44
0.0000000001
12
-0.3233233986
22
-0.3243982539
32
0.0000000000
13
-0.3226252409
23
-0.3250926039
33
0.0000000000
40
0.0000000000
40
0.0000000000
40
0.0000000000
40
0.0000000000
40
0.3340975932
40
0.6674314915
40
1.0000000000
40
1.0000000000
40
1.0000000000
40
1.0000000000
10
0.0230887938
20
-10.4842828996
30
0.0000000000
10
-0.0129183960
20
-10.5204097916
30
0.0000000000
10
-0.0848248153
20
-10.5926065690
30
0.0000000000
10
-0.1924834736
20
-10.7008546376
30
0.0000000000
10
-0.2641218454
20
-10.7729887597
30
0.0000000000
10
-0.2998868438
20
-10.8090272805
30
0.0000000000
11
0.0230887938
21
-10.4842828996
31
0.0000000000
11
-0.0848941531
21
-10.5927020562
31
0.0000000000
11
-0.1925528977
21
-10.7009503873
31
0.0000000000
11
-0.2998868438
21
-10.8090272805
31
0.0000000000
0
SPLINE
5
2B0
100
AcDbEntity
8
0
100
AcDbSpline
62
7
6
CONTINUOUS
70
0
71
3
72
10
73
6
74
4
42
0.0000001000
43
0.0000001000
44
0.0000000001
12
-0.3233234119
22
-0.3243982672
32
0.0000000000
13
-0.3226252541
23
-0.3250926173
33
0.0000000000
40
0.0000000000
40
0.0000000000
40
0.0000000000
40
0.0000000000
40
0.3340975840
40
0.6674314732
40
1.0000000000
40
1.0000000000
40
1.0000000000
40
1.0000000000
10
-0.9898632625
20
-9.9778068715
30
0.0000000000
10
-1.0258704528
20
-10.0139337639
30
0.0000000000
10
-1.0977768662
20
-10.0861305492
30
0.0000000000
10
-1.2054355597
20
-10.1943785917
30
0.0000000000
10
-1.2770738604
20
-10.2665127922
30
0.0000000000
10
-1.3128388622
20
-10.3025513165
30
0.0000000000
11
-0.9898632625
21
-9.9778068715
31
0.0000000000
11
-1.0978462108
21
-10.0862260296
31
0.0000000000
11
-1.2055049569
21
-10.1944743622
31
0.0000000000
11
-1.3128388622
21
-10.3025513165
31
0.0000000000
0
SPLINE
5
2B1
100
AcDbEntity
8
0
100
AcDbSpline
62
7
6
CONTINUOUS
70
0
71
3
72
10
73
6
74
4
42
0.0000001000
43
0.0000001000
44
0.0000000001
12
0.3405859978
22
-0.7008213821
32
0.0000000000
13
0.3438334934
23
-0.6992338381
33
0.0000000000
40
0.0000000000
40
0.0000000000
40
0.0000000000
40
0.0000000000
40
0.3333892890
40
0.6667230855
40
1.0000000000
40
1.0000000000
40
1.0000000000
40
1.0000000000
10
-2.2165702153
20
-8.9172020645
30
0.0000000000
10
-2.1787209741
20
-8.9950841786
30
0.0000000000
10
-2.1029084126
20
-9.1507769759
30
0.0000000000
10
-1.9888382873
20
-9.3841202914
30
0.0000000000
10
-1.9125574345
20
-9.5395516758
30
0.0000000000
10
-1.8743601793
20
-9.6172311745
30
0.0000000000
11
-2.2165702153
21
-8.9172020645
31
0.0000000000
11
-2.1028419364
21
-9.1507605741
31
0.0000000000
11
-1.9887716672
21
-9.3841041172
31
0.0000000000
11
-1.8743601793
21
-9.6172311745
31
0.0000000000
0
SPLINE
5
2B2
100
AcDbEntity
8
0
100
AcDbSpline
62
7
6
CONTINUOUS
70
0
71
3
72
10
73
6
74
4
42
0.0000001000
43
0.0000001000
44
0.0000000001
12
-0.2954024136
22
-0.3842873212
32
0.0000000000
13
-0.2941468248
23
-0.3852492397
33
0.0000000000
40
0.0000000000
40
0.0000000000
40
0.0000000000
40
0.0000000000
40
0.3341221168
40
0.6674560312
40
1.0000000000
40
1.0000000000
40
1.0000000000
40
1.0000000000
10
-1.9217931087
20
-8.5324351177
30
0.0000000000
10
-1.9546932686
20
-8.5752347488
30
0.0000000000
10
-2.0203698614
20
-8.6607685061
30
0.0000000000
10
-2.1186291143
20
-8.7890241049
30
0.0000000000
10
-2.1839646311
20
-8.8744979608
30
0.0000000000
10
-2.2165702153
20
-8.9172020645
30
0.0000000000
11
-1.9217931087
21
-8.5324351177
31
0.0000000000
11
-2.0204241489
21
-8.6608873594
31
0.0000000000
11
-2.1186833919
21
-8.7891432845
31
0.0000000000
11
-2.2165702153
21
-8.9172020645
31
0.0000000000
0
SPLINE
5
2B3
100
AcDbEntity
8
0
100
AcDbSpline
62
7
6
CONTINUOUS
70
0
71
3
72
9
73
5
74
3
42
0.0000001000
43
0.0000001000
44
0.0000000001
12
-0.1412689838
22
-0.0817398910
32
0.0000000000
13
-0.1543418957
23
-0.0530583937
33
0.0000000000
40
0.0000000000
40
0.0000000000
40
0.0000000000
40
0.0000000000
40
0.3935709121
40
1.0000000000
40
1.0000000000
40
1.0000000000
40
1.0000000000
10
3.2411891934
20
-13.2314474064
30
0.0000000000
10
3.2226560725
20
-13.2421708875
30
0.0000000000
10
3.1745257716
20
-13.2676146197
30
0.0000000000
10
3.1240815317
20
-13.2882149652
30
0.0000000000
10
3.0928823933
20
-13.2989403496
30
0.0000000000
11
3.2411891934
21
-13.2314474064
31
0.0000000000
11
3.1844122750
21
-13.2614484820
31
0.0000000000
11
3.0928823933
21
-13.2989403496
31
0.0000000000
0
SPLINE
5
2B4
100
AcDbEntity
8
0
100
AcDbSpline
62
9
6
CONTINUOUS
70
0
71
3
72
12
73
8
74
6
42
0.0000001000
43
0.0000001000
44
0.0000000001
12
-0.6525136872
22
-0.2947967345
32
0.0000000000
13
-0.6402658447
23
0.3205290544
33
0.0000000000
40
0.0000000000
40
0.0000000000
40
0.0000000000
40
0.0000000000
40
0.1858728116
40
0.3932996248
40
0.6081648741
40
0.8150726663
40
1.0000000000
40
1.0000000000
40
1.0000000000
40
1.0000000000
10
8.3829906567
20
5.0958646159
30
0.0000000000
10
8.3425624721
20
5.0775997166
30
0.0000000000
10
8.2521621356
20
5.0495848380
30
0.0000000000
10
8.1077504876
20
5.0306346588
30
0.0000000000
10
7.9570114434
20
5.0333925394
30
0.0000000000
10
7.8137408058
20
5.0576030388
30
0.0000000000
10
7.7247913526
20
5.0889324714
30
0.0000000000
10
7.6853238007
20
5.1086906659
30
0.0000000000
11
8.3829906567
21
5.0958646159
31
0.0000000000
11
8.2564484120
21
5.0546400821
31
0.0000000000
11
8.1093010011
21
5.0344877672
31
0.0000000000
11
7.9554799895
21
5.0373156441
31
0.0000000000
11
7.8095487833
21
5.0628559762
31
0.0000000000
11
7.6853238007
21
5.1086906659
31
0.0000000000
0
SPLINE
5
2B5
100
AcDbEntity
8
0
100
AcDbSpline
62
9
6
CONTINUOUS
70
0
71
3
72
10
73
6
74
4
42
0.0000001000
43
0.0000001000
44
0.0000000001
12
0.1559898734
22
-9.7225650532
32
0.0000000000
13
1.2885804600
23
-9.6380581267
33
0.0000000000
40
0.0000000000
40
0.0000000000
40
0.0000000000
40
0.0000000000
40
0.3395548422
40
0.6729333688
40
1.0000000000
40
1.0000000000
40
1.0000000000
40
1.0000000000
10
8.3829906567
20
-11.3421635733
30
0.0000000000
10
8.4006463623
20
-12.4426115876
30
0.0000000000
10
8.4754509918
20
-14.6231012913
30
0.0000000000
10
8.7101907931
20
-17.8565982026
30
0.0000000000
10
8.9497488397
20
-19.9845400884
30
0.0000000000
10
9.0902327297
20
-21.0353024894
30
0.0000000000
11
8.3829906567
21
-11.3421635733
31
0.0000000000
11
8.4973108465
21
-14.6419527938
31
0.0000000000
11
8.7332096020
21
-17.8750698069
31
0.0000000000
11
9.0902327297
21
-21.0353024894
31
0.0000000000
0
SPLINE
5
2B6
100
AcDbEntity
8
0
100
AcDbSpline
62
9
6
CONTINUOUS
70
0
71
3
72
10
73
6
74
4
42
0.0000001000
43
0.0000001000
44
0.0000000001
12
0.1568366291
22
-9.7768225201
32
0.0000000000
13
1.2956053405
23
-9.6918658224
33
0.0000000000
40
0.0000000000
40
0.0000000000
40
0.0000000000
40
0.0000000000
40
0.3395572858
40
0.6729307169
40
1.0000000000
40
1.0000000000
40
1.0000000000
40
1.0000000000
10
7.6853238004
20
-11.3457920062
30
0.0000000000
10
7.7030754738
20
-12.4523891122
30
0.0000000000
10
7.7782870568
20
-14.6450386678
30
0.0000000000
10
8.0143041632
20
-17.8965823389
30
0.0000000000
10
8.2551652208
20
-20.0363949229
30
0.0000000000
10
8.3964161241
20
-21.0930321251
30
0.0000000000
11
7.6853238004
21
-11.3457920062
31
0.0000000000
11
7.8002670401
21
-14.6640202300
31
0.0000000000
11
8.0374459122
21
-17.9151324507
31
0.0000000000
11
8.3964161241
21
-21.0930321251
31
0.0000000000
0
SPLINE
5
2B7
100
AcDbEntity
8
0
100
AcDbSpline
62
9
6
CONTINUOUS
70
0
71
3
72
12
73
8
74
6
42
0.0000001000
43
0.0000001000
44
0.0000000001
12
-0.6425686996
22
-0.3194711723
32
0.0000000000
13
-0.6419990201
23
0.3206144444
33
0.0000000000
40
0.0000000000
40
0.0000000000
40
0.0000000000
40
0.0000000000
40
0.1877386893
40
0.3956571462
40
0.6100134744
40
0.8159170751
40
1.0000000000
40
1.0000000000
40
1.0000000000
40
1.0000000000
10
8.3829906567
20
-11.3421635733
30
0.0000000000
10
8.3427789882
20
-11.3621559397
30
0.0000000000
10
8.2526799897
20
-11.3936708329
30
0.0000000000
10
8.1081052679
20
-11.4171218270
30
0.0000000000
10
7.9572001636
20
-11.4179610100
30
0.0000000000
10
7.8137367352
20
-11.3961231153
30
0.0000000000
10
7.7247175027
20
-11.3654652124
30
0.0000000000
10
7.6853238169
20
-11.3457919975
30
0.0000000000
11
8.3829906567
21
-11.3421635733
31
0.0000000000
11
8.2564484120
21
-11.3883925390
31
0.0000000000
11
8.1093010038
21
-11.4130754786
31
0.0000000000
11
7.9554799967
21
-11.4138754705
31
0.0000000000
11
7.8095487954
21
-11.3907167735
31
0.0000000000
11
7.6853238169
21
-11.3457919975
31
0.0000000000
0
SPLINE
5
2B8
100
AcDbEntity
8
0
100
AcDbSpline
62
9
6
CONTINUOUS
70
0
71
3
72
13
73
9
74
7
42
0.0000001000
43
0.0000001000
44
0.0000000001
12
0.0640185380
22
-0.4779040565
32
0.0000000000
13
0.4408364089
23
0.1953302870
33
0.0000000000
40
0.0000000000
40
0.0000000000
40
0.0000000000
40
0.0000000000
40
0.1844204583
40
0.3508672232
40
0.5048281200
40
0.6573189388
40
0.8201131521
40
1.0000000000
40
1.0000000000
40
1.0000000000
40
1.0000000000
10
9.0902327297
20
-21.0353024894
30
0.0000000000
10
9.0941681724
20
-21.0646809178
30
0.0000000000
10
9.1074494825
20
-21.1201421516
30
0.0000000000
10
9.1476069954
20
-21.1920913622
30
0.0000000000
10
9.2061176566
20
-21.2432969978
30
0.0000000000
10
9.2790598955
20
-21.2686433292
30
0.0000000000
10
9.3599891290
20
-21.2669069120
30
0.0000000000
10
9.4130968197
20
-21.2498901437
30
0.0000000000
10
9.4395303770
20
-21.2381776939
30
0.0000000000
11
9.0902327297
21
-21.0353024894
31
0.0000000000
11
9.1121714056
21
-21.1214762231
31
0.0000000000
11
9.1524203697
21
-21.1909101077
31
0.0000000000
11
9.2087529178
21
-21.2392587665
31
0.0000000000
11
9.2780476437
21
-21.2638443490
31
0.0000000000
11
9.3565413231
21
-21.2633976630
31
0.0000000000
11
9.4395303770
21
-21.2381776939
31
0.0000000000
0
SPLINE
5
2B9
100
AcDbEntity
8
0
100
AcDbSpline
62
9
6
CONTINUOUS
70
0
71
3
72
11
73
7
74
5
42
0.0000001000
43
0.0000001000
44
0.0000000001
12
0.0665306258
22
-0.5031268012
32
0.0000000000
13
0.4562772943
23
-0.2280404443
33
0.0000000000
40
0.0000000000
40
0.0000000000
40
0.0000000000
40
0.0000000000
40
0.3510423030
40
0.6646249194
40
0.9532500178
40
1.0000000000
40
1.0000000000
40
1.0000000000
40
1.0000000000
10
8.3964161241
20
-21.0930321251
30
0.0000000000
10
8.4042011455
20
-21.1519050554
30
0.0000000000
10
8.4304186988
20
-21.2625349753
30
0.0000000000
10
8.5096962023
20
-21.4058053260
30
0.0000000000
10
8.5939890629
20
-21.4800600374
30
0.0000000000
10
8.6441873314
20
-21.5071374886
30
0.0000000000
10
8.6512976499
20
-21.5106911175
30
0.0000000000
11
8.3964161241
21
-21.0930321251
31
0.0000000000
11
8.4400023656
21
-21.2657744069
31
0.0000000000
11
8.5194013537
21
-21.4036983202
31
0.0000000000
11
8.6303214008
21
-21.4993689971
31
0.0000000000
11
8.6512976499
21
-21.5106911175
31
0.0000000000
0
SPLINE
5
2BA
100
AcDbEntity
8
0
100
AcDbSpline
62
9
6
CONTINUOUS
70
0
71
3
72
12
73
8
74
6
42
0.0000001000
43
0.0000001000
44
0.0000000001
12
-0.6044458818
22
-0.3951031442
32
0.0000000000
13
-0.6469516078
23
0.3208035781
33
0.0000000000
40
0.0000000000
40
0.0000000000
40
0.0000000000
40
0.0000000000
40
0.1941107505
40
0.4037108326
40
0.6162826459
40
0.8187146025
40
1.0000000000
40
1.0000000000
40
1.0000000000
40
1.0000000000
10
9.0902327296
20
-21.0353024894
30
0.0000000000
10
9.0511229150
20
-21.0608670787
30
0.0000000000
10
8.9629016841
20
-21.1037547412
30
0.0000000000
10
8.8188632760
20
-21.1421385093
30
0.0000000000
10
8.6682165171
20
-21.1548969512
30
0.0000000000
10
8.5245932784
20
-21.1409015948
30
0.0000000000
10
8.4355233692
20
-21.1124089328
30
0.0000000000
10
8.3964290761
20
-21.0930232648
30
0.0000000000
11
9.0902327296
21
-21.0353024894
31
0.0000000000
11
8.9648682776
21
-21.0980072465
31
0.0000000000
11
8.8187808678
21
-21.1375977594
31
0.0000000000
11
8.6658064000
21
-21.1503244213
31
0.0000000000
11
8.5204330454
21
-21.1349818934
31
0.0000000000
11
8.3964290761
21
-21.0930232648
31
0.0000000000
0
SPLINE
5
2BB
100
AcDbEntity
8
0
100
AcDbSpline
62
7
6
CONTINUOUS
70
0
71
3
72
14
73
10
74
8
42
0.0000001000
43
0.0000001000
44
0.0000000001
12
-0.0944111012
22
0.2577201573
32
0.0000000000
13
0.2106870215
23
0.1772810693
33
0.0000000000
40
0.0000000000
40
0.0000000000
40
0.0000000000
40
0.0000000000
40
0.1814396116
40
0.3517981887
40
0.5126140375
40
0.6601105512
40
0.7935983219
40
0.9149120155
40
1.0000000000
40
1.0000000000
40
1.0000000000
40
1.0000000000
10
0.3540781966
20
-11.0804932118
30
0.0000000000
10
0.3483682254
20
-11.0649063300
30
0.0000000000
10
0.3388622436
20
-11.0340753959
30
0.0000000000
10
0.3302632541
20
-10.9878601289
30
0.0000000000
10
0.3279079594
20
-10.9439825956
30
0.0000000000
10
0.3319967038
20
-10.9035765370
30
0.0000000000
10
0.3425220699
20
-10.8680345781
30
0.0000000000
10
0.3580651095
20
-10.8407214635
30
0.0000000000
10
0.3711976905
20
-10.8268937248
30
0.0000000000
10
0.3771733352
20
-10.8218655618
30
0.0000000000
11
0.3540781966
21
-11.0804932118
31
0.0000000000
11
0.3395216465
21
-11.0328686524
31
0.0000000000
11
0.3311420128
21
-10.9868675313
31
0.0000000000
11
0.3290314625
21
-10.9427790847
31
0.0000000000
11
0.3334354826
21
-10.9025361538
31
0.0000000000
11
0.3442089278
21
-10.8675176909
31
0.0000000000
11
0.3609977799
21
-10.8387633346
31
0.0000000000
11
0.3771733352
21
-10.8218655618
31
0.0000000000
0
SPLINE
5
2BC
100
AcDbEntity
8
0
100
AcDbSpline
62
7
6
CONTINUOUS
70
0
71
3
72
9
73
5
74
3
42
0.0000001000
43
0.0000001000
44
0.0000000001
12
0.0080901471
22
0.0068073957
32
0.0000000000
13
0.0087555730
23
0.0059323335
33
0.0000000000
40
0.0000000000
40
0.0000000000
40
0.0000000000
40
0.0000000000
40
0.7235822726
40
1.0000000000
40
1.0000000000
40
1.0000000000
40
1.0000000000
10
0.3771733352
20
-10.8218655618
30
0.0000000000
10
0.3791246308
20
-10.8202236582
30
0.0000000000
10
0.3819041364
20
-10.8180535908
30
0.0000000000
10
0.3847936726
20
-10.8160339627
30
0.0000000000
10
0.3856004044
20
-10.8154873619
30
0.0000000000
11
0.3771733352
21
-10.8218655618
31
0.0000000000
11
0.3832046416
21
-10.8171619793
31
0.0000000000
11
0.3856004044
21
-10.8154873619
31
0.0000000000
0
SPLINE
5
2BD
100
AcDbEntity
8
0
100
AcDbSpline
62
9
6
CONTINUOUS
70
0
71
3
72
10
73
6
74
4
42
0.0000001000
43
0.0000001000
44
0.0000000001
12
-0.0070490930
22
-0.3248459075
32
0.0000000000
13
-0.2983745549
23
-0.1336116648
33
0.0000000000
40
0.0000000000
40
0.0000000000
40
0.0000000000
40
0.0000000000
40
0.3932222943
40
0.7288944884
40
1.0000000000
40
1.0000000000
40
1.0000000000
40
1.0000000000
10
9.4395303770
20
-21.2381776939
30
0.0000000000
10
9.4386064235
20
-21.2807565782
30
0.0000000000
10
9.4279101999
20
-21.3600965950
30
0.0000000000
10
9.3788351013
20
-21.4597347770
30
0.0000000000
10
9.3249127446
20
-21.5018504351
30
0.0000000000
10
9.2979490825
20
-21.5139247213
30
0.0000000000
11
9.4395303770
21
-21.2381776939
31
0.0000000000
11
9.4197681353
21
-21.3644068091
31
0.0000000000
11
9.3682773606
21
-21.4605546104
31
0.0000000000
11
9.2979490825
21
-21.5139247213
31
0.0000000000
0
SPLINE
5
2BE
100
AcDbEntity
8
0
100
AcDbSpline
62
9
6
CONTINUOUS
70
0
71
3
72
10
73
6
74
4
42
0.0000001000
43
0.0000001000
44
0.0000000001
12
-0.0024380496
22
-0.2432602762
32
0.0000000000
13
0.2138781057
23
-0.1068067287
33
0.0000000000
40
0.0000000000
40
0.0000000000
40
0.0000000000
40
0.0000000000
40
0.1782172976
40
0.5410344677
40
1.0000000000
40
1.0000000000
40
1.0000000000
40
1.0000000000
10
-7.1093374383
20
12.6090282455
30
0.0000000000
10
-7.1094822725
20
12.5945771825
30
0.0000000000
10
-7.1027452438
20
12.5504878592
30
0.0000000000
10
-7.0519870903
20
12.4847059122
30
0.0000000000
10
-6.9960575502
20
12.4493611238
30
0.0000000000
10
-6.9633366573
20
12.4330209214
30
0.0000000000
11
-7.1093374383
21
12.6090282455
31
0.0000000000
11
-7.1027951507
21
12.5664532343
31
0.0000000000
11
-7.0540961207
21
12.4946784530
31
0.0000000000
11
-6.9633366573
21
12.4330209214
31
0.0000000000
0
SPLINE
5
2BF
100
AcDbEntity
8
0
100
AcDbSpline
62
7
6
CONTINUOUS
70
0
71
3
72
9
73
5
74
3
42
0.0000001000
43
0.0000001000
44
0.0000000001
12
-0.0392255171
22
-0.0135306377
32
0.0000000000
13
-0.0414356785
23
0.0007209443
33
0.0000000000
40
0.0000000000
40
0.0000000000
40
0.0000000000
40
0.0000000000
40
0.1510914769
40
1.0000000000
40
1.0000000000
40
1.0000000000
40
1.0000000000
10
0.6001655107
20
-9.7488628176
30
0.0000000000
10
0.5981899636
20
-9.7495442723
30
0.0000000000
10
0.5849863645
20
-9.7536724389
30
0.0000000000
10
0.5710990768
20
-9.7552217972
30
0.0000000000
10
0.5593740433
20
-9.7550177919
30
0.0000000000
11
0.6001655107
21
-9.7488628176
31
0.0000000000
11
0.5941844534
21
-9.7507328632
31
0.0000000000
11
0.5593740433
21
-9.7550177919
31
0.0000000000
0
SPLINE
5
2C0
100
AcDbEntity
8
0
100
AcDbSpline
62
7
6
CONTINUOUS
70
0
71
3
72
9
73
5
74
3
42
0.0000001000
43
0.0000001000
44
0.0000000001
12
-0.0818628324
22
0.0014243412
32
0.0000000000
13
-0.0730052269
23
0.0365026135
33
0.0000000000
40
0.0000000000
40
0.0000000000
40
0.0000000000
40
0.0000000000
40
0.4751680358
40
1.0000000000
40
1.0000000000
40
1.0000000000
40
1.0000000000
10
0.5593740433
20
-9.7550177919
30
0.0000000000
10
0.5464078429
20
-9.7547921914
30
0.0000000000
10
0.5192899972
20
-9.7504062803
30
0.0000000000
10
0.4938319537
20
-9.7402476489
30
0.0000000000
10
0.4810601282
20
-9.7338617362
30
0.0000000000
11
0.5593740433
21
-9.7550177919
31
0.0000000000
11
0.5210115338
21
-9.7493207102
31
0.0000000000
11
0.4810601282
21
-9.7338617362
31
0.0000000000
0
SPLINE
5
2C1
100
AcDbEntity
8
0
100
AcDbSpline
62
9
6
CONTINUOUS
70
0
71
3
72
10
73
6
74
4
42
0.0000001000
43
0.0000001000
44
0.0000000001
12
-0.0200189448
22
-0.2350695640
32
0.0000000000
13
0.2084475070
23
-0.1031228398
33
0.0000000000
40
0.0000000000
40
0.0000000000
40
0.0000000000
40
0.0000000000
40
0.1896332901
40
0.5348824809
40
1.0000000000
40
1.0000000000
40
1.0000000000
40
1.0000000000
10
-6.4350284345
20
23.0394737111
30
0.0000000000
10
-6.4362938540
20
23.0246147062
30
0.0000000000
10
-6.4294847611
20
22.9809066032
30
0.0000000000
10
-6.3743790660
20
22.9219538915
30
0.0000000000
10
-6.3206387279
20
22.8892997808
30
0.0000000000
10
-6.2883211988
20
22.8733117010
30
0.0000000000
11
-6.4350284345
21
23.0394737111
31
0.0000000000
11
-6.4286167994
21
22.9951531676
31
0.0000000000
11
-6.3793355567
21
22.9317647513
31
0.0000000000
11
-6.2883211988
21
22.8733117010
31
0.0000000000
0
SPLINE
5
2C2
100
AcDbEntity
8
0
100
AcDbSpline
62
9
6
CONTINUOUS
70
0
71
3
72
13
73
9
74
7
42
0.0000001000
43
0.0000001000
44
0.0000000001
12
0.1489019120
22
1.3074925098
32
0.0000000000
13
1.1550260577
23
0.6305737457
33
0.0000000000
40
0.0000000000
40
0.0000000000
40
0.0000000000
40
0.0000000000
40
0.1671068720
40
0.3416628528
40
0.5178631843
40
0.6897505495
40
0.8518736981
40
1.0000000000
40
1.0000000000
40
1.0000000000
40
1.0000000000
10
-6.2883387667
20
22.8733061482
30
0.0000000000
10
-6.2800445891
20
22.9461364760
30
0.0000000000
10
-6.2502865886
20
23.0937665647
30
0.0000000000
10
-6.1731436407
20
23.3081760831
30
0.0000000000
10
-6.0660795129
20
23.5117420104
30
0.0000000000
10
-5.9346015515
20
23.6938601541
30
0.0000000000
10
-5.7855574933
20
23.8450970663
30
0.0000000000
10
-5.6735132201
20
23.9242338034
30
0.0000000000
10
-5.6164833072
20
23.9553686557
30
0.0000000000
11
-6.2883387667
21
22.8733061482
31
0.0000000000
11
-6.2458789383
21
23.0890713290
31
0.0000000000
11
-6.1685337395
21
23.3053639862
31
0.0000000000
11
-6.0604828992
21
23.5105190507
31
0.0000000000
11
-5.9275352929
21
23.6935182886
31
0.0000000000
11
-5.7768243781
21
23.8445225874
31
0.0000000000
11
-5.6164833072
21
23.9553686557
31
0.0000000000
0
SPLINE
5
2C3
100
AcDbEntity
8
0
100
AcDbSpline
62
9
6
CONTINUOUS
70
0
71
3
72
10
73
6
74
4
42
0.0000001000
43
0.0000001000
44
0.0000000001
12
0.2130840249
22
0.1205678008
32
0.0000000000
13
0.2191849016
23
-0.1038238353
33
0.0000000000
40
0.0000000000
40
0.0000000000
40
0.0000000000
40
0.0000000000
40
0.1065270873
40
0.5212693636
40
1.0000000000
40
1.0000000000
40
1.0000000000
40
1.0000000000
10
-5.8512830652
20
23.9633694812
30
0.0000000000
10
-5.8437166583
20
23.9676507268
30
0.0000000000
10
-5.8053416825
20
23.9860647320
30
0.0000000000
10
-5.7217721265
20
23.9945344393
30
0.0000000000
10
-5.6514601497
20
23.9719365393
30
0.0000000000
10
-5.6164833072
20
23.9553686557
30
0.0000000000
11
-5.8512830652
21
23.9633694812
31
0.0000000000
11
-5.8278153294
21
23.9745922870
31
0.0000000000
11
-5.7280580263
21
23.9874926427
31
0.0000000000
11
-5.6164833072
21
23.9553686557
31
0.0000000000
0
SPLINE
5
2C4
100
AcDbEntity
8
0
100
AcDbSpline
62
7
6
CONTINUOUS
70
0
71
3
72
8
73
4
74
2
42
0.0000001000
43
0.0000001000
44
0.0000000001
12
0.0611072046
22
0.1105553592
32
0.0000000000
13
0.0728144157
23
0.1034173489
33
0.0000000000
40
0.0000000000
40
0.0000000000
40
0.0000000000
40
0.0000000000
40
1.0000000000
40
1.0000000000
40
1.0000000000
40
1.0000000000
10
0.3327248705
20
-9.1578665325
30
0.0000000000
10
0.3530939387
20
-9.1210147460
30
0.0000000000
10
0.3753659359
20
-9.0851360421
30
0.0000000000
10
0.3996374077
20
-9.0506635925
30
0.0000000000
11
0.3327248705
21
-9.1578665325
31
0.0000000000
11
0.3996374077
21
-9.0506635925
31
0.0000000000
0
SPLINE
5
2C5
100
AcDbEntity
8
0
100
AcDbSpline
62
7
6
CONTINUOUS
70
0
71
3
72
9
73
5
74
3
42
0.0000001000
43
0.0000001000
44
0.0000000001
12
0.0675588439
22
0.0959529300
32
0.0000000000
13
0.0779584523
23
0.0877072155
33
0.0000000000
40
0.0000000000
40
0.0000000000
40
0.0000000000
40
0.0000000000
40
0.4264295435
40
1.0000000000
40
1.0000000000
40
1.0000000000
40
1.0000000000
10
0.3996374077
20
-9.0506635925
30
0.0000000000
10
0.4092404367
20
-9.0370245378
30
0.0000000000
10
0.4324940460
20
-9.0055564549
30
0.0000000000
10
0.4575017951
20
-8.9754464895
30
0.0000000000
10
0.4724066835
20
-8.9586777336
30
0.0000000000
11
0.3996374077
21
-9.0506635925
31
0.0000000000
11
0.4293914653
21
-9.0104336604
31
0.0000000000
11
0.4724066835
21
-8.9586777336
31
0.0000000000
0
SPLINE
5
2C6
100
AcDbEntity
8
0
100
AcDbSpline
62
7
6
CONTINUOUS
70
0
71
3
72
8
73
4
74
2
42
0.0000001000
43
0.0000001000
44
0.0000000001
12
0.0203459989
22
0.0228902814
32
0.0000000000
13
0.0210386344
23
0.0222519380
33
0.0000000000
40
0.0000000000
40
0.0000000000
40
0.0000000000
40
0.0000000000
40
1.0000000000
40
1.0000000000
40
1.0000000000
40
1.0000000000
10
0.4724066835
20
-8.9586777336
30
0.0000000000
10
0.4791886831
20
-8.9510476398
30
0.0000000000
10
0.4860868710
20
-8.9435213632
30
0.0000000000
10
0.4930997491
20
-8.9361040505
30
0.0000000000
11
0.4724066835
21
-8.9586777336
31
0.0000000000
11
0.4930997491
21
-8.9361040505
31
0.0000000000
0
SPLINE
5
2C7
100
AcDbEntity
8
0
100
AcDbSpline
62
7
6
CONTINUOUS
70
0
71
3
72
9
73
5
74
3
42
0.0000001000
43
0.0000001000
44
0.0000000001
12
0.0557341300
22
0.0589483320
32
0.0000000000
13
0.0604775420
23
0.0540742701
33
0.0000000000
40
0.0000000000
40
0.0000000000
40
0.0000000000
40
0.0000000000
40
0.8662390543
40
1.0000000000
40
1.0000000000
40
1.0000000000
40
1.0000000000
10
0.4930997491
20
-8.9361040505
30
0.0000000000
10
0.5091927758
20
-8.9190829347
30
0.0000000000
10
0.5284680422
20
-8.9000959026
30
0.0000000000
10
0.5485240709
20
-8.8819564573
30
0.0000000000
10
0.5512205820
20
-8.8795454488
30
0.0000000000
11
0.4930997491
21
-8.9361040505
31
0.0000000000
11
0.5431726136
21
-8.8868243210
31
0.0000000000
11
0.5512205820
21
-8.8795454488
31
0.0000000000
0
SPLINE
5
2C8
100
AcDbEntity
8
0
100
AcDbSpline
62
7
6
CONTINUOUS
70
0
71
3
72
8
73
4
74
2
42
0.0000001000
43
0.0000001000
44
0.0000000001
12
0.0383462250
22
0.0342861839
32
0.0000000000
13
0.0401515517
23
0.0321617616
33
0.0000000000
40
0.0000000000
40
0.0000000000
40
0.0000000000
40
0.0000000000
40
1.0000000000
40
1.0000000000
40
1.0000000000
40
1.0000000000
10
0.5512205820
20
-8.8795454488
30
0.0000000000
10
0.5640026570
20
-8.8681167208
30
0.0000000000
10
0.5770947630
20
-8.8570326982
30
0.0000000000
10
0.5904786136
20
-8.8463121110
30
0.0000000000
11
0.5512205820
21
-8.8795454488
31
0.0000000000
11
0.5904786136
21
-8.8463121110
31
0.0000000000
0
SPLINE
5
2C9
100
AcDbEntity
8
0
100
AcDbSpline
62
7
6
CONTINUOUS
70
0
71
3
72
8
73
4
74
2
42
0.0000001000
43
0.0000001000
44
0.0000000001
12
0.0580942494
22
0.0465340272
32
0.0000000000
13
0.0615925901
23
0.0417988382
33
0.0000000000
40
0.0000000000
40
0.0000000000
40
0.0000000000
40
0.0000000000
40
1.0000000000
40
1.0000000000
40
1.0000000000
40
1.0000000000
10
0.5904786136
20
-8.8463121110
30
0.0000000000
10
0.6098433634
20
-8.8308007686
30
0.0000000000
10
0.6298188644
20
-8.8160502583
30
0.0000000000
10
0.6503497278
20
-8.8021173122
30
0.0000000000
11
0.5904786136
21
-8.8463121110
31
0.0000000000
11
0.6503497278
21
-8.8021173122
31
0.0000000000
0
SPLINE
5
2CA
100
AcDbEntity
8
0
100
AcDbSpline
62
9
6
CONTINUOUS
70
0
71
3
72
10
73
6
74
4
42
0.0000001000
43
0.0000001000
44
0.0000000001
12
0.1568951104
22
10.4645327875
32
0.0000000000
13
1.1676215000
23
10.4003712708
33
0.0000000000
40
0.0000000000
40
0.0000000000
40
0.0000000000
40
0.0000000000
40
0.3279270540
40
0.6613532989
40
1.0000000000
40
1.0000000000
40
1.0000000000
40
1.0000000000
10
-6.9633366848
20
12.4330209083
30
0.0000000000
10
-6.9461866343
20
13.5768887112
30
0.0000000000
10
-6.8721629277
20
15.8833915264
30
0.0000000000
10
-6.6461481999
20
19.3651751235
30
0.0000000000
10
-6.4201424898
20
21.6992890078
30
0.0000000000
10
-6.2883387667
20
22.8733061482
30
0.0000000000
11
-6.9633366848
21
12.4330209083
31
0.0000000000
11
-6.8542278585
21
15.8632751754
31
0.0000000000
11
-6.6290879720
21
19.3455467764
31
0.0000000000
11
-6.2883387667
21
22.8733061482
31
0.0000000000
0
SPLINE
5
2CB
100
AcDbEntity
8
0
100
AcDbSpline
62
7
6
CONTINUOUS
70
0
71
3
72
9
73
5
74
3
42
0.0000001000
43
0.0000001000
44
0.0000000001
12
0.0217111642
22
0.0281051041
32
0.0000000000
13
0.0295048386
23
0.0200585252
33
0.0000000000
40
0.0000000000
40
0.0000000000
40
0.0000000000
40
0.0000000000
40
0.9804108333
40
1.0000000000
40
1.0000000000
40
1.0000000000
40
1.0000000000
10
-2.2197163506
20
-7.9888786084
30
0.0000000000
10
-2.2126210637
20
-7.9796937589
30
0.0000000000
10
-2.2039666828
20
-7.9712841313
30
0.0000000000
10
-2.1941541710
20
-7.9645647655
30
0.0000000000
10
-2.1939615126
20
-7.9644337889
30
0.0000000000
11
-2.2197163506
21
-7.9888786084
31
0.0000000000
11
-2.1945381644
21
-7.9648286677
31
0.0000000000
11
-2.1939615126
21
-7.9644337889
31
0.0000000000
0
SPLINE
5
2CC
100
AcDbEntity
8
0
100
AcDbSpline
62
9
6
CONTINUOUS
70
0
71
3
72
10
73
6
74
4
42
0.0000001000
43
0.0000001000
44
0.0000000001
12
-0.2506073638
22
16.4531307017
32
0.0000000000
13
0.2466495818
23
16.4531905089
33
0.0000000000
40
0.0000000000
40
0.0000000000
40
0.0000000000
40
0.0000000000
40
0.3315679577
40
0.6648942746
40
1.0000000000
40
1.0000000000
40
1.0000000000
40
1.0000000000
10
-6.9633366848
20
-4.0214617636
30
0.0000000000
10
-6.9910344754
20
-2.2030181154
30
0.0000000000
10
-7.0278642310
20
1.4438253458
30
0.0000000000
10
-7.0277176575
20
6.9289218358
30
0.0000000000
10
-6.9908879138
20
10.5951681282
30
0.0000000000
10
-6.9633366848
20
12.4330209083
30
0.0000000000
11
-6.9633366848
21
-4.0214617636
31
0.0000000000
11
-7.0185837930
21
1.4342222431
31
0.0000000000
11
-7.0185838021
21
6.9191198427
31
0.0000000000
11
-6.9633366848
21
12.4330209083
31
0.0000000000
0
SPLINE
5
2CD
100
AcDbEntity
8
0
100
AcDbSpline
62
7
6
CONTINUOUS
70
0
71
3
72
13
73
9
74
7
42
0.0000001000
43
0.0000001000
44
0.0000000001
12
-0.1257484252
22
0.2579331810
32
0.0000000000
13
0.1412744958
23
0.2509890590
33
0.0000000000
40
0.0000000000
40
0.0000000000
40
0.0000000000
40
0.0000000000
40
0.2100028455
40
0.4114683305
40
0.5996305033
40
0.7712311699
40
0.9250765687
40
1.0000000000
40
1.0000000000
40
1.0000000000
40
1.0000000000
10
-2.6423040979
20
-8.8468615839
30
0.0000000000
10
-2.6511066070
20
-8.8288060166
30
0.0000000000
10
-2.6662818514
20
-8.7923672154
30
0.0000000000
10
-2.6815627779
20
-8.7369195656
30
0.0000000000
10
-2.6885061452
20
-8.6834854506
30
0.0000000000
10
-2.6867903898
20
-8.6341159979
30
0.0000000000
10
-2.6778130857
20
-8.5965847419
30
0.0000000000
10
-2.6685025567
20
-8.5765689353
30
0.0000000000
10
-2.6649743001
20
-8.5703006148
30
0.0000000000
11
-2.6423040979
21
-8.8468615839
31
0.0000000000
11
-2.6653752051
21
-8.7911919055
31
0.0000000000
11
-2.6805358755
21
-8.7354040295
31
0.0000000000
11
-2.6871647574
21
-8.6818187375
31
0.0000000000
11
-2.6850045162
21
-8.6326247694
31
0.0000000000
11
-2.6741526341
21
-8.5898328876
31
0.0000000000
11
-2.6649743001
21
-8.5703006148
31
0.0000000000
0
SPLINE
5
2CE
100
AcDbEntity
8
0
100
AcDbSpline
62
7
6
CONTINUOUS
70
0
71
3
72
8
73
4
74
2
42
0.0000001000
43
0.0000001000
44
0.0000000001
12
0.0088865515
22
0.0157878972
32
0.0000000000
13
0.0109665047
23
0.0143367895
33
0.0000000000
40
0.0000000000
40
0.0000000000
40
0.0000000000
40
0.0000000000
40
1.0000000000
40
1.0000000000
40
1.0000000000
40
1.0000000000
10
-2.6649743001
20
-8.5703006148
30
0.0000000000
10
-2.6620121162
20
-8.5650379824
30
0.0000000000
10
-2.6587123096
20
-8.5599776449
30
0.0000000000
10
-2.6550568081
20
-8.5551987151
30
0.0000000000
11
-2.6649743001
21
-8.5703006148
31
0.0000000000
11
-2.6550568081
21
-8.5551987151
31
0.0000000000
0
SPLINE
5
2CF
100
AcDbEntity
8
0
100
AcDbSpline
62
9
6
CONTINUOUS
70
0
71
3
72
8
73
4
74
2
42
0.0000001000
43
0.0000001000
44
0.0000000001
12
-0.0242751709
22
0.1906533898
32
0.0000000000
13
-0.0238179497
23
0.1907133445
33
0.0000000000
40
0.0000000000
40
0.0000000000
40
0.0000000000
40
0.0000000000
40
1.0000000000
40
1.0000000000
40
1.0000000000
40
1.0000000000
10
-6.2883387667
20
-13.7506546797
30
0.0000000000
10
-6.2964304904
20
-13.6871035498
30
0.0000000000
10
-6.3044458818
20
-13.6235423084
30
0.0000000000
10
-6.3123851983
20
-13.5599711936
30
0.0000000000
11
-6.2883387667
21
-13.7506546797
31
0.0000000000
11
-6.3123851983
21
-13.5599711936
31
0.0000000000
0
SPLINE
5
2D0
100
AcDbEntity
8
0
100
AcDbSpline
62
9
6
CONTINUOUS
70
0
71
3
72
10
73
6
74
4
42
0.0000001000
43
0.0000001000
44
0.0000000001
12
-1.1853496928
22
9.4912453581
32
0.0000000000
13
-0.1456904990
23
9.5637543960
33
0.0000000000
40
0.0000000000
40
0.0000000000
40
0.0000000000
40
0.0000000000
40
0.3131110674
40
0.6531988391
40
1.0000000000
40
1.0000000000
40
1.0000000000
40
1.0000000000
10
-6.3123851983
20
-13.5599711936
30
0.0000000000
10
-6.4361005675
20
-12.5693665386
30
0.0000000000
10
-6.6556540161
20
-10.4978082672
30
0.0000000000
10
-6.8751867813
20
-7.3164301101
30
0.0000000000
10
-6.9464948067
20
-5.1270354725
30
0.0000000000
10
-6.9633366848
20
-4.0214617636
30
0.0000000000
11
-6.3123851983
21
-13.5599711936
31
0.0000000000
11
-6.6290879722
21
-10.5818655085
31
0.0000000000
11
-6.8542278597
21
-7.3367727801
31
0.0000000000
11
-6.9633366848
21
-4.0214617636
31
0.0000000000
0
SPLINE
5
2D1
100
AcDbEntity
8
0
100
AcDbSpline
62
7
6
CONTINUOUS
70
0
71
3
72
8
73
4
74
2
42
0.0000001000
43
0.0000001000
44
0.0000000001
12
0.0128324658
22
0.0087053513
32
0.0000000000
13
0.0126232139
23
0.0090047299
33
0.0000000000
40
0.0000000000
40
0.0000000000
40
0.0000000000
40
0.0000000000
40
1.0000000000
40
1.0000000000
40
1.0000000000
40
1.0000000000
10
2.9794950369
20
-12.6865518288
30
0.0000000000
10
2.9837725255
20
-12.6836500450
30
0.0000000000
10
2.9880157574
20
-12.6806979560
30
0.0000000000
10
2.9922234954
20
-12.6776963793
30
0.0000000000
11
2.9794950369
21
-12.6865518288
31
0.0000000000
11
2.9922234954
21
-12.6776963793
31
0.0000000000
0
SPLINE
5
2D2
100
AcDbEntity
8
0
100
AcDbSpline
62
7
6
CONTINUOUS
70
0
71
3
72
27
73
23
74
21
42
0.0000001000
43
0.0000001000
44
0.0000000001
12
3.8586880706
22
2.7525829878
32
0.0000000000
13
-4.5681433556
23
-1.2604834415
33
0.0000000000
40
0.0000000000
40
0.0000000000
40
0.0000000000
40
0.0000000000
40
0.0008459758
40
0.0283355105
40
0.0568837202
40
0.0870173340
40
0.1191150965
40
0.1533934752
40
0.1899354197
40
0.2286887823
40
0.3121142914
40
0.4017839766
40
0.4949579473
40
0.5885209852
40
0.6793577183
40
0.7647244909
40
0.8047193556
40
0.8426619151
40
0.9120399510
40
0.9437753378
40
0.9738218469
40
1.0000000000
40
1.0000000000
40
1.0000000000
40
1.0000000000
10
2.9922234954
20
-12.6776963793
30
0.0000000000
10
2.9933116143
20
-12.6769201731
30
0.0000000000
10
3.0296780768
20
-12.6508107111
30
0.0000000000
10
3.0972899780
20
-12.5909742330
30
0.0000000000
10
3.1810770255
20
-12.4830254304
30
0.0000000000
10
3.2490633899
20
-12.3563106863
30
0.0000000000
10
3.3005003557
20
-12.2124978929
30
0.0000000000
10
3.3350811334
20
-12.0534658516
30
0.0000000000
10
3.3524211224
20
-11.8811501571
30
0.0000000000
10
3.3524898409
20
-11.6304248678
30
0.0000000000
10
3.3068376702
20
-11.2976753619
30
0.0000000000
10
3.1885550873
20
-10.8932946061
30
0.0000000000
10
3.0107785703
20
-10.4937575541
30
0.0000000000
10
2.7817735905
20
-10.1190467643
30
0.0000000000
10
2.5123200989
20
-9.7879467784
30
0.0000000000
10
2.2591207962
20
-9.5570110050
30
0.0000000000
10
2.0469239122
20
-9.4102287945
30
0.0000000000
10
1.8437165545
20
-9.2971230325
30
0.0000000000
10
1.6351362768
20
-9.2209113556
30
0.0000000000
10
1.4294841883
20
-9.1925979668
30
0.0000000000
10
1.2901160152
20
-9.1952198927
30
0.0000000000
10
1.2025091042
20
-9.2115350211
30
0.0000000000
10
1.1626472522
20
-9.2225340639
30
0.0000000000
11
2.9922234954
21
-12.6776963793
31
0.0000000000
11
2.9954807099
21
-12.6753578466
31
0.0000000000
11
3.0931152452
21
-12.5893798674
31
0.0000000000
11
3.1764326158
21
-12.4830236726
31
0.0000000000
11
3.2444414915
21
-12.3576765816
31
0.0000000000
11
3.2962808716
21
-12.2148921939
31
0.0000000000
11
3.3313713944
21
-12.0565094442
31
0.0000000000
11
3.3492723904
21
-11.8845026090
31
0.0000000000
11
3.3498163206
21
-11.7011019974
31
0.0000000000
11
3.2989865748
21
-11.3095740182
31
0.0000000000
11
3.1813629075
21
-10.9018365827
31
0.0000000000
11
3.0025744357
21
-10.4987605465
31
0.0000000000
11
2.7712727452
21
-10.1211862636
31
0.0000000000
11
2.4987877864
21
-9.7886878440
31
0.0000000000
11
2.1985282209
21
-9.5183902459
31
0.0000000000
11
2.0426151011
21
-9.4110737513
31
0.0000000000
11
1.8854613601
21
-9.3242058730
31
0.0000000000
11
1.5754374542
21
-9.2160942827
31
0.0000000000
11
1.4265671478
21
-9.1962382881
31
0.0000000000
11
1.2844089473
21
-9.1995159200
31
0.0000000000
11
1.1626472522
21
-9.2225340639
31
0.0000000000
0
SPLINE
5
2D3
100
AcDbEntity
8
0
100
AcDbSpline
62
7
6
CONTINUOUS
70
0
71
3
72
9
73
5
74
3
42
0.0000001000
43
0.0000001000
44
0.0000000001
12
-0.0429093136
22
-0.0118399260
32
0.0000000000
13
-0.0421026003
23
-0.0144782195
33
0.0000000000
40
0.0000000000
40
0.0000000000
40
0.0000000000
40
0.0000000000
40
0.2756072339
40
1.0000000000
40
1.0000000000
40
1.0000000000
40
1.0000000000
10
1.1626472522
20
-9.2225340639
30
0.0000000000
10
1.1587052131
20
-9.2236217870
30
0.0000000000
10
1.1444350326
20
-9.2276891726
30
0.0000000000
10
1.1302920459
20
-9.2321975771
30
0.0000000000
10
1.1201257729
20
-9.2356935496
30
0.0000000000
11
1.1626472522
21
-9.2225340639
31
0.0000000000
11
1.1508489447
21
-9.2258972883
31
0.0000000000
11
1.1201257729
21
-9.2356935496
31
0.0000000000
0
SPLINE
5
2D4
100
AcDbEntity
8
0
100
AcDbSpline
62
7
6
CONTINUOUS
70
0
71
3
72
9
73
5
74
3
42
0.0000001000
43
0.0000001000
44
0.0000000001
12
-0.0480219373
22
0.0240109596
32
0.0000000000
13
-0.0430205316
23
0.0322196830
33
0.0000000000
40
0.0000000000
40
0.0000000000
40
0.0000000000
40
0.0000000000
40
0.8903863252
40
1.0000000000
40
1.0000000000
40
1.0000000000
40
1.0000000000
10
-1.9575952986
20
-10.0685416313
30
0.0000000000
10
-1.9718479907
20
-10.0614152879
30
0.0000000000
10
-1.9871299941
20
-10.0519223315
30
0.0000000000
10
-2.0015625606
20
-10.0413021883
30
0.0000000000
10
-2.0031344401
20
-10.0401249490
30
0.0000000000
11
-1.9575952986
21
-10.0685416313
31
0.0000000000
11
-1.9983883412
21
-10.0436168708
31
0.0000000000
11
-2.0031344401
21
-10.0401249490
31
0.0000000000
0
SPLINE
5
2D5
100
AcDbEntity
8
0
100
AcDbSpline
62
7
6
CONTINUOUS
70
0
71
3
72
8
73
4
74
2
42
0.0000001000
43
0.0000001000
44
0.0000000001
12
-0.0220094980
22
0.0164837352
32
0.0000000000
13
-0.0207099287
23
0.0180722275
33
0.0000000000
40
0.0000000000
40
0.0000000000
40
0.0000000000
40
0.0000000000
40
1.0000000000
40
1.0000000000
40
1.0000000000
40
1.0000000000
10
-2.0031344401
20
-10.0401249490
30
0.0000000000
10
-2.0104709395
20
-10.0346303706
30
0.0000000000
10
-2.0175868285
20
-10.0288498465
30
0.0000000000
10
-2.0244901381
20
-10.0228257706
30
0.0000000000
11
-2.0031344401
21
-10.0401249490
31
0.0000000000
11
-2.0244901381
21
-10.0228257706
31
0.0000000000
0
SPLINE
5
2D6
100
AcDbEntity
8
0
100
AcDbSpline
62
7
6
CONTINUOUS
70
0
71
3
72
9
73
5
74
3
42
0.0000001000
43
0.0000001000
44
0.0000000001
12
-0.0459014636
22
0.0400552656
32
0.0000000000
13
-0.0398104188
23
0.0461131362
33
0.0000000000
40
0.0000000000
40
0.0000000000
40
0.0000000000
40
0.0000000000
40
0.3040970323
40
1.0000000000
40
1.0000000000
40
1.0000000000
40
1.0000000000
10
-2.0244901381
20
-10.0228257706
30
0.0000000000
10
-2.0291429710
20
-10.0187655415
30
0.0000000000
10
-2.0441258963
20
-10.0050499558
30
0.0000000000
10
-2.0580911308
20
-9.9902783068
30
0.0000000000
10
-2.0673258603
20
-9.9795815507
30
0.0000000000
11
-2.0244901381
21
-10.0228257706
31
0.0000000000
11
-2.0381613863
21
-10.0103261442
31
0.0000000000
11
-2.0673258603
21
-9.9795815507
31
0.0000000000
0
SPLINE
5
2D7
100
AcDbEntity
8
0
100
AcDbSpline
62
7
6
CONTINUOUS
70
0
71
3
72
9
73
5
74
3
42
0.0000001000
43
0.0000001000
44
0.0000000001
12
-0.0197381193
22
0.0228630246
32
0.0000000000
13
-0.0182701713
23
0.0240455287
33
0.0000000000
40
0.0000000000
40
0.0000000000
40
0.0000000000
40
0.0000000000
40
0.4188399384
40
1.0000000000
40
1.0000000000
40
1.0000000000
40
1.0000000000
10
-2.0673258603
20
-9.9795815507
30
0.0000000000
10
-2.0700815646
20
-9.9763895681
30
0.0000000000
10
-2.0765580978
20
-9.9686798787
30
0.0000000000
10
-2.0827904788
20
-9.9607727439
30
0.0000000000
10
-2.0863297767
20
-9.9561146436
30
0.0000000000
11
-2.0673258603
21
-9.9795815507
31
0.0000000000
11
-2.0754639952
21
-9.9698966792
31
0.0000000000
11
-2.0863297767
21
-9.9561146436
31
0.0000000000
0
SPLINE
5
2D8
100
AcDbEntity
8
0
100
AcDbSpline
62
7
6
CONTINUOUS
70
0
71
3
72
8
73
4
74
2
42
0.0000001000
43
0.0000001000
44
0.0000000001
12
-0.0195651972
22
0.0257499234
32
0.0000000000
13
-0.0178754157
23
0.0269559453
33
0.0000000000
40
0.0000000000
40
0.0000000000
40
0.0000000000
40
0.0000000000
40
1.0000000000
40
1.0000000000
40
1.0000000000
40
1.0000000000
10
-2.0863297767
20
-9.9561146436
30
0.0000000000
10
-2.0928515091
20
-9.9475313358
30
0.0000000000
10
-2.0990923974
20
-9.9387348326
30
0.0000000000
10
-2.1050508693
20
-9.9297495175
30
0.0000000000
11
-2.0863297767
21
-9.9561146436
31
0.0000000000
11
-2.1050508693
21
-9.9297495175
31
0.0000000000
0
SPLINE
5
2D9
100
AcDbEntity
8
0
100
AcDbSpline
62
7
6
CONTINUOUS
70
0
71
3
72
9
73
5
74
3
42
0.0000001000
43
0.0000001000
44
0.0000000001
12
-0.0356981500
22
0.0538324474
32
0.0000000000
13
-0.0286833524
23
0.0578305169
33
0.0000000000
40
0.0000000000
40
0.0000000000
40
0.0000000000
40
0.0000000000
40
0.1093251873
40
1.0000000000
40
1.0000000000
40
1.0000000000
40
1.0000000000
10
-2.1050508693
20
-9.9297495175
30
0.0000000000
10
-2.1063517716
20
-9.9277877701
30
0.0000000000
10
-2.1181280178
20
-9.9097612965
30
0.0000000000
10
-2.1287765562
20
-9.8910030311
30
0.0000000000
10
-2.1372924027
20
-9.8738336362
30
0.0000000000
11
-2.1050508693
21
-9.9297495175
31
0.0000000000
11
-2.1089131739
21
-9.9238375285
31
0.0000000000
11
-2.1372924027
21
-9.8738336362
31
0.0000000000
0
SPLINE
5
2DA
100
AcDbEntity
8
0
100
AcDbSpline
62
9
6
CONTINUOUS
70
0
71
3
72
9
73
5
74
3
42
0.0000001000
43
0.0000001000
44
0.0000000001
12
-0.0280878203
22
0.0139768812
32
0.0000000000
13
-0.0267362561
23
0.0163727378
33
0.0000000000
40
0.0000000000
40
0.0000000000
40
0.0000000000
40
0.0000000000
40
0.7581034042
40
1.0000000000
40
1.0000000000
40
1.0000000000
40
1.0000000000
10
-6.0395588740
20
-14.1652562020
30
0.0000000000
10
-6.0466566981
20
-14.1617242283
30
0.0000000000
10
-6.0558634058
20
-14.1567601735
30
0.0000000000
10
-6.0648335553
20
-14.1513969580
30
0.0000000000
10
-6.0669893584
20
-14.1500767882
30
0.0000000000
11
-6.0395588740
21
-14.1652562020
31
0.0000000000
11
-6.0604800161
21
-14.1539682887
31
0.0000000000
11
-6.0669893584
21
-14.1500767882
31
0.0000000000
0
SPLINE
5
2DB
100
AcDbEntity
8
0
100
AcDbSpline
62
9
6
CONTINUOUS
70
0
71
3
72
10
73
6
74
4
42
0.0000001000
43
0.0000001000
44
0.0000000001
12
-0.4030251148
22
0.2468043585
32
0.0000000000
13
-0.0601929796
23
0.4665316611
33
0.0000000000
40
0.0000000000
40
0.0000000000
40
0.0000000000
40
0.0000000000
40
0.2887423614
40
0.6230066250
40
1.0000000000
40
1.0000000000
40
1.0000000000
40
1.0000000000
10
-6.0669893584
20
-14.1500767882
30
0.0000000000
10
-6.1057794995
20
-14.1263224971
30
0.0000000000
10
-6.1796635695
20
-14.0591232735
30
0.0000000000
10
-6.2554141934
20
-13.9191161089
30
0.0000000000
10
-6.2807746486
20
-13.8092811282
30
0.0000000000
10
-6.2883387667
20
-13.7506546797
30
0.0000000000
11
-6.0669893584
21
-14.1500767882
31
0.0000000000
11
-6.1685317717
21
-14.0597317575
31
0.0000000000
11
-6.2458788756
21
-13.9228337863
31
0.0000000000
11
-6.2883387667
21
-13.7506546797
31
0.0000000000
0
SPLINE
5
2DC
100
AcDbEntity
8
0
100
AcDbSpline
62
7
6
CONTINUOUS
70
0
71
3
72
8
73
4
74
2
42
0.0000001000
43
0.0000001000
44
0.0000000001
12
-0.0160911266
22
-0.0055316758
32
0.0000000000
13
-0.0161952977
23
-0.0052184887
33
0.0000000000
40
0.0000000000
40
0.0000000000
40
0.0000000000
40
0.0000000000
40
1.0000000000
40
1.0000000000
40
1.0000000000
40
1.0000000000
10
3.0928823933
20
-13.2989403496
30
0.0000000000
10
3.0875186845
20
-13.3007842415
30
0.0000000000
10
3.0821369972
20
-13.3025759003
30
0.0000000000
10
3.0767385646
20
-13.3043153965
30
0.0000000000
11
3.0928823933
21
-13.2989403496
31
0.0000000000
11
3.0767385646
21
-13.3043153965
31
0.0000000000
0
SPLINE
5
2DD
100
AcDbEntity
8
0
100
AcDbSpline
62
7
6
CONTINUOUS
70
0
71
3
72
23
73
19
74
17
42
0.0000001000
43
0.0000001000
44
0.0000000001
12
-3.4349250907
22
-1.1068100287
32
0.0000000000
13
-1.3982117061
23
3.3222044386
33
0.0000000000
40
0.0000000000
40
0.0000000000
40
0.0000000000
40
0.0000000000
40
0.0118538686
40
0.0574580161
40
0.1052666985
40
0.1556831392
40
0.2093667331
40
0.2667739529
40
0.3276837786
40
0.4587752538
40
0.5288928008
40
0.6013371166
40
0.6754152707
40
0.7507879030
40
0.8270565713
40
0.9032430159
40
0.9785342665
40
1.0000000000
40
1.0000000000
40
1.0000000000
40
1.0000000000
10
3.0767385646
20
-13.3043153965
30
0.0000000000
10
3.0631661811
20
-13.3086887234
30
0.0000000000
10
2.9968651365
20
-13.3282889134
30
0.0000000000
10
2.8716848869
20
-13.3500536615
30
0.0000000000
10
2.6982388826
20
-13.3518375226
30
0.0000000000
10
2.5169114561
20
-13.3266365650
30
0.0000000000
10
2.3294568126
20
-13.2748283868
30
0.0000000000
10
2.1375113036
20
-13.1973287924
30
0.0000000000
10
1.8718845238
20
-13.0579297793
30
0.0000000000
10
1.6145894648
20
-12.8734557360
30
0.0000000000
10
1.3698849493
20
-12.6537719124
30
0.0000000000
10
1.1885890238
20
-12.4667726493
30
0.0000000000
10
1.0161321078
20
-12.2633059846
30
0.0000000000
10
0.8544702822
20
-12.0454069937
30
0.0000000000
10
0.7055714909
20
-11.8155875123
30
0.0000000000
10
0.5711010345
20
-11.5771494180
30
0.0000000000
10
0.4806140246
20
-11.3900023066
30
0.0000000000
10
0.4345045788
20
-11.2832794231
30
0.0000000000
10
0.4245000322
20
-11.2595082381
30
0.0000000000
11
3.0767385646
21
-13.3043153965
31
0.0000000000
11
3.0357234755
21
-13.3164473646
31
0.0000000000
11
2.8739336818
21
-13.3452707349
31
0.0000000000
11
2.7016688009
21
-13.3476562361
31
0.0000000000
11
2.5216171571
21
-13.3233967611
31
0.0000000000
11
2.3349382694
21
-13.2726556144
31
0.0000000000
11
2.1428386974
21
-13.1958892687
31
0.0000000000
11
1.9482419694
21
-13.0943564575
31
0.0000000000
11
1.5622009361
21
-12.8220879362
31
0.0000000000
11
1.3739437331
21
-12.6535568708
31
0.0000000000
11
1.1920929791
21
-12.4662569949
31
0.0000000000
11
1.0193777448
21
-12.2627156677
31
0.0000000000
11
0.8574590598
21
-12.0446464711
31
0.0000000000
11
0.7079260561
21
-11.8140469193
31
0.0000000000
11
0.5731483177
21
-11.5748640332
31
0.0000000000
11
0.4551857721
21
-11.3305334117
31
0.0000000000
11
0.4245000322
21
-11.2595082381
31
0.0000000000
0
SPLINE
5
2DE
100
AcDbEntity
8
0
100
AcDbSpline
62
7
6
CONTINUOUS
70
0
71
3
72
8
73
4
74
2
42
0.0000001000
43
0.0000001000
44
0.0000000001
12
-0.0746351832
22
0.1773360471
32
0.0000000000
13
-0.0661660895
23
0.1806164176
33
0.0000000000
40
0.0000000000
40
0.0000000000
40
0.0000000000
40
0.0000000000
40
1.0000000000
40
1.0000000000
40
1.0000000000
40
1.0000000000
10
0.4245000322
20
-11.2595082381
30
0.0000000000
10
0.3996216377
20
-11.2003962224
30
0.0000000000
10
0.3761341329
20
-11.1406998665
30
0.0000000000
10
0.3540787697
20
-11.0804943940
30
0.0000000000
11
0.4245000322
21
-11.2595082381
31
0.0000000000
11
0.3540787697
21
-11.0804943940
31
0.0000000000
0
SPLINE
5
2DF
100
AcDbEntity
8
0
100
AcDbSpline
62
7
6
CONTINUOUS
70
0
71
3
72
9
73
5
74
3
42
0.0000001000
43
0.0000001000
44
0.0000000001
12
-0.0868856263
22
0.0434428131
32
0.0000000000
13
-0.0792255068
23
0.0562955450
33
0.0000000000
40
0.0000000000
40
0.0000000000
40
0.0000000000
40
0.0000000000
40
0.7790420765
40
1.0000000000
40
1.0000000000
40
1.0000000000
40
1.0000000000
10
2.5906498654
20
-11.8579749382
30
0.0000000000
10
2.5680873458
20
-11.8466936785
30
0.0000000000
10
2.5400937918
20
-11.8302242328
30
0.0000000000
10
2.5134014241
20
-11.8118542118
30
0.0000000000
10
2.5075662563
20
-11.8077078963
30
0.0000000000
11
2.5906498654
21
-11.8579749382
31
0.0000000000
11
2.5252607314
21
-11.8198794246
31
0.0000000000
11
2.5075662563
21
-11.8077078963
31
0.0000000000
0
SPLINE
5
2E0
100
AcDbEntity
8
0
100
AcDbSpline
62
7
6
CONTINUOUS
70
0
71
3
72
8
73
4
74
2
42
0.0000001000
43
0.0000001000
44
0.0000000001
12
0.0143317971
22
0.0114962924
32
0.0000000000
13
0.0152023153
23
0.0103211164
33
0.0000000000
40
0.0000000000
40
0.0000000000
40
0.0000000000
40
0.0000000000
40
1.0000000000
40
1.0000000000
40
1.0000000000
40
1.0000000000
10
2.2158235819
20
-10.7615872741
30
0.0000000000
10
2.2206008476
20
-10.7577551766
30
0.0000000000
10
2.2255306883
20
-10.7541120980
30
0.0000000000
10
2.2305981267
20
-10.7506717259
30
0.0000000000
11
2.2158235819
21
-10.7615872741
31
0.0000000000
11
2.2305981267
21
-10.7506717259
31
0.0000000000
0
SPLINE
5
2E1
100
AcDbEntity
8
0
100
AcDbSpline
62
7
6
CONTINUOUS
70
0
71
3
72
8
73
4
74
2
42
0.0000001000
43
0.0000001000
44
0.0000000001
12
-0.0039351995
22
-0.0013515897
32
0.0000000000
13
-0.0039850310
23
-0.0011963033
33
0.0000000000
40
0.0000000000
40
0.0000000000
40
0.0000000000
40
0.0000000000
40
1.0000000000
40
1.0000000000
40
1.0000000000
40
1.0000000000
10
-1.3522136883
20
-10.3273070529
30
0.0000000000
10
-1.3535254214
20
-10.3277575828
30
0.0000000000
10
-1.3548460570
20
-10.3281822053
30
0.0000000000
10
-1.3561744006
20
-10.3285809731
30
0.0000000000
11
-1.3522136883
21
-10.3273070529
31
0.0000000000
11
-1.3561744006
21
-10.3285809731
31
0.0000000000
0
SPLINE
5
2E2
100
AcDbEntity
8
0
100
AcDbSpline
62
7
6
CONTINUOUS
70
0
71
3
72
9
73
5
74
3
42
0.0000001000
43
0.0000001000
44
0.0000000001
12
-0.0114690855
22
-0.0034430107
32
0.0000000000
13
-0.0117672338
23
-0.0021626754
33
0.0000000000
40
0.0000000000
40
0.0000000000
40
0.0000000000
40
0.0000000000
40
0.8644266718
40
1.0000000000
40
1.0000000000
40
1.0000000000
40
1.0000000000
10
-1.3561744006
20
-10.3285809731
30
0.0000000000
10
-1.3594791284
20
-10.3295730498
30
0.0000000000
10
-1.3633573482
20
-10.3305355960
30
0.0000000000
10
-1.3672748045
20
-10.3312850680
30
0.0000000000
10
-1.3678065788
20
-10.3313828017
30
0.0000000000
11
-1.3561744006
21
-10.3285809731
31
0.0000000000
11
-1.3662133205
21
-10.3310779349
31
0.0000000000
11
-1.3678065788
21
-10.3313828017
31
0.0000000000
0
SPLINE
5
2E3
100
AcDbEntity
8
0
100
AcDbSpline
62
7
6
CONTINUOUS
70
0
71
3
72
8
73
4
74
2
42
0.0000001000
43
0.0000001000
44
0.0000000001
12
-0.0048285546
22
-0.0008874300
32
0.0000000000
13
-0.0048613685
23
-0.0006779158
33
0.0000000000
40
0.0000000000
40
0.0000000000
40
0.0000000000
40
0.0000000000
40
1.0000000000
40
1.0000000000
40
1.0000000000
40
1.0000000000
10
-1.3678065788
20
-10.3313828017
30
0.0000000000
10
-1.3694160970
20
-10.3316786117
30
0.0000000000
10
-1.3710317692
20
-10.3319389259
30
0.0000000000
10
-1.3726522254
20
-10.3321648978
30
0.0000000000
11
-1.3678065788
21
-10.3313828017
31
0.0000000000
11
-1.3726522254
21
-10.3321648978
31
0.0000000000
0
SPLINE
5
2E4
100
AcDbEntity
8
0
100
AcDbSpline
62
7
6
CONTINUOUS
70
0
71
3
72
8
73
4
74
2
42
0.0000001000
43
0.0000001000
44
0.0000000001
12
-0.0123607433
22
-0.0017237004
32
0.0000000000
13
-0.0124787594
23
-0.0004484468
33
0.0000000000
40
0.0000000000
40
0.0000000000
40
0.0000000000
40
0.0000000000
40
1.0000000000
40
1.0000000000
40
1.0000000000
40
1.0000000000
10
-1.3726522254
20
-10.3321648978
30
0.0000000000
10
-1.3767724731
20
-10.3327394646
30
0.0000000000
10
-1.3809236499
20
-10.3330920072
30
0.0000000000
10
-1.3850832364
20
-10.3332414895
30
0.0000000000
11
-1.3726522254
21
-10.3321648978
31
0.0000000000
11
-1.3850832364
21
-10.3332414895
31
0.0000000000
0
SPLINE
5
2E5
100
AcDbEntity
8
0
100
AcDbSpline
62
7
6
CONTINUOUS
70
0
71
3
72
8
73
4
74
2
42
0.0000001000
43
0.0000001000
44
0.0000000001
12
-0.0059463976
22
-0.0002136945
32
0.0000000000
13
-0.0059505452
23
0.0000568063
33
0.0000000000
40
0.0000000000
40
0.0000000000
40
0.0000000000
40
0.0000000000
40
1.0000000000
40
1.0000000000
40
1.0000000000
40
1.0000000000
10
-1.3850832364
20
-10.3332414895
30
0.0000000000
10
-1.3870653689
20
-10.3333127210
30
0.0000000000
10
-1.3890494111
20
-10.3333378430
30
0.0000000000
10
-1.3910329261
20
-10.3333189076
30
0.0000000000
11
-1.3850832364
21
-10.3332414895
31
0.0000000000
11
-1.3910329261
21
-10.3333189076
31
0.0000000000
0
SPLINE
5
2E6
100
AcDbEntity
8
0
100
AcDbSpline
62
7
6
CONTINUOUS
70
0
71
3
72
9
73
5
74
3
42
0.0000001000
43
0.0000001000
44
0.0000000001
12
-0.0109194310
22
0.0001042413
32
0.0000000000
13
-0.0108660560
23
0.0009564067
33
0.0000000000
40
0.0000000000
40
0.0000000000
40
0.0000000000
40
0.0000000000
40
0.7096635849
40
1.0000000000
40
1.0000000000
40
1.0000000000
40
1.0000000000
10
-1.3910329261
20
-10.3333189076
30
0.0000000000
10
-1.3936159670
20
-10.3332942488
30
0.0000000000
10
-1.3972545177
20
-10.3331542186
30
0.0000000000
10
-1.4008806083
20
-10.3328748302
30
0.0000000000
10
-1.4019322123
20
-10.3327822703
30
0.0000000000
11
-1.3910329261
21
-10.3333189076
31
0.0000000000
11
-1.3987739857
21
-10.3330253162
31
0.0000000000
11
-1.4019322123
21
-10.3327822703
31
0.0000000000
0
SPLINE
5
2E7
100
AcDbEntity
8
0
100
AcDbSpline
62
7
6
CONTINUOUS
70
0
71
3
72
8
73
4
74
2
42
0.0000001000
43
0.0000001000
44
0.0000000001
12
-0.0081305061
22
0.0007156295
32
0.0000000000
13
-0.0080766186
23
0.0011560474
33
0.0000000000
40
0.0000000000
40
0.0000000000
40
0.0000000000
40
0.0000000000
40
1.0000000000
40
1.0000000000
40
1.0000000000
40
1.0000000000
10
-1.4019322123
20
-10.3327822703
30
0.0000000000
10
-1.4046423809
20
-10.3325437272
30
0.0000000000
10
-1.4073446974
20
-10.3322291796
30
0.0000000000
10
-1.4100369036
20
-10.3318438305
30
0.0000000000
11
-1.4019322123
21
-10.3327822703
31
0.0000000000
11
-1.4100369036
21
-10.3318438305
31
0.0000000000
0
SPLINE
5
2E8
100
AcDbEntity
8
0
100
AcDbSpline
62
7
6
CONTINUOUS
70
0
71
3
72
8
73
4
74
2
42
0.0000001000
43
0.0000001000
44
0.0000000001
12
-0.0195385953
22
0.0027966583
32
0.0000000000
13
-0.0190876839
23
0.0050617987
33
0.0000000000
40
0.0000000000
40
0.0000000000
40
0.0000000000
40
0.0000000000
40
1.0000000000
40
1.0000000000
40
1.0000000000
40
1.0000000000
10
-1.4100369036
20
-10.3318438305
30
0.0000000000
10
-1.4165497687
20
-10.3309116110
30
0.0000000000
10
-1.4230034656
20
-10.3295650386
30
0.0000000000
10
-1.4293660269
20
-10.3278777723
30
0.0000000000
11
-1.4100369036
21
-10.3318438305
31
0.0000000000
11
-1.4293660269
21
-10.3278777723
31
0.0000000000
0
SPLINE
5
2E9
100
AcDbEntity
8
0
100
AcDbSpline
62
7
6
CONTINUOUS
70
0
71
3
72
9
73
5
74
3
42
0.0000001000
43
0.0000001000
44
0.0000000001
12
-0.0429368524
22
0.0113862795
32
0.0000000000
13
-0.0396436691
23
0.0198218346
33
0.0000000000
40
0.0000000000
40
0.0000000000
40
0.0000000000
40
0.0000000000
40
0.1075706753
40
1.0000000000
40
1.0000000000
40
1.0000000000
40
1.0000000000
10
-1.4293660269
20
-10.3278777723
30
0.0000000000
10
-1.4309056090
20
-10.3274694957
30
0.0000000000
10
-1.4451682869
20
-10.3234886256
30
0.0000000000
10
-1.4589306739
20
-10.3178740202
30
0.0000000000
10
-1.4707237315
20
-10.3119774914
30
0.0000000000
11
-1.4293660269
21
-10.3278777723
31
0.0000000000
11
-1.4339683117
21
-10.3265941413
31
0.0000000000
11
-1.4707237315
21
-10.3119774914
31
0.0000000000
0
SPLINE
5
2EA
100
AcDbEntity
8
0
100
AcDbSpline
62
9
6
CONTINUOUS
70
0
71
3
72
10
73
6
74
4
42
0.0000001000
43
0.0000001000
44
0.0000000001
12
0.0294207054
22
-0.2369417273
32
0.0000000000
13
0.2109330554
23
-0.1063371146
33
0.0000000000
40
0.0000000000
40
0.0000000000
40
0.0000000000
40
0.0000000000
40
0.1202255549
40
0.5251728699
40
1.0000000000
40
1.0000000000
40
1.0000000000
40
1.0000000000
10
-6.4344655929
20
-13.5751123154
30
0.0000000000
10
-6.4332865527
20
-13.5846077989
30
0.0000000000
10
-6.4248257786
20
-13.6255885435
30
0.0000000000
10
-6.3803998669
20
-13.6943711988
30
0.0000000000
10
-6.3217243187
20
-13.7338240788
30
0.0000000000
10
-6.2883387396
20
-13.7506546611
30
0.0000000000
11
-6.4344655929
21
-13.5751123154
31
0.0000000000
11
-6.4286334575
21
-13.6031162974
31
0.0000000000
11
-6.3793537901
21
-13.6851027800
31
0.0000000000
11
-6.2883387396
21
-13.7506546611
31
0.0000000000
0
SPLINE
5
2EB
100
AcDbEntity
8
0
100
AcDbSpline
62
7
6
CONTINUOUS
70
0
71
3
72
8
73
4
74
2
42
0.0000001000
43
0.0000001000
44
0.0000000001
12
-0.0055714848
22
-0.0019126183
32
0.0000000000
13
-0.0056682543
23
-0.0016012204
33
0.0000000000
40
0.0000000000
40
0.0000000000
40
0.0000000000
40
0.0000000000
40
1.0000000000
40
1.0000000000
40
1.0000000000
40
1.0000000000
10
-0.3392815998
20
-10.8337906643
30
0.0000000000
10
-0.3411387614
20
-10.8344282038
30
0.0000000000
10
-0.3430137424
20
-10.8350137865
30
0.0000000000
10
-0.3449031606
20
-10.8355475267
30
0.0000000000
11
-0.3392815998
21
-10.8337906643
31
0.0000000000
11
-0.3449031606
21
-10.8355475267
31
0.0000000000
0
SPLINE
5
2EC
100
AcDbEntity
8
0
100
AcDbSpline
62
7
6
CONTINUOUS
70
0
71
3
72
22
73
18
74
16
42
0.0000001000
43
0.0000001000
44
0.0000000001
12
-0.6584513920
22
-0.1860053810
32
0.0000000000
13
0.3798274388
23
0.5698867761
33
0.0000000000
40
0.0000000000
40
0.0000000000
40
0.0000000000
40
0.0000000000
40
0.0115165884
40
0.0591130142
40
0.1113810486
40
0.1690714283
40
0.2322943174
40
0.3723121565
40
0.5243552987
40
0.6010066973
40
0.6759239136
40
0.7475421773
40
0.8149847953
40
0.8777640703
40
0.9348798045
40
0.9858821939
40
1.0000000000
40
1.0000000000
40
1.0000000000
40
1.0000000000
10
-0.3449031606
20
-10.8355475267
30
0.0000000000
10
-0.3474308651
20
-10.8362615758
30
0.0000000000
10
-0.3605378417
20
-10.8394504303
30
0.0000000000
10
-0.3861147263
20
-10.8408663755
30
0.0000000000
10
-0.4215815910
20
-10.8341881784
30
0.0000000000
10
-0.4582967656
20
-10.8194332839
30
0.0000000000
10
-0.5092392873
20
-10.7886734837
30
0.0000000000
10
-0.5689933067
20
-10.7331039941
30
0.0000000000
10
-0.6175193307
20
-10.6640818341
30
0.0000000000
10
-0.6484665177
20
-10.6022895695
30
0.0000000000
10
-0.6664229571
20
-10.5547403951
30
0.0000000000
10
-0.6785486805
20
-10.5075319516
30
0.0000000000
10
-0.6845067066
20
-10.4619140646
30
0.0000000000
10
-0.6840523194
20
-10.4191716359
30
0.0000000000
10
-0.6770855800
20
-10.3807254698
30
0.0000000000
10
-0.6666111051
20
-10.3547595886
30
0.0000000000
10
-0.6588379182
20
-10.3420713311
30
0.0000000000
10
-0.6570504748
20
-10.3393894808
30
0.0000000000
11
-0.3449031606
21
-10.8355475267
31
0.0000000000
11
-0.3525556923
21
-10.8374115885
31
0.0000000000
11
-0.3849392933
21
-10.8395570667
31
0.0000000000
11
-0.4200354098
21
-10.8333543210
31
0.0000000000
11
-0.4566622319
21
-10.8190049652
31
0.0000000000
11
-0.4937144007
21
-10.7969687876
31
0.0000000000
11
-0.5645155112
21
-10.7329180932
31
0.0000000000
11
-0.6244415247
21
-10.6483183710
31
0.0000000000
11
-0.6478108060
21
-10.6015674894
31
0.0000000000
11
-0.6657772985
21
-10.5537473772
31
0.0000000000
11
-0.6777839127
21
-10.5064120060
31
0.0000000000
11
-0.6835285918
21
-10.4607851021
31
0.0000000000
11
-0.6827782503
21
-10.4179843488
31
0.0000000000
11
-0.6754808603
21
-10.3797285999
31
0.0000000000
11
-0.6621052398
21
-10.3476266700
31
0.0000000000
11
-0.6570504748
21
-10.3393894808
31
0.0000000000
0
SPLINE
5
2ED
100
AcDbEntity
8
0
100
AcDbSpline
62
7
6
CONTINUOUS
70
0
71
3
72
8
73
4
74
2
42
0.0000001000
43
0.0000001000
44
0.0000000001
12
0.0126035212
22
0.0189101137
32
0.0000000000
13
0.0159604076
23
0.0160374677
33
0.0000000000
40
0.0000000000
40
0.0000000000
40
0.0000000000
40
0.0000000000
40
1.0000000000
40
1.0000000000
40
1.0000000000
40
1.0000000000
10
-0.6570504748
20
-10.3393894808
30
0.0000000000
10
-0.6528493011
20
-10.3330861096
30
0.0000000000
10
-0.6480832873
20
-10.3271634434
30
0.0000000000
10
-0.6427631515
20
-10.3218176209
30
0.0000000000
11
-0.6570504748
21
-10.3393894808
31
0.0000000000
11
-0.6427631515
21
-10.3218176209
31
0.0000000000
0
SPLINE
5
2EE
100
AcDbEntity
8
0
100
AcDbSpline
62
7
6
CONTINUOUS
70
0
71
3
72
8
73
4
74
2
42
0.0000001000
43
0.0000001000
44
0.0000000001
12
-0.0140563206
22
-0.0048340623
32
0.0000000000
13
-0.0143352922
23
-0.0039098268
33
0.0000000000
40
0.0000000000
40
0.0000000000
40
0.0000000000
40
0.0000000000
40
1.0000000000
40
1.0000000000
40
1.0000000000
40
1.0000000000
10
2.8475258051
20
-11.8910544423
30
0.0000000000
10
2.8428403649
20
-11.8926657964
30
0.0000000000
10
2.8381030181
20
-11.8941244664
30
0.0000000000
10
2.8333245873
20
-11.8954277420
30
0.0000000000
11
2.8475258051
21
-11.8910544423
31
0.0000000000
11
2.8333245873
21
-11.8954277420
31
0.0000000000
0
SPLINE
5
2EF
100
AcDbEntity
8
0
100
AcDbSpline
62
7
6
CONTINUOUS
70
0
71
3
72
8
73
4
74
2
42
0.0000001000
43
0.0000001000
44
0.0000000001
12
-0.0191127267
22
-0.0052128307
32
0.0000000000
13
-0.0194808353
23
-0.0035968625
33
0.0000000000
40
0.0000000000
40
0.0000000000
40
0.0000000000
40
0.0000000000
40
1.0000000000
40
1.0000000000
40
1.0000000000
40
1.0000000000
10
2.8333245873
20
-11.8954277420
30
0.0000000000
10
2.8269536784
20
-11.8971653522
30
0.0000000000
10
2.8205097279
20
-11.8986268338
30
0.0000000000
10
2.8140161162
20
-11.8998257880
30
0.0000000000
11
2.8333245873
21
-11.8954277420
31
0.0000000000
11
2.8140161162
21
-11.8998257880
31
0.0000000000
0
SPLINE
5
2F0
100
AcDbEntity
8
0
100
AcDbSpline
62
7
6
CONTINUOUS
70
0
71
3
72
8
73
4
74
2
42
0.0000001000
43
0.0000001000
44
0.0000000001
12
-0.0308820982
22
-0.0057019455
32
0.0000000000
13
-0.0313514728
23
-0.0019060578
33
0.0000000000
40
0.0000000000
40
0.0000000000
40
0.0000000000
40
0.0000000000
40
1.0000000000
40
1.0000000000
40
1.0000000000
40
1.0000000000
10
2.8140161162
20
-11.8998257880
30
0.0000000000
10
2.8037220834
20
-11.9017264365
30
0.0000000000
10
2.7933032503
20
-11.9029673446
30
0.0000000000
10
2.7828527594
20
-11.9036026972
30
0.0000000000
11
2.8140161162
21
-11.8998257880
31
0.0000000000
11
2.7828527594
21
-11.9036026972
31
0.0000000000
0
SPLINE
5
2F1
100
AcDbEntity
8
0
100
AcDbSpline
62
7
6
CONTINUOUS
70
0
71
3
72
9
73
5
74
3
42
0.0000001000
43
0.0000001000
44
0.0000000001
12
-0.0086321858
22
-0.0005248061
32
0.0000000000
13
-0.0086412101
23
-0.0002528809
33
0.0000000000
40
0.0000000000
40
0.0000000000
40
0.0000000000
40
0.0000000000
40
0.5872003604
40
1.0000000000
40
1.0000000000
40
1.0000000000
40
1.0000000000
10
2.7828527594
20
-11.9036026972
30
0.0000000000
10
2.7811631518
20
-11.9037054193
30
0.0000000000
10
2.7782843473
20
-11.9038533981
30
0.0000000000
10
2.7754042845
20
-11.9039561338
30
0.0000000000
10
2.7742152550
20
-11.9039909302
30
0.0000000000
11
2.7828527594
21
-11.9036026972
31
0.0000000000
11
2.7777818479
21
-11.9038636057
31
0.0000000000
11
2.7742152550
21
-11.9039909302
31
0.0000000000
0
SPLINE
5
2F2
100
AcDbEntity
8
0
100
AcDbSpline
62
7
6
CONTINUOUS
70
0
71
3
72
8
73
4
74
2
42
0.0000001000
43
0.0000001000
44
0.0000000001
12
-0.0322812511
22
-0.0009446953
32
0.0000000000
13
-0.0321860787
23
0.0025813170
33
0.0000000000
40
0.0000000000
40
0.0000000000
40
0.0000000000
40
0.0000000000
40
1.0000000000
40
1.0000000000
40
1.0000000000
40
1.0000000000
10
2.7742152550
20
-11.9039909302
30
0.0000000000
10
2.7634548380
20
-11.9043058286
30
0.0000000000
10
2.7526829094
20
-11.9039972449
30
0.0000000000
10
2.7419542165
20
-11.9031368059
30
0.0000000000
11
2.7742152550
21
-11.9039909302
31
0.0000000000
11
2.7419542165
21
-11.9031368059
31
0.0000000000
0
SPLINE
5
2F3
100
AcDbEntity
8
0
100
AcDbSpline
62
7
6
CONTINUOUS
70
0
71
3
72
8
73
4
74
2
42
0.0000001000
43
0.0000001000
44
0.0000000001
12
-0.0120197812
22
0.0009639840
32
0.0000000000
13
-0.0119750487
23
0.0014145708
33
0.0000000000
40
0.0000000000
40
0.0000000000
40
0.0000000000
40
0.0000000000
40
1.0000000000
40
1.0000000000
40
1.0000000000
40
1.0000000000
10
2.7419542165
20
-11.9031368059
30
0.0000000000
10
2.7379476228
20
-11.9028154779
30
0.0000000000
10
2.7339470588
20
-11.9024171869
30
0.0000000000
10
2.7299553759
20
-11.9019456632
30
0.0000000000
11
2.7419542165
21
-11.9031368059
31
0.0000000000
11
2.7299553759
21
-11.9019456632
31
0.0000000000
0
SPLINE
5
2F4
100
AcDbEntity
8
0
100
AcDbSpline
62
7
6
CONTINUOUS
70
0
71
3
72
9
73
5
74
3
42
0.0000001000
43
0.0000001000
44
0.0000000001
12
-0.0172083231
22
0.0020327593
32
0.0000000000
13
-0.0170743161
23
0.0029073241
33
0.0000000000
40
0.0000000000
40
0.0000000000
40
0.0000000000
40
0.0000000000
40
0.6968481480
40
1.0000000000
40
1.0000000000
40
1.0000000000
40
1.0000000000
10
2.7299553759
20
-11.9019456632
30
0.0000000000
10
2.7259581799
20
-11.9014734884
30
0.0000000000
10
2.7202348520
20
-11.9006905203
30
0.0000000000
10
2.7145357598
20
-11.8997640401
30
0.0000000000
10
2.7128103897
20
-11.8994702532
30
0.0000000000
11
2.7299553759
21
-11.9019456632
31
0.0000000000
11
2.7179933678
21
-11.9003125796
31
0.0000000000
11
2.7128103897
21
-11.8994702532
31
0.0000000000
0
SPLINE
5
2F5
100
AcDbEntity
8
0
100
AcDbSpline
62
7
6
CONTINUOUS
70
0
71
3
72
8
73
4
74
2
42
0.0000001000
43
0.0000001000
44
0.0000000001
12
-0.0362330252
22
-0.0362531622
32
0.0000000000
13
-0.0362244462
23
-0.0362617359
33
0.0000000000
40
0.0000000000
40
0.0000000000
40
0.0000000000
40
0.0000000000
40
1.0000000000
40
1.0000000000
40
1.0000000000
40
1.0000000000
10
-0.3179925692
20
-9.9961755715
30
0.0000000000
10
-0.3300702443
20
-10.0082599589
30
0.0000000000
10
-0.3421464884
20
-10.0203457769
30
0.0000000000
10
-0.3542213037
20
-10.0324330222
30
0.0000000000
11
-0.3179925692
21
-9.9961755715
31
0.0000000000
11
-0.3542213037
21
-10.0324330222
31
0.0000000000
0
SPLINE
5
2F6
100
AcDbEntity
8
0
100
AcDbSpline
62
7
6
CONTINUOUS
70
0
71
3
72
10
73
6
74
4
42
0.0000001000
43
0.0000001000
44
0.0000000001
12
-0.2888144730
22
-0.2891117825
32
0.0000000000
13
-0.2882664181
23
-0.2896582267
33
0.0000000000
40
0.0000000000
40
0.0000000000
40
0.0000000000
40
0.0000000000
40
0.2505683387
40
0.6257109618
40
1.0000000000
40
1.0000000000
40
1.0000000000
40
1.0000000000
10
-0.3542217103
20
-10.0324334292
30
0.0000000000
10
-0.3783442979
20
-10.0565808488
30
0.0000000000
10
-0.4385681868
20
-10.1168952113
30
0.0000000000
10
-0.5347602905
20
-10.2133450566
30
0.0000000000
10
-0.6067981647
20
-10.2856789878
30
0.0000000000
10
-0.6427631515
20
-10.3218176209
30
0.0000000000
11
-0.3542217103
21
-10.0324334292
31
0.0000000000
11
-0.4265723869
21
-10.1048927523
31
0.0000000000
11
-0.5348294858
21
-10.2134402549
31
0.0000000000
11
-0.6427631515
21
-10.3218176209
31
0.0000000000
0
SPLINE
5
2F7
100
AcDbEntity
8
0
100
AcDbSpline
62
7
6
CONTINUOUS
70
0
71
3
72
8
73
4
74
2
42
0.0000001000
43
0.0000001000
44
0.0000000001
12
-0.0296264484
22
-0.0296429304
32
0.0000000000
13
-0.0296207459
23
-0.0296486294
33
0.0000000000
40
0.0000000000
40
0.0000000000
40
0.0000000000
40
0.0000000000
40
1.0000000000
40
1.0000000000
40
1.0000000000
40
1.0000000000
10
-1.3309445364
20
-9.4896997238
30
0.0000000000
10
-1.3408200192
20
-9.4995807006
30
0.0000000000
10
-1.3506945526
20
-9.5094626264
30
0.0000000000
10
-1.3605681345
20
-9.5193455029
30
0.0000000000
11
-1.3309445364
21
-9.4896997238
31
0.0000000000
11
-1.3605681345
21
-9.5193455029
31
0.0000000000
0
SPLINE
5
2F8
100
AcDbEntity
8
0
100
AcDbSpline
62
9
6
CONTINUOUS
70
0
71
3
72
10
73
6
74
4
42
0.0000001000
43
0.0000001000
44
0.0000000001
12
0.0039801977
22
-0.2436723515
32
0.0000000000
13
0.2143583650
23
-0.1073077507
33
0.0000000000
40
0.0000000000
40
0.0000000000
40
0.0000000000
40
0.0000000000
40
0.1700507927
40
0.5401421492
40
1.0000000000
40
1.0000000000
40
1.0000000000
40
1.0000000000
10
-7.1093868929
20
-3.8440978807
30
0.0000000000
10
-7.1091612809
20
-3.8579101062
30
0.0000000000
10
-7.1021452706
20
-3.9017094859
30
0.0000000000
10
-7.0527611014
20
-3.9687781395
30
0.0000000000
10
-6.9961948099
20
-4.0050129927
30
0.0000000000
10
-6.9633366842
20
-4.0214617633
30
0.0000000000
11
-7.1093868929
21
-3.8440978807
31
0.0000000000
11
-7.1027951795
21
-3.8847378948
31
0.0000000000
11
-7.0540961508
21
-3.9588943156
31
0.0000000000
11
-6.9633366842
21
-4.0214617633
31
0.0000000000
0
SPLINE
5
2F9
100
AcDbEntity
8
0
100
AcDbSpline
62
9
6
CONTINUOUS
70
0
71
3
72
13
73
9
74
7
42
0.0000001000
43
0.0000001000
44
0.0000000001
12
-0.5897810575
22
-0.2984611161
32
0.0000000000
13
-0.0779355867
23
-0.6563891970
33
0.0000000000
40
0.0000000000
40
0.0000000000
40
0.0000000000
40
0.0000000000
40
0.1494446942
40
0.3128260291
40
0.4852170880
40
0.6611106727
40
0.8348089240
40
1.0000000000
40
1.0000000000
40
1.0000000000
40
1.0000000000
10
9.4395303770
20
15.9944974943
30
0.0000000000
10
9.4101504938
20
15.9796296843
30
0.0000000000
10
9.3521160903
20
15.9414412952
30
0.0000000000
10
9.2744648265
20
15.8672969274
30
0.0000000000
10
9.2058511544
20
15.7772930441
30
0.0000000000
10
9.1500345411
20
15.6762703541
30
0.0000000000
10
9.1099447101
20
15.5697548555
30
0.0000000000
10
9.0945241509
20
15.4962944119
30
0.0000000000
10
9.0902327297
20
15.4601511993
30
0.0000000000
11
9.4395303770
21
15.9944974943
31
0.0000000000
11
9.3565208486
21
15.9409486191
31
0.0000000000
11
9.2779685275
21
15.8668374914
31
0.0000000000
11
9.2086389357
21
15.7764045664
31
0.0000000000
11
9.1523711060
21
15.6746616223
31
0.0000000000
11
9.1121644240
21
15.5671172397
31
0.0000000000
11
9.0902327297
21
15.4601511993
31
0.0000000000
0
SPLINE
5
2FA
100
AcDbEntity
8
0
100
AcDbSpline
62
7
6
CONTINUOUS
70
0
71
3
72
10
73
6
74
4
42
0.0000001000
43
0.0000001000
44
0.0000000001
12
0.5015097715
22
-1.0286889071
32
0.0000000000
13
0.5085118446
23
-1.0252456400
33
0.0000000000
40
0.0000000000
40
0.0000000000
40
0.0000000000
40
0.0000000000
40
0.3334184769
40
0.6667528041
40
1.0000000000
40
1.0000000000
40
1.0000000000
40
1.0000000000
10
-2.6423041056
20
-8.8468615877
30
0.0000000000
10
-2.5865665642
20
-8.9611895506
30
0.0000000000
10
-2.4748458923
20
-9.1896901428
30
0.0000000000
10
-2.3065082979
20
-9.5320150431
30
0.0000000000
10
-2.1937791181
20
-9.7599468913
30
0.0000000000
10
-2.1372924027
20
-9.8738336362
30
0.0000000000
11
-2.6423041056
21
-8.8468615877
31
0.0000000000
11
-2.4747020367
21
-9.1896553391
31
0.0000000000
11
-2.3063639841
21
-9.5319809523
31
0.0000000000
11
-2.1372924027
21
-9.8738336362
31
0.0000000000
0
SPLINE
5
2FB
100
AcDbEntity
8
0
100
AcDbSpline
62
9
6
CONTINUOUS
70
0
71
3
72
13
73
9
74
7
42
0.0000001000
43
0.0000001000
44
0.0000000001
12
-1.1715819701
22
-0.6078984226
32
0.0000000000
13
-0.1535058294
23
-1.3109465150
33
0.0000000000
40
0.0000000000
40
0.0000000000
40
0.0000000000
40
0.0000000000
40
0.1494500550
40
0.3121864480
40
0.4840734604
40
0.6598132784
40
0.8336457527
40
1.0000000000
40
1.0000000000
40
1.0000000000
40
1.0000000000
10
9.0860981404
20
16.6040779319
30
0.0000000000
10
9.0277338104
20
16.5737944477
30
0.0000000000
10
8.9129437006
20
16.4963891787
30
0.0000000000
10
8.7598100869
20
16.3471047164
30
0.0000000000
10
8.6247296904
20
16.1666712913
30
0.0000000000
10
8.5147375504
20
15.9644338508
30
0.0000000000
10
8.4354848870
20
15.7509304574
30
0.0000000000
10
8.4049282397
20
15.6036225430
30
0.0000000000
10
8.3964161241
20
15.5309287028
30
0.0000000000
11
9.0860981404
21
16.6040779319
31
0.0000000000
11
8.9215031298
21
16.4953588334
31
0.0000000000
11
8.7667940516
21
16.3463536164
31
0.0000000000
11
8.6303171550
21
16.1651190237
31
0.0000000000
11
8.5193993364
21
15.9613974483
31
0.0000000000
11
8.4400023303
21
15.7461306947
31
0.0000000000
11
8.3964161241
21
15.5309287028
31
0.0000000000
0
SPLINE
5
2FC
100
AcDbEntity
8
0
100
AcDbSpline
62
9
6
CONTINUOUS
70
0
71
3
72
12
73
8
74
6
42
0.0000001000
43
0.0000001000
44
0.0000000001
12
-0.0162126944
22
0.7317494031
32
0.0000000000
13
-0.6473188145
23
0.3416114645
33
0.0000000000
40
0.0000000000
40
0.0000000000
40
0.0000000000
40
0.0000000000
40
0.1947687370
40
0.4051363893
40
0.6180978598
40
0.8201120422
40
1.0000000000
40
1.0000000000
40
1.0000000000
40
1.0000000000
10
9.4395303770
20
15.9944974943
30
0.0000000000
10
9.4384778017
20
16.0420047967
30
0.0000000000
10
9.4234981288
20
16.1406782525
30
0.0000000000
10
9.3722187631
20
16.2832917039
30
0.0000000000
10
9.2954834410
20
16.4161788637
30
0.0000000000
10
9.2004760606
20
16.5269655551
30
0.0000000000
10
9.1249130970
20
16.5835940041
30
0.0000000000
10
9.0860981438
20
16.6040779336
30
0.0000000000
11
9.4395303770
21
15.9944974943
31
0.0000000000
11
9.4197687387
21
16.1356780272
31
0.0000000000
11
9.3682789410
21
16.2807878118
31
0.0000000000
11
9.2900959763
21
16.4156348150
31
0.0000000000
11
9.1928659038
21
16.5270300713
31
0.0000000000
11
9.0860981438
21
16.6040779336
31
0.0000000000
0
SPLINE
5
2FD
100
AcDbEntity
8
0
100
AcDbSpline
62
7
6
CONTINUOUS
70
0
71
3
72
10
73
6
74
4
42
0.0000001000
43
0.0000001000
44
0.0000000001
12
-0.4366797384
22
-0.5652879963
32
0.0000000000
13
-0.4339849292
23
-0.5673594928
33
0.0000000000
40
0.0000000000
40
0.0000000000
40
0.0000000000
40
0.0000000000
40
0.3344834370
40
0.6678180339
40
1.0000000000
40
1.0000000000
40
1.0000000000
40
1.0000000000
10
-2.2197166822
20
-7.9888791658
30
0.0000000000
10
-2.2684040622
20
-8.0519056564
30
0.0000000000
10
-2.3655130041
20
-8.1778183626
30
0.0000000000
10
-2.5106270610
20
-8.3665913869
30
0.0000000000
10
-2.6070028191
20
-8.4923765178
30
0.0000000000
10
-2.6550568081
20
-8.5551987151
30
0.0000000000
11
-2.2197166822
21
-7.9888791658
31
0.0000000000
11
-2.3656300986
21
-8.1780734318
31
0.0000000000
11
-2.5107441380
21
-8.3668474948
31
0.0000000000
11
-2.6550568081
21
-8.5551987151
31
0.0000000000
0
SPLINE
5
2FE
100
AcDbEntity
8
0
100
AcDbSpline
62
9
6
CONTINUOUS
70
0
71
3
72
10
73
6
74
4
42
0.0000001000
43
0.0000001000
44
0.0000000001
12
-1.2244128948
22
-10.3200288646
32
0.0000000000
13
-0.1642167114
23
-10.3911123358
33
0.0000000000
40
0.0000000000
40
0.0000000000
40
0.0000000000
40
0.0000000000
40
0.3384421471
40
0.6718600511
40
1.0000000000
40
1.0000000000
40
1.0000000000
40
1.0000000000
10
9.0902327297
20
15.4601511993
30
0.0000000000
10
8.9521017534
20
14.2959069571
30
0.0000000000
10
8.7152447429
20
11.9800653198
30
0.0000000000
10
8.4784554875
20
8.5234282890
30
0.0000000000
10
8.4009526778
20
6.2324443061
30
0.0000000000
10
8.3829906567
20
5.0958646159
30
0.0000000000
11
9.0902327297
21
15.4601511993
31
0.0000000000
11
8.7332073077
21
11.9610890037
31
0.0000000000
11
8.4973094494
21
8.5041127659
31
0.0000000000
11
8.3829906567
21
5.0958646159
31
0.0000000000
0
SPLINE
5
2FF
100
AcDbEntity
8
0
100
AcDbSpline
62
9
6
CONTINUOUS
70
0
71
3
72
10
73
6
74
4
42
0.0000001000
43
0.0000001000
44
0.0000000001
12
-1.2310774182
22
-10.3777460389
32
0.0000000000
13
-0.1651090373
23
-10.4492058771
33
0.0000000000
40
0.0000000000
40
0.0000000000
40
0.0000000000
40
0.0000000000
40
0.3384439934
40
0.6718567923
40
1.0000000000
40
1.0000000000
40
1.0000000000
40
1.0000000000
10
8.3964161241
20
15.5309287028
30
0.0000000000
10
8.2575325382
20
14.3601667655
30
0.0000000000
10
8.0193879586
20
12.0313858653
30
0.0000000000
10
7.7813092236
20
8.5554218388
30
0.0000000000
10
7.7033836034
20
6.2516359772
30
0.0000000000
10
7.6853238004
20
5.1086906658
30
0.0000000000
11
8.3964161241
21
15.5309287028
31
0.0000000000
11
8.0374459138
21
12.0122798335
31
0.0000000000
11
7.8002670400
21
8.5360277261
31
0.0000000000
11
7.6853238004
21
5.1086906658
31
0.0000000000
0
SPLINE
5
300
100
AcDbEntity
8
0
100
AcDbSpline
62
9
6
CONTINUOUS
70
0
71
3
72
12
73
8
74
6
42
0.0000001000
43
0.0000001000
44
0.0000000001
12
-0.6810654734
22
-0.2011035549
32
0.0000000000
13
-0.6338189687
23
0.3202597911
33
0.0000000000
40
0.0000000000
40
0.0000000000
40
0.0000000000
40
0.0000000000
40
0.1796434702
40
0.3854501156
40
0.6019884944
40
0.8122092967
40
1.0000000000
40
1.0000000000
40
1.0000000000
40
1.0000000000
10
9.0902327297
20
15.4601511993
30
0.0000000000
10
9.0494497413
20
15.4481088859
30
0.0000000000
10
8.9589161506
20
15.4325506771
30
0.0000000000
10
8.8161233117
20
15.4292982591
30
0.0000000000
10
8.6667563566
20
15.4446297417
30
0.0000000000
10
8.5246314498
20
15.4771516612
30
0.0000000000
10
8.4360912437
20
15.5108814374
30
0.0000000000
10
8.3964161404
20
15.5309287079
30
0.0000000000
11
9.0902327297
21
15.4601511993
31
0.0000000000
11
8.9648666871
21
15.4365338232
31
0.0000000000
11
8.8187765320
21
15.4323287700
31
0.0000000000
11
8.6657987974
21
15.4479343101
31
0.0000000000
11
8.5204223549
21
15.4818724071
31
0.0000000000
11
8.3964161404
21
15.5309287079
31
0.0000000000
0
SPLINE
5
301
100
AcDbEntity
8
0
100
AcDbSpline
62
9
6
CONTINUOUS
70
0
71
3
72
10
73
6
74
4
42
0.0000001000
43
0.0000001000
44
0.0000000001
12
-0.2597498510
22
-16.4365931903
32
0.0000000000
13
0.2637034968
23
-16.4365302347
33
0.0000000000
40
0.0000000000
40
0.0000000000
40
0.0000000000
40
0.0000000000
40
0.3350160351
40
0.6683413796
40
1.0000000000
40
1.0000000000
40
1.0000000000
40
1.0000000000
10
8.3829906567
20
5.0958646159
30
0.0000000000
10
8.3539838683
20
3.2603571888
30
0.0000000000
10
8.3152129718
20
-0.4017274149
30
0.0000000000
10
8.3150665506
20
-5.8813684706
30
0.0000000000
10
8.3538374774
20
-9.5250579263
30
0.0000000000
10
8.3829906567
20
-11.3421635733
30
0.0000000000
11
8.3829906567
21
5.0958646159
31
0.0000000000
11
8.3248321302
21
-0.4110381220
31
0.0000000000
11
8.3248321512
21
-5.8904552950
31
0.0000000000
11
8.3829906567
21
-11.3421635733
31
0.0000000000
0
SPLINE
5
302
100
AcDbEntity
8
0
100
AcDbSpline
62
9
6
CONTINUOUS
70
0
71
3
72
8
73
4
74
2
42
0.0000001000
43
0.0000001000
44
0.0000000001
12
-0.0238286353
22
-1.5078798961
32
0.0000000000
13
-0.0195174236
23
-1.5079474969
33
0.0000000000
40
0.0000000000
40
0.0000000000
40
0.0000000000
40
0.0000000000
40
1.0000000000
40
1.0000000000
40
1.0000000000
40
1.0000000000
10
7.6853238004
20
5.1086906658
30
0.0000000000
10
7.6773809220
20
4.6060640337
30
0.0000000000
10
7.6701550939
20
4.1034249051
30
0.0000000000
10
7.6636492860
20
3.6007757395
30
0.0000000000
11
7.6853238004
21
5.1086906658
31
0.0000000000
11
7.6636492860
21
3.6007757395
31
0.0000000000
0
SPLINE
5
303
100
AcDbEntity
8
0
100
AcDbSpline
62
9
6
CONTINUOUS
70
0
71
3
72
8
73
4
74
2
42
0.0000001000
43
0.0000001000
44
0.0000000001
12
-0.0040015634
22
-0.3091672124
32
0.0000000000
13
-0.0038198889
23
-0.3091696803
33
0.0000000000
40
0.0000000000
40
0.0000000000
40
0.0000000000
40
0.0000000000
40
1.0000000000
40
1.0000000000
40
1.0000000000
40
1.0000000000
10
7.6636492860
20
3.6007757395
30
0.0000000000
10
7.6623154316
20
3.4977200020
30
0.0000000000
10
7.6610118434
20
3.3946638426
30
0.0000000000
10
7.6597385471
20
3.2916072825
30
0.0000000000
11
7.6636492860
21
3.6007757395
31
0.0000000000
11
7.6597385471
21
3.2916072825
31
0.0000000000
0
SPLINE
5
304
100
AcDbEntity
8
0
100
AcDbSpline
62
9
6
CONTINUOUS
70
0
71
3
72
8
73
4
74
2
42
0.0000001000
43
0.0000001000
44
0.0000000001
12
-0.0002890211
22
-0.0233924494
32
0.0000000000
13
-0.0002879806
23
-0.0233924632
33
0.0000000000
40
0.0000000000
40
0.0000000000
40
0.0000000000
40
0.0000000000
40
1.0000000000
40
1.0000000000
40
1.0000000000
40
1.0000000000
10
7.6597385471
20
3.2916072825
30
0.0000000000
10
7.6596422068
20
3.2838097994
30
0.0000000000
10
7.6595460398
20
3.2760123139
30
0.0000000000
10
7.6594500463
20
3.2682148262
30
0.0000000000
11
7.6597385471
21
3.2916072825
31
0.0000000000
11
7.6594500463
21
3.2682148262
31
0.0000000000
0
SPLINE
5
305
100
AcDbEntity
8
0
100
AcDbSpline
62
9
6
CONTINUOUS
70
0
71
3
72
8
73
4
74
2
42
0.0000001000
43
0.0000001000
44
0.0000000001
12
-0.0042365636
22
-0.3441331388
32
0.0000000000
13
-0.0040112600
23
-0.3441360180
33
0.0000000000
40
0.0000000000
40
0.0000000000
40
0.0000000000
40
0.0000000000
40
1.0000000000
40
1.0000000000
40
1.0000000000
40
1.0000000000
10
7.6594500463
20
3.2682148262
30
0.0000000000
10
7.6580378584
20
3.1535037799
30
0.0000000000
10
7.6566632035
20
3.0387922392
30
0.0000000000
10
7.6553261168
20
2.9240802332
30
0.0000000000
11
7.6594500463
21
3.2682148262
31
0.0000000000
11
7.6553261168
21
2.9240802332
31
0.0000000000
0
SPLINE
5
306
100
AcDbEntity
8
0
100
AcDbSpline
62
9
6
CONTINUOUS
70
0
71
3
72
8
73
4
74
2
42
0.0000001000
43
0.0000001000
44
0.0000000001
12
-0.0036040211
22
-0.3091979786
32
0.0000000000
13
-0.0034219805
23
-0.3092001684
33
0.0000000000
40
0.0000000000
40
0.0000000000
40
0.0000000000
40
0.0000000000
40
1.0000000000
40
1.0000000000
40
1.0000000000
40
1.0000000000
10
7.6553261168
20
2.9240802332
30
0.0000000000
10
7.6541247764
20
2.8210142403
30
0.0000000000
10
7.6529537634
20
2.7179478719
30
0.0000000000
10
7.6518131032
20
2.6148811490
30
0.0000000000
11
7.6553261168
21
2.9240802332
31
0.0000000000
11
7.6518131032
21
2.6148811490
31
0.0000000000
0
SPLINE
5
307
100
AcDbEntity
8
0
100
AcDbSpline
62
9
6
CONTINUOUS
70
0
71
3
72
8
73
4
74
2
42
0.0000001000
43
0.0000001000
44
0.0000000001
12
-0.0041923211
22
-0.3788058987
32
0.0000000000
13
-0.0039188383
23
-0.3788089730
33
0.0000000000
40
0.0000000000
40
0.0000000000
40
0.0000000000
40
0.0000000000
40
1.0000000000
40
1.0000000000
40
1.0000000000
40
1.0000000000
10
7.6518131032
20
2.6148811490
30
0.0000000000
10
7.6504156629
20
2.4886125161
30
0.0000000000
10
7.6490637794
20
2.3623433514
30
0.0000000000
10
7.6477575000
20
2.2360736937
30
0.0000000000
11
7.6518131032
21
2.6148811490
31
0.0000000000
11
7.6477575000
21
2.2360736937
31
0.0000000000
0
SPLINE
5
308
100
AcDbEntity
8
0
100
AcDbSpline
62
9
6
CONTINUOUS
70
0
71
3
72
8
73
4
74
2
42
0.0000001000
43
0.0000001000
44
0.0000000001
12
-0.0126571870
22
-1.2234891233
32
0.0000000000
13
-0.0097980345
23
-1.2235160333
33
0.0000000000
40
0.0000000000
40
0.0000000000
40
0.0000000000
40
0.0000000000
40
1.0000000000
40
1.0000000000
40
1.0000000000
40
1.0000000000
10
7.6477575000
20
2.2360736937
30
0.0000000000
10
7.6435384377
20
1.8282439859
30
0.0000000000
10
7.6397951077
20
1.4204091363
30
0.0000000000
10
7.6365290962
20
1.0125704586
30
0.0000000000
11
7.6477575000
21
2.2360736937
31
0.0000000000
11
7.6365290962
21
1.0125704586
31
0.0000000000
0
SPLINE
5
309
100
AcDbEntity
8
0
100
AcDbSpline
62
9
6
CONTINUOUS
70
0
71
3
72
9
73
5
74
3
42
0.0000001000
43
0.0000001000
44
0.0000000001
12
-0.0464231093
22
-5.7970217207
32
0.0000000000
13
0.0183814641
23
-5.7971701671
33
0.0000000000
40
0.0000000000
40
0.0000000000
40
0.0000000000
40
0.0000000000
40
0.2443122525
40
1.0000000000
40
1.0000000000
40
1.0000000000
40
1.0000000000
10
7.6365290962
20
1.0125704586
30
0.0000000000
10
7.6327485181
20
0.5404759804
30
0.0000000000
10
7.6198919939
20
-1.3918855889
30
0.0000000000
10
7.6177918491
20
-3.3242989623
30
0.0000000000
10
7.6224220648
20
-4.7845824508
30
0.0000000000
11
7.6365290962
21
1.0125704586
31
0.0000000000
11
7.6271085372
21
-0.4037263270
31
0.0000000000
11
7.6224220648
21
-4.7845824508
31
0.0000000000
0
SPLINE
5
30A
100
AcDbEntity
8
0
100
AcDbSpline
62
9
6
CONTINUOUS
70
0
71
3
72
8
73
4
74
2
42
0.0000001000
43
0.0000001000
44
0.0000000001
12
0.0026364205
22
-0.8314777282
32
0.0000000000
13
0.0039817546
23
-0.8314729514
33
0.0000000000
40
0.0000000000
40
0.0000000000
40
0.0000000000
40
0.0000000000
40
1.0000000000
40
1.0000000000
40
1.0000000000
40
1.0000000000
10
7.6224220648
20
-4.7845824508
30
0.0000000000
10
7.6233008716
20
-5.0617416935
30
0.0000000000
10
7.6244036455
20
-5.3389003015
30
0.0000000000
10
7.6257308970
20
-5.6160579520
30
0.0000000000
11
7.6224220648
21
-4.7845824508
31
0.0000000000
11
7.6257308970
21
-5.6160579520
31
0.0000000000
0
SPLINE
5
30B
100
AcDbEntity
8
0
100
AcDbSpline
62
9
6
CONTINUOUS
70
0
71
3
72
9
73
5
74
3
42
0.0000001000
43
0.0000001000
44
0.0000000001
12
0.0274398599
22
-5.7300119852
32
0.0000000000
13
0.0919172712
23
-5.7293092359
33
0.0000000000
40
0.0000000000
40
0.0000000000
40
0.0000000000
40
0.0000000000
40
0.0475681893
40
1.0000000000
40
1.0000000000
40
1.0000000000
40
1.0000000000
10
7.6257308970
20
-5.6160579520
30
0.0000000000
10
7.6261659851
20
-5.7069133836
30
0.0000000000
10
7.6358197179
20
-7.6169152156
30
0.0000000000
10
7.6561421561
20
-9.5268665496
30
0.0000000000
10
7.6853238004
20
-11.3457920062
30
0.0000000000
11
7.6257308970
21
-5.6160579520
31
0.0000000000
11
7.6271085468
21
-5.8886239268
31
0.0000000000
11
7.6853238004
21
-11.3457920062
31
0.0000000000
0
ENDSEC
0
SECTION
2
OBJECTS
0
DICTIONARY
5
30C
100
AcDbDictionary
3
ACAD_GROUP
350
30D
3
ACAD_MLINESTYLE
350
30E
0
DICTIONARY
5
30D
102
{ACAD_REACTORS
330
30C
102
}
100
AcDbDictionary
0
DICTIONARY
5
30E
102
{ACAD_REACTORS
330
30C
102
}
100
AcDbDictionary
3
STANDARD
350
30F
0
MLINESTYLE
5
30F
102
{ACAD_REACTORS
330
30E
102
}
100
AcDbMlineStyle
2
STANDARD
70
0
3

62
256
51
90.0
52
90.0
71
2
49
0.5
62
256
6
BYLAYER
49
-0.5
62
256
6
BYLAYER
0
ENDSEC
0
EOF
