0
SECTION
2
HEADER
9
$ACADVER
1
AC1014
9
$HANDSEED
5
       2F9
9
$EXTMAX
10
297.0000000000
20
210.0000000000
9
$EXTMIN
10
0.0000000000
20
0.0000000000
9
$LIMMIN
10
0.0000000000
20
0.0000000000
9
$LIMMAX
10
297.0000000000
20
210.0000000000
9
$VIEWCTR
10
148.5000000000
20
105.0000000000
9
$VIEWSIZE
40
210.0000000000
9
$CLAYER
8
0
9
$LTSCALE
40
16.3350000000
9
$CELTYPE
6
BYLAYER
9
$DIMSCALE
40
1
9
$DIMASZ
40
3.0000000000
9
$DIMEXO
40
1.8562500000
9
$DIMDLI
40
11.2860000000
9
$DIMEXE
40
5.3460000000
9
$DIMCEN
40
2.6730000000
9
$DIMLFAC
40
1.0000000000
9
$DIMTXT
40
3.0000000000
9
$DIMTOL
70
1
9
$DIMLIM
70
0
9
$DIMTFAC
40
1.0000000000
9
$DIMTP
40
0.0100000000
9
$DIMTM
40
0.0100000000
9
$MEASUREMENT
70
1
0
ENDSEC
0
SECTION
2
CLASSES
0
ENDSEC
0
SECTION
2
TABLES
0
TABLE
2
VPORT
5
8
100
AcDbSymbolTable
70
2
0
VPORT
5
1F4
100
AcDbSymbolTableRecord
100
AcDbViewportTableRecord
2
*ACTIVE
70
0
10
0.0
20
0.0
11
1.0
21
1.0
12
148.5000000000
22
105.0000000000
13
0.0
23
0.0
14
1.0
24
1.0
15
0.0
25
0.0
16
0.0
26
0.0
36
1.0
17
0.0
27
0.0
37
0.0
40
210.0000000000
41
1.4142857143
42
50.0
43
0.0
44
0.0
50
0.0
51
0.0
71
0
72
100
73
1
74
1
75
0
76
0
77
0
78
0
0
ENDTAB
0
TABLE
2
LTYPE
5
5
100
AcDbSymbolTable
70
6
0
LTYPE
5
14
100
AcDbSymbolTableRecord
100
AcDbLinetypeTableRecord
2
BYBLOCK
70
0
3

72
65
73
0
40
0.0
0
LTYPE
5
15
100
AcDbSymbolTableRecord
100
AcDbLinetypeTableRecord
2
BYLAYER
70
0
3

72
65
73
0
40
0.0
0
LTYPE
5
16
100
AcDbSymbolTableRecord
100
AcDbLinetypeTableRecord
2
CONTINUOUS
70
64
3
Solid line
72
65
73
0
40
0
0
LTYPE
5
1F5
100
AcDbSymbolTableRecord
100
AcDbLinetypeTableRecord
2
CENTER
70
64
3
____ _ ____ _ ____ _ ____ _ ____ _ ____ _ ____
72
65
73
4
40
0.6
49
0.375
74
0
49
-0.075
74
0
49
0.075
74
0
49
-0.075
74
0
0
LTYPE
5
1F6
100
AcDbSymbolTableRecord
100
AcDbLinetypeTableRecord
2
HIDDEN
70
64
3
- - - - - - - - - - - - - - - - - - - -
72
65
73
2
40
0.2
49
0.1
74
0
49
-0.1
74
0
0
LTYPE
5
1F7
100
AcDbSymbolTableRecord
100
AcDbLinetypeTableRecord
2
PHANTOM
70
64
3
_____ _ _ _____ _ _ _____ _ _ _____
72
65
73
6
40
0.8
49
0.45
74
0
49
-0.05
74
0
49
0.1
74
0
49
-0.05
74
0
49
0.1
74
0
49
-0.05
74
0
0
LTYPE
5
1F8
100
AcDbSymbolTableRecord
100
AcDbLinetypeTableRecord
2
DOT
70
64
3
. . . . . . . . . . . . . . . . . . . .
72
65
73
2
40
0.2
49
0.1
74
0
49
-0.1
74
0
0
LTYPE
5
1F9
100
AcDbSymbolTableRecord
100
AcDbLinetypeTableRecord
2
DASHED
70
64
3
- - - - - - - - - - - - - - - - - - - -
72
65
73
2
40
0.2
49
0.1
74
0
49
-0.1
74
0
0
ENDTAB
0
TABLE
2
LAYER
5
2
100
AcDbSymbolTable
70
36
0
LAYER
5
10
100
AcDbSymbolTableRecord
100
AcDbLayerTableRecord
2
0
70
0
62
7
6
CONTINUOUS
0
LAYER
5
1FA
100
AcDbSymbolTableRecord
100
AcDbLayerTableRecord
2
DEFAULT_1
70
0
62
7
6
CENTER
0
LAYER
5
1FB
100
AcDbSymbolTableRecord
100
AcDbLayerTableRecord
2
DEFAULT_2
70
0
62
8
6
HIDDEN
0
LAYER
5
1FC
100
AcDbSymbolTableRecord
100
AcDbLayerTableRecord
2
DEFAULT_3
70
0
62
7
6
PHANTOM
0
LAYER
5
1FD
100
AcDbSymbolTableRecord
100
AcDbLayerTableRecord
2
ASSI
70
0
62
7
6
CONTINUOUS
0
LAYER
5
1FE
100
AcDbSymbolTableRecord
100
AcDbLayerTableRecord
2
COORDINATE
70
0
62
7
6
CONTINUOUS
0
LAYER
5
1FF
100
AcDbSymbolTableRecord
100
AcDbLayerTableRecord
2
COORD_ORIGINE
70
0
62
7
6
CONTINUOUS
0
LAYER
5
200
100
AcDbSymbolTableRecord
100
AcDbLayerTableRecord
2
COPY_GEOM
70
0
62
7
6
CONTINUOUS
0
LAYER
5
201
100
AcDbSymbolTableRecord
100
AcDbLayerTableRecord
2
COPY_GEOMETRY
70
0
62
7
6
CONTINUOUS
0
LAYER
5
202
100
AcDbSymbolTableRecord
100
AcDbLayerTableRecord
2
CURVE
70
0
62
7
6
CONTINUOUS
0
LAYER
5
203
100
AcDbSymbolTableRecord
100
AcDbLayerTableRecord
2
DRAFT
70
0
62
7
6
CONTINUOUS
0
LAYER
5
204
100
AcDbSymbolTableRecord
100
AcDbLayerTableRecord
2
IGS
70
0
62
7
6
CONTINUOUS
0
LAYER
5
205
100
AcDbSymbolTableRecord
100
AcDbLayerTableRecord
2
NOTE
70
0
62
7
6
CONTINUOUS
0
LAYER
5
206
100
AcDbSymbolTableRecord
100
AcDbLayerTableRecord
2
PIANI
70
0
62
7
6
CONTINUOUS
0
LAYER
5
207
100
AcDbSymbolTableRecord
100
AcDbLayerTableRecord
2
PIANI_ORIGINE
70
0
62
7
6
CONTINUOUS
0
LAYER
5
208
100
AcDbSymbolTableRecord
100
AcDbLayerTableRecord
2
PIANI_RIFERIMENTO
70
0
62
7
6
CONTINUOUS
0
LAYER
5
209
100
AcDbSymbolTableRecord
100
AcDbLayerTableRecord
2
PUNTI
70
0
62
7
6
CONTINUOUS
0
LAYER
5
20A
100
AcDbSymbolTableRecord
100
AcDbLayerTableRecord
2
RACCORDO
70
0
62
7
6
CONTINUOUS
0
LAYER
5
20B
100
AcDbSymbolTableRecord
100
AcDbLayerTableRecord
2
SMUSSO
70
0
62
7
6
CONTINUOUS
0
LAYER
5
20C
100
AcDbSymbolTableRecord
100
AcDbLayerTableRecord
2
SUPERFICI
70
0
62
7
6
CONTINUOUS
0
LAYER
5
20D
100
AcDbSymbolTableRecord
100
AcDbLayerTableRecord
2
SUP_ARANCIONE
70
0
62
7
6
CONTINUOUS
0
LAYER
5
20E
100
AcDbSymbolTableRecord
100
AcDbLayerTableRecord
2
SUP_DIFF
70
0
62
7
6
CONTINUOUS
0
LAYER
5
20F
100
AcDbSymbolTableRecord
100
AcDbLayerTableRecord
2
SUP_ROSSA
70
0
62
7
6
CONTINUOUS
0
LAYER
5
210
100
AcDbSymbolTableRecord
100
AcDbLayerTableRecord
2
SUP_VERDE
70
0
62
7
6
CONTINUOUS
0
LAYER
5
211
100
AcDbSymbolTableRecord
100
AcDbLayerTableRecord
2
TRASH
70
0
62
7
6
CONTINUOUS
0
LAYER
5
212
100
AcDbSymbolTableRecord
100
AcDbLayerTableRecord
2
XSEC_DATUMS
70
0
62
7
6
CONTINUOUS
0
ENDTAB
0
TABLE
2
STYLE
5
3
100
AcDbSymbolTable
70
1
0
STYLE
5
11
100
AcDbSymbolTableRecord
100
AcDbTextStyleTableRecord
2
STANDARD
70
0
40
0.0
41
0.8000000000
50
0.0
71
0
42
0.2
3
txt
4

0
ENDTAB
0
TABLE
2
VIEW
5
6
100
AcDbSymbolTable
70
0
0
ENDTAB
0
TABLE
2
UCS
5
7
100
AcDbSymbolTable
70
0
0
ENDTAB
0
TABLE
2
APPID
5
9
100
AcDbSymbolTable
70
1
0
APPID
5
213
100
AcDbSymbolTableRecord
100
AcDbRegAppTableRecord
2
ACAD
70
0
0
ENDTAB
0
TABLE
2
DIMSTYLE
5
A
100
AcDbSymbolTable
70
1
0
DIMSTYLE
105
214
100
AcDbSymbolTableRecord
100
AcDbDimStyleTableRecord
2
STANDARD
70
0
3

4

5

6

7

40
1.0
41
3.0000000000
42
0.0625
43
0.38
44
0.18
45
0.0
46
0.0
47
0.0100000000
48
0.0100000000
140
3.0000000000
141
0.09
142
0.0
143
25.4
144
1.0000000000
145
0.0
146
1.0000000000
147
0.09
71
1
72
0
73
0
74
0
75
0
76
0
77
1
78
8
170
0
171
2
172
0
173
0
174
0
175
0
176
0
177
0
178
0
270
2
271
2
272
2
273
2
274
2
340
11
275
0
280
0
281
0
282
0
283
1
284
8
285
0
286
0
287
3
288
0
0
ENDTAB
0
TABLE
2
BLOCK_RECORD
5
1
100
AcDbSymbolTable
70
0
0
BLOCK_RECORD
5
1B
100
AcDbSymbolTableRecord
100
AcDbBlockTableRecord
2
*MODEL_SPACE
0
BLOCK_RECORD
5
1C
100
AcDbSymbolTableRecord
100
AcDbBlockTableRecord
2
*PAPER_SPACE
0
ENDTAB
0
ENDSEC
0
SECTION
2
BLOCKS
0
BLOCK
5
1E
100
AcDbEntity
8
0
100
AcDbBlockBegin
2
*MODEL_SPACE
70
0
10
0.0
20
0.0
30
0.0
3
*MODEL_SPACE
1

0
ENDBLK
5
1F
100
AcDbEntity
8
0
100
AcDbBlockEnd
0
BLOCK
5
20
100
AcDbEntity
8
0
100
AcDbBlockBegin
2
*PAPER_SPACE
70
0
10
0.0
20
0.0
30
0.0
3
*PAPER_SPACE
1

0
ENDBLK
5
21
100
AcDbEntity
8
0
100
AcDbBlockEnd
0
ENDSEC
0
SECTION
2
ENTITIES
0
LINE
5
215
100
AcDbEntity
8
0
100
AcDbLine
62
7
6
CONTINUOUS
10
-8.2027440539
20
23.9544694308
11
-5.4675519948
21
25.4856943017
0
LINE
5
216
100
AcDbEntity
8
0
100
AcDbLine
62
9
6
CONTINUOUS
10
-7.9677559325
20
23.9464204488
11
-5.2362028842
21
25.4756081159
0
LINE
5
217
100
AcDbEntity
8
0
100
AcDbLine
62
7
6
CONTINUOUS
10
-8.7868383252
20
23.0306972011
11
-8.7868517512
21
23.0305766638
0
LINE
5
218
100
AcDbEntity
8
0
100
AcDbLine
62
9
6
CONTINUOUS
10
9.6132818285
20
18.0508657595
11
6.7348255151
21
16.5951297250
0
LINE
5
219
100
AcDbEntity
8
0
100
AcDbLine
62
7
6
CONTINUOUS
10
-8.3908460810
20
-14.1742337562
11
6.3005300091
21
-21.5199218013
0
LINE
5
21A
100
AcDbEntity
8
0
100
AcDbLine
62
9
6
CONTINUOUS
10
-8.6396113920
20
-13.7596028866
11
6.0451434988
21
-21.1019803320
0
LINE
5
21B
100
AcDbEntity
8
0
100
AcDbLine
62
7
6
CONTINUOUS
10
6.3000219274
20
-21.5196673312
11
6.3005076437
21
-21.5199106186
0
LINE
5
21C
100
AcDbEntity
8
0
100
AcDbLine
62
7
6
CONTINUOUS
10
-8.7859687521
20
-13.5836744825
11
-8.7859181110
21
-13.5840686414
0
LINE
5
21D
100
AcDbEntity
8
0
100
AcDbLine
62
9
6
CONTINUOUS
10
9.9667140652
20
17.4412853219
11
7.0882577517
21
15.9855492874
0
LINE
5
21E
100
AcDbEntity
8
0
100
AcDbLine
62
9
6
CONTINUOUS
10
2.1908914621
20
-14.2406092273
11
-5.8009992639
21
-10.2446638642
0
LINE
5
21F
100
AcDbEntity
8
0
100
AcDbLine
62
7
6
CONTINUOUS
10
2.0096631705
20
-14.1342538804
11
-5.8543407198
21
-10.2022519352
0
LINE
5
220
100
AcDbEntity
8
0
100
AcDbLine
62
9
6
CONTINUOUS
10
1.9709821338
20
-14.0627824364
11
-5.8930217561
21
-10.1307804914
0
LINE
5
221
100
AcDbEntity
8
0
100
AcDbLine
62
9
6
CONTINUOUS
10
-6.0470741615
20
-6.5826324250
11
1.8147337621
21
-10.5135363868
0
LINE
5
222
100
AcDbEntity
8
0
100
AcDbLine
62
9
6
CONTINUOUS
10
-5.9419786637
20
-6.3964051014
11
1.9198292599
21
-10.3273090633
0
LINE
5
223
100
AcDbEntity
8
0
100
AcDbLine
62
7
6
CONTINUOUS
10
-5.9511366441
20
-6.3013311609
11
2.0432034934
21
-10.2985012296
0
LINE
5
224
100
AcDbEntity
8
0
100
AcDbLine
62
9
6
CONTINUOUS
10
-5.9771017004
20
-6.2495000806
11
2.0172384380
21
-10.2466701498
0
LINE
5
225
100
AcDbEntity
8
0
100
AcDbLine
62
9
6
CONTINUOUS
10
-9.3146093101
20
-4.0304099704
11
5.3340511751
21
-11.3547402130
0
LINE
5
226
100
AcDbEntity
8
0
100
AcDbLine
62
7
6
CONTINUOUS
10
2.3427322068
20
-10.7361326870
11
2.3427245552
21
-10.7360921876
0
LINE
5
227
100
AcDbEntity
8
0
100
AcDbLine
62
7
6
CONTINUOUS
10
2.4864286140
20
-14.0290308565
11
2.4864519907
21
-14.0288570302
0
LINE
5
228
100
AcDbEntity
8
0
100
AcDbLine
62
7
6
CONTINUOUS
10
-6.1665415414
20
-6.3826812246
11
-6.1664993611
21
-6.3826593851
0
LINE
5
229
100
AcDbEntity
8
0
100
AcDbLine
62
7
6
CONTINUOUS
10
-6.0260959204
20
-6.3099439011
11
-6.0260056917
21
-6.3098972009
0
LINE
5
22A
100
AcDbEntity
8
0
100
AcDbLine
62
7
6
CONTINUOUS
10
-6.0820796851
20
-6.2855719807
11
-6.0816900684
21
-6.2853849357
0
LINE
5
22B
100
AcDbEntity
8
0
100
AcDbLine
62
7
6
CONTINUOUS
10
9.9667140652
20
-19.9713088869
11
9.9667140652
21
17.4412853219
0
LINE
5
22C
100
AcDbEntity
8
0
100
AcDbLine
62
9
6
CONTINUOUS
10
-9.3146093101
20
12.4240727015
11
5.3340511751
21
5.0997424589
0
LINE
5
22D
100
AcDbEntity
8
0
100
AcDbLine
62
7
6
CONTINUOUS
10
2.4350331120
20
-14.1260344185
11
2.4348538910
21
-14.1261269795
0
LINE
5
22E
100
AcDbEntity
8
0
100
AcDbLine
62
9
6
CONTINUOUS
10
-8.6396113920
20
22.8643579413
11
6.0451434988
21
15.5219804959
0
LINE
5
22F
100
AcDbEntity
8
0
100
AcDbLine
62
9
6
CONTINUOUS
10
-7.9677559325
20
23.9464204488
11
6.7348255151
21
16.5951297250
0
LINE
5
230
100
AcDbEntity
8
0
100
AcDbLine
62
9
6
CONTINUOUS
10
7.0882577517
20
-21.2471259007
11
9.9667140652
21
-19.9713088869
0
LINE
5
231
100
AcDbEntity
8
0
100
AcDbLine
62
7
6
CONTINUOUS
10
6.9466858691
20
-21.5228939462
11
9.8289019943
21
-20.2454104725
0
LINE
5
232
100
AcDbEntity
8
0
100
AcDbLine
62
7
6
CONTINUOUS
10
-5.2362028842
20
25.4756081159
11
9.6132818285
21
18.0508657595
0
SPLINE
5
233
100
AcDbEntity
8
0
100
AcDbSpline
62
7
6
CONTINUOUS
70
0
71
3
72
8
73
4
74
2
42
0.0000001000
43
0.0000001000
44
0.0000000001
12
-0.0425280974
22
-0.0220254219
32
0.0000000000
13
-0.0425280909
23
-0.0220254345
33
0.0000000000
40
0.0000000000
40
0.0000000000
40
0.0000000000
40
0.0000000000
40
1.0000000000
40
1.0000000000
40
1.0000000000
40
1.0000000000
10
-5.9835678430
20
-6.2879184404
30
0.0000000000
10
-5.9977438755
20
-6.2952602477
30
0.0000000000
10
-6.0119199069
20
-6.3026020571
30
0.0000000000
10
-6.0260959372
20
-6.3099438686
30
0.0000000000
11
-5.9835678430
21
-6.2879184404
31
0.0000000000
11
-6.0260959372
21
-6.3099438686
31
0.0000000000
0
SPLINE
5
234
100
AcDbEntity
8
0
100
AcDbSpline
62
7
6
CONTINUOUS
70
0
71
3
72
8
73
4
74
2
42
0.0000001000
43
0.0000001000
44
0.0000000001
12
0.0450039199
22
0.0217076433
32
0.0000000000
13
0.0450039133
23
0.0217076569
33
0.0000000000
40
0.0000000000
40
0.0000000000
40
0.0000000000
40
0.0000000000
40
1.0000000000
40
1.0000000000
40
1.0000000000
40
1.0000000000
10
2.4355431355
20
-14.0790146808
30
0.0000000000
10
2.4505444422
20
-14.0717787997
30
0.0000000000
10
2.4655457477
20
-14.0645429163
30
0.0000000000
10
2.4805470521
20
-14.0573070306
30
0.0000000000
11
2.4355431355
21
-14.0790146808
31
0.0000000000
11
2.4805470521
21
-14.0573070306
31
0.0000000000
0
SPLINE
5
235
100
AcDbEntity
8
0
100
AcDbSpline
62
9
6
CONTINUOUS
70
0
71
3
72
9
73
5
74
3
42
0.0000001000
43
0.0000001000
44
0.0000000001
12
-0.0408709743
22
-0.0412937777
32
0.0000000000
13
-0.0520875217
23
-0.0257498099
33
0.0000000000
40
0.0000000000
40
0.0000000000
40
0.0000000000
40
0.0000000000
40
0.3104325717
40
1.0000000000
40
1.0000000000
40
1.0000000000
40
1.0000000000
10
2.4838750195
20
-14.0443522655
30
0.0000000000
10
2.4796457923
20
-14.0486252433
30
0.0000000000
10
2.4653579073
20
-14.0617286784
30
0.0000000000
10
2.4490073629
20
-14.0723675595
30
0.0000000000
10
2.4370347434
20
-14.0782863029
30
0.0000000000
11
2.4838750195
21
-14.0443522655
31
0.0000000000
11
2.4705761674
21
-14.0565232044
31
0.0000000000
11
2.4370347434
21
-14.0782863029
31
0.0000000000
0
SPLINE
5
236
100
AcDbEntity
8
0
100
AcDbSpline
62
9
6
CONTINUOUS
70
0
71
3
72
8
73
4
74
2
42
0.0000001000
43
0.0000001000
44
0.0000000001
12
-0.0014849788
22
-0.0007341091
32
0.0000000000
13
-0.0014920564
23
-0.0007195698
33
0.0000000000
40
0.0000000000
40
0.0000000000
40
0.0000000000
40
0.0000000000
40
1.0000000000
40
1.0000000000
40
1.0000000000
40
1.0000000000
10
2.4370347434
20
-14.0782863029
30
0.0000000000
10
2.4365397505
20
-14.0785310059
30
0.0000000000
10
2.4360435648
20
-14.0787732860
30
0.0000000000
10
2.4355462126
20
-14.0790131426
30
0.0000000000
11
2.4370347434
21
-14.0782863029
31
0.0000000000
11
2.4355462126
21
-14.0790131426
31
0.0000000000
0
SPLINE
5
237
100
AcDbEntity
8
0
100
AcDbSpline
62
9
6
CONTINUOUS
70
0
71
3
72
10
73
6
74
4
42
0.0000001000
43
0.0000001000
44
0.0000000001
12
0.0501787319
22
0.0259649900
32
0.0000000000
13
0.0556174239
23
0.0098445312
33
0.0000000000
40
0.0000000000
40
0.0000000000
40
0.0000000000
40
0.0000000000
40
0.0584172441
40
0.7905391929
40
1.0000000000
40
1.0000000000
40
1.0000000000
40
1.0000000000
10
-6.0260055253
20
-6.3098975225
30
0.0000000000
10
-6.0250284242
20
-6.3093919214
30
0.0000000000
10
-6.0117430345
20
-6.3026713183
30
0.0000000000
10
-5.9938975216
20
-6.2962790740
30
0.0000000000
10
-5.9765338478
20
-6.2926700860
30
0.0000000000
10
-5.9726506243
20
-6.2919827382
30
0.0000000000
11
-6.0260055253
21
-6.3098975225
31
0.0000000000
11
-6.0230604751
21
-6.3084077818
31
0.0000000000
11
-5.9842314128
21
-6.2943950237
31
0.0000000000
11
-5.9726506243
21
-6.2919827382
31
0.0000000000
0
SPLINE
5
238
100
AcDbEntity
8
0
100
AcDbSpline
62
7
6
CONTINUOUS
70
0
71
3
72
13
73
9
74
7
42
0.0000001000
43
0.0000001000
44
0.0000000001
12
-0.2621957420
22
-0.1357571268
32
0.0000000000
13
-0.0468772118
23
-0.2916170204
33
0.0000000000
40
0.0000000000
40
0.0000000000
40
0.0000000000
40
0.0000000000
40
0.1454383923
40
0.3111663854
40
0.4837189503
40
0.6636074833
40
0.8518299100
40
1.0000000000
40
1.0000000000
40
1.0000000000
40
1.0000000000
10
-6.1664957547
20
-6.3826576832
30
0.0000000000
10
-6.1792068638
20
-6.3892391160
30
0.0000000000
10
-6.2053441398
20
-6.4054767974
30
0.0000000000
10
-6.2412256386
20
-6.4370937966
30
0.0000000000
10
-6.2732085510
20
-6.4771244746
30
0.0000000000
10
-6.2990067785
20
-6.5239263318
30
0.0000000000
10
-6.3161156772
20
-6.5719643196
30
0.0000000000
10
-6.3230751048
20
-6.6044139120
30
0.0000000000
10
-6.3253903717
20
-6.6188168854
30
0.0000000000
11
-6.1664957547
21
-6.3826576832
31
0.0000000000
11
-6.2029723639
21
-6.4053138995
31
0.0000000000
11
-6.2397081144
21
-6.4376132449
31
0.0000000000
11
-6.2715724305
21
-6.4773442253
31
0.0000000000
11
-6.2973276735
21
-6.5237747782
31
0.0000000000
11
-6.3161317370
21
-6.5760509334
31
0.0000000000
11
-6.3253903717
21
-6.6188168854
31
0.0000000000
0
SPLINE
5
239
100
AcDbEntity
8
0
100
AcDbSpline
62
7
6
CONTINUOUS
70
0
71
3
72
13
73
9
74
7
42
0.0000001000
43
0.0000001000
44
0.0000000001
12
-0.4993085511
22
-3.1069564254
32
0.0000000000
13
0.6693992711
23
-3.0747897048
33
0.0000000000
40
0.0000000000
40
0.0000000000
40
0.0000000000
40
0.0000000000
40
0.1524928065
40
0.3135248318
40
0.4794124251
40
0.6500321611
40
0.8252024263
40
1.0000000000
40
1.0000000000
40
1.0000000000
40
1.0000000000
10
-6.3253915949
20
-6.6188230526
30
0.0000000000
10
-6.3507719156
20
-6.7767525543
30
0.0000000000
10
-6.3910279517
20
-7.1034755199
30
0.0000000000
10
-6.4179016089
20
-7.6059886915
30
0.0000000000
10
-6.4113707147
20
-8.1281915804
30
0.0000000000
10
-6.3712587327
20
-8.6637318750
30
0.0000000000
10
-6.2984634227
20
-9.2052046185
30
0.0000000000
10
-6.2295493172
20
-9.5659769861
30
0.0000000000
10
-6.1905461944
20
-9.7451322461
30
0.0000000000
11
-6.3253915949
21
-6.6188230526
31
0.0000000000
11
-6.3845658817
21
-7.0950284958
31
0.0000000000
11
-6.4121419180
21
-7.6010090519
31
0.0000000000
11
-6.4060954905
21
-8.1229848587
31
0.0000000000
11
-6.3664430094
21
-8.6584204153
31
0.0000000000
11
-6.2934064001
21
-9.2047816281
31
0.0000000000
11
-6.1905461944
21
-9.7451322461
31
0.0000000000
0
SPLINE
5
23A
100
AcDbEntity
8
0
100
AcDbSpline
62
7
6
CONTINUOUS
70
0
71
3
72
16
73
12
74
10
42
0.0000001000
43
0.0000001000
44
0.0000000001
12
0.1243750746
22
-0.5713888263
32
0.0000000000
13
0.5231483197
23
-0.2615500663
33
0.0000000000
40
0.0000000000
40
0.0000000000
40
0.0000000000
40
0.0000000000
40
0.0936643955
40
0.2120343177
40
0.3312400538
40
0.4506137414
40
0.5694518201
40
0.6869241723
40
0.8021967792
40
0.9148596101
40
1.0000000000
40
1.0000000000
40
1.0000000000
40
1.0000000000
10
-6.1905481620
20
-9.7451242000
30
0.0000000000
10
-6.1866649900
20
-9.7629637964
30
0.0000000000
10
-6.1760718219
20
-9.8029772464
30
0.0000000000
10
-6.1538614315
20
-9.8636875652
30
0.0000000000
10
-6.1238216251
20
-9.9265393918
30
0.0000000000
10
-6.0880931988
20
-9.9864404718
30
0.0000000000
10
-6.0472102258
20
-10.0425366801
30
0.0000000000
10
-6.0017029216
20
-10.0938993010
30
0.0000000000
10
-5.9520782358
20
-10.1395672775
30
0.0000000000
10
-5.9027362230
20
-10.1756744218
30
0.0000000000
10
-5.8691687346
20
-10.1948385181
30
0.0000000000
10
-5.8543217173
20
-10.2022613430
30
0.0000000000
11
-6.1905481620
21
-9.7451242000
31
0.0000000000
11
-6.1765988895
21
-9.7980903364
31
0.0000000000
11
-6.1529086888
21
-9.8631096595
31
0.0000000000
11
-6.1228943596
21
-9.9260043624
31
0.0000000000
11
-6.0871435937
21
-9.9859391698
31
0.0000000000
11
-6.0461870716
21
-10.0420573967
31
0.0000000000
11
-6.0005742196
21
-10.0933979988
31
0.0000000000
11
-5.9508909797
21
-10.1389280362
31
0.0000000000
11
-5.8976222930
21
-10.1776649453
31
0.0000000000
11
-5.8543217173
21
-10.2022613430
31
0.0000000000
0
SPLINE
5
23B
100
AcDbEntity
8
0
100
AcDbSpline
62
7
6
CONTINUOUS
70
0
71
3
72
13
73
9
74
7
42
0.0000001000
43
0.0000001000
44
0.0000000001
12
0.2624580264
22
-0.1312218092
32
0.0000000000
13
0.2645206926
23
0.1275739937
33
0.0000000000
40
0.0000000000
40
0.0000000000
40
0.0000000000
40
0.0000000000
40
0.1582871414
40
0.3475486159
40
0.5253616551
40
0.6945168466
40
0.8572814239
40
1.0000000000
40
1.0000000000
40
1.0000000000
40
1.0000000000
10
2.0096696372
20
-14.1342570320
30
0.0000000000
10
2.0235175474
20
-14.1411806070
30
0.0000000000
10
2.0547290104
20
-14.1548278974
30
0.0000000000
10
2.1041954508
20
-14.1692992990
30
0.0000000000
10
2.1563968338
20
-14.1761047465
30
0.0000000000
10
2.2064276014
20
-14.1743778158
30
0.0000000000
10
2.2520806763
20
-14.1648796914
30
0.0000000000
10
2.2800325851
20
-14.1540243766
30
0.0000000000
10
2.2926165906
20
-14.1479553170
30
0.0000000000
11
2.0096696372
21
-14.1342570320
31
0.0000000000
11
2.0522611332
21
-14.1527666018
31
0.0000000000
11
2.1055848815
21
-14.1681651383
31
0.0000000000
11
2.1573127523
21
-14.1747494083
31
0.0000000000
11
2.2068853657
21
-14.1729231302
31
0.0000000000
11
2.2536025642
21
-14.1631322959
31
0.0000000000
11
2.2926165906
21
-14.1479553170
31
0.0000000000
0
SPLINE
5
23C
100
AcDbEntity
8
0
100
AcDbSpline
62
7
6
CONTINUOUS
70
0
71
3
72
8
73
4
74
2
42
0.0000001000
43
0.0000001000
44
0.0000000001
12
-0.0425283373
22
-0.0220255462
32
0.0000000000
13
-0.0425283308
23
-0.0220255587
33
0.0000000000
40
0.0000000000
40
0.0000000000
40
0.0000000000
40
0.0000000000
40
1.0000000000
40
1.0000000000
40
1.0000000000
40
1.0000000000
10
-5.9835676032
20
-6.2879183162
30
0.0000000000
10
-5.9977437156
20
-6.2952601649
30
0.0000000000
10
-6.0119198269
20
-6.3026020157
30
0.0000000000
10
-6.0260959372
20
-6.3099438686
30
0.0000000000
11
-5.9835676032
21
-6.2879183162
31
0.0000000000
11
-6.0260959372
21
-6.3099438686
31
0.0000000000
0
SPLINE
5
23D
100
AcDbEntity
8
0
100
AcDbSpline
62
7
6
CONTINUOUS
70
0
71
3
72
8
73
4
74
2
42
0.0000001000
43
0.0000001000
44
0.0000000001
12
-0.0338432074
22
-0.0175275055
32
0.0000000000
13
-0.0338432032
23
-0.0175275135
33
0.0000000000
40
0.0000000000
40
0.0000000000
40
0.0000000000
40
0.0000000000
40
1.0000000000
40
1.0000000000
40
1.0000000000
40
1.0000000000
10
-6.0260959372
20
-6.3099438686
30
0.0000000000
10
-6.0373770063
20
-6.3157863705
30
0.0000000000
10
-6.0486580748
20
-6.3216288736
30
0.0000000000
10
-6.0599391425
20
-6.3274713781
30
0.0000000000
11
-6.0260959372
21
-6.3099438686
31
0.0000000000
11
-6.0599391425
21
-6.3274713781
31
0.0000000000
0
SPLINE
5
23E
100
AcDbEntity
8
0
100
AcDbSpline
62
7
6
CONTINUOUS
70
0
71
3
72
8
73
4
74
2
42
0.0000001000
43
0.0000001000
44
0.0000000001
12
-0.1066024808
22
-0.0552097982
32
0.0000000000
13
-0.1066024398
23
-0.0552098773
33
0.0000000000
40
0.0000000000
40
0.0000000000
40
0.0000000000
40
0.0000000000
40
1.0000000000
40
1.0000000000
40
1.0000000000
40
1.0000000000
10
-6.0599391425
20
-6.3274713781
30
0.0000000000
10
-6.0954733028
20
-6.3458746442
30
0.0000000000
10
-6.1310074562
20
-6.3642779234
30
0.0000000000
10
-6.1665416028
20
-6.3826812159
30
0.0000000000
11
-6.0599391425
21
-6.3274713781
31
0.0000000000
11
-6.1665416028
21
-6.3826812159
31
0.0000000000
0
SPLINE
5
23F
100
AcDbEntity
8
0
100
AcDbSpline
62
7
6
CONTINUOUS
70
0
71
3
72
8
73
4
74
2
42
0.0000001000
43
0.0000001000
44
0.0000000001
12
0.1239546031
22
0.0597893632
32
0.0000000000
13
0.1239545533
23
0.0597894664
33
0.0000000000
40
0.0000000000
40
0.0000000000
40
0.0000000000
40
0.0000000000
40
1.0000000000
40
1.0000000000
40
1.0000000000
40
1.0000000000
10
2.2926259995
20
-14.1479506849
30
0.0000000000
10
2.3339442005
20
-14.1280208972
30
0.0000000000
10
2.3752623932
20
-14.1080910922
30
0.0000000000
10
2.4165805777
20
-14.0881612701
30
0.0000000000
11
2.2926259995
21
-14.1479506849
31
0.0000000000
11
2.4165805777
21
-14.0881612701
31
0.0000000000
0
SPLINE
5
240
100
AcDbEntity
8
0
100
AcDbSpline
62
7
6
CONTINUOUS
70
0
71
3
72
8
73
4
74
2
42
0.0000001000
43
0.0000001000
44
0.0000000001
12
0.0189656566
22
0.0091480826
32
0.0000000000
13
0.0189656555
23
0.0091480850
33
0.0000000000
40
0.0000000000
40
0.0000000000
40
0.0000000000
40
0.0000000000
40
1.0000000000
40
1.0000000000
40
1.0000000000
40
1.0000000000
10
2.4165805777
20
-14.0881612701
30
0.0000000000
10
2.4229024632
20
-14.0851119093
30
0.0000000000
10
2.4292243486
20
-14.0820625480
30
0.0000000000
10
2.4355462337
20
-14.0790131863
30
0.0000000000
11
2.4165805777
21
-14.0881612701
31
0.0000000000
11
2.4355462337
21
-14.0790131863
31
0.0000000000
0
SPLINE
5
241
100
AcDbEntity
8
0
100
AcDbSpline
62
7
6
CONTINUOUS
70
0
71
3
72
8
73
4
74
2
42
0.0000001000
43
0.0000001000
44
0.0000000001
12
0.0450008217
22
0.0217061489
32
0.0000000000
13
0.0450008151
23
0.0217061625
33
0.0000000000
40
0.0000000000
40
0.0000000000
40
0.0000000000
40
0.0000000000
40
1.0000000000
40
1.0000000000
40
1.0000000000
40
1.0000000000
10
2.4355462337
20
-14.0790131863
30
0.0000000000
10
2.4505465076
20
-14.0717778034
30
0.0000000000
10
2.4655467804
20
-14.0645424181
30
0.0000000000
10
2.4805470521
20
-14.0573070306
30
0.0000000000
11
2.4355462337
21
-14.0790131863
31
0.0000000000
11
2.4805470521
21
-14.0573070306
31
0.0000000000
0
SPLINE
5
242
100
AcDbEntity
8
0
100
AcDbSpline
62
9
6
CONTINUOUS
70
0
71
3
72
8
73
4
74
2
42
0.0000001000
43
0.0000001000
44
0.0000000001
12
0.0816965662
22
0.0411878014
32
0.0000000000
13
0.0816965467
23
0.0411878402
33
0.0000000000
40
0.0000000000
40
0.0000000000
40
0.0000000000
40
0.0000000000
40
1.0000000000
40
1.0000000000
40
1.0000000000
40
1.0000000000
10
2.2719444904
20
-10.8415542503
30
0.0000000000
10
2.2991766791
20
-10.8278249831
30
0.0000000000
10
2.3264088646
20
-10.8140957095
30
0.0000000000
10
2.3536410468
20
-10.8003664295
30
0.0000000000
11
2.2719444904
21
-10.8415542503
31
0.0000000000
11
2.3536410468
21
-10.8003664295
31
0.0000000000
0
SPLINE
5
243
100
AcDbEntity
8
0
100
AcDbSpline
62
9
6
CONTINUOUS
70
0
71
3
72
8
73
4
74
2
42
0.0000001000
43
0.0000001000
44
0.0000000001
12
0.0917567088
22
0.0442208080
32
0.0000000000
13
0.0917566761
23
0.0442208760
33
0.0000000000
40
0.0000000000
40
0.0000000000
40
0.0000000000
40
0.0000000000
40
1.0000000000
40
1.0000000000
40
1.0000000000
40
1.0000000000
10
2.4071409510
20
-13.9663430889
30
0.0000000000
10
2.4377265206
20
-13.9516028196
30
0.0000000000
10
2.4683120848
20
-13.9368625389
30
0.0000000000
10
2.4988976435
20
-13.9221222469
30
0.0000000000
11
2.4071409510
21
-13.9663430889
31
0.0000000000
11
2.4988976435
21
-13.9221222469
31
0.0000000000
0
SPLINE
5
244
100
AcDbEntity
8
0
100
AcDbSpline
62
9
6
CONTINUOUS
70
0
71
3
72
11
73
7
74
5
42
0.0000001000
43
0.0000001000
44
0.0000000001
12
0.0114598810
22
-0.0525125003
32
0.0000000000
13
0.0515218927
23
-0.0132406262
33
0.0000000000
40
0.0000000000
40
0.0000000000
40
0.0000000000
40
0.0000000000
40
0.1145135471
40
0.3563857982
40
0.6476439059
40
1.0000000000
40
1.0000000000
40
1.0000000000
40
1.0000000000
10
-6.1905199793
20
-9.7451265252
30
0.0000000000
10
-6.1900825421
20
-9.7471309894
30
0.0000000000
10
-6.1879902797
20
-9.7532116703
30
0.0000000000
10
-6.1803402521
20
-9.7622133144
30
0.0000000000
10
-6.1667138395
20
-9.7703404242
30
0.0000000000
10
-6.1558181459
20
-9.7739715847
30
0.0000000000
10
-6.1497667949
20
-9.7755267231
30
0.0000000000
11
-6.1905199793
21
-9.7451265252
31
0.0000000000
11
-6.1885193618
21
-9.7509222825
31
0.0000000000
11
-6.1805311378
21
-9.7610088533
31
0.0000000000
11
-6.1674510342
21
-9.7693135582
31
0.0000000000
11
-6.1497667949
21
-9.7755267231
31
0.0000000000
0
SPLINE
5
245
100
AcDbEntity
8
0
100
AcDbSpline
62
9
6
CONTINUOUS
70
0
71
3
72
12
73
8
74
6
42
0.0000001000
43
0.0000001000
44
0.0000000001
12
-0.0152553284
22
-0.0948887561
32
0.0000000000
13
0.0766380293
23
-0.0573279881
33
0.0000000000
40
0.0000000000
40
0.0000000000
40
0.0000000000
40
0.0000000000
40
0.0947123623
40
0.2945150675
40
0.5089008946
40
0.7435122837
40
1.0000000000
40
1.0000000000
40
1.0000000000
40
1.0000000000
10
-6.3253855945
20
-6.6188240173
30
0.0000000000
10
-6.3258672172
20
-6.6218197300
30
0.0000000000
10
-6.3266712757
20
-6.6312463141
30
0.0000000000
10
-6.3242325278
20
-6.6475405145
30
0.0000000000
10
-6.3155757150
20
-6.6665888214
30
0.0000000000
10
-6.3017035902
20
-6.6845159923
30
0.0000000000
10
-6.2898552506
20
-6.6949103001
30
0.0000000000
10
-6.2833030129
20
-6.6998116084
30
0.0000000000
11
-6.3253855945
21
-6.6188240173
31
0.0000000000
11
-6.3261552511
21
-6.6278830166
31
0.0000000000
11
-6.3234782703
21
-6.6468172893
31
0.0000000000
11
-6.3151985935
21
-6.6655908625
31
0.0000000000
11
-6.3016335446
21
-6.6834842271
31
0.0000000000
11
-6.2833030129
21
-6.6998116084
31
0.0000000000
0
SPLINE
5
246
100
AcDbEntity
8
0
100
AcDbSpline
62
9
6
CONTINUOUS
70
0
71
3
72
11
73
7
74
5
42
0.0000001000
43
0.0000001000
44
0.0000000001
12
-0.0761674359
22
0.0382040933
32
0.0000000000
13
-0.0054023873
23
0.0846549673
33
0.0000000000
40
0.0000000000
40
0.0000000000
40
0.0000000000
40
0.0000000000
40
0.1883847068
40
0.4320326187
40
0.7008560590
40
1.0000000000
40
1.0000000000
40
1.0000000000
40
1.0000000000
10
-5.8543392963
20
-10.2022490954
30
0.0000000000
10
-5.8591222230
20
-10.1998500731
30
0.0000000000
10
-5.8693150563
20
-10.1927718740
30
0.0000000000
10
-5.8815834306
20
-10.1768007448
30
0.0000000000
10
-5.8900607863
20
-10.1552251175
30
0.0000000000
10
-5.8924830590
20
-10.1392218316
30
0.0000000000
10
-5.8930217561
20
-10.1307804914
30
0.0000000000
11
-5.8543392963
21
-10.2022490954
31
0.0000000000
11
-5.8675111628
21
-10.1931511840
31
0.0000000000
11
-5.8803249349
21
-10.1769347737
31
0.0000000000
11
-5.8889577378
21
-10.1558284758
31
0.0000000000
11
-5.8930217561
21
-10.1307804914
31
0.0000000000
0
SPLINE
5
247
100
AcDbEntity
8
0
100
AcDbSpline
62
9
6
CONTINUOUS
70
0
71
3
72
15
73
11
74
9
42
0.0000001000
43
0.0000001000
44
0.0000000001
12
-0.1893180246
22
-0.1018194935
32
0.0000000000
13
-0.2086120214
23
0.0518608544
33
0.0000000000
40
0.0000000000
40
0.0000000000
40
0.0000000000
40
0.0000000000
40
0.1164870159
40
0.2437273840
40
0.3778064217
40
0.5144047986
40
0.6490612352
40
0.7774235612
40
0.8955085552
40
1.0000000000
40
1.0000000000
40
1.0000000000
40
1.0000000000
10
2.2719444450
20
-10.8415542389
30
0.0000000000
10
2.2645934144
20
-10.8455077886
30
0.0000000000
10
2.2487095169
20
-10.8528562500
30
0.0000000000
10
2.2231766550
20
-10.8619389094
30
0.0000000000
10
2.1956069009
20
-10.8693227899
30
0.0000000000
10
2.1670427600
20
-10.8747235932
30
0.0000000000
10
2.1385621196
20
-10.8779375902
30
0.0000000000
10
2.1112362345
20
-10.8788475152
30
0.0000000000
10
2.0860960121
20
-10.8774282884
30
0.0000000000
10
2.0703129975
20
-10.8747929194
30
0.0000000000
10
2.0630469403
20
-10.8729865808
30
0.0000000000
11
2.2719444450
21
-10.8415542389
31
0.0000000000
11
2.2492760855
21
-10.8521918761
31
0.0000000000
11
2.2235333035
21
-10.8614347284
31
0.0000000000
11
2.1957027111
21
-10.8689285566
31
0.0000000000
11
2.1668509372
21
-10.8743861538
31
0.0000000000
11
2.1380837480
21
-10.8775983536
31
0.0000000000
11
2.1105036683
21
-10.8784420457
31
0.0000000000
11
2.0851677260
21
-10.8768848951
31
0.0000000000
11
2.0630469403
21
-10.8729865808
31
0.0000000000
0
SPLINE
5
248
100
AcDbEntity
8
0
100
AcDbSpline
62
9
6
CONTINUOUS
70
0
71
3
72
13
73
9
74
7
42
0.0000001000
43
0.0000001000
44
0.0000000001
12
0.5589783731
22
-3.0401413906
32
0.0000000000
13
-0.3843467739
23
-3.0671149398
33
0.0000000000
40
0.0000000000
40
0.0000000000
40
0.0000000000
40
0.0000000000
40
0.1795462982
40
0.3547005340
40
0.5247566871
40
0.6892537287
40
0.8478116909
40
1.0000000000
40
1.0000000000
40
1.0000000000
40
1.0000000000
10
2.0630469337
20
-10.8729865844
30
0.0000000000
10
2.0965010996
20
-11.0549352953
30
0.0000000000
10
2.1550648299
20
-11.4158209725
30
0.0000000000
10
2.2179056539
20
-11.9530303084
30
0.0000000000
10
2.2543907109
20
-12.4771537008
30
0.0000000000
10
2.2642906837
20
-12.9853740469
30
0.0000000000
10
2.2475195305
20
-13.4750000447
30
0.0000000000
10
2.2179681718
20
-13.7940523533
30
0.0000000000
10
2.1984704766
20
-13.9496453654
30
0.0000000000
11
2.0630469337
21
-10.8729865844
31
0.0000000000
11
2.1516678936
21
-11.4208615310
31
0.0000000000
11
2.2142351007
21
-11.9586539520
31
0.0000000000
11
2.2503365939
21
-12.4830738429
31
0.0000000000
11
2.2597724172
21
-12.9914635502
31
0.0000000000
11
2.2424560056
21
-13.4812765117
31
0.0000000000
11
2.1984704766
21
-13.9496453654
31
0.0000000000
0
SPLINE
5
249
100
AcDbEntity
8
0
100
AcDbSpline
62
9
6
CONTINUOUS
70
0
71
3
72
13
73
9
74
7
42
0.0000001000
43
0.0000001000
44
0.0000000001
12
0.5671007812
22
-3.0878030414
32
0.0000000000
13
-0.3946500640
23
-3.1145436656
33
0.0000000000
40
0.0000000000
40
0.0000000000
40
0.0000000000
40
0.0000000000
40
0.1795446787
40
0.3546829478
40
0.5247266012
40
0.6892180399
40
0.8477808538
40
1.0000000000
40
1.0000000000
40
1.0000000000
40
1.0000000000
10
2.2719444904
20
-10.8415542503
30
0.0000000000
10
2.3058844663
20
-11.0263537852
30
0.0000000000
10
2.3652567325
20
-11.3928835780
30
0.0000000000
10
2.4288253539
20
-11.9384943730
30
0.0000000000
10
2.4655332164
20
-12.4708050611
30
0.0000000000
10
2.4751509290
20
-12.9869702530
30
0.0000000000
10
2.4575924763
20
-13.4842690564
30
0.0000000000
10
2.4271653829
20
-13.8083120297
30
0.0000000000
10
2.4071409510
20
-13.9663430889
30
0.0000000000
11
2.2719444904
21
-10.8415542503
31
0.0000000000
11
2.3617908697
21
-11.3980187494
31
0.0000000000
11
2.4250773241
21
-11.9442018709
31
0.0000000000
11
2.4613938454
21
-12.4768082910
31
0.0000000000
11
2.4705387106
21
-12.9931395582
31
0.0000000000
11
2.4524263858
21
-13.4906095802
31
0.0000000000
11
2.4071409510
21
-13.9663430889
31
0.0000000000
0
SPLINE
5
24A
100
AcDbEntity
8
0
100
AcDbSpline
62
9
6
CONTINUOUS
70
0
71
3
72
8
73
4
74
2
42
0.0000001000
43
0.0000001000
44
0.0000000001
12
0.0316041779
22
0.0163679448
32
0.0000000000
13
0.0316041815
23
0.0163679379
33
0.0000000000
40
0.0000000000
40
0.0000000000
40
0.0000000000
40
0.0000000000
40
1.0000000000
40
1.0000000000
40
1.0000000000
40
1.0000000000
10
-5.9419786637
20
-6.3964051014
30
0.0000000000
10
-5.9314439377
20
-6.3909491198
30
0.0000000000
10
-5.9209092112
20
-6.3854931394
30
0.0000000000
10
-5.9103744840
20
-6.3800371601
30
0.0000000000
11
-5.9419786637
21
-6.3964051014
31
0.0000000000
11
-5.9103744840
21
-6.3800371601
31
0.0000000000
0
SPLINE
5
24B
100
AcDbEntity
8
0
100
AcDbSpline
62
9
6
CONTINUOUS
70
0
71
3
72
8
73
4
74
2
42
0.0000001000
43
0.0000001000
44
0.0000000001
12
0.0572990366
22
0.0296754108
32
0.0000000000
13
0.0572990484
23
0.0296753880
33
0.0000000000
40
0.0000000000
40
0.0000000000
40
0.0000000000
40
0.0000000000
40
1.0000000000
40
1.0000000000
40
1.0000000000
40
1.0000000000
10
-5.9103744840
20
-6.3800371601
30
0.0000000000
10
-5.8912748051
20
-6.3701453565
30
0.0000000000
10
-5.8721751243
20
-6.3602535567
30
0.0000000000
10
-5.8530754415
20
-6.3503617607
30
0.0000000000
11
-5.9103744840
21
-6.3800371601
31
0.0000000000
11
-5.8530754415
21
-6.3503617607
31
0.0000000000
0
SPLINE
5
24C
100
AcDbEntity
8
0
100
AcDbSpline
62
9
6
CONTINUOUS
70
0
71
3
72
15
73
11
74
9
42
0.0000001000
43
0.0000001000
44
0.0000000001
12
-0.1990175661
22
-0.1016359206
32
0.0000000000
13
0.0053749240
23
-0.2234031382
33
0.0000000000
40
0.0000000000
40
0.0000000000
40
0.0000000000
40
0.0000000000
40
0.1108921210
40
0.2310627698
40
0.3584876343
40
0.4904152862
40
0.6236895969
40
0.7550392647
40
0.8813583973
40
1.0000000000
40
1.0000000000
40
1.0000000000
40
1.0000000000
10
1.9198292599
20
-10.3273090633
30
0.0000000000
10
1.9124727666
20
-10.3310659375
30
0.0000000000
10
1.8979119113
20
-10.3404419393
30
0.0000000000
10
1.8779767768
20
-10.3583415252
30
0.0000000000
10
1.8596984397
20
-10.3800184010
30
0.0000000000
10
1.8437783913
20
-10.4046397160
30
0.0000000000
10
1.8308200482
20
-10.4312640003
30
0.0000000000
10
1.8213212997
20
-10.4588735104
30
0.0000000000
10
1.8156468778
20
-10.4864029859
30
0.0000000000
10
1.8145211989
20
-10.5047014180
30
0.0000000000
10
1.8147337621
20
-10.5135363868
30
0.0000000000
11
1.9198292599
21
-10.3273090633
31
0.0000000000
11
1.8988908602
21
-10.3405632061
31
0.0000000000
11
1.8788145608
21
-10.3583983951
31
0.0000000000
11
1.8603919710
21
-10.3801113839
31
0.0000000000
11
1.8443494917
21
-10.4048460245
31
0.0000000000
11
1.8313196739
21
-10.4316270265
31
0.0000000000
11
1.8218162765
21
-10.4593984142
31
0.0000000000
11
1.8162140100
21
-10.4870651651
31
0.0000000000
11
1.8147337621
21
-10.5135363868
31
0.0000000000
0
SPLINE
5
24D
100
AcDbEntity
8
0
100
AcDbSpline
62
9
6
CONTINUOUS
70
0
71
3
72
17
73
13
74
11
42
0.0000001000
43
0.0000001000
44
0.0000000001
12
0.4031158920
22
-0.2015817015
32
0.0000000000
13
0.0815197721
23
-0.4432743298
33
0.0000000000
40
0.0000000000
40
0.0000000000
40
0.0000000000
40
0.0000000000
40
0.0864696700
40
0.1785254047
40
0.2754430540
40
0.3763323573
40
0.4801416467
40
0.5856871020
40
0.6917104515
40
0.7969449532
40
0.9001310944
40
1.0000000000
40
1.0000000000
40
1.0000000000
40
1.0000000000
10
1.8147337621
20
-10.5135363868
30
0.0000000000
10
1.8263528615
20
-10.5193466212
30
0.0000000000
10
1.8495538668
20
-10.5329611983
30
0.0000000000
10
1.8826916588
20
-10.5578687962
30
0.0000000000
10
1.9147200507
20
-10.5874773968
30
0.0000000000
10
1.9450401225
20
-10.6212331236
30
0.0000000000
10
1.9731041612
20
-10.6585166464
30
0.0000000000
10
1.9984004868
20
-10.6986422317
30
0.0000000000
10
2.0204686121
20
-10.7408704237
30
0.0000000000
10
2.0389057904
20
-10.7844232621
30
0.0000000000
10
2.0533721809
20
-10.8284774523
30
0.0000000000
10
2.0603331703
20
-10.8582301436
30
0.0000000000
10
2.0630469337
20
-10.8729865844
30
0.0000000000
11
1.8147337621
21
-10.5135363868
31
0.0000000000
11
1.8484236661
21
-10.5331285030
31
0.0000000000
11
1.8816667210
21
-10.5579546954
31
0.0000000000
11
1.9138077820
21
-10.5875356009
31
0.0000000000
11
1.9442459886
21
-10.6213169932
31
0.0000000000
11
1.9724195818
21
-10.6586711676
31
0.0000000000
11
1.9978066204
21
-10.6989007503
31
0.0000000000
11
2.0199369507
21
-10.7412529435
31
0.0000000000
11
2.0384037157
21
-10.7849403036
31
0.0000000000
11
2.0528648730
21
-10.8291416401
31
0.0000000000
11
2.0630469337
21
-10.8729865844
31
0.0000000000
0
SPLINE
5
24E
100
AcDbEntity
8
0
100
AcDbSpline
62
9
6
CONTINUOUS
70
0
71
3
72
17
73
13
74
11
42
0.0000001000
43
0.0000001000
44
0.0000000001
12
0.5747594304
22
-0.2886333952
32
0.0000000000
13
0.1126306737
23
-0.6332234763
33
0.0000000000
40
0.0000000000
40
0.0000000000
40
0.0000000000
40
0.0000000000
40
0.0865592641
40
0.1785513544
40
0.2753957924
40
0.3762071293
40
0.4799425853
40
0.5854288041
40
0.6914208523
40
0.7966603134
40
0.8998906288
40
1.0000000000
40
1.0000000000
40
1.0000000000
40
1.0000000000
10
1.9198292635
20
-10.3273095723
30
0.0000000000
10
1.9364128480
20
-10.3356375371
30
0.0000000000
10
1.9694864351
20
-10.3551375684
30
0.0000000000
10
2.0166739811
20
-10.3907982591
30
0.0000000000
10
2.0622167579
20
-10.4331579366
30
0.0000000000
10
2.1052851309
20
-10.4814414016
30
0.0000000000
10
2.1451006455
20
-10.5347633818
30
0.0000000000
10
2.1809376610
20
-10.5921456790
30
0.0000000000
10
2.2121434944
20
-10.6525338929
30
0.0000000000
10
2.2381473490
20
-10.7148175390
30
0.0000000000
10
2.2584779781
20
-10.7778508343
30
0.0000000000
10
2.2681856667
20
-10.8204236251
30
0.0000000000
10
2.2719441286
20
-10.8415541597
30
0.0000000000
11
1.9198292635
21
-10.3273095723
31
0.0000000000
11
1.9678972997
21
-10.3553950905
31
0.0000000000
11
2.0152102537
21
-10.3909208648
31
0.0000000000
11
2.0609127537
21
-10.4332400383
31
0.0000000000
11
2.1041480822
21
-10.4815585462
31
0.0000000000
11
2.1441180696
21
-10.5349794084
31
0.0000000000
11
2.1800823578
21
-10.5925074898
31
0.0000000000
11
2.2113754294
21
-10.6530707097
31
0.0000000000
11
2.2374205062
21
-10.7155451420
31
0.0000000000
11
2.2577327520
21
-10.7787555406
31
0.0000000000
11
2.2719441286
21
-10.8415541597
31
0.0000000000
0
SPLINE
5
24F
100
AcDbEntity
8
0
100
AcDbSpline
62
9
6
CONTINUOUS
70
0
71
3
72
15
73
11
74
9
42
0.0000001000
43
0.0000001000
44
0.0000000001
12
-0.1990175664
22
-0.1016359202
32
0.0000000000
13
0.0053749250
23
-0.2234031383
33
0.0000000000
40
0.0000000000
40
0.0000000000
40
0.0000000000
40
0.0000000000
40
0.1108919510
40
0.2310624299
40
0.3584871561
40
0.4904147320
40
0.6236890516
40
0.7550388222
40
0.8813581439
40
1.0000000000
40
1.0000000000
40
1.0000000000
40
1.0000000000
10
-5.9419786637
20
-6.3964051014
30
0.0000000000
10
-5.9493351458
20
-6.4001619699
30
0.0000000000
10
-5.9638959808
20
-6.4095379556
30
0.0000000000
10
-5.9838310946
20
-6.4274375109
30
0.0000000000
10
-6.0021094224
20
-6.4491143569
30
0.0000000000
10
-6.0180294744
20
-6.4737356512
30
0.0000000000
10
-6.0309878319
20
-6.5003599316
30
0.0000000000
10
-6.0404866007
20
-6.5279694586
30
0.0000000000
10
-6.0461610411
20
-6.5554989720
30
0.0000000000
10
-6.0472867252
20
-6.5737974373
30
0.0000000000
10
-6.0470741615
20
-6.5826324250
30
0.0000000000
11
-5.9419786637
21
-6.3964051014
31
0.0000000000
11
-5.9629170331
21
-6.4096592212
31
0.0000000000
11
-5.9829933098
21
-6.4274943786
31
0.0000000000
11
-6.0014158890
21
-6.4492073360
31
0.0000000000
11
-6.0174583711
21
-6.4739419545
31
0.0000000000
11
-6.0304882033
21
-6.5007229517
31
0.0000000000
11
-6.0399916212
21
-6.5284943567
31
0.0000000000
11
-6.0455939064
21
-6.5561611470
31
0.0000000000
11
-6.0470741615
21
-6.5826324250
31
0.0000000000
0
SPLINE
5
250
100
AcDbEntity
8
0
100
AcDbSpline
62
9
6
CONTINUOUS
70
0
71
3
72
17
73
13
74
11
42
0.0000001000
43
0.0000001000
44
0.0000000001
12
0.0503730083
22
0.3140107363
32
0.0000000000
13
0.2844574034
23
-0.1422117017
33
0.0000000000
40
0.0000000000
40
0.0000000000
40
0.0000000000
40
0.0000000000
40
0.1120438924
40
0.2163288171
40
0.3137613456
40
0.4061540584
40
0.4960436047
40
0.5863564028
40
0.6799470266
40
0.7791739116
40
0.8856262754
40
1.0000000000
40
1.0000000000
40
1.0000000000
40
1.0000000000
10
-6.2833030155
20
-6.6998116098
30
0.0000000000
10
-6.2814216862
20
-6.6880839481
30
0.0000000000
10
-6.2763055237
20
-6.6656329692
30
0.0000000000
10
-6.2638897446
20
-6.6346115574
30
0.0000000000
10
-6.2471673869
20
-6.6080641142
30
0.0000000000
10
-6.2263876381
20
-6.5865848538
30
0.0000000000
10
-6.2019386603
20
-6.5707035656
30
0.0000000000
10
-6.1743799982
20
-6.5608208364
30
0.0000000000
10
-6.1443699899
20
-6.5571160008
30
0.0000000000
10
-6.1125538162
20
-6.5595704878
30
0.0000000000
10
-6.0795510724
20
-6.5680353158
30
0.0000000000
10
-6.0579189791
20
-6.5772106643
30
0.0000000000
10
-6.0470741615
20
-6.5826324250
30
0.0000000000
11
-6.2833030155
21
-6.6998116098
31
0.0000000000
11
-6.2751981183
21
-6.6651127959
31
0.0000000000
11
-6.2626865996
21
-6.6343980383
31
0.0000000000
11
-6.2460090873
21
-6.6082830195
31
0.0000000000
11
-6.2254804553
21
-6.5872604204
31
0.0000000000
11
-6.2014849426
21
-6.5717220405
31
0.0000000000
11
-6.1744731567
21
-6.5619596967
31
0.0000000000
11
-6.1449529052
21
-6.5581567598
31
0.0000000000
11
-6.1134749773
21
-6.5603847030
31
0.0000000000
11
-6.0806325182
21
-6.5686007924
31
0.0000000000
11
-6.0470741615
21
-6.5826324250
31
0.0000000000
0
SPLINE
5
251
100
AcDbEntity
8
0
100
AcDbSpline
62
9
6
CONTINUOUS
70
0
71
3
72
13
73
9
74
7
42
0.0000001000
43
0.0000001000
44
0.0000000001
12
-0.6578596223
22
3.0251326276
32
0.0000000000
13
0.4901985528
23
3.0567813262
33
0.0000000000
40
0.0000000000
40
0.0000000000
40
0.0000000000
40
0.0000000000
40
0.1781160618
40
0.3521070052
40
0.5214974152
40
0.6860577009
40
0.8456329683
40
1.0000000000
40
1.0000000000
40
1.0000000000
40
1.0000000000
10
-6.1497668009
20
-9.7755267267
30
0.0000000000
10
-6.1888252560
20
-9.5959184900
30
0.0000000000
10
-6.2568299477
20
-9.2387735448
30
0.0000000000
10
-6.3281629667
20
-8.7050850791
30
0.0000000000
10
-6.3672249276
20
-8.1820581222
30
0.0000000000
10
-6.3737870239
20
-7.6724614437
30
0.0000000000
10
-6.3478919908
20
-7.1790013144
30
0.0000000000
10
-6.3085265140
20
-6.8571003631
30
0.0000000000
10
-6.2833030155
20
-6.6998116098
30
0.0000000000
11
-6.1497668009
21
-9.7755267267
31
0.0000000000
11
-6.2525493148
21
-9.2337722720
31
0.0000000000
11
-6.3235129458
21
-8.6998196531
31
0.0000000000
11
-6.3621313268
21
-8.1768384610
31
0.0000000000
11
-6.3682212356
21
-7.6674230406
31
0.0000000000
11
-6.3418290119
21
-7.1741095107
31
0.0000000000
11
-6.2833030155
21
-6.6998116098
31
0.0000000000
0
SPLINE
5
252
100
AcDbEntity
8
0
100
AcDbSpline
62
9
6
CONTINUOUS
70
0
71
3
72
17
73
13
74
11
42
0.0000001000
43
0.0000001000
44
0.0000000001
12
-0.4035050859
22
0.2017755234
32
0.0000000000
13
-0.0958830482
23
0.4408357486
33
0.0000000000
40
0.0000000000
40
0.0000000000
40
0.0000000000
40
0.0000000000
40
0.0864504659
40
0.1786898439
40
0.2759040553
40
0.3771194698
40
0.4812124121
40
0.5869385845
40
0.6929872201
40
0.7980453458
40
0.9008154807
40
1.0000000000
40
1.0000000000
40
1.0000000000
40
1.0000000000
10
-5.8930217561
20
-10.1307804914
30
0.0000000000
10
-5.9046494904
20
-10.1249659621
30
0.0000000000
10
-5.9279234815
20
-10.1113886215
30
0.0000000000
10
-5.9613346778
20
-10.0866760040
30
0.0000000000
10
-5.9938463529
20
-10.0573636666
30
0.0000000000
10
-6.0248469770
20
-10.0239927085
30
0.0000000000
10
-6.0537697254
20
-9.9871683361
30
0.0000000000
10
-6.0800792452
20
-9.9475607893
30
0.0000000000
10
-6.1032869737
20
-9.9058939715
30
0.0000000000
10
-6.1229589860
20
-9.8629313913
30
0.0000000000
10
-6.1387220004
20
-9.8194833127
30
0.0000000000
10
-6.1465967629
20
-9.7901014206
30
0.0000000000
10
-6.1497668009
20
-9.7755267267
30
0.0000000000
11
-5.8930217561
21
-10.1307804914
31
0.0000000000
11
-5.9267867551
21
-10.1112602088
31
0.0000000000
11
-5.9603170161
21
-10.0866152628
31
0.0000000000
11
-5.9929521946
21
-10.0573163952
31
0.0000000000
11
-6.0240788250
21
-10.0239067364
31
0.0000000000
11
-6.0531171370
21
-9.9870002297
31
0.0000000000
11
-6.0795222522
21
-9.9472783233
31
0.0000000000
11
-6.1027961746
21
-9.9054778035
31
0.0000000000
11
-6.1225006191
21
-9.8623717130
31
0.0000000000
11
-6.1382602005
21
-9.8187683241
31
0.0000000000
11
-6.1497668009
21
-9.7755267267
31
0.0000000000
0
SPLINE
5
253
100
AcDbEntity
8
0
100
AcDbSpline
62
9
6
CONTINUOUS
70
0
71
3
72
15
73
11
74
9
42
0.0000001000
43
0.0000001000
44
0.0000000001
12
-0.1915575208
22
-0.1069966336
32
0.0000000000
13
-0.1767300418
23
0.1300348250
33
0.0000000000
40
0.0000000000
40
0.0000000000
40
0.0000000000
40
0.0000000000
40
0.1134160563
40
0.2346536698
40
0.3619505884
40
0.4929411043
40
0.6249245082
40
0.7551137340
40
0.8808788657
40
1.0000000000
40
1.0000000000
40
1.0000000000
40
1.0000000000
10
2.4071405525
20
-13.9663427829
30
0.0000000000
10
2.3998986530
20
-13.9703878283
30
0.0000000000
10
2.3840916565
20
-13.9773283393
30
0.0000000000
10
2.3583877834
20
-13.9840272333
30
0.0000000000
10
2.3307233740
20
-13.9871896183
30
0.0000000000
10
2.3021064077
20
-13.9867026710
30
0.0000000000
10
2.2735703173
20
-13.9825890074
30
0.0000000000
10
2.2461483119
20
-13.9749950605
30
0.0000000000
10
2.2208415943
20
-13.9641984401
30
0.0000000000
10
2.2054879069
20
-13.9548086625
30
0.0000000000
10
2.1984704792
20
-13.9496453639
30
0.0000000000
11
2.4071405525
21
-13.9663427829
31
0.0000000000
11
2.3844183584
21
-13.9764901669
31
0.0000000000
11
2.3587070580
21
-13.9833133139
31
0.0000000000
11
2.3309653968
21
-13.9865577966
31
0.0000000000
11
2.3022278302
21
-13.9861026317
31
0.0000000000
11
2.2735659498
21
-13.9819647919
31
0.0000000000
11
2.2460485248
21
-13.9742985726
31
0.0000000000
11
2.2207016491
21
-13.9633898384
31
0.0000000000
11
2.1984704792
21
-13.9496453639
31
0.0000000000
0
SPLINE
5
254
100
AcDbEntity
8
0
100
AcDbSpline
62
9
6
CONTINUOUS
70
0
71
3
72
17
73
13
74
11
42
0.0000001000
43
0.0000001000
44
0.0000000001
12
-0.0385554545
22
-0.3075464208
32
0.0000000000
13
-0.2772374629
23
0.1386027172
33
0.0000000000
40
0.0000000000
40
0.0000000000
40
0.0000000000
40
0.0000000000
40
0.1121736133
40
0.2158583338
40
0.3121261305
40
0.4030765891
40
0.4916292838
40
0.5811047305
40
0.6746511063
40
0.7747599536
40
0.8830106413
40
1.0000000000
40
1.0000000000
40
1.0000000000
40
1.0000000000
10
2.1984704766
20
-13.9496453654
30
0.0000000000
10
2.1970288417
20
-13.9611448965
30
0.0000000000
10
2.1928048695
20
-13.9831381447
30
0.0000000000
10
2.1817161504
20
-14.0135854777
30
0.0000000000
10
2.1662443413
20
-14.0395918601
30
0.0000000000
10
2.1465964112
20
-14.0605653382
30
0.0000000000
10
2.1231389121
20
-14.0759655848
30
0.0000000000
10
2.0964366915
20
-14.0853980397
30
0.0000000000
10
2.0671487251
20
-14.0887194745
30
0.0000000000
10
2.0358965902
20
-14.0859858519
30
0.0000000000
10
2.0032679552
20
-14.0773629758
30
0.0000000000
10
1.9817934115
20
-14.0681874507
30
0.0000000000
10
1.9709821338
20
-14.0627824364
30
0.0000000000
11
2.1984704766
21
-13.9496453654
31
0.0000000000
11
2.1917085168
21
-13.9837501105
31
0.0000000000
11
2.1805032080
21
-14.0138708321
31
0.0000000000
11
2.1650674584
21
-14.0394066411
31
0.0000000000
11
2.1456899935
21
-14.0598813693
31
0.0000000000
11
2.1227298394
21
-14.0749207268
31
0.0000000000
11
2.0966130179
21
-14.0842505058
31
0.0000000000
11
2.0678242765
21
-14.0877032239
31
0.0000000000
11
2.0368946642
21
-14.0852203056
31
0.0000000000
11
2.0044017329
21
-14.0768540938
31
0.0000000000
11
1.9709821338
21
-14.0627824364
31
0.0000000000
0
SPLINE
5
255
100
AcDbEntity
8
0
100
AcDbSpline
62
9
6
CONTINUOUS
70
0
71
3
72
13
73
9
74
7
42
0.0000001000
43
0.0000001000
44
0.0000000001
12
-0.0323404145
22
-0.2209567722
32
0.0000000000
13
-0.2015636104
23
-0.0972020499
33
0.0000000000
40
0.0000000000
40
0.0000000000
40
0.0000000000
40
0.0000000000
40
0.2256918458
40
0.4346678160
40
0.6292637459
40
0.8133775790
40
0.9924694259
40
1.0000000000
40
1.0000000000
40
1.0000000000
40
1.0000000000
10
2.4071405525
20
-13.9663427829
30
0.0000000000
10
2.4047075633
20
-13.9829654968
30
0.0000000000
10
2.3979263136
20
-14.0147388058
30
0.0000000000
10
2.3809954406
20
-14.0586469787
30
0.0000000000
10
2.3579088386
20
-14.0961406813
30
0.0000000000
10
2.3289843339
20
-14.1264038328
30
0.0000000000
10
2.3056409544
20
-14.1415977337
30
0.0000000000
10
2.2931320983
20
-14.1477065668
30
0.0000000000
10
2.2926261351
20
-14.1479505625
30
0.0000000000
11
2.4071405525
21
-13.9663427829
31
0.0000000000
11
2.3963407635
21
-14.0155715453
31
0.0000000000
11
2.3792690880
21
-14.0590034725
31
0.0000000000
11
2.3562401194
21
-14.0958550562
31
0.0000000000
11
2.3276869851
21
-14.1254376915
31
0.0000000000
11
2.2941403767
21
-14.1472110536
31
0.0000000000
11
2.2926261351
21
-14.1479505625
31
0.0000000000
0
SPLINE
5
256
100
AcDbEntity
8
0
100
AcDbSpline
62
9
6
CONTINUOUS
70
0
71
3
72
11
73
7
74
5
42
0.0000001000
43
0.0000001000
44
0.0000000001
12
-0.0761674377
22
0.0382040933
32
0.0000000000
13
-0.0054023879
23
0.0846549680
33
0.0000000000
40
0.0000000000
40
0.0000000000
40
0.0000000000
40
0.0000000000
40
0.1883838483
40
0.4320318087
40
0.7008555007
40
1.0000000000
40
1.0000000000
40
1.0000000000
40
1.0000000000
10
2.0096645948
20
-14.1342510409
30
0.0000000000
10
2.0048816898
20
-14.1318520295
30
0.0000000000
10
1.9946888714
20
-14.1247738515
30
0.0000000000
10
1.9824204893
20
-14.1088027474
30
0.0000000000
10
1.9739431109
20
-14.0872271014
30
0.0000000000
10
1.9715208320
20
-14.0712237924
30
0.0000000000
10
1.9709821338
20
-14.0627824364
30
0.0000000000
11
2.0096645948
21
-14.1342510409
31
0.0000000000
11
1.9964927820
21
-14.1251531791
31
0.0000000000
11
1.9836789899
21
-14.1089367790
31
0.0000000000
11
1.9750461650
21
-14.0878304669
31
0.0000000000
11
1.9709821338
21
-14.0627824364
31
0.0000000000
0
SPLINE
5
257
100
AcDbEntity
8
0
100
AcDbSpline
62
9
6
CONTINUOUS
70
0
71
3
72
13
73
9
74
7
42
0.0000001000
43
0.0000001000
44
0.0000000001
12
0.2075080853
22
0.1074542603
32
0.0000000000
13
0.2087674614
23
-0.1039302270
33
0.0000000000
40
0.0000000000
40
0.0000000000
40
0.0000000000
40
0.0000000000
40
0.0142490178
40
0.1912842531
40
0.3745610824
40
0.5686191669
40
0.7765264172
40
1.0000000000
40
1.0000000000
40
1.0000000000
40
1.0000000000
10
-6.1664991923
20
-6.3826597112
30
0.0000000000
10
-6.1655135968
20
-6.3821493386
30
0.0000000000
10
-6.1522193142
20
-6.3754205543
30
0.0000000000
10
-6.1245743937
20
-6.3655141532
30
0.0000000000
10
-6.0814965379
20
-6.3601399549
30
0.0000000000
10
-6.0358658954
20
-6.3635632866
30
0.0000000000
10
-5.9885452647
20
-6.3755827591
30
0.0000000000
10
-5.9575299980
20
-6.3886636700
30
0.0000000000
10
-5.9419786604
20
-6.3964055567
30
0.0000000000
11
-6.1664991923
21
-6.3826597112
31
0.0000000000
11
-6.1635284088
21
-6.3811561315
31
0.0000000000
11
-6.1246958433
21
-6.3671365464
31
0.0000000000
11
-6.0823109041
21
-6.3616281702
31
0.0000000000
11
-6.0371620147
21
-6.3647346936
31
0.0000000000
11
-5.9900999961
21
-6.3763964279
31
0.0000000000
11
-5.9419786604
21
-6.3964055567
31
0.0000000000
0
SPLINE
5
258
100
AcDbEntity
8
0
100
AcDbSpline
62
9
6
CONTINUOUS
70
0
71
3
72
8
73
4
74
2
42
0.0000001000
43
0.0000001000
44
0.0000000001
12
0.0823787998
22
0.0414837811
32
0.0000000000
13
0.0823787768
23
0.0414838269
33
0.0000000000
40
0.0000000000
40
0.0000000000
40
0.0000000000
40
0.0000000000
40
1.0000000000
40
1.0000000000
40
1.0000000000
40
1.0000000000
10
1.9198292599
20
-10.3273090633
30
0.0000000000
10
1.9472888599
20
-10.3134811362
30
0.0000000000
10
1.9747484560
20
-10.2996532016
30
0.0000000000
10
2.0022080482
20
-10.2858252593
30
0.0000000000
11
1.9198292599
21
-10.3273090633
31
0.0000000000
11
2.0022080482
21
-10.2858252593
31
0.0000000000
0
SPLINE
5
259
100
AcDbEntity
8
0
100
AcDbSpline
62
9
6
CONTINUOUS
70
0
71
3
72
8
73
4
74
2
42
0.0000001000
43
0.0000001000
44
0.0000000001
12
0.0077938937
22
0.0039248038
32
0.0000000000
13
0.0077938935
23
0.0039248042
33
0.0000000000
40
0.0000000000
40
0.0000000000
40
0.0000000000
40
0.0000000000
40
1.0000000000
40
1.0000000000
40
1.0000000000
40
1.0000000000
10
2.0022080482
20
-10.2858252593
30
0.0000000000
10
2.0048060128
20
-10.2845169914
30
0.0000000000
10
2.0074039773
20
-10.2832087234
30
0.0000000000
10
2.0100019418
20
-10.2819004553
30
0.0000000000
11
2.0022080482
21
-10.2858252593
31
0.0000000000
11
2.0100019418
21
-10.2819004553
31
0.0000000000
0
SPLINE
5
25A
100
AcDbEntity
8
0
100
AcDbSpline
62
7
6
CONTINUOUS
70
0
71
3
72
8
73
4
74
2
42
0.0000001000
43
0.0000001000
44
0.0000000001
12
0.0074924540
22
0.0035498779
32
0.0000000000
13
0.0077796041
23
0.0028732340
33
0.0000000000
40
0.0000000000
40
0.0000000000
40
0.0000000000
40
0.0000000000
40
1.0000000000
40
1.0000000000
40
1.0000000000
40
1.0000000000
10
-6.0815788808
20
-6.2857476224
30
0.0000000000
10
-6.0790813962
20
-6.2845643298
30
0.0000000000
10
-6.0765288594
20
-6.2834923920
30
0.0000000000
10
-6.0739356580
20
-6.2825346473
30
0.0000000000
11
-6.0815788808
21
-6.2857476224
31
0.0000000000
11
-6.0739356580
21
-6.2825346473
31
0.0000000000
0
SPLINE
5
25B
100
AcDbEntity
8
0
100
AcDbSpline
62
7
6
CONTINUOUS
70
0
71
3
72
8
73
4
74
2
42
0.0000001000
43
0.0000001000
44
0.0000000001
12
0.0068701390
22
0.0025373421
32
0.0000000000
13
0.0070306892
23
0.0019971508
33
0.0000000000
40
0.0000000000
40
0.0000000000
40
0.0000000000
40
0.0000000000
40
1.0000000000
40
1.0000000000
40
1.0000000000
40
1.0000000000
10
-6.0739356580
20
-6.2825346473
30
0.0000000000
10
-6.0716456117
20
-6.2816888666
30
0.0000000000
10
-6.0693238527
20
-6.2809321404
30
0.0000000000
10
-6.0669802897
20
-6.2802664235
30
0.0000000000
11
-6.0739356580
21
-6.2825346473
31
0.0000000000
11
-6.0669802897
21
-6.2802664235
31
0.0000000000
0
SPLINE
5
25C
100
AcDbEntity
8
0
100
AcDbSpline
62
7
6
CONTINUOUS
70
0
71
3
72
8
73
4
74
2
42
0.0000001000
43
0.0000001000
44
0.0000000001
12
0.0088517004
22
0.0025144307
32
0.0000000000
13
0.0089997546
23
0.0016371804
33
0.0000000000
40
0.0000000000
40
0.0000000000
40
0.0000000000
40
0.0000000000
40
1.0000000000
40
1.0000000000
40
1.0000000000
40
1.0000000000
10
-6.0669802897
20
-6.2802664235
30
0.0000000000
10
-6.0640297229
20
-6.2794282800
30
0.0000000000
10
-6.0610445962
20
-6.2787343977
30
0.0000000000
10
-6.0580446781
20
-6.2781886709
30
0.0000000000
11
-6.0669802897
21
-6.2802664235
31
0.0000000000
11
-6.0580446781
21
-6.2781886709
31
0.0000000000
0
SPLINE
5
25D
100
AcDbEntity
8
0
100
AcDbSpline
62
7
6
CONTINUOUS
70
0
71
3
72
8
73
4
74
2
42
0.0000001000
43
0.0000001000
44
0.0000000001
12
0.0084185392
22
0.0015314493
32
0.0000000000
13
0.0084841264
23
0.0007868968
33
0.0000000000
40
0.0000000000
40
0.0000000000
40
0.0000000000
40
0.0000000000
40
1.0000000000
40
1.0000000000
40
1.0000000000
40
1.0000000000
10
-6.0580446781
20
-6.2781886709
30
0.0000000000
10
-6.0552384983
20
-6.2776781879
30
0.0000000000
10
-6.0524192315
20
-6.2772971725
30
0.0000000000
10
-6.0495911894
20
-6.2770348736
30
0.0000000000
11
-6.0580446781
21
-6.2781886709
31
0.0000000000
11
-6.0495911894
21
-6.2770348736
31
0.0000000000
0
SPLINE
5
25E
100
AcDbEntity
8
0
100
AcDbSpline
62
7
6
CONTINUOUS
70
0
71
3
72
8
73
4
74
2
42
0.0000001000
43
0.0000001000
44
0.0000000001
12
0.0107600706
22
0.0009979891
32
0.0000000000
13
0.0108183732
23
-0.0000819322
33
0.0000000000
40
0.0000000000
40
0.0000000000
40
0.0000000000
40
0.0000000000
40
1.0000000000
40
1.0000000000
40
1.0000000000
40
1.0000000000
10
-6.0495911894
20
-6.2770348736
30
0.0000000000
10
-6.0460044992
20
-6.2767022105
30
0.0000000000
10
-6.0424036941
20
-6.2765605006
30
0.0000000000
10
-6.0387975697
20
-6.2765878113
30
0.0000000000
11
-6.0495911894
21
-6.2770348736
31
0.0000000000
11
-6.0387975697
21
-6.2765878113
31
0.0000000000
0
SPLINE
5
25F
100
AcDbEntity
8
0
100
AcDbSpline
62
7
6
CONTINUOUS
70
0
71
3
72
8
73
4
74
2
42
0.0000001000
43
0.0000001000
44
0.0000000001
12
0.0100181576
22
-0.0000758718
32
0.0000000000
13
0.0100245721
23
-0.0008932686
33
0.0000000000
40
0.0000000000
40
0.0000000000
40
0.0000000000
40
0.0000000000
40
1.0000000000
40
1.0000000000
40
1.0000000000
40
1.0000000000
10
-6.0387975697
20
-6.2765878113
30
0.0000000000
10
-6.0354581838
20
-6.2766131019
30
0.0000000000
10
-6.0321142364
20
-6.2767833337
30
0.0000000000
10
-6.0287727124
20
-6.2770810899
30
0.0000000000
11
-6.0387975697
21
-6.2765878113
31
0.0000000000
11
-6.0287727124
21
-6.2770810899
31
0.0000000000
0
SPLINE
5
260
100
AcDbEntity
8
0
100
AcDbSpline
62
7
6
CONTINUOUS
70
0
71
3
72
8
73
4
74
2
42
0.0000001000
43
0.0000001000
44
0.0000000001
12
0.0122059546
22
-0.0010876470
32
0.0000000000
13
0.0121465727
23
-0.0021277021
33
0.0000000000
40
0.0000000000
40
0.0000000000
40
0.0000000000
40
0.0000000000
40
1.0000000000
40
1.0000000000
40
1.0000000000
40
1.0000000000
10
-6.0287727124
20
-6.2770810899
30
0.0000000000
10
-6.0247040609
20
-6.2774436389
30
0.0000000000
10
-6.0206390020
20
-6.2779952504
30
0.0000000000
10
-6.0165901445
20
-6.2787044844
30
0.0000000000
11
-6.0287727124
21
-6.2770810899
31
0.0000000000
11
-6.0165901445
21
-6.2787044844
31
0.0000000000
0
SPLINE
5
261
100
AcDbEntity
8
0
100
AcDbSpline
62
7
6
CONTINUOUS
70
0
71
3
72
8
73
4
74
2
42
0.0000001000
43
0.0000001000
44
0.0000000001
12
0.0116133397
22
-0.0020342962
32
0.0000000000
13
0.0114914198
23
-0.0028163833
33
0.0000000000
40
0.0000000000
40
0.0000000000
40
0.0000000000
40
0.0000000000
40
1.0000000000
40
1.0000000000
40
1.0000000000
40
1.0000000000
10
-6.0165901445
20
-6.2787044844
30
0.0000000000
10
-6.0127190312
20
-6.2793825832
30
0.0000000000
10
-6.0088627281
20
-6.2802047690
30
0.0000000000
10
-6.0050322548
20
-6.2811435634
30
0.0000000000
11
-6.0165901445
21
-6.2787044844
31
0.0000000000
11
-6.0050322548
21
-6.2811435634
31
0.0000000000
0
SPLINE
5
262
100
AcDbEntity
8
0
100
AcDbSpline
62
7
6
CONTINUOUS
70
0
71
3
72
8
73
4
74
2
42
0.0000001000
43
0.0000001000
44
0.0000000001
12
0.0136577698
22
-0.0033473248
32
0.0000000000
13
0.0133833669
23
-0.0041972772
33
0.0000000000
40
0.0000000000
40
0.0000000000
40
0.0000000000
40
0.0000000000
40
1.0000000000
40
1.0000000000
40
1.0000000000
40
1.0000000000
10
-6.0050322548
20
-6.2811435634
30
0.0000000000
10
-6.0004796649
20
-6.2822593383
30
0.0000000000
10
-5.9959635686
20
-6.2835398192
30
0.0000000000
10
-5.9915024463
20
-6.2849389116
30
0.0000000000
11
-6.0050322548
21
-6.2811435634
31
0.0000000000
11
-5.9915024463
21
-6.2849389116
31
0.0000000000
0
SPLINE
5
263
100
AcDbEntity
8
0
100
AcDbSpline
62
7
6
CONTINUOUS
70
0
71
3
72
8
73
4
74
2
42
0.0000001000
43
0.0000001000
44
0.0000000001
12
0.0131578879
22
-0.0041265627
32
0.0000000000
13
0.0128457180
23
-0.0047934080
33
0.0000000000
40
0.0000000000
40
0.0000000000
40
0.0000000000
40
0.0000000000
40
1.0000000000
40
1.0000000000
40
1.0000000000
40
1.0000000000
10
-5.9915024463
20
-6.2849389116
30
0.0000000000
10
-5.9871164836
20
-6.2863144325
30
0.0000000000
10
-5.9827833096
20
-6.2878052505
30
0.0000000000
10
-5.9785014035
20
-6.2894030531
30
0.0000000000
11
-5.9915024463
21
-6.2849389116
31
0.0000000000
11
-5.9785014035
21
-6.2894030531
31
0.0000000000
0
SPLINE
5
264
100
AcDbEntity
8
0
100
AcDbSpline
62
7
6
CONTINUOUS
70
0
71
3
72
8
73
4
74
2
42
0.0000001000
43
0.0000001000
44
0.0000000001
12
0.0150209353
22
-0.0056050952
32
0.0000000000
13
0.0146076227
23
-0.0064429331
33
0.0000000000
40
0.0000000000
40
0.0000000000
40
0.0000000000
40
0.0000000000
40
1.0000000000
40
1.0000000000
40
1.0000000000
40
1.0000000000
10
-5.9785014035
20
-6.2894030531
30
0.0000000000
10
-5.9734944251
20
-6.2912714182
30
0.0000000000
10
-5.9685575477
20
-6.2932860680
30
0.0000000000
10
-5.9636883401
20
-6.2954337124
30
0.0000000000
11
-5.9785014035
21
-6.2894030531
31
0.0000000000
11
-5.9636883401
21
-6.2954337124
31
0.0000000000
0
SPLINE
5
265
100
AcDbEntity
8
0
100
AcDbSpline
62
7
6
CONTINUOUS
70
0
71
3
72
8
73
4
74
2
42
0.0000001000
43
0.0000001000
44
0.0000000001
12
0.0125571973
22
-0.0055385592
32
0.0000000000
13
0.0122617945
23
-0.0061029047
33
0.0000000000
40
0.0000000000
40
0.0000000000
40
0.0000000000
40
0.0000000000
40
1.0000000000
40
1.0000000000
40
1.0000000000
40
1.0000000000
10
-5.9636883401
20
-6.2954337124
30
0.0000000000
10
-5.9595026077
20
-6.2972798988
30
0.0000000000
10
-5.9553668812
20
-6.2992243640
30
0.0000000000
10
-5.9512796164
20
-6.3012586656
30
0.0000000000
11
-5.9636883401
21
-6.2954337124
31
0.0000000000
11
-5.9512796164
21
-6.3012586656
31
0.0000000000
0
SPLINE
5
266
100
AcDbEntity
8
0
100
AcDbSpline
62
7
6
CONTINUOUS
70
0
71
3
72
12
73
8
74
6
42
0.0000001000
43
0.0000001000
44
0.0000000001
12
0.4134509884
22
-0.2071801849
32
0.0000000000
13
0.1464978313
23
-0.4367137326
33
0.0000000000
40
0.0000000000
40
0.0000000000
40
0.0000000000
40
0.0000000000
40
0.0713870822
40
0.2982955893
40
0.5549202858
40
0.8232705793
40
1.0000000000
40
1.0000000000
40
1.0000000000
40
1.0000000000
10
2.0433123316
20
-10.2985267805
30
0.0000000000
10
2.0531506848
20
-10.3034567768
30
0.0000000000
10
2.0932231969
20
-10.3263059642
30
0.0000000000
10
2.1591260487
20
-10.3809491975
30
0.0000000000
10
2.2328688916
20
-10.4704160030
30
0.0000000000
10
2.2866682037
20
-10.5641749499
30
0.0000000000
10
2.3122744307
20
-10.6276278442
30
0.0000000000
10
2.3209045897
20
-10.6533545658
30
0.0000000000
11
2.0433123316
21
-10.2985267805
31
0.0000000000
11
2.0720645935
21
-10.3147668072
31
0.0000000000
11
2.1533945160
21
-10.3802080197
31
0.0000000000
11
2.2290333167
21
-10.4708555211
31
0.0000000000
11
2.2905963349
21
-10.5778649091
31
0.0000000000
11
2.3209045897
21
-10.6533545658
31
0.0000000000
0
SPLINE
5
267
100
AcDbEntity
8
0
100
AcDbSpline
62
7
6
CONTINUOUS
70
0
71
3
72
9
73
5
74
3
42
0.0000001000
43
0.0000001000
44
0.0000000001
12
0.0249922151
22
-0.0745024239
32
0.0000000000
13
0.0156598763
23
-0.0770996101
33
0.0000000000
40
0.0000000000
40
0.0000000000
40
0.0000000000
40
0.0000000000
40
0.5029922478
40
1.0000000000
40
1.0000000000
40
1.0000000000
40
1.0000000000
10
2.3209045897
20
-10.6533545658
30
0.0000000000
10
2.3250948865
20
-10.6658459464
30
0.0000000000
10
2.3327050531
20
-10.6909290822
30
0.0000000000
10
2.3387946881
20
-10.7164634680
30
0.0000000000
10
2.3413890481
20
-10.7292365026
30
0.0000000000
11
2.3209045897
21
-10.6533545658
31
0.0000000000
11
2.3323658998
21
-10.6911933589
31
0.0000000000
11
2.3413890481
21
-10.7292365026
31
0.0000000000
0
SPLINE
5
268
100
AcDbEntity
8
0
100
AcDbSpline
62
7
6
CONTINUOUS
70
0
71
3
72
8
73
4
74
2
42
0.0000001000
43
0.0000001000
44
0.0000000001
12
0.0013903946
22
-0.0068454486
32
0.0000000000
13
0.0013066612
23
-0.0068606976
33
0.0000000000
40
0.0000000000
40
0.0000000000
40
0.0000000000
40
0.0000000000
40
1.0000000000
40
1.0000000000
40
1.0000000000
40
1.0000000000
10
2.3413890481
20
-10.7292365026
30
0.0000000000
10
2.3418525130
20
-10.7315183188
30
0.0000000000
10
2.3423021837
20
-10.7338027598
30
0.0000000000
10
2.3427377374
20
-10.7360896590
30
0.0000000000
11
2.3413890481
21
-10.7292365026
31
0.0000000000
11
2.3427377374
21
-10.7360896590
31
0.0000000000
0
SPLINE
5
269
100
AcDbEntity
8
0
100
AcDbSpline
62
7
6
CONTINUOUS
70
0
71
3
72
8
73
4
74
2
42
0.0000001000
43
0.0000001000
44
0.0000000001
12
0.0044487036
22
-0.0233808562
32
0.0000000000
13
0.0044080820
23
-0.0233892356
33
0.0000000000
40
0.0000000000
40
0.0000000000
40
0.0000000000
40
0.0000000000
40
1.0000000000
40
1.0000000000
40
1.0000000000
40
1.0000000000
10
2.3427337282
20
-10.7361324449
30
0.0000000000
10
2.3442166294
20
-10.7439260636
30
0.0000000000
10
2.3456927731
20
-10.7517210853
30
0.0000000000
10
2.3471621338
20
-10.7595174972
30
0.0000000000
11
2.3427337282
21
-10.7361324449
31
0.0000000000
11
2.3471621338
21
-10.7595174972
31
0.0000000000
0
SPLINE
5
26A
100
AcDbEntity
8
0
100
AcDbSpline
62
7
6
CONTINUOUS
70
0
71
3
72
8
73
4
74
2
42
0.0000001000
43
0.0000001000
44
0.0000000001
12
0.0590772792
22
-0.3134634074
32
0.0000000000
13
0.0515827256
23
-0.3148683652
33
0.0000000000
40
0.0000000000
40
0.0000000000
40
0.0000000000
40
0.0000000000
40
1.0000000000
40
1.0000000000
40
1.0000000000
40
1.0000000000
10
2.3471621338
20
-10.7595174972
30
0.0000000000
10
2.3668545602
20
-10.8640052997
30
0.0000000000
10
2.3853286522
20
-10.9687427881
30
0.0000000000
10
2.4025228941
20
-11.0736989098
30
0.0000000000
11
2.3471621338
21
-10.7595174972
31
0.0000000000
11
2.4025228941
21
-11.0736989098
31
0.0000000000
0
SPLINE
5
26B
100
AcDbEntity
8
0
100
AcDbSpline
62
7
6
CONTINUOUS
70
0
71
3
72
10
73
6
74
4
42
0.0000001000
43
0.0000001000
44
0.0000000001
12
0.4331806300
22
-2.6441967763
32
0.0000000000
13
-0.2602657880
23
-2.6672054942
33
0.0000000000
40
0.0000000000
40
0.0000000000
40
0.0000000000
40
0.0000000000
40
0.3033360454
40
0.7326324155
40
1.0000000000
40
1.0000000000
40
1.0000000000
40
1.0000000000
10
2.4025228941
20
-11.0736989098
30
0.0000000000
10
2.4463226605
20
-11.3410589742
30
0.0000000000
10
2.5320515368
20
-11.9902269390
30
0.0000000000
10
2.5748436349
20
-12.8835120917
30
0.0000000000
10
2.5429261721
20
-13.5060625329
30
0.0000000000
10
2.5197306271
20
-13.7437706297
30
0.0000000000
11
2.4025228941
21
-11.0736989098
31
0.0000000000
11
2.5079905244
21
-11.8795219422
31
0.0000000000
11
2.5583328741
21
-13.0282483401
31
0.0000000000
11
2.5197306271
21
-13.7437706297
31
0.0000000000
0
SPLINE
5
26C
100
AcDbEntity
8
0
100
AcDbSpline
62
7
6
CONTINUOUS
70
0
71
3
72
8
73
4
74
2
42
0.0000001000
43
0.0000001000
44
0.0000000001
12
-0.0278837612
22
-0.2857529667
32
0.0000000000
13
-0.0387870814
23
-0.2843402079
33
0.0000000000
40
0.0000000000
40
0.0000000000
40
0.0000000000
40
0.0000000000
40
1.0000000000
40
1.0000000000
40
1.0000000000
40
1.0000000000
10
2.5197306271
20
-13.7437706297
30
0.0000000000
10
2.5104360400
20
-13.8390216186
30
0.0000000000
10
2.4993838798
20
-13.9340773600
30
0.0000000000
10
2.4864548527
20
-14.0288574293
30
0.0000000000
11
2.5197306271
21
-13.7437706297
31
0.0000000000
11
2.4864548527
21
-14.0288574293
31
0.0000000000
0
SPLINE
5
26D
100
AcDbEntity
8
0
100
AcDbSpline
62
7
6
CONTINUOUS
70
0
71
3
72
8
73
4
74
2
42
0.0000001000
43
0.0000001000
44
0.0000000001
12
-0.0024349713
22
-0.0177756516
32
0.0000000000
13
-0.0036388365
23
-0.0176273291
33
0.0000000000
40
0.0000000000
40
0.0000000000
40
0.0000000000
40
0.0000000000
40
1.0000000000
40
1.0000000000
40
1.0000000000
40
1.0000000000
10
2.4863913311
20
-14.0290257494
30
0.0000000000
10
2.4855796740
20
-14.0349509666
30
0.0000000000
10
2.4845766659
20
-14.0408562147
30
0.0000000000
10
2.4833637204
20
-14.0467319910
30
0.0000000000
11
2.4863913311
21
-14.0290257494
31
0.0000000000
11
2.4833637204
21
-14.0467319910
31
0.0000000000
0
SPLINE
5
26E
100
AcDbEntity
8
0
100
AcDbSpline
62
7
6
CONTINUOUS
70
0
71
3
72
8
73
4
74
2
42
0.0000001000
43
0.0000001000
44
0.0000000001
12
-0.0024178706
22
-0.0117127000
32
0.0000000000
13
-0.0030427074
23
-0.0115781973
33
0.0000000000
40
0.0000000000
40
0.0000000000
40
0.0000000000
40
0.0000000000
40
1.0000000000
40
1.0000000000
40
1.0000000000
40
1.0000000000
10
2.4833637204
20
-14.0467319910
30
0.0000000000
10
2.4825577636
20
-14.0506362243
30
0.0000000000
10
2.4816595513
20
-14.0545278443
30
0.0000000000
10
2.4806453155
20
-14.0583872435
30
0.0000000000
11
2.4833637204
21
-14.0467319910
31
0.0000000000
11
2.4806453155
21
-14.0583872435
31
0.0000000000
0
SPLINE
5
26F
100
AcDbEntity
8
0
100
AcDbSpline
62
7
6
CONTINUOUS
70
0
71
3
72
8
73
4
74
2
42
0.0000001000
43
0.0000001000
44
0.0000000001
12
-0.0024370202
22
-0.0092734189
32
0.0000000000
13
-0.0029203271
23
-0.0091190905
33
0.0000000000
40
0.0000000000
40
0.0000000000
40
0.0000000000
40
0.0000000000
40
1.0000000000
40
1.0000000000
40
1.0000000000
40
1.0000000000
10
2.4806453155
20
-14.0583872435
30
0.0000000000
10
2.4798329755
20
-14.0614783831
30
0.0000000000
10
2.4789461990
20
-14.0645488464
30
0.0000000000
10
2.4779727566
20
-14.0675885433
30
0.0000000000
11
2.4806453155
21
-14.0583872435
31
0.0000000000
11
2.4779727566
21
-14.0675885433
31
0.0000000000
0
SPLINE
5
270
100
AcDbEntity
8
0
100
AcDbSpline
62
7
6
CONTINUOUS
70
0
71
3
72
8
73
4
74
2
42
0.0000001000
43
0.0000001000
44
0.0000000001
12
-0.0033715394
22
-0.0105280579
32
0.0000000000
13
-0.0041210913
23
-0.0102354265
33
0.0000000000
40
0.0000000000
40
0.0000000000
40
0.0000000000
40
0.0000000000
40
1.0000000000
40
1.0000000000
40
1.0000000000
40
1.0000000000
10
2.4779727566
20
-14.0675885433
30
0.0000000000
10
2.4768489101
20
-14.0710978959
30
0.0000000000
10
2.4756095478
20
-14.0745662402
30
0.0000000000
10
2.4742358507
20
-14.0779780491
30
0.0000000000
11
2.4779727566
21
-14.0675885433
31
0.0000000000
11
2.4742358507
21
-14.0779780491
31
0.0000000000
0
SPLINE
5
271
100
AcDbEntity
8
0
100
AcDbSpline
62
7
6
CONTINUOUS
70
0
71
3
72
8
73
4
74
2
42
0.0000001000
43
0.0000001000
44
0.0000000001
12
-0.0031216362
22
-0.0077531108
32
0.0000000000
13
-0.0036086395
23
-0.0075382344
33
0.0000000000
40
0.0000000000
40
0.0000000000
40
0.0000000000
40
0.0000000000
40
1.0000000000
40
1.0000000000
40
1.0000000000
40
1.0000000000
10
2.4742358507
20
-14.0779780491
30
0.0000000000
10
2.4731953053
20
-14.0805624193
30
0.0000000000
10
2.4720776823
20
-14.0831143511
30
0.0000000000
10
2.4708748024
20
-14.0856270959
30
0.0000000000
11
2.4742358507
21
-14.0779780491
31
0.0000000000
11
2.4708748024
21
-14.0856270959
31
0.0000000000
0
SPLINE
5
272
100
AcDbEntity
8
0
100
AcDbSpline
62
7
6
CONTINUOUS
70
0
71
3
72
8
73
4
74
2
42
0.0000001000
43
0.0000001000
44
0.0000000001
12
-0.0043092797
22
-0.0090018303
32
0.0000000000
13
-0.0050805256
23
-0.0086320694
33
0.0000000000
40
0.0000000000
40
0.0000000000
40
0.0000000000
40
0.0000000000
40
1.0000000000
40
1.0000000000
40
1.0000000000
40
1.0000000000
10
2.4708748024
20
-14.0856270959
30
0.0000000000
10
2.4694383758
20
-14.0886277060
30
0.0000000000
10
2.4678803723
20
-14.0915724351
30
0.0000000000
10
2.4661868637
20
-14.0944497916
30
0.0000000000
11
2.4708748024
21
-14.0856270959
31
0.0000000000
11
2.4661868637
21
-14.0944497916
31
0.0000000000
0
SPLINE
5
273
100
AcDbEntity
8
0
100
AcDbSpline
62
7
6
CONTINUOUS
70
0
71
3
72
8
73
4
74
2
42
0.0000001000
43
0.0000001000
44
0.0000000001
12
-0.0035400288
22
-0.0060146875
32
0.0000000000
13
-0.0039488965
23
-0.0058067649
33
0.0000000000
40
0.0000000000
40
0.0000000000
40
0.0000000000
40
0.0000000000
40
1.0000000000
40
1.0000000000
40
1.0000000000
40
1.0000000000
10
2.4661868637
20
-14.0944497916
30
0.0000000000
10
2.4650068542
20
-14.0964546874
30
0.0000000000
10
2.4637610558
20
-14.0984268733
30
0.0000000000
10
2.4624447570
20
-14.1003624616
30
0.0000000000
11
2.4661868637
21
-14.0944497916
31
0.0000000000
11
2.4624447570
21
-14.1003624616
31
0.0000000000
0
SPLINE
5
274
100
AcDbEntity
8
0
100
AcDbSpline
62
7
6
CONTINUOUS
70
0
71
3
72
8
73
4
74
2
42
0.0000001000
43
0.0000001000
44
0.0000000001
12
-0.0050877269
22
-0.0074813897
32
0.0000000000
13
-0.0057832032
23
-0.0070145388
33
0.0000000000
40
0.0000000000
40
0.0000000000
40
0.0000000000
40
0.0000000000
40
1.0000000000
40
1.0000000000
40
1.0000000000
40
1.0000000000
10
2.4624447570
20
-14.1003624616
30
0.0000000000
10
2.4607488480
20
-14.1028562581
30
0.0000000000
10
2.4589357943
20
-14.1052895500
30
0.0000000000
10
2.4570080600
20
-14.1076277296
30
0.0000000000
11
2.4624447570
21
-14.1003624616
31
0.0000000000
11
2.4570080600
21
-14.1076277296
31
0.0000000000
0
SPLINE
5
275
100
AcDbEntity
8
0
100
AcDbSpline
62
7
6
CONTINUOUS
70
0
71
3
72
8
73
4
74
2
42
0.0000001000
43
0.0000001000
44
0.0000000001
12
-0.0035634787
22
-0.0043221998
32
0.0000000000
13
-0.0038229925
23
-0.0040812303
33
0.0000000000
40
0.0000000000
40
0.0000000000
40
0.0000000000
40
0.0000000000
40
1.0000000000
40
1.0000000000
40
1.0000000000
40
1.0000000000
10
2.4570080600
20
-14.1076277296
30
0.0000000000
10
2.4558202337
20
-14.1090684628
30
0.0000000000
10
2.4545888666
20
-14.1104730835
30
0.0000000000
10
2.4533145357
20
-14.1118334936
30
0.0000000000
11
2.4570080600
21
-14.1076277296
31
0.0000000000
11
2.4533145357
21
-14.1118334936
31
0.0000000000
0
SPLINE
5
276
100
AcDbEntity
8
0
100
AcDbSpline
62
7
6
CONTINUOUS
70
0
71
3
72
8
73
4
74
2
42
0.0000001000
43
0.0000001000
44
0.0000000001
12
-0.0060428362
22
-0.0064510213
32
0.0000000000
13
-0.0066800591
23
-0.0056923256
33
0.0000000000
40
0.0000000000
40
0.0000000000
40
0.0000000000
40
0.0000000000
40
1.0000000000
40
1.0000000000
40
1.0000000000
40
1.0000000000
10
2.4533145357
20
-14.1118334936
30
0.0000000000
10
2.4513002570
20
-14.1139838340
30
0.0000000000
10
2.4491786347
20
-14.1160237155
30
0.0000000000
10
2.4469519483
20
-14.1179211574
30
0.0000000000
11
2.4533145357
21
-14.1118334936
31
0.0000000000
11
2.4469519483
21
-14.1179211574
31
0.0000000000
0
SPLINE
5
277
100
AcDbEntity
8
0
100
AcDbSpline
62
7
6
CONTINUOUS
70
0
71
3
72
8
73
4
74
2
42
0.0000001000
43
0.0000001000
44
0.0000000001
12
-0.0031156620
22
-0.0026549709
32
0.0000000000
13
-0.0032521021
23
-0.0024593179
33
0.0000000000
40
0.0000000000
40
0.0000000000
40
0.0000000000
40
0.0000000000
40
1.0000000000
40
1.0000000000
40
1.0000000000
40
1.0000000000
10
2.4469519483
20
-14.1179211574
30
0.0000000000
10
2.4459133943
20
-14.1188061477
30
0.0000000000
10
2.4448519847
20
-14.1196601516
30
0.0000000000
10
2.4437679506
20
-14.1204799242
30
0.0000000000
11
2.4469519483
21
-14.1179211574
31
0.0000000000
11
2.4437679506
21
-14.1204799242
31
0.0000000000
0
SPLINE
5
278
100
AcDbEntity
8
0
100
AcDbSpline
62
7
6
CONTINUOUS
70
0
71
3
72
8
73
4
74
2
42
0.0000001000
43
0.0000001000
44
0.0000000001
12
-0.0084308222
22
-0.0063755907
32
0.0000000000
13
-0.0093310360
23
-0.0048256471
33
0.0000000000
40
0.0000000000
40
0.0000000000
40
0.0000000000
40
0.0000000000
40
1.0000000000
40
1.0000000000
40
1.0000000000
40
1.0000000000
10
2.4437679506
20
-14.1204799242
30
0.0000000000
10
2.4409576766
20
-14.1226051211
30
0.0000000000
10
2.4379953519
20
-14.1245002615
30
0.0000000000
10
2.4348850066
20
-14.1261088105
30
0.0000000000
11
2.4437679506
21
-14.1204799242
31
0.0000000000
11
2.4348850066
21
-14.1261088105
31
0.0000000000
0
SPLINE
5
279
100
AcDbEntity
8
0
100
AcDbSpline
62
7
6
CONTINUOUS
70
0
71
3
72
8
73
4
74
2
42
0.0000001000
43
0.0000001000
44
0.0000000001
12
0.0616134499
22
0.0219705280
32
0.0000000000
13
0.0597797807
23
0.0264621406
33
0.0000000000
40
0.0000000000
40
0.0000000000
40
0.0000000000
40
0.0000000000
40
1.0000000000
40
1.0000000000
40
1.0000000000
40
1.0000000000
10
6.8856673241
20
-21.5472518237
30
0.0000000000
10
6.9062051407
20
-21.5399283143
30
0.0000000000
10
6.9264629124
20
-21.5318251045
30
0.0000000000
10
6.9463895060
20
-21.5230043910
30
0.0000000000
11
6.8856673241
21
-21.5472518237
31
0.0000000000
11
6.9463895060
21
-21.5230043910
31
0.0000000000
0
SPLINE
5
27A
100
AcDbEntity
8
0
100
AcDbSpline
62
7
6
CONTINUOUS
70
0
71
3
72
8
73
4
74
2
42
0.0000001000
43
0.0000001000
44
0.0000000001
12
0.0063755712
22
-0.0497648899
32
0.0000000000
13
0.0090720463
23
-0.0494248114
33
0.0000000000
40
0.0000000000
40
0.0000000000
40
0.0000000000
40
0.0000000000
40
1.0000000000
40
1.0000000000
40
1.0000000000
40
1.0000000000
10
-8.7859041021
20
-13.5840608465
30
0.0000000000
10
-8.7837789117
20
-13.6006491432
30
0.0000000000
10
-8.7812102970
20
-13.6171987224
30
0.0000000000
10
-8.7781862816
20
-13.6336736595
30
0.0000000000
11
-8.7859041021
21
-13.5840608465
31
0.0000000000
11
-8.7781862816
21
-13.6336736595
31
0.0000000000
0
SPLINE
5
27B
100
AcDbEntity
8
0
100
AcDbSpline
62
7
6
CONTINUOUS
70
0
71
3
72
9
73
5
74
3
42
0.0000001000
43
0.0000001000
44
0.0000000001
12
0.0440611542
22
-0.2400466412
32
0.0000000000
13
0.1119728884
23
-0.2170279517
33
0.0000000000
40
0.0000000000
40
0.0000000000
40
0.0000000000
40
0.0000000000
40
0.6795201800
40
1.0000000000
40
1.0000000000
40
1.0000000000
40
1.0000000000
10
-8.7781862816
20
-13.6336736595
30
0.0000000000
10
-8.7682061337
20
-13.6880458385
30
0.0000000000
10
-8.7462195120
20
-13.7668649556
30
0.0000000000
10
-8.7125582932
20
-13.8411266687
30
0.0000000000
10
-8.7005966095
20
-13.8643110284
30
0.0000000000
11
-8.7781862816
21
-13.6336736595
31
0.0000000000
11
-8.7329347093
21
-13.7930598291
31
0.0000000000
11
-8.7005966095
21
-13.8643110284
31
0.0000000000
0
SPLINE
5
27C
100
AcDbEntity
8
0
100
AcDbSpline
62
7
6
CONTINUOUS
70
0
71
3
72
9
73
5
74
3
42
0.0000001000
43
0.0000001000
44
0.0000000001
12
0.1687918182
22
-0.3271554667
32
0.0000000000
13
0.3087165167
23
-0.2011614550
33
0.0000000000
40
0.0000000000
40
0.0000000000
40
0.0000000000
40
0.0000000000
40
0.4087262525
40
1.0000000000
40
1.0000000000
40
1.0000000000
40
1.0000000000
10
-8.7005966095
20
-13.8643110284
30
0.0000000000
10
-8.6776000604
20
-13.9088833710
30
0.0000000000
10
-8.6107202723
20
-14.0123736190
30
0.0000000000
10
-8.5189360936
20
-14.0960065773
30
0.0000000000
10
-8.4580907697
20
-14.1356537398
30
0.0000000000
11
-8.7005966095
21
-13.8643110284
31
0.0000000000
11
-8.6187685536
21
-13.9901644313
31
0.0000000000
11
-8.4580907697
21
-14.1356537398
31
0.0000000000
0
SPLINE
5
27D
100
AcDbEntity
8
0
100
AcDbSpline
62
7
6
CONTINUOUS
70
0
71
3
72
8
73
4
74
2
42
0.0000001000
43
0.0000001000
44
0.0000000001
12
0.0657690647
22
-0.0428555002
32
0.0000000000
13
0.0703083335
23
-0.0349902291
33
0.0000000000
40
0.0000000000
40
0.0000000000
40
0.0000000000
40
0.0000000000
40
1.0000000000
40
1.0000000000
40
1.0000000000
40
1.0000000000
10
-8.4580907697
20
-14.1356537398
30
0.0000000000
10
-8.4361677481
20
-14.1499389065
30
0.0000000000
10
-8.4133917928
20
-14.1629519062
30
0.0000000000
10
-8.3899556817
20
-14.1746153159
30
0.0000000000
11
-8.4580907697
21
-14.1356537398
31
0.0000000000
11
-8.3899556817
21
-14.1746153159
31
0.0000000000
0
SPLINE
5
27E
100
AcDbEntity
8
0
100
AcDbSpline
62
7
6
CONTINUOUS
70
0
71
3
72
12
73
8
74
6
42
0.0000001000
43
0.0000001000
44
0.0000000001
12
-0.9116233612
22
-0.5105518970
32
0.0000000000
13
-0.1933052413
23
-1.0273984870
33
0.0000000000
40
0.0000000000
40
0.0000000000
40
0.0000000000
40
0.0000000000
40
0.1607151885
40
0.4039197540
40
0.6555706748
40
0.9089932491
40
1.0000000000
40
1.0000000000
40
1.0000000000
40
1.0000000000
10
-8.2026127921
20
23.9545221718
30
0.0000000000
10
-8.2514500322
20
23.9271710237
30
0.0000000000
10
-8.3681601661
20
23.8469818104
30
0.0000000000
10
-8.5273862570
20
23.6816882912
30
0.0000000000
10
-8.6665916513
20
23.4599573999
30
0.0000000000
10
-8.7411604911
20
23.2653668401
30
0.0000000000
10
-8.7679933514
20
23.1482386993
30
0.0000000000
10
-8.7738573787
20
23.1170719666
30
0.0000000000
11
-8.2026127921
21
23.9545221718
31
0.0000000000
11
-8.3413798366
21
23.8599300873
31
0.0000000000
11
-8.5185400149
21
23.6785366783
31
0.0000000000
11
-8.6586217010
21
23.4567047120
31
0.0000000000
11
-8.7526787167
21
23.2098076381
31
0.0000000000
11
-8.7738573787
21
23.1170719666
31
0.0000000000
0
SPLINE
5
27F
100
AcDbEntity
8
0
100
AcDbSpline
62
7
6
CONTINUOUS
70
0
71
3
72
8
73
4
74
2
42
0.0000001000
43
0.0000001000
44
0.0000000001
12
-0.0161854633
22
-0.0860241572
32
0.0000000000
13
-0.0097466473
23
-0.0868801226
33
0.0000000000
40
0.0000000000
40
0.0000000000
40
0.0000000000
40
0.0000000000
40
1.0000000000
40
1.0000000000
40
1.0000000000
40
1.0000000000
10
-8.7738573787
20
23.1170719666
30
0.0000000000
10
-8.7792525331
20
23.0883972475
30
0.0000000000
10
-8.7836100082
20
23.0595375057
30
0.0000000000
10
-8.7868588906
20
23.0305774648
30
0.0000000000
11
-8.7738573787
21
23.1170719666
31
0.0000000000
11
-8.7868588906
21
23.0305774648
31
0.0000000000
0
SPLINE
5
280
100
AcDbEntity
8
0
100
AcDbSpline
62
7
6
CONTINUOUS
70
0
71
3
72
10
73
6
74
4
42
0.0000001000
43
0.0000001000
44
0.0000000001
12
0.1486154033
22
-9.7573728794
32
0.0000000000
13
1.2323957471
23
-9.6803744271
33
0.0000000000
40
0.0000000000
40
0.0000000000
40
0.0000000000
40
0.0000000000
40
0.3379463501
40
0.6757127497
40
1.0000000000
40
1.0000000000
40
1.0000000000
40
1.0000000000
10
-9.4610617554
20
-3.8530525018
30
0.0000000000
10
-9.4443204110
20
-4.9522086855
30
0.0000000000
10
-9.3729705444
20
-7.1495808714
30
0.0000000000
10
-9.1489386667
20
-10.3953669466
30
0.0000000000
10
-8.9191855123
20
-12.5372671457
30
0.0000000000
10
-8.7859687696
20
-13.5836744806
30
0.0000000000
11
-9.4610617554
21
-3.8530525018
31
0.0000000000
11
-9.3529330526
21
-7.1491272172
31
0.0000000000
11
-9.1247234990
21
-10.4372994794
31
0.0000000000
11
-8.7859687696
21
-13.5836744806
31
0.0000000000
0
SPLINE
5
281
100
AcDbEntity
8
0
100
AcDbSpline
62
7
6
CONTINUOUS
70
0
71
3
72
10
73
6
74
4
42
0.0000001000
43
0.0000001000
44
0.0000000001
12
-1.1663604751
22
-10.3907588469
32
0.0000000000
13
-0.1567236452
23
-10.4548429056
33
0.0000000000
40
0.0000000000
40
0.0000000000
40
0.0000000000
40
0.0000000000
40
0.3366491842
40
0.6744551138
40
1.0000000000
40
1.0000000000
40
1.0000000000
40
1.0000000000
10
-8.7868515229
20
23.0306986782
30
0.0000000000
10
-8.9177362904
20
21.8646851819
30
0.0000000000
10
-9.1444959122
20
19.5244908995
30
0.0000000000
10
-9.3701892376
20
16.0459209590
30
0.0000000000
10
-9.4440567039
20
13.7345914704
30
0.0000000000
10
-9.4610635643
20
12.6000845892
30
0.0000000000
11
-8.7868515229
21
23.0306986782
31
0.0000000000
11
-9.1255359659
21
19.5270233662
31
0.0000000000
11
-9.3532874457
21
16.0022801373
31
0.0000000000
11
-9.4610635643
21
12.6000845892
31
0.0000000000
0
SPLINE
5
282
100
AcDbEntity
8
0
100
AcDbSpline
62
7
6
CONTINUOUS
70
0
71
3
72
10
73
6
74
4
42
0.0000001000
43
0.0000001000
44
0.0000000001
12
-0.2466228092
22
-16.4518465983
32
0.0000000000
13
0.2505802686
23
-16.4517870244
33
0.0000000000
40
0.0000000000
40
0.0000000000
40
0.0000000000
40
0.0000000000
40
0.3339172948
40
0.6699530774
40
1.0000000000
40
1.0000000000
40
1.0000000000
40
1.0000000000
10
-9.4610635716
20
12.6000846967
30
0.0000000000
10
-9.4885141120
20
10.7688993268
30
0.0000000000
10
-9.5254876628
20
7.0946118584
30
0.0000000000
10
-9.5256074594
20
1.6099630409
30
0.0000000000
10
-9.4886295030
20
-2.0430987646
30
0.0000000000
10
-9.4610617542
20
-3.8530526577
30
0.0000000000
11
-9.4610635716
21
12.6000846967
31
0.0000000000
11
-9.5162056627
21
7.1061882800
31
0.0000000000
11
-9.5161763940
21
1.5771589845
31
0.0000000000
11
-9.4610617542
21
-3.8530526577
31
0.0000000000
0
SPLINE
5
283
100
AcDbEntity
8
0
100
AcDbSpline
62
9
6
CONTINUOUS
70
0
71
3
72
9
73
5
74
3
42
0.0000001000
43
0.0000001000
44
0.0000000001
12
-0.0288729526
22
0.0143675666
32
0.0000000000
13
-0.0274421911
23
0.0168975615
33
0.0000000000
40
0.0000000000
40
0.0000000000
40
0.0000000000
40
0.0000000000
40
0.7374939033
40
1.0000000000
40
1.0000000000
40
1.0000000000
40
1.0000000000
10
-8.3908314799
20
-14.1742044138
30
0.0000000000
10
-8.3979293554
20
-14.1706724162
30
0.0000000000
10
-8.4073934149
20
-14.1655696024
30
0.0000000000
10
-8.4166075065
20
-14.1600450002
30
0.0000000000
10
-8.4190087540
20
-14.1585664292
30
0.0000000000
11
-8.3908314799
21
-14.1742044138
31
0.0000000000
11
-8.4117527709
21
-14.1629164185
31
0.0000000000
11
-8.4190087540
21
-14.1585664292
31
0.0000000000
0
SPLINE
5
284
100
AcDbEntity
8
0
100
AcDbSpline
62
9
6
CONTINUOUS
70
0
71
3
72
11
73
7
74
5
42
0.0000001000
43
0.0000001000
44
0.0000000001
12
0.0665326755
22
-0.5031363164
32
0.0000000000
13
0.4562919126
23
-0.2280330968
33
0.0000000000
40
0.0000000000
40
0.0000000000
40
0.0000000000
40
0.0000000000
40
0.3510348465
40
0.6646113163
40
0.9532314143
40
1.0000000000
40
1.0000000000
40
1.0000000000
40
1.0000000000
10
6.0451434988
20
-21.1019803320
30
0.0000000000
10
6.0529285946
20
-21.1608531252
30
0.0000000000
10
6.0791459672
20
-21.2714829111
30
0.0000000000
10
6.1584233631
20
-21.4147532482
30
0.0000000000
10
6.2427187386
20
-21.4890103283
30
0.0000000000
10
6.2929203710
20
-21.5160887523
30
0.0000000000
10
6.3000337468
20
-21.5196436808
30
0.0000000000
11
6.0451434988
21
-21.1019803320
31
0.0000000000
11
6.0887296047
21
-21.2747222576
31
0.0000000000
11
6.1681284415
21
-21.4126461690
31
0.0000000000
11
6.2790486087
21
-21.5083171083
31
0.0000000000
11
6.3000337468
21
-21.5196436808
31
0.0000000000
0
SPLINE
5
285
100
AcDbEntity
8
0
100
AcDbSpline
62
9
6
CONTINUOUS
70
0
71
3
72
10
73
6
74
4
42
0.0000001000
43
0.0000001000
44
0.0000000001
12
-0.0024380613
22
-0.2432602821
32
0.0000000000
13
0.2138781111
23
-0.1068067314
33
0.0000000000
40
0.0000000000
40
0.0000000000
40
0.0000000000
40
0.0000000000
40
0.1782173164
40
0.5410344780
40
1.0000000000
40
1.0000000000
40
1.0000000000
40
1.0000000000
10
-9.4606100653
20
12.6000800439
30
0.0000000000
10
-9.4607549003
20
12.5856289791
30
0.0000000000
10
-9.4540178724
20
12.5415396534
30
0.0000000000
10
-9.4032597177
20
12.4757577045
30
0.0000000000
10
-9.3473301775
20
12.4404129161
30
0.0000000000
10
-9.3146092845
20
12.4240727137
30
0.0000000000
11
-9.4606100653
21
12.6000800439
31
0.0000000000
11
-9.4540677780
21
12.5575050270
31
0.0000000000
11
-9.4053687481
21
12.4857302454
31
0.0000000000
11
-9.3146092845
21
12.4240727137
31
0.0000000000
0
SPLINE
5
286
100
AcDbEntity
8
0
100
AcDbSpline
62
9
6
CONTINUOUS
70
0
71
3
72
9
73
5
74
3
42
0.0000001000
43
0.0000001000
44
0.0000000001
12
-0.0701985455
22
-0.0360393563
32
0.0000000000
13
-0.0785897063
23
0.0048673205
33
0.0000000000
40
0.0000000000
40
0.0000000000
40
0.0000000000
40
0.0000000000
40
0.4396990432
40
1.0000000000
40
1.0000000000
40
1.0000000000
40
1.0000000000
10
2.4347991255
20
-14.1260203057
30
0.0000000000
10
2.4245103811
20
-14.1313024625
30
0.0000000000
10
2.3994992949
20
-14.1402847382
30
0.0000000000
10
2.3731710645
20
-14.1417855484
30
0.0000000000
10
2.3584931020
20
-14.1408764936
30
0.0000000000
11
2.4347991255
21
-14.1260203057
31
0.0000000000
11
2.4022610294
21
-14.1377550276
31
0.0000000000
11
2.3584931020
21
-14.1408764936
31
0.0000000000
0
SPLINE
5
287
100
AcDbEntity
8
0
100
AcDbSpline
62
9
6
CONTINUOUS
70
0
71
3
72
9
73
5
74
3
42
0.0000001000
43
0.0000001000
44
0.0000000001
12
-0.0386070356
22
0.0023910614
32
0.0000000000
13
-0.0374098363
23
0.0093207793
33
0.0000000000
40
0.0000000000
40
0.0000000000
40
0.0000000000
40
0.0000000000
40
0.6115296573
40
1.0000000000
40
1.0000000000
40
1.0000000000
40
1.0000000000
10
2.3584931020
20
-14.1408764936
30
0.0000000000
10
2.3506233196
20
-14.1403890920
30
0.0000000000
10
2.3377889860
20
-14.1387694415
30
0.0000000000
10
2.3252121885
20
-14.1360513655
30
0.0000000000
10
2.3203679845
20
-14.1348444168
30
0.0000000000
11
2.3584931020
21
-14.1408764936
31
0.0000000000
11
2.3350224787
21
-14.1379973868
31
0.0000000000
11
2.3203679845
21
-14.1348444168
31
0.0000000000
0
SPLINE
5
288
100
AcDbEntity
8
0
100
AcDbSpline
62
9
6
CONTINUOUS
70
0
71
3
72
8
73
4
74
2
42
0.0000001000
43
0.0000001000
44
0.0000000001
12
-0.0005955416
22
0.0336286336
32
0.0000000000
13
-0.0004582815
23
0.0336314561
33
0.0000000000
40
0.0000000000
40
0.0000000000
40
0.0000000000
40
0.0000000000
40
1.0000000000
40
1.0000000000
40
1.0000000000
40
1.0000000000
10
-6.4145209790
20
-7.7885694238
30
0.0000000000
10
-6.4147194928
20
-7.7773598793
30
0.0000000000
10
-6.4148951916
20
-7.7661498292
30
0.0000000000
10
-6.4150479521
20
-7.7549393438
30
0.0000000000
11
-6.4145209790
21
-7.7885694238
31
0.0000000000
11
-6.4150479521
21
-7.7549393438
31
0.0000000000
0
SPLINE
5
289
100
AcDbEntity
8
0
100
AcDbSpline
62
9
6
CONTINUOUS
70
0
71
3
72
8
73
4
74
2
42
0.0000001000
43
0.0000001000
44
0.0000000001
12
-0.0191195121
22
0.0155311298
32
0.0000000000
13
-0.0185050959
23
0.0162226622
33
0.0000000000
40
0.0000000000
40
0.0000000000
40
0.0000000000
40
0.0000000000
40
1.0000000000
40
1.0000000000
40
1.0000000000
40
1.0000000000
10
-5.8967750297
20
-10.1819469815
30
0.0000000000
10
-5.9031482004
20
-10.1767699383
30
0.0000000000
10
-5.9094181316
20
-10.1714739818
30
0.0000000000
10
-5.9155864969
20
-10.1660664278
30
0.0000000000
11
-5.8967750297
21
-10.1819469815
31
0.0000000000
11
-5.9155864969
21
-10.1660664278
31
0.0000000000
0
SPLINE
5
28A
100
AcDbEntity
8
0
100
AcDbSpline
62
9
6
CONTINUOUS
70
0
71
3
72
9
73
5
74
3
42
0.0000001000
43
0.0000001000
44
0.0000000001
12
-0.0337571698
22
0.0079373893
32
0.0000000000
13
-0.0036515855
23
0.0354675505
33
0.0000000000
40
0.0000000000
40
0.0000000000
40
0.0000000000
40
0.0000000000
40
0.8047516497
40
1.0000000000
40
1.0000000000
40
1.0000000000
40
1.0000000000
10
2.3702931304
20
-10.7554257530
30
0.0000000000
10
2.3612377511
20
-10.7532965440
30
0.0000000000
10
2.3470624116
20
-10.7495755265
30
0.0000000000
10
2.3439562342
20
-10.7383394613
30
0.0000000000
10
2.3437185789
20
-10.7360311344
30
0.0000000000
11
2.3702931304
21
-10.7554257530
31
0.0000000000
11
2.3455911640
21
-10.7424406197
31
0.0000000000
11
2.3437185789
21
-10.7360311344
31
0.0000000000
0
SPLINE
5
28B
100
AcDbEntity
8
0
100
AcDbSpline
62
9
6
CONTINUOUS
70
0
71
3
72
8
73
4
74
2
42
0.0000001000
43
0.0000001000
44
0.0000000001
12
0.0055063071
22
-0.0242162905
32
0.0000000000
13
0.0046313155
23
-0.0243838179
33
0.0000000000
40
0.0000000000
40
0.0000000000
40
0.0000000000
40
0.0000000000
40
1.0000000000
40
1.0000000000
40
1.0000000000
40
1.0000000000
10
2.3652210545
20
-10.7311238756
30
0.0000000000
10
2.3670564902
20
-10.7391959725
30
0.0000000000
10
2.3687491053
20
-10.7472979498
30
0.0000000000
10
2.3702928772
20
-10.7554258891
30
0.0000000000
11
2.3652210545
21
-10.7311238756
31
0.0000000000
11
2.3702928772
21
-10.7554258891
31
0.0000000000
0
SPLINE
5
28C
100
AcDbEntity
8
0
100
AcDbSpline
62
9
6
CONTINUOUS
70
0
71
3
72
9
73
5
74
3
42
0.0000001000
43
0.0000001000
44
0.0000000001
12
0.0012879959
22
-0.0595587238
32
0.0000000000
13
0.0537248392
23
-0.0285965334
33
0.0000000000
40
0.0000000000
40
0.0000000000
40
0.0000000000
40
0.0000000000
40
0.6454289074
40
1.0000000000
40
1.0000000000
40
1.0000000000
40
1.0000000000
10
-5.9771017004
20
-6.2495000806
30
0.0000000000
10
-5.9768245971
20
-6.2623137212
30
0.0000000000
10
-5.9732349311
20
-6.2833025425
30
0.0000000000
10
-5.9575001241
20
-6.2976360127
30
0.0000000000
10
-5.9511503657
20
-6.3010158474
30
0.0000000000
11
-5.9771017004
21
-6.2495000806
31
0.0000000000
11
-5.9671314444
21
-6.2866348292
31
0.0000000000
11
-5.9511503657
21
-6.3010158474
31
0.0000000000
0
SPLINE
5
28D
100
AcDbEntity
8
0
100
AcDbSpline
62
9
6
CONTINUOUS
70
0
71
3
72
8
73
4
74
2
42
0.0000001000
43
0.0000001000
44
0.0000000001
12
0.0326075901
22
-0.0127628650
32
0.0000000000
13
0.0312050724
23
-0.0156109706
33
0.0000000000
40
0.0000000000
40
0.0000000000
40
0.0000000000
40
0.0000000000
40
1.0000000000
40
1.0000000000
40
1.0000000000
40
1.0000000000
10
-6.0090246970
20
-6.2352553126
30
0.0000000000
10
-5.9981555003
20
-6.2395096009
30
0.0000000000
10
-5.9875033912
20
-6.2442964237
30
0.0000000000
10
-5.9771017004
20
-6.2495000806
30
0.0000000000
11
-6.0090246970
21
-6.2352553126
31
0.0000000000
11
-5.9771017004
21
-6.2495000806
31
0.0000000000
0
SPLINE
5
28E
100
AcDbEntity
8
0
100
AcDbSpline
62
9
6
CONTINUOUS
70
0
71
3
72
10
73
6
74
4
42
0.0000001000
43
0.0000001000
44
0.0000000001
12
0.0293967768
22
-0.2369655745
32
0.0000000000
13
0.2109507535
23
-0.1063460365
33
0.0000000000
40
0.0000000000
40
0.0000000000
40
0.0000000000
40
0.0000000000
40
0.1202993628
40
0.5252127053
40
1.0000000000
40
1.0000000000
40
1.0000000000
40
1.0000000000
10
-8.7857406874
20
-13.5840406431
30
0.0000000000
10
-8.7845618829
20
-13.5935429123
30
0.0000000000
10
-8.7761021333
20
-13.6345309802
30
0.0000000000
10
-8.7316724944
20
-13.7033194069
30
0.0000000000
10
-8.6729969459
20
-13.7427722870
30
0.0000000000
10
-8.6396113667
20
-13.7596028693
30
0.0000000000
11
-8.7857406874
21
-13.5840406431
31
0.0000000000
11
-8.7799060848
21
-13.6120645050
31
0.0000000000
11
-8.7306264174
21
-13.6940509880
31
0.0000000000
11
-8.6396113667
21
-13.7596028693
31
0.0000000000
0
SPLINE
5
28F
100
AcDbEntity
8
0
100
AcDbSpline
62
9
6
CONTINUOUS
70
0
71
3
72
10
73
6
74
4
42
0.0000001000
43
0.0000001000
44
0.0000000001
12
-0.0200313401
22
-0.2350720114
32
0.0000000000
13
0.2084514259
23
-0.1031247994
33
0.0000000000
40
0.0000000000
40
0.0000000000
40
0.0000000000
40
0.0000000000
40
0.1896483048
40
0.5348910235
40
1.0000000000
40
1.0000000000
40
1.0000000000
40
1.0000000000
10
-8.7863013219
20
23.0305297598
30
0.0000000000
10
-8.7875676252
20
23.0156694236
30
0.0000000000
10
-8.7807592146
20
22.9719593593
30
0.0000000000
10
-8.7256525173
20
22.9130054551
30
0.0000000000
10
-8.6719121715
20
22.8803513294
30
0.0000000000
10
-8.6395946284
20
22.8643632394
30
0.0000000000
11
-8.7863013219
21
23.0305297598
31
0.0000000000
11
-8.7798901768
21
22.9862048319
31
0.0000000000
11
-8.7306090106
21
22.9228163467
31
0.0000000000
11
-8.6395946284
21
22.8643632394
31
0.0000000000
0
SPLINE
5
290
100
AcDbEntity
8
0
100
AcDbSpline
62
9
6
CONTINUOUS
70
0
71
3
72
10
73
6
74
4
42
0.0000001000
43
0.0000001000
44
0.0000000001
12
0.2130840024
22
0.1205676684
32
0.0000000000
13
0.2191848281
23
-0.1038238002
33
0.0000000000
40
0.0000000000
40
0.0000000000
40
0.0000000000
40
0.0000000000
40
0.1065267873
40
0.5212692027
40
1.0000000000
40
1.0000000000
40
1.0000000000
40
1.0000000000
10
-8.2025556190
20
23.9544213148
30
0.0000000000
10
-8.1949892343
20
23.9587025436
30
0.0000000000
10
-8.1566142798
20
23.9771165279
30
0.0000000000
10
-8.0730447518
20
23.9855862324
30
0.0000000000
10
-8.0027327751
20
23.9629883324
30
0.0000000000
10
-7.9677559325
20
23.9464204488
30
0.0000000000
11
-8.2025556190
21
23.9544213148
31
0.0000000000
11
-8.1790879548
21
23.9656440801
31
0.0000000000
11
-8.0793306517
21
23.9785444358
31
0.0000000000
11
-7.9677559325
21
23.9464204488
31
0.0000000000
0
SPLINE
5
291
100
AcDbEntity
8
0
100
AcDbSpline
62
7
6
CONTINUOUS
70
0
71
3
72
8
73
4
74
2
42
0.0000001000
43
0.0000001000
44
0.0000000001
12
-0.0024333704
22
-0.0177782865
32
0.0000000000
13
-0.0036340960
23
-0.0176320090
33
0.0000000000
40
0.0000000000
40
0.0000000000
40
0.0000000000
40
0.0000000000
40
1.0000000000
40
1.0000000000
40
1.0000000000
40
1.0000000000
10
2.4863910704
20
-14.0290227376
30
0.0000000000
10
2.4855799469
20
-14.0349488331
30
0.0000000000
10
2.4845778935
20
-14.0408552303
30
0.0000000000
10
2.4833665282
20
-14.0467325667
30
0.0000000000
11
2.4863910704
21
-14.0290227376
31
0.0000000000
11
2.4833665282
21
-14.0467325667
31
0.0000000000
0
SPLINE
5
292
100
AcDbEntity
8
0
100
AcDbSpline
62
7
6
CONTINUOUS
70
0
71
3
72
8
73
4
74
2
42
0.0000001000
43
0.0000001000
44
0.0000000001
12
-0.0024144973
22
-0.0117147259
32
0.0000000000
13
-0.0030418834
23
-0.0115777272
33
0.0000000000
40
0.0000000000
40
0.0000000000
40
0.0000000000
40
0.0000000000
40
1.0000000000
40
1.0000000000
40
1.0000000000
40
1.0000000000
10
2.4833665282
20
-14.0467325667
30
0.0000000000
10
2.4825616958
20
-14.0506374753
30
0.0000000000
10
2.4816641391
20
-14.0545292568
30
0.0000000000
10
2.4806501780
20
-14.0583884992
30
0.0000000000
11
2.4833665282
21
-14.0467325667
31
0.0000000000
11
2.4806501780
21
-14.0583884992
31
0.0000000000
0
SPLINE
5
293
100
AcDbEntity
8
0
100
AcDbSpline
62
7
6
CONTINUOUS
70
0
71
3
72
8
73
4
74
2
42
0.0000001000
43
0.0000001000
44
0.0000000001
12
-0.0024366454
22
-0.0092741279
32
0.0000000000
13
-0.0029213063
23
-0.0091189228
33
0.0000000000
40
0.0000000000
40
0.0000000000
40
0.0000000000
40
0.0000000000
40
1.0000000000
40
1.0000000000
40
1.0000000000
40
1.0000000000
10
2.4806501780
20
-14.0583884992
30
0.0000000000
10
2.4798379628
20
-14.0614798752
30
0.0000000000
10
2.4789510565
20
-14.0645503724
30
0.0000000000
10
2.4779772878
20
-14.0675900133
30
0.0000000000
11
2.4806501780
21
-14.0583884992
31
0.0000000000
11
2.4779772878
21
-14.0675900133
31
0.0000000000
0
SPLINE
5
294
100
AcDbEntity
8
0
100
AcDbSpline
62
7
6
CONTINUOUS
70
0
71
3
72
8
73
4
74
2
42
0.0000001000
43
0.0000001000
44
0.0000000001
12
-0.0033727023
22
-0.0105279658
32
0.0000000000
13
-0.0041235731
23
-0.0102351315
33
0.0000000000
40
0.0000000000
40
0.0000000000
40
0.0000000000
40
0.0000000000
40
1.0000000000
40
1.0000000000
40
1.0000000000
40
1.0000000000
10
2.4779772878
20
-14.0675900133
30
0.0000000000
10
2.4768530537
20
-14.0710993352
30
0.0000000000
10
2.4756130395
20
-14.0745675285
30
0.0000000000
10
2.4742385151
20
-14.0779792390
30
0.0000000000
11
2.4779772878
21
-14.0675900133
31
0.0000000000
11
2.4742385151
21
-14.0779792390
31
0.0000000000
0
SPLINE
5
295
100
AcDbEntity
8
0
100
AcDbSpline
62
7
6
CONTINUOUS
70
0
71
3
72
8
73
4
74
2
42
0.0000001000
43
0.0000001000
44
0.0000000001
12
-0.0031232349
22
-0.0077521895
32
0.0000000000
13
-0.0036106361
23
-0.0075377607
33
0.0000000000
40
0.0000000000
40
0.0000000000
40
0.0000000000
40
0.0000000000
40
1.0000000000
40
1.0000000000
40
1.0000000000
40
1.0000000000
10
2.4742385151
20
-14.0779792390
30
0.0000000000
10
2.4731974368
20
-14.0805633021
30
0.0000000000
10
2.4720791941
20
-14.0831149628
30
0.0000000000
10
2.4708756487
20
-14.0856275498
30
0.0000000000
11
2.4742385151
21
-14.0779792390
31
0.0000000000
11
2.4708756487
21
-14.0856275498
31
0.0000000000
0
SPLINE
5
296
100
AcDbEntity
8
0
100
AcDbSpline
62
7
6
CONTINUOUS
70
0
71
3
72
8
73
4
74
2
42
0.0000001000
43
0.0000001000
44
0.0000000001
12
-0.0043111417
22
-0.0090001745
32
0.0000000000
13
-0.0050823797
23
-0.0086318686
33
0.0000000000
40
0.0000000000
40
0.0000000000
40
0.0000000000
40
0.0000000000
40
1.0000000000
40
1.0000000000
40
1.0000000000
40
1.0000000000
10
2.4708756487
20
-14.0856275498
30
0.0000000000
10
2.4694386015
20
-14.0886276079
30
0.0000000000
10
2.4678799413
20
-14.0915719600
30
0.0000000000
10
2.4661858147
20
-14.0944492495
30
0.0000000000
11
2.4708756487
21
-14.0856275498
31
0.0000000000
11
2.4661858147
21
-14.0944492495
31
0.0000000000
0
SPLINE
5
297
100
AcDbEntity
8
0
100
AcDbSpline
62
7
6
CONTINUOUS
70
0
71
3
72
8
73
4
74
2
42
0.0000001000
43
0.0000001000
44
0.0000000001
12
-0.0035407571
22
-0.0060135904
32
0.0000000000
13
-0.0039493019
23
-0.0058067712
33
0.0000000000
40
0.0000000000
40
0.0000000000
40
0.0000000000
40
0.0000000000
40
1.0000000000
40
1.0000000000
40
1.0000000000
40
1.0000000000
10
2.4661858147
20
-14.0944492495
30
0.0000000000
10
2.4650055624
20
-14.0964537797
30
0.0000000000
10
2.4637595602
20
-14.0984257625
30
0.0000000000
10
2.4624431262
20
-14.1003613529
30
0.0000000000
11
2.4661858147
21
-14.0944492495
31
0.0000000000
11
2.4624431262
21
-14.1003613529
31
0.0000000000
0
SPLINE
5
298
100
AcDbEntity
8
0
100
AcDbSpline
62
7
6
CONTINUOUS
70
0
71
3
72
8
73
4
74
2
42
0.0000001000
43
0.0000001000
44
0.0000000001
12
-0.0050884394
22
-0.0074816775
32
0.0000000000
13
-0.0057821996
23
-0.0070141257
33
0.0000000000
40
0.0000000000
40
0.0000000000
40
0.0000000000
40
0.0000000000
40
1.0000000000
40
1.0000000000
40
1.0000000000
40
1.0000000000
10
2.4624431262
20
-14.1003613529
30
0.0000000000
10
2.4607469797
20
-14.1028552454
30
0.0000000000
10
2.4589340220
20
-14.1052884878
30
0.0000000000
10
2.4570066221
20
-14.1076265296
30
0.0000000000
11
2.4624431262
21
-14.1003613529
31
0.0000000000
11
2.4570066221
21
-14.1076265296
31
0.0000000000
0
SPLINE
5
299
100
AcDbEntity
8
0
100
AcDbSpline
62
7
6
CONTINUOUS
70
0
71
3
72
8
73
4
74
2
42
0.0000001000
43
0.0000001000
44
0.0000000001
12
-0.0035633321
22
-0.0043225176
32
0.0000000000
13
-0.0038224422
23
-0.0040813303
33
0.0000000000
40
0.0000000000
40
0.0000000000
40
0.0000000000
40
0.0000000000
40
1.0000000000
40
1.0000000000
40
1.0000000000
40
1.0000000000
10
2.4570066221
20
-14.1076265296
30
0.0000000000
10
2.4558188448
20
-14.1090673688
30
0.0000000000
10
2.4545876052
20
-14.1104720532
30
0.0000000000
10
2.4533134578
20
-14.1118324967
30
0.0000000000
11
2.4570066221
21
-14.1076265296
31
0.0000000000
11
2.4533134578
21
-14.1118324967
31
0.0000000000
0
SPLINE
5
29A
100
AcDbEntity
8
0
100
AcDbSpline
62
7
6
CONTINUOUS
70
0
71
3
72
8
73
4
74
2
42
0.0000001000
43
0.0000001000
44
0.0000000001
12
-0.0060424767
22
-0.0064517244
32
0.0000000000
13
-0.0066792379
23
-0.0056925764
33
0.0000000000
40
0.0000000000
40
0.0000000000
40
0.0000000000
40
0.0000000000
40
1.0000000000
40
1.0000000000
40
1.0000000000
40
1.0000000000
10
2.4533134578
20
-14.1118324967
30
0.0000000000
10
2.4512992989
20
-14.1139830715
30
0.0000000000
10
2.4491779179
20
-14.1160230927
30
0.0000000000
10
2.4469515053
20
-14.1179206182
30
0.0000000000
11
2.4533134578
21
-14.1118324967
31
0.0000000000
11
2.4469515053
21
-14.1179206182
31
0.0000000000
0
SPLINE
5
29B
100
AcDbEntity
8
0
100
AcDbSpline
62
7
6
CONTINUOUS
70
0
71
3
72
8
73
4
74
2
42
0.0000001000
43
0.0000001000
44
0.0000000001
12
-0.0030985346
22
-0.0026408170
32
0.0000000000
13
-0.0032335007
23
-0.0024472524
33
0.0000000000
40
0.0000000000
40
0.0000000000
40
0.0000000000
40
0.0000000000
40
1.0000000000
40
1.0000000000
40
1.0000000000
40
1.0000000000
10
2.4469515053
20
-14.1179206182
30
0.0000000000
10
2.4459186604
20
-14.1188008905
30
0.0000000000
10
2.4448632118
20
-14.1196504966
30
0.0000000000
10
2.4437853783
20
-14.1204662474
30
0.0000000000
11
2.4469515053
21
-14.1179206182
31
0.0000000000
11
2.4437853783
21
-14.1204662474
31
0.0000000000
0
SPLINE
5
29C
100
AcDbEntity
8
0
100
AcDbSpline
62
7
6
CONTINUOUS
70
0
71
3
72
8
73
4
74
2
42
0.0000001000
43
0.0000001000
44
0.0000000001
12
-0.0084464009
22
-0.0063925996
32
0.0000000000
13
-0.0093511524
23
-0.0048360441
33
0.0000000000
40
0.0000000000
40
0.0000000000
40
0.0000000000
40
0.0000000000
40
1.0000000000
40
1.0000000000
40
1.0000000000
40
1.0000000000
10
2.4437853783
20
-14.1204662474
30
0.0000000000
10
2.4409699113
20
-14.1225971139
30
0.0000000000
10
2.4380017036
20
-14.1244969743
30
0.0000000000
10
2.4348846528
20
-14.1261089890
30
0.0000000000
11
2.4437853783
21
-14.1204662474
31
0.0000000000
11
2.4348846528
21
-14.1261089890
31
0.0000000000
0
SPLINE
5
29D
100
AcDbEntity
8
0
100
AcDbSpline
62
7
6
CONTINUOUS
70
0
71
3
72
8
73
4
74
2
42
0.0000001000
43
0.0000001000
44
0.0000000001
12
0.0044488697
22
-0.0233816609
32
0.0000000000
13
0.0044082437
23
-0.0233900400
33
0.0000000000
40
0.0000000000
40
0.0000000000
40
0.0000000000
40
0.0000000000
40
1.0000000000
40
1.0000000000
40
1.0000000000
40
1.0000000000
10
2.3427337749
20
-10.7361324360
30
0.0000000000
10
2.3442167315
20
-10.7439263229
30
0.0000000000
10
2.3456929298
20
-10.7517216129
30
0.0000000000
10
2.3471623444
20
-10.7595182929
30
0.0000000000
11
2.3427337749
21
-10.7361324360
31
0.0000000000
11
2.3471623444
21
-10.7595182929
31
0.0000000000
0
SPLINE
5
29E
100
AcDbEntity
8
0
100
AcDbSpline
62
7
6
CONTINUOUS
70
0
71
3
72
8
73
4
74
2
42
0.0000001000
43
0.0000001000
44
0.0000000001
12
0.0590772760
22
-0.3134626695
32
0.0000000000
13
0.0515825508
23
-0.3148674841
33
0.0000000000
40
0.0000000000
40
0.0000000000
40
0.0000000000
40
0.0000000000
40
1.0000000000
40
1.0000000000
40
1.0000000000
40
1.0000000000
10
2.3471623444
20
-10.7595182929
30
0.0000000000
10
2.3668547697
20
-10.8640058493
30
0.0000000000
10
2.3853288196
20
-10.9687430639
30
0.0000000000
10
2.4025230032
20
-11.0736988919
30
0.0000000000
11
2.3471623444
21
-10.7595182929
31
0.0000000000
11
2.4025230032
21
-11.0736988919
31
0.0000000000
0
SPLINE
5
29F
100
AcDbEntity
8
0
100
AcDbSpline
62
7
6
CONTINUOUS
70
0
71
3
72
10
73
6
74
4
42
0.0000001000
43
0.0000001000
44
0.0000000001
12
0.4331804057
22
-2.6441969703
32
0.0000000000
13
-0.2602658648
23
-2.6672082124
33
0.0000000000
40
0.0000000000
40
0.0000000000
40
0.0000000000
40
0.0000000000
40
0.3031865394
40
0.7327377819
40
1.0000000000
40
1.0000000000
40
1.0000000000
40
1.0000000000
10
2.4025230032
20
-11.0736988919
30
0.0000000000
10
2.4463011592
20
-11.3409272016
30
0.0000000000
10
2.5320518303
20
-11.9901865965
30
0.0000000000
10
2.5748521671
20
-12.8834722312
30
0.0000000000
10
2.5429172425
20
-13.5061559887
30
0.0000000000
10
2.5197308317
20
-13.7437706497
30
0.0000000000
11
2.4025230032
21
-11.0736988919
31
0.0000000000
11
2.5079518061
21
-11.8791229920
31
0.0000000000
11
2.5583291387
21
-13.0285302032
31
0.0000000000
11
2.5197308317
21
-13.7437706497
31
0.0000000000
0
SPLINE
5
2A0
100
AcDbEntity
8
0
100
AcDbSpline
62
7
6
CONTINUOUS
70
0
71
3
72
8
73
4
74
2
42
0.0000001000
43
0.0000001000
44
0.0000000001
12
-0.0278837355
22
-0.2857529107
32
0.0000000000
13
-0.0387873694
23
-0.2843399318
33
0.0000000000
40
0.0000000000
40
0.0000000000
40
0.0000000000
40
0.0000000000
40
1.0000000000
40
1.0000000000
40
1.0000000000
40
1.0000000000
10
2.5197308317
20
-13.7437706497
30
0.0000000000
10
2.5104362532
20
-13.8390216199
30
0.0000000000
10
2.4993840659
20
-13.9340773226
30
0.0000000000
10
2.4864549428
20
-14.0288572999
30
0.0000000000
11
2.5197308317
21
-13.7437706497
31
0.0000000000
11
2.4864549428
21
-14.0288572999
31
0.0000000000
0
SPLINE
5
2A1
100
AcDbEntity
8
0
100
AcDbSpline
62
7
6
CONTINUOUS
70
0
71
3
72
12
73
8
74
6
42
0.0000001000
43
0.0000001000
44
0.0000000001
12
0.4140869261
22
-0.2075255304
32
0.0000000000
13
0.1462824378
23
-0.4374836217
33
0.0000000000
40
0.0000000000
40
0.0000000000
40
0.0000000000
40
0.0000000000
40
0.0699740751
40
0.2971540773
40
0.5542241931
40
0.8230296660
40
1.0000000000
40
1.0000000000
40
1.0000000000
40
1.0000000000
10
2.0433121387
20
-10.2985264435
30
0.0000000000
10
2.0529705886
20
-10.3033669126
30
0.0000000000
10
2.0929694926
20
-10.3261241520
30
0.0000000000
10
2.1589329574
20
-10.3807224614
30
0.0000000000
10
2.2329156259
20
-10.4704465073
30
0.0000000000
10
2.2868502905
20
-10.5645121407
30
0.0000000000
10
2.3124857667
20
-10.6281751856
30
0.0000000000
10
2.3211149840
20
-10.6539823932
30
0.0000000000
11
2.0433121387
21
-10.2985264435
31
0.0000000000
11
2.0715516971
21
-10.3144460351
31
0.0000000000
11
2.1531611560
21
-10.3799769985
31
0.0000000000
11
2.2290601472
21
-10.4708941606
31
0.0000000000
11
2.2907804799
21
-10.5782582963
31
0.0000000000
11
2.3211149840
21
-10.6539823932
31
0.0000000000
0
SPLINE
5
2A2
100
AcDbEntity
8
0
100
AcDbSpline
62
7
6
CONTINUOUS
70
0
71
3
72
9
73
5
74
3
42
0.0000001000
43
0.0000001000
44
0.0000000001
12
0.0247096939
22
-0.0738987300
32
0.0000000000
13
0.0155300703
23
-0.0764520979
33
0.0000000000
40
0.0000000000
40
0.0000000000
40
0.0000000000
40
0.0000000000
40
0.5085163133
40
1.0000000000
40
1.0000000000
40
1.0000000000
40
1.0000000000
10
2.3211149840
20
-10.6539823932
30
0.0000000000
10
2.3253034115
20
-10.6665086298
30
0.0000000000
10
2.3328228409
20
-10.6913886403
30
0.0000000000
10
2.3388449539
20
-10.7167114824
30
0.0000000000
10
2.3413892126
20
-10.7292364687
30
0.0000000000
11
2.3211149840
21
-10.6539823932
31
0.0000000000
11
2.3325637272
21
-10.6919269236
31
0.0000000000
11
2.3413892126
21
-10.7292364687
31
0.0000000000
0
SPLINE
5
2A3
100
AcDbEntity
8
0
100
AcDbSpline
62
7
6
CONTINUOUS
70
0
71
3
72
8
73
4
74
2
42
0.0000001000
43
0.0000001000
44
0.0000000001
12
0.0013905182
22
-0.0068453027
32
0.0000000000
13
0.0013068005
23
-0.0068605752
33
0.0000000000
40
0.0000000000
40
0.0000000000
40
0.0000000000
40
0.0000000000
40
1.0000000000
40
1.0000000000
40
1.0000000000
40
1.0000000000
10
2.3413892126
20
-10.7292364687
30
0.0000000000
10
2.3418527187
20
-10.7315182363
30
0.0000000000
10
2.3423024345
20
-10.7338026332
30
0.0000000000
10
2.3427380347
20
-10.7360894915
30
0.0000000000
11
2.3413892126
21
-10.7292364687
31
0.0000000000
11
2.3427380347
21
-10.7360894915
31
0.0000000000
0
SPLINE
5
2A4
100
AcDbEntity
8
0
100
AcDbSpline
62
7
6
CONTINUOUS
70
0
71
3
72
8
73
4
74
2
42
0.0000001000
43
0.0000001000
44
0.0000000001
12
0.0074806261
22
0.0035402593
32
0.0000000000
13
0.0077670995
23
0.0028667086
33
0.0000000000
40
0.0000000000
40
0.0000000000
40
0.0000000000
40
0.0000000000
40
1.0000000000
40
1.0000000000
40
1.0000000000
40
1.0000000000
10
-6.0815652795
20
-6.2857435034
30
0.0000000000
10
-6.0790717375
20
-6.2845634170
30
0.0000000000
10
-6.0765232827
20
-6.2834942334
30
0.0000000000
10
-6.0739342495
20
-6.2825386639
30
0.0000000000
11
-6.0815652795
21
-6.2857435034
31
0.0000000000
11
-6.0739342495
21
-6.2825386639
31
0.0000000000
0
SPLINE
5
2A5
100
AcDbEntity
8
0
100
AcDbSpline
62
7
6
CONTINUOUS
70
0
71
3
72
8
73
4
74
2
42
0.0000001000
43
0.0000001000
44
0.0000000001
12
0.0068701085
22
0.0025356440
32
0.0000000000
13
0.0070308321
23
0.0019966892
33
0.0000000000
40
0.0000000000
40
0.0000000000
40
0.0000000000
40
0.0000000000
40
1.0000000000
40
1.0000000000
40
1.0000000000
40
1.0000000000
10
-6.0739342495
20
-6.2825386639
30
0.0000000000
10
-6.0716442133
20
-6.2816934492
30
0.0000000000
10
-6.0693224301
20
-6.2809371222
30
0.0000000000
10
-6.0669788194
20
-6.2802715592
30
0.0000000000
11
-6.0739342495
21
-6.2825386639
31
0.0000000000
11
-6.0669788194
21
-6.2802715592
31
0.0000000000
0
SPLINE
5
2A6
100
AcDbEntity
8
0
100
AcDbSpline
62
7
6
CONTINUOUS
70
0
71
3
72
8
73
4
74
2
42
0.0000001000
43
0.0000001000
44
0.0000000001
12
0.0088509839
22
0.0025135949
32
0.0000000000
13
0.0089991639
23
0.0016393192
33
0.0000000000
40
0.0000000000
40
0.0000000000
40
0.0000000000
40
0.0000000000
40
1.0000000000
40
1.0000000000
40
1.0000000000
40
1.0000000000
10
-6.0669788194
20
-6.2802715592
30
0.0000000000
10
-6.0640284914
20
-6.2794336942
30
0.0000000000
10
-6.0610435717
20
-6.2787396703
30
0.0000000000
10
-6.0580438504
20
-6.2781932305
30
0.0000000000
11
-6.0669788194
21
-6.2802715592
31
0.0000000000
11
-6.0580438504
21
-6.2781932305
31
0.0000000000
0
SPLINE
5
2A7
100
AcDbEntity
8
0
100
AcDbSpline
62
7
6
CONTINUOUS
70
0
71
3
72
8
73
4
74
2
42
0.0000001000
43
0.0000001000
44
0.0000000001
12
0.0084184906
22
0.0015335417
32
0.0000000000
13
0.0084825848
23
0.0007896608
33
0.0000000000
40
0.0000000000
40
0.0000000000
40
0.0000000000
40
0.0000000000
40
1.0000000000
40
1.0000000000
40
1.0000000000
40
1.0000000000
10
-6.0580438504
20
-6.2781932305
30
0.0000000000
10
-6.0552376868
20
-6.2776820499
30
0.0000000000
10
-6.0524187177
20
-6.2773001918
30
0.0000000000
10
-6.0495911894
20
-6.2770369715
30
0.0000000000
11
-6.0580438504
21
-6.2781932305
31
0.0000000000
11
-6.0495911894
21
-6.2770369715
31
0.0000000000
0
SPLINE
5
2A8
100
AcDbEntity
8
0
100
AcDbSpline
62
7
6
CONTINUOUS
70
0
71
3
72
8
73
4
74
2
42
0.0000001000
43
0.0000001000
44
0.0000000001
12
0.0107608607
22
0.0010017500
32
0.0000000000
13
0.0108175509
23
-0.0000782966
33
0.0000000000
40
0.0000000000
40
0.0000000000
40
0.0000000000
40
0.0000000000
40
1.0000000000
40
1.0000000000
40
1.0000000000
40
1.0000000000
10
-6.0495911894
20
-6.2770369715
30
0.0000000000
10
-6.0460042358
20
-6.2767030548
30
0.0000000000
10
-6.0424035050
20
-6.2765600589
30
0.0000000000
10
-6.0387976547
20
-6.2765861578
30
0.0000000000
11
-6.0495911894
21
-6.2770369715
31
0.0000000000
11
-6.0387976547
21
-6.2765861578
31
0.0000000000
0
SPLINE
5
2A9
100
AcDbEntity
8
0
100
AcDbSpline
62
7
6
CONTINUOUS
70
0
71
3
72
8
73
4
74
2
42
0.0000001000
43
0.0000001000
44
0.0000000001
12
0.0100188790
22
-0.0000725158
32
0.0000000000
13
0.0100245929
23
-0.0008907817
33
0.0000000000
40
0.0000000000
40
0.0000000000
40
0.0000000000
40
0.0000000000
40
1.0000000000
40
1.0000000000
40
1.0000000000
40
1.0000000000
10
-6.0387976547
20
-6.2765861578
30
0.0000000000
10
-6.0354580284
20
-6.2766103297
30
0.0000000000
10
-6.0321140106
20
-6.2767795493
30
0.0000000000
10
-6.0287724796
20
-6.2770764765
30
0.0000000000
11
-6.0387976547
21
-6.2765861578
31
0.0000000000
11
-6.0287724796
21
-6.2770764765
31
0.0000000000
0
SPLINE
5
2AA
100
AcDbEntity
8
0
100
AcDbSpline
62
7
6
CONTINUOUS
70
0
71
3
72
8
73
4
74
2
42
0.0000001000
43
0.0000001000
44
0.0000000001
12
0.0122069402
22
-0.0010847043
32
0.0000000000
13
0.0121475578
23
-0.0021269617
33
0.0000000000
40
0.0000000000
40
0.0000000000
40
0.0000000000
40
0.0000000000
40
1.0000000000
40
1.0000000000
40
1.0000000000
40
1.0000000000
10
-6.0287724796
20
-6.2770764765
30
0.0000000000
10
-6.0247034996
20
-6.2774380446
30
0.0000000000
10
-6.0206382069
20
-6.2779889766
30
0.0000000000
10
-6.0165890210
20
-6.2786979639
30
0.0000000000
11
-6.0287724796
21
-6.2770764765
31
0.0000000000
11
-6.0165890210
21
-6.2786979639
31
0.0000000000
0
SPLINE
5
2AB
100
AcDbEntity
8
0
100
AcDbSpline
62
7
6
CONTINUOUS
70
0
71
3
72
8
73
4
74
2
42
0.0000001000
43
0.0000001000
44
0.0000000001
12
0.0116133580
22
-0.0020334267
32
0.0000000000
13
0.0114924749
23
-0.0028181127
33
0.0000000000
40
0.0000000000
40
0.0000000000
40
0.0000000000
40
0.0000000000
40
1.0000000000
40
1.0000000000
40
1.0000000000
40
1.0000000000
10
-6.0165890210
20
-6.2786979639
30
0.0000000000
10
-6.0127179017
20
-6.2793757728
30
0.0000000000
10
-6.0088615036
20
-6.2801980413
30
0.0000000000
10
-6.0050306786
20
-6.2811374122
30
0.0000000000
11
-6.0165890210
21
-6.2786979639
31
0.0000000000
11
-6.0050306786
21
-6.2811374122
31
0.0000000000
0
SPLINE
5
2AC
100
AcDbEntity
8
0
100
AcDbSpline
62
7
6
CONTINUOUS
70
0
71
3
72
8
73
4
74
2
42
0.0000001000
43
0.0000001000
44
0.0000000001
12
0.0136556528
22
-0.0033485536
32
0.0000000000
13
0.0133843996
23
-0.0042028745
33
0.0000000000
40
0.0000000000
40
0.0000000000
40
0.0000000000
40
0.0000000000
40
1.0000000000
40
1.0000000000
40
1.0000000000
40
1.0000000000
10
-6.0050306786
20
-6.2811374122
30
0.0000000000
10
-6.0004787944
20
-6.2822535967
30
0.0000000000
10
-5.9959630163
20
-6.2835351158
30
0.0000000000
10
-5.9915015497
20
-6.2849360739
30
0.0000000000
11
-6.0050306786
21
-6.2811374122
31
0.0000000000
11
-5.9915015497
21
-6.2849360739
31
0.0000000000
0
SPLINE
5
2AD
100
AcDbEntity
8
0
100
AcDbSpline
62
7
6
CONTINUOUS
70
0
71
3
72
8
73
4
74
2
42
0.0000001000
43
0.0000001000
44
0.0000000001
12
0.0131569354
22
-0.0041314478
32
0.0000000000
13
0.0128445600
23
-0.0047954715
33
0.0000000000
40
0.0000000000
40
0.0000000000
40
0.0000000000
40
0.0000000000
40
1.0000000000
40
1.0000000000
40
1.0000000000
40
1.0000000000
10
-5.9915015497
20
-6.2849360739
30
0.0000000000
10
-5.9871159046
20
-6.2863132232
30
0.0000000000
10
-5.9827830735
20
-6.2878051603
30
0.0000000000
10
-5.9785015535
20
-6.2894036508
30
0.0000000000
11
-5.9915015497
21
-6.2849360739
31
0.0000000000
11
-5.9785015535
21
-6.2894036508
31
0.0000000000
0
SPLINE
5
2AE
100
AcDbEntity
8
0
100
AcDbSpline
62
7
6
CONTINUOUS
70
0
71
3
72
8
73
4
74
2
42
0.0000001000
43
0.0000001000
44
0.0000000001
12
0.0151981680
22
-0.0056741828
32
0.0000000000
13
0.0147747541
23
-0.0065286143
33
0.0000000000
40
0.0000000000
40
0.0000000000
40
0.0000000000
40
0.0000000000
40
1.0000000000
40
1.0000000000
40
1.0000000000
40
1.0000000000
10
-5.9785015535
20
-6.2894036508
30
0.0000000000
10
-5.9734354975
20
-6.2912950451
30
0.0000000000
10
-5.9684412710
20
-6.2933356360
30
0.0000000000
10
-5.9635163529
20
-6.2955118407
30
0.0000000000
11
-5.9785015535
21
-6.2894036508
31
0.0000000000
11
-5.9635163529
21
-6.2955118407
31
0.0000000000
0
SPLINE
5
2AF
100
AcDbEntity
8
0
100
AcDbSpline
62
7
6
CONTINUOUS
70
0
71
3
72
8
73
4
74
2
42
0.0000001000
43
0.0000001000
44
0.0000000001
12
0.0123794867
22
-0.0054702023
32
0.0000000000
13
0.0120919893
23
-0.0060174751
33
0.0000000000
40
0.0000000000
40
0.0000000000
40
0.0000000000
40
0.0000000000
40
1.0000000000
40
1.0000000000
40
1.0000000000
40
1.0000000000
10
-5.9635163529
20
-6.2955118407
30
0.0000000000
10
-5.9593898574
20
-6.2973352415
30
0.0000000000
10
-5.9553120195
20
-6.2992538493
30
0.0000000000
10
-5.9512813564
20
-6.3012596743
30
0.0000000000
11
-5.9635163529
21
-6.2955118407
31
0.0000000000
11
-5.9512813564
21
-6.3012596743
31
0.0000000000
0
SPLINE
5
2B0
100
AcDbEntity
8
0
100
AcDbSpline
62
7
6
CONTINUOUS
70
0
71
3
72
8
73
4
74
2
42
0.0000001000
43
0.0000001000
44
0.0000000001
12
0.0063752175
22
-0.0497590855
32
0.0000000000
13
0.0090709130
23
-0.0494188386
33
0.0000000000
40
0.0000000000
40
0.0000000000
40
0.0000000000
40
0.0000000000
40
1.0000000000
40
1.0000000000
40
1.0000000000
40
1.0000000000
10
-8.7859032467
20
-13.5840667280
30
0.0000000000
10
-8.7837781742
20
-13.6006530898
30
0.0000000000
10
-8.7812098098
20
-13.6172006932
30
0.0000000000
10
-8.7781861721
20
-13.6336736394
30
0.0000000000
11
-8.7859032467
21
-13.5840667280
31
0.0000000000
11
-8.7781861721
21
-13.6336736394
31
0.0000000000
0
SPLINE
5
2B1
100
AcDbEntity
8
0
100
AcDbSpline
62
7
6
CONTINUOUS
70
0
71
3
72
9
73
5
74
3
42
0.0000001000
43
0.0000001000
44
0.0000000001
12
0.0441215600
22
-0.2403767119
32
0.0000000000
13
0.1122221585
23
-0.2172763236
33
0.0000000000
40
0.0000000000
40
0.0000000000
40
0.0000000000
40
0.0000000000
40
0.6791157908
40
1.0000000000
40
1.0000000000
40
1.0000000000
40
1.0000000000
10
-8.7781861721
20
-13.6336736394
30
0.0000000000
10
-8.7681982894
20
-13.6880881797
30
0.0000000000
10
-8.7461760810
20
-13.7670142089
30
0.0000000000
10
-8.7124461189
20
-13.8413683260
30
0.0000000000
10
-8.7004426794
20
-13.8646085064
30
0.0000000000
11
-8.7781861721
21
-13.6336736394
31
0.0000000000
11
-8.7328874348
21
-13.7931794473
31
0.0000000000
11
-8.7004426794
21
-13.8646085064
31
0.0000000000
0
SPLINE
5
2B2
100
AcDbEntity
8
0
100
AcDbSpline
62
7
6
CONTINUOUS
70
0
71
3
72
9
73
5
74
3
42
0.0000001000
43
0.0000001000
44
0.0000000001
12
0.1687829127
22
-0.3267851130
32
0.0000000000
13
0.3084251908
23
-0.2009832554
33
0.0000000000
40
0.0000000000
40
0.0000000000
40
0.0000000000
40
0.0000000000
40
0.4101684656
40
1.0000000000
40
1.0000000000
40
1.0000000000
40
1.0000000000
10
-8.7004426794
20
-13.8646085064
30
0.0000000000
10
-8.6773662033
20
-13.9092874892
30
0.0000000000
10
-8.6104721945
20
-14.0126392164
30
0.0000000000
10
-8.5187307804
20
-14.0961388948
30
0.0000000000
10
-8.4580911459
20
-14.1356543154
30
0.0000000000
11
-8.7004426794
21
-13.8646085064
31
0.0000000000
11
-8.6183102954
21
-13.9907308556
31
0.0000000000
11
-8.4580911459
21
-14.1356543154
31
0.0000000000
0
SPLINE
5
2B3
100
AcDbEntity
8
0
100
AcDbSpline
62
7
6
CONTINUOUS
70
0
71
3
72
8
73
4
74
2
42
0.0000001000
43
0.0000001000
44
0.0000000001
12
0.0657625712
22
-0.0428537488
32
0.0000000000
13
0.0703065066
23
-0.0349875345
33
0.0000000000
40
0.0000000000
40
0.0000000000
40
0.0000000000
40
0.0000000000
40
1.0000000000
40
1.0000000000
40
1.0000000000
40
1.0000000000
10
-8.4580911459
20
-14.1356543154
30
0.0000000000
10
-8.4361702889
20
-14.1499388983
30
0.0000000000
10
-8.4133956035
20
-14.1629507956
30
0.0000000000
10
-8.3899601013
20
-14.1746133071
30
0.0000000000
11
-8.4580911459
21
-14.1356543154
31
0.0000000000
11
-8.3899601013
21
-14.1746133071
31
0.0000000000
0
SPLINE
5
2B4
100
AcDbEntity
8
0
100
AcDbSpline
62
7
6
CONTINUOUS
70
0
71
3
72
8
73
4
74
2
42
0.0000001000
43
0.0000001000
44
0.0000000001
12
0.0162011752
22
-1.0636917299
32
0.0000000000
13
0.0281364116
23
-1.0634941552
33
0.0000000000
40
0.0000000000
40
0.0000000000
40
0.0000000000
40
0.0000000000
40
1.0000000000
40
1.0000000000
40
1.0000000000
40
1.0000000000
10
-9.4610617559
20
-3.8530524988
30
0.0000000000
10
-9.4556613641
20
-4.2076164088
30
0.0000000000
10
-9.4482898145
20
-4.5621618453
30
0.0000000000
10
-9.4389110107
20
-4.9166598970
30
0.0000000000
11
-9.4610617559
21
-3.8530524988
31
0.0000000000
11
-9.4389110107
21
-4.9166598970
31
0.0000000000
0
SPLINE
5
2B5
100
AcDbEntity
8
0
100
AcDbSpline
62
7
6
CONTINUOUS
70
0
71
3
72
8
73
4
74
2
42
0.0000001000
43
0.0000001000
44
0.0000000001
12
0.1143778715
22
-0.9971498079
32
0.0000000000
13
0.1267483789
23
-0.9955987686
33
0.0000000000
40
0.0000000000
40
0.0000000000
40
0.0000000000
40
0.0000000000
40
1.0000000000
40
1.0000000000
40
1.0000000000
40
1.0000000000
10
-8.9065136872
20
-12.5872832421
30
0.0000000000
10
-8.8683877300
20
-12.9196665114
30
0.0000000000
10
-8.8282182292
20
-13.2518082286
30
0.0000000000
10
-8.7859687696
20
-13.5836744847
30
0.0000000000
11
-8.9065136872
21
-12.5872832421
31
0.0000000000
11
-8.7859687696
21
-13.5836744847
31
0.0000000000
0
SPLINE
5
2B6
100
AcDbEntity
8
0
100
AcDbSpline
62
7
6
CONTINUOUS
70
0
71
3
72
11
73
7
74
5
42
0.0000001000
43
0.0000001000
44
0.0000000001
12
0.2107777979
22
0.1178606347
32
0.0000000000
13
0.2150399456
23
-0.1075199728
33
0.0000000000
40
0.0000000000
40
0.0000000000
40
0.0000000000
40
0.0000000000
40
0.1579985615
40
0.4151871104
40
0.6932458265
40
1.0000000000
40
1.0000000000
40
1.0000000000
40
1.0000000000
10
-5.4675069808
20
25.4856973129
30
0.0000000000
10
-5.4564061178
20
25.4919045831
30
0.0000000000
10
-5.4255900551
20
25.5052953931
30
0.0000000000
10
-5.3697357225
20
25.5133850559
30
0.0000000000
10
-5.3021994940
20
25.5038477872
30
0.0000000000
10
-5.2581910178
20
25.4866021827
30
0.0000000000
10
-5.2362028842
20
25.4756081159
30
0.0000000000
11
-5.4675069808
21
25.4856973129
31
0.0000000000
11
-5.4325705136
21
25.5008586843
31
0.0000000000
11
-5.3714617237
21
25.5102996473
31
0.0000000000
11
-5.3051564755
21
25.5017716395
31
0.0000000000
11
-5.2362028842
21
25.4756081159
31
0.0000000000
0
SPLINE
5
2B7
100
AcDbEntity
8
0
100
AcDbSpline
62
7
6
CONTINUOUS
70
0
71
3
72
12
73
8
74
6
42
0.0000001000
43
0.0000001000
44
0.0000000001
12
-0.9116543374
22
-0.5105669703
32
0.0000000000
13
-0.1933094569
23
-1.0274118788
33
0.0000000000
40
0.0000000000
40
0.0000000000
40
0.0000000000
40
0.0000000000
40
0.1599000144
40
0.4035634786
40
0.6557490525
40
0.9097034875
40
1.0000000000
40
1.0000000000
40
1.0000000000
40
1.0000000000
10
-8.2026114917
20
23.9545227361
30
0.0000000000
10
-8.2512026723
20
23.9273095141
30
0.0000000000
10
-8.3678444351
20
23.8472469754
30
0.0000000000
10
-8.5272018190
20
23.6819851087
30
0.0000000000
10
-8.6667072799
20
23.4598059965
30
0.0000000000
10
-8.7412560292
20
23.2650706600
30
0.0000000000
10
-8.7680391639
20
23.1479959032
30
0.0000000000
10
-8.7738575538
20
23.1170720000
30
0.0000000000
11
-8.2026114917
21
23.9545227361
31
0.0000000000
11
-8.3407190964
21
23.8604668921
31
0.0000000000
11
-8.5183105728
21
23.6788288871
31
0.0000000000
11
-8.6587051274
21
23.4565377639
31
0.0000000000
11
-8.7528711551
21
23.2090911581
31
0.0000000000
11
-8.7738575538
21
23.1170720000
31
0.0000000000
0
SPLINE
5
2B8
100
AcDbEntity
8
0
100
AcDbSpline
62
7
6
CONTINUOUS
70
0
71
3
72
8
73
4
74
2
42
0.0000001000
43
0.0000001000
44
0.0000000001
12
-0.0161858517
22
-0.0860254671
32
0.0000000000
13
-0.0097467176
23
-0.0868819569
33
0.0000000000
40
0.0000000000
40
0.0000000000
40
0.0000000000
40
0.0000000000
40
1.0000000000
40
1.0000000000
40
1.0000000000
40
1.0000000000
10
-8.7738575538
20
23.1170720000
30
0.0000000000
10
-8.7792528377
20
23.0883968443
30
0.0000000000
10
-8.7836104656
20
23.0595365041
30
0.0000000000
10
-8.7868593715
20
23.0305758518
30
0.0000000000
11
-8.7738575538
21
23.1170720000
31
0.0000000000
11
-8.7868593715
21
23.0305758518
31
0.0000000000
0
SPLINE
5
2B9
100
AcDbEntity
8
0
100
AcDbSpline
62
7
6
CONTINUOUS
70
0
71
3
72
8
73
4
74
2
42
0.0000001000
43
0.0000001000
44
0.0000000001
12
-0.1264884993
22
-1.1268483949
32
0.0000000000
13
-0.1153808304
23
-1.1280817489
33
0.0000000000
40
0.0000000000
40
0.0000000000
40
0.0000000000
40
0.0000000000
40
1.0000000000
40
1.0000000000
40
1.0000000000
40
1.0000000000
10
-8.7868515231
20
23.0306986799
30
0.0000000000
10
-8.8290143562
20
22.6550825483
30
0.0000000000
10
-8.8693404794
20
22.2792509015
30
0.0000000000
10
-8.9078007562
20
21.9032236519
30
0.0000000000
11
-8.7868515231
21
23.0306986799
31
0.0000000000
11
-8.9078007562
21
21.9032236519
31
0.0000000000
0
SPLINE
5
2BA
100
AcDbEntity
8
0
100
AcDbSpline
62
7
6
CONTINUOUS
70
0
71
3
72
8
73
4
74
2
42
0.0000001000
43
0.0000001000
44
0.0000000001
12
-0.0277491087
22
-1.0805440547
32
0.0000000000
13
-0.0162007932
23
-1.0807356077
33
0.0000000000
40
0.0000000000
40
0.0000000000
40
0.0000000000
40
0.0000000000
40
1.0000000000
40
1.0000000000
40
1.0000000000
40
1.0000000000
10
-9.4390729720
20
13.6807358881
30
0.0000000000
10
-9.4483226749
20
13.3205545366
30
0.0000000000
10
-9.4556633004
20
12.9603297892
30
0.0000000000
10
-9.4610635648
20
12.6000845866
30
0.0000000000
11
-9.4390729720
21
13.6807358881
31
0.0000000000
11
-9.4610635648
21
12.6000845866
31
0.0000000000
0
SPLINE
5
2BB
100
AcDbEntity
8
0
100
AcDbSpline
62
7
6
CONTINUOUS
70
0
71
3
72
8
73
4
74
2
42
0.0000001000
43
0.0000001000
44
0.0000000001
12
-0.0268516537
22
-1.7912345041
32
0.0000000000
13
-0.0210815681
23
-1.7913184705
33
0.0000000000
40
0.0000000000
40
0.0000000000
40
0.0000000000
40
0.0000000000
40
1.0000000000
40
1.0000000000
40
1.0000000000
40
1.0000000000
10
-9.4610635716
20
12.6000846968
30
0.0000000000
10
-9.4700141228
20
12.0030065288
30
0.0000000000
10
-9.4780054693
20
11.4059125144
30
0.0000000000
10
-9.4850326587
20
10.8088063575
30
0.0000000000
11
-9.4610635716
21
12.6000846968
31
0.0000000000
11
-9.4850326587
21
10.8088063575
31
0.0000000000
0
SPLINE
5
2BC
100
AcDbEntity
8
0
100
AcDbSpline
62
7
6
CONTINUOUS
70
0
71
3
72
10
73
6
74
4
42
0.0000001000
43
0.0000001000
44
0.0000000001
12
-0.1518276487
22
-12.9009223014
32
0.0000000000
13
0.1538729495
23
-12.9008994813
33
0.0000000000
40
0.0000000000
40
0.0000000000
40
0.0000000000
40
0.0000000000
40
0.2869709988
40
0.7155733774
40
1.0000000000
40
1.0000000000
40
1.0000000000
40
1.0000000000
10
-9.4850326587
20
10.8088063575
30
0.0000000000
10
-9.4995560360
20
9.5747428383
30
0.0000000000
10
-9.5255014605
20
6.4974279958
30
0.0000000000
10
-9.5255950689
20
2.1967732802
30
0.0000000000
10
-9.4995516789
20
-0.8695999292
30
0.0000000000
10
-9.4849631578
20
-2.0927196853
30
0.0000000000
11
-9.4850326587
21
10.8088063575
31
0.0000000000
11
-9.5162041218
21
7.1064929017
31
0.0000000000
11
-9.5161743908
21
1.5767658896
31
0.0000000000
11
-9.4849631578
21
-2.0927196853
31
0.0000000000
0
SPLINE
5
2BD
100
AcDbEntity
8
0
100
AcDbSpline
62
7
6
CONTINUOUS
70
0
71
3
72
8
73
4
74
2
42
0.0000001000
43
0.0000001000
44
0.0000000001
12
0.0209965150
22
-1.7603739331
32
0.0000000000
13
0.0268112809
23
-1.7602881571
33
0.0000000000
40
0.0000000000
40
0.0000000000
40
0.0000000000
40
0.0000000000
40
1.0000000000
40
1.0000000000
40
1.0000000000
40
1.0000000000
10
-9.4849631578
20
-2.0927196853
30
0.0000000000
10
-9.4779643195
20
-2.6795109963
30
0.0000000000
10
-9.4699988478
20
-3.2662899387
30
0.0000000000
10
-9.4610617542
20
-3.8530526578
30
0.0000000000
11
-9.4849631578
21
-2.0927196853
31
0.0000000000
11
-9.4610617542
21
-3.8530526578
31
0.0000000000
0
SPLINE
5
2BE
100
AcDbEntity
8
0
100
AcDbSpline
62
7
6
CONTINUOUS
70
0
71
3
72
11
73
7
74
5
42
0.0000001000
43
0.0000001000
44
0.0000000001
12
0.5382315992
22
-0.2694464328
32
0.0000000000
13
0.5678544729
23
0.2024888204
33
0.0000000000
40
0.0000000000
40
0.0000000000
40
0.0000000000
40
0.0000000000
40
0.2503356165
40
0.5606578200
40
0.8868939353
40
1.0000000000
40
1.0000000000
40
1.0000000000
40
1.0000000000
10
6.2999609883
20
-21.5196292639
30
0.0000000000
10
6.3448738347
20
-21.5421132769
30
0.0000000000
10
6.4512430363
20
-21.5817184953
30
0.0000000000
10
6.6296523757
20
-21.6026019791
30
0.0000000000
10
6.7799154851
20
-21.5812487438
30
0.0000000000
10
6.8642581550
20
-21.5548863210
30
0.0000000000
10
6.8856674166
20
-21.5472520832
30
0.0000000000
11
6.2999609883
21
-21.5196292639
31
0.0000000000
11
6.4411409486
21
-21.5722170563
31
0.0000000000
11
6.6263419559
21
-21.5943559765
31
0.0000000000
11
6.8205845989
21
-21.5675421912
31
0.0000000000
11
6.8856674166
21
-21.5472520832
31
0.0000000000
0
SPLINE
5
2BF
100
AcDbEntity
8
0
100
AcDbSpline
62
7
6
CONTINUOUS
70
0
71
3
72
8
73
4
74
2
42
0.0000001000
43
0.0000001000
44
0.0000000001
12
0.0616128135
22
0.0219702521
32
0.0000000000
13
0.0597798999
23
0.0264624368
33
0.0000000000
40
0.0000000000
40
0.0000000000
40
0.0000000000
40
0.0000000000
40
1.0000000000
40
1.0000000000
40
1.0000000000
40
1.0000000000
10
6.8856674166
20
-21.5472520832
30
0.0000000000
10
6.9062050211
20
-21.5399286658
30
0.0000000000
10
6.9264626333
20
-21.5318254579
30
0.0000000000
10
6.9463892666
20
-21.5230046457
30
0.0000000000
11
6.8856674166
21
-21.5472520832
31
0.0000000000
11
6.9463892666
21
-21.5230046457
31
0.0000000000
0
SPLINE
5
2C0
100
AcDbEntity
8
0
100
AcDbSpline
62
7
6
CONTINUOUS
70
0
71
3
72
12
73
8
74
6
42
0.0000001000
43
0.0000001000
44
0.0000000001
12
0.0000000000
22
-0.3236722686
32
0.0000000000
13
-0.2971401766
23
-0.1319095818
33
0.0000000000
40
0.0000000000
40
0.0000000000
40
0.0000000000
40
0.0000000000
40
0.2513050341
40
0.4797469545
40
0.6867787307
40
0.8781009651
40
1.0000000000
40
1.0000000000
40
1.0000000000
40
1.0000000000
10
9.9667140652
20
-19.9713088869
30
0.0000000000
10
9.9667140652
20
-19.9984223770
30
0.0000000000
10
9.9627765600
20
-20.0503315821
30
0.0000000000
10
9.9432487779
20
-20.1223476588
30
0.0000000000
10
9.9106783162
20
-20.1824621794
30
0.0000000000
10
9.8705994545
20
-20.2230058514
30
0.0000000000
10
9.8410004742
20
-20.2400196621
30
0.0000000000
10
9.8289267739
20
-20.2453795456
30
0.0000000000
11
9.9667140652
21
-19.9713088869
31
0.0000000000
11
9.9599262927
21
-20.0523656465
31
0.0000000000
11
9.9398203025
21
-20.1235198403
31
0.0000000000
11
9.9071640975
21
-20.1820345561
31
0.0000000000
11
9.8632106806
21
-20.2256566797
31
0.0000000000
11
9.8289267739
21
-20.2453795456
31
0.0000000000
0
SPLINE
5
2C1
100
AcDbEntity
8
0
100
AcDbSpline
62
7
6
CONTINUOUS
70
0
71
3
72
15
73
11
74
9
42
0.0000001000
43
0.0000001000
44
0.0000000001
12
0.6579429531
22
-0.3289714766
32
0.0000000000
13
0.0000000000
23
-0.7356025842
33
0.0000000000
40
0.0000000000
40
0.0000000000
40
0.0000000000
40
0.0000000000
40
0.1103200630
40
0.2298775073
40
0.3567611503
40
0.4883322651
40
0.6215380573
40
0.7531889670
40
0.8802256903
40
1.0000000000
40
1.0000000000
40
1.0000000000
40
1.0000000000
10
9.6132818285
20
18.0508657595
30
0.0000000000
10
9.6374765979
20
18.0387683748
30
0.0000000000
10
9.6854337186
20
18.0084954373
30
0.0000000000
10
9.7512958625
20
17.9504868388
30
0.0000000000
10
9.8119408560
20
17.8800301453
30
0.0000000000
10
9.8650985865
20
17.7997638454
30
0.0000000000
10
9.9088033228
20
17.7126818562
30
0.0000000000
10
9.9414177430
20
17.6220339938
30
0.0000000000
10
9.9617222315
20
17.5312337917
30
0.0000000000
10
9.9667140652
20
17.4706540858
30
0.0000000000
10
9.9667140652
20
17.4412853219
30
0.0000000000
11
9.6132818285
21
18.0508657595
31
0.0000000000
11
9.6822354922
21
18.0080756381
31
0.0000000000
11
9.7485408842
21
17.9502982337
31
0.0000000000
11
9.8096497895
21
17.8797482615
31
0.0000000000
11
9.8632110115
21
17.7991359285
31
0.0000000000
11
9.9071643190
21
17.7115604420
31
0.0000000000
11
9.9398203920
21
17.6203897284
31
0.0000000000
11
9.9599263071
21
17.5291297582
31
0.0000000000
11
9.9667140652
21
17.4412853219
31
0.0000000000
0
SPLINE
5
2C2
100
AcDbEntity
8
0
100
AcDbSpline
62
9
6
CONTINUOUS
70
0
71
3
72
10
73
6
74
4
42
0.0000001000
43
0.0000001000
44
0.0000000001
12
0.0039801976
22
-0.2436723515
32
0.0000000000
13
0.2143583651
23
-0.1073077507
33
0.0000000000
40
0.0000000000
40
0.0000000000
40
0.0000000000
40
0.0000000000
40
0.1700507929
40
0.5401421493
40
1.0000000000
40
1.0000000000
40
1.0000000000
40
1.0000000000
10
-9.4606595182
20
-3.8530460876
30
0.0000000000
10
-9.4604339063
20
-3.8668583131
30
0.0000000000
10
-9.4534178959
20
-3.9106576927
30
0.0000000000
10
-9.4040337268
20
-3.9777263464
30
0.0000000000
10
-9.3474674353
20
-4.0139611996
30
0.0000000000
10
-9.3146093096
20
-4.0304099702
30
0.0000000000
11
-9.4606595182
21
-3.8530460876
31
0.0000000000
11
-9.4540678049
21
-3.8936861017
31
0.0000000000
11
-9.4053687762
21
-3.9678425225
31
0.0000000000
11
-9.3146093096
21
-4.0304099702
31
0.0000000000
0
SPLINE
5
2C3
100
AcDbEntity
8
0
100
AcDbSpline
62
9
6
CONTINUOUS
70
0
71
3
72
10
73
6
74
4
42
0.0000001000
43
0.0000001000
44
0.0000000001
12
-0.2597498534
22
-16.4365931903
32
0.0000000000
13
0.2637035002
23
-16.4365302346
33
0.0000000000
40
0.0000000000
40
0.0000000000
40
0.0000000000
40
0.0000000000
40
0.3350160310
40
0.6683413725
40
1.0000000000
40
1.0000000000
40
1.0000000000
40
1.0000000000
10
6.0317180314
20
5.0869164090
30
0.0000000000
10
6.0027112431
20
3.2514090043
30
0.0000000000
10
5.9639403471
20
-0.4106755604
30
0.0000000000
10
5.9637939251
20
-5.8903166161
30
0.0000000000
10
6.0025648511
20
-9.5340060941
30
0.0000000000
10
6.0317180314
20
-11.3511117802
30
0.0000000000
11
6.0317180314
21
5.0869164090
31
0.0000000000
11
5.9735595053
21
-0.4199862618
31
0.0000000000
11
5.9735595253
21
-5.8994033847
31
0.0000000000
11
6.0317180314
21
-11.3511117802
31
0.0000000000
0
SPLINE
5
2C4
100
AcDbEntity
8
0
100
AcDbSpline
62
9
6
CONTINUOUS
70
0
71
3
72
10
73
6
74
4
42
0.0000001000
43
0.0000001000
44
0.0000000001
12
-0.2600032285
22
-16.4530463098
32
0.0000000000
13
0.2639608502
23
-16.4529832925
33
0.0000000000
40
0.0000000000
40
0.0000000000
40
0.0000000000
40
0.0000000000
40
0.3350161394
40
0.6683412219
40
1.0000000000
40
1.0000000000
40
1.0000000000
40
1.0000000000
10
5.3340511751
20
5.0997424589
30
0.0000000000
10
5.3050160825
20
3.2623971066
30
0.0000000000
10
5.2662073898
20
-0.4033523818
30
0.0000000000
10
5.2660608119
20
-5.8884785480
30
0.0000000000
10
5.3048695307
20
-9.5358147680
30
0.0000000000
10
5.3340511751
20
-11.3547402130
30
0.0000000000
11
5.3340511751
21
5.0997424589
31
0.0000000000
11
5.2758359125
21
-0.4126744163
31
0.0000000000
11
5.2758359216
21
-5.8975721679
31
0.0000000000
11
5.3340511751
21
-11.3547402130
31
0.0000000000
0
SPLINE
5
2C5
100
AcDbEntity
8
0
100
AcDbSpline
62
9
6
CONTINUOUS
70
0
71
3
72
12
73
8
74
6
42
0.0000001000
43
0.0000001000
44
0.0000000001
12
-0.6525136872
22
-0.2947967346
32
0.0000000000
13
-0.6402658447
23
0.3205290544
33
0.0000000000
40
0.0000000000
40
0.0000000000
40
0.0000000000
40
0.0000000000
40
0.1858728116
40
0.3932996248
40
0.6081648741
40
0.8150726662
40
1.0000000000
40
1.0000000000
40
1.0000000000
40
1.0000000000
10
6.0317180314
20
5.0869164090
30
0.0000000000
10
5.9912898468
20
5.0686515097
30
0.0000000000
10
5.9008895103
20
5.0406366311
30
0.0000000000
10
5.7564778623
20
5.0216864519
30
0.0000000000
10
5.6057388181
20
5.0244443325
30
0.0000000000
10
5.4624681804
20
5.0486548319
30
0.0000000000
10
5.3735187273
20
5.0799842645
30
0.0000000000
10
5.3340511754
20
5.0997424590
30
0.0000000000
11
6.0317180314
21
5.0869164090
31
0.0000000000
11
5.9051757867
21
5.0456918752
31
0.0000000000
11
5.7580283758
21
5.0255395603
31
0.0000000000
11
5.6042073642
21
5.0283674372
31
0.0000000000
11
5.4582761580
21
5.0539077693
31
0.0000000000
11
5.3340511754
21
5.0997424590
31
0.0000000000
0
SPLINE
5
2C6
100
AcDbEntity
8
0
100
AcDbSpline
62
9
6
CONTINUOUS
70
0
71
3
72
12
73
8
74
6
42
0.0000001000
43
0.0000001000
44
0.0000000001
12
-0.6425686999
22
-0.3194711744
32
0.0000000000
13
-0.6419990212
23
0.3206144448
33
0.0000000000
40
0.0000000000
40
0.0000000000
40
0.0000000000
40
0.0000000000
40
0.1877386891
40
0.3956571460
40
0.6100134742
40
0.8159170750
40
1.0000000000
40
1.0000000000
40
1.0000000000
40
1.0000000000
10
6.0317180314
20
-11.3511117802
30
0.0000000000
10
5.9915063629
20
-11.3711041467
30
0.0000000000
10
5.9014073643
20
-11.4026190401
30
0.0000000000
10
5.7568326424
20
-11.4260700343
30
0.0000000000
10
5.6059275378
20
-11.4269092175
30
0.0000000000
10
5.4624641091
20
-11.4050713228
30
0.0000000000
10
5.3734448764
20
-11.3744134199
30
0.0000000000
10
5.3340511905
20
-11.3547402050
30
0.0000000000
11
6.0317180314
21
-11.3511117802
31
0.0000000000
11
5.9051757867
21
-11.3973407461
31
0.0000000000
11
5.7580283783
21
-11.4220236859
31
0.0000000000
11
5.6042073709
21
-11.4228236780
31
0.0000000000
11
5.4582761693
21
-11.3996649810
31
0.0000000000
11
5.3340511905
21
-11.3547402050
31
0.0000000000
0
SPLINE
5
2C7
100
AcDbEntity
8
0
100
AcDbSpline
62
9
6
CONTINUOUS
70
0
71
3
72
10
73
6
74
4
42
0.0000001000
43
0.0000001000
44
0.0000000001
12
0.1559897790
22
-9.7225650546
32
0.0000000000
13
1.2885806002
23
-9.6380581078
33
0.0000000000
40
0.0000000000
40
0.0000000000
40
0.0000000000
40
0.0000000000
40
0.3395549021
40
0.6729331969
40
1.0000000000
40
1.0000000000
40
1.0000000000
40
1.0000000000
10
6.0317180314
20
-11.3511117802
30
0.0000000000
10
6.0493737294
20
-12.4515599886
30
0.0000000000
10
6.1241783604
20
-14.6320491357
30
0.0000000000
10
6.3589181479
20
-17.8655460455
30
0.0000000000
10
6.5984761253
20
-19.9934877453
30
0.0000000000
10
6.7389601044
20
-21.0442506963
30
0.0000000000
11
6.0317180314
21
-11.3511117802
31
0.0000000000
11
6.1460382529
21
-14.6509015816
31
0.0000000000
11
6.3819368242
21
-17.8840163496
31
0.0000000000
11
6.7389601044
21
-21.0442506963
31
0.0000000000
0
SPLINE
5
2C8
100
AcDbEntity
8
0
100
AcDbSpline
62
9
6
CONTINUOUS
70
0
71
3
72
10
73
6
74
4
42
0.0000001000
43
0.0000001000
44
0.0000000001
12
0.1568365804
22
-9.7768225209
32
0.0000000000
13
1.2956054126
23
-9.6918658128
33
0.0000000000
40
0.0000000000
40
0.0000000000
40
0.0000000000
40
0.0000000000
40
0.3395572857
40
0.6729307169
40
1.0000000000
40
1.0000000000
40
1.0000000000
40
1.0000000000
10
5.3340511751
20
-11.3547402130
30
0.0000000000
10
5.3518028429
20
-12.4613373192
30
0.0000000000
10
5.4270144329
20
-14.6539868749
30
0.0000000000
10
5.6630315410
20
-17.9055305454
30
0.0000000000
10
5.9038925876
20
-20.0453431310
30
0.0000000000
10
6.0451434988
20
-21.1019803320
30
0.0000000000
11
5.3340511751
21
-11.3547402130
31
0.0000000000
11
5.4489944148
21
-14.6729684368
31
0.0000000000
11
5.6861732869
21
-17.9240806581
31
0.0000000000
11
6.0451434988
21
-21.1019803320
31
0.0000000000
0
SPLINE
5
2C9
100
AcDbEntity
8
0
100
AcDbSpline
62
9
6
CONTINUOUS
70
0
71
3
72
12
73
8
74
6
42
0.0000001000
43
0.0000001000
44
0.0000000001
12
-0.6044462725
22
-0.3951043243
32
0.0000000000
13
-0.6469525030
23
0.3208039625
33
0.0000000000
40
0.0000000000
40
0.0000000000
40
0.0000000000
40
0.0000000000
40
0.1941107646
40
0.4037108777
40
0.6162827137
40
0.8187146599
40
1.0000000000
40
1.0000000000
40
1.0000000000
40
1.0000000000
10
6.7389601043
20
-21.0442506963
30
0.0000000000
10
6.6998502616
20
-21.0698153638
30
0.0000000000
10
6.6116289417
20
-21.1127031737
30
0.0000000000
10
6.4675903553
20
-21.1510871192
30
0.0000000000
10
6.3169433914
20
-21.1638456911
30
0.0000000000
10
6.1733199604
20
-21.1498504041
30
0.0000000000
10
6.0842499333
20
-21.1213577398
30
0.0000000000
10
6.0451555984
20
-21.1019720547
30
0.0000000000
11
6.7389601043
21
-21.0442506963
31
0.0000000000
11
6.6135955355
21
-21.1069556648
31
0.0000000000
11
6.4675079408
21
-21.1465463605
31
0.0000000000
11
6.3145332600
21
-21.1592731530
31
0.0000000000
11
6.1691597081
21
-21.1439306893
31
0.0000000000
11
6.0451555984
21
-21.1019720547
31
0.0000000000
0
SPLINE
5
2CA
100
AcDbEntity
8
0
100
AcDbSpline
62
9
6
CONTINUOUS
70
0
71
3
72
13
73
9
74
7
42
0.0000001000
43
0.0000001000
44
0.0000000001
12
0.0640211038
22
-0.4779039203
32
0.0000000000
13
0.4408407902
23
0.1953209064
33
0.0000000000
40
0.0000000000
40
0.0000000000
40
0.0000000000
40
0.0000000000
40
0.1844458385
40
0.3508831040
40
0.5048278233
40
0.6573127927
40
0.8201089895
40
1.0000000000
40
1.0000000000
40
1.0000000000
40
1.0000000000
10
6.7389601044
20
-21.0442506963
30
0.0000000000
10
6.7428962465
20
-21.0736331594
30
0.0000000000
10
6.7561787681
20
-21.1290970202
30
0.0000000000
10
6.7963391332
20
-21.2010446264
30
0.0000000000
10
6.8548467459
20
-21.2522453249
30
0.0000000000
10
6.9277853957
20
-21.2775914812
30
0.0000000000
10
7.0087149883
20
-21.2758558976
30
0.0000000000
10
7.0618233200
20
-21.2588380591
30
0.0000000000
10
7.0882577517
20
-21.2471259007
30
0.0000000000
11
6.7389601044
21
-21.0442506963
31
0.0000000000
11
6.7609033559
21
-21.1304359322
31
0.0000000000
11
6.8011526432
21
-21.1998643747
31
0.0000000000
11
6.8574801751
21
-21.2482069498
31
0.0000000000
11
6.9267720194
21
-21.2727923131
31
0.0000000000
11
7.0052666925
21
-21.2723463014
31
0.0000000000
11
7.0882577517
21
-21.2471259007
31
0.0000000000
0
SPLINE
5
2CB
100
AcDbEntity
8
0
100
AcDbSpline
62
9
6
CONTINUOUS
70
0
71
3
72
10
73
6
74
4
42
0.0000001000
43
0.0000001000
44
0.0000000001
12
-0.0070490930
22
-0.3248459074
32
0.0000000000
13
-0.2983745548
23
-0.1336116648
33
0.0000000000
40
0.0000000000
40
0.0000000000
40
0.0000000000
40
0.0000000000
40
0.3932222944
40
0.7288944885
40
1.0000000000
40
1.0000000000
40
1.0000000000
40
1.0000000000
10
7.0882577517
20
-21.2471259007
30
0.0000000000
10
7.0873337982
20
-21.2897047851
30
0.0000000000
10
7.0766375746
20
-21.3690448019
30
0.0000000000
10
7.0275624760
20
-21.4686829839
30
0.0000000000
10
6.9736401194
20
-21.5107986419
30
0.0000000000
10
6.9466764572
20
-21.5228729282
30
0.0000000000
11
7.0882577517
21
-21.2471259007
31
0.0000000000
11
7.0684955100
21
-21.3733550160
31
0.0000000000
11
7.0170047353
21
-21.4695028173
31
0.0000000000
11
6.9466764572
21
-21.5228729282
31
0.0000000000
0
SPLINE
5
2CC
100
AcDbEntity
8
0
100
AcDbSpline
62
9
6
CONTINUOUS
70
0
71
3
72
10
73
6
74
4
42
0.0000001000
43
0.0000001000
44
0.0000000001
12
-1.2244129835
22
-10.3200288540
32
0.0000000000
13
-0.1642165803
23
-10.3911123378
33
0.0000000000
40
0.0000000000
40
0.0000000000
40
0.0000000000
40
0.0000000000
40
0.3384422068
40
0.6718598790
40
1.0000000000
40
1.0000000000
40
1.0000000000
40
1.0000000000
10
6.7389601044
20
15.4512029925
30
0.0000000000
10
6.6008290937
20
14.2869585459
30
0.0000000000
10
6.3639721632
20
11.9711174991
30
0.0000000000
10
6.1271828948
20
8.5144804714
30
0.0000000000
10
6.0496800476
20
6.2234966956
30
0.0000000000
10
6.0317180314
20
5.0869164090
30
0.0000000000
11
6.7389601044
21
15.4512029925
31
0.0000000000
11
6.3819346302
21
11.9521401781
31
0.0000000000
11
6.1460369170
21
8.4951663456
31
0.0000000000
11
6.0317180314
21
5.0869164090
31
0.0000000000
0
SPLINE
5
2CD
100
AcDbEntity
8
0
100
AcDbSpline
62
9
6
CONTINUOUS
70
0
71
3
72
10
73
6
74
4
42
0.0000001000
43
0.0000001000
44
0.0000000001
12
-1.2310774640
22
-10.3777460334
32
0.0000000000
13
-0.1651089696
23
-10.4492058782
33
0.0000000000
40
0.0000000000
40
0.0000000000
40
0.0000000000
40
0.0000000000
40
0.3384439934
40
0.6718567924
40
1.0000000000
40
1.0000000000
40
1.0000000000
40
1.0000000000
10
6.0451434988
20
15.5219804959
30
0.0000000000
10
5.9062599078
20
14.3512185593
30
0.0000000000
10
5.6681153347
20
12.0224376579
30
0.0000000000
10
5.4300366012
20
8.5464736318
30
0.0000000000
10
5.3521109707
20
6.2426877702
30
0.0000000000
10
5.3340511751
20
5.0997424589
30
0.0000000000
11
6.0451434988
21
15.5219804959
31
0.0000000000
11
5.6861732885
21
12.0033316267
31
0.0000000000
11
5.4489944147
21
8.5270795186
31
0.0000000000
11
5.3340511751
21
5.0997424589
31
0.0000000000
0
SPLINE
5
2CE
100
AcDbEntity
8
0
100
AcDbSpline
62
9
6
CONTINUOUS
70
0
71
3
72
12
73
8
74
6
42
0.0000001000
43
0.0000001000
44
0.0000000001
12
-0.6810654741
22
-0.2011035567
32
0.0000000000
13
-0.6338189692
23
0.3202597926
33
0.0000000000
40
0.0000000000
40
0.0000000000
40
0.0000000000
40
0.0000000000
40
0.1796434700
40
0.3854501154
40
0.6019884942
40
0.8122092966
40
1.0000000000
40
1.0000000000
40
1.0000000000
40
1.0000000000
10
6.7389601044
20
15.4512029925
30
0.0000000000
10
6.6981771160
20
15.4391606789
30
0.0000000000
10
6.6076435252
20
15.4236024700
30
0.0000000000
10
6.4648506862
20
15.4203500518
30
0.0000000000
10
6.3154837307
20
15.4356815343
30
0.0000000000
10
6.1733588237
20
15.4682034537
30
0.0000000000
10
6.0848186174
20
15.5019332301
30
0.0000000000
10
6.0451435140
20
15.5219805007
30
0.0000000000
11
6.7389601044
21
15.4512029925
31
0.0000000000
11
6.6135940618
21
15.4275856161
31
0.0000000000
11
6.4675039065
21
15.4233805627
31
0.0000000000
11
6.3145261716
21
15.4389861027
31
0.0000000000
11
6.1691497287
21
15.4729241997
31
0.0000000000
11
6.0451435140
21
15.5219805007
31
0.0000000000
0
SPLINE
5
2CF
100
AcDbEntity
8
0
100
AcDbSpline
62
9
6
CONTINUOUS
70
0
71
3
72
13
73
9
74
7
42
0.0000001000
43
0.0000001000
44
0.0000000001
12
-0.5897795053
22
-0.2984642546
32
0.0000000000
13
-0.0779462278
23
-0.6563879659
33
0.0000000000
40
0.0000000000
40
0.0000000000
40
0.0000000000
40
0.0000000000
40
0.1494676177
40
0.3128430908
40
0.4852168731
40
0.6611039132
40
0.8348048878
40
1.0000000000
40
1.0000000000
40
1.0000000000
40
1.0000000000
10
7.0882577517
20
15.9855492874
30
0.0000000000
10
7.0588734392
20
15.9706790404
30
0.0000000000
10
7.0008362681
20
15.9324877276
30
0.0000000000
10
6.9231866052
20
15.8583418413
30
0.0000000000
10
6.8545776333
20
15.7683427438
30
0.0000000000
10
6.7987628738
20
15.6673244241
30
0.0000000000
10
6.7586722930
20
15.5608090285
30
0.0000000000
10
6.7432522164
20
15.4873470204
30
0.0000000000
10
6.7389601044
20
15.4512029925
30
0.0000000000
11
7.0882577517
21
15.9855492874
31
0.0000000000
11
7.0052362673
21
15.9319909851
31
0.0000000000
11
6.9266882997
21
15.8578808815
31
0.0000000000
11
6.8573663569
21
15.7674564750
31
0.0000000000
11
6.8011002069
21
15.6657175390
31
0.0000000000
11
6.7608924642
21
15.5581716252
31
0.0000000000
11
6.7389601044
21
15.4512029925
31
0.0000000000
0
SPLINE
5
2D0
100
AcDbEntity
8
0
100
AcDbSpline
62
9
6
CONTINUOUS
70
0
71
3
72
13
73
9
74
7
42
0.0000001000
43
0.0000001000
44
0.0000000001
12
-1.1715798985
22
-0.6079024310
32
0.0000000000
13
-0.1535154428
23
-1.3109453966
33
0.0000000000
40
0.0000000000
40
0.0000000000
40
0.0000000000
40
0.0000000000
40
0.1494497469
40
0.3121860060
40
0.4840733429
40
0.6598135503
40
0.8336461327
40
1.0000000000
40
1.0000000000
40
1.0000000000
40
1.0000000000
10
6.7348255151
20
16.5951297250
30
0.0000000000
10
6.6764614086
20
16.5648461036
30
0.0000000000
10
6.5616712722
20
16.4874413006
30
0.0000000000
10
6.4085377087
20
16.3381567955
30
0.0000000000
10
6.2734571215
20
16.1577231987
30
0.0000000000
10
6.1634648742
20
15.9554854317
30
0.0000000000
10
6.0842119219
20
15.7419820020
30
0.0000000000
10
6.0536561280
20
15.5946741081
30
0.0000000000
10
6.0451434988
20
15.5219804959
30
0.0000000000
11
6.7348255151
21
16.5951297250
31
0.0000000000
11
6.5702308089
21
16.4864109018
31
0.0000000000
11
6.4155218012
21
16.3374058643
31
0.0000000000
11
6.2790446284
21
16.1561709419
31
0.0000000000
11
6.1681265587
21
15.9524489166
31
0.0000000000
11
6.0887295610
21
15.7371820065
31
0.0000000000
11
6.0451434988
21
15.5219804959
31
0.0000000000
0
SPLINE
5
2D1
100
AcDbEntity
8
0
100
AcDbSpline
62
9
6
CONTINUOUS
70
0
71
3
72
12
73
8
74
6
42
0.0000001000
43
0.0000001000
44
0.0000000001
12
-0.0162127035
22
0.7317494016
32
0.0000000000
13
-0.6473188090
23
0.3416114723
33
0.0000000000
40
0.0000000000
40
0.0000000000
40
0.0000000000
40
0.0000000000
40
0.1947689593
40
0.4051367254
40
0.6180981708
40
0.8201122180
40
1.0000000000
40
1.0000000000
40
1.0000000000
40
1.0000000000
10
7.0882577517
20
15.9855492874
30
0.0000000000
10
7.0872051746
20
16.0330566439
30
0.0000000000
10
7.0722254742
20
16.1317301811
30
0.0000000000
10
7.0209460467
20
16.2743436912
30
0.0000000000
10
6.9442106942
20
16.4072308199
30
0.0000000000
10
6.8492033411
20
16.5180174252
30
0.0000000000
10
6.7736404332
20
16.5746458167
30
0.0000000000
10
6.7348255183
20
16.5951297267
30
0.0000000000
11
7.0882577517
21
15.9855492874
31
0.0000000000
11
7.0684960725
21
16.1267299787
31
0.0000000000
11
7.0170062097
21
16.2718398282
31
0.0000000000
11
6.9388232162
21
16.4066867931
31
0.0000000000
11
6.8415931820
21
16.5180819513
31
0.0000000000
11
6.7348255183
21
16.5951297267
31
0.0000000000
0
SPLINE
5
2D2
100
AcDbEntity
8
0
100
AcDbSpline
62
9
6
CONTINUOUS
70
0
71
3
72
10
73
6
74
4
42
0.0000001000
43
0.0000001000
44
0.0000000001
12
-0.2506073654
22
16.4531307017
32
0.0000000000
13
0.2466495829
23
16.4531905089
33
0.0000000000
40
0.0000000000
40
0.0000000000
40
0.0000000000
40
0.0000000000
40
0.3315679556
40
0.6648942818
40
1.0000000000
40
1.0000000000
40
1.0000000000
40
1.0000000000
10
-9.3146093101
20
-4.0304099704
30
0.0000000000
10
-9.3423071007
20
-2.2119663337
30
0.0000000000
10
-9.3791368566
20
1.4348771667
30
0.0000000000
10
-9.3789902827
20
6.9199736567
30
0.0000000000
10
-9.3421605386
20
10.5862199605
30
0.0000000000
10
-9.3146093101
20
12.4240727015
30
0.0000000000
11
-9.3146093101
21
-4.0304099704
31
0.0000000000
11
-9.3698564181
21
1.4252740020
31
0.0000000000
11
-9.3698564268
21
6.9101717534
31
0.0000000000
11
-9.3146093101
21
12.4240727015
31
0.0000000000
0
SPLINE
5
2D3
100
AcDbEntity
8
0
100
AcDbSpline
62
9
6
CONTINUOUS
70
0
71
3
72
10
73
6
74
4
42
0.0000001000
43
0.0000001000
44
0.0000000001
12
0.1568950495
22
10.4645327885
32
0.0000000000
13
1.1676215409
23
10.4003712662
33
0.0000000000
40
0.0000000000
40
0.0000000000
40
0.0000000000
40
0.0000000000
40
0.3279270540
40
0.6613532989
40
1.0000000000
40
1.0000000000
40
1.0000000000
40
1.0000000000
10
-9.3146093101
20
12.4240727015
30
0.0000000000
10
-9.2974592663
20
13.5679405042
30
0.0000000000
10
-9.2234355505
20
15.8744433194
30
0.0000000000
10
-8.9974208240
20
19.3562269162
30
0.0000000000
10
-8.7714151197
20
21.6903408014
30
0.0000000000
10
-8.6396113920
20
22.8643579413
30
0.0000000000
11
-9.3146093101
21
12.4240727015
31
0.0000000000
11
-9.2055004839
21
15.8543269679
31
0.0000000000
11
-8.9803605973
21
19.3365985696
31
0.0000000000
11
-8.6396113920
21
22.8643579413
31
0.0000000000
0
SPLINE
5
2D4
100
AcDbEntity
8
0
100
AcDbSpline
62
9
6
CONTINUOUS
70
0
71
3
72
13
73
9
74
7
42
0.0000001000
43
0.0000001000
44
0.0000000001
12
0.1489107363
22
1.3074914989
32
0.0000000000
13
1.1550260248
23
0.6305737936
33
0.0000000000
40
0.0000000000
40
0.0000000000
40
0.0000000000
40
0.0000000000
40
0.1671064893
40
0.3416625811
40
0.5178633042
40
0.6897510039
40
0.8518740217
40
1.0000000000
40
1.0000000000
40
1.0000000000
40
1.0000000000
10
-8.6396113920
20
22.8643579413
30
0.0000000000
10
-8.6313167419
20
22.9371880460
30
0.0000000000
10
-8.6015595171
20
23.0848181016
30
0.0000000000
10
-8.5244162983
20
23.2992276512
30
0.0000000000
10
-8.4173521348
20
23.5027939466
30
0.0000000000
10
-8.2858739020
20
23.6849122370
30
0.0000000000
10
-8.1368298289
20
23.8361490475
30
0.0000000000
10
-8.0247857192
20
23.9152856621
30
0.0000000000
10
-7.9677559325
20
23.9464204488
30
0.0000000000
11
-8.6396113920
21
22.8643579413
31
0.0000000000
11
-8.5971516927
21
23.0801226333
31
0.0000000000
11
-8.5198065055
21
23.2964154487
31
0.0000000000
11
-8.4117554557
21
23.5015709839
31
0.0000000000
11
-8.2788075172
21
23.6845705235
31
0.0000000000
11
-8.1280966623
21
23.8355746374
31
0.0000000000
11
-7.9677559325
21
23.9464204488
31
0.0000000000
0
SPLINE
5
2D5
100
AcDbEntity
8
0
100
AcDbSpline
62
9
6
CONTINUOUS
70
0
71
3
72
9
73
5
74
3
42
0.0000001000
43
0.0000001000
44
0.0000000001
12
-0.0288729526
22
0.0143675666
32
0.0000000000
13
-0.0274421911
23
0.0168975615
33
0.0000000000
40
0.0000000000
40
0.0000000000
40
0.0000000000
40
0.0000000000
40
0.7374939033
40
1.0000000000
40
1.0000000000
40
1.0000000000
40
1.0000000000
10
-8.3908314799
20
-14.1742044138
30
0.0000000000
10
-8.3979293554
20
-14.1706724162
30
0.0000000000
10
-8.4073934149
20
-14.1655696024
30
0.0000000000
10
-8.4166075065
20
-14.1600450002
30
0.0000000000
10
-8.4190087540
20
-14.1585664292
30
0.0000000000
11
-8.3908314799
21
-14.1742044138
31
0.0000000000
11
-8.4117527709
21
-14.1629164185
31
0.0000000000
11
-8.4190087540
21
-14.1585664292
31
0.0000000000
0
SPLINE
5
2D6
100
AcDbEntity
8
0
100
AcDbSpline
62
9
6
CONTINUOUS
70
0
71
3
72
10
73
6
74
4
42
0.0000001000
43
0.0000001000
44
0.0000000001
12
-0.4016715205
22
0.2473297114
32
0.0000000000
13
-0.0600822470
23
0.4656664538
33
0.0000000000
40
0.0000000000
40
0.0000000000
40
0.0000000000
40
0.0000000000
40
0.2874220022
40
0.6223070855
40
1.0000000000
40
1.0000000000
40
1.0000000000
40
1.0000000000
10
-8.4190087540
20
-14.1585664292
30
0.0000000000
10
-8.4574918315
20
-14.1348704289
30
0.0000000000
10
-8.5310768503
20
-14.0678116346
30
0.0000000000
10
-8.6066869452
20
-13.9280640442
30
0.0000000000
10
-8.6320471790
20
-13.8182291933
30
0.0000000000
10
-8.6396113920
20
-13.7596028866
30
0.0000000000
11
-8.4190087540
21
-14.1585664292
31
0.0000000000
11
-8.5198046930
21
-14.0686796017
31
0.0000000000
11
-8.5971516463
21
-13.9317816321
31
0.0000000000
11
-8.6396113920
21
-13.7596028866
31
0.0000000000
0
SPLINE
5
2D7
100
AcDbEntity
8
0
100
AcDbSpline
62
9
6
CONTINUOUS
70
0
71
3
72
9
73
5
74
3
42
0.0000001000
43
0.0000001000
44
0.0000000001
12
-0.0386070356
22
0.0023910614
32
0.0000000000
13
-0.0374098363
23
0.0093207793
33
0.0000000000
40
0.0000000000
40
0.0000000000
40
0.0000000000
40
0.0000000000
40
0.6115296573
40
1.0000000000
40
1.0000000000
40
1.0000000000
40
1.0000000000
10
2.3584931020
20
-14.1408764936
30
0.0000000000
10
2.3506233196
20
-14.1403890920
30
0.0000000000
10
2.3377889860
20
-14.1387694415
30
0.0000000000
10
2.3252121885
20
-14.1360513655
30
0.0000000000
10
2.3203679845
20
-14.1348444168
30
0.0000000000
11
2.3584931020
21
-14.1408764936
31
0.0000000000
11
2.3350224787
21
-14.1379973868
31
0.0000000000
11
2.3203679845
21
-14.1348444168
31
0.0000000000
0
SPLINE
5
2D8
100
AcDbEntity
8
0
100
AcDbSpline
62
9
6
CONTINUOUS
70
0
71
3
72
8
73
4
74
2
42
0.0000001000
43
0.0000001000
44
0.0000000001
12
-0.0242751728
22
0.1906533941
32
0.0000000000
13
-0.0238179513
23
0.1907133488
33
0.0000000000
40
0.0000000000
40
0.0000000000
40
0.0000000000
40
0.0000000000
40
1.0000000000
40
1.0000000000
40
1.0000000000
40
1.0000000000
10
-8.6396113920
20
-13.7596028866
30
0.0000000000
10
-8.6477031163
20
-13.6960517552
30
0.0000000000
10
-8.6557185083
20
-13.6324905124
30
0.0000000000
10
-8.6636578254
20
-13.5689193961
30
0.0000000000
11
-8.6396113920
21
-13.7596028866
31
0.0000000000
11
-8.6636578254
21
-13.5689193961
31
0.0000000000
0
SPLINE
5
2D9
100
AcDbEntity
8
0
100
AcDbSpline
62
9
6
CONTINUOUS
70
0
71
3
72
10
73
6
74
4
42
0.0000001000
43
0.0000001000
44
0.0000000001
12
-1.1853497437
22
9.4912453471
32
0.0000000000
13
-0.1456904559
23
9.5637543921
33
0.0000000000
40
0.0000000000
40
0.0000000000
40
0.0000000000
40
0.0000000000
40
0.3131110670
40
0.6531988390
40
1.0000000000
40
1.0000000000
40
1.0000000000
40
1.0000000000
10
-8.6636578254
20
-13.5689193961
30
0.0000000000
10
-8.7873731997
20
-12.5783147435
30
0.0000000000
10
-9.0069266389
20
-10.5067564723
30
0.0000000000
10
-9.2264594054
20
-7.3253783172
30
0.0000000000
10
-9.2977674370
20
-5.1359836794
30
0.0000000000
10
-9.3146093101
20
-4.0304099704
30
0.0000000000
11
-8.6636578254
21
-13.5689193961
31
0.0000000000
11
-8.9803605975
21
-10.5908137159
31
0.0000000000
11
-9.2055004850
21
-7.3457209869
31
0.0000000000
11
-9.3146093101
21
-4.0304099704
31
0.0000000000
0
SPLINE
5
2DA
100
AcDbEntity
8
0
100
AcDbSpline
62
9
6
CONTINUOUS
70
0
71
3
72
8
73
4
74
2
42
0.0000001000
43
0.0000001000
44
0.0000000001
12
-0.0010747863
22
0.0461661318
32
0.0000000000
13
-0.0008176836
23
0.0461723947
33
0.0000000000
40
0.0000000000
40
0.0000000000
40
0.0000000000
40
0.0000000000
40
1.0000000000
40
1.0000000000
40
1.0000000000
40
1.0000000000
10
-6.4135745846
20
-7.8347387779
30
0.0000000000
10
-6.4139328467
20
-7.8193500673
30
0.0000000000
10
-6.4142484178
20
-7.8039602220
30
0.0000000000
10
-6.4145209790
20
-7.7885694238
30
0.0000000000
11
-6.4135745846
21
-7.8347387779
31
0.0000000000
11
-6.4145209790
21
-7.7885694238
31
0.0000000000
0
SPLINE
5
2DB
100
AcDbEntity
8
0
100
AcDbSpline
62
9
6
CONTINUOUS
70
0
71
3
72
8
73
4
74
2
42
0.0000001000
43
0.0000001000
44
0.0000000001
12
-0.0005955416
22
0.0336286336
32
0.0000000000
13
-0.0004582815
23
0.0336314561
33
0.0000000000
40
0.0000000000
40
0.0000000000
40
0.0000000000
40
0.0000000000
40
1.0000000000
40
1.0000000000
40
1.0000000000
40
1.0000000000
10
-6.4145209790
20
-7.7885694238
30
0.0000000000
10
-6.4147194928
20
-7.7773598793
30
0.0000000000
10
-6.4148951916
20
-7.7661498292
30
0.0000000000
10
-6.4150479521
20
-7.7549393438
30
0.0000000000
11
-6.4145209790
21
-7.7885694238
31
0.0000000000
11
-6.4150479521
21
-7.7549393438
31
0.0000000000
0
SPLINE
5
2DC
100
AcDbEntity
8
0
100
AcDbSpline
62
9
6
CONTINUOUS
70
0
71
3
72
9
73
5
74
3
42
0.0000001000
43
0.0000001000
44
0.0000000001
12
-0.0155597841
22
1.1418706290
32
0.0000000000
13
0.1590077127
23
1.1305729564
33
0.0000000000
40
0.0000000000
40
0.0000000000
40
0.0000000000
40
0.0000000000
40
0.2613827254
40
1.0000000000
40
1.0000000000
40
1.0000000000
40
1.0000000000
10
-6.4150479521
20
-7.7549393438
30
0.0000000000
10
-6.4164036384
20
-7.6554509248
30
0.0000000000
10
-6.4146786064
20
-7.2746962100
30
0.0000000000
10
-6.3852505970
20
-6.8941577158
30
0.0000000000
10
-6.3461019826
20
-6.6158041439
30
0.0000000000
11
-6.4150479521
21
-7.7549393438
31
0.0000000000
11
-6.4136091581
21
-7.4564202871
31
0.0000000000
11
-6.3461019826
21
-6.6158041439
31
0.0000000000
0
SPLINE
5
2DD
100
AcDbEntity
8
0
100
AcDbSpline
62
9
6
CONTINUOUS
70
0
71
3
72
8
73
4
74
2
42
0.0000001000
43
0.0000001000
44
0.0000000001
12
0.0285844311
22
0.2032403598
32
0.0000000000
13
0.0348725498
23
0.2021615965
33
0.0000000000
40
0.0000000000
40
0.0000000000
40
0.0000000000
40
0.0000000000
40
1.0000000000
40
1.0000000000
40
1.0000000000
40
1.0000000000
10
-6.3461019826
20
-6.6158041439
30
0.0000000000
10
-6.3365738389
20
-6.5480573573
30
0.0000000000
10
-6.3260142483
20
-6.4804716169
30
0.0000000000
10
-6.3143900650
20
-6.4130844181
30
0.0000000000
11
-6.3461019826
21
-6.6158041439
31
0.0000000000
11
-6.3143900650
21
-6.4130844181
31
0.0000000000
0
SPLINE
5
2DE
100
AcDbEntity
8
0
100
AcDbSpline
62
9
6
CONTINUOUS
70
0
71
3
72
8
73
4
74
2
42
0.0000001000
43
0.0000001000
44
0.0000000001
12
-0.0010385038
22
0.0156197832
32
0.0000000000
13
0.0012349925
23
0.0156692539
33
0.0000000000
40
0.0000000000
40
0.0000000000
40
0.0000000000
40
0.0000000000
40
1.0000000000
40
1.0000000000
40
1.0000000000
40
1.0000000000
10
-5.8009992639
20
-10.2446638642
30
0.0000000000
10
-5.8013454319
20
-10.2394572698
30
0.0000000000
10
-5.8012857544
20
-10.2342226368
30
0.0000000000
10
-5.8008740902
20
-10.2289995522
30
0.0000000000
11
-5.8009992639
21
-10.2446638642
31
0.0000000000
11
-5.8008740902
21
-10.2289995522
31
0.0000000000
0
SPLINE
5
2DF
100
AcDbEntity
8
0
100
AcDbSpline
62
9
6
CONTINUOUS
70
0
71
3
72
8
73
4
74
2
42
0.0000001000
43
0.0000001000
44
0.0000000001
12
-0.0607244705
22
0.0303298565
32
0.0000000000
13
-0.0560571903
23
0.0386072777
33
0.0000000000
40
0.0000000000
40
0.0000000000
40
0.0000000000
40
0.0000000000
40
1.0000000000
40
1.0000000000
40
1.0000000000
40
1.0000000000
10
-5.8009992639
20
-10.2446638642
30
0.0000000000
10
-5.8212407541
20
-10.2345539121
30
0.0000000000
10
-5.8407086364
20
-10.2228655400
30
0.0000000000
10
-5.8593943665
20
-10.2099964474
30
0.0000000000
11
-5.8009992639
21
-10.2446638642
31
0.0000000000
11
-5.8593943665
21
-10.2099964474
31
0.0000000000
0
SPLINE
5
2E0
100
AcDbEntity
8
0
100
AcDbSpline
62
9
6
CONTINUOUS
70
0
71
3
72
8
73
4
74
2
42
0.0000001000
43
0.0000001000
44
0.0000000001
12
-0.0384896388
22
0.0265082885
32
0.0000000000
13
-0.0362689220
23
0.0294619096
33
0.0000000000
40
0.0000000000
40
0.0000000000
40
0.0000000000
40
0.0000000000
40
1.0000000000
40
1.0000000000
40
1.0000000000
40
1.0000000000
10
-5.8593943665
20
-10.2099964474
30
0.0000000000
10
-5.8722242461
20
-10.2011603513
30
0.0000000000
10
-5.8846853891
20
-10.1917676180
30
0.0000000000
10
-5.8967750297
20
-10.1819469815
30
0.0000000000
11
-5.8593943665
21
-10.2099964474
31
0.0000000000
11
-5.8967750297
21
-10.1819469815
31
0.0000000000
0
SPLINE
5
2E1
100
AcDbEntity
8
0
100
AcDbSpline
62
9
6
CONTINUOUS
70
0
71
3
72
8
73
4
74
2
42
0.0000001000
43
0.0000001000
44
0.0000000001
12
-0.0191195121
22
0.0155311298
32
0.0000000000
13
-0.0185050959
23
0.0162226622
33
0.0000000000
40
0.0000000000
40
0.0000000000
40
0.0000000000
40
0.0000000000
40
1.0000000000
40
1.0000000000
40
1.0000000000
40
1.0000000000
10
-5.8967750297
20
-10.1819469815
30
0.0000000000
10
-5.9031482004
20
-10.1767699383
30
0.0000000000
10
-5.9094181316
20
-10.1714739818
30
0.0000000000
10
-5.9155864969
20
-10.1660664278
30
0.0000000000
11
-5.8967750297
21
-10.1819469815
31
0.0000000000
11
-5.9155864969
21
-10.1660664278
31
0.0000000000
0
SPLINE
5
2E2
100
AcDbEntity
8
0
100
AcDbSpline
62
9
6
CONTINUOUS
70
0
71
3
72
9
73
5
74
3
42
0.0000001000
43
0.0000001000
44
0.0000000001
12
-0.0046136115
22
0.0693916862
32
0.0000000000
13
0.0303297039
23
0.0628156060
33
0.0000000000
40
0.0000000000
40
0.0000000000
40
0.0000000000
40
0.0000000000
40
0.7209041062
40
1.0000000000
40
1.0000000000
40
1.0000000000
40
1.0000000000
10
2.1908914621
20
-14.2406092273
30
0.0000000000
10
2.1897828050
20
-14.2239343101
30
0.0000000000
10
2.1940192946
20
-14.2004048127
30
0.0000000000
10
2.2028612979
20
-14.1788241938
30
0.0000000000
10
2.2056829298
20
-14.1729803345
30
0.0000000000
11
2.1908914621
21
-14.2406092273
31
0.0000000000
11
2.1982845085
21
-14.1910221250
31
0.0000000000
11
2.2056829298
21
-14.1729803345
31
0.0000000000
0
SPLINE
5
2E3
100
AcDbEntity
8
0
100
AcDbSpline
62
9
6
CONTINUOUS
70
0
71
3
72
9
73
5
74
3
42
0.0000001000
43
0.0000001000
44
0.0000000001
12
-0.0510866025
22
0.0382630003
32
0.0000000000
13
0.0075814936
23
0.0647950232
33
0.0000000000
40
0.0000000000
40
0.0000000000
40
0.0000000000
40
0.0000000000
40
0.6434610156
40
1.0000000000
40
1.0000000000
40
1.0000000000
40
1.0000000000
10
2.5150216516
20
-14.0840612140
30
0.0000000000
10
2.5040642392
20
-14.0758542977
30
0.0000000000
10
2.4884231807
20
-14.0592137104
30
0.0000000000
10
2.4857743914
20
-14.0367574132
30
0.0000000000
10
2.4866754241
20
-14.0290567626
30
0.0000000000
11
2.5150216516
21
-14.0840612140
31
0.0000000000
11
2.4893147626
21
-14.0520312107
31
0.0000000000
11
2.4866754241
21
-14.0290567626
31
0.0000000000
0
SPLINE
5
2E4
100
AcDbEntity
8
0
100
AcDbSpline
62
9
6
CONTINUOUS
70
0
71
3
72
8
73
4
74
2
42
0.0000001000
43
0.0000001000
44
0.0000000001
12
-0.0013072284
22
-0.0096280368
32
0.0000000000
13
-0.0015643655
23
-0.0096096919
33
0.0000000000
40
0.0000000000
40
0.0000000000
40
0.0000000000
40
0.0000000000
40
1.0000000000
40
1.0000000000
40
1.0000000000
40
1.0000000000
10
2.5150203968
20
-14.0840619557
30
0.0000000000
10
2.5145846540
20
-14.0872713013
30
0.0000000000
10
2.5141071967
20
-14.0904789469
30
0.0000000000
10
2.5135857415
20
-14.0936821775
30
0.0000000000
11
2.5150203968
21
-14.0840619557
31
0.0000000000
11
2.5135857415
21
-14.0936821775
31
0.0000000000
0
SPLINE
5
2E5
100
AcDbEntity
8
0
100
AcDbSpline
62
9
6
CONTINUOUS
70
0
71
3
72
8
73
4
74
2
42
0.0000001000
43
0.0000001000
44
0.0000000001
12
-0.0135900145
22
-0.0834816737
32
0.0000000000
13
-0.0380036713
23
-0.0761427296
33
0.0000000000
40
0.0000000000
40
0.0000000000
40
0.0000000000
40
0.0000000000
40
1.0000000000
40
1.0000000000
40
1.0000000000
40
1.0000000000
10
2.5135857415
20
-14.0936821775
30
0.0000000000
10
2.5090557366
20
-14.1215094021
30
0.0000000000
10
2.5012052955
20
-14.1490034378
30
0.0000000000
10
2.4885374051
20
-14.1743843477
30
0.0000000000
11
2.5135857415
21
-14.0936821775
31
0.0000000000
11
2.4885374051
21
-14.1743843477
31
0.0000000000
0
SPLINE
5
2E6
100
AcDbEntity
8
0
100
AcDbSpline
62
9
6
CONTINUOUS
70
0
71
3
72
11
73
7
74
5
42
0.0000001000
43
0.0000001000
44
0.0000000001
12
-0.1538817131
22
-0.3083116253
32
0.0000000000
13
-0.3056552212
23
0.1529341757
33
0.0000000000
40
0.0000000000
40
0.0000000000
40
0.0000000000
40
0.0000000000
40
0.2377971658
40
0.4642622581
40
0.7128043300
40
1.0000000000
40
1.0000000000
40
1.0000000000
40
1.0000000000
10
2.4885374051
20
-14.1743843477
30
0.0000000000
10
2.4763398600
20
-14.1988228912
30
0.0000000000
10
2.4438061638
20
-14.2427104903
30
0.0000000000
10
2.3673481726
20
-14.2786918223
30
0.0000000000
10
2.2782248427
20
-14.2767051232
30
0.0000000000
10
2.2201524141
20
-14.2552499050
30
0.0000000000
10
2.1908914621
20
-14.2406092273
30
0.0000000000
11
2.4885374051
21
-14.1743843477
31
0.0000000000
11
2.4384825871
21
-14.2384160008
31
0.0000000000
11
2.3686727038
21
-14.2718458221
31
0.0000000000
11
2.2837282788
21
-14.2724886921
31
0.0000000000
11
2.1908914621
21
-14.2406092273
31
0.0000000000
0
SPLINE
5
2E7
100
AcDbEntity
8
0
100
AcDbSpline
62
9
6
CONTINUOUS
70
0
71
3
72
9
73
5
74
3
42
0.0000001000
43
0.0000001000
44
0.0000000001
12
-0.0337571278
22
0.0079373794
32
0.0000000000
13
-0.0036516531
23
0.0354674840
33
0.0000000000
40
0.0000000000
40
0.0000000000
40
0.0000000000
40
0.0000000000
40
0.8047526496
40
1.0000000000
40
1.0000000000
40
1.0000000000
40
1.0000000000
10
2.3702931304
20
-10.7554257530
30
0.0000000000
10
2.3612377511
20
-10.7532965440
30
0.0000000000
10
2.3470624293
20
-10.7495755311
30
0.0000000000
10
2.3439562419
20
-10.7383394892
30
0.0000000000
10
2.3437185834
20
-10.7360311784
30
0.0000000000
11
2.3702931304
21
-10.7554257530
31
0.0000000000
11
2.3455911640
21
-10.7424406197
31
0.0000000000
11
2.3437185834
21
-10.7360311784
31
0.0000000000
0
SPLINE
5
2E8
100
AcDbEntity
8
0
100
AcDbSpline
62
9
6
CONTINUOUS
70
0
71
3
72
10
73
6
74
4
42
0.0000001000
43
0.0000001000
44
0.0000000001
12
0.6148356420
22
-3.2349578098
32
0.0000000000
13
-0.4213954534
23
-3.2660133055
33
0.0000000000
40
0.0000000000
40
0.0000000000
40
0.0000000000
40
0.0000000000
40
0.3612682711
40
0.7016363346
40
1.0000000000
40
1.0000000000
40
1.0000000000
40
1.0000000000
10
2.3702928772
20
-10.7554258891
30
0.0000000000
10
2.4443330803
20
-11.1449884275
30
0.0000000000
10
2.5557273933
20
-11.9083587904
30
0.0000000000
10
2.6076885390
20
-13.0064903064
30
0.0000000000
10
2.5636913388
20
-13.7082313332
30
0.0000000000
10
2.5217816415
20
-14.0330512335
30
0.0000000000
11
2.3702928772
21
-10.7554258891
31
0.0000000000
11
2.5391787445
21
-11.9329851746
31
0.0000000000
11
2.5879531016
21
-13.0527102495
31
0.0000000000
11
2.5217816415
21
-14.0330512335
31
0.0000000000
0
SPLINE
5
2E9
100
AcDbEntity
8
0
100
AcDbSpline
62
9
6
CONTINUOUS
70
0
71
3
72
8
73
4
74
2
42
0.0000001000
43
0.0000001000
44
0.0000000001
12
-0.0065848454
22
-0.0510356542
32
0.0000000000
13
-0.0069382927
23
-0.0509853522
33
0.0000000000
40
0.0000000000
40
0.0000000000
40
0.0000000000
40
0.0000000000
40
1.0000000000
40
1.0000000000
40
1.0000000000
40
1.0000000000
10
2.5217816415
20
-14.0330512335
30
0.0000000000
10
2.5195866930
20
-14.0500631182
30
0.0000000000
10
2.5173331610
20
-14.0670668383
30
0.0000000000
10
2.5150203968
20
-14.0840619557
30
0.0000000000
11
2.5217816415
21
-14.0330512335
31
0.0000000000
11
2.5150203968
21
-14.0840619557
31
0.0000000000
0
SPLINE
5
2EA
100
AcDbEntity
8
0
100
AcDbSpline
62
9
6
CONTINUOUS
70
0
71
3
72
9
73
5
74
3
42
0.0000001000
43
0.0000001000
44
0.0000000001
12
0.0012913621
22
-0.0597146093
32
0.0000000000
13
0.0539617376
23
-0.0284577215
33
0.0000000000
40
0.0000000000
40
0.0000000000
40
0.0000000000
40
0.0000000000
40
0.6437551084
40
1.0000000000
40
1.0000000000
40
1.0000000000
40
1.0000000000
10
2.0172384380
20
-10.2466701498
30
0.0000000000
10
2.0175155449
20
-10.2594840114
30
0.0000000000
10
2.0211146871
20
-10.2805278613
30
0.0000000000
10
2.0369226631
20
-10.2948811676
30
0.0000000000
10
2.0433305275
20
-10.2982604736
30
0.0000000000
11
2.0172384380
21
-10.2466701498
31
0.0000000000
11
2.0272090699
21
-10.2838054838
31
0.0000000000
11
2.0433305275
21
-10.2982604736
31
0.0000000000
0
SPLINE
5
2EB
100
AcDbEntity
8
0
100
AcDbSpline
62
9
6
CONTINUOUS
70
0
71
3
72
8
73
4
74
2
42
0.0000001000
43
0.0000001000
44
0.0000000001
12
0.0672191696
22
-0.0335819403
32
0.0000000000
13
0.0611634006
23
-0.0440734697
33
0.0000000000
40
0.0000000000
40
0.0000000000
40
0.0000000000
40
0.0000000000
40
1.0000000000
40
1.0000000000
40
1.0000000000
40
1.0000000000
10
2.0172384380
20
-10.2466701498
30
0.0000000000
10
2.0396448278
20
-10.2578641299
30
0.0000000000
10
2.0610586825
20
-10.2710895447
30
0.0000000000
10
2.0814464827
20
-10.2857807013
30
0.0000000000
11
2.0172384380
21
-10.2466701498
31
0.0000000000
11
2.0814464827
21
-10.2857807013
31
0.0000000000
0
SPLINE
5
2EC
100
AcDbEntity
8
0
100
AcDbSpline
62
9
6
CONTINUOUS
70
0
71
3
72
9
73
5
74
3
42
0.0000001000
43
0.0000001000
44
0.0000000001
12
0.0650086222
22
-0.0468442812
32
0.0000000000
13
0.0580148845
23
-0.0550547268
33
0.0000000000
40
0.0000000000
40
0.0000000000
40
0.0000000000
40
0.0000000000
40
0.4893071658
40
1.0000000000
40
1.0000000000
40
1.0000000000
40
1.0000000000
10
2.0814464827
20
-10.2857807013
30
0.0000000000
10
2.0920495443
20
-10.2934211154
30
0.0000000000
10
2.1131519184
20
-10.3098460860
30
0.0000000000
10
2.1330754776
20
-10.3275945344
30
0.0000000000
10
2.1429514062
20
-10.3369665526
30
0.0000000000
11
2.0814464827
21
-10.2857807013
31
0.0000000000
11
2.1124183964
21
-10.3098116961
31
0.0000000000
11
2.1429514062
21
-10.3369665526
31
0.0000000000
0
SPLINE
5
2ED
100
AcDbEntity
8
0
100
AcDbSpline
62
9
6
CONTINUOUS
70
0
71
3
72
10
73
6
74
4
42
0.0000001000
43
0.0000001000
44
0.0000000001
12
0.2569521161
22
-0.2438413641
32
0.0000000000
13
0.1252967402
23
-0.3314124100
33
0.0000000000
40
0.0000000000
40
0.0000000000
40
0.0000000000
40
0.0000000000
40
0.2411128486
40
0.6177529229
40
1.0000000000
40
1.0000000000
40
1.0000000000
40
1.0000000000
10
2.1429514062
20
-10.3369665526
30
0.0000000000
10
2.1636028917
20
-10.3565643145
30
0.0000000000
10
2.2131653443
20
-10.4102262742
30
0.0000000000
10
2.2803388153
20
-10.5077938024
30
0.0000000000
10
2.3189562832
20
-10.5888967652
30
0.0000000000
10
2.3349210541
20
-10.6311239069
30
0.0000000000
11
2.1429514062
21
-10.3369665526
31
0.0000000000
11
2.2010632226
21
-10.3994605771
31
0.0000000000
11
2.2769177600
21
-10.5089858101
31
0.0000000000
11
2.3349210541
21
-10.6311239069
31
0.0000000000
0
SPLINE
5
2EE
100
AcDbEntity
8
0
100
AcDbSpline
62
9
6
CONTINUOUS
70
0
71
3
72
8
73
4
74
2
42
0.0000001000
43
0.0000001000
44
0.0000000001
12
0.0369864254
22
-0.0978298428
32
0.0000000000
13
0.0231651204
23
-0.1018783144
33
0.0000000000
40
0.0000000000
40
0.0000000000
40
0.0000000000
40
0.0000000000
40
1.0000000000
40
1.0000000000
40
1.0000000000
40
1.0000000000
10
2.3349210541
20
-10.6311239069
30
0.0000000000
10
2.3472498626
20
-10.6637338545
30
0.0000000000
10
2.3574993477
20
-10.6971644375
30
0.0000000000
10
2.3652210545
20
-10.7311238756
30
0.0000000000
11
2.3349210541
21
-10.6311239069
31
0.0000000000
11
2.3652210545
21
-10.7311238756
31
0.0000000000
0
SPLINE
5
2EF
100
AcDbEntity
8
0
100
AcDbSpline
62
9
6
CONTINUOUS
70
0
71
3
72
8
73
4
74
2
42
0.0000001000
43
0.0000001000
44
0.0000000001
12
0.0055063071
22
-0.0242162905
32
0.0000000000
13
0.0046313155
23
-0.0243838179
33
0.0000000000
40
0.0000000000
40
0.0000000000
40
0.0000000000
40
0.0000000000
40
1.0000000000
40
1.0000000000
40
1.0000000000
40
1.0000000000
10
2.3652210545
20
-10.7311238756
30
0.0000000000
10
2.3670564902
20
-10.7391959725
30
0.0000000000
10
2.3687491053
20
-10.7472979498
30
0.0000000000
10
2.3702928772
20
-10.7554258891
30
0.0000000000
11
2.3652210545
21
-10.7311238756
31
0.0000000000
11
2.3702928772
21
-10.7554258891
31
0.0000000000
0
SPLINE
5
2F0
100
AcDbEntity
8
0
100
AcDbSpline
62
9
6
CONTINUOUS
70
0
71
3
72
9
73
5
74
3
42
0.0000001000
43
0.0000001000
44
0.0000000001
12
0.0660007587
22
-0.0502512329
32
0.0000000000
13
0.0831473592
23
-0.0044825559
33
0.0000000000
40
0.0000000000
40
0.0000000000
40
0.0000000000
40
0.0000000000
40
0.5861571303
40
1.0000000000
40
1.0000000000
40
1.0000000000
40
1.0000000000
10
-6.3143888406
20
-6.4130837599
30
0.0000000000
10
-6.3014932355
20
-6.4229021327
30
0.0000000000
10
-6.2756568959
20
-6.4347360782
30
0.0000000000
10
-6.2481998915
20
-6.4394269505
30
0.0000000000
10
-6.2367299109
20
-6.4400453085
30
0.0000000000
11
-6.3143888406
21
-6.4130837599
31
0.0000000000
11
-6.2706480979
21
-6.4343210174
31
0.0000000000
11
-6.2367299109
21
-6.4400453085
31
0.0000000000
0
SPLINE
5
2F1
100
AcDbEntity
8
0
100
AcDbSpline
62
9
6
CONTINUOUS
70
0
71
3
72
9
73
5
74
3
42
0.0000001000
43
0.0000001000
44
0.0000000001
12
0.0252452208
22
0.0656850375
32
0.0000000000
13
0.0479071615
23
0.0516275639
33
0.0000000000
40
0.0000000000
40
0.0000000000
40
0.0000000000
40
0.0000000000
40
0.3485758620
40
1.0000000000
40
1.0000000000
40
1.0000000000
40
1.0000000000
10
-6.1617229404
20
-6.3775405590
30
0.0000000000
10
-6.1587896489
20
-6.3699084861
30
0.0000000000
10
-6.1491637025
20
-6.3484702460
30
0.0000000000
10
-6.1356903276
20
-6.3288569826
30
0.0000000000
10
-6.1252877005
20
-6.3176465022
30
0.0000000000
11
-6.1617229404
21
-6.3775405590
31
0.0000000000
11
-6.1516114215
21
-6.3551845241
31
0.0000000000
11
-6.1252877005
21
-6.3176465022
31
0.0000000000
0
SPLINE
5
2F2
100
AcDbEntity
8
0
100
AcDbSpline
62
9
6
CONTINUOUS
70
0
71
3
72
9
73
5
74
3
42
0.0000001000
43
0.0000001000
44
0.0000000001
12
0.0367725340
22
0.0396282370
32
0.0000000000
13
0.0488700168
23
0.0235611348
33
0.0000000000
40
0.0000000000
40
0.0000000000
40
0.0000000000
40
0.0000000000
40
0.4051280201
40
1.0000000000
40
1.0000000000
40
1.0000000000
40
1.0000000000
10
-6.1252877005
20
-6.3176465022
30
0.0000000000
10
-6.1203218392
20
-6.3122949991
30
0.0000000000
10
-6.1071498707
20
-6.2999664790
30
0.0000000000
10
-6.0917252857
20
-6.2903369963
30
0.0000000000
10
-6.0820348178
20
-6.2856650434
30
0.0000000000
11
-6.1252877005
21
-6.3176465022
31
0.0000000000
11
-6.1092794531
21
-6.3027487308
31
0.0000000000
11
-6.0820348178
21
-6.2856650434
31
0.0000000000
0
SPLINE
5
2F3
100
AcDbEntity
8
0
100
AcDbSpline
62
9
6
CONTINUOUS
70
0
71
3
72
12
73
8
74
6
42
0.0000001000
43
0.0000001000
44
0.0000000001
12
0.0701694348
22
0.4078092742
32
0.0000000000
13
0.3867089296
23
-0.1513608899
33
0.0000000000
40
0.0000000000
40
0.0000000000
40
0.0000000000
40
0.0000000000
40
0.2351229590
40
0.4406155270
40
0.6356669717
40
0.8456693335
40
1.0000000000
40
1.0000000000
40
1.0000000000
40
1.0000000000
10
-6.3143900650
20
-6.4130844181
30
0.0000000000
10
-6.3088905833
20
-6.3811226436
30
0.0000000000
10
-6.2909410760
20
-6.3218686901
30
0.0000000000
10
-6.2356128936
20
-6.2505643460
30
0.0000000000
10
-6.1568150026
20
-6.2128761130
30
0.0000000000
10
-6.0775987798
20
-6.2132982754
30
0.0000000000
10
-6.0289183793
20
-6.2274687703
30
0.0000000000
10
-6.0090246970
20
-6.2352553126
30
0.0000000000
11
-6.3143900650
21
-6.4130844181
31
0.0000000000
11
-6.2839246007
21
-6.3206828521
31
0.0000000000
11
-6.2302739818
21
-6.2547111557
31
0.0000000000
11
-6.1575656354
21
-6.2196678257
31
0.0000000000
11
-6.0706830670
21
-6.2179569363
31
0.0000000000
11
-6.0090246970
21
-6.2352553126
31
0.0000000000
0
SPLINE
5
2F4
100
AcDbEntity
8
0
100
AcDbSpline
62
9
6
CONTINUOUS
70
0
71
3
72
8
73
4
74
2
42
0.0000001000
43
0.0000001000
44
0.0000000001
12
0.0326075901
22
-0.0127628650
32
0.0000000000
13
0.0312050724
23
-0.0156109706
33
0.0000000000
40
0.0000000000
40
0.0000000000
40
0.0000000000
40
0.0000000000
40
1.0000000000
40
1.0000000000
40
1.0000000000
40
1.0000000000
10
-6.0090246970
20
-6.2352553126
30
0.0000000000
10
-5.9981555003
20
-6.2395096009
30
0.0000000000
10
-5.9875033912
20
-6.2442964237
30
0.0000000000
10
-5.9771017004
20
-6.2495000806
30
0.0000000000
11
-6.0090246970
21
-6.2352553126
31
0.0000000000
11
-5.9771017004
21
-6.2495000806
31
0.0000000000
0
ENDSEC
0
SECTION
2
OBJECTS
0
DICTIONARY
5
2F5
100
AcDbDictionary
3
ACAD_GROUP
350
2F6
3
ACAD_MLINESTYLE
350
2F7
0
DICTIONARY
5
2F6
102
{ACAD_REACTORS
330
2F5
102
}
100
AcDbDictionary
0
DICTIONARY
5
2F7
102
{ACAD_REACTORS
330
2F5
102
}
100
AcDbDictionary
3
STANDARD
350
2F8
0
MLINESTYLE
5
2F8
102
{ACAD_REACTORS
330
2F7
102
}
100
AcDbMlineStyle
2
STANDARD
70
0
3

62
256
51
90.0
52
90.0
71
2
49
0.5
62
256
6
BYLAYER
49
-0.5
62
256
6
BYLAYER
0
ENDSEC
0
EOF
