0
SECTION
2
HEADER
9
$ACADVER
1
AC1014
9
$HANDSEED
5
       2DA
9
$EXTMAX
10
297.0000000000
20
210.0000000000
9
$EXTMIN
10
0.0000000000
20
0.0000000000
9
$LIMMIN
10
0.0000000000
20
0.0000000000
9
$LIMMAX
10
297.0000000000
20
210.0000000000
9
$VIEWCTR
10
148.5000000000
20
105.0000000000
9
$VIEWSIZE
40
210.0000000000
9
$CLAYER
8
0
9
$LTSCALE
40
16.3350000000
9
$CELTYPE
6
BYLAYER
9
$DIMSCALE
40
1
9
$DIMASZ
40
3.0000000000
9
$DIMEXO
40
1.8562500000
9
$DIMDLI
40
11.2860000000
9
$DIMEXE
40
5.3460000000
9
$DIMCEN
40
2.6730000000
9
$DIMLFAC
40
1.0000000000
9
$DIMTXT
40
3.0000000000
9
$DIMTOL
70
1
9
$DIMLIM
70
0
9
$DIMTFAC
40
1.0000000000
9
$DIMTP
40
0.0100000000
9
$DIMTM
40
0.0100000000
9
$MEASUREMENT
70
1
0
ENDSEC
0
SECTION
2
CLASSES
0
ENDSEC
0
SECTION
2
TABLES
0
TABLE
2
VPORT
5
8
100
AcDbSymbolTable
70
2
0
VPORT
5
1F4
100
AcDbSymbolTableRecord
100
AcDbViewportTableRecord
2
*ACTIVE
70
0
10
0.0
20
0.0
11
1.0
21
1.0
12
148.5000000000
22
105.0000000000
13
0.0
23
0.0
14
1.0
24
1.0
15
0.0
25
0.0
16
0.0
26
0.0
36
1.0
17
0.0
27
0.0
37
0.0
40
210.0000000000
41
1.4142857143
42
50.0
43
0.0
44
0.0
50
0.0
51
0.0
71
0
72
100
73
1
74
1
75
0
76
0
77
0
78
0
0
ENDTAB
0
TABLE
2
LTYPE
5
5
100
AcDbSymbolTable
70
6
0
LTYPE
5
14
100
AcDbSymbolTableRecord
100
AcDbLinetypeTableRecord
2
BYBLOCK
70
0
3

72
65
73
0
40
0.0
0
LTYPE
5
15
100
AcDbSymbolTableRecord
100
AcDbLinetypeTableRecord
2
BYLAYER
70
0
3

72
65
73
0
40
0.0
0
LTYPE
5
16
100
AcDbSymbolTableRecord
100
AcDbLinetypeTableRecord
2
CONTINUOUS
70
64
3
Solid line
72
65
73
0
40
0
0
LTYPE
5
1F5
100
AcDbSymbolTableRecord
100
AcDbLinetypeTableRecord
2
CENTER
70
64
3
____ _ ____ _ ____ _ ____ _ ____ _ ____ _ ____
72
65
73
4
40
0.6
49
0.375
74
0
49
-0.075
74
0
49
0.075
74
0
49
-0.075
74
0
0
LTYPE
5
1F6
100
AcDbSymbolTableRecord
100
AcDbLinetypeTableRecord
2
HIDDEN
70
64
3
- - - - - - - - - - - - - - - - - - - -
72
65
73
2
40
0.2
49
0.1
74
0
49
-0.1
74
0
0
LTYPE
5
1F7
100
AcDbSymbolTableRecord
100
AcDbLinetypeTableRecord
2
PHANTOM
70
64
3
_____ _ _ _____ _ _ _____ _ _ _____
72
65
73
6
40
0.8
49
0.45
74
0
49
-0.05
74
0
49
0.1
74
0
49
-0.05
74
0
49
0.1
74
0
49
-0.05
74
0
0
LTYPE
5
1F8
100
AcDbSymbolTableRecord
100
AcDbLinetypeTableRecord
2
DOT
70
64
3
. . . . . . . . . . . . . . . . . . . .
72
65
73
2
40
0.2
49
0.1
74
0
49
-0.1
74
0
0
LTYPE
5
1F9
100
AcDbSymbolTableRecord
100
AcDbLinetypeTableRecord
2
DASHED
70
64
3
- - - - - - - - - - - - - - - - - - - -
72
65
73
2
40
0.2
49
0.1
74
0
49
-0.1
74
0
0
ENDTAB
0
TABLE
2
LAYER
5
2
100
AcDbSymbolTable
70
36
0
LAYER
5
10
100
AcDbSymbolTableRecord
100
AcDbLayerTableRecord
2
0
70
0
62
7
6
CONTINUOUS
0
LAYER
5
1FA
100
AcDbSymbolTableRecord
100
AcDbLayerTableRecord
2
DEFAULT_1
70
0
62
7
6
CENTER
0
LAYER
5
1FB
100
AcDbSymbolTableRecord
100
AcDbLayerTableRecord
2
DEFAULT_2
70
0
62
8
6
HIDDEN
0
LAYER
5
1FC
100
AcDbSymbolTableRecord
100
AcDbLayerTableRecord
2
DEFAULT_3
70
0
62
7
6
PHANTOM
0
LAYER
5
1FD
100
AcDbSymbolTableRecord
100
AcDbLayerTableRecord
2
ASSI
70
0
62
7
6
CONTINUOUS
0
LAYER
5
1FE
100
AcDbSymbolTableRecord
100
AcDbLayerTableRecord
2
COORDINATE
70
0
62
7
6
CONTINUOUS
0
LAYER
5
1FF
100
AcDbSymbolTableRecord
100
AcDbLayerTableRecord
2
COORD_ORIGINE
70
0
62
7
6
CONTINUOUS
0
LAYER
5
200
100
AcDbSymbolTableRecord
100
AcDbLayerTableRecord
2
COPY_GEOMETRY
70
0
62
7
6
CONTINUOUS
0
LAYER
5
201
100
AcDbSymbolTableRecord
100
AcDbLayerTableRecord
2
CURVE
70
0
62
7
6
CONTINUOUS
0
LAYER
5
202
100
AcDbSymbolTableRecord
100
AcDbLayerTableRecord
2
DRAFT
70
0
62
7
6
CONTINUOUS
0
LAYER
5
203
100
AcDbSymbolTableRecord
100
AcDbLayerTableRecord
2
NOTE
70
0
62
7
6
CONTINUOUS
0
LAYER
5
204
100
AcDbSymbolTableRecord
100
AcDbLayerTableRecord
2
PIANI
70
0
62
7
6
CONTINUOUS
0
LAYER
5
205
100
AcDbSymbolTableRecord
100
AcDbLayerTableRecord
2
PIANI_ORIGINE
70
0
62
7
6
CONTINUOUS
0
LAYER
5
206
100
AcDbSymbolTableRecord
100
AcDbLayerTableRecord
2
PIANI_RIFERIMENTO
70
0
62
7
6
CONTINUOUS
0
LAYER
5
207
100
AcDbSymbolTableRecord
100
AcDbLayerTableRecord
2
PUNTI
70
0
62
7
6
CONTINUOUS
0
LAYER
5
208
100
AcDbSymbolTableRecord
100
AcDbLayerTableRecord
2
RACCORDO
70
0
62
7
6
CONTINUOUS
0
LAYER
5
209
100
AcDbSymbolTableRecord
100
AcDbLayerTableRecord
2
SMUSSO
70
0
62
7
6
CONTINUOUS
0
LAYER
5
20A
100
AcDbSymbolTableRecord
100
AcDbLayerTableRecord
2
SUPERFICI
70
0
62
7
6
CONTINUOUS
0
LAYER
5
20B
100
AcDbSymbolTableRecord
100
AcDbLayerTableRecord
2
TRASH
70
0
62
7
6
CONTINUOUS
0
LAYER
5
20C
100
AcDbSymbolTableRecord
100
AcDbLayerTableRecord
2
XSEC_DATUMS
70
0
62
7
6
CONTINUOUS
0
ENDTAB
0
TABLE
2
STYLE
5
3
100
AcDbSymbolTable
70
1
0
STYLE
5
11
100
AcDbSymbolTableRecord
100
AcDbTextStyleTableRecord
2
STANDARD
70
0
40
0.0
41
0.8000000000
50
0.0
71
0
42
0.2
3
txt
4

0
ENDTAB
0
TABLE
2
VIEW
5
6
100
AcDbSymbolTable
70
0
0
ENDTAB
0
TABLE
2
UCS
5
7
100
AcDbSymbolTable
70
0
0
ENDTAB
0
TABLE
2
APPID
5
9
100
AcDbSymbolTable
70
1
0
APPID
5
20D
100
AcDbSymbolTableRecord
100
AcDbRegAppTableRecord
2
ACAD
70
0
0
ENDTAB
0
TABLE
2
DIMSTYLE
5
A
100
AcDbSymbolTable
70
1
0
DIMSTYLE
105
20E
100
AcDbSymbolTableRecord
100
AcDbDimStyleTableRecord
2
STANDARD
70
0
3

4

5

6

7

40
1.0
41
3.0000000000
42
0.0625
43
0.38
44
0.18
45
0.0
46
0.0
47
0.0100000000
48
0.0100000000
140
3.0000000000
141
0.09
142
0.0
143
25.4
144
1.0000000000
145
0.0
146
1.0000000000
147
0.09
71
1
72
0
73
0
74
0
75
0
76
0
77
1
78
8
170
0
171
2
172
0
173
0
174
0
175
0
176
0
177
0
178
0
270
2
271
2
272
2
273
2
274
2
340
11
275
0
280
0
281
0
282
0
283
1
284
8
285
0
286
0
287
3
288
0
0
ENDTAB
0
TABLE
2
BLOCK_RECORD
5
1
100
AcDbSymbolTable
70
0
0
BLOCK_RECORD
5
1B
100
AcDbSymbolTableRecord
100
AcDbBlockTableRecord
2
*MODEL_SPACE
0
BLOCK_RECORD
5
1C
100
AcDbSymbolTableRecord
100
AcDbBlockTableRecord
2
*PAPER_SPACE
0
ENDTAB
0
ENDSEC
0
SECTION
2
BLOCKS
0
BLOCK
5
1E
100
AcDbEntity
8
0
100
AcDbBlockBegin
2
*MODEL_SPACE
70
0
10
0.0
20
0.0
30
0.0
3
*MODEL_SPACE
1

0
ENDBLK
5
1F
100
AcDbEntity
8
0
100
AcDbBlockEnd
0
BLOCK
5
20
100
AcDbEntity
8
0
100
AcDbBlockBegin
2
*PAPER_SPACE
70
0
10
0.0
20
0.0
30
0.0
3
*PAPER_SPACE
1

0
ENDBLK
5
21
100
AcDbEntity
8
0
100
AcDbBlockEnd
0
ENDSEC
0
SECTION
2
ENTITIES
0
LINE
5
20F
100
AcDbEntity
8
0
100
AcDbLine
62
7
6
CONTINUOUS
10
-6.4233602234
20
25.3096116705
11
-3.6881681644
21
26.8408365413
0
LINE
5
210
100
AcDbEntity
8
0
100
AcDbLine
62
9
6
CONTINUOUS
10
-6.1883721022
20
25.3015626885
11
-3.4568190539
21
26.8307503555
0
LINE
5
211
100
AcDbEntity
8
0
100
AcDbLine
62
9
6
CONTINUOUS
10
11.3926656589
20
19.4060079991
11
8.5142093454
21
17.9502719647
0
LINE
5
212
100
AcDbEntity
8
0
100
AcDbLine
62
7
6
CONTINUOUS
10
-6.6114623043
20
-12.8190914898
11
8.0799138903
21
-20.1647795871
0
LINE
5
213
100
AcDbEntity
8
0
100
AcDbLine
62
9
6
CONTINUOUS
10
-6.8602275617
20
-12.4044606470
11
7.8245273291
21
-19.7468380924
0
LINE
5
214
100
AcDbEntity
8
0
100
AcDbLine
62
7
6
CONTINUOUS
10
8.0793446383
20
-20.1644944170
11
8.0798915333
21
-20.1647684085
0
LINE
5
215
100
AcDbEntity
8
0
100
AcDbLine
62
7
6
CONTINUOUS
10
-7.0074527287
20
24.3858392511
11
-7.0074720864
21
24.3856649044
0
LINE
5
216
100
AcDbEntity
8
0
100
AcDbLine
62
9
6
CONTINUOUS
10
11.7460978955
20
18.7964275615
11
8.8676415821
21
17.3406915271
0
LINE
5
217
100
AcDbEntity
8
0
100
AcDbLine
62
9
6
CONTINUOUS
10
4.1511742847
20
-14.0236695199
11
-4.0440305007
21
-9.9260671272
0
LINE
5
218
100
AcDbEntity
8
0
100
AcDbLine
62
9
6
CONTINUOUS
10
4.2209612868
20
-13.8941205844
11
-3.9742434986
21
-9.7965181917
0
LINE
5
219
100
AcDbEntity
8
0
100
AcDbLine
62
7
6
CONTINUOUS
10
4.1567841955
20
-13.8117573539
11
-4.0384205875
21
-9.7141549625
0
LINE
5
21A
100
AcDbEntity
8
0
100
AcDbLine
62
9
6
CONTINUOUS
10
4.1310791671
20
-13.7652857648
11
-4.0641256183
21
-9.6676833721
0
LINE
5
21B
100
AcDbEntity
8
0
100
AcDbLine
62
7
6
CONTINUOUS
10
-7.0065849212
20
-12.2285323041
11
-7.0065449554
21
-12.2288439654
0
LINE
5
21C
100
AcDbEntity
8
0
100
AcDbLine
62
9
6
CONTINUOUS
10
7.1134350054
20
-9.9995979734
11
4.5282562968
21
-8.7070086191
0
LINE
5
21D
100
AcDbEntity
8
0
100
AcDbLine
62
9
6
CONTINUOUS
10
4.2859909902
20
-8.5858759658
11
-4.7077814645
21
-4.0889897385
0
LINE
5
21E
100
AcDbEntity
8
0
100
AcDbLine
62
9
6
CONTINUOUS
10
-4.9500467711
20
-3.9678570852
11
-7.5352254797
21
-2.6752677308
0
LINE
5
21F
100
AcDbEntity
8
0
100
AcDbLine
62
9
6
CONTINUOUS
10
-4.3129641591
20
-3.9977811082
11
3.8822406263
21
-8.0953835010
0
LINE
5
220
100
AcDbEntity
8
0
100
AcDbLine
62
9
6
CONTINUOUS
10
-4.2428824113
20
-3.8745541600
11
3.9523223741
21
-7.9721565528
0
LINE
5
221
100
AcDbEntity
8
0
100
AcDbLine
62
7
6
CONTINUOUS
10
-4.2910115502
20
-3.7785959524
11
3.9041932353
21
-7.8761983451
0
LINE
5
222
100
AcDbEntity
8
0
100
AcDbLine
62
9
6
CONTINUOUS
10
-4.3169898026
20
-3.7260351192
11
3.8782149829
21
-7.8236375119
0
LINE
5
223
100
AcDbEntity
8
0
100
AcDbLine
62
7
6
CONTINUOUS
10
-4.7248656620
20
-4.0040966154
11
-4.7249213281
21
-4.0041986689
0
LINE
5
224
100
AcDbEntity
8
0
100
AcDbLine
62
7
6
CONTINUOUS
10
-4.3669269292
20
-3.7471351334
11
-4.5747491916
21
-3.8539298586
0
LINE
5
225
100
AcDbEntity
8
0
100
AcDbLine
62
9
6
CONTINUOUS
10
-4.1717490596
20
-3.8382271976
11
-4.2428824113
21
-3.8745541600
0
LINE
5
226
100
AcDbEntity
8
0
100
AcDbLine
62
9
6
CONTINUOUS
10
-4.6805230636
20
-3.9396294269
11
-4.8168931501
21
-4.0062619837
0
LINE
5
227
100
AcDbEntity
8
0
100
AcDbLine
62
7
6
CONTINUOUS
10
-4.6244661830
20
-3.7490966874
11
-4.6241592073
21
-3.7489469605
0
LINE
5
228
100
AcDbEntity
8
0
100
AcDbLine
62
9
6
CONTINUOUS
10
-3.9245004765
20
-9.7711150179
11
-3.9742434986
21
-9.7965181917
0
LINE
5
229
100
AcDbEntity
8
0
100
AcDbLine
62
9
6
CONTINUOUS
10
-4.5690832112
20
-8.9953955352
11
-4.5938274584
21
-9.0076399100
0
LINE
5
22A
100
AcDbEntity
8
0
100
AcDbLine
62
7
6
CONTINUOUS
10
4.7256409324
20
-13.7201164557
11
4.7256769200
21
-13.7199485141
0
LINE
5
22B
100
AcDbEntity
8
0
100
AcDbLine
62
9
6
CONTINUOUS
10
4.0117044835
20
-7.9418308110
11
3.9523223741
21
-7.9721565528
0
LINE
5
22C
100
AcDbEntity
8
0
100
AcDbLine
62
9
6
CONTINUOUS
10
4.4910011198
20
-8.6563384694
11
4.4588095542
21
-8.6722680547
0
LINE
5
22D
100
AcDbEntity
8
0
100
AcDbLine
62
9
6
CONTINUOUS
10
7.1134350054
20
6.4548846985
11
-7.5352254797
21
13.7792149411
0
LINE
5
22E
100
AcDbEntity
8
0
100
AcDbLine
62
7
6
CONTINUOUS
10
11.7460978955
20
18.7964275615
11
11.7460978955
21
-18.6161666473
0
LINE
5
22F
100
AcDbEntity
8
0
100
AcDbLine
62
9
6
CONTINUOUS
10
4.2895698911
20
-13.8590829807
11
4.2209612868
21
-13.8941205844
0
LINE
5
230
100
AcDbEntity
8
0
100
AcDbLine
62
7
6
CONTINUOUS
10
4.5916075600
20
-13.9239176084
11
4.5899788686
21
-13.9247494740
0
LINE
5
231
100
AcDbEntity
8
0
100
AcDbLine
62
9
6
CONTINUOUS
10
4.7523946810
20
-13.5816775193
11
4.6750249529
21
-13.6194815783
0
LINE
5
232
100
AcDbEntity
8
0
100
AcDbLine
62
7
6
CONTINUOUS
10
4.7211219574
20
-13.7390249655
11
4.5213040133
21
-13.8361918436
0
LINE
5
233
100
AcDbEntity
8
0
100
AcDbLine
62
9
6
CONTINUOUS
10
-6.8602275617
20
24.2195001809
11
7.8245273291
21
16.8771227355
0
LINE
5
234
100
AcDbEntity
8
0
100
AcDbLine
62
9
6
CONTINUOUS
10
8.8676415821
20
-19.8919836611
11
11.7460978955
21
-18.6161666473
0
LINE
5
235
100
AcDbEntity
8
0
100
AcDbLine
62
7
6
CONTINUOUS
10
8.7260696992
20
-20.1677517067
11
11.6082858247
21
-18.8902682329
0
LINE
5
236
100
AcDbEntity
8
0
100
AcDbLine
62
9
6
CONTINUOUS
10
-6.1883721022
20
25.3015626885
11
8.5142093454
21
17.9502719647
0
LINE
5
237
100
AcDbEntity
8
0
100
AcDbLine
62
7
6
CONTINUOUS
10
11.3926656589
20
19.4060079991
11
-3.4568190539
21
26.8307503555
0
SPLINE
5
238
100
AcDbEntity
8
0
100
AcDbSpline
62
7
6
CONTINUOUS
70
0
71
3
72
10
73
6
74
4
42
0.0000001000
43
0.0000001000
44
0.0000000001
12
-0.1931320756
22
-0.0984429565
32
0.0000000000
13
-0.1034617428
23
-0.1900730974
33
0.0000000000
40
0.0000000000
40
0.0000000000
40
0.0000000000
40
0.0000000000
40
0.2070162925
40
0.7523962292
40
1.0000000000
40
1.0000000000
40
1.0000000000
40
1.0000000000
10
-4.5738920126
20
-3.8535372021
30
0.0000000000
10
-4.5872191747
20
-3.8603303007
30
0.0000000000
10
-4.6340391947
20
-3.8882456448
30
0.0000000000
10
-4.6858011005
20
-3.9398890906
30
0.0000000000
10
-4.7163185454
20
-3.9884133343
30
0.0000000000
10
-4.7248577180
20
-4.0041009395
30
0.0000000000
11
-4.5738920126
21
-3.8535372021
31
0.0000000000
11
-4.6123874121
21
-3.8765199752
31
0.0000000000
11
-4.6962342921
21
-3.9588488260
31
0.0000000000
11
-4.7248577180
21
-4.0041009395
31
0.0000000000
0
SPLINE
5
239
100
AcDbEntity
8
0
100
AcDbSpline
62
7
6
CONTINUOUS
70
0
71
3
72
9
73
5
74
3
42
0.0000001000
43
0.0000001000
44
0.0000000001
12
-0.0463778013
22
-0.0851692516
32
0.0000000000
13
-0.0277584242
23
-0.0928307593
33
0.0000000000
40
0.0000000000
40
0.0000000000
40
0.0000000000
40
0.0000000000
40
0.1311157932
40
1.0000000000
40
1.0000000000
40
1.0000000000
40
1.0000000000
10
-4.7249194848
20
-4.0041996757
30
0.0000000000
10
-4.7269464389
20
-4.0079220204
30
0.0000000000
10
-4.7419775702
20
-4.0365414720
30
0.0000000000
10
-4.7537382646
20
-4.0667401429
30
0.0000000000
10
-4.7617778834
20
-4.0936265365
30
0.0000000000
11
-4.7249194848
21
-4.0041996757
31
0.0000000000
11
-4.7308318530
21
-4.0154540935
31
0.0000000000
11
-4.7617778834
21
-4.0936265365
31
0.0000000000
0
SPLINE
5
23A
100
AcDbEntity
8
0
100
AcDbSpline
62
7
6
CONTINUOUS
70
0
71
3
72
8
73
4
74
2
42
0.0000001000
43
0.0000001000
44
0.0000000001
12
-0.0039938120
22
-0.0133562553
32
0.0000000000
13
-0.0036392051
23
-0.0134568910
33
0.0000000000
40
0.0000000000
40
0.0000000000
40
0.0000000000
40
0.0000000000
40
1.0000000000
40
1.0000000000
40
1.0000000000
40
1.0000000000
10
-4.7617778834
20
-4.0936265365
30
0.0000000000
10
-4.7631091541
20
-4.0980786216
30
0.0000000000
10
-4.7643806757
20
-4.1025484539
30
0.0000000000
10
-4.7655937440
20
-4.1070340843
30
0.0000000000
11
-4.7617778834
21
-4.0936265365
31
0.0000000000
11
-4.7655937440
21
-4.1070340843
31
0.0000000000
0
SPLINE
5
23B
100
AcDbEntity
8
0
100
AcDbSpline
62
7
6
CONTINUOUS
70
0
71
3
72
8
73
4
74
2
42
0.0000001000
43
0.0000001000
44
0.0000000001
12
-0.0144261947
22
-0.0533510653
32
0.0000000000
13
-0.0139651439
23
-0.0534815725
33
0.0000000000
40
0.0000000000
40
0.0000000000
40
0.0000000000
40
0.0000000000
40
1.0000000000
40
1.0000000000
40
1.0000000000
40
1.0000000000
10
-4.7655934225
20
-4.1070243557
30
0.0000000000
10
-4.7704021541
20
-4.1248080441
30
0.0000000000
10
-4.7751337725
20
-4.1426138912
30
0.0000000000
10
-4.7797888204
20
-4.1604410821
30
0.0000000000
11
-4.7655934225
21
-4.1070243557
31
0.0000000000
11
-4.7797888204
21
-4.1604410821
31
0.0000000000
0
SPLINE
5
23C
100
AcDbEntity
8
0
100
AcDbSpline
62
7
6
CONTINUOUS
70
0
71
3
72
11
73
7
74
5
42
0.0000001000
43
0.0000001000
44
0.0000000001
12
-1.2523003351
22
-4.7958683276
32
0.0000000000
13
1.3927948525
23
-4.7561486764
33
0.0000000000
40
0.0000000000
40
0.0000000000
40
0.0000000000
40
0.0000000000
40
0.2121217249
40
0.4646983697
40
0.7336008268
40
1.0000000000
40
1.0000000000
40
1.0000000000
40
1.0000000000
10
-4.7797888204
20
-4.1604410821
30
0.0000000000
10
-4.8683355228
20
-4.4995437027
30
0.0000000000
10
-5.0016224778
20
-5.2593392257
30
0.0000000000
10
-5.0304369185
20
-6.4748102226
30
0.0000000000
10
-4.8812705985
20
-7.7712645228
30
0.0000000000
10
-4.6760739567
20
-8.6334844205
30
0.0000000000
10
-4.5523941576
20
-9.0558291121
30
0.0000000000
11
-4.7797888204
21
-4.1604410821
31
0.0000000000
11
-4.9660496691
21
-5.1953076602
31
0.0000000000
11
-5.0018293969
21
-6.4463715508
31
0.0000000000
11
-4.8545908207
21
-7.7706852055
31
0.0000000000
11
-4.5523941576
21
-9.0558291121
31
0.0000000000
0
SPLINE
5
23D
100
AcDbEntity
8
0
100
AcDbSpline
62
7
6
CONTINUOUS
70
0
71
3
72
8
73
4
74
2
42
0.0000001000
43
0.0000001000
44
0.0000000001
12
0.0158876619
22
-0.0542830253
32
0.0000000000
13
0.0187782937
23
-0.0533986542
33
0.0000000000
40
0.0000000000
40
0.0000000000
40
0.0000000000
40
0.0000000000
40
1.0000000000
40
1.0000000000
40
1.0000000000
40
1.0000000000
10
-4.5524069010
20
-9.0558146342
30
0.0000000000
10
-4.5471110137
20
-9.0739089760
30
0.0000000000
10
-4.5413141230
20
-9.0918666998
30
0.0000000000
10
-4.5350546918
20
-9.1096662512
30
0.0000000000
11
-4.5524069010
21
-9.0558146342
31
0.0000000000
11
-4.5350546918
21
-9.1096662512
31
0.0000000000
0
SPLINE
5
23E
100
AcDbEntity
8
0
100
AcDbSpline
62
7
6
CONTINUOUS
70
0
71
3
72
8
73
4
74
2
42
0.0000001000
43
0.0000001000
44
0.0000000001
12
0.0229981173
22
-0.0653983015
32
0.0000000000
13
0.0269488327
23
-0.0638560256
33
0.0000000000
40
0.0000000000
40
0.0000000000
40
0.0000000000
40
0.0000000000
40
1.0000000000
40
1.0000000000
40
1.0000000000
40
1.0000000000
10
-4.5350546918
20
-9.1096662512
30
0.0000000000
10
-4.5273886527
20
-9.1314656850
30
0.0000000000
10
-4.5190288330
20
-9.1530278706
30
0.0000000000
10
-4.5100458887
20
-9.1743132125
30
0.0000000000
11
-4.5350546918
21
-9.1096662512
31
0.0000000000
11
-4.5100458887
21
-9.1743132125
31
0.0000000000
0
SPLINE
5
23F
100
AcDbEntity
8
0
100
AcDbSpline
62
7
6
CONTINUOUS
70
0
71
3
72
10
73
6
74
4
42
0.0000001000
43
0.0000001000
44
0.0000000001
12
0.2174109542
22
-0.5151614403
32
0.0000000000
13
0.4338700315
23
-0.3525158514
33
0.0000000000
40
0.0000000000
40
0.0000000000
40
0.0000000000
40
0.0000000000
40
0.3801313766
40
0.7582593495
40
1.0000000000
40
1.0000000000
40
1.0000000000
40
1.0000000000
10
-4.5100458887
20
-9.1743132125
30
0.0000000000
10
-4.4824976469
20
-9.2395895550
30
0.0000000000
10
-4.4158564918
20
-9.3646046078
30
0.0000000000
10
-4.3012428601
20
-9.5123869434
30
0.0000000000
10
-4.2170784362
20
-9.5917745282
30
0.0000000000
10
-4.1821170950
20
-9.6201803319
30
0.0000000000
11
-4.5100458887
21
-9.1743132125
31
0.0000000000
11
-4.4105871855
21
-9.3616783419
31
0.0000000000
11
-4.2807292133
21
-9.5279960496
31
0.0000000000
11
-4.1821170950
21
-9.6201803319
31
0.0000000000
0
SPLINE
5
240
100
AcDbEntity
8
0
100
AcDbSpline
62
7
6
CONTINUOUS
70
0
71
3
72
9
73
5
74
3
42
0.0000001000
43
0.0000001000
44
0.0000000001
12
0.0991513961
22
-0.0805596982
32
0.0000000000
13
0.1106952324
23
-0.0644888059
33
0.0000000000
40
0.0000000000
40
0.0000000000
40
0.0000000000
40
0.0000000000
40
0.5080908606
40
1.0000000000
40
1.0000000000
40
1.0000000000
40
1.0000000000
10
-4.1821170950
20
-9.6201803319
30
0.0000000000
10
-4.1653244556
20
-9.6338242141
30
0.0000000000
10
-4.1313030499
20
-9.6595176153
30
0.0000000000
10
-4.0953092833
20
-9.6826295023
30
0.0000000000
10
-4.0771586178
20
-9.6932037133
30
0.0000000000
11
-4.1821170950
21
-9.6201803319
31
0.0000000000
11
-4.1302433476
21
-9.6592669445
31
0.0000000000
11
-4.0771586178
21
-9.6932037133
31
0.0000000000
0
SPLINE
5
241
100
AcDbEntity
8
0
100
AcDbSpline
62
7
6
CONTINUOUS
70
0
71
3
72
8
73
4
74
2
42
0.0000001000
43
0.0000001000
44
0.0000000001
12
0.0382062959
22
-0.0222582161
32
0.0000000000
13
0.0394873533
23
-0.0197344037
33
0.0000000000
40
0.0000000000
40
0.0000000000
40
0.0000000000
40
0.0000000000
40
1.0000000000
40
1.0000000000
40
1.0000000000
40
1.0000000000
10
-4.0771586178
20
-9.6932037133
30
0.0000000000
10
-4.0644231858
20
-9.7006231186
30
0.0000000000
10
-4.0514686727
20
-9.7076512636
30
0.0000000000
10
-4.0383062217
20
-9.7142293982
30
0.0000000000
11
-4.0771586178
21
-9.6932037133
31
0.0000000000
11
-4.0383062217
21
-9.7142293982
31
0.0000000000
0
SPLINE
5
242
100
AcDbEntity
8
0
100
AcDbSpline
62
7
6
CONTINUOUS
70
0
71
3
72
8
73
4
74
2
42
0.0000001000
43
0.0000001000
44
0.0000000001
12
0.0353862618
22
-0.0176958066
32
0.0000000000
13
0.0364923492
23
-0.0154793535
33
0.0000000000
40
0.0000000000
40
0.0000000000
40
0.0000000000
40
0.0000000000
40
1.0000000000
40
1.0000000000
40
1.0000000000
40
1.0000000000
10
4.1568045914
20
-13.8117448036
30
0.0000000000
10
4.1686000120
20
-13.8176434058
30
0.0000000000
10
4.1805886503
20
-13.8232021220
30
0.0000000000
10
4.1927527667
20
-13.8283619066
30
0.0000000000
11
4.1568045914
21
-13.8117448036
31
0.0000000000
11
4.1927527667
21
-13.8283619066
31
0.0000000000
0
SPLINE
5
243
100
AcDbEntity
8
0
100
AcDbSpline
62
7
6
CONTINUOUS
70
0
71
3
72
8
73
4
74
2
42
0.0000001000
43
0.0000001000
44
0.0000000001
12
0.0494828363
22
-0.0209896687
32
0.0000000000
13
0.0512860355
23
-0.0161469876
33
0.0000000000
40
0.0000000000
40
0.0000000000
40
0.0000000000
40
0.0000000000
40
1.0000000000
40
1.0000000000
40
1.0000000000
40
1.0000000000
10
4.1927527667
20
-13.8283619066
30
0.0000000000
10
4.2092470455
20
-13.8353584628
30
0.0000000000
10
4.2260639718
20
-13.8416215122
30
0.0000000000
10
4.2431593169
20
-13.8470038414
30
0.0000000000
11
4.1927527667
21
-13.8283619066
31
0.0000000000
11
4.2431593169
21
-13.8470038414
31
0.0000000000
0
SPLINE
5
244
100
AcDbEntity
8
0
100
AcDbSpline
62
7
6
CONTINUOUS
70
0
71
3
72
10
73
6
74
4
42
0.0000001000
43
0.0000001000
44
0.0000000001
12
0.2719886631
22
-0.0856333997
32
0.0000000000
13
0.2570720802
23
0.1246125337
33
0.0000000000
40
0.0000000000
40
0.0000000000
40
0.0000000000
40
0.0000000000
40
0.1766521686
40
0.6492069842
40
1.0000000000
40
1.0000000000
40
1.0000000000
40
1.0000000000
10
4.2431593169
20
-13.8470038414
30
0.0000000000
10
4.2591751127
20
-13.8520462833
30
0.0000000000
10
4.3189321501
20
-13.8677367320
30
0.0000000000
10
4.4153055239
20
-13.8733056625
30
0.0000000000
10
4.4915457045
20
-13.8505726458
30
0.0000000000
10
4.5216054012
20
-13.8360015769
30
0.0000000000
11
4.2431593169
21
-13.8470038414
31
0.0000000000
11
4.2919034331
21
-13.8596911199
31
0.0000000000
11
4.4260161041
21
-13.8649848437
31
0.0000000000
11
4.5216054012
21
-13.8360015769
31
0.0000000000
0
SPLINE
5
245
100
AcDbEntity
8
0
100
AcDbSpline
62
9
6
CONTINUOUS
70
0
71
3
72
8
73
4
74
2
42
0.0000001000
43
0.0000001000
44
0.0000000001
12
0.0073739268
22
-0.0308321453
32
0.0000000000
13
0.0073133854
23
-0.0308467454
33
0.0000000000
40
0.0000000000
40
0.0000000000
40
0.0000000000
40
0.0000000000
40
1.0000000000
40
1.0000000000
40
1.0000000000
40
1.0000000000
10
4.4588095542
20
-8.6722680547
30
0.0000000000
10
4.4612675298
20
-8.6825454365
30
0.0000000000
10
4.4637154304
20
-8.6928252602
30
0.0000000000
10
4.4661532256
20
-8.7031075087
30
0.0000000000
11
4.4588095542
21
-8.6722680547
31
0.0000000000
11
4.4661532256
21
-8.7031075087
31
0.0000000000
0
SPLINE
5
246
100
AcDbEntity
8
0
100
AcDbSpline
62
9
6
CONTINUOUS
70
0
71
3
72
8
73
4
74
2
42
0.0000001000
43
0.0000001000
44
0.0000000001
12
0.0045624592
22
-0.0192437578
32
0.0000000000
13
0.0045388393
23
-0.0192494074
33
0.0000000000
40
0.0000000000
40
0.0000000000
40
0.0000000000
40
0.0000000000
40
1.0000000000
40
1.0000000000
40
1.0000000000
40
1.0000000000
10
4.4661532256
20
-8.7031075087
30
0.0000000000
10
4.4676740453
20
-8.7095220946
30
0.0000000000
10
4.4691909321
20
-8.7159376242
30
0.0000000000
10
4.4707038785
20
-8.7223540934
30
0.0000000000
11
4.4661532256
21
-8.7031075087
31
0.0000000000
11
4.4707038785
21
-8.7223540934
31
0.0000000000
0
SPLINE
5
247
100
AcDbEntity
8
0
100
AcDbSpline
62
9
6
CONTINUOUS
70
0
71
3
72
8
73
4
74
2
42
0.0000001000
43
0.0000001000
44
0.0000000001
12
0.0137965115
22
-0.0585115831
32
0.0000000000
13
0.0135774444
23
-0.0585633168
33
0.0000000000
40
0.0000000000
40
0.0000000000
40
0.0000000000
40
0.0000000000
40
1.0000000000
40
1.0000000000
40
1.0000000000
40
1.0000000000
10
4.4707038785
20
-8.7223540934
30
0.0000000000
10
4.4753027157
20
-8.7418579544
30
0.0000000000
10
4.4798651458
20
-8.7613704962
30
0.0000000000
10
4.4843909606
20
-8.7808916018
30
0.0000000000
11
4.4707038785
21
-8.7223540934
31
0.0000000000
11
4.4843909606
21
-8.7808916018
31
0.0000000000
0
SPLINE
5
248
100
AcDbEntity
8
0
100
AcDbSpline
62
9
6
CONTINUOUS
70
0
71
3
72
17
73
13
74
11
42
0.0000001000
43
0.0000001000
44
0.0000000001
12
1.1020303224
22
-4.7533651388
32
0.0000000000
13
-1.0295249116
23
-4.7695087446
33
0.0000000000
40
0.0000000000
40
0.0000000000
40
0.0000000000
40
0.0000000000
40
0.0515393390
40
0.1429470954
40
0.2468865442
40
0.3591541231
40
0.4756449067
40
0.5924813032
40
0.7061418404
40
0.8135720088
40
0.9122492569
40
1.0000000000
40
1.0000000000
40
1.0000000000
40
1.0000000000
10
4.4843909606
20
-8.7808916018
30
0.0000000000
10
4.5033235987
20
-8.8625533675
30
0.0000000000
10
4.5540571110
20
-9.0894622675
30
0.0000000000
10
4.6329642625
20
-9.4832380804
30
0.0000000000
10
4.7157381659
20
-9.9767652538
30
0.0000000000
10
4.7854943432
20
-10.5135101429
30
0.0000000000
10
4.8345296179
20
-11.0736465464
30
0.0000000000
10
4.8575187982
20
-11.6377633235
30
0.0000000000
10
4.8519282371
20
-12.1876141009
30
0.0000000000
10
4.8182159961
20
-12.7068889135
30
0.0000000000
10
4.7598487769
20
-13.1815212651
30
0.0000000000
10
4.7051388116
20
-13.4799722661
30
0.0000000000
10
4.6750249529
20
-13.6194815783
30
0.0000000000
11
4.4843909606
21
-8.7808916018
31
0.0000000000
11
4.5392513672
21
-9.0263179239
31
0.0000000000
11
4.6267979275
21
-9.4636525412
31
0.0000000000
11
4.7105283805
21
-9.9638507359
31
0.0000000000
11
4.7808742730
21
-10.5071088809
31
0.0000000000
11
4.8300818291
21
-11.0733751215
31
0.0000000000
11
4.8528256988
21
-11.6430078671
31
0.0000000000
11
4.8466315442
21
-12.1975637348
31
0.0000000000
11
4.8120745418
21
-12.7206136765
31
0.0000000000
11
4.7527249582
21
-13.1984234548
31
0.0000000000
11
4.6750249529
21
-13.6194815783
31
0.0000000000
0
SPLINE
5
249
100
AcDbEntity
8
0
100
AcDbSpline
62
9
6
CONTINUOUS
70
0
71
3
72
17
73
13
74
11
42
0.0000001000
43
0.0000001000
44
0.0000000001
12
1.1500042562
22
-4.8094847765
32
0.0000000000
13
-1.0382319788
23
-4.8348451850
33
0.0000000000
40
0.0000000000
40
0.0000000000
40
0.0000000000
40
0.0000000000
40
0.0727375064
40
0.1621050248
40
0.2637271316
40
0.3734942468
40
0.4873922090
40
0.6016279601
40
0.7127551687
40
0.8177838656
40
0.9142467093
40
1.0000000000
40
1.0000000000
40
1.0000000000
40
1.0000000000
10
4.3211360479
20
-8.7006806352
30
0.0000000000
10
4.3490188618
20
-8.8172906117
30
0.0000000000
10
4.4082491377
20
-9.0778763491
30
0.0000000000
10
4.4936932316
20
-9.5041724139
30
0.0000000000
10
4.5757739001
20
-9.9931834559
30
0.0000000000
10
4.6450143206
20
-10.5250232126
30
0.0000000000
10
4.6937903784
20
-11.0800468853
30
0.0000000000
10
4.7168274192
20
-11.6390173221
30
0.0000000000
10
4.7116104030
20
-12.1838480495
30
0.0000000000
10
4.6785823802
20
-12.6983722106
30
0.0000000000
10
4.6211668182
20
-13.1686190887
30
0.0000000000
10
4.5672672328
20
-13.4643083564
30
0.0000000000
10
4.5375899633
20
-13.6025096513
30
0.0000000000
11
4.3211360479
21
-8.7006806352
31
0.0000000000
11
4.4008217768
21
-9.0514344321
31
0.0000000000
11
4.4875872068
21
-9.4847612938
31
0.0000000000
11
4.5706171589
21
-9.9803823123
31
0.0000000000
11
4.6404444494
21
-10.5186775935
31
0.0000000000
11
4.6893945082
21
-11.0797791210
31
0.0000000000
11
4.7121921378
21
-11.6442219648
31
0.0000000000
11
4.7063803411
21
-12.1937223408
31
0.0000000000
11
4.6725183772
21
-12.7119908861
31
0.0000000000
11
4.6141280605
21
-13.1854185776
31
0.0000000000
11
4.5375899633
21
-13.6025096513
31
0.0000000000
0
SPLINE
5
24A
100
AcDbEntity
8
0
100
AcDbSpline
62
9
6
CONTINUOUS
70
0
71
3
72
8
73
4
74
2
42
0.0000001000
43
0.0000001000
44
0.0000000001
12
-0.0130383180
22
-0.0068204798
32
0.0000000000
13
-0.0135192136
23
-0.0058479401
33
0.0000000000
40
0.0000000000
40
0.0000000000
40
0.0000000000
40
0.0000000000
40
1.0000000000
40
1.0000000000
40
1.0000000000
40
1.0000000000
10
4.4588095200
20
-8.6722680503
30
0.0000000000
10
4.4544634140
20
-8.6745415436
30
0.0000000000
10
4.4500270168
20
-8.6766426373
30
0.0000000000
10
4.4455206123
20
-8.6785919507
30
0.0000000000
11
4.4588095200
21
-8.6722680503
31
0.0000000000
11
4.4455206123
21
-8.6785919507
31
0.0000000000
0
SPLINE
5
24B
100
AcDbEntity
8
0
100
AcDbSpline
62
9
6
CONTINUOUS
70
0
71
3
72
9
73
5
74
3
42
0.0000001000
43
0.0000001000
44
0.0000000001
12
-0.0620619642
22
-0.0268458401
32
0.0000000000
13
-0.0665648279
23
-0.0118181676
33
0.0000000000
40
0.0000000000
40
0.0000000000
40
0.0000000000
40
0.0000000000
40
0.4868537665
40
1.0000000000
40
1.0000000000
40
1.0000000000
40
1.0000000000
10
4.4455206123
20
-8.6785919507
30
0.0000000000
10
4.4354489119
20
-8.6829486168
30
0.0000000000
10
4.4140433160
20
-8.6903399655
30
0.0000000000
10
4.3921177484
20
-8.6955038437
30
0.0000000000
10
4.3807319181
20
-8.6975253264
30
0.0000000000
11
4.4455206123
21
-8.6785919507
31
0.0000000000
11
4.4144828748
21
-8.6896176590
31
0.0000000000
11
4.3807319181
21
-8.6975253264
31
0.0000000000
0
SPLINE
5
24C
100
AcDbEntity
8
0
100
AcDbSpline
62
9
6
CONTINUOUS
70
0
71
3
72
9
73
5
74
3
42
0.0000001000
43
0.0000001000
44
0.0000000001
12
-0.0588803193
22
-0.0104538313
32
0.0000000000
13
-0.0592686146
23
0.0075770828
33
0.0000000000
40
0.0000000000
40
0.0000000000
40
0.0000000000
40
0.0000000000
40
0.2807305338
40
1.0000000000
40
1.0000000000
40
1.0000000000
40
1.0000000000
10
4.3807319181
20
-8.6975253264
30
0.0000000000
10
4.3752220836
20
-8.6985035630
30
0.0000000000
10
4.3554828570
20
-8.7014640252
30
0.0000000000
10
4.3353460909
20
-8.7024972856
30
0.0000000000
10
4.3211360560
20
-8.7006806309
30
0.0000000000
11
4.3807319181
21
-8.6975253264
31
0.0000000000
11
4.3641079465
21
-8.7000138652
31
0.0000000000
11
4.3211360560
21
-8.7006806309
31
0.0000000000
0
SPLINE
5
24D
100
AcDbEntity
8
0
100
AcDbSpline
62
9
6
CONTINUOUS
70
0
71
3
72
9
73
5
74
3
42
0.0000001000
43
0.0000001000
44
0.0000000001
12
-0.0359691725
22
-0.1597040078
32
0.0000000000
13
-0.1042501704
23
-0.1280881826
33
0.0000000000
40
0.0000000000
40
0.0000000000
40
0.0000000000
40
0.0000000000
40
0.7671101791
40
1.0000000000
40
1.0000000000
40
1.0000000000
40
1.0000000000
10
4.6750249529
20
-13.6194815783
30
0.0000000000
10
4.6658275134
20
-13.6603184350
30
0.0000000000
10
4.6468282119
20
-13.7126730354
30
0.0000000000
10
4.6149411498
20
-13.7577511348
30
0.0000000000
10
4.6068482153
20
-13.7676946127
30
0.0000000000
11
4.6750249529
21
-13.6194815783
31
0.0000000000
11
4.6290944921
21
-13.7363600133
31
0.0000000000
11
4.6068482153
21
-13.7676946127
31
0.0000000000
0
SPLINE
5
24E
100
AcDbEntity
8
0
100
AcDbSpline
62
9
6
CONTINUOUS
70
0
71
3
72
9
73
5
74
3
42
0.0000001000
43
0.0000001000
44
0.0000000001
12
-0.0697466607
22
-0.0856950447
32
0.0000000000
13
-0.0993894494
23
-0.0479855272
33
0.0000000000
40
0.0000000000
40
0.0000000000
40
0.0000000000
40
0.0000000000
40
0.6685804663
40
1.0000000000
40
1.0000000000
40
1.0000000000
40
1.0000000000
10
4.6068482153
20
-13.7676946127
30
0.0000000000
10
4.5913044637
20
-13.7867926237
30
0.0000000000
10
4.5643766850
20
-13.8122967661
30
0.0000000000
10
4.5324573803
20
-13.8306852080
30
0.0000000000
10
4.5214775120
20
-13.8359863217
30
0.0000000000
11
4.6068482153
21
-13.7676946127
31
0.0000000000
11
4.5530664787
21
-13.8177150496
31
0.0000000000
11
4.5214775120
21
-13.8359863217
31
0.0000000000
0
SPLINE
5
24F
100
AcDbEntity
8
0
100
AcDbSpline
62
9
6
CONTINUOUS
70
0
71
3
72
9
73
5
74
3
42
0.0000001000
43
0.0000001000
44
0.0000000001
12
-0.0294075216
22
-0.1367329778
32
0.0000000000
13
-0.0881445814
23
-0.1102336940
33
0.0000000000
40
0.0000000000
40
0.0000000000
40
0.0000000000
40
0.0000000000
40
0.7667637742
40
1.0000000000
40
1.0000000000
40
1.0000000000
40
1.0000000000
10
4.5375899633
20
-13.6025096513
30
0.0000000000
10
4.5300737559
20
-13.6374569493
30
0.0000000000
10
4.5143301161
20
-13.6823532165
30
0.0000000000
10
4.4874329481
20
-13.7211287790
30
0.0000000000
10
4.4805801116
20
-13.7296989426
30
0.0000000000
11
4.5375899633
21
-13.6025096513
31
0.0000000000
11
4.4993729937
21
-13.7027080862
31
0.0000000000
11
4.4805801116
21
-13.7296989426
31
0.0000000000
0
SPLINE
5
250
100
AcDbEntity
8
0
100
AcDbSpline
62
9
6
CONTINUOUS
70
0
71
3
72
9
73
5
74
3
42
0.0000001000
43
0.0000001000
44
0.0000000001
12
-0.0592884429
22
-0.0741461808
32
0.0000000000
13
-0.0852873728
23
-0.0414103134
33
0.0000000000
40
0.0000000000
40
0.0000000000
40
0.0000000000
40
0.0000000000
40
0.6706529783
40
1.0000000000
40
1.0000000000
40
1.0000000000
40
1.0000000000
10
4.4805801116
20
-13.7296989426
30
0.0000000000
10
4.4673261213
20
-13.7462743949
30
0.0000000000
10
4.4443313538
20
-13.7683476221
30
0.0000000000
10
4.4169566010
20
-13.7842172717
30
0.0000000000
10
4.4075935536
20
-13.7887633928
30
0.0000000000
11
4.4805801116
21
-13.7296989426
31
0.0000000000
11
4.4345130930
21
-13.7730911293
31
0.0000000000
11
4.4075935536
21
-13.7887633928
31
0.0000000000
0
SPLINE
5
251
100
AcDbEntity
8
0
100
AcDbSpline
62
9
6
CONTINUOUS
70
0
71
3
72
9
73
5
74
3
42
0.0000001000
43
0.0000001000
44
0.0000000001
12
-0.1188020755
22
-0.0576829959
32
0.0000000000
13
-0.1313470561
23
0.0118088188
33
0.0000000000
40
0.0000000000
40
0.0000000000
40
0.0000000000
40
0.0000000000
40
0.4831587391
40
1.0000000000
40
1.0000000000
40
1.0000000000
40
1.0000000000
10
4.4075935536
20
-13.7887633928
30
0.0000000000
10
4.3884601333
20
-13.7980534073
30
0.0000000000
10
4.3458581487
20
-13.8113995536
30
0.0000000000
10
4.3017175547
20
-13.8122947532
30
0.0000000000
10
4.2790890286
20
-13.8102603249
30
0.0000000000
11
4.4075935536
21
-13.7887633928
31
0.0000000000
11
4.3469339143
21
-13.8080434433
31
0.0000000000
11
4.2790890286
21
-13.8102603249
31
0.0000000000
0
SPLINE
5
252
100
AcDbEntity
8
0
100
AcDbSpline
62
9
6
CONTINUOUS
70
0
71
3
72
9
73
5
74
3
42
0.0000001000
43
0.0000001000
44
0.0000000001
12
-0.1132145173
22
0.0101786044
32
0.0000000000
13
-0.1050444068
23
0.0423449486
33
0.0000000000
40
0.0000000000
40
0.0000000000
40
0.0000000000
40
0.0000000000
40
0.3180331461
40
1.0000000000
40
1.0000000000
40
1.0000000000
40
1.0000000000
10
4.2790890286
20
-13.8102603249
30
0.0000000000
10
4.2670870389
20
-13.8091812804
30
0.0000000000
10
4.2295126444
20
-13.8035796027
30
0.0000000000
10
4.1933326592
20
-13.7922554182
30
0.0000000000
10
4.1694537247
20
-13.7826294677
30
0.0000000000
11
4.2790890286
21
-13.8102603249
31
0.0000000000
11
4.2433282708
21
-13.8050394386
31
0.0000000000
11
4.1694537247
21
-13.7826294677
31
0.0000000000
0
SPLINE
5
253
100
AcDbEntity
8
0
100
AcDbSpline
62
9
6
CONTINUOUS
70
0
71
3
72
8
73
4
74
2
42
0.0000001000
43
0.0000001000
44
0.0000000001
12
-0.0391088166
22
0.0157653404
32
0.0000000000
13
-0.0376165256
23
0.0187987010
33
0.0000000000
40
0.0000000000
40
0.0000000000
40
0.0000000000
40
0.0000000000
40
1.0000000000
40
1.0000000000
40
1.0000000000
40
1.0000000000
10
4.1694537247
20
-13.7826294677
30
0.0000000000
10
4.1564174525
20
-13.7773743543
30
0.0000000000
10
4.1436180090
20
-13.7715519984
30
0.0000000000
10
4.1310791671
20
-13.7652857648
30
0.0000000000
11
4.1694537247
21
-13.7826294677
31
0.0000000000
11
4.1310791671
21
-13.7652857648
31
0.0000000000
0
SPLINE
5
254
100
AcDbEntity
8
0
100
AcDbSpline
62
9
6
CONTINUOUS
70
0
71
3
72
10
73
6
74
4
42
0.0000001000
43
0.0000001000
44
0.0000000001
12
-0.1268276144
22
-0.0707491705
32
0.0000000000
13
-0.1113398834
23
0.0932422612
33
0.0000000000
40
0.0000000000
40
0.0000000000
40
0.0000000000
40
0.0000000000
40
0.3162165111
40
0.6637600262
40
1.0000000000
40
1.0000000000
40
1.0000000000
40
1.0000000000
10
4.6750044220
20
-13.6194633263
30
0.0000000000
10
4.6616360934
20
-13.6269206782
30
0.0000000000
10
4.6291987070
20
-13.6348393516
30
0.0000000000
10
4.5804343700
20
-13.6284986469
30
0.0000000000
10
4.5500692353
20
-13.6129600625
30
0.0000000000
10
4.5375902622
20
-13.6025094706
30
0.0000000000
11
4.6750044220
21
-13.6194633263
31
0.0000000000
11
4.6307454202
21
-13.6317132050
31
0.0000000000
11
4.5806527660
21
-13.6255328833
31
0.0000000000
11
4.5375902622
21
-13.6025094706
31
0.0000000000
0
SPLINE
5
255
100
AcDbEntity
8
0
100
AcDbSpline
62
9
6
CONTINUOUS
70
0
71
3
72
8
73
4
74
2
42
0.0000001000
43
0.0000001000
44
0.0000000001
12
-0.0800462981
22
0.0400493824
32
0.0000000000
13
-0.0738245508
23
0.0510078416
33
0.0000000000
40
0.0000000000
40
0.0000000000
40
0.0000000000
40
0.0000000000
40
1.0000000000
40
1.0000000000
40
1.0000000000
40
1.0000000000
10
-4.0641256183
20
-9.6676833720
30
0.0000000000
10
-4.0908077176
20
-9.6543335779
30
0.0000000000
10
-4.1164620725
20
-9.6388842457
30
0.0000000000
10
-4.1410702561
20
-9.6218816318
30
0.0000000000
11
-4.0641256183
21
-9.6676833720
31
0.0000000000
11
-4.1410702561
21
-9.6218816318
31
0.0000000000
0
SPLINE
5
256
100
AcDbEntity
8
0
100
AcDbSpline
62
9
6
CONTINUOUS
70
0
71
3
72
12
73
8
74
6
42
0.0000001000
43
0.0000001000
44
0.0000000001
12
-0.4782549077
22
0.3304422485
32
0.0000000000
13
-0.2207136809
23
0.5370677220
33
0.0000000000
40
0.0000000000
40
0.0000000000
40
0.0000000000
40
0.0000000000
40
0.0810616937
40
0.3443356724
40
0.6251976927
40
0.9084336263
40
1.0000000000
40
1.0000000000
40
1.0000000000
40
1.0000000000
10
-4.1410702561
20
-9.6218816318
30
0.0000000000
10
-4.1539929737
20
-9.6129528957
30
0.0000000000
10
-4.2076608697
20
-9.5732056563
30
0.0000000000
10
-4.2955643752
20
-9.4895962364
30
0.0000000000
10
-4.3936514219
20
-9.3625241480
30
0.0000000000
10
-4.4561329336
20
-9.2518070432
30
0.0000000000
10
-4.4854110895
20
-9.1853972949
30
0.0000000000
10
-4.4921477399
20
-9.1690048470
30
0.0000000000
11
-4.1410702561
21
-9.6218816318
31
0.0000000000
11
-4.1789702293
21
-9.5938894812
31
0.0000000000
11
-4.2902828805
21
-9.4894194891
31
0.0000000000
11
-4.3901176486
21
-9.3607523714
31
0.0000000000
11
-4.4707211525
21
-9.2176596666
31
0.0000000000
11
-4.4921477399
21
-9.1690048470
31
0.0000000000
0
SPLINE
5
257
100
AcDbEntity
8
0
100
AcDbSpline
62
9
6
CONTINUOUS
70
0
71
3
72
8
73
4
74
2
42
0.0000001000
43
0.0000001000
44
0.0000000001
12
-0.0398261379
22
0.0969098657
32
0.0000000000
13
-0.0293973621
23
0.1004139265
33
0.0000000000
40
0.0000000000
40
0.0000000000
40
0.0000000000
40
0.0000000000
40
1.0000000000
40
1.0000000000
40
1.0000000000
40
1.0000000000
10
-4.4921477399
20
-9.1690048470
30
0.0000000000
10
-4.5054231192
20
-9.1367015585
30
0.0000000000
10
-4.5170823575
20
-9.1037452394
30
0.0000000000
10
-4.5268814782
20
-9.0702739306
30
0.0000000000
11
-4.4921477399
21
-9.1690048470
31
0.0000000000
11
-4.5268814782
21
-9.0702739306
31
0.0000000000
0
SPLINE
5
258
100
AcDbEntity
8
0
100
AcDbSpline
62
9
6
CONTINUOUS
70
0
71
3
72
11
73
7
74
5
42
0.0000001000
43
0.0000001000
44
0.0000000001
12
0.1418447105
22
0.0722781278
32
0.0000000000
13
0.1589343198
23
-0.0100111157
33
0.0000000000
40
0.0000000000
40
0.0000000000
40
0.0000000000
40
0.0000000000
40
0.0879993763
40
0.3958504454
40
0.7419200850
40
1.0000000000
40
1.0000000000
40
1.0000000000
40
1.0000000000
10
-4.5739095027
20
-3.8535015140
30
0.0000000000
10
-4.5697487540
20
-3.8513813706
30
0.0000000000
10
-4.5507853859
20
-3.8423282353
30
0.0000000000
10
-4.5133661061
20
-3.8295675731
30
0.0000000000
10
-4.4652622917
20
-3.8225265940
30
0.0000000000
10
-4.4331429686
20
-3.8227033382
30
0.0000000000
10
-4.4194703834
20
-3.8235645608
30
0.0000000000
11
-4.5739095027
21
-3.8535015140
31
0.0000000000
11
-4.5612679657
21
-3.8474671950
31
0.0000000000
11
-4.5149589521
21
-3.8315987196
31
0.0000000000
11
-4.4605381503
21
-3.8234357297
31
0.0000000000
11
-4.4194703834
21
-3.8235645608
31
0.0000000000
0
SPLINE
5
259
100
AcDbEntity
8
0
100
AcDbSpline
62
9
6
CONTINUOUS
70
0
71
3
72
9
73
5
74
3
42
0.0000001000
43
0.0000001000
44
0.0000000001
12
0.0961397573
22
-0.0060557483
32
0.0000000000
13
0.0920863229
23
-0.0282838025
33
0.0000000000
40
0.0000000000
40
0.0000000000
40
0.0000000000
40
0.0000000000
40
0.2300733793
40
1.0000000000
40
1.0000000000
40
1.0000000000
40
1.0000000000
10
-4.4194703834
20
-3.8235645608
30
0.0000000000
10
-4.4120973171
20
-3.8240289830
30
0.0000000000
10
-4.3801115403
20
-3.8270406752
30
0.0000000000
10
-4.3486694899
20
-3.8340795006
30
0.0000000000
10
-4.3250362528
20
-3.8413383181
30
0.0000000000
11
-4.4194703834
21
-3.8235645608
31
0.0000000000
11
-4.3974079471
21
-3.8256279747
31
0.0000000000
11
-4.3250362528
21
-3.8413383181
31
0.0000000000
0
SPLINE
5
25A
100
AcDbEntity
8
0
100
AcDbSpline
62
9
6
CONTINUOUS
70
0
71
3
72
8
73
4
74
2
42
0.0000001000
43
0.0000001000
44
0.0000000001
12
0.0548573415
22
-0.0168491277
32
0.0000000000
13
0.0526194436
23
-0.0228543384
33
0.0000000000
40
0.0000000000
40
0.0000000000
40
0.0000000000
40
0.0000000000
40
1.0000000000
40
1.0000000000
40
1.0000000000
40
1.0000000000
10
-4.3250362528
20
-3.8413383181
30
0.0000000000
10
-4.3067504723
20
-3.8469546940
30
0.0000000000
10
-4.2888088224
20
-3.8536722690
30
0.0000000000
10
-4.2712690079
20
-3.8612903818
30
0.0000000000
11
-4.3250362528
21
-3.8413383181
31
0.0000000000
11
-4.2712690079
21
-3.8612903818
31
0.0000000000
0
SPLINE
5
25B
100
AcDbEntity
8
0
100
AcDbSpline
62
9
6
CONTINUOUS
70
0
71
3
72
8
73
4
74
2
42
0.0000001000
43
0.0000001000
44
0.0000000001
12
0.0287560416
22
-0.0124896856
32
0.0000000000
13
0.0280077336
23
-0.0140051209
33
0.0000000000
40
0.0000000000
40
0.0000000000
40
0.0000000000
40
0.0000000000
40
1.0000000000
40
1.0000000000
40
1.0000000000
40
1.0000000000
10
-4.2712690079
20
-3.8612903818
30
0.0000000000
10
-4.2616836607
20
-3.8654536103
30
0.0000000000
10
-4.2522183225
20
-3.8698857864
30
0.0000000000
10
-4.2428824113
20
-3.8745541600
30
0.0000000000
11
-4.2712690079
21
-3.8612903818
31
0.0000000000
11
-4.2428824113
21
-3.8745541600
31
0.0000000000
0
SPLINE
5
25C
100
AcDbEntity
8
0
100
AcDbSpline
62
9
6
CONTINUOUS
70
0
71
3
72
8
73
4
74
2
42
0.0000001000
43
0.0000001000
44
0.0000000001
12
-0.0058778728
22
0.0200881391
32
0.0000000000
13
-0.0058449439
23
0.0200979684
33
0.0000000000
40
0.0000000000
40
0.0000000000
40
0.0000000000
40
0.0000000000
40
1.0000000000
40
1.0000000000
40
1.0000000000
40
1.0000000000
10
-4.5268814782
20
-9.0702739306
30
0.0000000000
10
-4.5288407691
20
-9.0635778842
30
0.0000000000
10
-4.5307945797
20
-9.0568801958
30
0.0000000000
10
-4.5327428943
20
-9.0501808730
30
0.0000000000
11
-4.5268814782
21
-9.0702739306
31
0.0000000000
11
-4.5327428943
21
-9.0501808730
31
0.0000000000
0
SPLINE
5
25D
100
AcDbEntity
8
0
100
AcDbSpline
62
9
6
CONTINUOUS
70
0
71
3
72
17
73
13
74
11
42
0.0000001000
43
0.0000001000
44
0.0000000001
12
-1.3805574983
22
4.7470773559
32
0.0000000000
13
1.2888486482
23
4.7727403515
33
0.0000000000
40
0.0000000000
40
0.0000000000
40
0.0000000000
40
0.0000000000
40
0.1025557390
40
0.2170578352
40
0.3352025508
40
0.4533571171
40
0.5681770360
40
0.6766833808
40
0.7762771644
40
0.8647028683
40
0.9399665543
40
1.0000000000
40
1.0000000000
40
1.0000000000
40
1.0000000000
10
-4.5327428943
20
-9.0501808730
30
0.0000000000
10
-4.5799375925
20
-8.8879008642
30
0.0000000000
10
-4.6729992097
20
-8.5424076742
30
0.0000000000
10
-4.7928788286
20
-8.0029793241
30
0.0000000000
10
-4.8895199424
20
-7.4327473589
30
0.0000000000
10
-4.9544469112
20
-6.8574693021
30
0.0000000000
10
-4.9843752249
20
-6.2951911427
30
0.0000000000
10
-4.9798630652
20
-5.7627227455
30
0.0000000000
10
-4.9452170129
20
-5.2749899246
30
0.0000000000
10
-4.8880452879
20
-4.8446447296
30
0.0000000000
10
-4.8185839149
20
-4.4823917452
30
0.0000000000
10
-4.7655489916
20
-4.2657418026
30
0.0000000000
10
-4.7397576498
20
-4.1702337863
30
0.0000000000
11
-4.5327428943
21
-9.0501808730
31
0.0000000000
11
-4.6644317433
21
-8.5605723889
31
0.0000000000
11
-4.7869467592
21
-8.0079254039
31
0.0000000000
11
-4.8841671278
21
-7.4320013647
31
0.0000000000
11
-4.9492347419
21
-6.8515158832
31
0.0000000000
11
-4.9789298851
21
-6.2846577799
31
0.0000000000
11
-4.9739186551
21
-5.7482582438
31
0.0000000000
11
-4.9386203448
21
-5.2571632685
31
0.0000000000
11
-4.8807289652
21
-4.8238632168
31
0.0000000000
11
-4.8104426186
21
-4.4584809121
31
0.0000000000
11
-4.7397576498
21
-4.1702337863
31
0.0000000000
0
SPLINE
5
25E
100
AcDbEntity
8
0
100
AcDbSpline
62
9
6
CONTINUOUS
70
0
71
3
72
9
73
5
74
3
42
0.0000001000
43
0.0000001000
44
0.0000000001
12
-0.0174736068
22
-0.0694383870
32
0.0000000000
13
0.0534268518
23
-0.0463536311
33
0.0000000000
40
0.0000000000
40
0.0000000000
40
0.0000000000
40
0.0000000000
40
0.4027163635
40
1.0000000000
40
1.0000000000
40
1.0000000000
40
1.0000000000
10
-4.7654975766
20
-4.1070583032
30
0.0000000000
10
-4.7678432124
20
-4.1163796281
30
0.0000000000
10
-4.7662974054
20
-4.1417553358
30
0.0000000000
10
-4.7503946038
20
-4.1610050098
30
0.0000000000
10
-4.7397576090
20
-4.1702337649
30
0.0000000000
11
-4.7654975766
21
-4.1070583032
31
0.0000000000
11
-4.7642697447
21
-4.1358245305
31
0.0000000000
11
-4.7397576090
21
-4.1702337649
31
0.0000000000
0
SPLINE
5
25F
100
AcDbEntity
8
0
100
AcDbSpline
62
9
6
CONTINUOUS
70
0
71
3
72
9
73
5
74
3
42
0.0000001000
43
0.0000001000
44
0.0000000001
12
0.0191192442
22
0.0708140491
32
0.0000000000
13
0.0322616669
23
0.0659153071
33
0.0000000000
40
0.0000000000
40
0.0000000000
40
0.0000000000
40
0.0000000000
40
0.6086968179
40
1.0000000000
40
1.0000000000
40
1.0000000000
40
1.0000000000
10
-4.7397576498
20
-4.1702337863
30
0.0000000000
10
-4.7358783754
20
-4.1558656909
30
0.0000000000
10
-4.7282894384
20
-4.1325665840
30
0.0000000000
10
-4.7184599918
20
-4.1101290306
30
0.0000000000
10
-4.7142519608
20
-4.1015314075
30
0.0000000000
11
-4.7397576498
21
-4.1702337863
31
0.0000000000
11
-4.7258095165
21
-4.1278207222
31
0.0000000000
11
-4.7142519608
21
-4.1015314075
31
0.0000000000
0
SPLINE
5
260
100
AcDbEntity
8
0
100
AcDbSpline
62
9
6
CONTINUOUS
70
0
71
3
72
8
73
4
74
2
42
0.0000001000
43
0.0000001000
44
0.0000000001
12
0.0062060132
22
0.0126797933
32
0.0000000000
13
0.0067371981
23
0.0123975637
33
0.0000000000
40
0.0000000000
40
0.0000000000
40
0.0000000000
40
0.0000000000
40
1.0000000000
40
1.0000000000
40
1.0000000000
40
1.0000000000
10
-4.7142519608
20
-4.1015314075
30
0.0000000000
10
-4.7121832897
20
-4.0973048097
30
0.0000000000
10
-4.7100271972
20
-4.0931222597
30
0.0000000000
10
-4.7077814645
20
-4.0889897385
30
0.0000000000
11
-4.7142519608
21
-4.1015314075
31
0.0000000000
11
-4.7077814645
21
-4.0889897385
31
0.0000000000
0
SPLINE
5
261
100
AcDbEntity
8
0
100
AcDbSpline
62
9
6
CONTINUOUS
70
0
71
3
72
10
73
6
74
4
42
0.0000001000
43
0.0000001000
44
0.0000000001
12
-0.0368619869
22
-0.0662413573
32
0.0000000000
13
0.0410641443
23
-0.0631980994
33
0.0000000000
40
0.0000000000
40
0.0000000000
40
0.0000000000
40
0.0000000000
40
0.0617813766
40
0.5962776404
40
1.0000000000
40
1.0000000000
40
1.0000000000
40
1.0000000000
10
-4.7248905996
20
-4.0042157688
30
0.0000000000
10
-4.7256497277
20
-4.0055799295
30
0.0000000000
10
-4.7323829170
20
-4.0190388032
30
0.0000000000
10
-4.7331875965
20
-4.0457835895
30
0.0000000000
10
-4.7231979795
20
-4.0674882305
30
0.0000000000
10
-4.7176718085
20
-4.0759930591
30
0.0000000000
11
-4.7248905996
21
-4.0042157688
31
0.0000000000
11
-4.7269778704
21
-4.0083956392
31
0.0000000000
11
-4.7298056764
21
-4.0481815950
31
0.0000000000
11
-4.7176718085
21
-4.0759930591
31
0.0000000000
0
SPLINE
5
262
100
AcDbEntity
8
0
100
AcDbSpline
62
9
6
CONTINUOUS
70
0
71
3
72
8
73
4
74
2
42
0.0000001000
43
0.0000001000
44
0.0000000001
12
0.0089391025
22
-0.0137573618
32
0.0000000000
13
0.0107221397
23
-0.0122034629
33
0.0000000000
40
0.0000000000
40
0.0000000000
40
0.0000000000
40
0.0000000000
40
1.0000000000
40
1.0000000000
40
1.0000000000
40
1.0000000000
10
-4.7176718085
20
-4.0759930591
30
0.0000000000
10
-4.7146921076
20
-4.0805788464
30
0.0000000000
10
-4.7113555110
20
-4.0849219175
30
0.0000000000
10
-4.7077814645
20
-4.0889897384
30
0.0000000000
11
-4.7176718085
21
-4.0759930591
31
0.0000000000
11
-4.7077814645
21
-4.0889897384
31
0.0000000000
0
SPLINE
5
263
100
AcDbEntity
8
0
100
AcDbSpline
62
9
6
CONTINUOUS
70
0
71
3
72
9
73
5
74
3
42
0.0000001000
43
0.0000001000
44
0.0000000001
12
0.0295306212
22
0.0542753761
32
0.0000000000
13
0.0402893188
23
0.0468945765
33
0.0000000000
40
0.0000000000
40
0.0000000000
40
0.0000000000
40
0.0000000000
40
0.4899447588
40
1.0000000000
40
1.0000000000
40
1.0000000000
40
1.0000000000
10
-4.7077814645
20
-4.0889897385
30
0.0000000000
10
-4.7029586735
20
-4.0801257598
30
0.0000000000
10
-4.6922603614
20
-4.0624809619
30
0.0000000000
10
-4.6797598856
20
-4.0460587815
30
0.0000000000
10
-4.6729099595
20
-4.0380858400
30
0.0000000000
11
-4.7077814645
21
-4.0889897385
31
0.0000000000
11
-4.6920429076
21
-4.0631292916
31
0.0000000000
11
-4.6729099595
21
-4.0380858400
31
0.0000000000
0
SPLINE
5
264
100
AcDbEntity
8
0
100
AcDbSpline
62
9
6
CONTINUOUS
70
0
71
3
72
10
73
6
74
4
42
0.0000001000
43
0.0000001000
44
0.0000000001
12
0.0611651896
22
0.0711929550
32
0.0000000000
13
0.0834801463
23
0.0430228265
33
0.0000000000
40
0.0000000000
40
0.0000000000
40
0.0000000000
40
0.0000000000
40
0.3539097721
40
0.7314565716
40
1.0000000000
40
1.0000000000
40
1.0000000000
40
1.0000000000
10
-4.6729099595
20
-4.0380858400
30
0.0000000000
10
-4.6656943067
20
-4.0296872125
30
0.0000000000
10
-4.6496940357
20
-4.0132538954
30
0.0000000000
10
-4.6248909626
20
-3.9940268840
30
0.0000000000
10
-4.6074136750
20
-3.9837900613
30
0.0000000000
10
-4.5999409934
20
-3.9799388955
30
0.0000000000
11
-4.6729099595
21
-4.0380858400
31
0.0000000000
11
-4.6497096115
21
-4.0143396684
31
0.0000000000
11
-4.6216914362
21
-3.9926773832
31
0.0000000000
11
-4.5999409934
21
-3.9799388955
31
0.0000000000
0
SPLINE
5
265
100
AcDbEntity
8
0
100
AcDbSpline
62
9
6
CONTINUOUS
70
0
71
3
72
13
73
9
74
7
42
0.0000001000
43
0.0000001000
44
0.0000000001
12
0.2653318930
22
0.1367430281
32
0.0000000000
13
0.2666615105
23
-0.1333554871
33
0.0000000000
40
0.0000000000
40
0.0000000000
40
0.0000000000
40
0.0000000000
40
0.0441359586
40
0.1859380275
40
0.3454062897
40
0.5285421890
40
0.7433370376
40
1.0000000000
40
1.0000000000
40
1.0000000000
40
1.0000000000
10
-4.5999409934
20
-3.9799388955
30
0.0000000000
10
-4.5960374342
20
-3.9779271340
30
0.0000000000
10
-4.5793528151
20
-3.9699159894
30
0.0000000000
10
-4.5466841849
20
-3.9587889660
30
0.0000000000
10
-4.4987727846
20
-3.9518072706
30
0.0000000000
10
-4.4431105819
20
-3.9540856439
30
0.0000000000
10
-4.3793237243
20
-3.9684064699
30
0.0000000000
10
-4.3357782035
20
-3.9863719701
30
0.0000000000
10
-4.3129641591
20
-3.9977811082
30
0.0000000000
11
-4.5999409934
21
-3.9799388955
31
0.0000000000
11
-4.5880658135
21
-3.9742378235
31
0.0000000000
11
-4.5480662476
21
-3.9605461981
31
0.0000000000
11
-4.5010429444
21
-3.9535216000
31
0.0000000000
11
-4.4464756614
21
-3.9554556236
31
0.0000000000
11
-4.3839008266
21
-3.9690786570
31
0.0000000000
11
-4.3129641591
21
-3.9977811082
31
0.0000000000
0
SPLINE
5
266
100
AcDbEntity
8
0
100
AcDbSpline
62
9
6
CONTINUOUS
70
0
71
3
72
9
73
5
74
3
42
0.0000001000
43
0.0000001000
44
0.0000000001
12
0.0047450047
22
-0.0297339355
32
0.0000000000
13
0.0299658197
23
-0.0043226435
33
0.0000000000
40
0.0000000000
40
0.0000000000
40
0.0000000000
40
0.0000000000
40
0.1622612387
40
1.0000000000
40
1.0000000000
40
1.0000000000
40
1.0000000000
10
-4.5516311524
20
-9.0557072434
30
0.0000000000
10
-4.5513745090
20
-9.0573154651
30
0.0000000000
10
-4.5483811640
20
-9.0665991158
30
0.0000000000
10
-4.5352492913
20
-9.0690668306
30
0.0000000000
10
-4.5268814484
20
-9.0702739126
30
0.0000000000
11
-4.5516311524
21
-9.0557072434
31
0.0000000000
11
-4.5501361669
21
-9.0601487636
31
0.0000000000
11
-4.5268814484
21
-9.0702739126
31
0.0000000000
0
SPLINE
5
267
100
AcDbEntity
8
0
100
AcDbSpline
62
9
6
CONTINUOUS
70
0
71
3
72
10
73
6
74
4
42
0.0000001000
43
0.0000001000
44
0.0000000001
12
-0.1312228253
22
-0.0670139461
32
0.0000000000
13
0.0022211224
23
-0.1473274091
33
0.0000000000
40
0.0000000000
40
0.0000000000
40
0.0000000000
40
0.0000000000
40
0.3146267170
40
0.6671980400
40
1.0000000000
40
1.0000000000
40
1.0000000000
40
1.0000000000
10
-4.2428824113
20
-3.8745541600
30
0.0000000000
10
-4.2566444803
20
-3.8815822860
30
0.0000000000
10
-4.2817510193
20
-3.9043481140
30
0.0000000000
10
-4.3060712007
20
-3.9476008745
30
0.0000000000
10
-4.3132105571
20
-3.9814374914
30
0.0000000000
10
-4.3129641591
20
-3.9977811082
30
0.0000000000
11
-4.2428824113
21
-3.8745541600
31
0.0000000000
11
-4.2783484643
21
-3.9044081537
31
0.0000000000
11
-4.3040303205
21
-3.9495653719
31
0.0000000000
11
-4.3129641591
21
-3.9977811082
31
0.0000000000
0
SPLINE
5
268
100
AcDbEntity
8
0
100
AcDbSpline
62
9
6
CONTINUOUS
70
0
71
3
72
9
73
5
74
3
42
0.0000001000
43
0.0000001000
44
0.0000000001
12
-0.0495751927
22
0.0256818681
32
0.0000000000
13
-0.0041454494
23
0.0543758117
33
0.0000000000
40
0.0000000000
40
0.0000000000
40
0.0000000000
40
0.0000000000
40
0.3415325363
40
1.0000000000
40
1.0000000000
40
1.0000000000
40
1.0000000000
10
-4.0382967659
20
-9.7139151281
30
0.0000000000
10
-4.0439406131
20
-9.7109913969
30
0.0000000000
10
-4.0587043094
20
-9.6986229619
30
0.0000000000
10
-4.0632157371
20
-9.6796182731
30
0.0000000000
10
-4.0641256183
20
-9.6676833721
30
0.0000000000
11
-4.0382967659
21
-9.7139151281
31
0.0000000000
11
-4.0528293079
21
-9.7017688686
31
0.0000000000
11
-4.0641256183
21
-9.6676833721
31
0.0000000000
0
SPLINE
5
269
100
AcDbEntity
8
0
100
AcDbSpline
62
9
6
CONTINUOUS
70
0
71
3
72
9
73
5
74
3
42
0.0000001000
43
0.0000001000
44
0.0000000001
12
-0.0495762056
22
0.0256811741
32
0.0000000000
13
-0.0041454790
23
0.0543761381
33
0.0000000000
40
0.0000000000
40
0.0000000000
40
0.0000000000
40
0.0000000000
40
0.3414697545
40
1.0000000000
40
1.0000000000
40
1.0000000000
40
1.0000000000
10
4.1569083711
20
-13.8115176382
30
0.0000000000
10
4.1512654462
20
-13.8085945235
30
0.0000000000
10
4.1365010981
20
-13.7962271092
30
0.0000000000
10
4.1319891416
20
-13.7772218753
30
0.0000000000
10
4.1310791671
20
-13.7652857648
30
0.0000000000
11
4.1569083711
21
-13.8115176382
31
0.0000000000
11
4.1423777348
21
-13.7993743473
31
0.0000000000
11
4.1310791671
21
-13.7652857648
31
0.0000000000
0
SPLINE
5
26A
100
AcDbEntity
8
0
100
AcDbSpline
62
9
6
CONTINUOUS
70
0
71
3
72
16
73
12
74
10
42
0.0000001000
43
0.0000001000
44
0.0000000001
12
0.6709109633
22
-0.3354403796
32
0.0000000000
13
0.2612022089
23
-0.7031466241
33
0.0000000000
40
0.0000000000
40
0.0000000000
40
0.0000000000
40
0.0000000000
40
0.1401809426
40
0.2750392327
40
0.4036197036
40
0.5246242372
40
0.6369644416
40
0.7402138018
40
0.8346077522
40
0.9208611081
40
1.0000000000
40
1.0000000000
40
1.0000000000
40
1.0000000000
10
3.9523223741
20
-7.9721565528
30
0.0000000000
10
3.9836720178
20
-7.9878306690
30
0.0000000000
10
4.0425886463
20
-8.0239311348
30
0.0000000000
10
4.1210448386
20
-8.0877314919
30
0.0000000000
10
4.1888549543
20
-8.1560804030
30
0.0000000000
10
4.2466744540
20
-8.2258232972
30
0.0000000000
10
4.2953006353
20
-8.2946017586
30
0.0000000000
10
4.3356956840
20
-8.3608095128
30
0.0000000000
10
4.3689493288
20
-8.4235664143
30
0.0000000000
10
4.3961596253
20
-8.4825790966
30
0.0000000000
10
4.4115368044
20
-8.5209884150
30
0.0000000000
10
4.4184272222
20
-8.5395371633
30
0.0000000000
11
3.9523223741
21
-7.9721565528
31
0.0000000000
11
4.0423120111
21
-8.0265455955
31
0.0000000000
11
4.1210227412
21
-8.0900849604
31
0.0000000000
11
4.1890896487
21
-8.1584151683
31
0.0000000000
11
4.2470991959
21
-8.2282231038
31
0.0000000000
11
4.2957855198
21
-8.2970007302
31
0.0000000000
11
4.3361387311
21
-8.3631038447
31
0.0000000000
11
4.3692916493
21
-8.4256669709
31
0.0000000000
11
4.3963754962
21
-8.4844234024
31
0.0000000000
11
4.4184272222
21
-8.5395371633
31
0.0000000000
0
SPLINE
5
26B
100
AcDbEntity
8
0
100
AcDbSpline
62
9
6
CONTINUOUS
70
0
71
3
72
16
73
12
74
10
42
0.0000001000
43
0.0000001000
44
0.0000000001
12
0.5804073143
22
-0.2901757345
32
0.0000000000
13
0.2270370519
23
-0.6078887928
33
0.0000000000
40
0.0000000000
40
0.0000000000
40
0.0000000000
40
0.0000000000
40
0.1398805733
40
0.2747888256
40
0.4034238841
40
0.5244833871
40
0.6368730333
40
0.7401621739
40
0.8345843433
40
0.9208544876
40
1.0000000000
40
1.0000000000
40
1.0000000000
40
1.0000000000
10
3.8822406263
20
-8.0953835010
30
0.0000000000
10
3.9093031956
20
-8.1089134837
30
0.0000000000
10
3.9602338364
20
-8.1400972222
30
0.0000000000
10
4.0281095510
20
-8.1952179577
30
0.0000000000
10
4.0868505344
20
-8.2543157283
30
0.0000000000
10
4.1369569459
20
-8.3146220024
30
0.0000000000
10
4.1791157378
20
-8.3740942403
30
0.0000000000
10
4.2141541250
20
-8.4313430455
30
0.0000000000
10
4.2430125402
20
-8.4856060720
30
0.0000000000
10
4.2666395785
20
-8.5366293592
30
0.0000000000
10
4.2800013356
20
-8.5698387425
30
0.0000000000
10
4.2859909902
20
-8.5858759658
30
0.0000000000
11
3.8822406263
21
-8.0953835010
31
0.0000000000
11
3.9599381273
21
-8.1423098917
31
0.0000000000
11
4.0280933705
21
-8.1972509535
31
0.0000000000
11
4.0870567191
21
-8.2563342498
31
0.0000000000
11
4.1373289344
21
-8.3166975048
31
0.0000000000
11
4.1795401697
21
-8.3761700793
31
0.0000000000
11
4.2145425007
21
-8.4333289193
31
0.0000000000
11
4.2433134585
21
-8.4874245942
31
0.0000000000
11
4.2668306037
21
-8.5382262434
31
0.0000000000
11
4.2859909902
21
-8.5858759658
31
0.0000000000
0
SPLINE
5
26C
100
AcDbEntity
8
0
100
AcDbSpline
62
9
6
CONTINUOUS
70
0
71
3
72
10
73
6
74
4
42
0.0000001000
43
0.0000001000
44
0.0000000001
12
-0.1312228253
22
-0.0670139432
32
0.0000000000
13
0.0022211263
23
-0.1473274077
33
0.0000000000
40
0.0000000000
40
0.0000000000
40
0.0000000000
40
0.0000000000
40
0.3146340233
40
0.6672068885
40
1.0000000000
40
1.0000000000
40
1.0000000000
40
1.0000000000
10
3.9523223741
20
-7.9721565528
30
0.0000000000
10
3.9385599856
20
-7.9791848416
30
0.0000000000
10
3.9134532061
20
-8.0019511331
30
0.0000000000
10
3.8891333265
20
-8.0452040660
30
0.0000000000
10
3.8819942345
20
-8.0790403188
30
0.0000000000
10
3.8822406263
20
-8.0953835010
30
0.0000000000
11
3.9523223741
21
-7.9721565528
31
0.0000000000
11
3.9168556286
21
-8.0020113949
31
0.0000000000
11
3.8911740040
21
-8.0471690056
31
0.0000000000
11
3.8822406263
21
-8.0953835010
31
0.0000000000
0
SPLINE
5
26D
100
AcDbEntity
8
0
100
AcDbSpline
62
9
6
CONTINUOUS
70
0
71
3
72
8
73
4
74
2
42
0.0000001000
43
0.0000001000
44
0.0000000001
12
0.0081839704
22
-0.0220308786
32
0.0000000000
13
0.0077439532
23
-0.0221925228
33
0.0000000000
40
0.0000000000
40
0.0000000000
40
0.0000000000
40
0.0000000000
40
1.0000000000
40
1.0000000000
40
1.0000000000
40
1.0000000000
10
4.4184272222
20
-8.5395371633
30
0.0000000000
10
4.4211552123
20
-8.5468807895
30
0.0000000000
10
4.4238107246
20
-8.5542520047
30
0.0000000000
10
4.4263920423
20
-8.5616495123
30
0.0000000000
11
4.4184272222
21
-8.5395371633
31
0.0000000000
11
4.4263920423
21
-8.5616495123
31
0.0000000000
0
SPLINE
5
26E
100
AcDbEntity
8
0
100
AcDbSpline
62
9
6
CONTINUOUS
70
0
71
3
72
9
73
5
74
3
42
0.0000001000
43
0.0000001000
44
0.0000000001
12
0.0379922698
22
-0.1088777649
32
0.0000000000
13
0.0265957482
23
-0.1121921531
33
0.0000000000
40
0.0000000000
40
0.0000000000
40
0.0000000000
40
0.0000000000
40
0.4041712963
40
1.0000000000
40
1.0000000000
40
1.0000000000
40
1.0000000000
10
4.4263920423
20
-8.5616495123
30
0.0000000000
10
4.4315105040
20
-8.5763179348
30
0.0000000000
10
4.4434528180
20
-8.6128662994
30
0.0000000000
10
4.4535273842
20
-8.6499856197
30
0.0000000000
10
4.4588095542
20
-8.6722680547
30
0.0000000000
11
4.4263920423
21
-8.5616495123
31
0.0000000000
11
4.4408588801
21
-8.6059548027
31
0.0000000000
11
4.4588095542
21
-8.6722680547
31
0.0000000000
0
SPLINE
5
26F
100
AcDbEntity
8
0
100
AcDbSpline
62
9
6
CONTINUOUS
70
0
71
3
72
9
73
5
74
3
42
0.0000001000
43
0.0000001000
44
0.0000000001
12
0.0420011593
22
-0.1125374692
32
0.0000000000
13
0.0279294504
23
-0.1168277585
33
0.0000000000
40
0.0000000000
40
0.0000000000
40
0.0000000000
40
0.0000000000
40
0.5066327967
40
1.0000000000
40
1.0000000000
40
1.0000000000
40
1.0000000000
10
4.2859909902
20
-8.5858759658
30
0.0000000000
10
4.2930840451
20
-8.6048810234
30
0.0000000000
10
4.3059812045
20
-8.6428155009
30
0.0000000000
10
4.3165428896
20
-8.6814676403
30
0.0000000000
10
4.3211360479
20
-8.7006806352
30
0.0000000000
11
4.2859909902
21
-8.5858759658
31
0.0000000000
11
4.3055528309
21
-8.6435029314
31
0.0000000000
11
4.3211360479
21
-8.7006806352
31
0.0000000000
0
SPLINE
5
270
100
AcDbEntity
8
0
100
AcDbSpline
62
9
6
CONTINUOUS
70
0
71
3
72
10
73
6
74
4
42
0.0000001000
43
0.0000001000
44
0.0000000001
12
-0.1246729317
22
-0.0652475761
32
0.0000000000
13
-0.1391321000
23
-0.0210438787
33
0.0000000000
40
0.0000000000
40
0.0000000000
40
0.0000000000
40
0.0000000000
40
0.3402905182
40
0.7052739548
40
1.0000000000
40
1.0000000000
40
1.0000000000
40
1.0000000000
10
4.4184279631
20
-8.5395370511
30
0.0000000000
10
4.4042862909
20
-8.5469380949
30
0.0000000000
10
4.3739471436
20
-8.5603191343
30
0.0000000000
10
4.3296991182
20
-8.5758655223
30
0.0000000000
10
4.2996596197
20
-8.5838085667
30
0.0000000000
10
4.2859910018
20
-8.5858759597
30
0.0000000000
11
4.4184279631
21
-8.5395370511
31
0.0000000000
11
4.3748073402
21
-8.5592880595
31
0.0000000000
11
4.3263306070
21
-8.5762497814
31
0.0000000000
11
4.2859910018
21
-8.5858759597
31
0.0000000000
0
SPLINE
5
271
100
AcDbEntity
8
0
100
AcDbSpline
62
7
6
CONTINUOUS
70
0
71
3
72
8
73
4
74
2
42
0.0000001000
43
0.0000001000
44
0.0000000001
12
0.0044830123
22
-0.0188139028
32
0.0000000000
13
0.0044610336
23
-0.0188194446
33
0.0000000000
40
0.0000000000
40
0.0000000000
40
0.0000000000
40
0.0000000000
40
1.0000000000
40
1.0000000000
40
1.0000000000
40
1.0000000000
10
4.5067756689
20
-8.7138803791
30
0.0000000000
10
4.5082700063
20
-8.7201516800
30
0.0000000000
10
4.5097606847
20
-8.7264239067
30
0.0000000000
10
4.5112476959
20
-8.7326970549
30
0.0000000000
11
4.5067756689
21
-8.7138803791
31
0.0000000000
11
4.5112476959
21
-8.7326970549
31
0.0000000000
0
SPLINE
5
272
100
AcDbEntity
8
0
100
AcDbSpline
62
7
6
CONTINUOUS
70
0
71
3
72
11
73
7
74
5
42
0.0000001000
43
0.0000001000
44
0.0000000001
12
1.1599184955
22
-4.8932655490
32
0.0000000000
13
-1.0615356113
23
-4.9154719920
33
0.0000000000
40
0.0000000000
40
0.0000000000
40
0.0000000000
40
0.0000000000
40
0.2647199275
40
0.5349016865
40
0.7848317851
40
1.0000000000
40
1.0000000000
40
1.0000000000
40
1.0000000000
10
4.5112476959
20
-8.7326970549
30
0.0000000000
10
4.6135988759
20
-9.1644786886
30
0.0000000000
10
4.7853072187
20
-10.0457726707
30
0.0000000000
10
4.9172511649
20
-11.3568788864
30
0.0000000000
10
4.9068074269
20
-12.5918284006
30
0.0000000000
10
4.8018175796
20
-13.3673983644
30
0.0000000000
10
4.7256813388
20
-13.7199494757
30
0.0000000000
11
4.5112476959
21
-8.7326970549
31
0.0000000000
11
4.7635238192
21
-10.0397838758
31
0.0000000000
11
4.8950668675
21
-11.3919745018
31
0.0000000000
11
4.8779037084
21
-12.6485983601
31
0.0000000000
11
4.7256813388
21
-13.7199494757
31
0.0000000000
0
SPLINE
5
273
100
AcDbEntity
8
0
100
AcDbSpline
62
7
6
CONTINUOUS
70
0
71
3
72
8
73
4
74
2
42
0.0000001000
43
0.0000001000
44
0.0000000001
12
0.0048740342
22
-0.0191525570
32
0.0000000000
13
0.0045806324
23
-0.0192248467
33
0.0000000000
40
0.0000000000
40
0.0000000000
40
0.0000000000
40
0.0000000000
40
1.0000000000
40
1.0000000000
40
1.0000000000
40
1.0000000000
10
4.5020430921
20
-8.6946766329
30
0.0000000000
10
4.5036677702
20
-8.7010608185
30
0.0000000000
10
4.5052440762
20
-8.7074572791
30
0.0000000000
10
4.5067709537
20
-8.7138655613
30
0.0000000000
11
4.5020430921
21
-8.6946766329
31
0.0000000000
11
4.5067709537
21
-8.7138655613
31
0.0000000000
0
SPLINE
5
274
100
AcDbEntity
8
0
100
AcDbSpline
62
7
6
CONTINUOUS
70
0
71
3
72
8
73
4
74
2
42
0.0000001000
43
0.0000001000
44
0.0000000001
12
0.0524758905
22
-0.0262213806
32
0.0000000000
13
0.0503060361
23
-0.0304534884
33
0.0000000000
40
0.0000000000
40
0.0000000000
40
0.0000000000
40
0.0000000000
40
1.0000000000
40
1.0000000000
40
1.0000000000
40
1.0000000000
10
3.9043143371
20
-7.8762166895
30
0.0000000000
10
3.9218063006
20
-7.8849571497
30
0.0000000000
10
3.9389432387
20
-7.8944694289
30
0.0000000000
10
3.9557119174
20
-7.9046205917
30
0.0000000000
11
3.9043143371
21
-7.8762166895
31
0.0000000000
11
3.9557119174
21
-7.9046205917
31
0.0000000000
0
SPLINE
5
275
100
AcDbEntity
8
0
100
AcDbSpline
62
7
6
CONTINUOUS
70
0
71
3
72
8
73
4
74
2
42
0.0000001000
43
0.0000001000
44
0.0000000001
12
0.0598144744
22
-0.0362095594
32
0.0000000000
13
0.0566239784
23
-0.0409585084
33
0.0000000000
40
0.0000000000
40
0.0000000000
40
0.0000000000
40
0.0000000000
40
1.0000000000
40
1.0000000000
40
1.0000000000
40
1.0000000000
10
3.9557119174
20
-7.9046205917
30
0.0000000000
10
3.9756500755
20
-7.9166904448
30
0.0000000000
10
3.9950676072
20
-7.9296635192
30
0.0000000000
10
4.0139422667
20
-7.9433163553
30
0.0000000000
11
3.9557119174
21
-7.9046205917
31
0.0000000000
11
4.0139422667
21
-7.9433163553
31
0.0000000000
0
SPLINE
5
276
100
AcDbEntity
8
0
100
AcDbSpline
62
7
6
CONTINUOUS
70
0
71
3
72
11
73
7
74
5
42
0.0000001000
43
0.0000001000
44
0.0000000001
12
0.6746974026
22
-0.4880370467
32
0.0000000000
13
0.2542922423
23
-0.7911150977
33
0.0000000000
40
0.0000000000
40
0.0000000000
40
0.0000000000
40
0.0000000000
40
0.2787440197
40
0.5841816990
40
0.8973336769
40
1.0000000000
40
1.0000000000
40
1.0000000000
40
1.0000000000
10
4.0139422667
20
-7.9433163553
30
0.0000000000
10
4.0766315554
20
-7.9886621581
30
0.0000000000
10
4.1954627993
20
-8.0994117372
30
0.0000000000
10
4.3429570653
20
-8.3005747939
30
0.0000000000
10
4.4319298947
20
-8.4799838563
30
0.0000000000
10
4.4705985148
20
-8.5885684330
30
0.0000000000
10
4.4793009313
20
-8.6156420590
30
0.0000000000
11
4.0139422667
21
-7.9433163553
31
0.0000000000
11
4.1848397368
21
-8.0989527837
31
0.0000000000
11
4.3355039805
21
-8.3025504202
31
0.0000000000
11
4.4507341182
21
-8.5352630105
31
0.0000000000
11
4.4793009313
21
-8.6156420590
31
0.0000000000
0
SPLINE
5
277
100
AcDbEntity
8
0
100
AcDbSpline
62
7
6
CONTINUOUS
70
0
71
3
72
8
73
4
74
2
42
0.0000001000
43
0.0000001000
44
0.0000000001
12
0.0251755725
22
-0.0783223873
32
0.0000000000
13
0.0202588779
23
-0.0796597883
33
0.0000000000
40
0.0000000000
40
0.0000000000
40
0.0000000000
40
0.0000000000
40
1.0000000000
40
1.0000000000
40
1.0000000000
40
1.0000000000
10
4.4793009313
20
-8.6156420590
30
0.0000000000
10
4.4876927888
20
-8.6417495215
30
0.0000000000
10
4.4952989373
20
-8.6681023746
30
0.0000000000
10
4.5020518966
20
-8.6946556374
30
0.0000000000
11
4.4793009313
21
-8.6156420590
31
0.0000000000
11
4.5020518966
21
-8.6946556374
31
0.0000000000
0
SPLINE
5
278
100
AcDbEntity
8
0
100
AcDbSpline
62
7
6
CONTINUOUS
70
0
71
3
72
10
73
6
74
4
42
0.0000001000
43
0.0000001000
44
0.0000000001
12
0.1815286488
22
0.0889545296
32
0.0000000000
13
0.1982416369
23
-0.0406694265
33
0.0000000000
40
0.0000000000
40
0.0000000000
40
0.0000000000
40
0.0000000000
40
0.0157015123
40
0.5707592326
40
1.0000000000
40
1.0000000000
40
1.0000000000
40
1.0000000000
10
-4.6243821761
20
-3.7490707924
30
0.0000000000
10
-4.6234320847
20
-3.7486052188
30
0.0000000000
10
-4.5887835226
20
-3.7319142528
30
0.0000000000
10
-4.5210315615
20
-3.7176950582
30
0.0000000000
10
-4.4547627939
20
-3.7245136955
30
0.0000000000
10
-4.4263983298
20
-3.7303326875
30
0.0000000000
11
-4.6243821761
21
-3.7490707924
31
0.0000000000
11
-4.6215226864
21
-3.7476933759
31
0.0000000000
11
-4.5126405793
21
-3.7225250074
31
0.0000000000
11
-4.4263983298
21
-3.7303326875
31
0.0000000000
0
SPLINE
5
279
100
AcDbEntity
8
0
100
AcDbSpline
62
7
6
CONTINUOUS
70
0
71
3
72
9
73
5
74
3
42
0.0000001000
43
0.0000001000
44
0.0000000001
12
0.0973600226
22
-0.0199734846
32
0.0000000000
13
0.0916043039
23
-0.0380263839
33
0.0000000000
40
0.0000000000
40
0.0000000000
40
0.0000000000
40
0.0000000000
40
0.4830893257
40
1.0000000000
40
1.0000000000
40
1.0000000000
40
1.0000000000
10
-4.4263983298
20
-3.7303326875
30
0.0000000000
10
-4.4107204672
20
-3.7335490132
30
0.0000000000
10
-4.3786051803
20
-3.7420063358
30
0.0000000000
10
-4.3475187460
20
-3.7533833686
30
0.0000000000
10
-4.3317349984
20
-3.7599354499
30
0.0000000000
11
-4.4263983298
21
-3.7303326875
31
0.0000000000
11
-4.3799314714
21
-3.7424016860
31
0.0000000000
11
-4.3317349984
21
-3.7599354499
31
0.0000000000
0
SPLINE
5
27A
100
AcDbEntity
8
0
100
AcDbSpline
62
7
6
CONTINUOUS
70
0
71
3
72
8
73
4
74
2
42
0.0000001000
43
0.0000001000
44
0.0000000001
12
0.0413219815
22
-0.0171534029
32
0.0000000000
13
0.0399985378
23
-0.0200029453
33
0.0000000000
40
0.0000000000
40
0.0000000000
40
0.0000000000
40
0.0000000000
40
1.0000000000
40
1.0000000000
40
1.0000000000
40
1.0000000000
10
-4.3317349984
20
-3.7599354499
30
0.0000000000
10
-4.3179610046
20
-3.7656532509
30
0.0000000000
10
-4.3044041766
20
-3.7718821838
30
0.0000000000
10
-4.2910713307
20
-3.7785498322
30
0.0000000000
11
-4.3317349984
21
-3.7599354499
31
0.0000000000
11
-4.2910713307
21
-3.7785498322
31
0.0000000000
0
SPLINE
5
27B
100
AcDbEntity
8
0
100
AcDbSpline
62
7
6
CONTINUOUS
70
0
71
3
72
9
73
5
74
3
42
0.0000001000
43
0.0000001000
44
0.0000000001
12
-0.0211126177
22
-0.0975526125
32
0.0000000000
13
-0.0441743047
23
-0.0899366257
33
0.0000000000
40
0.0000000000
40
0.0000000000
40
0.0000000000
40
0.0000000000
40
0.6170183418
40
1.0000000000
40
1.0000000000
40
1.0000000000
40
1.0000000000
10
4.7256578214
20
-13.7201201109
30
0.0000000000
10
4.7213155306
20
-13.7401840279
30
0.0000000000
10
4.7122715430
20
-13.7722852649
30
0.0000000000
10
4.6993026466
20
-13.8031693355
30
0.0000000000
10
4.6936633304
20
-13.8146506949
30
0.0000000000
11
4.7256578214
21
-13.7201201109
31
0.0000000000
11
4.7086606597
21
-13.7793347426
31
0.0000000000
11
4.6936633304
21
-13.8146506949
31
0.0000000000
0
SPLINE
5
27C
100
AcDbEntity
8
0
100
AcDbSpline
62
7
6
CONTINUOUS
70
0
71
3
72
9
73
5
74
3
42
0.0000001000
43
0.0000001000
44
0.0000000001
12
-0.0462527219
22
-0.0941681769
32
0.0000000000
13
-0.0807008440
23
-0.0680490195
33
0.0000000000
40
0.0000000000
40
0.0000000000
40
0.0000000000
40
0.0000000000
40
0.6809365862
40
1.0000000000
40
1.0000000000
40
1.0000000000
40
1.0000000000
10
4.6936633304
20
-13.8146506949
30
0.0000000000
10
4.6831649402
20
-13.8360248805
30
0.0000000000
10
4.6643247624
20
-13.8656498358
30
0.0000000000
10
4.6391115849
20
-13.8903438980
30
0.0000000000
10
4.6305286893
20
-13.8975812155
30
0.0000000000
11
4.6936633304
21
-13.8146506949
31
0.0000000000
11
4.6545520092
21
-13.8740839823
31
0.0000000000
11
4.6305286893
21
-13.8975812155
31
0.0000000000
0
SPLINE
5
27D
100
AcDbEntity
8
0
100
AcDbSpline
62
7
6
CONTINUOUS
70
0
71
3
72
8
73
4
74
2
42
0.0000001000
43
0.0000001000
44
0.0000000001
12
-0.0374643355
22
-0.0315908877
32
0.0000000000
13
-0.0432808193
23
-0.0221497231
33
0.0000000000
40
0.0000000000
40
0.0000000000
40
0.0000000000
40
0.0000000000
40
1.0000000000
40
1.0000000000
40
1.0000000000
40
1.0000000000
10
4.6305286893
20
-13.8975812155
30
0.0000000000
10
4.6180405775
20
-13.9081115114
30
0.0000000000
10
4.6044128859
20
-13.9172834094
30
0.0000000000
10
4.5899859461
20
-13.9246666504
30
0.0000000000
11
4.6305286893
21
-13.8975812155
31
0.0000000000
11
4.5899859461
21
-13.9246666504
31
0.0000000000
0
SPLINE
5
27E
100
AcDbEntity
8
0
100
AcDbSpline
62
7
6
CONTINUOUS
70
0
71
3
72
11
73
7
74
5
42
0.0000001000
43
0.0000001000
44
0.0000000001
12
0.5967235587
22
-0.2987838350
32
0.0000000000
13
0.6108448267
23
0.2705099424
33
0.0000000000
40
0.0000000000
40
0.0000000000
40
0.0000000000
40
0.0000000000
40
0.2251162040
40
0.5140337091
40
0.8171736476
40
1.0000000000
40
1.0000000000
40
1.0000000000
40
1.0000000000
10
8.0792907086
20
-20.1644588801
30
0.0000000000
10
8.1240680894
20
-20.1868792410
30
0.0000000000
10
8.2321674045
20
-20.2271823174
30
0.0000000000
10
8.4146104831
20
-20.2478775476
30
0.0000000000
10
8.5866073658
20
-20.2214747951
30
0.0000000000
10
8.6886059990
20
-20.1843209957
30
0.0000000000
10
8.7258321761
20
-20.1678355471
30
0.0000000000
11
8.0792907086
21
-20.1644588801
31
0.0000000000
11
8.2200284160
21
-20.2169469050
31
0.0000000000
11
8.4112523972
21
-20.2391428428
31
0.0000000000
11
8.6110291422
21
-20.2093614290
31
0.0000000000
11
8.7258321761
21
-20.1678355471
31
0.0000000000
0
SPLINE
5
27F
100
AcDbEntity
8
0
100
AcDbSpline
62
7
6
CONTINUOUS
70
0
71
3
72
11
73
7
74
5
42
0.0000001000
43
0.0000001000
44
0.0000000001
12
0.2107777979
22
0.1178606348
32
0.0000000000
13
0.2150399456
23
-0.1075199728
33
0.0000000000
40
0.0000000000
40
0.0000000000
40
0.0000000000
40
0.0000000000
40
0.1579985556
40
0.4151871067
40
0.6932458252
40
1.0000000000
40
1.0000000000
40
1.0000000000
40
1.0000000000
10
-3.6881231505
20
26.8408395525
30
0.0000000000
10
-3.6770222880
20
26.8470468225
30
0.0000000000
10
-3.6462062255
20
26.8604376324
30
0.0000000000
10
-3.5903518930
20
26.8685272956
30
0.0000000000
10
-3.5228156640
20
26.8589900270
30
0.0000000000
10
-3.4788071876
20
26.8417444223
30
0.0000000000
10
-3.4568190539
20
26.8307503555
30
0.0000000000
11
-3.6881231505
21
26.8408395525
31
0.0000000000
11
-3.6531866847
21
26.8560009235
31
0.0000000000
11
-3.5920778942
21
26.8654418869
31
0.0000000000
11
-3.5257726454
21
26.8569138792
31
0.0000000000
11
-3.4568190539
21
26.8307503555
31
0.0000000000
0
SPLINE
5
280
100
AcDbEntity
8
0
100
AcDbSpline
62
7
6
CONTINUOUS
70
0
71
3
72
12
73
8
74
6
42
0.0000001000
43
0.0000001000
44
0.0000000001
12
-0.9882058706
22
-0.5535946795
32
0.0000000000
13
-0.1261262720
23
-1.1246943308
33
0.0000000000
40
0.0000000000
40
0.0000000000
40
0.0000000000
40
0.0000000000
40
0.1389169823
40
0.3737912870
40
0.6106052147
40
0.8466355062
40
1.0000000000
40
1.0000000000
40
1.0000000000
40
1.0000000000
10
-6.4233209001
20
25.3096064453
30
0.0000000000
10
-6.4690804259
20
25.2839718779
30
0.0000000000
10
-6.5865425236
20
25.2042531951
30
0.0000000000
10
-6.7479488596
20
25.0378491797
30
0.0000000000
10
-6.8899405383
20
24.8101409238
30
0.0000000000
10
-6.9735658822
20
24.5881404244
30
0.0000000000
10
-7.0010325179
20
24.4431618823
30
0.0000000000
10
-7.0074802818
20
24.3856658234
30
0.0000000000
11
-6.4233209001
21
25.3096064453
31
0.0000000000
11
-6.5538118319
21
25.2216590067
31
0.0000000000
11
-6.7399855377
21
25.0326205046
31
0.0000000000
11
-6.8821405905
21
24.8060027030
31
0.0000000000
11
-6.9755911240
21
24.5562871676
31
0.0000000000
11
-7.0074802818
21
24.3856658234
31
0.0000000000
0
SPLINE
5
281
100
AcDbEntity
8
0
100
AcDbSpline
62
7
6
CONTINUOUS
70
0
71
3
72
10
73
6
74
4
42
0.0000001000
43
0.0000001000
44
0.0000000001
12
-1.1663603880
22
-10.3907614348
32
0.0000000000
13
-0.1567223193
23
-10.4548458680
33
0.0000000000
40
0.0000000000
40
0.0000000000
40
0.0000000000
40
0.0000000000
40
0.3362764831
40
0.6749348216
40
1.0000000000
40
1.0000000000
40
1.0000000000
40
1.0000000000
10
-7.0074676821
20
24.3858409226
30
0.0000000000
10
-7.1382075385
20
23.2211180185
30
0.0000000000
10
-7.3651677975
20
20.8792639460
30
0.0000000000
10
-7.5908465042
20
17.4006913977
30
0.0000000000
10
-7.6646980917
20
15.0880622331
30
0.0000000000
10
-7.6816797480
20
13.9552267873
30
0.0000000000
11
-7.0074676821
21
24.3858409226
31
0.0000000000
11
-7.3458378646
21
20.8860499579
31
0.0000000000
11
-7.5741444615
21
17.3524124097
31
0.0000000000
11
-7.6816797480
21
13.9552267873
31
0.0000000000
0
SPLINE
5
282
100
AcDbEntity
8
0
100
AcDbSpline
62
7
6
CONTINUOUS
70
0
71
3
72
10
73
6
74
4
42
0.0000001000
43
0.0000001000
44
0.0000000001
12
-0.2466228037
22
-16.4518468386
32
0.0000000000
13
0.2505803086
23
-16.4517873086
33
0.0000000000
40
0.0000000000
40
0.0000000000
40
0.0000000000
40
0.0000000000
40
0.3336885166
40
0.6702485027
40
1.0000000000
40
1.0000000000
40
1.0000000000
40
1.0000000000
10
-7.6816797410
20
13.9552269368
30
0.0000000000
10
-7.7091114735
20
12.1252961478
30
0.0000000000
10
-7.7461137374
20
8.4493886489
30
0.0000000000
10
-7.7462283542
20
2.9647396756
30
0.0000000000
10
-7.7092210014
20
-0.6895765862
30
0.0000000000
10
-7.6816779241
20
-2.4979104189
30
0.0000000000
11
-7.6816797410
21
13.9552269368
31
0.0000000000
11
-7.7368027806
21
8.4650947199
31
0.0000000000
11
-7.7367677717
21
2.9274404516
31
0.0000000000
11
-7.6816779241
21
-2.4979104189
31
0.0000000000
0
SPLINE
5
283
100
AcDbEntity
8
0
100
AcDbSpline
62
7
6
CONTINUOUS
70
0
71
3
72
8
73
4
74
2
42
0.0000001000
43
0.0000001000
44
0.0000000001
12
0.0027467643
22
-0.1803389251
32
0.0000000000
13
0.0030872442
23
-0.1803353096
33
0.0000000000
40
0.0000000000
40
0.0000000000
40
0.0000000000
40
0.0000000000
40
1.0000000000
40
1.0000000000
40
1.0000000000
40
1.0000000000
10
-7.6816779153
20
-2.4979102331
30
0.0000000000
10
-7.6807623272
20
-2.5580232081
30
0.0000000000
10
-7.6797900804
20
-2.6181356510
30
0.0000000000
10
-7.6787609990
20
-2.6782474209
30
0.0000000000
11
-7.6816779153
21
-2.4979102331
31
0.0000000000
11
-7.6787609990
21
-2.6782474209
31
0.0000000000
0
SPLINE
5
284
100
AcDbEntity
8
0
100
AcDbSpline
62
7
6
CONTINUOUS
70
0
71
3
72
10
73
6
74
4
42
0.0000001000
43
0.0000001000
44
0.0000000001
12
0.1639504745
22
-9.5768451497
32
0.0000000000
13
1.2096201216
23
-9.5014620296
33
0.0000000000
40
0.0000000000
40
0.0000000000
40
0.0000000000
40
0.0000000000
40
0.3250993149
40
0.6700941408
40
1.0000000000
40
1.0000000000
40
1.0000000000
40
1.0000000000
10
-7.6787609990
20
-2.6782474209
30
0.0000000000
10
-7.6609942701
20
-3.7160560199
30
0.0000000000
10
-7.5894556216
20
-5.8547718063
30
0.0000000000
10
-7.3695498787
20
-9.0405692543
30
0.0000000000
10
-7.1396052006
20
-11.1836696423
30
0.0000000000
10
-7.0065849454
20
-12.2285323072
30
0.0000000000
11
-7.6787609990
21
-2.6782474209
31
0.0000000000
11
-7.5737337691
21
-5.7903466105
31
0.0000000000
11
-7.3449276072
21
-9.0868114370
31
0.0000000000
11
-7.0065849454
21
-12.2285323072
31
0.0000000000
0
SPLINE
5
285
100
AcDbEntity
8
0
100
AcDbSpline
62
7
6
CONTINUOUS
70
0
71
3
72
9
73
5
74
3
42
0.0000001000
43
0.0000001000
44
0.0000000001
12
0.0372528949
22
-0.2910421893
32
0.0000000000
13
0.1347040909
23
-0.2614812879
33
0.0000000000
40
0.0000000000
40
0.0000000000
40
0.0000000000
40
0.0000000000
40
0.7209836231
40
1.0000000000
40
1.0000000000
40
1.0000000000
40
1.0000000000
10
-7.0065273484
20
-12.2288417118
30
0.0000000000
10
-6.9975744394
20
-12.2987872625
30
0.0000000000
10
-6.9742478458
20
-12.3948102953
30
0.0000000000
10
-6.9339705567
20
-12.4843833199
30
0.0000000000
10
-6.9214423409
20
-12.5087025071
30
0.0000000000
11
-7.0065273484
21
-12.2288417118
31
0.0000000000
11
-6.9551269893
21
-12.4338965043
31
0.0000000000
11
-6.9214423409
21
-12.5087025071
31
0.0000000000
0
SPLINE
5
286
100
AcDbEntity
8
0
100
AcDbSpline
62
7
6
CONTINUOUS
70
0
71
3
72
10
73
6
74
4
42
0.0000001000
43
0.0000001000
44
0.0000000001
12
0.2046963776
22
-0.3973470448
32
0.0000000000
13
0.4005946894
23
-0.1993385425
33
0.0000000000
40
0.0000000000
40
0.0000000000
40
0.0000000000
40
0.0000000000
40
0.3590596577
40
0.8746732892
40
1.0000000000
40
1.0000000000
40
1.0000000000
40
1.0000000000
10
-6.9214423409
20
-12.5087025071
30
0.0000000000
10
-6.8969429372
20
-12.5562596051
30
0.0000000000
10
-6.8252431740
20
-12.6658383763
30
0.0000000000
10
-6.7112892978
20
-12.7649766483
30
0.0000000000
10
-6.6274521618
20
-12.8110930018
30
0.0000000000
10
-6.6107170902
20
-12.8194204831
30
0.0000000000
11
-6.9214423409
21
-12.5087025071
31
0.0000000000
11
-6.8333625606
21
-12.6423721973
31
0.0000000000
11
-6.6598255557
21
-12.7923919710
31
0.0000000000
11
-6.6107170902
21
-12.8194204831
31
0.0000000000
0
SPLINE
5
287
100
AcDbEntity
8
0
100
AcDbSpline
62
7
6
CONTINUOUS
70
0
71
3
72
12
73
8
74
6
42
0.0000001000
43
0.0000001000
44
0.0000000001
12
0.0000000000
22
-0.3236722686
32
0.0000000000
13
-0.2971401765
23
-0.1319095818
33
0.0000000000
40
0.0000000000
40
0.0000000000
40
0.0000000000
40
0.0000000000
40
0.2513050331
40
0.4797469515
40
0.6867787260
40
0.8781009599
40
1.0000000000
40
1.0000000000
40
1.0000000000
40
1.0000000000
10
11.7460978955
20
-18.6161666473
30
0.0000000000
10
11.7460978955
20
-18.6432801373
30
0.0000000000
10
11.7421603904
20
-18.6951893420
30
0.0000000000
10
11.7226326085
20
-18.7672054183
30
0.0000000000
10
11.6900621474
20
-18.8273199386
30
0.0000000000
10
11.6499832857
20
-18.8678636112
30
0.0000000000
10
11.6203843051
20
-18.8848774222
30
0.0000000000
10
11.6083106043
20
-18.8902373060
30
0.0000000000
11
11.7460978955
21
-18.6161666473
31
0.0000000000
11
11.7393101231
21
-18.6972234066
31
0.0000000000
11
11.7192041332
21
-18.7683775997
31
0.0000000000
11
11.6865479288
21
-18.8268923153
31
0.0000000000
11
11.6425945123
21
-18.8705144390
31
0.0000000000
11
11.6083106043
21
-18.8902373060
31
0.0000000000
0
SPLINE
5
288
100
AcDbEntity
8
0
100
AcDbSpline
62
7
6
CONTINUOUS
70
0
71
3
72
15
73
11
74
9
42
0.0000001000
43
0.0000001000
44
0.0000000001
12
0.6579429531
22
-0.3289714766
32
0.0000000000
13
-0.0000000000
23
-0.7356025842
33
0.0000000000
40
0.0000000000
40
0.0000000000
40
0.0000000000
40
0.0000000000
40
0.1103200625
40
0.2298775055
40
0.3567611471
40
0.4883322613
40
0.6215380540
40
0.7531889652
40
0.8802256897
40
1.0000000000
40
1.0000000000
40
1.0000000000
40
1.0000000000
10
11.3926656589
20
19.4060079991
30
0.0000000000
10
11.4168604281
20
19.3939106145
30
0.0000000000
10
11.4648175485
20
19.3636376772
30
0.0000000000
10
11.5306796919
20
19.3056290793
30
0.0000000000
10
11.5913246850
20
19.2351723866
30
0.0000000000
10
11.6444824156
20
19.1549060872
30
0.0000000000
10
11.6881871523
20
19.0678240978
30
0.0000000000
10
11.7208015730
20
18.9771762348
30
0.0000000000
10
11.7411060618
20
18.8863760319
30
0.0000000000
10
11.7460978955
20
18.8257963256
30
0.0000000000
10
11.7460978955
20
18.7964275615
30
0.0000000000
11
11.3926656589
21
19.4060079991
31
0.0000000000
11
11.4616193222
21
19.3632178779
31
0.0000000000
11
11.5279247136
21
19.3054404742
31
0.0000000000
11
11.5890336184
21
19.2348905029
31
0.0000000000
11
11.6425948405
21
19.1542781705
31
0.0000000000
11
11.6865481484
21
19.0667026838
31
0.0000000000
11
11.7192042220
21
18.9755319693
31
0.0000000000
11
11.7393101374
21
18.8842719982
31
0.0000000000
11
11.7460978955
21
18.7964275615
31
0.0000000000
0
SPLINE
5
289
100
AcDbEntity
8
0
100
AcDbSpline
62
9
6
CONTINUOUS
70
0
71
3
72
10
73
6
74
4
42
0.0000001000
43
0.0000001000
44
0.0000000001
12
-0.0357105678
22
-0.2273668318
32
0.0000000000
13
0.2083098254
23
-0.1030546872
33
0.0000000000
40
0.0000000000
40
0.0000000000
40
0.0000000000
40
0.0000000000
40
0.0552592053
40
0.4382806125
40
1.0000000000
40
1.0000000000
40
1.0000000000
40
1.0000000000
10
-7.0069422246
20
24.3855816835
30
0.0000000000
10
-7.0076000038
20
24.3813936467
30
0.0000000000
10
-7.0101540362
20
24.3480971660
30
0.0000000000
10
-6.9618962832
20
24.2752209992
30
0.0000000000
10
-6.8992123941
20
24.2388021439
30
0.0000000000
10
-6.8602085050
20
24.2195062053
30
0.0000000000
11
-7.0069422246
21
24.3855816835
31
0.0000000000
11
-7.0078672168
21
24.3730190468
31
0.0000000000
11
-6.9677103108
21
24.2935743583
31
0.0000000000
11
-6.8602085050
21
24.2195062053
31
0.0000000000
0
SPLINE
5
28A
100
AcDbEntity
8
0
100
AcDbSpline
62
9
6
CONTINUOUS
70
0
71
3
72
10
73
6
74
4
42
0.0000001000
43
0.0000001000
44
0.0000000001
12
0.2131137101
22
0.1207424696
32
0.0000000000
13
0.2192819301
23
-0.1038697963
33
0.0000000000
40
0.0000000000
40
0.0000000000
40
0.0000000000
40
0.0000000000
40
0.1069224343
40
0.5214811942
40
1.0000000000
40
1.0000000000
40
1.0000000000
40
1.0000000000
10
-6.4232661737
20
25.3095101143
30
0.0000000000
10
-6.4156706281
20
25.3138134739
30
0.0000000000
10
-6.3772674719
20
25.3322550154
30
0.0000000000
10
-6.2936609214
20
25.3407284722
30
0.0000000000
10
-6.2233489446
20
25.3181305721
30
0.0000000000
10
-6.1883721022
20
25.3015626885
30
0.0000000000
11
-6.4232661737
21
25.3095101143
31
0.0000000000
11
-6.3997041243
21
25.3207863198
31
0.0000000000
11
-6.2999468212
21
25.3336866755
31
0.0000000000
11
-6.1883721022
21
25.3015626885
31
0.0000000000
0
SPLINE
5
28B
100
AcDbEntity
8
0
100
AcDbSpline
62
9
6
CONTINUOUS
70
0
71
3
72
10
73
6
74
4
42
0.0000001000
43
0.0000001000
44
0.0000000001
12
-0.0060326401
22
-0.2366123839
32
0.0000000000
13
0.2131278932
23
-0.1064320867
33
0.0000000000
40
0.0000000000
40
0.0000000000
40
0.0000000000
40
0.0000000000
40
0.0211424384
40
0.4414816999
40
1.0000000000
40
1.0000000000
40
1.0000000000
40
1.0000000000
10
-7.6816404958
20
13.9552257868
30
0.0000000000
10
-7.6816830107
20
13.9535582658
30
0.0000000000
10
-7.6817555317
20
13.9187456411
30
0.0000000000
10
-7.6421186791
20
13.8411706506
30
0.0000000000
10
-7.5749040705
20
13.7990297061
30
0.0000000000
10
-7.5352254610
20
13.7792149500
30
0.0000000000
11
-7.6816404958
21
13.9552257868
31
0.0000000000
11
-7.6816496579
21
13.9502252267
31
0.0000000000
11
-7.6423557923
21
13.8581214873
31
0.0000000000
11
-7.5352254610
21
13.7792149500
31
0.0000000000
0
SPLINE
5
28C
100
AcDbEntity
8
0
100
AcDbSpline
62
9
6
CONTINUOUS
70
0
71
3
72
10
73
6
74
4
42
0.0000001000
43
0.0000001000
44
0.0000000001
12
0.0030280972
22
-0.2376780920
32
0.0000000000
13
0.2134562256
23
-0.1068561399
33
0.0000000000
40
0.0000000000
40
0.0000000000
40
0.0000000000
40
0.0000000000
40
0.0057999161
40
0.4391800737
40
1.0000000000
40
1.0000000000
40
1.0000000000
40
1.0000000000
10
-7.6816754859
20
-2.4979103878
30
0.0000000000
10
-7.6816696317
20
-2.4983698921
30
0.0000000000
10
-7.6810187231
20
-2.5331599386
30
0.0000000000
10
-7.6434558734
20
-2.6113972475
30
0.0000000000
10
-7.5751289809
20
-2.6552920465
30
0.0000000000
10
-7.5352254794
20
-2.6752677306
30
0.0000000000
11
-7.6816754859
21
-2.4979103878
31
0.0000000000
11
-7.6816496760
21
-2.4992887084
31
0.0000000000
11
-7.6423558129
21
-2.5949872959
31
0.0000000000
11
-7.5352254794
21
-2.6752677306
31
0.0000000000
0
SPLINE
5
28D
100
AcDbEntity
8
0
100
AcDbSpline
62
9
6
CONTINUOUS
70
0
71
3
72
11
73
7
74
5
42
0.0000001000
43
0.0000001000
44
0.0000000001
12
-0.3428086731
22
-0.1747667742
32
0.0000000000
13
-0.3421579515
23
0.1710968796
33
0.0000000000
40
0.0000000000
40
0.0000000000
40
0.0000000000
40
0.0000000000
40
0.0424538775
40
0.3406159922
40
0.6634083395
40
1.0000000000
40
1.0000000000
40
1.0000000000
40
1.0000000000
10
4.5899636832
20
-13.9247196874
30
0.0000000000
10
4.5851124974
20
-13.9271928632
30
0.0000000000
10
4.5456007941
20
-13.9458360930
30
0.0000000000
10
4.4604344269
20
-13.9624726674
30
0.0000000000
10
4.3380172376
20
-13.9447094704
30
0.0000000000
10
4.2593504578
20
-13.9133171787
30
0.0000000000
10
4.2209612868
20
-13.8941205844
30
0.0000000000
11
4.5899636832
21
-13.9247196874
31
0.0000000000
11
4.5751976483
21
-13.9316832690
31
0.0000000000
11
4.4636725902
21
-13.9556088573
31
0.0000000000
11
4.3411310829
21
-13.9403737924
31
0.0000000000
11
4.2209612868
21
-13.8941205844
31
0.0000000000
0
SPLINE
5
28E
100
AcDbEntity
8
0
100
AcDbSpline
62
9
6
CONTINUOUS
70
0
71
3
72
9
73
5
74
3
42
0.0000001000
43
0.0000001000
44
0.0000000001
12
0.0329110219
22
-0.2342111959
32
0.0000000000
13
0.2098584174
23
-0.1057953596
33
0.0000000000
40
0.0000000000
40
0.0000000000
40
0.0000000000
40
0.0000000000
40
0.4174210817
40
1.0000000000
40
1.0000000000
40
1.0000000000
40
1.0000000000
10
-7.0063994984
20
-12.2288235260
30
0.0000000000
10
-7.0018202469
20
-12.2614117563
30
0.0000000000
10
-6.9678537149
20
-12.3373100083
30
0.0000000000
10
-6.9009805731
20
-12.3839159189
30
0.0000000000
10
-6.8602275431
20
-12.4044606343
30
0.0000000000
11
-7.0063994984
21
-12.2288235260
31
0.0000000000
11
-6.9677298944
21
-12.3196709091
31
0.0000000000
11
-6.8602275431
21
-12.4044606343
31
0.0000000000
0
SPLINE
5
28F
100
AcDbEntity
8
0
100
AcDbSpline
62
9
6
CONTINUOUS
70
0
71
3
72
9
73
5
74
3
42
0.0000001000
43
0.0000001000
44
0.0000000001
12
-0.0234846133
22
0.0116862752
32
0.0000000000
13
-0.0225509323
23
0.0133662306
33
0.0000000000
40
0.0000000000
40
0.0000000000
40
0.0000000000
40
0.0000000000
40
0.9066848723
40
1.0000000000
40
1.0000000000
40
1.0000000000
40
1.0000000000
10
-6.6114477091
20
-12.8190621594
30
0.0000000000
10
-6.6185454236
20
-12.8155302364
30
0.0000000000
10
-6.6262432807
20
-12.8113797218
30
0.0000000000
10
-6.6337757633
20
-12.8069501603
30
0.0000000000
10
-6.6344772110
20
-12.8065344031
30
0.0000000000
11
-6.6114477091
21
-12.8190621594
31
0.0000000000
11
-6.6323685341
21
-12.8077744206
31
0.0000000000
11
-6.6344772110
21
-12.8065344031
31
0.0000000000
0
SPLINE
5
290
100
AcDbEntity
8
0
100
AcDbSpline
62
9
6
CONTINUOUS
70
0
71
3
72
10
73
6
74
4
42
0.0000001000
43
0.0000001000
44
0.0000000001
12
-0.4109858503
22
0.2435966536
32
0.0000000000
13
-0.0608448878
23
0.4716040864
33
0.0000000000
40
0.0000000000
40
0.0000000000
40
0.0000000000
40
0.0000000000
40
0.2963899082
40
0.6270594819
40
1.0000000000
40
1.0000000000
40
1.0000000000
40
1.0000000000
10
-6.6344772110
20
-12.8065344031
30
0.0000000000
10
-6.6750812305
20
-12.7824678732
30
0.0000000000
10
-6.7507284131
20
-12.7144518717
30
0.0000000000
10
-6.8273026932
20
-12.5729226442
30
0.0000000000
10
-6.8526637204
20
-12.4630874044
30
0.0000000000
10
-6.8602275617
20
-12.4044606470
30
0.0000000000
11
-6.6344772110
21
-12.8065344031
31
0.0000000000
11
-6.7404199460
21
-12.7135384859
31
0.0000000000
11
-6.8177673655
21
-12.5766405157
31
0.0000000000
11
-6.8602275617
21
-12.4044606470
31
0.0000000000
0
SPLINE
5
291
100
AcDbEntity
8
0
100
AcDbSpline
62
7
6
CONTINUOUS
70
0
71
3
72
8
73
4
74
2
42
0.0000001000
43
0.0000001000
44
0.0000000001
12
-0.0368724088
22
0.0002188547
32
0.0000000000
13
-0.0366884068
23
0.0035350442
33
0.0000000000
40
0.0000000000
40
0.0000000000
40
0.0000000000
40
0.0000000000
40
1.0000000000
40
1.0000000000
40
1.0000000000
40
1.0000000000
10
4.6841494002
20
-13.8313831414
30
0.0000000000
10
4.6718585973
20
-13.8313101898
30
0.0000000000
10
4.6595696336
20
-13.8306604501
30
0.0000000000
10
4.6473401647
20
-13.8294821020
30
0.0000000000
11
4.6841494002
21
-13.8313831414
31
0.0000000000
11
4.6473401647
21
-13.8294821020
31
0.0000000000
0
SPLINE
5
292
100
AcDbEntity
8
0
100
AcDbSpline
62
7
6
CONTINUOUS
70
0
71
3
72
8
73
4
74
2
42
0.0000001000
43
0.0000001000
44
0.0000000001
12
-0.0621349851
22
0.0059869026
32
0.0000000000
13
-0.0607412578
23
0.0143520296
33
0.0000000000
40
0.0000000000
40
0.0000000000
40
0.0000000000
40
0.0000000000
40
1.0000000000
40
1.0000000000
40
1.0000000000
40
1.0000000000
10
4.6473401647
20
-13.8294821020
30
0.0000000000
10
4.6266285030
20
-13.8274864678
30
0.0000000000
10
4.6060874862
20
-13.8239746609
30
0.0000000000
10
4.5858404002
20
-13.8191906511
30
0.0000000000
11
4.6473401647
21
-13.8294821020
31
0.0000000000
11
4.5858404002
21
-13.8191906511
31
0.0000000000
0
SPLINE
5
293
100
AcDbEntity
8
0
100
AcDbSpline
62
7
6
CONTINUOUS
70
0
71
3
72
8
73
4
74
2
42
0.0000001000
43
0.0000001000
44
0.0000000001
12
-0.0191702032
22
0.0045295625
32
0.0000000000
13
-0.0189829125
23
0.0052668691
33
0.0000000000
40
0.0000000000
40
0.0000000000
40
0.0000000000
40
0.0000000000
40
1.0000000000
40
1.0000000000
40
1.0000000000
40
1.0000000000
10
4.5858404002
20
-13.8191906511
30
0.0000000000
10
4.5794503325
20
-13.8176807969
30
0.0000000000
10
4.5730895420
20
-13.8160442236
30
0.0000000000
10
4.5667619045
20
-13.8142886005
30
0.0000000000
11
4.5858404002
21
-13.8191906511
31
0.0000000000
11
4.5667619045
21
-13.8142886005
31
0.0000000000
0
SPLINE
5
294
100
AcDbEntity
8
0
100
AcDbSpline
62
9
6
CONTINUOUS
70
0
71
3
72
8
73
4
74
2
42
0.0000001000
43
0.0000001000
44
0.0000000001
12
-0.0242751700
22
0.1906533332
32
0.0000000000
13
-0.0238179477
23
0.1907132880
33
0.0000000000
40
0.0000000000
40
0.0000000000
40
0.0000000000
40
0.0000000000
40
1.0000000000
40
1.0000000000
40
1.0000000000
40
1.0000000000
10
-6.8602275617
20
-12.4044606470
30
0.0000000000
10
-6.8683192850
20
-12.3409095359
30
0.0000000000
10
-6.8763346760
20
-12.2773483134
30
0.0000000000
10
-6.8842739919
20
-12.2137772174
30
0.0000000000
11
-6.8602275617
21
-12.4044606470
31
0.0000000000
11
-6.8842739919
21
-12.2137772174
31
0.0000000000
0
SPLINE
5
295
100
AcDbEntity
8
0
100
AcDbSpline
62
9
6
CONTINUOUS
70
0
71
3
72
10
73
6
74
4
42
0.0000001000
43
0.0000001000
44
0.0000000001
12
-1.1853499510
22
9.4912453815
32
0.0000000000
13
-0.1456909803
23
9.5637544449
33
0.0000000000
40
0.0000000000
40
0.0000000000
40
0.0000000000
40
0.0000000000
40
0.3131110704
40
0.6531988399
40
1.0000000000
40
1.0000000000
40
1.0000000000
40
1.0000000000
10
-6.8842739919
20
-12.2137772174
30
0.0000000000
10
-7.0079893892
20
-11.2231725504
30
0.0000000000
10
-7.2275427882
20
-9.1516142584
30
0.0000000000
10
-7.4470756045
20
-5.9702360855
30
0.0000000000
10
-7.5183835461
20
-3.7808414429
30
0.0000000000
10
-7.5352254797
20
-2.6752677308
30
0.0000000000
11
-6.8842739919
21
-12.2137772174
31
0.0000000000
11
-7.2009767669
21
-9.2356714854
31
0.0000000000
11
-7.4261166533
21
-5.9905787594
31
0.0000000000
11
-7.5352254797
21
-2.6752677308
31
0.0000000000
0
SPLINE
5
296
100
AcDbEntity
8
0
100
AcDbSpline
62
9
6
CONTINUOUS
70
0
71
3
72
10
73
6
74
4
42
0.0000001000
43
0.0000001000
44
0.0000000001
12
-0.2506073715
22
16.4531307016
32
0.0000000000
13
0.2466495689
23
16.4531905091
33
0.0000000000
40
0.0000000000
40
0.0000000000
40
0.0000000000
40
0.0000000000
40
0.3315680814
40
0.6648943800
40
1.0000000000
40
1.0000000000
40
1.0000000000
40
1.0000000000
10
-7.5352254797
20
-2.6752677308
30
0.0000000000
10
-7.5629232815
20
-0.8568234041
30
0.0000000000
10
-7.5997530346
20
2.7900206355
30
0.0000000000
10
-7.5996064434
20
8.2751171256
30
0.0000000000
10
-7.5627766987
20
11.9413627391
30
0.0000000000
10
-7.5352254797
20
13.7792149411
30
0.0000000000
11
-7.5352254797
21
-2.6752677308
31
0.0000000000
11
-7.5904725983
21
2.7804183118
31
0.0000000000
11
-7.5904725883
21
8.2653156104
31
0.0000000000
11
-7.5352254797
21
13.7792149411
31
0.0000000000
0
SPLINE
5
297
100
AcDbEntity
8
0
100
AcDbSpline
62
9
6
CONTINUOUS
70
0
71
3
72
10
73
6
74
4
42
0.0000001000
43
0.0000001000
44
0.0000000001
12
0.1568948186
22
10.4645327919
32
0.0000000000
13
1.1676210419
23
10.4003713222
33
0.0000000000
40
0.0000000000
40
0.0000000000
40
0.0000000000
40
0.0000000000
40
0.3279270530
40
0.6613532977
40
1.0000000000
40
1.0000000000
40
1.0000000000
40
1.0000000000
10
-7.5352254797
20
13.7792149411
30
0.0000000000
10
-7.5180754613
20
14.9230827409
30
0.0000000000
10
-7.4440517029
20
17.2295855505
30
0.0000000000
10
-7.2180370219
20
20.7113691511
30
0.0000000000
10
-6.9920312335
20
23.0454830306
30
0.0000000000
10
-6.8602275617
20
24.2195001809
30
0.0000000000
11
-7.5352254797
21
13.7792149411
31
0.0000000000
11
-7.4261166546
21
17.2094691976
31
0.0000000000
11
-7.2009767671
21
20.6917407966
31
0.0000000000
11
-6.8602275617
21
24.2195001809
31
0.0000000000
0
SPLINE
5
298
100
AcDbEntity
8
0
100
AcDbSpline
62
9
6
CONTINUOUS
70
0
71
3
72
12
73
8
74
6
42
0.0000001000
43
0.0000001000
44
0.0000000001
12
0.1268287519
22
1.1138195034
32
0.0000000000
13
0.8594811948
23
0.7233830820
33
0.0000000000
40
0.0000000000
40
0.0000000000
40
0.0000000000
40
0.0000000000
40
0.1961650084
40
0.4010731600
40
0.6079109374
40
0.8096859299
40
1.0000000000
40
1.0000000000
40
1.0000000000
40
1.0000000000
10
-6.8602275617
20
24.2195001809
30
0.0000000000
10
-6.8519344406
20
24.2923309850
30
0.0000000000
10
-6.8221747221
20
24.4399611234
30
0.0000000000
10
-6.7450323864
20
24.6543705783
30
0.0000000000
10
-6.6379683197
20
24.8579357237
30
0.0000000000
10
-6.5064909397
20
25.0400535870
30
0.0000000000
10
-6.4032376819
20
25.1448260793
30
0.0000000000
10
-6.3487138938
20
25.1907160722
30
0.0000000000
11
-6.8602275617
21
24.2195001809
31
0.0000000000
11
-6.8177674653
21
24.4352663904
31
0.0000000000
11
-6.7404222543
21
24.6515586871
31
0.0000000000
11
-6.6323718476
21
24.8567127763
31
0.0000000000
11
-6.4994249328
21
25.0397113897
31
0.0000000000
11
-6.3487138938
21
25.1907160722
31
0.0000000000
0
SPLINE
5
299
100
AcDbEntity
8
0
100
AcDbSpline
62
9
6
CONTINUOUS
70
0
71
3
72
8
73
4
74
2
42
0.0000001000
43
0.0000001000
44
0.0000000001
12
0.1494499280
22
0.1257846596
32
0.0000000000
13
0.1710907066
23
0.0934046711
33
0.0000000000
40
0.0000000000
40
0.0000000000
40
0.0000000000
40
0.0000000000
40
1.0000000000
40
1.0000000000
40
1.0000000000
40
1.0000000000
10
-6.3487138938
20
25.1907160722
30
0.0000000000
10
-6.2988972511
20
25.2326442921
30
0.0000000000
10
-6.2454023377
20
25.2704277981
30
0.0000000000
10
-6.1883721022
20
25.3015626885
30
0.0000000000
11
-6.3487138938
21
25.1907160722
31
0.0000000000
11
-6.1883721022
21
25.3015626885
31
0.0000000000
0
SPLINE
5
29A
100
AcDbEntity
8
0
100
AcDbSpline
62
9
6
CONTINUOUS
70
0
71
3
72
10
73
6
74
4
42
0.0000001000
43
0.0000001000
44
0.0000000001
12
-0.0070490930
22
-0.3248459076
32
0.0000000000
13
-0.2983745550
23
-0.1336116649
33
0.0000000000
40
0.0000000000
40
0.0000000000
40
0.0000000000
40
0.0000000000
40
0.3932222941
40
0.7288944881
40
1.0000000000
40
1.0000000000
40
1.0000000000
40
1.0000000000
10
8.8676415821
20
-19.8919836611
30
0.0000000000
10
8.8667176286
20
-19.9345625455
30
0.0000000000
10
8.8560214049
20
-20.0139025623
30
0.0000000000
10
8.8069463062
20
-20.1135407443
30
0.0000000000
10
8.7530239495
20
-20.1556564024
30
0.0000000000
10
8.7260602873
20
-20.1677306887
30
0.0000000000
11
8.8676415821
21
-19.8919836611
31
0.0000000000
11
8.8478793403
21
-20.0182127764
31
0.0000000000
11
8.7963885656
21
-20.1143605777
31
0.0000000000
11
8.7260602873
21
-20.1677306887
31
0.0000000000
0
SPLINE
5
29B
100
AcDbEntity
8
0
100
AcDbSpline
62
9
6
CONTINUOUS
70
0
71
3
72
11
73
7
74
5
42
0.0000001000
43
0.0000001000
44
0.0000000001
12
0.0665205504
22
-0.5030692870
32
0.0000000000
13
0.4561892992
23
-0.2280841830
33
0.0000000000
40
0.0000000000
40
0.0000000000
40
0.0000000000
40
0.0000000000
40
0.3510842405
40
0.6647032133
40
0.9533604175
40
1.0000000000
40
1.0000000000
40
1.0000000000
40
1.0000000000
10
7.8245273291
20
-19.7468380924
30
0.0000000000
10
7.8323121014
20
-19.8057113252
30
0.0000000000
10
7.8585301688
20
-19.9163415079
30
0.0000000000
10
7.9378078503
20
-20.0596118962
30
0.0000000000
10
8.0220857192
20
-20.1338530684
30
0.0000000000
10
8.0722642497
20
-20.1609249572
30
0.0000000000
10
8.0793564092
20
-20.1644708742
30
0.0000000000
11
7.8245273291
21
-19.7468380924
31
0.0000000000
11
7.8681138595
21
-19.9195811281
31
0.0000000000
11
7.9475131615
21
-20.0575050396
31
0.0000000000
11
8.0584329606
21
-20.1531751680
31
0.0000000000
11
8.0793564092
21
-20.1644708742
31
0.0000000000
0
SPLINE
5
29C
100
AcDbEntity
8
0
100
AcDbSpline
62
9
6
CONTINUOUS
70
0
71
3
72
11
73
7
74
5
42
0.0000001000
43
0.0000001000
44
0.0000000001
12
-0.6038452848
22
-0.3947086566
32
0.0000000000
13
-0.6463077945
23
0.3204844557
33
0.0000000000
40
0.0000000000
40
0.0000000000
40
0.0000000000
40
0.0000000000
40
0.2454987283
40
0.5105062131
40
0.7698053477
40
1.0000000000
40
1.0000000000
40
1.0000000000
40
1.0000000000
10
8.5183439347
20
-19.6891084566
30
0.0000000000
10
8.4689295181
20
-19.7214086144
30
0.0000000000
10
8.3553482136
20
-19.7723139395
30
0.0000000000
10
8.1723099259
20
-19.8079703082
30
0.0000000000
10
7.9895736514
20
-19.8036392754
30
0.0000000000
10
7.8741342411
20
-19.7714192971
30
0.0000000000
10
7.8245420418
20
-19.7468280278
30
0.0000000000
11
8.5183439347
21
-19.6891084566
31
0.0000000000
11
8.3578841965
21
-19.7640646783
31
0.0000000000
11
8.1703602456
21
-19.8012616055
31
0.0000000000
11
7.9833983672
21
-19.7952193361
31
0.0000000000
11
7.8245420418
21
-19.7468280278
31
0.0000000000
0
SPLINE
5
29D
100
AcDbEntity
8
0
100
AcDbSpline
62
9
6
CONTINUOUS
70
0
71
3
72
13
73
9
74
7
42
0.0000001000
43
0.0000001000
44
0.0000000001
12
0.0640117877
22
-0.4779045307
32
0.0000000000
13
0.4408267172
23
0.1953511064
33
0.0000000000
40
0.0000000000
40
0.0000000000
40
0.0000000000
40
0.0000000000
40
0.1843708180
40
0.3508342902
40
0.5048272016
40
0.6573273741
40
0.8201138640
40
1.0000000000
40
1.0000000000
40
1.0000000000
40
1.0000000000
10
8.5183439348
20
-19.6891084567
30
0.0000000000
10
8.5222779033
20
-19.7184790064
30
0.0000000000
10
8.5355569475
20
-19.7739347829
30
0.0000000000
10
8.5757085671
20
-19.8458869468
30
0.0000000000
10
8.6342245457
20
-19.8971021016
30
0.0000000000
10
8.7071727564
20
-19.9224488870
30
0.0000000000
10
8.7881014558
20
-19.9207117321
30
0.0000000000
10
8.8412087105
20
-19.9036973130
30
0.0000000000
10
8.8676415821
20
-19.8919836611
30
0.0000000000
11
8.5183439348
21
-19.6891084567
31
0.0000000000
11
8.5402736753
21
-19.7752596853
31
0.0000000000
11
8.5805214213
21
-19.8447035051
31
0.0000000000
11
8.6368637218
21
-19.8930644020
31
0.0000000000
11
8.7061629937
21
-19.9176504654
31
0.0000000000
11
8.7846528770
21
-19.9172033342
31
0.0000000000
11
8.8676415821
21
-19.8919836611
31
0.0000000000
0
SPLINE
5
29E
100
AcDbEntity
8
0
100
AcDbSpline
62
9
6
CONTINUOUS
70
0
71
3
72
10
73
6
74
4
42
0.0000001000
43
0.0000001000
44
0.0000000001
12
0.1559909293
22
-9.7225650360
32
0.0000000000
13
1.2885811315
23
-9.6380580366
33
0.0000000000
40
0.0000000000
40
0.0000000000
40
0.0000000000
40
0.0000000000
40
0.3395518528
40
0.6729309046
40
1.0000000000
40
1.0000000000
40
1.0000000000
40
1.0000000000
10
7.8111018617
20
-9.9959695406
30
0.0000000000
10
7.8287575314
20
-11.0964078647
30
0.0000000000
10
7.9035612800
20
-13.2768895915
30
0.0000000000
10
8.1383003025
20
-16.5103865625
30
0.0000000000
10
8.3778589131
20
-18.6383381489
30
0.0000000000
10
8.5183439348
20
-19.6891084567
30
0.0000000000
11
7.8111018617
21
-9.9959695406
31
0.0000000000
11
7.9254204643
21
-13.2957297301
31
0.0000000000
11
8.1613186202
21
-16.5288519079
31
0.0000000000
11
8.5183439348
21
-19.6891084567
31
0.0000000000
0
SPLINE
5
29F
100
AcDbEntity
8
0
100
AcDbSpline
62
9
6
CONTINUOUS
70
0
71
3
72
10
73
6
74
4
42
0.0000001000
43
0.0000001000
44
0.0000000001
12
0.1568371738
22
-9.7768225114
32
0.0000000000
13
1.2956056859
23
-9.6918657762
33
0.0000000000
40
0.0000000000
40
0.0000000000
40
0.0000000000
40
0.0000000000
40
0.3395572869
40
0.6729307179
40
1.0000000000
40
1.0000000000
40
1.0000000000
40
1.0000000000
10
7.1134350054
20
-9.9995979734
30
0.0000000000
10
7.1311867405
20
-11.1061950823
30
0.0000000000
10
7.2063982269
20
-13.2988446435
30
0.0000000000
10
7.4424153963
20
-16.5503883107
30
0.0000000000
10
7.6832763886
20
-18.6902008986
30
0.0000000000
10
7.8245273291
20
-19.7468380924
30
0.0000000000
11
7.1134350054
21
-9.9995979734
31
0.0000000000
11
7.2283782450
21
-13.3178262086
31
0.0000000000
11
7.4655571188
21
-16.5689384283
31
0.0000000000
11
7.8245273291
21
-19.7468380924
31
0.0000000000
0
SPLINE
5
2A0
100
AcDbEntity
8
0
100
AcDbSpline
62
9
6
CONTINUOUS
70
0
71
3
72
11
73
7
74
5
42
0.0000001000
43
0.0000001000
44
0.0000000001
12
-0.6420665084
22
-0.3192214672
32
0.0000000000
13
-0.6414972632
23
0.3203638676
33
0.0000000000
40
0.0000000000
40
0.0000000000
40
0.0000000000
40
0.0000000000
40
0.2382830205
40
0.5029754861
40
0.7660677396
40
1.0000000000
40
1.0000000000
40
1.0000000000
40
1.0000000000
10
7.8111018617
20
-9.9959695406
30
0.0000000000
10
7.7601040127
20
-10.0213245591
30
0.0000000000
10
7.6440346526
20
-10.0579654986
30
0.0000000000
10
7.4608391047
20
-10.0762861762
30
0.0000000000
10
7.2784997160
20
-10.0600813875
30
0.0000000000
10
7.1634573385
20
-10.0245791048
30
0.0000000000
10
7.1134350369
20
-9.9995979569
30
0.0000000000
11
7.8111018617
21
-9.9959695406
31
0.0000000000
11
7.6491839497
21
-10.0505177563
31
0.0000000000
11
7.4604243203
21
-10.0703256861
31
0.0000000000
11
7.2726220017
21
-10.0524761746
31
0.0000000000
11
7.1134350369
21
-9.9995979569
31
0.0000000000
0
SPLINE
5
2A1
100
AcDbEntity
8
0
100
AcDbSpline
62
9
6
CONTINUOUS
70
0
71
3
72
10
73
6
74
4
42
0.0000001000
43
0.0000001000
44
0.0000000001
12
-0.2597498231
22
-16.4365931908
32
0.0000000000
13
0.2637035134
23
-16.4365302344
33
0.0000000000
40
0.0000000000
40
0.0000000000
40
0.0000000000
40
0.0000000000
40
0.3350157711
40
0.6683411232
40
1.0000000000
40
1.0000000000
40
1.0000000000
40
1.0000000000
10
7.8111018617
20
6.4420586486
30
0.0000000000
10
7.7820950993
20
4.6065526679
30
0.0000000000
10
7.7433241961
20
0.9444694697
30
0.0000000000
10
7.7431777358
20
-4.5351715860
30
0.0000000000
10
7.7819486580
20
-8.1788624886
30
0.0000000000
10
7.8111018617
20
-9.9959695406
30
0.0000000000
11
7.8111018617
21
6.4420586486
31
0.0000000000
11
7.7529433574
21
0.9351602506
31
0.0000000000
11
7.7529433345
21
-4.5442570468
31
0.0000000000
11
7.8111018617
21
-9.9959695406
31
0.0000000000
0
SPLINE
5
2A2
100
AcDbEntity
8
0
100
AcDbSpline
62
9
6
CONTINUOUS
70
0
71
3
72
10
73
6
74
4
42
0.0000001000
43
0.0000001000
44
0.0000000001
12
-0.2600032130
22
-16.4530463101
32
0.0000000000
13
0.2639608570
23
-16.4529832924
33
0.0000000000
40
0.0000000000
40
0.0000000000
40
0.0000000000
40
0.0000000000
40
0.3350160412
40
0.6683410960
40
1.0000000000
40
1.0000000000
40
1.0000000000
40
1.0000000000
10
7.1134350054
20
6.4548846985
30
0.0000000000
10
7.0843999231
20
4.6175398851
30
0.0000000000
10
7.0455912294
20
0.9517910871
30
0.0000000000
10
7.0454446335
20
-4.5333350791
30
0.0000000000
10
7.0842533493
20
-8.1806718383
30
0.0000000000
10
7.1134350054
20
-9.9995979734
30
0.0000000000
11
7.1134350054
21
6.4548846985
31
0.0000000000
11
7.0552197514
21
0.9424694405
31
0.0000000000
11
7.0552197410
21
-4.5424278578
31
0.0000000000
11
7.1134350054
21
-9.9995979734
31
0.0000000000
0
SPLINE
5
2A3
100
AcDbEntity
8
0
100
AcDbSpline
62
9
6
CONTINUOUS
70
0
71
3
72
11
73
7
74
5
42
0.0000001000
43
0.0000001000
44
0.0000000001
12
-0.6520434625
22
-0.2945842930
32
0.0000000000
13
-0.6398044461
23
0.3202980697
33
0.0000000000
40
0.0000000000
40
0.0000000000
40
0.0000000000
40
0.0000000000
40
0.2361736673
40
0.5007681257
40
0.7649506886
40
1.0000000000
40
1.0000000000
40
1.0000000000
40
1.0000000000
10
7.8111018617
20
6.4420586486
30
0.0000000000
10
7.7597700298
20
6.4188676310
30
0.0000000000
10
7.6432949431
20
6.3866159679
30
0.0000000000
10
7.4604181079
20
6.3734969036
30
0.0000000000
10
7.2784139499
20
6.3932715334
30
0.0000000000
10
7.1635635376
20
6.4297894185
30
0.0000000000
10
7.1134350061
20
6.4548846988
30
0.0000000000
11
7.8111018617
21
6.4420586486
31
0.0000000000
11
7.6491839488
21
6.3937097925
31
0.0000000000
11
7.4604243111
21
6.3791882308
31
0.0000000000
11
7.2726219809
21
6.4006325847
31
0.0000000000
11
7.1134350061
21
6.4548846988
31
0.0000000000
0
SPLINE
5
2A4
100
AcDbEntity
8
0
100
AcDbSpline
62
9
6
CONTINUOUS
70
0
71
3
72
10
73
6
74
4
42
0.0000001000
43
0.0000001000
44
0.0000000001
12
-1.2310769054
22
-10.3777460997
32
0.0000000000
13
-0.1651087131
23
-10.4492058823
33
0.0000000000
40
0.0000000000
40
0.0000000000
40
0.0000000000
40
0.0000000000
40
0.3384439945
40
0.6718567934
40
1.0000000000
40
1.0000000000
40
1.0000000000
40
1.0000000000
10
7.8245273291
20
16.8771227355
30
0.0000000000
10
7.6856438007
20
15.7063607875
30
0.0000000000
10
7.4474991296
20
13.3775798938
30
0.0000000000
10
7.2094204543
20
9.9016158627
30
0.0000000000
10
7.1314947730
20
7.5978300068
30
0.0000000000
10
7.1134350054
20
6.4548846985
30
0.0000000000
11
7.8245273291
21
16.8771227355
31
0.0000000000
11
7.4655571170
21
13.3584738545
31
0.0000000000
11
7.2283782452
21
9.8822217477
31
0.0000000000
11
7.1134350054
21
6.4548846985
31
0.0000000000
0
SPLINE
5
2A5
100
AcDbEntity
8
0
100
AcDbSpline
62
9
6
CONTINUOUS
70
0
71
3
72
11
73
7
74
5
42
0.0000001000
43
0.0000001000
44
0.0000000001
12
-0.6807130589
22
-0.2009994719
32
0.0000000000
13
-0.6334909980
23
0.3200940670
33
0.0000000000
40
0.0000000000
40
0.0000000000
40
0.0000000000
40
0.0000000000
40
0.2291475762
40
0.4934208666
40
0.7611885907
40
1.0000000000
40
1.0000000000
40
1.0000000000
40
1.0000000000
10
8.5183439348
20
16.8063452321
30
0.0000000000
10
8.4663493523
20
16.7909923848
30
0.0000000000
10
8.3496556827
20
16.7743398377
30
0.0000000000
10
8.1690542577
20
16.7792895072
30
0.0000000000
10
7.9889205685
20
16.8115006045
30
0.0000000000
10
7.8749556530
20
16.8516420403
30
0.0000000000
10
7.8245273603
20
16.8771227453
30
0.0000000000
11
8.5183439348
21
16.8063452321
31
0.0000000000
11
8.3578816776
21
16.7798087896
31
0.0000000000
11
8.1703534591
21
16.7838984432
31
0.0000000000
11
7.9833870261
21
16.8180116815
31
0.0000000000
11
7.8245273603
21
16.8771227453
31
0.0000000000
0
SPLINE
5
2A6
100
AcDbEntity
8
0
100
AcDbSpline
62
9
6
CONTINUOUS
70
0
71
3
72
10
73
6
74
4
42
0.0000001000
43
0.0000001000
44
0.0000000001
12
-1.2244119036
22
-10.3200289821
32
0.0000000000
13
-0.1642160836
23
-10.3911123456
33
0.0000000000
40
0.0000000000
40
0.0000000000
40
0.0000000000
40
0.0000000000
40
0.3384391619
40
0.6718575828
40
1.0000000000
40
1.0000000000
40
1.0000000000
40
1.0000000000
10
8.5183439348
20
16.8063452321
30
0.0000000000
10
8.3802142886
20
15.6421112456
30
0.0000000000
10
8.1433575793
20
13.3262781856
30
0.0000000000
10
7.9065675958
20
9.8696412019
30
0.0000000000
10
7.8290639493
20
7.5786468895
30
0.0000000000
10
7.8111018617
20
6.4420586486
30
0.0000000000
11
8.5183439348
21
16.8063452321
31
0.0000000000
11
8.1613211191
21
13.3073139549
31
0.0000000000
11
7.9254219862
21
9.8503324202
31
0.0000000000
11
7.8111018617
21
6.4420586486
31
0.0000000000
0
SPLINE
5
2A7
100
AcDbEntity
8
0
100
AcDbSpline
62
9
6
CONTINUOUS
70
0
71
3
72
13
73
9
74
7
42
0.0000001000
43
0.0000001000
44
0.0000000001
12
-0.5897851590
22
-0.2984528450
32
0.0000000000
13
-0.0779119815
23
-0.6563919238
33
0.0000000000
40
0.0000000000
40
0.0000000000
40
0.0000000000
40
0.0000000000
40
0.1493998706
40
0.3127906550
40
0.4852157508
40
0.6611197973
40
0.8348093447
40
1.0000000000
40
1.0000000000
40
1.0000000000
40
1.0000000000
10
8.8676415821
20
17.3406915271
30
0.0000000000
10
8.8382703066
20
17.3258285882
30
0.0000000000
10
8.7802417796
20
17.2876459864
30
0.0000000000
10
8.7025875505
20
17.2135050356
30
0.0000000000
10
8.6339650953
20
17.1234926071
30
0.0000000000
10
8.5781452084
20
17.0224625621
30
0.0000000000
10
8.5380562781
20
16.9159467185
30
0.0000000000
10
8.5226340452
20
16.8424885027
30
0.0000000000
10
8.5183439348
20
16.8063452321
30
0.0000000000
11
8.8676415821
21
17.3406915271
31
0.0000000000
11
8.7846554405
21
17.2871610753
31
0.0000000000
11
8.7060954973
21
17.2130489427
31
0.0000000000
11
8.6367506938
21
17.1225993466
31
0.0000000000
11
8.5804800980
21
17.0208500451
31
0.0000000000
11
8.5402757199
21
16.9133109573
31
0.0000000000
11
8.5183439348
21
16.8063452321
31
0.0000000000
0
SPLINE
5
2A8
100
AcDbEntity
8
0
100
AcDbSpline
62
9
6
CONTINUOUS
70
0
71
3
72
13
73
9
74
7
42
0.0000001000
43
0.0000001000
44
0.0000000001
12
-1.1715870480
22
-0.6078886018
32
0.0000000000
13
-0.1534840678
23
-1.3109490471
33
0.0000000000
40
0.0000000000
40
0.0000000000
40
0.0000000000
40
0.0000000000
40
0.1494507117
40
0.3121873806
40
0.4840737195
40
0.6598127310
40
0.8336449549
40
1.0000000000
40
1.0000000000
40
1.0000000000
40
1.0000000000
10
8.5142093454
20
17.9502719647
30
0.0000000000
10
8.4558445060
20
17.9199888366
30
0.0000000000
10
8.3410545021
20
17.8425824870
30
0.0000000000
10
8.1879207602
20
17.6932981499
30
0.0000000000
10
8.0528407718
20
17.5128650670
30
0.0000000000
10
7.9428488478
20
17.3106283153
30
0.0000000000
10
7.8635968507
20
17.0971249957
30
0.0000000000
10
7.8330382788
20
16.9498170648
30
0.0000000000
10
7.8245273291
20
16.8771227355
30
0.0000000000
11
8.5142093454
21
17.9502719647
31
0.0000000000
11
8.3496136838
21
17.8415522834
31
0.0000000000
11
8.1949044656
21
17.6925466904
31
0.0000000000
11
8.0584281449
21
17.5113127801
31
0.0000000000
11
7.9475108519
21
17.3075921340
31
0.0000000000
11
7.8681138411
21
17.0923257372
31
0.0000000000
11
7.8245273291
21
16.8771227355
31
0.0000000000
0
SPLINE
5
2A9
100
AcDbEntity
8
0
100
AcDbSpline
62
9
6
CONTINUOUS
70
0
71
3
72
12
73
8
74
6
42
0.0000001000
43
0.0000001000
44
0.0000000001
12
-0.0162126738
22
0.7317494066
32
0.0000000000
13
-0.6473188272
23
0.3416114471
33
0.0000000000
40
0.0000000000
40
0.0000000000
40
0.0000000000
40
0.0000000000
40
0.1947682779
40
0.4051356951
40
0.6180972174
40
0.8201116787
40
1.0000000000
40
1.0000000000
40
1.0000000000
40
1.0000000000
10
8.8676415821
20
17.3406915271
30
0.0000000000
10
8.8665890106
20
17.3881987177
30
0.0000000000
10
8.8516093945
20
17.4868720056
30
0.0000000000
10
8.8003301567
20
17.6294853357
30
0.0000000000
10
8.7235948974
20
17.7623725598
30
0.0000000000
10
8.6285874604
20
17.8731594288
30
0.0000000000
10
8.5530243815
20
17.9297879966
30
0.0000000000
10
8.5142093491
20
17.9502719665
30
0.0000000000
11
8.8676415821
21
17.3406915271
31
0.0000000000
11
8.8478800286
21
17.4818717331
31
0.0000000000
11
8.7963903655
21
17.6269813835
31
0.0000000000
11
8.7182074601
21
17.7618284657
31
0.0000000000
11
8.6209773083
21
17.8732239246
31
0.0000000000
11
8.5142093491
21
17.9502719665
31
0.0000000000
0
SPLINE
5
2AA
100
AcDbEntity
8
0
100
AcDbSpline
62
9
6
CONTINUOUS
70
0
71
3
72
8
73
4
74
2
42
0.0000001000
43
0.0000001000
44
0.0000000001
12
0.0085756485
22
-0.0023669470
32
0.0000000000
13
0.0086167227
23
-0.0022194824
33
0.0000000000
40
0.0000000000
40
0.0000000000
40
0.0000000000
40
0.0000000000
40
1.0000000000
40
1.0000000000
40
1.0000000000
40
1.0000000000
10
4.7101811647
20
-13.7447259778
30
0.0000000000
10
4.7130397142
20
-13.7455149602
30
0.0000000000
10
4.7159052039
20
-13.7462796635
30
0.0000000000
10
4.7187774448
20
-13.7470194910
30
0.0000000000
11
4.7101811647
21
-13.7447259778
31
0.0000000000
11
4.7187774448
21
-13.7470194910
31
0.0000000000
0
SPLINE
5
2AB
100
AcDbEntity
8
0
100
AcDbSpline
62
9
6
CONTINUOUS
70
0
71
3
72
9
73
5
74
3
42
0.0000001000
43
0.0000001000
44
0.0000000001
12
-0.0306818195
22
0.0039292431
32
0.0000000000
13
-0.0029315056
23
0.0311686579
33
0.0000000000
40
0.0000000000
40
0.0000000000
40
0.0000000000
40
0.0000000000
40
0.8308077053
40
1.0000000000
40
1.0000000000
40
1.0000000000
40
1.0000000000
10
4.5333537416
20
-8.7277168349
30
0.0000000000
10
4.5248568443
20
-8.7266286865
30
0.0000000000
10
4.5107393256
20
-8.7252498309
30
0.0000000000
10
4.5081185187
20
-8.7155276586
30
0.0000000000
10
4.5079531893
20
-8.7137698263
30
0.0000000000
11
4.5333537416
21
-8.7277168349
31
0.0000000000
11
4.5093344646
21
-8.7185786558
31
0.0000000000
11
4.5079531893
21
-8.7137698263
31
0.0000000000
0
SPLINE
5
2AC
100
AcDbEntity
8
0
100
AcDbSpline
62
9
6
CONTINUOUS
70
0
71
3
72
13
73
9
74
7
42
0.0000001000
43
0.0000001000
44
0.0000000001
12
1.1674487417
22
-4.9045948669
32
0.0000000000
13
-1.0218644738
23
-4.9374040157
33
0.0000000000
40
0.0000000000
40
0.0000000000
40
0.0000000000
40
0.0000000000
40
0.1428614689
40
0.2957985334
40
0.4596991931
40
0.6343973252
40
0.8186665623
40
1.0000000000
40
1.0000000000
40
1.0000000000
40
1.0000000000
10
4.5333536640
20
-8.7277168756
30
0.0000000000
10
4.5889481447
20
-8.9612760846
30
0.0000000000
10
4.6935915155
20
-9.4474330768
30
0.0000000000
10
4.8200829869
20
-10.2098801361
30
0.0000000000
10
4.9100678838
20
-11.0315032710
30
0.0000000000
10
4.9478008906
20
-11.9102087654
30
0.0000000000
10
4.9127060286
20
-12.8186259669
30
0.0000000000
10
4.8266792439
20
-13.4287342558
30
0.0000000000
10
4.7649131779
20
-13.7271730704
30
0.0000000000
11
4.5333536640
21
-8.7277168756
31
0.0000000000
11
4.6846036054
21
-9.4319109603
31
0.0000000000
11
4.8102677278
21
-10.1926532220
31
0.0000000000
11
4.8992924566
21
-11.0141693978
31
0.0000000000
11
4.9354522540
21
-11.8941893652
31
0.0000000000
11
4.8966944501
21
-12.8223970198
31
0.0000000000
11
4.7649131779
21
-13.7271730704
31
0.0000000000
0
SPLINE
5
2AD
100
AcDbEntity
8
0
100
AcDbSpline
62
9
6
CONTINUOUS
70
0
71
3
72
8
73
4
74
2
42
0.0000001000
43
0.0000001000
44
0.0000000001
12
-0.0117091128
22
-0.0565756244
32
0.0000000000
13
-0.0121695303
23
-0.0564735208
33
0.0000000000
40
0.0000000000
40
0.0000000000
40
0.0000000000
40
0.0000000000
40
1.0000000000
40
1.0000000000
40
1.0000000000
40
1.0000000000
10
4.7649131779
20
-13.7271730704
30
0.0000000000
10
4.7610101403
20
-13.7460316118
30
0.0000000000
10
4.7570308430
20
-13.7648735192
30
0.0000000000
10
4.7529743329
20
-13.7836980262
30
0.0000000000
11
4.7649131779
21
-13.7271730704
31
0.0000000000
11
4.7529743329
21
-13.7836980262
31
0.0000000000
0
SPLINE
5
2AE
100
AcDbEntity
8
0
100
AcDbSpline
62
9
6
CONTINUOUS
70
0
71
3
72
8
73
4
74
2
42
0.0000001000
43
0.0000001000
44
0.0000000001
12
-0.0249680551
22
0.0024118222
32
0.0000000000
13
-0.0108986821
23
0.0198993252
33
0.0000000000
40
0.0000000000
40
0.0000000000
40
0.0000000000
40
0.0000000000
40
1.0000000000
40
1.0000000000
40
1.0000000000
40
1.0000000000
10
4.5282562967
20
-8.7070086191
30
0.0000000000
10
4.5199336117
20
-8.7062046784
30
0.0000000000
10
4.5081346731
20
-8.7055829711
30
0.0000000000
10
4.5045017791
20
-8.6989498627
30
0.0000000000
11
4.5282562967
21
-8.7070086191
31
0.0000000000
11
4.5045017791
21
-8.6989498627
31
0.0000000000
0
SPLINE
5
2AF
100
AcDbEntity
8
0
100
AcDbSpline
62
9
6
CONTINUOUS
70
0
71
3
72
8
73
4
74
2
42
0.0000001000
43
0.0000001000
44
0.0000000001
12
-0.0020960068
22
0.0038269876
32
0.0000000000
13
-0.0004306711
23
0.0048253170
33
0.0000000000
40
0.0000000000
40
0.0000000000
40
0.0000000000
40
0.0000000000
40
1.0000000000
40
1.0000000000
40
1.0000000000
40
1.0000000000
10
4.5045017791
20
-8.6989498627
30
0.0000000000
10
4.5038031102
20
-8.6976742001
30
0.0000000000
10
4.5034064706
20
-8.6961761999
30
0.0000000000
10
4.5032629135
20
-8.6945677609
30
0.0000000000
11
4.5045017791
21
-8.6989498627
31
0.0000000000
11
4.5032629135
21
-8.6945677609
31
0.0000000000
0
SPLINE
5
2B0
100
AcDbEntity
8
0
100
AcDbSpline
62
9
6
CONTINUOUS
70
0
71
3
72
9
73
5
74
3
42
0.0000001000
43
0.0000001000
44
0.0000000001
12
0.0052551129
22
-0.0206689495
32
0.0000000000
13
0.0049384861
23
-0.0207468802
33
0.0000000000
40
0.0000000000
40
0.0000000000
40
0.0000000000
40
0.0000000000
40
0.5007727456
40
1.0000000000
40
1.0000000000
40
1.0000000000
40
1.0000000000
10
4.5282562968
20
-8.7070086191
30
0.0000000000
10
4.5291335025
20
-8.7104587679
30
0.0000000000
10
4.5308590561
20
-8.7173550935
30
0.0000000000
10
4.5325318550
20
-8.7242644062
30
0.0000000000
10
4.5333536640
20
-8.7277168756
30
0.0000000000
11
4.5282562968
21
-8.7070086191
31
0.0000000000
11
4.5308484934
21
-8.7173690086
31
0.0000000000
11
4.5333536640
21
-8.7277168756
31
0.0000000000
0
SPLINE
5
2B1
100
AcDbEntity
8
0
100
AcDbSpline
62
9
6
CONTINUOUS
70
0
71
3
72
9
73
5
74
3
42
0.0000001000
43
0.0000001000
44
0.0000000001
12
0.0008793566
22
-0.0604287558
32
0.0000000000
13
0.0545496066
23
-0.0288304332
33
0.0000000000
40
0.0000000000
40
0.0000000000
40
0.0000000000
40
0.0000000000
40
0.6419820057
40
1.0000000000
40
1.0000000000
40
1.0000000000
40
1.0000000000
10
3.8782149829
20
-7.8236375119
30
0.0000000000
10
3.8784031599
20
-7.8365689032
30
0.0000000000
10
3.8818687716
20
-7.8578835010
30
0.0000000000
10
3.8978100369
20
-7.8725182117
30
0.0000000000
10
3.9043199504
20
-7.8759588163
30
0.0000000000
11
3.8782149829
21
-7.8236375119
31
0.0000000000
11
3.8879946076
21
-7.8611830250
31
0.0000000000
11
3.9043199504
21
-7.8759588163
31
0.0000000000
0
SPLINE
5
2B2
100
AcDbEntity
8
0
100
AcDbSpline
62
9
6
CONTINUOUS
70
0
71
3
72
8
73
4
74
2
42
0.0000001000
43
0.0000001000
44
0.0000000001
12
0.0835079049
22
-0.0417538840
32
0.0000000000
13
0.0785660114
23
-0.0507110918
33
0.0000000000
40
0.0000000000
40
0.0000000000
40
0.0000000000
40
0.0000000000
40
1.0000000000
40
1.0000000000
40
1.0000000000
40
1.0000000000
10
3.8782149829
20
-7.8236375119
30
0.0000000000
10
3.9060509512
20
-7.8375554732
30
0.0000000000
10
3.9330793810
20
-7.8531327728
30
0.0000000000
10
3.9592680514
20
-7.8700364701
30
0.0000000000
11
3.8782149829
21
-7.8236375119
31
0.0000000000
11
3.9592680514
21
-7.8700364701
31
0.0000000000
0
SPLINE
5
2B3
100
AcDbEntity
8
0
100
AcDbSpline
62
9
6
CONTINUOUS
70
0
71
3
72
9
73
5
74
3
42
0.0000001000
43
0.0000001000
44
0.0000000001
12
0.0892587571
22
-0.0576128143
32
0.0000000000
13
0.0826840346
23
-0.0665987326
33
0.0000000000
40
0.0000000000
40
0.0000000000
40
0.0000000000
40
0.0000000000
40
0.4831079586
40
1.0000000000
40
1.0000000000
40
1.0000000000
40
1.0000000000
10
3.9592680514
20
-7.8700364701
30
0.0000000000
10
3.9736419234
20
-7.8793142064
30
0.0000000000
10
4.0028712043
20
-7.8993455630
30
0.0000000000
10
4.0309937644
20
-7.9208530657
30
0.0000000000
10
4.0452400043
20
-7.9323278507
30
0.0000000000
11
3.9592680514
21
-7.8700364701
31
0.0000000000
11
4.0016254186
21
-7.8990133446
31
0.0000000000
11
4.0452400043
21
-7.9323278507
31
0.0000000000
0
SPLINE
5
2B4
100
AcDbEntity
8
0
100
AcDbSpline
62
9
6
CONTINUOUS
70
0
71
3
72
12
73
8
74
6
42
0.0000001000
43
0.0000001000
44
0.0000000001
12
0.6287539906
22
-0.5064365700
32
0.0000000000
13
0.2634431304
23
-0.7631252099
33
0.0000000000
40
0.0000000000
40
0.0000000000
40
0.0000000000
40
0.0000000000
40
0.1478931402
40
0.3970647773
40
0.6634069049
40
0.9208341372
40
1.0000000000
40
1.0000000000
40
1.0000000000
40
1.0000000000
10
4.0452400043
20
-7.9323278507
30
0.0000000000
10
4.0762361383
20
-7.9572940156
30
0.0000000000
10
4.1557679609
20
-8.0288699275
30
0.0000000000
10
4.2728047120
20
-8.1643038629
30
0.0000000000
10
4.3858972925
20
-8.3394401345
30
0.0000000000
10
4.4553076336
20
-8.4864239897
30
0.0000000000
10
4.4866931772
20
-8.5714245923
30
0.0000000000
10
4.4936450782
20
-8.5915624142
30
0.0000000000
11
4.0452400043
21
-7.9323278507
31
0.0000000000
11
4.1341664193
21
-8.0119290021
31
0.0000000000
11
4.2661500294
21
-8.1635005261
31
0.0000000000
11
4.3829768402
21
-8.3437891289
31
0.0000000000
11
4.4715222509
21
-8.5316036832
31
0.0000000000
11
4.4936450782
21
-8.5915624142
31
0.0000000000
0
SPLINE
5
2B5
100
AcDbEntity
8
0
100
AcDbSpline
62
9
6
CONTINUOUS
70
0
71
3
72
8
73
4
74
2
42
0.0000001000
43
0.0000001000
44
0.0000000001
12
0.0332399964
22
-0.0962874956
32
0.0000000000
13
0.0264134736
23
-0.0983038197
33
0.0000000000
40
0.0000000000
40
0.0000000000
40
0.0000000000
40
0.0000000000
40
1.0000000000
40
1.0000000000
40
1.0000000000
40
1.0000000000
10
4.4936450782
20
-8.5915624142
30
0.0000000000
10
4.5047250770
20
-8.6236582460
30
0.0000000000
10
4.5147130296
20
-8.6561246728
30
0.0000000000
10
4.5235175208
20
-8.6888926127
30
0.0000000000
11
4.4936450782
21
-8.5915624142
31
0.0000000000
11
4.5235175208
21
-8.6888926127
31
0.0000000000
0
SPLINE
5
2B6
100
AcDbEntity
8
0
100
AcDbSpline
62
9
6
CONTINUOUS
70
0
71
3
72
8
73
4
74
2
42
0.0000001000
43
0.0000001000
44
0.0000000001
12
0.0048595194
22
-0.0180858195
32
0.0000000000
13
0.0046174633
23
-0.0181457630
33
0.0000000000
40
0.0000000000
40
0.0000000000
40
0.0000000000
40
0.0000000000
40
1.0000000000
40
1.0000000000
40
1.0000000000
40
1.0000000000
10
4.5235175208
20
-8.6888926127
30
0.0000000000
10
4.5251373606
20
-8.6949212192
30
0.0000000000
10
4.5267171423
20
-8.7009600314
30
0.0000000000
10
4.5282562968
20
-8.7070086191
30
0.0000000000
11
4.5235175208
21
-8.6888926127
31
0.0000000000
11
4.5282562968
21
-8.7070086191
31
0.0000000000
0
SPLINE
5
2B7
100
AcDbEntity
8
0
100
AcDbSpline
62
9
6
CONTINUOUS
70
0
71
3
72
9
73
5
74
3
42
0.0000001000
43
0.0000001000
44
0.0000000001
12
0.0008783067
22
-0.0603565801
32
0.0000000000
13
0.0544393424
23
-0.0288964514
33
0.0000000000
40
0.0000000000
40
0.0000000000
40
0.0000000000
40
0.0000000000
40
0.6427294637
40
1.0000000000
40
1.0000000000
40
1.0000000000
40
1.0000000000
10
-4.3169898026
20
-3.7260351192
30
0.0000000000
10
-4.3168016314
20
-3.7389661033
30
0.0000000000
10
-4.3133403057
20
-3.7602550687
30
0.0000000000
10
-4.2974331783
20
-3.7748806659
30
0.0000000000
10
-4.2909499873
20
-3.7783219494
30
0.0000000000
11
-4.3169898026
21
-3.7260351192
31
0.0000000000
11
-4.3072108642
21
-3.7635795488
31
0.0000000000
11
-4.2909499873
21
-3.7783219494
31
0.0000000000
0
SPLINE
5
2B8
100
AcDbEntity
8
0
100
AcDbSpline
62
9
6
CONTINUOUS
70
0
71
3
72
10
73
6
74
4
42
0.0000001000
43
0.0000001000
44
0.0000000001
12
0.1085335867
22
-0.0975198220
32
0.0000000000
13
0.1303197901
23
0.0656232233
33
0.0000000000
40
0.0000000000
40
0.0000000000
40
0.0000000000
40
0.0000000000
40
0.3402708210
40
0.6890903588
40
1.0000000000
40
1.0000000000
40
1.0000000000
40
1.0000000000
10
-4.9500451541
20
-3.9678562394
30
0.0000000000
10
-4.9377348833
20
-3.9789172893
30
0.0000000000
10
-4.9077360661
20
-3.9959002280
30
0.0000000000
10
-4.8592282322
20
-4.0049285115
30
0.0000000000
10
-4.8263732734
20
-3.9988664712
30
0.0000000000
10
-4.8128673803
20
-3.9920655069
30
0.0000000000
11
-4.9500451541
21
-3.9678562394
31
0.0000000000
11
-4.9072724879
21
-3.9930654714
31
0.0000000000
11
-4.8571508640
21
-4.0019109846
31
0.0000000000
11
-4.8128673803
21
-3.9920655069
31
0.0000000000
0
SPLINE
5
2B9
100
AcDbEntity
8
0
100
AcDbSpline
62
9
6
CONTINUOUS
70
0
71
3
72
8
73
4
74
2
42
0.0000001000
43
0.0000001000
44
0.0000000001
12
0.0130425428
22
0.0438939363
32
0.0000000000
13
0.0168340442
23
0.0427477140
33
0.0000000000
40
0.0000000000
40
0.0000000000
40
0.0000000000
40
0.0000000000
40
1.0000000000
40
1.0000000000
40
1.0000000000
40
1.0000000000
10
-4.8128747017
20
-3.9920587664
30
0.0000000000
10
-4.8085271875
20
-3.9774274543
30
0.0000000000
10
-4.8035768055
20
-3.9629306766
30
0.0000000000
10
-4.7979654575
20
-3.9486814386
30
0.0000000000
11
-4.8128747017
21
-3.9920587664
31
0.0000000000
11
-4.7979654575
21
-3.9486814386
31
0.0000000000
0
SPLINE
5
2BA
100
AcDbEntity
8
0
100
AcDbSpline
62
9
6
CONTINUOUS
70
0
71
3
72
8
73
4
74
2
42
0.0000001000
43
0.0000001000
44
0.0000000001
12
0.0335523348
22
0.0852014879
32
0.0000000000
13
0.0506866622
23
0.0766170653
33
0.0000000000
40
0.0000000000
40
0.0000000000
40
0.0000000000
40
0.0000000000
40
1.0000000000
40
1.0000000000
40
1.0000000000
40
1.0000000000
10
-4.7979654575
20
-3.9486814386
30
0.0000000000
10
-4.7867813458
20
-3.9202809426
30
0.0000000000
10
-4.7729715181
20
-3.8928638087
30
0.0000000000
10
-4.7560759640
20
-3.8673247870
30
0.0000000000
11
-4.7979654575
21
-3.9486814386
31
0.0000000000
11
-4.7560759640
21
-3.8673247870
31
0.0000000000
0
SPLINE
5
2BB
100
AcDbEntity
8
0
100
AcDbSpline
62
9
6
CONTINUOUS
70
0
71
3
72
8
73
4
74
2
42
0.0000001000
43
0.0000001000
44
0.0000000001
12
0.0509286036
22
0.0769827795
32
0.0000000000
13
0.0687302071
23
0.0615370757
33
0.0000000000
40
0.0000000000
40
0.0000000000
40
0.0000000000
40
0.0000000000
40
1.0000000000
40
1.0000000000
40
1.0000000000
40
1.0000000000
10
-4.7560759640
20
-3.8673247870
30
0.0000000000
10
-4.7390997629
20
-3.8416638605
30
0.0000000000
10
-4.7190083070
20
-3.8178990184
30
0.0000000000
10
-4.6960982380
20
-3.7973866598
30
0.0000000000
11
-4.7560759640
21
-3.8673247870
31
0.0000000000
11
-4.6960982380
21
-3.7973866598
31
0.0000000000
0
SPLINE
5
2BC
100
AcDbEntity
8
0
100
AcDbSpline
62
9
6
CONTINUOUS
70
0
71
3
72
9
73
5
74
3
42
0.0000001000
43
0.0000001000
44
0.0000000001
12
0.0579283701
22
0.0518657320
32
0.0000000000
13
0.0690624562
23
0.0359169268
33
0.0000000000
40
0.0000000000
40
0.0000000000
40
0.0000000000
40
0.0000000000
40
0.5905924734
40
1.0000000000
40
1.0000000000
40
1.0000000000
40
1.0000000000
10
-4.6960982380
20
-3.7973866598
30
0.0000000000
10
-4.6846942182
20
-3.7871761561
30
0.0000000000
10
-4.6642022354
20
-3.7712521316
30
0.0000000000
10
-4.6418128761
20
-3.7581182181
30
0.0000000000
10
-4.6323879796
20
-3.7532166647
30
0.0000000000
11
-4.6960982380
21
-3.7973866598
31
0.0000000000
11
-4.6598275927
21
-3.7693401273
31
0.0000000000
11
-4.6323879796
21
-3.7532166647
31
0.0000000000
0
SPLINE
5
2BD
100
AcDbEntity
8
0
100
AcDbSpline
62
9
6
CONTINUOUS
70
0
71
3
72
8
73
4
74
2
42
0.0000001000
43
0.0000001000
44
0.0000000001
12
0.0079176800
22
0.0041177037
32
0.0000000000
13
0.0080353936
23
0.0038934316
33
0.0000000000
40
0.0000000000
40
0.0000000000
40
0.0000000000
40
0.0000000000
40
1.0000000000
40
1.0000000000
40
1.0000000000
40
1.0000000000
10
-4.6323879796
20
-3.7532166647
30
0.0000000000
10
-4.6297487529
20
-3.7518440968
30
0.0000000000
10
-4.6270892540
20
-3.7505088208
30
0.0000000000
10
-4.6244107895
20
-3.7492110102
30
0.0000000000
11
-4.6323879796
21
-3.7532166647
31
0.0000000000
11
-4.6244107895
21
-3.7492110102
31
0.0000000000
0
SPLINE
5
2BE
100
AcDbEntity
8
0
100
AcDbSpline
62
9
6
CONTINUOUS
70
0
71
3
72
11
73
7
74
5
42
0.0000001000
43
0.0000001000
44
0.0000000001
12
0.1632370443
22
0.5460952415
32
0.0000000000
13
0.5703265079
23
-0.0603476961
33
0.0000000000
40
0.0000000000
40
0.0000000000
40
0.0000000000
40
0.0000000000
40
0.2683818454
40
0.5382475170
40
0.8113668552
40
1.0000000000
40
1.0000000000
40
1.0000000000
40
1.0000000000
10
-4.9500467711
20
-3.9678570852
30
0.0000000000
10
-4.9354434847
20
-3.9190030689
30
0.0000000000
10
-4.8941223190
20
-3.8237405438
30
0.0000000000
10
-4.7850268834
20
-3.7086405409
30
0.0000000000
10
-4.6500732556
20
-3.6585352657
30
0.0000000000
10
-4.5613565291
20
-3.6579901418
30
0.0000000000
10
-4.5254957015
20
-3.6617846670
30
0.0000000000
11
-4.9500467711
21
-3.9678570852
31
0.0000000000
11
-4.8865162323
21
-3.8287039015
31
0.0000000000
11
-4.7787581160
21
-3.7189433171
31
0.0000000000
11
-4.6332497292
21
-3.6636220218
31
0.0000000000
11
-4.5254957015
21
-3.6617846670
31
0.0000000000
0
SPLINE
5
2BF
100
AcDbEntity
8
0
100
AcDbSpline
62
9
6
CONTINUOUS
70
0
71
3
72
9
73
5
74
3
42
0.0000001000
43
0.0000001000
44
0.0000000001
12
0.1080665465
22
-0.0114347957
32
0.0000000000
13
0.1033682709
23
-0.0324367898
33
0.0000000000
40
0.0000000000
40
0.0000000000
40
0.0000000000
40
0.0000000000
40
0.5027402431
40
1.0000000000
40
1.0000000000
40
1.0000000000
40
1.0000000000
10
-4.5254957015
20
-3.6617846670
30
0.0000000000
10
-4.5073859009
20
-3.6637009110
30
0.0000000000
10
-4.4715571674
20
-3.6695503415
30
0.0000000000
10
-4.4366087681
20
-3.6788574062
30
0.0000000000
10
-4.4194751411
20
-3.6842339096
30
0.0000000000
11
-4.5254957015
21
-3.6617846670
31
0.0000000000
11
-4.4715833110
21
-3.6704563085
31
0.0000000000
11
-4.4194751411
21
-3.6842339096
31
0.0000000000
0
SPLINE
5
2C0
100
AcDbEntity
8
0
100
AcDbSpline
62
9
6
CONTINUOUS
70
0
71
3
72
8
73
4
74
2
42
0.0000001000
43
0.0000001000
44
0.0000000001
12
0.1058357711
22
-0.0332110872
32
0.0000000000
13
0.0988980972
23
-0.0494617780
33
0.0000000000
40
0.0000000000
40
0.0000000000
40
0.0000000000
40
0.0000000000
40
1.0000000000
40
1.0000000000
40
1.0000000000
40
1.0000000000
10
-4.4194751411
20
-3.6842339096
30
0.0000000000
10
-4.3841965507
20
-3.6953042720
30
0.0000000000
10
-4.3499558350
20
-3.7095478598
30
0.0000000000
10
-4.3169898026
20
-3.7260351192
30
0.0000000000
11
-4.4194751411
21
-3.6842339096
31
0.0000000000
11
-4.3169898026
21
-3.7260351192
31
0.0000000000
0
SPLINE
5
2C1
100
AcDbEntity
8
0
100
AcDbSpline
62
9
6
CONTINUOUS
70
0
71
3
72
10
73
6
74
4
42
0.0000001000
43
0.0000001000
44
0.0000000001
12
0.1102109188
22
-0.0956154155
32
0.0000000000
13
0.1302625138
23
0.0657299917
33
0.0000000000
40
0.0000000000
40
0.0000000000
40
0.0000000000
40
0.0000000000
40
0.3389113867
40
0.6882607277
40
1.0000000000
40
1.0000000000
40
1.0000000000
40
1.0000000000
10
-4.9545681016
20
-3.9837559976
30
0.0000000000
10
-4.9421175232
20
-3.9945577153
30
0.0000000000
10
-4.9118610446
20
-4.0109706851
30
0.0000000000
10
-4.8632711691
20
-4.0193331170
30
0.0000000000
10
-4.8304291572
20
-4.0130921666
30
0.0000000000
10
-4.8168931768
20
-4.0062619600
30
0.0000000000
11
-4.9545681016
21
-3.9837559976
31
0.0000000000
11
-4.9115473750
21
-4.0081376128
31
0.0000000000
11
-4.8612426934
21
-4.0163610077
31
0.0000000000
11
-4.8168931768
21
-4.0062619600
31
0.0000000000
0
SPLINE
5
2C2
100
AcDbEntity
8
0
100
AcDbSpline
62
9
6
CONTINUOUS
70
0
71
3
72
9
73
5
74
3
42
0.0000001000
43
0.0000001000
44
0.0000000001
12
0.0038345596
22
0.0142542864
32
0.0000000000
13
0.0042040721
23
0.0141497104
33
0.0000000000
40
0.0000000000
40
0.0000000000
40
0.0000000000
40
0.0000000000
40
0.5014942382
40
1.0000000000
40
1.0000000000
40
1.0000000000
40
1.0000000000
10
-4.8168931501
20
-4.0062619837
30
0.0000000000
10
-4.8162521469
20
-4.0038791696
30
0.0000000000
10
-4.8149435099
20
-3.9991358778
30
0.0000000000
10
-4.8135732865
20
-3.9944100038
30
0.0000000000
10
-4.8128747017
20
-3.9920587664
30
0.0000000000
11
-4.8168931501
21
-4.0062619837
31
0.0000000000
11
-4.8149241103
21
-3.9991260831
31
0.0000000000
11
-4.8128747017
21
-3.9920587664
31
0.0000000000
0
SPLINE
5
2C3
100
AcDbEntity
8
0
100
AcDbSpline
62
9
6
CONTINUOUS
70
0
71
3
72
9
73
5
74
3
42
0.0000001000
43
0.0000001000
44
0.0000000001
12
0.0043161508
22
0.0159561921
32
0.0000000000
13
0.0047284344
23
0.0158389120
33
0.0000000000
40
0.0000000000
40
0.0000000000
40
0.0000000000
40
0.0000000000
40
0.5015161350
40
1.0000000000
40
1.0000000000
40
1.0000000000
40
1.0000000000
10
-4.9545680969
20
-3.9837559952
30
0.0000000000
10
-4.9538465571
20
-3.9810885659
30
0.0000000000
10
-4.9523739329
20
-3.9757789457
30
0.0000000000
10
-4.9508324538
20
-3.9704888992
30
0.0000000000
10
-4.9500467711
20
-3.9678570852
30
0.0000000000
11
-4.9545680969
21
-3.9837559952
31
0.0000000000
11
-4.9523521492
21
-3.9757677687
31
0.0000000000
11
-4.9500467711
21
-3.9678570852
31
0.0000000000
0
SPLINE
5
2C4
100
AcDbEntity
8
0
100
AcDbSpline
62
9
6
CONTINUOUS
70
0
71
3
72
8
73
4
74
2
42
0.0000001000
43
0.0000001000
44
0.0000000001
12
0.0424427089
22
-0.0060557057
32
0.0000000000
13
0.0426427301
23
0.0063522246
33
0.0000000000
40
0.0000000000
40
0.0000000000
40
0.0000000000
40
0.0000000000
40
1.0000000000
40
1.0000000000
40
1.0000000000
40
1.0000000000
10
-4.7312560578
20
-9.0415825283
30
0.0000000000
10
-4.7171084882
20
-9.0436010969
30
0.0000000000
10
-4.7026115734
20
-9.0426115608
30
0.0000000000
10
-4.6883973301
20
-9.0404941526
30
0.0000000000
11
-4.7312560578
21
-9.0415825283
31
0.0000000000
11
-4.6883973301
21
-9.0404941526
31
0.0000000000
0
SPLINE
5
2C5
100
AcDbEntity
8
0
100
AcDbSpline
62
9
6
CONTINUOUS
70
0
71
3
72
9
73
5
74
3
42
0.0000001000
43
0.0000001000
44
0.0000000001
12
0.1000325295
22
0.0149012293
32
0.0000000000
13
0.0855989355
23
0.0527965542
33
0.0000000000
40
0.0000000000
40
0.0000000000
40
0.0000000000
40
0.0000000000
40
0.5162381673
40
1.0000000000
40
1.0000000000
40
1.0000000000
40
1.0000000000
10
-4.6883973301
20
-9.0404941526
30
0.0000000000
10
-4.6711837935
20
-9.0379299581
30
0.0000000000
10
-4.6386426336
20
-9.0297588083
30
0.0000000000
10
-4.6076292359
20
-9.0161537429
30
0.0000000000
10
-4.5938260699
20
-9.0076400903
30
0.0000000000
11
-4.6883973301
21
-9.0404941526
31
0.0000000000
11
-4.6379929675
21
-9.0280452908
31
0.0000000000
11
-4.5938260699
21
-9.0076400903
31
0.0000000000
0
SPLINE
5
2C6
100
AcDbEntity
8
0
100
AcDbSpline
62
9
6
CONTINUOUS
70
0
71
3
72
13
73
9
74
7
42
0.0000001000
43
0.0000001000
44
0.0000000001
12
-1.3834582239
22
4.6829984058
32
0.0000000000
13
1.1416037101
23
4.7490392202
33
0.0000000000
40
0.0000000000
40
0.0000000000
40
0.0000000000
40
0.0000000000
40
0.2436623146
40
0.4517252633
40
0.6306980530
40
0.7852127140
40
0.9195347311
40
1.0000000000
40
1.0000000000
40
1.0000000000
40
1.0000000000
10
-4.5938274584
20
-9.0076399100
30
0.0000000000
10
-4.7061930027
20
-8.6272831664
30
0.0000000000
10
-4.8823834496
20
-7.9119905539
30
0.0000000000
10
-5.0307414483
20
-6.8946939155
30
0.0000000000
10
-5.0753178338
20
-6.0130554209
30
0.0000000000
10
-5.0435671373
20
-5.2512090553
30
0.0000000000
10
-4.9646611444
20
-4.6545452085
30
0.0000000000
10
-4.8930702761
20
-4.3120106494
30
0.0000000000
10
-4.8624504596
20
-4.1846330768
30
0.0000000000
11
-4.5938274584
21
-9.0076399100
31
0.0000000000
11
-4.8759214511
21
-7.8517426867
31
0.0000000000
11
-5.0204805566
21
-6.8460923418
31
0.0000000000
11
-5.0629060106
21
-5.9731849995
31
0.0000000000
11
-5.0301457454
21
-5.2193897265
31
0.0000000000
11
-4.9431033904
21
-4.5692862828
31
0.0000000000
11
-4.8624504596
21
-4.1846330768
31
0.0000000000
0
SPLINE
5
2C7
100
AcDbEntity
8
0
100
AcDbSpline
62
9
6
CONTINUOUS
70
0
71
3
72
8
73
4
74
2
42
0.0000001000
43
0.0000001000
44
0.0000000001
12
0.0231854617
22
0.0964508663
32
0.0000000000
13
0.0246472473
23
0.0960742866
33
0.0000000000
40
0.0000000000
40
0.0000000000
40
0.0000000000
40
0.0000000000
40
1.0000000000
40
1.0000000000
40
1.0000000000
40
1.0000000000
10
-4.8624504596
20
-4.1846330768
30
0.0000000000
10
-4.8547219724
20
-4.1524827880
30
0.0000000000
10
-4.8467514072
20
-4.1203927251
30
0.0000000000
10
-4.8385356581
20
-4.0883679629
30
0.0000000000
11
-4.8624504596
21
-4.1846330768
31
0.0000000000
11
-4.8385356581
21
-4.0883679629
31
0.0000000000
0
SPLINE
5
2C8
100
AcDbEntity
8
0
100
AcDbSpline
62
9
6
CONTINUOUS
70
0
71
3
72
8
73
4
74
2
42
0.0000001000
43
0.0000001000
44
0.0000000001
12
0.0211014211
22
0.0822527542
32
0.0000000000
13
0.0221855440
23
0.0819560196
33
0.0000000000
40
0.0000000000
40
0.0000000000
40
0.0000000000
40
0.0000000000
40
1.0000000000
40
1.0000000000
40
1.0000000000
40
1.0000000000
10
-4.8385356581
20
-4.0883679629
30
0.0000000000
10
-4.8315018511
20
-4.0609503781
30
0.0000000000
10
-4.8242883314
20
-4.0335806569
30
0.0000000000
10
-4.8168931501
20
-4.0062619837
30
0.0000000000
11
-4.8385356581
21
-4.0883679629
31
0.0000000000
11
-4.8168931501
21
-4.0062619837
31
0.0000000000
0
SPLINE
5
2C9
100
AcDbEntity
8
0
100
AcDbSpline
62
9
6
CONTINUOUS
70
0
71
3
72
13
73
9
74
7
42
0.0000001000
43
0.0000001000
44
0.0000000001
12
-1.4473493030
22
4.9153350411
32
0.0000000000
13
1.3379090512
23
4.9462448324
33
0.0000000000
40
0.0000000000
40
0.0000000000
40
0.0000000000
40
0.0000000000
40
0.2347308135
40
0.4352684618
40
0.6077700191
40
0.7566968692
40
0.8861587927
40
1.0000000000
40
1.0000000000
40
1.0000000000
40
1.0000000000
10
-4.7312563316
20
-9.0415826940
30
0.0000000000
10
-4.8445021580
20
-8.6569891630
30
0.0000000000
10
-5.0220667439
20
-7.9336121751
30
0.0000000000
10
-5.1714259027
20
-6.9048401033
30
0.0000000000
10
-5.2160948307
20
-6.0131438113
30
0.0000000000
10
-5.1837645136
20
-5.2426360219
30
0.0000000000
10
-5.0957597607
20
-4.5776745440
30
0.0000000000
10
-5.0053378241
20
-4.1714514896
30
0.0000000000
10
-4.9545680969
20
-3.9837559952
30
0.0000000000
11
-4.7312563316
21
-9.0415826940
31
0.0000000000
11
-5.0154843310
21
-7.8728886981
31
0.0000000000
11
-5.1610485576
21
-6.8556971514
31
0.0000000000
11
-5.2035517064
21
-5.9728222975
31
0.0000000000
11
-5.1702058491
21
-5.2104505812
31
0.0000000000
11
-5.0821097720
21
-4.5529638621
31
0.0000000000
11
-4.9545680969
21
-3.9837559952
31
0.0000000000
0
SPLINE
5
2CA
100
AcDbEntity
8
0
100
AcDbSpline
62
9
6
CONTINUOUS
70
0
71
3
72
10
73
6
74
4
42
0.0000001000
43
0.0000001000
44
0.0000000001
12
-0.0121390688
22
0.1530578214
32
0.0000000000
13
0.1367393794
23
0.0698311949
33
0.0000000000
40
0.0000000000
40
0.0000000000
40
0.0000000000
40
0.0000000000
40
0.3281562210
40
0.6826890881
40
1.0000000000
40
1.0000000000
40
1.0000000000
40
1.0000000000
10
-4.0440305007
20
-9.9260671272
30
0.0000000000
10
-4.0453583377
20
-9.9093248351
30
0.0000000000
10
-4.0392224307
20
-9.8737789738
30
0.0000000000
10
-4.0148343441
20
-9.8281706699
30
0.0000000000
10
-3.9887064638
20
-9.8039042585
30
0.0000000000
10
-3.9742434981
20
-9.7965181918
30
0.0000000000
11
-4.0440305007
21
-9.9260671272
31
0.0000000000
11
-4.0370302863
21
-9.8761711909
31
0.0000000000
11
-4.0112134801
21
-9.8282483456
31
0.0000000000
11
-3.9742434981
21
-9.7965181918
31
0.0000000000
0
SPLINE
5
2CB
100
AcDbEntity
8
0
100
AcDbSpline
62
9
6
CONTINUOUS
70
0
71
3
72
8
73
4
74
2
42
0.0000001000
43
0.0000001000
44
0.0000000001
12
-0.0992667342
22
0.0496356873
32
0.0000000000
13
-0.0921591809
23
0.0622833931
33
0.0000000000
40
0.0000000000
40
0.0000000000
40
0.0000000000
40
0.0000000000
40
1.0000000000
40
1.0000000000
40
1.0000000000
40
1.0000000000
10
-3.9742434986
20
-9.7965181917
30
0.0000000000
10
-4.0073324100
20
-9.7799729626
30
0.0000000000
10
-4.0392407891
20
-9.7610205757
30
0.0000000000
10
-4.0699605160
20
-9.7402594447
30
0.0000000000
11
-3.9742434986
21
-9.7965181917
31
0.0000000000
11
-4.0699605160
21
-9.7402594447
31
0.0000000000
0
SPLINE
5
2CC
100
AcDbEntity
8
0
100
AcDbSpline
62
9
6
CONTINUOUS
70
0
71
3
72
9
73
5
74
3
42
0.0000001000
43
0.0000001000
44
0.0000000001
12
-0.1069968809
22
0.0723110679
32
0.0000000000
13
-0.0974203661
23
0.0845687574
33
0.0000000000
40
0.0000000000
40
0.0000000000
40
0.0000000000
40
0.0000000000
40
0.4806525421
40
1.0000000000
40
1.0000000000
40
1.0000000000
40
1.0000000000
10
-4.0699605160
20
-9.7402594447
30
0.0000000000
10
-4.0871032903
20
-9.7286739451
30
0.0000000000
10
-4.1219988104
20
-9.7033984021
30
0.0000000000
10
-4.1552860117
20
-9.6761349336
30
0.0000000000
10
-4.1721510182
20
-9.6614947439
30
0.0000000000
11
-4.0699605160
21
-9.7402594447
31
0.0000000000
11
-4.1202769663
21
-9.7039171729
31
0.0000000000
11
-4.1721510182
21
-9.6614947439
31
0.0000000000
0
SPLINE
5
2CD
100
AcDbEntity
8
0
100
AcDbSpline
62
9
6
CONTINUOUS
70
0
71
3
72
10
73
6
74
4
42
0.0000001000
43
0.0000001000
44
0.0000000001
12
-0.4510279425
22
0.3915287345
32
0.0000000000
13
-0.2521253283
23
0.5414043727
33
0.0000000000
40
0.0000000000
40
0.0000000000
40
0.0000000000
40
0.0000000000
40
0.2431973191
40
0.6302044708
40
1.0000000000
40
1.0000000000
40
1.0000000000
40
1.0000000000
10
-4.1721510182
20
-9.6614947439
30
0.0000000000
10
-4.2087139470
20
-9.6297551643
30
0.0000000000
10
-4.2983132673
20
-9.5416493604
30
0.0000000000
10
-4.4205372399
20
-9.3837508772
30
0.0000000000
10
-4.4944266574
20
-9.2520765645
30
0.0000000000
10
-4.5255049304
20
-9.1853402590
30
0.0000000000
11
-4.1721510182
21
-9.6614947439
31
0.0000000000
11
-4.2759946927
21
-9.5600566392
31
0.0000000000
11
-4.4177743836
21
-9.3778490741
31
0.0000000000
11
-4.5255049304
21
-9.1853402590
31
0.0000000000
0
SPLINE
5
2CE
100
AcDbEntity
8
0
100
AcDbSpline
62
9
6
CONTINUOUS
70
0
71
3
72
8
73
4
74
2
42
0.0000001000
43
0.0000001000
44
0.0000000001
12
-0.0556282324
22
0.1194539574
32
0.0000000000
13
-0.0439908322
23
0.1241399507
33
0.0000000000
40
0.0000000000
40
0.0000000000
40
0.0000000000
40
0.0000000000
40
1.0000000000
40
1.0000000000
40
1.0000000000
40
1.0000000000
10
-4.5255049304
20
-9.1853402590
30
0.0000000000
10
-4.5440476746
20
-9.1455222732
30
0.0000000000
10
-4.5608011497
20
-9.1048511807
30
0.0000000000
10
-4.5754647604
20
-9.0634711971
30
0.0000000000
11
-4.5255049304
21
-9.1853402590
31
0.0000000000
11
-4.5754647604
21
-9.0634711971
31
0.0000000000
0
SPLINE
5
2CF
100
AcDbEntity
8
0
100
AcDbSpline
62
9
6
CONTINUOUS
70
0
71
3
72
8
73
4
74
2
42
0.0000001000
43
0.0000001000
44
0.0000000001
12
-0.0196389930
22
0.0554202661
32
0.0000000000
13
-0.0170596572
23
0.0562294763
33
0.0000000000
40
0.0000000000
40
0.0000000000
40
0.0000000000
40
0.0000000000
40
1.0000000000
40
1.0000000000
40
1.0000000000
40
1.0000000000
10
-4.5754647604
20
-9.0634711971
30
0.0000000000
10
-4.5820110914
20
-9.0449977751
30
0.0000000000
10
-4.5881409059
20
-9.0263830688
30
0.0000000000
10
-4.5938274583
20
-9.0076399100
30
0.0000000000
11
-4.5754647604
21
-9.0634711971
31
0.0000000000
11
-4.5938274583
21
-9.0076399100
31
0.0000000000
0
SPLINE
5
2D0
100
AcDbEntity
8
0
100
AcDbSpline
62
9
6
CONTINUOUS
70
0
71
3
72
12
73
8
74
6
42
0.0000001000
43
0.0000001000
44
0.0000000001
12
-0.9577396375
22
0.4789253713
32
0.0000000000
13
-0.3570805447
23
1.0103458671
33
0.0000000000
40
0.0000000000
40
0.0000000000
40
0.0000000000
40
0.0000000000
40
0.1797293892
40
0.4007710908
40
0.6416797791
40
0.8722373876
40
1.0000000000
40
1.0000000000
40
1.0000000000
40
1.0000000000
10
-4.0440305007
20
-9.9260671272
30
0.0000000000
10
-4.1014084874
20
-9.8973748057
30
0.0000000000
10
-4.2221875040
20
-9.8187765636
30
0.0000000000
10
-4.3895610273
20
-9.6609059777
30
0.0000000000
10
-4.5404895916
20
-9.4638298136
30
0.0000000000
10
-4.6442380639
20
-9.2759637074
30
0.0000000000
10
-4.6925350929
20
-9.1572007872
30
0.0000000000
10
-4.7077422740
20
-9.1141726447
30
0.0000000000
11
-4.0440305007
21
-9.9260671272
31
0.0000000000
11
-4.2064705792
21
-9.8228558636
31
0.0000000000
11
-4.3798424393
21
-9.6617157955
31
0.0000000000
11
-4.5372297099
21
-9.4573228354
31
0.0000000000
11
-4.6563465252
21
-9.2410761488
31
0.0000000000
11
-4.7077422740
21
-9.1141726447
31
0.0000000000
0
SPLINE
5
2D1
100
AcDbEntity
8
0
100
AcDbSpline
62
9
6
CONTINUOUS
70
0
71
3
72
8
73
4
74
2
42
0.0000001000
43
0.0000001000
44
0.0000000001
12
-0.0254384522
22
0.0719771363
32
0.0000000000
13
-0.0215434440
23
0.0731794005
33
0.0000000000
40
0.0000000000
40
0.0000000000
40
0.0000000000
40
0.0000000000
40
1.0000000000
40
1.0000000000
40
1.0000000000
40
1.0000000000
10
-4.7077422740
20
-9.1141726447
30
0.0000000000
10
-4.7162217580
20
-9.0901802659
30
0.0000000000
10
-4.7240751836
20
-9.0659758275
30
0.0000000000
10
-4.7312563316
20
-9.0415826940
30
0.0000000000
11
-4.7077422740
21
-9.1141726447
31
0.0000000000
11
-4.7312563316
21
-9.0415826940
31
0.0000000000
0
SPLINE
5
2D2
100
AcDbEntity
8
0
100
AcDbSpline
62
9
6
CONTINUOUS
70
0
71
3
72
10
73
6
74
4
42
0.0000001000
43
0.0000001000
44
0.0000000001
12
-0.0121390771
22
0.1530578199
32
0.0000000000
13
0.1367393822
23
0.0698311879
33
0.0000000000
40
0.0000000000
40
0.0000000000
40
0.0000000000
40
0.0000000000
40
0.3281354171
40
0.6826722453
40
1.0000000000
40
1.0000000000
40
1.0000000000
40
1.0000000000
10
4.1511742847
20
-14.0236695199
30
0.0000000000
10
4.1498465310
20
-14.0069282894
30
0.0000000000
10
4.1559817705
20
-13.9713833379
30
0.0000000000
10
4.1803690968
20
-13.9257746060
30
0.0000000000
10
4.2064975531
20
-13.9015070424
30
0.0000000000
10
4.2209612868
20
-13.8941205844
30
0.0000000000
11
4.1511742847
21
-14.0236695199
31
0.0000000000
11
4.1581734635
21
-13.9737766641
31
0.0000000000
11
4.1839896723
21
-13.9258528064
31
0.0000000000
11
4.2209612868
21
-13.8941205844
31
0.0000000000
0
SPLINE
5
2D3
100
AcDbEntity
8
0
100
AcDbSpline
62
9
6
CONTINUOUS
70
0
71
3
72
9
73
5
74
3
42
0.0000001000
43
0.0000001000
44
0.0000000001
12
-0.0547608117
22
0.0459436402
32
0.0000000000
13
0.0140578364
23
0.0712547645
33
0.0000000000
40
0.0000000000
40
0.0000000000
40
0.0000000000
40
0.0000000000
40
0.6072700504
40
1.0000000000
40
1.0000000000
40
1.0000000000
40
1.0000000000
10
4.7529751510
20
-13.7836975310
30
0.0000000000
10
4.7418902840
20
-13.7743974655
30
0.0000000000
10
4.7257964629
20
-13.7548123573
30
0.0000000000
10
4.7239236457
20
-13.7294686872
30
0.0000000000
10
4.7257639568
20
-13.7201407271
30
0.0000000000
11
4.7529751510
21
-13.7836975310
31
0.0000000000
11
4.7275880708
21
-13.7484869415
31
0.0000000000
11
4.7257639568
21
-13.7201407271
31
0.0000000000
0
SPLINE
5
2D4
100
AcDbEntity
8
0
100
AcDbSpline
62
9
6
CONTINUOUS
70
0
71
3
72
8
73
4
74
2
42
0.0000001000
43
0.0000001000
44
0.0000000001
12
-0.0168907114
22
-0.0783781484
32
0.0000000000
13
-0.0283531977
23
-0.0752294433
33
0.0000000000
40
0.0000000000
40
0.0000000000
40
0.0000000000
40
0.0000000000
40
1.0000000000
40
1.0000000000
40
1.0000000000
40
1.0000000000
10
4.7529743329
20
-13.7836980262
30
0.0000000000
10
4.7473440957
20
-13.8098240757
30
0.0000000000
10
4.7399830727
20
-13.8356686841
30
0.0000000000
10
4.7305320068
20
-13.8607451652
30
0.0000000000
11
4.7529743329
21
-13.7836980262
31
0.0000000000
11
4.7305320068
21
-13.8607451652
31
0.0000000000
0
SPLINE
5
2D5
100
AcDbEntity
8
0
100
AcDbSpline
62
9
6
CONTINUOUS
70
0
71
3
72
13
73
9
74
7
42
0.0000001000
43
0.0000001000
44
0.0000000001
12
-0.2441483342
22
-0.6477979479
32
0.0000000000
13
-0.6174855035
23
0.3088224245
33
0.0000000000
40
0.0000000000
40
0.0000000000
40
0.0000000000
40
0.0000000000
40
0.0569758288
40
0.2297668436
40
0.4049336776
40
0.5908758994
40
0.7914461637
40
1.0000000000
40
1.0000000000
40
1.0000000000
40
1.0000000000
10
4.7305320068
20
-13.8607451652
30
0.0000000000
10
4.7258951555
20
-13.8730481068
30
0.0000000000
10
4.7051673037
20
-13.9219166551
30
0.0000000000
10
4.6530024124
20
-14.0010945630
30
0.0000000000
10
4.5496370874
20
-14.0737442531
30
0.0000000000
10
4.4196311991
20
-14.0996782631
30
0.0000000000
10
4.2822420254
20
-14.0802009797
30
0.0000000000
10
4.1941006083
20
-14.0451382204
30
0.0000000000
10
4.1511742847
20
-14.0236695199
30
0.0000000000
11
4.7305320068
21
-13.8607451652
31
0.0000000000
11
4.7150697771
21
-13.8970418397
31
0.0000000000
11
4.6477499038
21
-13.9955280572
31
0.0000000000
11
4.5485067089
21
-14.0646390982
31
0.0000000000
11
4.4230687736
21
-14.0919447328
31
0.0000000000
11
4.2856035735
21
-14.0752537762
31
0.0000000000
11
4.1511742847
21
-14.0236695199
31
0.0000000000
0
ENDSEC
0
SECTION
2
OBJECTS
0
DICTIONARY
5
2D6
100
AcDbDictionary
3
ACAD_GROUP
350
2D7
3
ACAD_MLINESTYLE
350
2D8
0
DICTIONARY
5
2D7
102
{ACAD_REACTORS
330
2D6
102
}
100
AcDbDictionary
0
DICTIONARY
5
2D8
102
{ACAD_REACTORS
330
2D6
102
}
100
AcDbDictionary
3
STANDARD
350
2D9
0
MLINESTYLE
5
2D9
102
{ACAD_REACTORS
330
2D8
102
}
100
AcDbMlineStyle
2
STANDARD
70
0
3

62
256
51
90.0
52
90.0
71
2
49
0.5
62
256
6
BYLAYER
49
-0.5
62
256
6
BYLAYER
0
ENDSEC
0
EOF
