0
SECTION
2
HEADER
9
$ACADVER
1
AC1014
9
$HANDSEED
5
       41D
9
$EXTMAX
10
297.0000000000
20
210.0000000000
9
$EXTMIN
10
0.0000000000
20
0.0000000000
9
$LIMMIN
10
0.0000000000
20
0.0000000000
9
$LIMMAX
10
297.0000000000
20
210.0000000000
9
$VIEWCTR
10
148.5000000000
20
105.0000000000
9
$VIEWSIZE
40
210.0000000000
9
$CLAYER
8
0
9
$LTSCALE
40
16.3350000000
9
$CELTYPE
6
BYLAYER
9
$DIMSCALE
40
1
9
$DIMASZ
40
3.0000000000
9
$DIMEXO
40
1.8562500000
9
$DIMDLI
40
11.2860000000
9
$DIMEXE
40
5.3460000000
9
$DIMCEN
40
2.6730000000
9
$DIMLFAC
40
1.0000000000
9
$DIMTXT
40
3.0000000000
9
$DIMTOL
70
1
9
$DIMLIM
70
0
9
$DIMTFAC
40
1.0000000000
9
$DIMTP
40
0.0100000000
9
$DIMTM
40
0.0100000000
9
$MEASUREMENT
70
1
0
ENDSEC
0
SECTION
2
CLASSES
0
ENDSEC
0
SECTION
2
TABLES
0
TABLE
2
VPORT
5
8
100
AcDbSymbolTable
70
2
0
VPORT
5
1F4
100
AcDbSymbolTableRecord
100
AcDbViewportTableRecord
2
*ACTIVE
70
0
10
0.0
20
0.0
11
1.0
21
1.0
12
148.5000000000
22
105.0000000000
13
0.0
23
0.0
14
1.0
24
1.0
15
0.0
25
0.0
16
0.0
26
0.0
36
1.0
17
0.0
27
0.0
37
0.0
40
210.0000000000
41
1.4142857143
42
50.0
43
0.0
44
0.0
50
0.0
51
0.0
71
0
72
100
73
1
74
1
75
0
76
0
77
0
78
0
0
ENDTAB
0
TABLE
2
LTYPE
5
5
100
AcDbSymbolTable
70
6
0
LTYPE
5
14
100
AcDbSymbolTableRecord
100
AcDbLinetypeTableRecord
2
BYBLOCK
70
0
3

72
65
73
0
40
0.0
0
LTYPE
5
15
100
AcDbSymbolTableRecord
100
AcDbLinetypeTableRecord
2
BYLAYER
70
0
3

72
65
73
0
40
0.0
0
LTYPE
5
16
100
AcDbSymbolTableRecord
100
AcDbLinetypeTableRecord
2
CONTINUOUS
70
64
3
Solid line
72
65
73
0
40
0
0
LTYPE
5
1F5
100
AcDbSymbolTableRecord
100
AcDbLinetypeTableRecord
2
CENTER
70
64
3
____ _ ____ _ ____ _ ____ _ ____ _ ____ _ ____
72
65
73
4
40
0.6
49
0.375
74
0
49
-0.075
74
0
49
0.075
74
0
49
-0.075
74
0
0
LTYPE
5
1F6
100
AcDbSymbolTableRecord
100
AcDbLinetypeTableRecord
2
HIDDEN
70
64
3
- - - - - - - - - - - - - - - - - - - -
72
65
73
2
40
0.2
49
0.1
74
0
49
-0.1
74
0
0
LTYPE
5
1F7
100
AcDbSymbolTableRecord
100
AcDbLinetypeTableRecord
2
PHANTOM
70
64
3
_____ _ _ _____ _ _ _____ _ _ _____
72
65
73
6
40
0.8
49
0.45
74
0
49
-0.05
74
0
49
0.1
74
0
49
-0.05
74
0
49
0.1
74
0
49
-0.05
74
0
0
LTYPE
5
1F8
100
AcDbSymbolTableRecord
100
AcDbLinetypeTableRecord
2
DOT
70
64
3
. . . . . . . . . . . . . . . . . . . .
72
65
73
2
40
0.2
49
0.1
74
0
49
-0.1
74
0
0
LTYPE
5
1F9
100
AcDbSymbolTableRecord
100
AcDbLinetypeTableRecord
2
DASHED
70
64
3
- - - - - - - - - - - - - - - - - - - -
72
65
73
2
40
0.2
49
0.1
74
0
49
-0.1
74
0
0
ENDTAB
0
TABLE
2
LAYER
5
2
100
AcDbSymbolTable
70
36
0
LAYER
5
10
100
AcDbSymbolTableRecord
100
AcDbLayerTableRecord
2
0
70
0
62
7
6
CONTINUOUS
0
LAYER
5
1FA
100
AcDbSymbolTableRecord
100
AcDbLayerTableRecord
2
DEFAULT_1
70
0
62
7
6
CENTER
0
LAYER
5
1FB
100
AcDbSymbolTableRecord
100
AcDbLayerTableRecord
2
DEFAULT_2
70
0
62
8
6
HIDDEN
0
LAYER
5
1FC
100
AcDbSymbolTableRecord
100
AcDbLayerTableRecord
2
DEFAULT_3
70
0
62
7
6
PHANTOM
0
LAYER
5
1FD
100
AcDbSymbolTableRecord
100
AcDbLayerTableRecord
2
ASSI
70
0
62
7
6
CONTINUOUS
0
LAYER
5
1FE
100
AcDbSymbolTableRecord
100
AcDbLayerTableRecord
2
COORDINATE
70
0
62
7
6
CONTINUOUS
0
LAYER
5
1FF
100
AcDbSymbolTableRecord
100
AcDbLayerTableRecord
2
COORD_ORIGINE
70
0
62
7
6
CONTINUOUS
0
LAYER
5
200
100
AcDbSymbolTableRecord
100
AcDbLayerTableRecord
2
COPY_GEOMETRY
70
0
62
7
6
CONTINUOUS
0
LAYER
5
201
100
AcDbSymbolTableRecord
100
AcDbLayerTableRecord
2
CURVE
70
0
62
7
6
CONTINUOUS
0
LAYER
5
202
100
AcDbSymbolTableRecord
100
AcDbLayerTableRecord
2
DRAFT
70
0
62
7
6
CONTINUOUS
0
LAYER
5
203
100
AcDbSymbolTableRecord
100
AcDbLayerTableRecord
2
NOTE
70
0
62
7
6
CONTINUOUS
0
LAYER
5
204
100
AcDbSymbolTableRecord
100
AcDbLayerTableRecord
2
PIANI
70
0
62
7
6
CONTINUOUS
0
LAYER
5
205
100
AcDbSymbolTableRecord
100
AcDbLayerTableRecord
2
PIANI_ORIGINE
70
0
62
7
6
CONTINUOUS
0
LAYER
5
206
100
AcDbSymbolTableRecord
100
AcDbLayerTableRecord
2
PIANI_RIFERIMENTO
70
0
62
7
6
CONTINUOUS
0
LAYER
5
207
100
AcDbSymbolTableRecord
100
AcDbLayerTableRecord
2
PUNTI
70
0
62
7
6
CONTINUOUS
0
LAYER
5
208
100
AcDbSymbolTableRecord
100
AcDbLayerTableRecord
2
RACCORDO
70
0
62
7
6
CONTINUOUS
0
LAYER
5
209
100
AcDbSymbolTableRecord
100
AcDbLayerTableRecord
2
SMUSSO
70
0
62
7
6
CONTINUOUS
0
LAYER
5
20A
100
AcDbSymbolTableRecord
100
AcDbLayerTableRecord
2
SUPERFICI
70
0
62
7
6
CONTINUOUS
0
LAYER
5
20B
100
AcDbSymbolTableRecord
100
AcDbLayerTableRecord
2
TRASH
70
0
62
7
6
CONTINUOUS
0
LAYER
5
20C
100
AcDbSymbolTableRecord
100
AcDbLayerTableRecord
2
XSEC_DATUMS
70
0
62
7
6
CONTINUOUS
0
ENDTAB
0
TABLE
2
STYLE
5
3
100
AcDbSymbolTable
70
1
0
STYLE
5
11
100
AcDbSymbolTableRecord
100
AcDbTextStyleTableRecord
2
STANDARD
70
0
40
0.0
41
0.8000000000
50
0.0
71
0
42
0.2
3
txt
4

0
ENDTAB
0
TABLE
2
VIEW
5
6
100
AcDbSymbolTable
70
0
0
ENDTAB
0
TABLE
2
UCS
5
7
100
AcDbSymbolTable
70
0
0
ENDTAB
0
TABLE
2
APPID
5
9
100
AcDbSymbolTable
70
1
0
APPID
5
20D
100
AcDbSymbolTableRecord
100
AcDbRegAppTableRecord
2
ACAD
70
0
0
ENDTAB
0
TABLE
2
DIMSTYLE
5
A
100
AcDbSymbolTable
70
1
0
DIMSTYLE
105
20E
100
AcDbSymbolTableRecord
100
AcDbDimStyleTableRecord
2
STANDARD
70
0
3

4

5

6

7

40
1.0
41
3.0000000000
42
0.0625
43
0.38
44
0.18
45
0.0
46
0.0
47
0.0100000000
48
0.0100000000
140
3.0000000000
141
0.09
142
0.0
143
25.4
144
1.0000000000
145
0.0
146
1.0000000000
147
0.09
71
1
72
0
73
0
74
0
75
0
76
0
77
1
78
8
170
0
171
2
172
0
173
0
174
0
175
0
176
0
177
0
178
0
270
2
271
2
272
2
273
2
274
2
340
11
275
0
280
0
281
0
282
0
283
1
284
8
285
0
286
0
287
3
288
0
0
ENDTAB
0
TABLE
2
BLOCK_RECORD
5
1
100
AcDbSymbolTable
70
0
0
BLOCK_RECORD
5
1B
100
AcDbSymbolTableRecord
100
AcDbBlockTableRecord
2
*MODEL_SPACE
0
BLOCK_RECORD
5
1C
100
AcDbSymbolTableRecord
100
AcDbBlockTableRecord
2
*PAPER_SPACE
0
ENDTAB
0
ENDSEC
0
SECTION
2
BLOCKS
0
BLOCK
5
1E
100
AcDbEntity
8
0
100
AcDbBlockBegin
2
*MODEL_SPACE
70
0
10
0.0
20
0.0
30
0.0
3
*MODEL_SPACE
1

0
ENDBLK
5
1F
100
AcDbEntity
8
0
100
AcDbBlockEnd
0
BLOCK
5
20
100
AcDbEntity
8
0
100
AcDbBlockBegin
2
*PAPER_SPACE
70
0
10
0.0
20
0.0
30
0.0
3
*PAPER_SPACE
1

0
ENDBLK
5
21
100
AcDbEntity
8
0
100
AcDbBlockEnd
0
ENDSEC
0
SECTION
2
ENTITIES
0
LINE
5
20F
100
AcDbEntity
8
0
100
AcDbLine
62
7
6
CONTINUOUS
10
-13.4298025686
20
25.9718965431
11
-10.6946491708
21
27.3229436059
0
LINE
5
210
100
AcDbEntity
8
0
100
AcDbLine
62
9
6
CONTINUOUS
10
-13.1991108157
20
25.9610963094
11
-10.4675577674
21
27.3103649558
0
LINE
5
211
100
AcDbEntity
8
0
100
AcDbLine
62
9
6
CONTINUOUS
10
22.3731549857
20
-26.4364541985
11
21.8448878140
21
-26.3279519214
0
LINE
5
212
100
AcDbEntity
8
0
100
AcDbLine
62
9
6
CONTINUOUS
10
22.2837411903
20
-26.1168873925
11
21.8448878140
21
-26.0267500658
0
LINE
5
213
100
AcDbEntity
8
0
100
AcDbLine
62
7
6
CONTINUOUS
10
-14.0495471316
20
25.0694802655
11
-14.0495595452
21
25.0693974782
0
LINE
5
214
100
AcDbEntity
8
0
100
AcDbLine
62
7
6
CONTINUOUS
10
-15.2135265279
20
-12.9051123104
11
15.3883981228
21
-28.2060746615
0
LINE
5
215
100
AcDbEntity
8
0
100
AcDbLine
62
9
6
CONTINUOUS
10
-15.4665561805
20
-12.4478837302
11
15.1281012870
21
-27.7452124639
0
LINE
5
216
100
AcDbEntity
8
0
100
AcDbLine
62
7
6
CONTINUOUS
10
15.3876844515
20
-28.2057169379
11
15.3884862079
21
-28.2061186850
0
LINE
5
217
100
AcDbEntity
8
0
100
AcDbLine
62
7
6
CONTINUOUS
10
-15.6130906042
20
-12.2696388902
11
-15.6130691578
21
-12.2699068413
0
LINE
5
218
100
AcDbEntity
8
0
100
AcDbLine
62
7
6
CONTINUOUS
10
5.8613645283
20
20.0996085065
11
6.4315650423
21
20.4320876325
0
LINE
5
219
100
AcDbEntity
8
0
100
AcDbLine
62
9
6
CONTINUOUS
10
6.0952684907
20
20.0911617641
11
6.5386586500
21
20.3496988384
0
LINE
5
21A
100
AcDbEntity
8
0
100
AcDbLine
62
7
6
CONTINUOUS
10
5.9715515902
20
21.4469561796
11
7.5547232852
21
22.2591532269
0
LINE
5
21B
100
AcDbEntity
8
0
100
AcDbLine
62
9
6
CONTINUOUS
10
6.0846372564
20
21.4405082045
11
7.6673938596
21
22.2524923018
0
LINE
5
21C
100
AcDbEntity
8
0
100
AcDbLine
62
9
6
CONTINUOUS
10
7.7631753268
20
20.6012391692
11
9.3644561176
21
21.4039611727
0
LINE
5
21D
100
AcDbEntity
8
0
100
AcDbLine
62
9
6
CONTINUOUS
10
7.9399490305
20
20.2963496304
11
9.5412298213
21
21.0990716339
0
LINE
5
21E
100
AcDbEntity
8
0
100
AcDbLine
62
7
6
CONTINUOUS
10
7.5547252549
20
22.2591542374
11
7.5564616723
21
22.2600224605
0
LINE
5
21F
100
AcDbEntity
8
0
100
AcDbLine
62
9
6
CONTINUOUS
10
9.3644561176
20
21.4039611727
11
9.8927232894
21
21.6673999928
0
LINE
5
220
100
AcDbEntity
8
0
100
AcDbLine
62
9
6
CONTINUOUS
10
9.5412298213
20
21.0990716339
11
10.0694969931
21
21.3625104540
0
LINE
5
221
100
AcDbEntity
8
0
100
AcDbLine
62
7
6
CONTINUOUS
10
7.5564644363
20
22.2600238069
11
8.0913316271
21
22.5205745594
0
LINE
5
222
100
AcDbEntity
8
0
100
AcDbLine
62
9
6
CONTINUOUS
10
7.6673938596
20
22.2524923018
11
8.2018437382
21
22.5128397684
0
LINE
5
223
100
AcDbEntity
8
0
100
AcDbLine
62
7
6
CONTINUOUS
10
18.5348889520
20
-27.2591523958
11
19.9560583599
21
-27.9697370998
0
LINE
5
224
100
AcDbEntity
8
0
100
AcDbLine
62
9
6
CONTINUOUS
10
18.6515645815
20
-27.2147584087
11
19.8910850635
21
-27.8345186497
0
LINE
5
225
100
AcDbEntity
8
0
100
AcDbLine
62
9
6
CONTINUOUS
10
19.8910850635
20
-27.4945447155
11
18.9763301292
21
-27.0371672484
0
LINE
5
226
100
AcDbEntity
8
0
100
AcDbLine
62
9
6
CONTINUOUS
10
19.9794734111
20
-27.2628505417
11
19.0305523608
21
-26.7883900166
0
LINE
5
227
100
AcDbEntity
8
0
100
AcDbLine
62
7
6
CONTINUOUS
10
20.6023056716
20
-26.5180482384
11
19.0738941356
21
-25.7538424704
0
LINE
5
228
100
AcDbEntity
8
0
100
AcDbLine
62
7
6
CONTINUOUS
10
-4.2733760820
20
-13.8571045438
11
-12.4685809132
21
-9.7595021282
0
LINE
5
229
100
AcDbEntity
8
0
100
AcDbLine
62
7
6
CONTINUOUS
10
-4.2528317637
20
-13.7388713368
11
-12.4480365461
21
-9.6412689456
0
LINE
5
22A
100
AcDbEntity
8
0
100
AcDbLine
62
9
6
CONTINUOUS
10
-4.2787717880
20
-13.6879924095
11
-12.4739765735
21
-9.5903900168
0
LINE
5
22B
100
AcDbEntity
8
0
100
AcDbLine
62
7
6
CONTINUOUS
10
21.1189191355
20
-26.0824422431
11
20.6023056716
21
-25.8241355112
0
LINE
5
22C
100
AcDbEntity
8
0
100
AcDbLine
62
7
6
CONTINUOUS
10
9.5412298213
20
19.4969209730
11
8.6511696386
21
19.0002400517
0
LINE
5
22D
100
AcDbEntity
8
0
100
AcDbLine
62
7
6
CONTINUOUS
10
11.5211288086
20
19.8926121254
11
10.4666393772
21
19.3516390867
0
LINE
5
22E
100
AcDbEntity
8
0
100
AcDbLine
62
7
6
CONTINUOUS
10
11.1322200790
20
19.0188487358
11
11.9799254649
21
19.4487416325
0
LINE
5
22F
100
AcDbEntity
8
0
100
AcDbLine
62
9
6
CONTINUOUS
10
13.6062710617
20
18.6355688341
11
13.8192258475
21
18.7435636059
0
LINE
5
230
100
AcDbEntity
8
0
100
AcDbLine
62
9
6
CONTINUOUS
10
13.7485151694
20
18.3920673821
11
13.9606472037
21
18.4996449158
0
LINE
5
231
100
AcDbEntity
8
0
100
AcDbLine
62
7
6
CONTINUOUS
10
19.2832310926
20
20.7565000059
11
14.6677539849
21
18.4487614521
0
LINE
5
232
100
AcDbEntity
8
0
100
AcDbLine
62
7
6
CONTINUOUS
10
17.2782421425
20
23.3552515782
11
10.2442227756
21
19.8474928886
0
LINE
5
233
100
AcDbEntity
8
0
100
AcDbLine
62
7
6
CONTINUOUS
10
17.4982379883
20
22.1716127040
11
12.8999870319
21
19.9052514065
0
LINE
5
234
100
AcDbEntity
8
0
100
AcDbLine
62
7
6
CONTINUOUS
10
14.2955717174
20
19.2074590637
11
17.5293849279
21
20.8013235947
0
LINE
5
235
100
AcDbEntity
8
0
100
AcDbLine
62
9
6
CONTINUOUS
10
13.8192258475
20
18.7435636059
11
14.5263326287
21
19.0920786081
0
LINE
5
236
100
AcDbEntity
8
0
100
AcDbLine
62
7
6
CONTINUOUS
10
14.6127195335
20
19.0127389839
11
20.3287219917
21
21.8300116536
0
LINE
5
237
100
AcDbEntity
8
0
100
AcDbLine
62
9
6
CONTINUOUS
10
13.9606472037
20
18.4996449158
11
14.6677539849
21
18.8481599180
0
LINE
5
238
100
AcDbEntity
8
0
100
AcDbLine
62
7
6
CONTINUOUS
10
16.8573522146
20
22.4920555908
11
11.5211288086
21
19.8926121254
0
LINE
5
239
100
AcDbEntity
8
0
100
AcDbLine
62
9
6
CONTINUOUS
10
21.8448878140
20
-25.8974607043
11
22.2837411903
21
-26.1168873925
0
LINE
5
23A
100
AcDbEntity
8
0
100
AcDbLine
62
7
6
CONTINUOUS
10
21.8448878140
20
-25.8938405547
11
22.3071562416
21
-26.1249747686
0
LINE
5
23B
100
AcDbEntity
8
0
100
AcDbLine
62
7
6
CONTINUOUS
10
-12.8978780590
20
-3.8029508369
11
-12.8979152197
21
-3.8030144136
0
LINE
5
23C
100
AcDbEntity
8
0
100
AcDbLine
62
7
6
CONTINUOUS
10
11.1322200790
20
17.5726859700
11
11.8393268602
21
17.9716258288
0
LINE
5
23D
100
AcDbEntity
8
0
100
AcDbLine
62
7
6
CONTINUOUS
10
13.9606472037
20
17.2872122818
11
13.7485151694
21
17.1675303241
0
LINE
5
23E
100
AcDbEntity
8
0
100
AcDbLine
62
7
6
CONTINUOUS
10
15.4264585324
20
17.9005233680
11
15.2136920301
21
17.7926240795
0
LINE
5
23F
100
AcDbEntity
8
0
100
AcDbLine
62
9
6
CONTINUOUS
10
15.5162821223
20
17.8950354685
11
15.3033273365
21
17.7870406967
0
LINE
5
240
100
AcDbEntity
8
0
100
AcDbLine
62
7
6
CONTINUOUS
10
16.9296729333
20
16.9738678983
11
16.0819675473
21
16.5439750016
0
LINE
5
241
100
AcDbEntity
8
0
100
AcDbLine
62
7
6
CONTINUOUS
10
17.8143791612
20
16.7459869491
11
16.7475482490
21
16.2111846508
0
LINE
5
242
100
AcDbEntity
8
0
100
AcDbLine
62
7
6
CONTINUOUS
10
15.4272243526
20
17.9009062699
11
15.4264595670
21
17.9005238927
0
LINE
5
243
100
AcDbEntity
8
0
100
AcDbLine
62
7
6
CONTINUOUS
10
23.0888712303
20
19.3762960830
11
17.8143791612
21
16.7459869491
0
LINE
5
244
100
AcDbEntity
8
0
100
AcDbLine
62
7
6
CONTINUOUS
10
14.6677539849
20
17.6362311325
11
13.9606472037
21
17.2872122818
0
LINE
5
245
100
AcDbEntity
8
0
100
AcDbLine
62
7
6
CONTINUOUS
10
16.1343328550
20
18.2494221202
11
15.4272252082
21
17.9009066914
0
LINE
5
246
100
AcDbEntity
8
0
100
AcDbLine
62
9
6
CONTINUOUS
10
16.2233889035
20
18.2435504707
11
15.5162821223
21
17.8950354685
0
LINE
5
247
100
AcDbEntity
8
0
100
AcDbLine
62
7
6
CONTINUOUS
10
22.4479854566
20
19.6967389698
11
17.8497345003
21
17.4303776723
0
LINE
5
248
100
AcDbEntity
8
0
100
AcDbLine
62
7
6
CONTINUOUS
10
24.5713626788
20
19.7086913100
11
23.2525246785
21
19.0586695017
0
LINE
5
249
100
AcDbEntity
8
0
100
AcDbLine
62
7
6
CONTINUOUS
10
21.4722034015
20
-21.3042167365
11
19.3557509262
21
-20.2459904989
0
LINE
5
24A
100
AcDbEntity
8
0
100
AcDbLine
62
9
6
CONTINUOUS
10
14.8489011321
20
-17.7514241044
11
-3.7253682005
21
-8.4642894381
0
LINE
5
24B
100
AcDbEntity
8
0
100
AcDbLine
62
9
6
CONTINUOUS
10
-3.8884454598
20
-8.3827508084
11
-12.8822179145
21
-3.8858645811
0
LINE
5
24C
100
AcDbEntity
8
0
100
AcDbLine
62
9
6
CONTINUOUS
10
-13.0452951739
20
-3.8043259514
11
-15.7096619298
21
-2.4721425734
0
LINE
5
24D
100
AcDbEntity
8
0
100
AcDbLine
62
9
6
CONTINUOUS
10
-12.4748703925
20
-3.7885062073
11
-4.2796656071
21
-7.8861086000
0
LINE
5
24E
100
AcDbEntity
8
0
100
AcDbLine
62
9
6
CONTINUOUS
10
-12.4011163106
20
-3.6680560614
11
-4.2059115252
21
-7.7656584541
0
LINE
5
24F
100
AcDbEntity
8
0
100
AcDbLine
62
7
6
CONTINUOUS
10
-12.4697469231
20
-3.6027917132
11
-4.2745421376
21
-7.7003941060
0
LINE
5
250
100
AcDbEntity
8
0
100
AcDbLine
62
9
6
CONTINUOUS
10
9.5412298213
20
20.3720267815
11
10.0694969931
21
21.0149789372
0
LINE
5
251
100
AcDbEntity
8
0
100
AcDbLine
62
7
6
CONTINUOUS
10
9.5412298213
20
20.2824963151
11
10.0848575654
21
20.9441437706
0
LINE
5
252
100
AcDbEntity
8
0
100
AcDbLine
62
7
6
CONTINUOUS
10
17.8143791612
20
15.3603463030
11
16.7475482490
21
14.7650218850
0
LINE
5
253
100
AcDbEntity
8
0
100
AcDbLine
62
7
6
CONTINUOUS
10
18.2752095829
20
15.2951271833
11
19.8583812778
21
16.1073242306
0
LINE
5
254
100
AcDbEntity
8
0
100
AcDbLine
62
9
6
CONTINUOUS
10
18.3882952490
20
15.2886792081
11
19.9710518522
21
16.1006633055
0
LINE
5
255
100
AcDbEntity
8
0
100
AcDbLine
62
9
6
CONTINUOUS
10
20.0668333195
20
14.4494101729
11
21.6681141103
21
15.2521321764
0
LINE
5
256
100
AcDbEntity
8
0
100
AcDbLine
62
9
6
CONTINUOUS
10
20.2436070231
20
14.1445206341
11
21.8448878140
21
14.9472426376
0
LINE
5
257
100
AcDbEntity
8
0
100
AcDbLine
62
7
6
CONTINUOUS
10
19.8583832476
20
16.1073252411
11
19.8601196650
21
16.1081934641
0
LINE
5
258
100
AcDbEntity
8
0
100
AcDbLine
62
7
6
CONTINUOUS
10
17.8143791612
20
15.3603463030
11
23.1216898274
21
18.0070215731
0
LINE
5
259
100
AcDbEntity
8
0
100
AcDbLine
62
9
6
CONTINUOUS
10
21.6681141103
20
15.2521321764
11
22.1963812820
21
15.5155709965
0
LINE
5
25A
100
AcDbEntity
8
0
100
AcDbLine
62
9
6
CONTINUOUS
10
21.8448878140
20
14.9472426376
11
22.3731549857
21
15.2106814576
0
LINE
5
25B
100
AcDbEntity
8
0
100
AcDbLine
62
7
6
CONTINUOUS
10
19.8601224289
20
16.1081948105
11
20.3949896198
21
16.3687455631
0
LINE
5
25C
100
AcDbEntity
8
0
100
AcDbLine
62
9
6
CONTINUOUS
10
19.9710518522
20
16.1006633055
11
20.5055017309
21
16.3610107720
0
LINE
5
25D
100
AcDbEntity
8
0
100
AcDbLine
62
7
6
CONTINUOUS
10
27.6218425280
20
18.1834513854
11
22.2338747867
21
15.5588016150
0
LINE
5
25E
100
AcDbEntity
8
0
100
AcDbLine
62
7
6
CONTINUOUS
10
28.1654218284
20
-18.8287936402
11
28.5034618121
21
-18.9978136321
0
LINE
5
25F
100
AcDbEntity
8
0
100
AcDbLine
62
9
6
CONTINUOUS
10
26.2029284278
20
-17.2899475481
11
27.4107916091
21
-17.8938791388
0
LINE
5
260
100
AcDbEntity
8
0
100
AcDbLine
62
7
6
CONTINUOUS
10
26.2591332388
20
-17.2688757600
11
27.4609308369
21
-17.8697745590
0
LINE
5
261
100
AcDbEntity
8
0
100
AcDbLine
62
9
6
CONTINUOUS
10
27.6756979050
20
-17.7665246656
11
28.1080719182
21
-17.9827116722
0
LINE
5
262
100
AcDbEntity
8
0
100
AcDbLine
62
7
6
CONTINUOUS
10
27.7958862375
20
-17.7774446382
11
28.1643007869
21
-17.9616519129
0
LINE
5
263
100
AcDbEntity
8
0
100
AcDbLine
62
7
6
CONTINUOUS
10
21.8448878140
20
13.3450919766
11
20.9548276312
21
12.8484110554
0
LINE
5
264
100
AcDbEntity
8
0
100
AcDbLine
62
9
6
CONTINUOUS
10
22.1980931995
20
13.1684892839
11
21.1189191355
21
12.5793364418
0
LINE
5
265
100
AcDbEntity
8
0
100
AcDbLine
62
9
6
CONTINUOUS
10
22.5513774654
20
12.5586362573
11
21.4722034015
21
11.9694834152
0
LINE
5
266
100
AcDbEntity
8
0
100
AcDbLine
62
7
6
CONTINUOUS
10
28.5095783217
20
17.4434751314
11
22.0367437685
21
13.9512323922
0
LINE
5
267
100
AcDbEntity
8
0
100
AcDbLine
62
7
6
CONTINUOUS
10
28.1080719182
20
16.3019617046
11
22.8251497318
21
13.5570294105
0
LINE
5
268
100
AcDbEntity
8
0
100
AcDbLine
62
7
6
CONTINUOUS
10
28.5095783217
20
16.8516069582
11
22.4799045791
21
13.7296519869
0
LINE
5
269
100
AcDbEntity
8
0
100
AcDbLine
62
9
6
CONTINUOUS
10
22.8996901871
20
13.5197591829
11
22.1987542333
21
13.1681587670
0
LINE
5
26A
100
AcDbEntity
8
0
100
AcDbLine
62
9
6
CONTINUOUS
10
23.2532390903
20
12.9099866851
11
22.5523031365
21
12.5583862692
0
LINE
5
26B
100
AcDbEntity
8
0
100
AcDbLine
62
7
6
CONTINUOUS
10
-12.5561224506
20
-3.5677703189
11
-12.7256370516
21
-3.6439437979
0
LINE
5
26C
100
AcDbEntity
8
0
100
AcDbLine
62
9
6
CONTINUOUS
10
-12.3684188189
20
-3.6534557654
11
-12.4011163106
21
-3.6680560614
0
LINE
5
26D
100
AcDbEntity
8
0
100
AcDbLine
62
9
6
CONTINUOUS
10
20.2918295220
20
11.9306713111
11
17.4133732086
21
10.6548542972
0
LINE
5
26E
100
AcDbEntity
8
0
100
AcDbLine
62
9
6
CONTINUOUS
10
20.6267645446
20
11.3124354920
11
17.7483082312
21
10.0366184781
0
LINE
5
26F
100
AcDbEntity
8
0
100
AcDbLine
62
9
6
CONTINUOUS
10
-12.8691567824
20
-3.7599650437
11
-13.0586906589
21
-3.8425665304
0
LINE
5
270
100
AcDbEntity
8
0
100
AcDbLine
62
7
6
CONTINUOUS
10
23.2532390903
20
9.9777038496
11
23.9541750441
21
10.3419003431
0
LINE
5
271
100
AcDbEntity
8
0
100
AcDbLine
62
9
6
CONTINUOUS
10
-12.9588567199
20
-8.9146768468
11
-13.0585836682
21
-8.9581392313
0
LINE
5
272
100
AcDbEntity
8
0
100
AcDbLine
62
9
6
CONTINUOUS
10
-12.3312615337
20
-9.6996564518
11
-12.4685809132
21
-9.7595021282
0
LINE
5
273
100
AcDbEntity
8
0
100
AcDbLine
62
7
6
CONTINUOUS
10
20.3222368139
20
-7.4834499462
11
19.8492299046
21
-7.2469464915
0
LINE
5
274
100
AcDbEntity
8
0
100
AcDbLine
62
7
6
CONTINUOUS
10
5.7419842248
20
19.8345930035
11
5.7419842248
21
19.2055939597
0
LINE
5
275
100
AcDbEntity
8
0
100
AcDbLine
62
7
6
CONTINUOUS
10
5.8356656957
20
21.2245197371
11
5.8356656957
21
20.8845458030
0
LINE
5
276
100
AcDbEntity
8
0
100
AcDbLine
62
9
6
CONTINUOUS
10
5.9088890004
20
21.1361313895
11
5.9088890004
21
20.7961574554
0
LINE
5
277
100
AcDbEntity
8
0
100
AcDbLine
62
7
6
CONTINUOUS
10
6.5386586500
20
20.3785408287
11
6.5386586500
21
19.9245870867
0
LINE
5
278
100
AcDbEntity
8
0
100
AcDbLine
62
9
6
CONTINUOUS
10
6.6118819547
20
20.3419291763
11
6.6118819547
21
19.8328550322
0
LINE
5
279
100
AcDbEntity
8
0
100
AcDbLine
62
9
6
CONTINUOUS
10
-4.1830380428
20
-7.7554448385
11
-4.2059115252
21
-7.7656584541
0
LINE
5
27A
100
AcDbEntity
8
0
100
AcDbLine
62
9
6
CONTINUOUS
10
15.5520362137
20
-0.9679241883
11
-15.0065268481
21
14.3113573427
0
LINE
5
27B
100
AcDbEntity
8
0
100
AcDbLine
62
9
6
CONTINUOUS
10
7.5874270708
20
19.9568884202
11
7.5874270708
21
20.2968623543
0
LINE
5
27C
100
AcDbEntity
8
0
100
AcDbLine
62
9
6
CONTINUOUS
10
7.9399490305
20
19.9563756963
11
7.9399490305
21
20.2963496304
0
LINE
5
27D
100
AcDbEntity
8
0
100
AcDbLine
62
9
6
CONTINUOUS
10
8.2986476789
20
18.9894721701
11
8.2986476789
21
19.6782927930
0
LINE
5
27E
100
AcDbEntity
8
0
100
AcDbLine
62
9
6
CONTINUOUS
10
8.6511696386
20
19.0002400517
11
8.6511696386
21
19.8078721734
0
LINE
5
27F
100
AcDbEntity
8
0
100
AcDbLine
62
7
6
CONTINUOUS
10
9.5412298213
20
19.4969209730
11
9.5412298213
21
21.0990716339
0
LINE
5
280
100
AcDbEntity
8
0
100
AcDbLine
62
9
6
CONTINUOUS
10
10.0694969931
20
21.3625104540
11
10.0694969931
21
21.0149789372
0
LINE
5
281
100
AcDbEntity
8
0
100
AcDbLine
62
7
6
CONTINUOUS
10
10.1416948501
20
21.4503830861
11
10.1416948501
21
21.1028515694
0
LINE
5
282
100
AcDbEntity
8
0
100
AcDbLine
62
7
6
CONTINUOUS
10
10.4666393772
20
19.3516390867
11
10.4666393772
21
17.9054763209
0
LINE
5
283
100
AcDbEntity
8
0
100
AcDbLine
62
9
6
CONTINUOUS
10
21.8448878140
20
14.2201977851
11
22.3731549857
21
14.8631499409
0
LINE
5
284
100
AcDbEntity
8
0
100
AcDbLine
62
7
6
CONTINUOUS
10
21.8448878140
20
14.1306673188
11
22.3885155581
21
14.7923147743
0
LINE
5
285
100
AcDbEntity
8
0
100
AcDbLine
62
7
6
CONTINUOUS
10
11.1322200790
20
17.5726859700
11
11.1322200790
21
19.0188487358
0
LINE
5
286
100
AcDbEntity
8
0
100
AcDbLine
62
7
6
CONTINUOUS
10
11.8393268602
20
19.2052401805
11
11.8393268602
21
17.9716258288
0
LINE
5
287
100
AcDbEntity
8
0
100
AcDbLine
62
9
6
CONTINUOUS
10
13.4656724569
20
17.1584530305
11
13.4656724569
21
18.3920673821
0
LINE
5
288
100
AcDbEntity
8
0
100
AcDbLine
62
9
6
CONTINUOUS
10
13.7485151694
20
17.1675303241
11
13.7485151694
21
18.3920673821
0
LINE
5
289
100
AcDbEntity
8
0
100
AcDbLine
62
9
6
CONTINUOUS
10
-4.1123354354
20
-13.7869208010
11
-4.2733760820
21
-13.8571045438
0
LINE
5
28A
100
AcDbEntity
8
0
100
AcDbLine
62
9
6
CONTINUOUS
10
-3.6882063046
20
-13.5243651668
11
-3.7188133722
21
-13.5373713351
0
LINE
5
28B
100
AcDbEntity
8
0
100
AcDbLine
62
7
6
CONTINUOUS
10
-3.7371173259
20
-13.6991523286
11
-3.8995247518
21
-13.7677529773
0
LINE
5
28C
100
AcDbEntity
8
0
100
AcDbLine
62
7
6
CONTINUOUS
10
14.6677539849
20
18.8481599180
11
14.6677539849
21
17.6362311325
0
LINE
5
28D
100
AcDbEntity
8
0
100
AcDbLine
62
7
6
CONTINUOUS
10
15.1041500880
20
17.6142499228
11
15.1041500880
21
16.3832944376
0
LINE
5
28E
100
AcDbEntity
8
0
100
AcDbLine
62
9
6
CONTINUOUS
10
15.1627287317
20
17.5435392447
11
15.1627287317
21
16.3099248930
0
LINE
5
28F
100
AcDbEntity
8
0
100
AcDbLine
62
7
6
CONTINUOUS
10
16.0819675473
20
16.5439750016
11
16.0819675473
21
15.0978122359
0
LINE
5
290
100
AcDbEntity
8
0
100
AcDbLine
62
7
6
CONTINUOUS
10
16.7475482490
20
14.7650218850
11
16.7475482490
21
16.2111846508
0
LINE
5
291
100
AcDbEntity
8
0
100
AcDbLine
62
9
6
CONTINUOUS
10
17.5293849279
20
20.8013235947
11
17.5293849279
21
22.1852796976
0
LINE
5
292
100
AcDbEntity
8
0
100
AcDbLine
62
7
6
CONTINUOUS
10
20.0167635296
20
13.6487255392
11
20.6410614154
21
13.5183715614
0
LINE
5
293
100
AcDbEntity
8
0
100
AcDbLine
62
9
6
CONTINUOUS
10
-13.9015363498
20
24.9083951476
11
16.6931211177
21
9.6110664139
0
LINE
5
294
100
AcDbEntity
8
0
100
AcDbLine
62
7
6
CONTINUOUS
10
20.4855270977
20
7.9411648210
11
21.4722034015
21
7.4478266692
0
LINE
5
295
100
AcDbEntity
8
0
100
AcDbLine
62
9
6
CONTINUOUS
10
-13.1991108157
20
25.9610963094
11
17.4133732086
21
10.6548542972
0
LINE
5
296
100
AcDbEntity
8
0
100
AcDbLine
62
7
6
CONTINUOUS
10
19.3561463036
20
-20.0864534934
11
19.3263358364
21
-19.7281791579
0
LINE
5
297
100
AcDbEntity
8
0
100
AcDbLine
62
7
6
CONTINUOUS
10
21.4722034015
20
-21.3042167365
11
20.3222368139
21
-7.4834499462
0
LINE
5
298
100
AcDbEntity
8
0
100
AcDbLine
62
7
6
CONTINUOUS
10
17.6620780655
20
20.9598868354
11
17.6620780655
21
22.2077507092
0
LINE
5
299
100
AcDbEntity
8
0
100
AcDbLine
62
7
6
CONTINUOUS
10
17.8143791612
20
15.3603463030
11
17.8143791612
21
16.7459869491
0
LINE
5
29A
100
AcDbEntity
8
0
100
AcDbLine
62
7
6
CONTINUOUS
10
18.1393236884
20
15.0726907408
11
18.1393236884
21
14.7327168067
0
LINE
5
29B
100
AcDbEntity
8
0
100
AcDbLine
62
9
6
CONTINUOUS
10
18.2125469931
20
14.9843023932
11
18.2125469931
21
14.6443284590
0
LINE
5
29C
100
AcDbEntity
8
0
100
AcDbLine
62
7
6
CONTINUOUS
10
18.8423166426
20
14.2267118324
11
18.8423166426
21
13.7727580904
0
LINE
5
29D
100
AcDbEntity
8
0
100
AcDbLine
62
9
6
CONTINUOUS
10
18.9155399473
20
14.1901001800
11
18.9155399473
21
13.6810260358
0
LINE
5
29E
100
AcDbEntity
8
0
100
AcDbLine
62
9
6
CONTINUOUS
10
19.8910850635
20
-27.8345186497
11
19.8910850635
21
-27.4945447155
0
LINE
5
29F
100
AcDbEntity
8
0
100
AcDbLine
62
9
6
CONTINUOUS
10
19.8910850635
20
13.8050594238
11
19.8910850635
21
14.1450333580
0
LINE
5
2A0
100
AcDbEntity
8
0
100
AcDbLine
62
9
6
CONTINUOUS
10
20.2436070231
20
-27.8350313735
11
20.2436070231
21
-27.4950574394
0
LINE
5
2A1
100
AcDbEntity
8
0
100
AcDbLine
62
9
6
CONTINUOUS
10
20.2436070231
20
13.8045467000
11
20.2436070231
21
14.1445206341
0
LINE
5
2A2
100
AcDbEntity
8
0
100
AcDbLine
62
9
6
CONTINUOUS
10
20.6023056716
20
-26.5180482384
11
20.6023056716
21
-25.8241355112
0
LINE
5
2A3
100
AcDbEntity
8
0
100
AcDbLine
62
9
6
CONTINUOUS
10
20.6023056716
20
12.8376431737
11
20.6023056716
21
13.5264637967
0
LINE
5
2A4
100
AcDbEntity
8
0
100
AcDbLine
62
9
6
CONTINUOUS
10
20.9548276312
20
-26.6435609623
11
20.9548276312
21
-26.0003964910
0
LINE
5
2A5
100
AcDbEntity
8
0
100
AcDbLine
62
9
6
CONTINUOUS
10
20.9548276312
20
12.8484110554
11
20.9548276312
21
13.6560431771
0
LINE
5
2A6
100
AcDbEntity
8
0
100
AcDbLine
62
7
6
CONTINUOUS
10
21.0317150156
20
21.3154974176
11
21.0317150156
21
20.8513191040
0
LINE
5
2A7
100
AcDbEntity
8
0
100
AcDbLine
62
7
6
CONTINUOUS
10
19.0280447303
20
-26.8482459639
11
20.6267645446
21
11.3124354920
0
LINE
5
2A8
100
AcDbEntity
8
0
100
AcDbLine
62
7
6
CONTINUOUS
10
20.3222368139
20
-7.4834499462
11
21.4722034015
21
7.4478266692
0
LINE
5
2A9
100
AcDbEntity
8
0
100
AcDbLine
62
7
6
CONTINUOUS
10
21.0317150156
20
20.8513191040
11
19.2832310926
21
20.7565000059
0
LINE
5
2AA
100
AcDbEntity
8
0
100
AcDbLine
62
9
6
CONTINUOUS
10
20.2436070231
20
13.8045467000
11
20.9548276312
21
13.6560431771
0
LINE
5
2AB
100
AcDbEntity
8
0
100
AcDbLine
62
7
6
CONTINUOUS
10
7.7131055370
20
19.8005545355
11
8.3374049592
21
19.6702002369
0
LINE
5
2AC
100
AcDbEntity
8
0
100
AcDbLine
62
7
6
CONTINUOUS
10
20.2918295220
20
11.9306713111
11
-10.4675577674
21
27.3103649558
0
LINE
5
2AD
100
AcDbEntity
8
0
100
AcDbLine
62
7
6
CONTINUOUS
10
21.1189191355
20
12.5793364418
11
20.6023056716
21
12.8376431737
0
LINE
5
2AE
100
AcDbEntity
8
0
100
AcDbLine
62
7
6
CONTINUOUS
10
18.9155399473
20
13.6810260358
11
16.7475482490
21
14.7650218850
0
LINE
5
2AF
100
AcDbEntity
8
0
100
AcDbLine
62
7
6
CONTINUOUS
10
16.0819675473
20
15.0978122359
11
11.1322200790
21
17.5726859700
0
LINE
5
2B0
100
AcDbEntity
8
0
100
AcDbLine
62
7
6
CONTINUOUS
10
10.4666393772
20
17.9054763209
11
8.2986476789
21
18.9894721701
0
LINE
5
2B1
100
AcDbEntity
8
0
100
AcDbLine
62
7
6
CONTINUOUS
10
6.6118819547
20
19.8328550322
11
6.0952684907
21
20.0911617641
0
LINE
5
2B2
100
AcDbEntity
8
0
100
AcDbLine
62
7
6
CONTINUOUS
10
21.4722034015
20
11.9694834152
11
21.4722034015
21
7.4478266692
0
LINE
5
2B3
100
AcDbEntity
8
0
100
AcDbLine
62
7
6
CONTINUOUS
10
21.4722034015
20
-21.3042167365
11
21.4722034015
21
-25.8258734825
0
LINE
5
2B4
100
AcDbEntity
8
0
100
AcDbLine
62
7
6
CONTINUOUS
10
21.8448878140
20
-25.8860693683
11
21.8448878140
21
-27.0549967739
0
LINE
5
2B5
100
AcDbEntity
8
0
100
AcDbLine
62
7
6
CONTINUOUS
10
21.8448878140
20
13.3450919766
11
21.8448878140
21
14.9472426376
0
LINE
5
2B6
100
AcDbEntity
8
0
100
AcDbLine
62
9
6
CONTINUOUS
10
22.3731549857
20
15.2106814576
11
22.3731549857
21
14.8631499409
0
LINE
5
2B7
100
AcDbEntity
8
0
100
AcDbLine
62
9
6
CONTINUOUS
10
22.3731549857
20
-26.4364541985
11
22.3731549857
21
-26.7839857152
0
LINE
5
2B8
100
AcDbEntity
8
0
100
AcDbLine
62
7
6
CONTINUOUS
10
22.4453528427
20
15.2985540898
11
22.4453528427
21
14.9510225731
0
LINE
5
2B9
100
AcDbEntity
8
0
100
AcDbLine
62
7
6
CONTINUOUS
10
22.4453528427
20
-26.3485815663
11
22.4453528427
21
-26.6961130830
0
LINE
5
2BA
100
AcDbEntity
8
0
100
AcDbLine
62
7
6
CONTINUOUS
10
22.5513774654
20
12.5586362573
11
22.5513774654
21
-25.3728800450
0
LINE
5
2BB
100
AcDbEntity
8
0
100
AcDbLine
62
7
6
CONTINUOUS
10
22.5523031365
20
12.5583862692
11
22.5523031365
21
-25.3735557281
0
LINE
5
2BC
100
AcDbEntity
8
0
100
AcDbLine
62
9
6
CONTINUOUS
10
23.1216898274
20
18.0070215731
11
23.1216898274
21
18.4814229484
0
LINE
5
2BD
100
AcDbEntity
8
0
100
AcDbLine
62
9
6
CONTINUOUS
10
23.1216898274
20
18.8375988149
11
23.1216898274
21
19.3907695380
0
LINE
5
2BE
100
AcDbEntity
8
0
100
AcDbLine
62
7
6
CONTINUOUS
10
23.2525246785
20
18.1646632230
11
23.2525246785
21
19.4125559182
0
LINE
5
2BF
100
AcDbEntity
8
0
100
AcDbLine
62
7
6
CONTINUOUS
10
23.2532390903
20
12.9099866851
11
23.2532390903
21
9.9777038496
0
LINE
5
2C0
100
AcDbEntity
8
0
100
AcDbLine
62
7
6
CONTINUOUS
10
23.2532390903
20
-22.0795956999
11
23.2532390903
21
-25.0118785354
0
LINE
5
2C1
100
AcDbEntity
8
0
100
AcDbLine
62
7
6
CONTINUOUS
10
23.9541750441
20
10.3419003431
11
23.9541750441
21
-21.7305145848
0
LINE
5
2C2
100
AcDbEntity
8
0
100
AcDbLine
62
9
6
CONTINUOUS
10
7.9399490305
20
19.9563756963
11
8.6511696386
21
19.8078721734
0
LINE
5
2C3
100
AcDbEntity
8
0
100
AcDbLine
62
7
6
CONTINUOUS
10
5.9738622968
20
20.6609390053
11
7.6524003673
21
19.8216699701
0
LINE
5
2C4
100
AcDbEntity
8
0
100
AcDbLine
62
7
6
CONTINUOUS
10
18.2775202895
20
14.5091100089
11
19.9560583599
21
13.6698409737
0
LINE
5
2C5
100
AcDbEntity
8
0
100
AcDbLine
62
9
6
CONTINUOUS
10
5.9088890004
20
20.7961574554
11
7.5874270708
21
19.9568884202
0
LINE
5
2C6
100
AcDbEntity
8
0
100
AcDbLine
62
9
6
CONTINUOUS
10
18.2125469931
20
14.6443284590
11
19.8910850635
21
13.8050594238
0
LINE
5
2C7
100
AcDbEntity
8
0
100
AcDbLine
62
7
6
CONTINUOUS
10
16.0819675473
20
15.8503054853
11
15.1627287317
21
16.3099248930
0
LINE
5
2C8
100
AcDbEntity
8
0
100
AcDbLine
62
7
6
CONTINUOUS
10
13.4656724569
20
17.1584530305
11
11.8393268602
21
17.9716258288
0
LINE
5
2C9
100
AcDbEntity
8
0
100
AcDbLine
62
9
6
CONTINUOUS
10
19.8910850635
20
14.1450333580
11
18.2125469931
21
14.9843023932
0
LINE
5
2CA
100
AcDbEntity
8
0
100
AcDbLine
62
9
6
CONTINUOUS
10
7.5874270708
20
20.2968623543
11
5.9088890004
21
21.1361313895
0
LINE
5
2CB
100
AcDbEntity
8
0
100
AcDbLine
62
7
6
CONTINUOUS
10
22.1987542333
20
13.1681587670
11
21.8448878140
21
13.3450919766
0
LINE
5
2CC
100
AcDbEntity
8
0
100
AcDbLine
62
7
6
CONTINUOUS
10
13.9606472037
20
17.2872122818
11
15.1041500880
21
16.7154608396
0
LINE
5
2CD
100
AcDbEntity
8
0
100
AcDbLine
62
7
6
CONTINUOUS
10
18.1658346336
20
15.1846185668
11
17.8143791612
21
15.3603463030
0
LINE
5
2CE
100
AcDbEntity
8
0
100
AcDbLine
62
7
6
CONTINUOUS
10
10.4666393772
20
19.0342161950
11
9.5412298213
21
19.4969209730
0
LINE
5
2CF
100
AcDbEntity
8
0
100
AcDbLine
62
9
6
CONTINUOUS
10
20.0668333195
20
14.4494101729
11
18.3882952490
21
15.2886792081
0
LINE
5
2D0
100
AcDbEntity
8
0
100
AcDbLine
62
9
6
CONTINUOUS
10
7.7631753268
20
20.6012391692
11
6.0846372564
21
21.4405082045
0
LINE
5
2D1
100
AcDbEntity
8
0
100
AcDbLine
62
7
6
CONTINUOUS
10
10.4666393772
20
19.3516390867
11
11.1322200790
21
19.0188487358
0
LINE
5
2D2
100
AcDbEntity
8
0
100
AcDbLine
62
7
6
CONTINUOUS
10
16.0819675473
20
16.5439750016
11
16.7475482490
21
16.2111846508
0
LINE
5
2D3
100
AcDbEntity
8
0
100
AcDbLine
62
7
6
CONTINUOUS
10
22.8996901871
20
13.5197591829
11
21.8448878140
21
14.0471603694
0
LINE
5
2D4
100
AcDbEntity
8
0
100
AcDbLine
62
7
6
CONTINUOUS
10
10.2442227756
20
19.8474928886
11
9.5412298213
21
20.1989893657
0
LINE
5
2D5
100
AcDbEntity
8
0
100
AcDbLine
62
7
6
CONTINUOUS
10
15.1041500880
20
17.4180330810
11
14.6677539849
21
17.6362311325
0
LINE
5
2D6
100
AcDbEntity
8
0
100
AcDbLine
62
9
6
CONTINUOUS
10
16.6180923022
20
16.8158574595
11
15.1627287317
21
17.5435392447
0
LINE
5
2D7
100
AcDbEntity
8
0
100
AcDbLine
62
9
6
CONTINUOUS
10
13.4656724569
20
18.3920673821
11
11.8393268602
21
19.2052401805
0
LINE
5
2D8
100
AcDbEntity
8
0
100
AcDbLine
62
9
6
CONTINUOUS
10
16.9296729333
20
16.9738678983
11
15.3033273365
21
17.7870406967
0
LINE
5
2D9
100
AcDbEntity
8
0
100
AcDbLine
62
9
6
CONTINUOUS
10
13.6062710617
20
18.6355688341
11
11.9799254649
21
19.4487416325
0
LINE
5
2DA
100
AcDbEntity
8
0
100
AcDbLine
62
7
6
CONTINUOUS
10
11.5211288086
20
19.8926121254
11
13.8192258475
21
18.7435636059
0
LINE
5
2DB
100
AcDbEntity
8
0
100
AcDbLine
62
7
6
CONTINUOUS
10
15.5162821223
20
17.8950354685
11
17.8143791612
21
16.7459869491
0
LINE
5
2DC
100
AcDbEntity
8
0
100
AcDbLine
62
7
6
CONTINUOUS
10
21.6681141103
20
15.2521321764
11
19.9710518522
21
16.1006633055
0
LINE
5
2DD
100
AcDbEntity
8
0
100
AcDbLine
62
7
6
CONTINUOUS
10
9.3644561176
20
21.4039611727
11
7.6673938596
21
22.2524923018
0
LINE
5
2DE
100
AcDbEntity
8
0
100
AcDbLine
62
7
6
CONTINUOUS
10
17.8497345003
20
17.4303776723
11
16.2233889035
21
18.2435504707
0
LINE
5
2DF
100
AcDbEntity
8
0
100
AcDbLine
62
7
6
CONTINUOUS
10
14.5263326287
20
19.0920786081
11
12.8999870319
21
19.9052514065
0
LINE
5
2E0
100
AcDbEntity
8
0
100
AcDbLine
62
9
6
CONTINUOUS
10
8.2018437382
20
22.5128397684
11
9.8927232894
21
21.6673999928
0
LINE
5
2E1
100
AcDbEntity
8
0
100
AcDbLine
62
9
6
CONTINUOUS
10
20.5055017309
20
16.3610107720
11
22.1963812820
21
15.5155709965
0
LINE
5
2E2
100
AcDbEntity
8
0
100
AcDbLine
62
7
6
CONTINUOUS
10
8.3126186978
20
22.5194296595
11
10.0034982489
21
21.6739898839
0
LINE
5
2E3
100
AcDbEntity
8
0
100
AcDbLine
62
7
6
CONTINUOUS
10
20.6162766904
20
16.3676006631
11
22.3071562416
21
15.5221608876
0
LINE
5
2E4
100
AcDbEntity
8
0
100
AcDbLine
62
9
6
CONTINUOUS
10
26.2041409123
20
-17.2893395507
11
26.2041409123
21
-16.3100243251
0
LINE
5
2E5
100
AcDbEntity
8
0
100
AcDbLine
62
7
6
CONTINUOUS
10
26.2602729522
20
-17.2688757600
11
26.2602729522
21
-16.2405584857
0
LINE
5
2E6
100
AcDbEntity
8
0
100
AcDbLine
62
7
6
CONTINUOUS
10
23.9541750441
20
-18.4298116137
11
26.2029284278
21
-17.2899475481
0
LINE
5
2E7
100
AcDbEntity
8
0
100
AcDbLine
62
7
6
CONTINUOUS
10
27.6756979050
20
-17.7665246656
11
23.9541750441
21
-19.5556576196
0
LINE
5
2E8
100
AcDbEntity
8
0
100
AcDbLine
62
9
6
CONTINUOUS
10
19.3561463036
20
-20.0864534934
11
19.3104418384
21
-20.1075613300
0
LINE
5
2E9
100
AcDbEntity
8
0
100
AcDbLine
62
7
6
CONTINUOUS
10
19.2832310926
20
20.7565000059
11
21.9216187599
21
19.4373061722
0
LINE
5
2EA
100
AcDbEntity
8
0
100
AcDbLine
62
9
6
CONTINUOUS
10
23.0888712303
20
19.3762960830
11
22.4479854566
21
19.6967389698
0
LINE
5
2EB
100
AcDbEntity
8
0
100
AcDbLine
62
9
6
CONTINUOUS
10
17.4982379883
20
22.1716127040
11
16.8573522146
21
22.4920555908
0
LINE
5
2EC
100
AcDbEntity
8
0
100
AcDbLine
62
7
6
CONTINUOUS
10
23.2475045462
20
19.4209341668
11
22.7323061302
21
19.6785333748
0
LINE
5
2ED
100
AcDbEntity
8
0
100
AcDbLine
62
7
6
CONTINUOUS
10
17.6570177419
20
22.2161775690
11
17.1418181880
21
22.4737773459
0
LINE
5
2EE
100
AcDbEntity
8
0
100
AcDbLine
62
7
6
CONTINUOUS
10
23.2532390903
20
11.5508360346
11
23.9541750441
21
10.3419003431
0
LINE
5
2EF
100
AcDbEntity
8
0
100
AcDbLine
62
9
6
CONTINUOUS
10
28.1080719182
20
16.6437209322
11
28.1080719182
21
16.3019617046
0
LINE
5
2F0
100
AcDbEntity
8
0
100
AcDbLine
62
9
6
CONTINUOUS
10
28.1080719182
20
-17.9827116722
11
28.1080719182
21
-18.9403059229
0
LINE
5
2F1
100
AcDbEntity
8
0
100
AcDbLine
62
7
6
CONTINUOUS
10
28.1654218284
20
16.6734147175
11
28.1654218284
21
16.4229665532
0
LINE
5
2F2
100
AcDbEntity
8
0
100
AcDbLine
62
7
6
CONTINUOUS
10
28.1654218284
20
-17.9635346679
11
28.1654218284
21
-18.8702149964
0
LINE
5
2F3
100
AcDbEntity
8
0
100
AcDbLine
62
9
6
CONTINUOUS
10
28.5095783217
20
17.4434751314
11
28.5095783217
21
16.8516069582
0
LINE
5
2F4
100
AcDbEntity
8
0
100
AcDbLine
62
9
6
CONTINUOUS
10
28.5095783217
20
-19.3482549200
11
28.5095783217
21
-19.9401230931
0
LINE
5
2F5
100
AcDbEntity
8
0
100
AcDbLine
62
7
6
CONTINUOUS
10
28.6499084215
20
17.7441114856
11
28.6499084215
21
17.0252715508
0
LINE
5
2F6
100
AcDbEntity
8
0
100
AcDbLine
62
7
6
CONTINUOUS
10
28.6499084215
20
-19.1745903274
11
28.6499084215
21
-19.8934302622
0
LINE
5
2F7
100
AcDbEntity
8
0
100
AcDbLine
62
7
6
CONTINUOUS
10
23.9541750441
20
-21.7305145848
11
23.2532390903
21
-22.2385143225
0
LINE
5
2F8
100
AcDbEntity
8
0
100
AcDbLine
62
7
6
CONTINUOUS
10
28.5095783217
20
-19.3482549200
11
23.9541750441
21
-21.7068840127
0
LINE
5
2F9
100
AcDbEntity
8
0
100
AcDbLine
62
7
6
CONTINUOUS
10
28.1080719182
20
-18.9403059229
11
23.9541750441
21
-21.0538240073
0
LINE
5
2FA
100
AcDbEntity
8
0
100
AcDbLine
62
7
6
CONTINUOUS
10
27.6218425280
20
-20.5035835351
11
23.2532390903
21
-22.6935642831
0
LINE
5
2FB
100
AcDbEntity
8
0
100
AcDbLine
62
7
6
CONTINUOUS
10
28.1080719182
20
-17.9827116722
11
23.9541750441
21
-20.0514412686
0
LINE
5
2FC
100
AcDbEntity
8
0
100
AcDbLine
62
7
6
CONTINUOUS
10
23.2532390903
20
-22.0795956999
11
23.9541750441
21
-21.7305145848
0
LINE
5
2FD
100
AcDbEntity
8
0
100
AcDbLine
62
7
6
CONTINUOUS
10
28.5095783217
20
-19.9401230931
11
23.2532390903
21
-22.5473061021
0
LINE
5
2FE
100
AcDbEntity
8
0
100
AcDbLine
62
7
6
CONTINUOUS
10
23.9396655736
20
19.3973438250
11
21.0317150156
21
20.8513191040
0
LINE
5
2FF
100
AcDbEntity
8
0
100
AcDbLine
62
9
6
CONTINUOUS
10
17.2782421425
20
23.3552515782
11
20.3287219917
21
21.8300116536
0
LINE
5
300
100
AcDbEntity
8
0
100
AcDbLine
62
9
6
CONTINUOUS
10
24.5713626788
20
19.7086913100
11
27.6218425280
21
18.1834513854
0
LINE
5
301
100
AcDbEntity
8
0
100
AcDbLine
62
7
6
CONTINUOUS
10
17.5618415264
20
23.4613613698
11
20.7718218299
21
21.8563712180
0
LINE
5
302
100
AcDbEntity
8
0
100
AcDbLine
62
7
6
CONTINUOUS
10
25.0144625170
20
19.7350508745
11
28.2244428205
21
18.1300607227
0
LINE
5
303
100
AcDbEntity
8
0
100
AcDbLine
62
9
6
CONTINUOUS
10
20.6017914432
20
-26.5177911242
11
19.9794734111
21
-27.2628505417
0
LINE
5
304
100
AcDbEntity
8
0
100
AcDbLine
62
9
6
CONTINUOUS
10
20.9548276312
20
-26.6435609623
11
20.2436070231
21
-27.4950574394
0
LINE
5
305
100
AcDbEntity
8
0
100
AcDbLine
62
9
6
CONTINUOUS
10
22.5523031365
20
-25.3735557281
11
23.2532390903
21
-25.0118785354
0
LINE
5
306
100
AcDbEntity
8
0
100
AcDbLine
62
7
6
CONTINUOUS
10
22.4244908837
20
-25.6429011195
11
23.1254268375
21
-25.2812239268
0
LINE
5
307
100
AcDbEntity
8
0
100
AcDbLine
62
9
6
CONTINUOUS
10
21.8448878140
20
-27.0549967739
11
22.3731549857
21
-26.7839857152
0
LINE
5
308
100
AcDbEntity
8
0
100
AcDbLine
62
7
6
CONTINUOUS
10
21.7807846846
20
-27.1897735341
11
22.3094669482
21
-26.9185495255
0
LINE
5
309
100
AcDbEntity
8
0
100
AcDbLine
62
7
6
CONTINUOUS
10
21.7807827109
20
-27.1897745467
11
21.7790462991
21
-27.1906427669
0
LINE
5
30A
100
AcDbEntity
8
0
100
AcDbLine
62
9
6
CONTINUOUS
10
20.2436070231
20
-27.8350313735
11
21.8448878140
21
-27.0549967739
0
LINE
5
30B
100
AcDbEntity
8
0
100
AcDbLine
62
7
6
CONTINUOUS
10
20.1773454306
20
-27.9708819997
11
21.7790435335
21
-27.1906441141
0
LINE
5
30C
100
AcDbEntity
8
0
100
AcDbLine
62
9
6
CONTINUOUS
10
21.4722034015
20
-25.8258734825
11
22.5513774654
21
-25.3728800450
0
LINE
5
30D
100
AcDbEntity
8
0
100
AcDbLine
62
7
6
CONTINUOUS
10
21.3309075223
20
-26.1018174175
11
22.4100885568
21
-25.6488210541
0
LINE
5
30E
100
AcDbEntity
8
0
100
AcDbLine
62
9
6
CONTINUOUS
10
16.1572767397
20
-27.9405463685
11
19.0280447303
21
-26.8482459639
0
LINE
5
30F
100
AcDbEntity
8
0
100
AcDbLine
62
7
6
CONTINUOUS
10
15.9908959928
20
-28.2271179534
11
18.8653682924
21
-27.1334080938
0
SPLINE
5
310
100
AcDbEntity
8
0
100
AcDbSpline
62
7
6
CONTINUOUS
70
0
71
3
72
10
73
6
74
4
42
0.0000001000
43
0.0000001000
44
0.0000000001
12
-0.2182413920
22
-0.0976034644
32
0.0000000000
13
-0.1204974886
23
-0.2064562908
33
0.0000000000
40
0.0000000000
40
0.0000000000
40
0.0000000000
40
0.0000000000
40
0.3062960237
40
0.7917438407
40
1.0000000000
40
1.0000000000
40
1.0000000000
40
1.0000000000
10
-12.7248135044
20
-3.6436030575
30
0.0000000000
10
-12.7470956612
20
-3.6535682419
30
0.0000000000
10
-12.8022017730
20
-3.6853160126
30
0.0000000000
10
-12.8590286991
20
-3.7424026551
30
0.0000000000
10
-12.8895070833
20
-3.7886225208
30
0.0000000000
10
-12.8978718647
20
-3.8029544522
30
0.0000000000
11
-12.7248135044
21
-3.6436030575
31
0.0000000000
11
-12.7882189914
21
-3.6801452837
31
0.0000000000
11
-12.8704013515
21
-3.7614677911
31
0.0000000000
11
-12.8978718647
21
-3.8029544522
31
0.0000000000
0
SPLINE
5
311
100
AcDbEntity
8
0
100
AcDbSpline
62
7
6
CONTINUOUS
70
0
71
3
72
9
73
5
74
3
42
0.0000001000
43
0.0000001000
44
0.0000000001
12
-0.0503856620
22
-0.0862898058
32
0.0000000000
13
-0.0320848342
23
-0.0945475384
33
0.0000000000
40
0.0000000000
40
0.0000000000
40
0.0000000000
40
0.0000000000
40
0.1361934934
40
1.0000000000
40
1.0000000000
40
1.0000000000
40
1.0000000000
10
-12.8979136264
20
-3.8030153467
30
0.0000000000
10
-12.9002010262
20
-3.8069327168
30
0.0000000000
10
-12.9165627912
20
-3.8359459572
30
0.0000000000
10
-12.9297327222
20
-3.8666244848
30
0.0000000000
10
-12.9389710850
20
-3.8938480777
30
0.0000000000
11
-12.8979136264
21
-3.8030153467
31
0.0000000000
11
-12.9045985538
21
-3.8148664347
31
0.0000000000
11
-12.9389710850
21
-3.8938480777
31
0.0000000000
0
SPLINE
5
312
100
AcDbEntity
8
0
100
AcDbSpline
62
7
6
CONTINUOUS
70
0
71
3
72
8
73
4
74
2
42
0.0000001000
43
0.0000001000
44
0.0000000001
12
-0.0043897789
22
-0.0129357935
32
0.0000000000
13
-0.0040708244
23
-0.0130395934
33
0.0000000000
40
0.0000000000
40
0.0000000000
40
0.0000000000
40
0.0000000000
40
1.0000000000
40
1.0000000000
40
1.0000000000
40
1.0000000000
10
-12.9389710850
20
-3.8938480777
30
0.0000000000
10
-12.9404343447
20
-3.8981600089
30
0.0000000000
10
-12.9418439701
20
-3.9024900852
30
0.0000000000
10
-12.9432009115
20
-3.9068366163
30
0.0000000000
11
-12.9389710850
21
-3.8938480777
31
0.0000000000
11
-12.9432009115
21
-3.9068366163
31
0.0000000000
0
SPLINE
5
313
100
AcDbEntity
8
0
100
AcDbSpline
62
7
6
CONTINUOUS
70
0
71
3
72
8
73
4
74
2
42
0.0000001000
43
0.0000001000
44
0.0000000001
12
-0.0158307064
22
-0.0507137463
32
0.0000000000
13
-0.0154353556
23
-0.0508425347
33
0.0000000000
40
0.0000000000
40
0.0000000000
40
0.0000000000
40
0.0000000000
40
1.0000000000
40
1.0000000000
40
1.0000000000
40
1.0000000000
10
-12.9432005694
20
-3.9068279673
30
0.0000000000
10
-12.9484774715
20
-3.9237325494
30
0.0000000000
10
-12.9536883002
20
-3.9406589238
30
0.0000000000
10
-12.9588334187
20
-3.9576064353
30
0.0000000000
11
-12.9432005694
21
-3.9068279673
31
0.0000000000
11
-12.9588334187
21
-3.9576064353
31
0.0000000000
0
SPLINE
5
314
100
AcDbEntity
8
0
100
AcDbSpline
62
7
6
CONTINUOUS
70
0
71
3
72
11
73
7
74
5
42
0.0000001000
43
0.0000001000
44
0.0000000001
12
-1.4724059292
22
-4.8499594968
32
0.0000000000
13
1.2198225565
23
-4.9188144113
33
0.0000000000
40
0.0000000000
40
0.0000000000
40
0.0000000000
40
0.0000000000
40
0.2148386667
40
0.4681377743
40
0.7360918205
40
1.0000000000
40
1.0000000000
40
1.0000000000
40
1.0000000000
10
-12.9588334187
20
-3.9576064353
30
0.0000000000
10
-13.0642766609
20
-4.3049260460
30
0.0000000000
10
-13.2339028110
20
-5.0810868197
30
0.0000000000
10
-13.3179251014
20
-6.3256868134
30
0.0000000000
10
-13.2242590213
20
-7.6522776022
30
0.0000000000
10
-13.0535444620
20
-8.5365116663
30
0.0000000000
10
-12.9462374120
20
-8.9692167851
30
0.0000000000
11
-12.9588334187
21
-3.9576064353
31
0.0000000000
11
-13.1954962975
21
-5.0205588453
31
0.0000000000
11
-13.2875182138
21
-6.3007547627
31
0.0000000000
11
-13.1965503618
21
-7.6554613992
31
0.0000000000
11
-12.9462374120
21
-8.9692167851
31
0.0000000000
0
SPLINE
5
315
100
AcDbEntity
8
0
100
AcDbSpline
62
7
6
CONTINUOUS
70
0
71
3
72
8
73
4
74
2
42
0.0000001000
43
0.0000001000
44
0.0000000001
12
0.0136476986
22
-0.0550577029
32
0.0000000000
13
0.0166371901
23
-0.0542755804
33
0.0000000000
40
0.0000000000
40
0.0000000000
40
0.0000000000
40
0.0000000000
40
1.0000000000
40
1.0000000000
40
1.0000000000
40
1.0000000000
10
-12.9462451398
20
-8.9692086394
30
0.0000000000
10
-12.9416959069
20
-8.9875612070
30
0.0000000000
10
-12.9366310983
20
-9.0057960375
30
0.0000000000
10
-12.9310853683
20
-9.0238878977
30
0.0000000000
11
-12.9462451398
21
-8.9692086394
31
0.0000000000
11
-12.9310853683
21
-9.0238878977
31
0.0000000000
0
SPLINE
5
316
100
AcDbEntity
8
0
100
AcDbSpline
62
7
6
CONTINUOUS
70
0
71
3
72
8
73
4
74
2
42
0.0000001000
43
0.0000001000
44
0.0000000001
12
0.0205039314
22
-0.0668900682
32
0.0000000000
13
0.0246920075
23
-0.0654454685
33
0.0000000000
40
0.0000000000
40
0.0000000000
40
0.0000000000
40
0.0000000000
40
1.0000000000
40
1.0000000000
40
1.0000000000
40
1.0000000000
10
-12.9310853683
20
-9.0238878977
30
0.0000000000
10
-12.9242507245
20
-9.0461845871
30
0.0000000000
10
-12.9166856341
20
-9.0682641262
30
0.0000000000
10
-12.9084549649
20
-9.0900792824
30
0.0000000000
11
-12.9310853683
21
-9.0238878977
31
0.0000000000
11
-12.9084549649
21
-9.0900792824
31
0.0000000000
0
SPLINE
5
317
100
AcDbEntity
8
0
100
AcDbSpline
62
7
6
CONTINUOUS
70
0
71
3
72
10
73
6
74
4
42
0.0000001000
43
0.0000001000
44
0.0000000001
12
0.1988892756
22
-0.5271504081
32
0.0000000000
13
0.4337045273
23
-0.3595239911
33
0.0000000000
40
0.0000000000
40
0.0000000000
40
0.0000000000
40
0.0000000000
40
0.3811032536
40
0.7592402738
40
1.0000000000
40
1.0000000000
40
1.0000000000
40
1.0000000000
10
-12.9084549649
20
-9.0900792824
30
0.0000000000
10
-12.8831891816
20
-9.1570455276
30
0.0000000000
10
-12.8203594082
20
-9.2854935602
30
0.0000000000
10
-12.7085565787
20
-9.4373171711
30
0.0000000000
10
-12.6250176772
20
-9.5184493753
30
0.0000000000
10
-12.5902114828
20
-9.5473023412
30
0.0000000000
11
-12.9084549649
21
-9.0900792824
31
0.0000000000
11
-12.8145569149
21
-9.2826752371
31
0.0000000000
11
-12.6878425595
21
-9.4533844559
31
0.0000000000
11
-12.5902114828
21
-9.5473023412
31
0.0000000000
0
SPLINE
5
318
100
AcDbEntity
8
0
100
AcDbSpline
62
7
6
CONTINUOUS
70
0
71
3
72
9
73
5
74
3
42
0.0000001000
43
0.0000001000
44
0.0000000001
12
0.0982495546
22
-0.0814450156
32
0.0000000000
13
0.1105164516
23
-0.0645579314
33
0.0000000000
40
0.0000000000
40
0.0000000000
40
0.0000000000
40
0.0000000000
40
0.5087911412
40
1.0000000000
40
1.0000000000
40
1.0000000000
40
1.0000000000
10
-12.5902114828
20
-9.5473023412
30
0.0000000000
10
-12.5735486485
20
-9.5611151754
30
0.0000000000
10
-12.5397589990
20
-9.5870434169
30
0.0000000000
10
-12.5038673754
20
-9.6102485899
30
0.0000000000
10
-12.4857718220
20
-9.6208190658
30
0.0000000000
11
-12.5902114828
21
-9.5473023412
31
0.0000000000
11
-12.5386207651
21
-9.5867943781
31
0.0000000000
11
-12.4857718220
21
-9.6208190658
31
0.0000000000
0
SPLINE
5
319
100
AcDbEntity
8
0
100
AcDbSpline
62
7
6
CONTINUOUS
70
0
71
3
72
8
73
4
74
2
42
0.0000001000
43
0.0000001000
44
0.0000000001
12
0.0371898577
22
-0.0217243700
32
0.0000000000
13
0.0384595806
23
-0.0192275065
33
0.0000000000
40
0.0000000000
40
0.0000000000
40
0.0000000000
40
0.0000000000
40
1.0000000000
40
1.0000000000
40
1.0000000000
40
1.0000000000
10
-12.4857718220
20
-9.6208190658
30
0.0000000000
10
-12.4733752028
20
-9.6280605225
30
0.0000000000
10
-12.4607602262
20
-9.6349133359
30
0.0000000000
10
-12.4479403661
20
-9.6413225047
30
0.0000000000
11
-12.4857718220
21
-9.6208190658
31
0.0000000000
11
-12.4479403661
21
-9.6413225047
31
0.0000000000
0
SPLINE
5
31A
100
AcDbEntity
8
0
100
AcDbSpline
62
7
6
CONTINUOUS
70
0
71
3
72
8
73
4
74
2
42
0.0000001000
43
0.0000001000
44
0.0000000001
12
0.0435805901
22
-0.0218053441
32
0.0000000000
13
0.0452268686
23
-0.0181831718
33
0.0000000000
40
0.0000000000
40
0.0000000000
40
0.0000000000
40
0.0000000000
40
1.0000000000
40
1.0000000000
40
1.0000000000
40
1.0000000000
10
-4.2528321188
20
-13.7388873370
30
0.0000000000
10
-4.2383052555
20
-13.7461557850
30
0.0000000000
10
-4.2234927035
20
-13.7528661684
30
0.0000000000
10
-4.2084170806
20
-13.7589272256
30
0.0000000000
11
-4.2528321188
21
-13.7388873370
31
0.0000000000
11
-4.2084170806
21
-13.7589272256
31
0.0000000000
0
SPLINE
5
31B
100
AcDbEntity
8
0
100
AcDbSpline
62
7
6
CONTINUOUS
70
0
71
3
72
8
73
4
74
2
42
0.0000001000
43
0.0000001000
44
0.0000000001
12
0.0514129327
22
-0.0206702391
32
0.0000000000
13
0.0533529987
23
-0.0152334347
33
0.0000000000
40
0.0000000000
40
0.0000000000
40
0.0000000000
40
0.0000000000
40
1.0000000000
40
1.0000000000
40
1.0000000000
40
1.0000000000
10
-4.2084170806
20
-13.7589272256
30
0.0000000000
10
-4.1912794364
20
-13.7658173053
30
0.0000000000
10
-4.1738018348
20
-13.7718682834
30
0.0000000000
10
-4.1560175019
20
-13.7769460949
30
0.0000000000
11
-4.2084170806
21
-13.7589272256
31
0.0000000000
11
-4.1560175019
21
-13.7769460949
31
0.0000000000
0
SPLINE
5
31C
100
AcDbEntity
8
0
100
AcDbSpline
62
7
6
CONTINUOUS
70
0
71
3
72
9
73
5
74
3
42
0.0000001000
43
0.0000001000
44
0.0000000001
12
0.2514208920
22
-0.0717861006
32
0.0000000000
13
0.2413332265
23
0.1011588362
33
0.0000000000
40
0.0000000000
40
0.0000000000
40
0.0000000000
40
0.0000000000
40
0.5718120740
40
1.0000000000
40
1.0000000000
40
1.0000000000
40
1.0000000000
10
-4.1560175019
20
-13.7769460949
30
0.0000000000
10
-4.1080956680
20
-13.7906288146
30
0.0000000000
10
-4.0203938022
20
-13.8022001597
30
0.0000000000
10
-3.9340517593
20
-13.7821704660
30
0.0000000000
10
-3.8996064347
20
-13.7677321353
30
0.0000000000
11
-4.1560175019
21
-13.7769460949
31
0.0000000000
11
-4.0082423165
21
-13.7935295227
31
0.0000000000
11
-3.8996064347
21
-13.7677321353
31
0.0000000000
0
SPLINE
5
31D
100
AcDbEntity
8
0
100
AcDbSpline
62
9
6
CONTINUOUS
70
0
71
3
72
14
73
10
74
8
42
0.0000001000
43
0.0000001000
44
0.0000000001
12
0.3934912335
22
-3.7331158173
32
0.0000000000
13
-0.9420061848
23
-3.6334373637
33
0.0000000000
40
0.0000000000
40
0.0000000000
40
0.0000000000
40
0.0000000000
40
0.1440589099
40
0.2984202819
40
0.4537178762
40
0.6053067333
40
0.7491040740
40
0.8816763398
40
1.0000000000
40
1.0000000000
40
1.0000000000
40
1.0000000000
10
-3.5163648092
20
-9.8084405113
30
0.0000000000
10
-3.4974695031
20
-9.9877033764
30
0.0000000000
10
-3.4654062962
20
-10.3598012072
30
0.0000000000
10
-3.4404321450
20
-10.9271299326
30
0.0000000000
10
-3.4421929404
20
-11.5044690716
30
0.0000000000
10
-3.4727037926
20
-12.0677969521
30
0.0000000000
10
-3.5307479209
20
-12.6003841207
30
0.0000000000
10
-3.6121129534
20
-13.0877363965
30
0.0000000000
10
-3.6816594989
20
-13.3940641325
30
0.0000000000
10
-3.7188133722
20
-13.5373713351
30
0.0000000000
11
-3.5163648092
21
-9.8084405113
31
0.0000000000
11
-3.4701572497
21
-10.3471990976
31
0.0000000000
11
-3.4450128604
21
-10.9260585358
31
0.0000000000
11
-3.4472273706
21
-11.5089737892
31
0.0000000000
11
-3.4785158940
21
-12.0771113566
31
0.0000000000
11
-3.5375464032
21
-12.6136262059
31
0.0000000000
11
-3.6200270325
21
-13.1043614729
31
0.0000000000
11
-3.7188133722
21
-13.5373713351
31
0.0000000000
0
SPLINE
5
31E
100
AcDbEntity
8
0
100
AcDbSpline
62
9
6
CONTINUOUS
70
0
71
3
72
17
73
13
74
11
42
0.0000001000
43
0.0000001000
44
0.0000000001
12
0.9777352259
22
-4.9601753903
32
0.0000000000
13
-1.2637897651
23
-4.8951140441
33
0.0000000000
40
0.0000000000
40
0.0000000000
40
0.0000000000
40
0.0000000000
40
0.0719056978
40
0.1603878722
40
0.2611999702
40
0.3703483290
40
0.4839140004
40
0.5981683655
40
0.7096908797
40
0.8154743789
40
0.9129918353
40
1.0000000000
40
1.0000000000
40
1.0000000000
40
1.0000000000
10
-3.8575252163
20
-8.4996340197
30
0.0000000000
10
-3.8340903051
20
-8.6185223106
30
0.0000000000
10
-3.7848800164
20
-8.8843197299
30
0.0000000000
10
-3.7161930453
20
-9.3191672383
30
0.0000000000
10
-3.6537909013
20
-9.8183235227
30
0.0000000000
10
-3.6065281767
20
-10.3616272233
30
0.0000000000
10
-3.5813641922
20
-10.9291219727
30
0.0000000000
10
-3.5828568947
20
-11.5012132780
30
0.0000000000
10
-3.6127725681
20
-12.0594198394
30
0.0000000000
10
-3.6699159410
20
-12.5871582368
30
0.0000000000
10
-3.7501228292
20
-13.0700318788
30
0.0000000000
10
-3.8187260667
20
-13.3735414460
30
0.0000000000
10
-3.8553794094
20
-13.5155130756
30
0.0000000000
11
-3.8575252163
21
-8.4996340197
31
0.0000000000
11
-3.7913797267
21
-8.8570936135
31
0.0000000000
11
-3.7216636204
21
-9.2989600015
31
0.0000000000
11
-3.6585837559
21
-9.8047091290
31
0.0000000000
11
-3.6109932614
21
-10.3544658637
31
0.0000000000
11
-3.5858922301
21
-10.9280619257
31
0.0000000000
11
-3.5878313568
21
-11.5056854651
31
0.0000000000
11
-3.6185148257
21
-12.0686655228
31
0.0000000000
11
-3.6766327564
21
-12.6002995526
31
0.0000000000
11
-3.7579480385
21
-13.0865587327
31
0.0000000000
11
-3.8553794094
21
-13.5155130756
31
0.0000000000
0
SPLINE
5
31F
100
AcDbEntity
8
0
100
AcDbSpline
62
9
6
CONTINUOUS
70
0
71
3
72
9
73
5
74
3
42
0.0000001000
43
0.0000001000
44
0.0000000001
12
-0.0584182783
22
-0.0268219216
32
0.0000000000
13
-0.0630321725
23
-0.0126674877
33
0.0000000000
40
0.0000000000
40
0.0000000000
40
0.0000000000
40
0.0000000000
40
0.7307562939
40
1.0000000000
40
1.0000000000
40
1.0000000000
40
1.0000000000
10
-3.7187867435
20
-8.4752181137
30
0.0000000000
10
-3.7330165850
20
-8.4817515430
30
0.0000000000
10
-3.7535703650
20
-8.4883232258
30
0.0000000000
10
-3.7744853608
20
-8.4930536213
30
0.0000000000
10
-3.7801423660
20
-8.4941905017
30
0.0000000000
11
-3.7187867435
21
-8.4752181137
31
0.0000000000
11
-3.7632490842
21
-8.4903728840
31
0.0000000000
11
-3.7801423660
21
-8.4941905017
31
0.0000000000
0
SPLINE
5
320
100
AcDbEntity
8
0
100
AcDbSpline
62
9
6
CONTINUOUS
70
0
71
3
72
9
73
5
74
3
42
0.0000001000
43
0.0000001000
44
0.0000000001
12
-0.0635508174
22
-0.0127717190
32
0.0000000000
13
-0.0648178226
23
0.0021222054
33
0.0000000000
40
0.0000000000
40
0.0000000000
40
0.0000000000
40
0.0000000000
40
0.5282690694
40
1.0000000000
40
1.0000000000
40
1.0000000000
40
1.0000000000
10
-3.7801423660
20
-8.4941905017
30
0.0000000000
10
-3.7913330098
20
-8.4964394698
30
0.0000000000
10
-3.8127075428
20
-8.4996837193
30
0.0000000000
10
-3.8344320933
20
-8.5009197012
30
0.0000000000
10
-3.8446242839
20
-8.5005859979
30
0.0000000000
11
-3.7801423660
21
-8.4941905017
31
0.0000000000
11
-3.8140136979
21
-8.4993066995
31
0.0000000000
11
-3.8446242839
21
-8.5005859979
31
0.0000000000
0
SPLINE
5
321
100
AcDbEntity
8
0
100
AcDbSpline
62
9
6
CONTINUOUS
70
0
71
3
72
8
73
4
74
2
42
0.0000001000
43
0.0000001000
44
0.0000000001
12
-0.0129411392
22
0.0004237068
32
0.0000000000
13
-0.0128505621
23
0.0015158789
33
0.0000000000
40
0.0000000000
40
0.0000000000
40
0.0000000000
40
0.0000000000
40
1.0000000000
40
1.0000000000
40
1.0000000000
40
1.0000000000
10
-3.8446242839
20
-8.5005859979
30
0.0000000000
10
-3.8489379970
20
-8.5004447623
30
0.0000000000
10
-3.8532416874
20
-8.5001393089
30
0.0000000000
10
-3.8575252082
20
-8.4996340159
30
0.0000000000
11
-3.8446242839
21
-8.5005859979
31
0.0000000000
11
-3.8575252082
21
-8.4996340159
31
0.0000000000
0
SPLINE
5
322
100
AcDbEntity
8
0
100
AcDbSpline
62
9
6
CONTINUOUS
70
0
71
3
72
8
73
4
74
2
42
0.0000001000
43
0.0000001000
44
0.0000000001
12
-0.0340275450
22
-0.1268197982
32
0.0000000000
13
-0.0723993108
23
-0.1105940110
33
0.0000000000
40
0.0000000000
40
0.0000000000
40
0.0000000000
40
0.0000000000
40
1.0000000000
40
1.0000000000
40
1.0000000000
40
1.0000000000
10
-3.7188133722
20
-13.5373713351
30
0.0000000000
10
-3.7301558872
20
-13.5796446012
30
0.0000000000
10
-3.7469839451
20
-13.6209452818
30
0.0000000000
10
-3.7711170487
20
-13.6578099521
30
0.0000000000
11
-3.7188133722
21
-13.5373713351
31
0.0000000000
11
-3.7711170487
21
-13.6578099521
31
0.0000000000
0
SPLINE
5
323
100
AcDbEntity
8
0
100
AcDbSpline
62
9
6
CONTINUOUS
70
0
71
3
72
8
73
4
74
2
42
0.0000001000
43
0.0000001000
44
0.0000000001
12
-0.0646846935
22
-0.0988095000
32
0.0000000000
13
-0.0975610376
23
-0.0662236557
33
0.0000000000
40
0.0000000000
40
0.0000000000
40
0.0000000000
40
0.0000000000
40
1.0000000000
40
1.0000000000
40
1.0000000000
40
1.0000000000
10
-3.7711170487
20
-13.6578099521
30
0.0000000000
10
-3.7926786132
20
-13.6907464521
30
0.0000000000
10
-3.8200713667
20
-13.7201419456
30
0.0000000000
10
-3.8525917126
20
-13.7422164975
30
0.0000000000
11
-3.7711170487
21
-13.6578099521
31
0.0000000000
11
-3.8525917126
21
-13.7422164975
31
0.0000000000
0
SPLINE
5
324
100
AcDbEntity
8
0
100
AcDbSpline
62
9
6
CONTINUOUS
70
0
71
3
72
8
73
4
74
2
42
0.0000001000
43
0.0000001000
44
0.0000000001
12
-0.0439853537
22
-0.0298569079
32
0.0000000000
13
-0.0491317014
23
-0.0207057998
33
0.0000000000
40
0.0000000000
40
0.0000000000
40
0.0000000000
40
0.0000000000
40
1.0000000000
40
1.0000000000
40
1.0000000000
40
1.0000000000
10
-3.8525917126
20
-13.7422164975
30
0.0000000000
10
-3.8672534971
20
-13.7521688001
30
0.0000000000
10
-3.8829575436
20
-13.7606330090
30
0.0000000000
10
-3.8993347774
20
-13.7675349422
30
0.0000000000
11
-3.8525917126
21
-13.7422164975
31
0.0000000000
11
-3.8993347774
21
-13.7675349422
31
0.0000000000
0
SPLINE
5
325
100
AcDbEntity
8
0
100
AcDbSpline
62
9
6
CONTINUOUS
70
0
71
3
72
9
73
5
74
3
42
0.0000001000
43
0.0000001000
44
0.0000000001
12
-0.0366924540
22
-0.1419415969
32
0.0000000000
13
-0.0945679307
23
-0.1135634811
33
0.0000000000
40
0.0000000000
40
0.0000000000
40
0.0000000000
40
0.0000000000
40
0.7653673308
40
1.0000000000
40
1.0000000000
40
1.0000000000
40
1.0000000000
10
-3.8553794094
20
-13.5155130756
30
0.0000000000
10
-3.8647404779
20
-13.5517255627
30
0.0000000000
10
-3.8830553042
20
-13.5980225327
30
0.0000000000
10
-3.9121499579
20
-13.6379414408
30
0.0000000000
10
-3.9195461999
20
-13.6468233417
30
0.0000000000
11
-3.8553794094
21
-13.5155130756
31
0.0000000000
11
-3.8990903017
21
-13.6188577527
31
0.0000000000
11
-3.9195461999
21
-13.6468233417
31
0.0000000000
0
SPLINE
5
326
100
AcDbEntity
8
0
100
AcDbSpline
62
9
6
CONTINUOUS
70
0
71
3
72
9
73
5
74
3
42
0.0000001000
43
0.0000001000
44
0.0000000001
12
-0.0850898338
22
-0.1021815499
32
0.0000000000
13
-0.1264386970
23
-0.0413611901
33
0.0000000000
40
0.0000000000
40
0.0000000000
40
0.0000000000
40
0.0000000000
40
0.5044310596
40
1.0000000000
40
1.0000000000
40
1.0000000000
40
1.0000000000
10
-3.9195461999
20
-13.6468233417
30
0.0000000000
10
-3.9338535182
20
-13.6640045242
30
0.0000000000
10
-3.9664427795
20
-13.6944718706
30
0.0000000000
10
-4.0067335591
20
-13.7140254043
30
0.0000000000
10
-4.0276199228
20
-13.7208578447
30
0.0000000000
11
-3.9195461999
21
-13.6468233417
31
0.0000000000
11
-3.9686912461
21
-13.6919648486
31
0.0000000000
11
-4.0276199228
21
-13.7208578447
31
0.0000000000
0
SPLINE
5
327
100
AcDbEntity
8
0
100
AcDbSpline
62
9
6
CONTINUOUS
70
0
71
3
72
9
73
5
74
3
42
0.0000001000
43
0.0000001000
44
0.0000000001
12
-0.0982419620
22
-0.0321373484
32
0.0000000000
13
-0.1028529004
23
0.0079189906
33
0.0000000000
40
0.0000000000
40
0.0000000000
40
0.0000000000
40
0.0000000000
40
0.3227273106
40
1.0000000000
40
1.0000000000
40
1.0000000000
40
1.0000000000
10
-4.0276199228
20
-13.7208578447
30
0.0000000000
10
-4.0381883775
20
-13.7243150447
30
0.0000000000
10
-4.0716651819
20
-13.7327603677
30
0.0000000000
10
-4.1061934418
20
-13.7339601606
30
0.0000000000
10
-4.1294132619
20
-13.7321723886
30
0.0000000000
11
-4.0276199228
21
-13.7208578447
31
0.0000000000
11
-4.0599056478
21
-13.7290114744
31
0.0000000000
11
-4.1294132619
21
-13.7321723886
31
0.0000000000
0
SPLINE
5
328
100
AcDbEntity
8
0
100
AcDbSpline
62
9
6
CONTINUOUS
70
0
71
3
72
9
73
5
74
3
42
0.0000001000
43
0.0000001000
44
0.0000000001
12
-0.1144000874
22
0.0088080473
32
0.0000000000
13
-0.1062189598
23
0.0423502802
33
0.0000000000
40
0.0000000000
40
0.0000000000
40
0.0000000000
40
0.0000000000
40
0.3197831302
40
1.0000000000
40
1.0000000000
40
1.0000000000
40
1.0000000000
10
-4.1294132619
20
-13.7321723886
30
0.0000000000
10
-4.1416076679
20
-13.7312335002
30
0.0000000000
10
-4.1795985255
20
-13.7260547320
30
0.0000000000
10
-4.2162265768
20
-13.7148869034
30
0.0000000000
10
-4.2403105529
20
-13.7052844451
30
0.0000000000
11
-4.1294132619
21
-13.7321723886
31
0.0000000000
11
-4.1657659764
21
-13.7273088860
31
0.0000000000
11
-4.2403105529
21
-13.7052844451
31
0.0000000000
0
SPLINE
5
329
100
AcDbEntity
8
0
100
AcDbSpline
62
9
6
CONTINUOUS
70
0
71
3
72
8
73
4
74
2
42
0.0000001000
43
0.0000001000
44
0.0000000001
12
-0.0392282467
22
0.0156405903
32
0.0000000000
13
-0.0376621376
23
0.0188210134
33
0.0000000000
40
0.0000000000
40
0.0000000000
40
0.0000000000
40
0.0000000000
40
1.0000000000
40
1.0000000000
40
1.0000000000
40
1.0000000000
10
-4.2403105529
20
-13.7052844451
30
0.0000000000
10
-4.2533866351
20
-13.7000709149
30
0.0000000000
10
-4.2662177422
20
-13.6942660806
30
0.0000000000
10
-4.2787717880
20
-13.6879924095
30
0.0000000000
11
-4.2403105529
21
-13.7052844451
31
0.0000000000
11
-4.2787717880
21
-13.6879924095
31
0.0000000000
0
SPLINE
5
32A
100
AcDbEntity
8
0
100
AcDbSpline
62
9
6
CONTINUOUS
70
0
71
3
72
10
73
6
74
4
42
0.0000001000
43
0.0000001000
44
0.0000000001
12
-0.1295122953
22
-0.0641894059
32
0.0000000000
13
-0.1096082804
23
0.0942323689
33
0.0000000000
40
0.0000000000
40
0.0000000000
40
0.0000000000
40
0.0000000000
40
0.3135883749
40
0.6623250735
40
1.0000000000
40
1.0000000000
40
1.0000000000
40
1.0000000000
10
-3.7188335701
20
-13.5373529394
30
0.0000000000
10
-3.7323714202
20
-13.5440626232
30
0.0000000000
10
-3.7649081631
20
-13.5502940285
30
0.0000000000
10
-3.8130900906
20
-13.5422218999
30
0.0000000000
10
-3.8430417869
20
-13.5261195498
30
0.0000000000
10
-3.8553791096
20
-13.5155129137
30
0.0000000000
11
-3.7188335701
21
-13.5373529394
31
0.0000000000
11
-3.7630414739
21
-13.5473679490
31
0.0000000000
11
-3.8128174832
21
-13.5394064337
31
0.0000000000
11
-3.8553791096
21
-13.5155129137
31
0.0000000000
0
SPLINE
5
32B
100
AcDbEntity
8
0
100
AcDbSpline
62
9
6
CONTINUOUS
70
0
71
3
72
8
73
4
74
2
42
0.0000001000
43
0.0000001000
44
0.0000000001
12
-0.0798707877
22
0.0399628886
32
0.0000000000
13
-0.0732965761
23
0.0514658683
33
0.0000000000
40
0.0000000000
40
0.0000000000
40
0.0000000000
40
0.0000000000
40
1.0000000000
40
1.0000000000
40
1.0000000000
40
1.0000000000
10
-12.4739765735
20
-9.5903900167
30
0.0000000000
10
-12.5006001694
20
-9.5770690539
30
0.0000000000
10
-12.5261484159
20
-9.5615447470
30
0.0000000000
10
-12.5505806079
20
-9.5443894575
30
0.0000000000
11
-12.4739765735
21
-9.5903900167
31
0.0000000000
11
-12.5505806079
21
-9.5443894575
31
0.0000000000
0
SPLINE
5
32C
100
AcDbEntity
8
0
100
AcDbSpline
62
9
6
CONTINUOUS
70
0
71
3
72
12
73
8
74
6
42
0.0000001000
43
0.0000001000
44
0.0000000001
12
-0.4749936608
22
0.3335211892
32
0.0000000000
13
-0.1995334133
23
0.5441995336
33
0.0000000000
40
0.0000000000
40
0.0000000000
40
0.0000000000
40
0.0000000000
40
0.0808623415
40
0.3433578938
40
0.6238413174
40
0.9078402174
40
1.0000000000
40
1.0000000000
40
1.0000000000
40
1.0000000000
10
-12.5505806079
20
-9.5443894575
30
0.0000000000
10
-12.5633836411
20
-9.5353996894
30
0.0000000000
10
-12.6164465867
20
-9.4953255727
30
0.0000000000
10
-12.7026243379
20
-9.4105419770
30
0.0000000000
10
-12.7971973971
20
-9.2812104290
30
0.0000000000
10
-12.8559207633
20
-9.1684598045
30
0.0000000000
10
-12.8827318473
20
-9.1008701230
30
0.0000000000
10
-12.8888614993
20
-9.0841523528
30
0.0000000000
11
-12.5505806079
21
-9.5443894575
31
0.0000000000
11
-12.5880644438
21
-9.5161589097
31
0.0000000000
11
-12.6971217241
21
-9.4103871057
31
0.0000000000
11
-12.7933209085
21
-9.2796254697
31
0.0000000000
11
-12.8691843858
21
-9.1338092975
31
0.0000000000
11
-12.8888614993
21
-9.0841523528
31
0.0000000000
0
SPLINE
5
32D
100
AcDbEntity
8
0
100
AcDbSpline
62
9
6
CONTINUOUS
70
0
71
3
72
8
73
4
74
2
42
0.0000001000
43
0.0000001000
44
0.0000000001
12
-0.0363682333
22
0.0991892800
32
0.0000000000
13
-0.0253843818
23
0.1023908475
33
0.0000000000
40
0.0000000000
40
0.0000000000
40
0.0000000000
40
0.0000000000
40
1.0000000000
40
1.0000000000
40
1.0000000000
40
1.0000000000
10
-12.8888614993
20
-9.0841523528
30
0.0000000000
10
-12.9009842438
20
-9.0510892595
30
0.0000000000
10
-12.9113893903
20
-9.0174076374
30
0.0000000000
10
-12.9198508509
20
-8.9832773549
30
0.0000000000
11
-12.8888614993
21
-9.0841523528
31
0.0000000000
11
-12.9198508509
21
-8.9832773549
31
0.0000000000
0
SPLINE
5
32E
100
AcDbEntity
8
0
100
AcDbSpline
62
9
6
CONTINUOUS
70
0
71
3
72
10
73
6
74
4
42
0.0000001000
43
0.0000001000
44
0.0000000001
12
0.1166251252
22
0.0519807536
32
0.0000000000
13
0.1277091691
23
0.0010246931
33
0.0000000000
40
0.0000000000
40
0.0000000000
40
0.0000000000
40
0.0000000000
40
0.3950470354
40
0.8392682067
40
1.0000000000
40
1.0000000000
40
1.0000000000
40
1.0000000000
10
-12.7248281084
20
-3.6435817664
30
0.0000000000
10
-12.7094706384
20
-3.6367368189
30
0.0000000000
10
-12.6755851369
20
-3.6250098829
30
0.0000000000
10
-12.6333495778
20
-3.6183986744
30
0.0000000000
10
-12.6076049320
20
-3.6174248613
30
0.0000000000
10
-12.6007626240
20
-3.6173699610
30
0.0000000000
11
-12.7248281084
21
-3.6435817664
31
0.0000000000
11
-12.6772245845
21
-3.6270658758
31
0.0000000000
11
-12.6212715751
21
-3.6181559216
31
0.0000000000
11
-12.6007626240
21
-3.6173699610
31
0.0000000000
0
SPLINE
5
32F
100
AcDbEntity
8
0
100
AcDbSpline
62
9
6
CONTINUOUS
70
0
71
3
72
10
73
6
74
4
42
0.0000001000
43
0.0000001000
44
0.0000000001
12
0.1765107809
22
0.0014162599
32
0.0000000000
13
0.1620523762
23
-0.0699563402
33
0.0000000000
40
0.0000000000
40
0.0000000000
40
0.0000000000
40
0.0000000000
40
0.2491511024
40
0.6736651015
40
1.0000000000
40
1.0000000000
40
1.0000000000
40
1.0000000000
10
-12.6007626240
20
-3.6173699610
30
0.0000000000
10
-12.5861033388
20
-3.6172523401
30
0.0000000000
10
-12.5464404615
20
-3.6194640793
30
0.0000000000
10
-12.4886925014
20
-3.6318597656
30
0.0000000000
10
-12.4471712571
20
-3.6472029243
30
0.0000000000
10
-12.4295434752
20
-3.6548126561
30
0.0000000000
11
-12.6007626240
21
-3.6173699610
31
0.0000000000
11
-12.5568691408
21
-3.6197280319
31
0.0000000000
11
-12.4836106201
21
-3.6350061480
31
0.0000000000
11
-12.4295434752
21
-3.6548126561
31
0.0000000000
0
SPLINE
5
330
100
AcDbEntity
8
0
100
AcDbSpline
62
9
6
CONTINUOUS
70
0
71
3
72
8
73
4
74
2
42
0.0000001000
43
0.0000001000
44
0.0000000001
12
0.0288110390
22
-0.0124374285
32
0.0000000000
13
0.0280318250
23
-0.0140172223
33
0.0000000000
40
0.0000000000
40
0.0000000000
40
0.0000000000
40
0.0000000000
40
1.0000000000
40
1.0000000000
40
1.0000000000
40
1.0000000000
10
-12.4295434752
20
-3.6548126561
30
0.0000000000
10
-12.4199397956
20
-3.6589584656
30
0.0000000000
10
-12.4104602523
20
-3.6633836540
30
0.0000000000
10
-12.4011163106
20
-3.6680560614
30
0.0000000000
11
-12.4295434752
21
-3.6548126561
31
0.0000000000
11
-12.4011163106
21
-3.6680560614
31
0.0000000000
0
SPLINE
5
331
100
AcDbEntity
8
0
100
AcDbSpline
62
9
6
CONTINUOUS
70
0
71
3
72
8
73
4
74
2
42
0.0000001000
43
0.0000001000
44
0.0000000001
12
-0.0047821926
22
0.0193018391
32
0.0000000000
13
-0.0047518717
23
0.0193095293
33
0.0000000000
40
0.0000000000
40
0.0000000000
40
0.0000000000
40
0.0000000000
40
1.0000000000
40
1.0000000000
40
1.0000000000
40
1.0000000000
10
-12.9198508509
20
-8.9832773549
30
0.0000000000
10
-12.9214449151
20
-8.9768434085
30
0.0000000000
10
-12.9230339317
20
-8.9704081767
30
0.0000000000
10
-12.9246178889
20
-8.9639716669
30
0.0000000000
11
-12.9198508509
21
-8.9832773549
31
0.0000000000
11
-12.9246178889
21
-8.9639716669
31
0.0000000000
0
SPLINE
5
332
100
AcDbEntity
8
0
100
AcDbSpline
62
9
6
CONTINUOUS
70
0
71
3
72
17
73
13
74
11
42
0.0000001000
43
0.0000001000
44
0.0000000001
12
-1.2079523474
22
4.9085902628
32
0.0000000000
13
1.5047274293
23
4.8258362560
33
0.0000000000
40
0.0000000000
40
0.0000000000
40
0.0000000000
40
0.0000000000
40
0.1017504857
40
0.2153012008
40
0.3327403523
40
0.4504950352
40
0.5652445409
40
0.6739948599
40
0.7740950780
40
0.8632075623
40
0.9392362959
40
1.0000000000
40
1.0000000000
40
1.0000000000
40
1.0000000000
10
-12.9246178889
20
-8.9639716669
30
0.0000000000
10
-12.9655878016
20
-8.7974878525
30
0.0000000000
10
-13.0451167041
20
-8.4434036161
30
0.0000000000
10
-13.1431873102
20
-7.8911610166
30
0.0000000000
10
-13.2161352670
20
-7.3077841301
30
0.0000000000
10
-13.2565663400
20
-6.7191889965
30
0.0000000000
10
-13.2619510944
20
-6.1438482599
30
0.0000000000
10
-13.2336167475
20
-5.5989696212
30
0.0000000000
10
-13.1766195135
20
-5.0998304333
30
0.0000000000
10
-13.0992700280
20
-4.6593806300
30
0.0000000000
10
-13.0124608026
20
-4.2885812633
30
0.0000000000
10
-12.9488965181
20
-4.0669323996
30
0.0000000000
10
-12.9184189140
20
-3.9691871708
30
0.0000000000
11
-12.9246178889
21
-8.9639716669
31
0.0000000000
11
-13.0371682826
21
-8.4620850773
31
0.0000000000
11
-13.1372651484
21
-7.8968827192
31
0.0000000000
11
-13.2105783189
21
-7.3077735521
31
0.0000000000
11
-13.2509642179
21
-6.7138966973
31
0.0000000000
11
-13.2559575561
21
-6.1338608551
31
0.0000000000
11
-13.2269854104
21
-5.5848933159
31
0.0000000000
11
-13.1692045668
21
-5.0821977766
31
0.0000000000
11
-13.0909991593
21
-4.6385758819
31
0.0000000000
11
-13.0031972853
21
-4.2644154803
31
0.0000000000
11
-12.9184189140
21
-3.9691871708
31
0.0000000000
0
SPLINE
5
333
100
AcDbEntity
8
0
100
AcDbSpline
62
9
6
CONTINUOUS
70
0
71
3
72
9
73
5
74
3
42
0.0000001000
43
0.0000001000
44
0.0000000001
12
-0.0195532593
22
-0.0675120598
32
0.0000000000
13
0.0520050420
23
-0.0462687806
33
0.0000000000
40
0.0000000000
40
0.0000000000
40
0.0000000000
40
0.0000000000
40
0.4015306963
40
1.0000000000
40
1.0000000000
40
1.0000000000
40
1.0000000000
10
-12.9431058615
20
-3.9068641656
30
0.0000000000
10
-12.9457229394
20
-3.9159002204
30
0.0000000000
10
-12.9444703093
20
-3.9411059746
30
0.0000000000
10
-12.9287933469
20
-3.9599570037
30
0.0000000000
10
-12.9184188732
20
-3.9691871520
30
0.0000000000
11
-12.9431058615
21
-3.9068641656
31
0.0000000000
11
-12.9423914102
21
-3.9351174358
31
0.0000000000
11
-12.9184188732
21
-3.9691871520
31
0.0000000000
0
SPLINE
5
334
100
AcDbEntity
8
0
100
AcDbSpline
62
9
6
CONTINUOUS
70
0
71
3
72
9
73
5
74
3
42
0.0000001000
43
0.0000001000
44
0.0000000001
12
0.0226974006
22
0.0728051619
32
0.0000000000
13
0.0356999736
23
0.0674295342
33
0.0000000000
40
0.0000000000
40
0.0000000000
40
0.0000000000
40
0.0000000000
40
0.6078291916
40
1.0000000000
40
1.0000000000
40
1.0000000000
40
1.0000000000
10
-12.9184189140
20
-3.9691871708
30
0.0000000000
10
-12.9138201998
20
-3.9544361366
30
0.0000000000
10
-12.9050354240
20
-3.9305256999
30
0.0000000000
10
-12.8940403292
20
-3.9075572876
30
0.0000000000
10
-12.8893735001
20
-3.8987426560
30
0.0000000000
11
-12.9184189140
21
-3.9691871708
31
0.0000000000
11
-12.9023242971
21
-3.9257172507
31
0.0000000000
11
-12.8893735001
21
-3.8987426560
31
0.0000000000
0
SPLINE
5
335
100
AcDbEntity
8
0
100
AcDbSpline
62
9
6
CONTINUOUS
70
0
71
3
72
8
73
4
74
2
42
0.0000001000
43
0.0000001000
44
0.0000000001
12
0.0068955479
22
0.0130241996
32
0.0000000000
13
0.0074174072
23
0.0127262122
33
0.0000000000
40
0.0000000000
40
0.0000000000
40
0.0000000000
40
0.0000000000
40
1.0000000000
40
1.0000000000
40
1.0000000000
40
1.0000000000
10
-12.8893735001
20
-3.8987426560
30
0.0000000000
10
-12.8870749841
20
-3.8944012561
30
0.0000000000
10
-12.8846903836
20
-3.8901066518
30
0.0000000000
10
-12.8822179145
20
-3.8858645811
30
0.0000000000
11
-12.8893735001
21
-3.8987426560
31
0.0000000000
11
-12.8822179145
21
-3.8858645811
31
0.0000000000
0
SPLINE
5
336
100
AcDbEntity
8
0
100
AcDbSpline
62
9
6
CONTINUOUS
70
0
71
3
72
10
73
6
74
4
42
0.0000001000
43
0.0000001000
44
0.0000000001
12
-0.0377761602
22
-0.0631526186
32
0.0000000000
13
0.0389292413
23
-0.0619634229
33
0.0000000000
40
0.0000000000
40
0.0000000000
40
0.0000000000
40
0.0000000000
40
0.0583382449
40
0.5906727324
40
1.0000000000
40
1.0000000000
40
1.0000000000
40
1.0000000000
10
-12.8978836000
20
-3.8030333276
30
0.0000000000
10
-12.8986181983
20
-3.8042613986
30
0.0000000000
10
-12.9054943630
20
-3.8169905299
30
0.0000000000
10
-12.9065934519
20
-3.8430898508
30
0.0000000000
10
-12.8971274687
20
-3.8643396217
30
0.0000000000
10
-12.8918158687
20
-3.8727940612
30
0.0000000000
11
-12.8978836000
21
-3.8030333276
31
0.0000000000
11
-12.8999157157
21
-3.8068020145
31
0.0000000000
11
-12.9033727551
21
-3.8452370260
31
0.0000000000
11
-12.8918158687
21
-3.8727940612
31
0.0000000000
0
SPLINE
5
337
100
AcDbEntity
8
0
100
AcDbSpline
62
9
6
CONTINUOUS
70
0
71
3
72
8
73
4
74
2
42
0.0000001000
43
0.0000001000
44
0.0000000001
12
0.0086631878
22
-0.0137891403
32
0.0000000000
13
0.0104062068
23
-0.0123271682
33
0.0000000000
40
0.0000000000
40
0.0000000000
40
0.0000000000
40
0.0000000000
40
1.0000000000
40
1.0000000000
40
1.0000000000
40
1.0000000000
10
-12.8918158687
20
-3.8727940612
30
0.0000000000
10
-12.8889281394
20
-3.8773904413
30
0.0000000000
10
-12.8856866501
20
-3.8817555250
30
0.0000000000
10
-12.8822179145
20
-3.8858645810
30
0.0000000000
11
-12.8918158687
21
-3.8727940612
31
0.0000000000
11
-12.8822179145
21
-3.8858645810
31
0.0000000000
0
SPLINE
5
338
100
AcDbEntity
8
0
100
AcDbSpline
62
9
6
CONTINUOUS
70
0
71
3
72
9
73
5
74
3
42
0.0000001000
43
0.0000001000
44
0.0000000001
12
0.0325994092
22
0.0558690337
32
0.0000000000
13
0.0431332755
23
0.0482492697
33
0.0000000000
40
0.0000000000
40
0.0000000000
40
0.0000000000
40
0.0000000000
40
0.4894747407
40
1.0000000000
40
1.0000000000
40
1.0000000000
40
1.0000000000
10
-12.8822179145
20
-3.8858645811
30
0.0000000000
10
-12.8768990521
20
-3.8767490875
30
0.0000000000
10
-12.8651905395
20
-3.8586000548
30
0.0000000000
10
-12.8517190209
20
-3.8417140910
30
0.0000000000
10
-12.8443788120
20
-3.8335032673
30
0.0000000000
11
-12.8822179145
21
-3.8858645811
31
0.0000000000
11
-12.8650146190
21
-3.8592847143
31
0.0000000000
11
-12.8443788120
21
-3.8335032673
31
0.0000000000
0
SPLINE
5
339
100
AcDbEntity
8
0
100
AcDbSpline
62
9
6
CONTINUOUS
70
0
71
3
72
10
73
6
74
4
42
0.0000001000
43
0.0000001000
44
0.0000000001
12
0.0655179977
22
0.0732890211
32
0.0000000000
13
0.0874675395
23
0.0449853759
33
0.0000000000
40
0.0000000000
40
0.0000000000
40
0.0000000000
40
0.0000000000
40
0.3543349076
40
0.7320067338
40
1.0000000000
40
1.0000000000
40
1.0000000000
40
1.0000000000
10
-12.8443788120
20
-3.8335032673
30
0.0000000000
10
-12.8366403741
20
-3.8248469811
30
0.0000000000
10
-12.8195915255
20
-3.8079054382
30
0.0000000000
10
-12.7934364444
20
-3.7880150818
30
0.0000000000
10
-12.7751140793
20
-3.7773575186
30
0.0000000000
10
-12.7673005087
20
-3.7733389260
30
0.0000000000
11
-12.8443788120
21
-3.8335032673
31
0.0000000000
11
-12.8196437355
21
-3.8090036047
31
0.0000000000
11
-12.7900768295
21
-3.7865811119
31
0.0000000000
11
-12.7673005087
21
-3.7733389260
31
0.0000000000
0
SPLINE
5
33A
100
AcDbEntity
8
0
100
AcDbSpline
62
9
6
CONTINUOUS
70
0
71
3
72
13
73
9
74
7
42
0.0000001000
43
0.0000001000
44
0.0000000001
12
0.2703693192
22
0.1390534764
32
0.0000000000
13
0.2716353928
23
-0.1358439705
33
0.0000000000
40
0.0000000000
40
0.0000000000
40
0.0000000000
40
0.0000000000
40
0.0451799191
40
0.1897081716
40
0.3508957400
40
0.5342455450
40
0.7473174303
40
1.0000000000
40
1.0000000000
40
1.0000000000
40
1.0000000000
10
-12.7673005087
20
-3.7733389260
30
0.0000000000
10
-12.7632287541
20
-3.7712447844
30
0.0000000000
10
-12.7458938171
20
-3.7629133896
30
0.0000000000
10
-12.7121610286
20
-3.7512216198
30
0.0000000000
10
-12.6629702769
20
-3.7435478887
30
0.0000000000
10
-12.6062232169
20
-3.7452304453
30
0.0000000000
10
-12.5416517643
20
-3.7591297298
30
0.0000000000
10
-12.4977495689
20
-3.7770644061
30
0.0000000000
10
-12.4748703925
20
-3.7885062073
30
0.0000000000
11
-12.7673005087
21
-3.7733389260
31
0.0000000000
11
-12.7549207767
21
-3.7673904835
31
0.0000000000
11
-12.7134586487
21
-3.7529812409
31
0.0000000000
11
-12.6651098360
21
-3.7453063938
31
0.0000000000
11
-12.6094422451
21
-3.7467007327
31
0.0000000000
11
-12.5461007153
21
-3.7599477612
31
0.0000000000
11
-12.4748703925
21
-3.7885062073
31
0.0000000000
0
SPLINE
5
33B
100
AcDbEntity
8
0
100
AcDbSpline
62
9
6
CONTINUOUS
70
0
71
3
72
9
73
5
74
3
42
0.0000001000
43
0.0000001000
44
0.0000000001
12
0.0035782234
22
-0.0311314701
32
0.0000000000
13
0.0305902916
23
-0.0040600025
33
0.0000000000
40
0.0000000000
40
0.0000000000
40
0.0000000000
40
0.0000000000
40
0.1738089699
40
1.0000000000
40
1.0000000000
40
1.0000000000
40
1.0000000000
10
-12.9451282069
20
-8.9690892096
30
0.0000000000
10
-12.9449208978
20
-8.9708928525
30
0.0000000000
10
-12.9420954426
20
-8.9806030949
30
0.0000000000
10
-12.9282752958
20
-8.9821592262
30
0.0000000000
10
-12.9198508210
20
-8.9832773388
30
0.0000000000
11
-12.9451282069
21
-8.9690892096
31
0.0000000000
11
-12.9436065741
21
-8.9740219749
31
0.0000000000
11
-12.9198508210
21
-8.9832773388
31
0.0000000000
0
SPLINE
5
33C
100
AcDbEntity
8
0
100
AcDbSpline
62
9
6
CONTINUOUS
70
0
71
3
72
10
73
6
74
4
42
0.0000001000
43
0.0000001000
44
0.0000000001
12
-0.1341233855
22
-0.0598896432
32
0.0000000000
13
-0.0040260790
23
-0.1468320217
33
0.0000000000
40
0.0000000000
40
0.0000000000
40
0.0000000000
40
0.0000000000
40
0.3093028096
40
0.6616624236
40
1.0000000000
40
1.0000000000
40
1.0000000000
40
1.0000000000
10
-12.4011163106
20
-3.6680560614
30
0.0000000000
10
-12.4149445573
20
-3.6742307397
30
0.0000000000
10
-12.4406568234
20
-3.6958593026
30
0.0000000000
10
-12.4661553498
20
-3.7382506685
30
0.0000000000
10
-12.4744163346
20
-3.7719466105
30
0.0000000000
10
-12.4748703925
20
-3.7885062073
30
0.0000000000
11
-12.4011163106
21
-3.6680560614
31
0.0000000000
11
-12.4370517134
21
-3.6958548087
31
0.0000000000
11
-12.4640793173
21
-3.7399944517
31
0.0000000000
11
-12.4748703925
21
-3.7885062073
31
0.0000000000
0
SPLINE
5
33D
100
AcDbEntity
8
0
100
AcDbSpline
62
9
6
CONTINUOUS
70
0
71
3
72
9
73
5
74
3
42
0.0000001000
43
0.0000001000
44
0.0000000001
12
-0.0529573290
22
0.0279042750
32
0.0000000000
13
-0.0018229724
23
0.0588519935
33
0.0000000000
40
0.0000000000
40
0.0000000000
40
0.0000000000
40
0.0000000000
40
0.3736669140
40
1.0000000000
40
1.0000000000
40
1.0000000000
40
1.0000000000
10
-12.4479526864
20
-9.6411091491
30
0.0000000000
10
-12.4545488203
20
-9.6376335143
30
0.0000000000
10
-12.4698994706
20
-9.6232111536
30
0.0000000000
10
-12.4735959775
20
-9.6026770004
30
0.0000000000
10
-12.4739765735
20
-9.5903900168
30
0.0000000000
11
-12.4479526864
21
-9.6411091491
31
0.0000000000
11
-12.4643936479
21
-9.6260018253
31
0.0000000000
11
-12.4739765735
21
-9.5903900168
31
0.0000000000
0
SPLINE
5
33E
100
AcDbEntity
8
0
100
AcDbSpline
62
9
6
CONTINUOUS
70
0
71
3
72
9
73
5
74
3
42
0.0000001000
43
0.0000001000
44
0.0000000001
12
-0.0529582213
22
0.0279039999
32
0.0000000000
13
-0.0018229846
23
0.0588522204
33
0.0000000000
40
0.0000000000
40
0.0000000000
40
0.0000000000
40
0.0000000000
40
0.3736057857
40
1.0000000000
40
1.0000000000
40
1.0000000000
40
1.0000000000
10
-4.2527475954
20
-13.7387115953
30
0.0000000000
10
-4.2593427614
20
-13.7352365634
30
0.0000000000
10
-4.2746942056
20
-13.7208153464
30
0.0000000000
10
-4.2783911524
20
-13.7002806396
30
0.0000000000
10
-4.2787717880
20
-13.6879924095
30
0.0000000000
11
-4.2527475954
21
-13.7387115953
31
0.0000000000
11
-4.2691867884
21
-13.7236075344
31
0.0000000000
11
-4.2787717880
21
-13.6879924095
31
0.0000000000
0
SPLINE
5
33F
100
AcDbEntity
8
0
100
AcDbSpline
62
9
6
CONTINUOUS
70
0
71
3
72
10
73
6
74
4
42
0.0000001000
43
0.0000001000
44
0.0000000001
12
0.2333011066
22
-0.1166450736
32
0.0000000000
13
0.1795528946
23
-0.1893645187
33
0.0000000000
40
0.0000000000
40
0.0000000000
40
0.0000000000
40
0.0000000000
40
0.4021835662
40
0.7881256522
40
1.0000000000
40
1.0000000000
40
1.0000000000
40
1.0000000000
10
-4.2059115252
20
-7.7656584541
30
0.0000000000
10
-4.1746349015
20
-7.7812960314
30
0.0000000000
10
-4.1160308470
20
-7.8174962682
30
0.0000000000
10
-4.0490080646
20
-7.8731903415
30
0.0000000000
10
-4.0121172757
20
-7.9098701389
30
0.0000000000
10
-3.9994363915
20
-7.9232439669
30
0.0000000000
11
-4.2059115252
21
-7.7656584541
31
0.0000000000
11
-4.1163287581
21
-7.8202457872
31
0.0000000000
11
-4.0386654806
21
-7.8842956742
31
0.0000000000
11
-3.9994363915
21
-7.9232439669
31
0.0000000000
0
SPLINE
5
340
100
AcDbEntity
8
0
100
AcDbSpline
62
9
6
CONTINUOUS
70
0
71
3
72
16
73
12
74
10
42
0.0000001000
43
0.0000001000
44
0.0000000001
12
0.5789045417
22
-0.2894232259
32
0.0000000000
13
0.2041538107
23
-0.6141803430
33
0.0000000000
40
0.0000000000
40
0.0000000000
40
0.0000000000
40
0.0000000000
40
0.1399183775
40
0.2745257175
40
0.4027987939
40
0.5235784113
40
0.6358358595
40
0.7391595849
40
0.8337771913
40
0.9203873499
40
1.0000000000
40
1.0000000000
40
1.0000000000
40
1.0000000000
10
-4.2796656071
20
-7.8861086000
30
0.0000000000
10
-4.2526658124
20
-7.8996071427
30
0.0000000000
10
-4.2020049296
20
-7.9308777885
30
0.0000000000
10
-4.1349807680
20
-7.9864984029
30
0.0000000000
10
-4.0774992348
20
-8.0462616575
30
0.0000000000
10
-4.0289117491
20
-8.1073380381
30
0.0000000000
10
-3.9884173558
20
-8.1676382759
30
0.0000000000
10
-3.9551057000
20
-8.2257378374
30
0.0000000000
10
-3.9279801738
20
-8.2808506979
30
0.0000000000
10
-3.9060593375
20
-8.3327090294
30
0.0000000000
10
-3.8938632018
20
-8.3664519668
30
0.0000000000
10
-3.8884454598
20
-8.3827508084
30
0.0000000000
11
-4.2796656071
21
-7.8861086000
31
0.0000000000
11
-4.2023186954
21
-7.9332069162
31
0.0000000000
11
-4.1350690024
21
-7.9885920885
31
0.0000000000
11
-4.0773905383
21
-8.0483056259
31
0.0000000000
11
-4.0286474879
21
-8.1094190850
31
0.0000000000
11
-3.9881018354
21
-8.1697089660
31
0.0000000000
11
-3.9548212546
21
-8.2277128668
31
0.0000000000
11
-3.9277744646
21
-8.2826549858
31
0.0000000000
11
-3.9059526556
21
-8.3342891165
31
0.0000000000
11
-3.8884454598
21
-8.3827508084
31
0.0000000000
0
SPLINE
5
341
100
AcDbEntity
8
0
100
AcDbSpline
62
9
6
CONTINUOUS
70
0
71
3
72
10
73
6
74
4
42
0.0000001000
43
0.0000001000
44
0.0000000001
12
-0.1341233841
22
-0.0598896398
32
0.0000000000
13
-0.0040260750
23
-0.1468320191
33
0.0000000000
40
0.0000000000
40
0.0000000000
40
0.0000000000
40
0.0000000000
40
0.3093100440
40
0.6616713451
40
1.0000000000
40
1.0000000000
40
1.0000000000
40
1.0000000000
10
-4.2059115252
20
-7.7656584541
30
0.0000000000
10
-4.2197400951
20
-7.7718332765
30
0.0000000000
10
-4.2454526176
20
-7.7934623042
30
0.0000000000
10
-4.2709508431
20
-7.8358538489
30
0.0000000000
10
-4.2792115616
20
-7.8695494401
30
0.0000000000
10
-4.2796656071
20
-7.8861086000
30
0.0000000000
11
-4.2059115252
21
-7.7656584541
31
0.0000000000
11
-4.2418476409
21
-7.7934580151
31
0.0000000000
11
-4.2688750354
21
-7.8375980759
31
0.0000000000
11
-4.2796656071
21
-7.8861086000
31
0.0000000000
0
SPLINE
5
342
100
AcDbEntity
8
0
100
AcDbSpline
62
9
6
CONTINUOUS
70
0
71
3
72
9
73
5
74
3
42
0.0000001000
43
0.0000001000
44
0.0000000001
12
0.0381280851
22
-0.1147975822
32
0.0000000000
13
0.0233885241
23
-0.1186811387
33
0.0000000000
40
0.0000000000
40
0.0000000000
40
0.0000000000
40
0.0000000000
40
0.5059297186
40
1.0000000000
40
1.0000000000
40
1.0000000000
40
1.0000000000
10
-3.8884454598
20
-8.3827508084
30
0.0000000000
10
-3.8820154160
20
-8.4021106445
30
0.0000000000
10
-3.8704723310
20
-8.4407746177
30
0.0000000000
10
-3.8613770745
20
-8.4800884118
30
0.0000000000
10
-3.8575252163
20
-8.4996340197
30
0.0000000000
11
-3.8884454598
21
-8.3827508084
31
0.0000000000
11
-3.8709619947
21
-8.4413994820
31
0.0000000000
11
-3.8575252163
21
-8.4996340197
31
0.0000000000
0
SPLINE
5
343
100
AcDbEntity
8
0
100
AcDbSpline
62
9
6
CONTINUOUS
70
0
71
3
72
10
73
6
74
4
42
0.0000001000
43
0.0000001000
44
0.0000000001
12
-0.1223621855
22
-0.0535883383
32
0.0000000000
13
-0.1318836214
23
-0.0211808041
33
0.0000000000
40
0.0000000000
40
0.0000000000
40
0.0000000000
40
0.0000000000
40
0.2977262968
40
0.6834880297
40
1.0000000000
40
1.0000000000
40
1.0000000000
40
1.0000000000
10
-3.7611060744
20
-8.3431591392
30
0.0000000000
10
-3.7732495545
20
-8.3484773583
30
0.0000000000
10
-3.8016882443
20
-8.3594295553
30
0.0000000000
10
-3.8441078744
20
-8.3729516620
30
0.0000000000
10
-3.8745311999
20
-8.3805161437
30
0.0000000000
10
-3.8884454482
20
-8.3827508031
30
0.0000000000
11
-3.7611060744
21
-8.3431591392
31
0.0000000000
11
-3.7981304873
21
-8.3576944120
31
0.0000000000
11
-3.8472364625
21
-8.3733051919
31
0.0000000000
11
-3.8884454482
21
-8.3827508031
31
0.0000000000
0
SPLINE
5
344
100
AcDbEntity
8
0
100
AcDbSpline
62
7
6
CONTINUOUS
70
0
71
3
72
9
73
5
74
3
42
0.0000001000
43
0.0000001000
44
0.0000000001
12
0.0060976647
22
0.0089506850
32
0.0000000000
13
-0.0019800126
23
0.0110475113
33
0.0000000000
40
0.0000000000
40
0.0000000000
40
0.0000000000
40
0.0000000000
40
0.9279168381
40
1.0000000000
40
1.0000000000
40
1.0000000000
40
1.0000000000
10
28.6456501956
20
-19.9031438982
30
0.0000000000
10
28.6475362375
20
-19.9003754011
30
0.0000000000
10
28.6502585158
20
-19.8971782647
30
0.0000000000
10
28.6498136381
20
-19.8934899118
30
0.0000000000
10
28.6497660629
20
-19.8932244653
30
0.0000000000
11
28.6456501956
21
-19.9031438982
31
0.0000000000
11
28.6498613180
21
-19.8940190957
31
0.0000000000
11
28.6497660629
21
-19.8932244653
31
0.0000000000
0
SPLINE
5
345
100
AcDbEntity
8
0
100
AcDbSpline
62
7
6
CONTINUOUS
70
0
71
3
72
9
73
5
74
3
42
0.0000001000
43
0.0000001000
44
0.0000000001
12
0.0082445676
22
-0.0748697205
32
0.0000000000
13
-0.0000152667
23
-0.0753627971
33
0.0000000000
40
0.0000000000
40
0.0000000000
40
0.0000000000
40
0.0000000000
40
0.8962716206
40
1.0000000000
40
1.0000000000
40
1.0000000000
40
1.0000000000
10
28.6456501956
20
17.8189411212
30
0.0000000000
10
28.6481133196
20
17.7965732527
30
0.0000000000
10
28.6497557189
20
17.7714731480
30
0.0000000000
10
28.6499091736
20
17.7463520387
30
0.0000000000
10
28.6499086458
20
17.7437462851
30
0.0000000000
11
28.6456501956
21
17.8189411212
31
0.0000000000
11
28.6498613180
21
17.7515633566
31
0.0000000000
11
28.6499086458
21
17.7437462851
31
0.0000000000
0
SPLINE
5
346
100
AcDbEntity
8
0
100
AcDbSpline
62
7
6
CONTINUOUS
70
0
71
3
72
9
73
5
74
3
42
0.0000001000
43
0.0000001000
44
0.0000000001
12
0.0305169333
22
0.0150410226
32
0.0000000000
13
0.0317561143
23
0.0122092091
33
0.0000000000
40
0.0000000000
40
0.0000000000
40
0.0000000000
40
0.0000000000
40
0.5062732526
40
1.0000000000
40
1.0000000000
40
1.0000000000
40
1.0000000000
10
22.4479854566
20
19.6967389698
30
0.0000000000
10
22.4531354256
20
19.6992772590
30
0.0000000000
10
22.4634170100
20
19.7040726707
30
0.0000000000
10
22.4739061152
20
19.7083966258
30
0.0000000000
10
22.4791323962
20
19.7104059635
30
0.0000000000
11
22.4479854566
21
19.6967389698
31
0.0000000000
11
22.4635991982
21
19.7040119961
31
0.0000000000
11
22.4791323962
21
19.7104059635
31
0.0000000000
0
SPLINE
5
347
100
AcDbEntity
8
0
100
AcDbSpline
62
7
6
CONTINUOUS
70
0
71
3
72
13
73
9
74
7
42
0.0000001000
43
0.0000001000
44
0.0000000001
12
0.0000690123
22
-0.1406608188
32
0.0000000000
13
-0.1247538271
23
-0.0648203393
33
0.0000000000
40
0.0000000000
40
0.0000000000
40
0.0000000000
40
0.0000000000
40
0.1283363857
40
0.3095217469
40
0.4852955624
40
0.6567183494
40
0.8265350590
40
1.0000000000
40
1.0000000000
40
1.0000000000
40
1.0000000000
10
28.1654221775
20
16.4228863709
30
0.0000000000
10
28.1654251298
20
16.4168690705
30
0.0000000000
10
28.1649025430
20
16.4023565382
30
0.0000000000
10
28.1617958659
20
16.3797616548
30
0.0000000000
10
28.1548740479
20
16.3558769720
30
0.0000000000
10
28.1439949647
20
16.3340443630
30
0.0000000000
10
28.1285890304
20
16.3151878426
30
0.0000000000
10
28.1152853900
20
16.3057097234
30
0.0000000000
10
28.1080719182
20
16.3019617046
30
0.0000000000
11
28.1654221775
21
16.4228863709
31
0.0000000000
11
28.1647409707
21
16.4048519161
31
0.0000000000
11
28.1611451969
21
16.3796343654
31
0.0000000000
11
28.1541102913
21
16.3559450406
31
0.0000000000
11
28.1431956569
21
16.3344581555
31
0.0000000000
11
28.1279570692
21
16.3160796771
31
0.0000000000
11
28.1080719182
21
16.3019617046
31
0.0000000000
0
SPLINE
5
348
100
AcDbEntity
8
0
100
AcDbSpline
62
7
6
CONTINUOUS
70
0
71
3
72
9
73
5
74
3
42
0.0000001000
43
0.0000001000
44
0.0000000001
12
0.0325029986
22
0.0158332403
32
0.0000000000
13
0.0338763334
23
0.0126305366
33
0.0000000000
40
0.0000000000
40
0.0000000000
40
0.0000000000
40
0.0000000000
40
0.5065715547
40
1.0000000000
40
1.0000000000
40
1.0000000000
40
1.0000000000
10
16.8573522146
20
22.4920555908
30
0.0000000000
10
16.8628405794
20
22.4947291472
30
0.0000000000
10
16.8737967506
20
22.4997609439
30
0.0000000000
10
16.8849830634
20
22.5042595736
30
0.0000000000
10
16.8905549123
20
22.5063369956
30
0.0000000000
11
16.8573522146
21
22.4920555908
31
0.0000000000
11
16.8739998065
21
22.4996902588
31
0.0000000000
11
16.8905549123
21
22.5063369956
31
0.0000000000
0
SPLINE
5
349
100
AcDbEntity
8
0
100
AcDbSpline
62
7
6
CONTINUOUS
70
0
71
3
72
20
73
16
74
14
42
0.0000001000
43
0.0000001000
44
0.0000000001
12
0.0000304116
22
0.8777225157
32
0.0000000000
13
-0.8769583073
23
-0.0509073605
33
0.0000000000
40
0.0000000000
40
0.0000000000
40
0.0000000000
40
0.0000000000
40
0.0669862261
40
0.1512942744
40
0.2358613858
40
0.3203049225
40
0.4042197027
40
0.4871043417
40
0.5684154124
40
0.6478451857
40
0.7253321850
40
0.7997072246
40
0.8696971554
40
0.9362652592
40
1.0000000000
40
1.0000000000
40
1.0000000000
40
1.0000000000
10
26.2602730230
20
-16.2405759142
30
0.0000000000
10
26.2602737021
20
-16.2209774745
30
0.0000000000
10
26.2579717147
20
-16.1766823191
30
0.0000000000
10
26.2470386257
20
-16.1084332612
30
0.0000000000
10
26.2273908017
20
-16.0368522172
30
0.0000000000
10
26.2004925898
20
-15.9678059991
30
0.0000000000
10
26.1669451384
20
-15.9022867747
30
0.0000000000
10
26.1273118499
20
-15.8413417009
30
0.0000000000
10
26.0821469153
20
-15.7860401369
30
0.0000000000
10
26.0319839598
20
-15.7374391187
30
0.0000000000
10
25.9776389688
20
-15.6968171663
30
0.0000000000
10
25.9205339251
20
-15.6655212416
30
0.0000000000
10
25.8623525586
20
-15.6442768660
30
0.0000000000
10
25.8045894676
20
-15.6330937339
30
0.0000000000
10
25.7663189698
20
-15.6320613431
30
0.0000000000
10
25.7476880663
20
-15.6331428656
30
0.0000000000
11
26.2602730230
21
-16.2405759142
31
0.0000000000
11
26.2573117493
21
-16.1818549652
31
0.0000000000
11
26.2457371177
21
-16.1087939181
31
0.0000000000
11
26.2261631227
21
-16.0372227836
31
0.0000000000
11
26.1992852693
21
-15.9681788036
31
0.0000000000
11
26.1657009012
21
-15.9026574406
31
0.0000000000
11
26.1259874610
21
-15.8417351738
31
0.0000000000
11
26.0807624436
21
-15.7865584367
31
0.0000000000
11
26.0305940057
21
-15.7381838317
31
0.0000000000
11
25.9760206060
21
-15.6976371840
31
0.0000000000
11
25.9186991222
21
-15.6664487631
31
0.0000000000
11
25.8609580011
21
-15.6455422428
31
0.0000000000
11
25.8035917308
21
-15.6345648807
31
0.0000000000
11
25.7476880663
21
-15.6331428656
31
0.0000000000
0
SPLINE
5
34A
100
AcDbEntity
8
0
100
AcDbSpline
62
7
6
CONTINUOUS
70
0
71
3
72
12
73
8
74
6
42
0.0000001000
43
0.0000001000
44
0.0000000001
12
-0.1115814706
22
0.0558423843
32
0.0000000000
13
-0.1123898903
23
-0.0540317671
33
0.0000000000
40
0.0000000000
40
0.0000000000
40
0.0000000000
40
0.0000000000
40
0.1848813441
40
0.3956838420
40
0.6005520611
40
0.8007757391
40
1.0000000000
40
1.0000000000
40
1.0000000000
40
1.0000000000
10
27.7958476516
20
-17.7774251995
30
0.0000000000
10
27.7889712075
20
-17.7739837944
30
0.0000000000
10
27.7739099650
20
-17.7673023414
30
0.0000000000
10
27.7499716569
20
-17.7599346107
30
0.0000000000
10
27.7244844646
20
-17.7563523835
30
0.0000000000
10
27.6992154746
20
-17.7578481672
30
0.0000000000
10
27.6831615026
20
-17.7629365193
30
0.0000000000
10
27.6756979050
20
-17.7665246656
30
0.0000000000
11
27.7958476516
21
-17.7774251995
31
0.0000000000
11
27.7747414179
21
-17.7681389305
31
0.0000000000
11
27.7495724131
21
-17.7605515609
31
0.0000000000
11
27.7242475260
21
-17.7571844365
31
0.0000000000
11
27.6993366521
21
-17.7588806889
31
0.0000000000
11
27.6756979050
21
-17.7665246656
31
0.0000000000
0
SPLINE
5
34B
100
AcDbEntity
8
0
100
AcDbSpline
62
7
6
CONTINUOUS
70
0
71
3
72
9
73
5
74
3
42
0.0000001000
43
0.0000001000
44
0.0000000001
12
-0.0002146387
22
0.0021538239
32
0.0000000000
13
-0.0014996495
23
0.0010267911
33
0.0000000000
40
0.0000000000
40
0.0000000000
40
0.0000000000
40
0.0000000000
40
0.7851851553
40
1.0000000000
40
1.0000000000
40
1.0000000000
40
1.0000000000
10
28.1652908508
20
-17.9633665286
30
0.0000000000
10
28.1652346738
20
-17.9628028117
30
0.0000000000
10
28.1650122335
20
-17.9621218439
30
0.0000000000
10
28.1645555909
20
-17.9617253125
30
0.0000000000
10
28.1644482085
20
-17.9616517892
30
0.0000000000
11
28.1652908508
21
-17.9633665286
31
0.0000000000
11
28.1647409707
21
-17.9619087996
31
0.0000000000
11
28.1644482085
21
-17.9616517892
31
0.0000000000
0
SPLINE
5
34C
100
AcDbEntity
8
0
100
AcDbSpline
62
7
6
CONTINUOUS
70
0
71
3
72
8
73
4
74
2
42
0.0000001000
43
0.0000001000
44
0.0000000001
12
0.7602749638
22
0.7331488659
32
0.0000000000
13
0.7602749638
23
0.7331488659
33
0.0000000000
40
0.0000000000
40
0.0000000000
40
0.0000000000
40
0.0000000000
40
1.0000000000
40
1.0000000000
40
1.0000000000
40
1.0000000000
10
23.0899681194
20
13.3565046767
30
0.0000000000
10
23.3433931073
20
13.6008876320
30
0.0000000000
10
23.5968180952
20
13.8452705873
30
0.0000000000
10
23.8502430832
20
14.0896535426
30
0.0000000000
11
23.0899681194
21
13.3565046767
31
0.0000000000
11
23.8502430832
21
14.0896535426
31
0.0000000000
0
SPLINE
5
34D
100
AcDbEntity
8
0
100
AcDbSpline
62
7
6
CONTINUOUS
70
0
71
3
72
8
73
4
74
2
42
0.0000001000
43
0.0000001000
44
0.0000000001
12
-1.7934894886
22
-0.1042224409
32
0.0000000000
13
-1.7934894886
23
-0.1042224409
33
0.0000000000
40
0.0000000000
40
0.0000000000
40
0.0000000000
40
0.0000000000
40
1.0000000000
40
1.0000000000
40
1.0000000000
40
1.0000000000
10
25.7476645327
20
-15.6331436015
30
0.0000000000
10
25.1498347031
20
-15.6678844152
30
0.0000000000
10
24.5520048736
20
-15.7026252288
30
0.0000000000
10
23.9541750441
20
-15.7373660425
30
0.0000000000
11
25.7476645327
21
-15.6331436015
31
0.0000000000
11
23.9541750441
21
-15.7373660425
31
0.0000000000
0
SPLINE
5
34E
100
AcDbEntity
8
0
100
AcDbSpline
62
7
6
CONTINUOUS
70
0
71
3
72
13
73
9
74
7
42
0.0000001000
43
0.0000001000
44
0.0000000001
12
0.2438583381
22
0.0909207508
32
0.0000000000
13
0.2328865004
23
-0.1164419019
33
0.0000000000
40
0.0000000000
40
0.0000000000
40
0.0000000000
40
0.0000000000
40
0.1349785708
40
0.2781016538
40
0.4323124853
40
0.6010961507
40
0.7894365868
40
1.0000000000
40
1.0000000000
40
1.0000000000
40
1.0000000000
10
16.8905549123
20
22.5063369956
30
0.0000000000
10
16.9015267956
20
22.5104277799
30
0.0000000000
10
16.9249286289
20
22.5168393202
30
0.0000000000
10
16.9623792704
20
22.5207045688
30
0.0000000000
10
17.0029097473
20
22.5188003071
30
0.0000000000
10
17.0466537820
20
22.5107447619
30
0.0000000000
10
17.0937447542
20
22.4959522300
30
0.0000000000
10
17.1254641328
20
22.4819542791
30
0.0000000000
10
17.1418099250
20
22.4737814777
30
0.0000000000
11
16.8905549123
21
22.5063369956
31
0.0000000000
11
16.9244057621
21
22.5157269170
31
0.0000000000
11
16.9614411230
21
22.5197080187
31
0.0000000000
11
17.0015391720
21
22.5180007247
31
0.0000000000
11
17.0447736089
21
22.5102309382
31
0.0000000000
11
17.0915957714
21
22.4957280097
31
0.0000000000
11
17.1418099250
21
22.4737814777
31
0.0000000000
0
SPLINE
5
34F
100
AcDbEntity
8
0
100
AcDbSpline
62
7
6
CONTINUOUS
70
0
71
3
72
14
73
10
74
8
42
0.0000001000
43
0.0000001000
44
0.0000000001
12
0.2447517458
22
0.0940992088
32
0.0000000000
13
0.2346475073
23
-0.1173007670
33
0.0000000000
40
0.0000000000
40
0.0000000000
40
0.0000000000
40
0.0000000000
40
0.1343241087
40
0.2766201774
40
0.4298308002
40
0.5973678388
40
0.7842707241
40
0.9939524091
40
1.0000000000
40
1.0000000000
40
1.0000000000
40
1.0000000000
10
22.4791323962
20
19.7104059635
30
0.0000000000
10
22.4900910829
20
19.7146192276
30
0.0000000000
10
22.5134841610
20
19.7212671048
30
0.0000000000
10
22.5509715819
20
19.7254352878
30
0.0000000000
10
22.5915522231
20
19.7237901948
30
0.0000000000
10
22.6353517655
20
19.7159607710
30
0.0000000000
10
22.6825637871
20
19.7013508838
30
0.0000000000
10
22.7148685620
20
19.6872210942
30
0.0000000000
10
22.7317538749
20
19.6788094658
30
0.0000000000
10
22.7322268923
20
19.6785730035
30
0.0000000000
11
22.4791323962
21
19.7104059635
31
0.0000000000
11
22.5129826378
21
19.7201404807
31
0.0000000000
11
22.5500487648
21
19.7244215510
31
0.0000000000
11
22.5901971440
21
19.7229723973
31
0.0000000000
11
22.6334759762
21
19.7154298676
31
0.0000000000
11
22.6803528741
21
19.7011308826
31
0.0000000000
11
22.7308068420
21
19.6792804154
31
0.0000000000
11
22.7322268923
21
19.6785730035
31
0.0000000000
0
SPLINE
5
350
100
AcDbEntity
8
0
100
AcDbSpline
62
7
6
CONTINUOUS
70
0
71
3
72
17
73
13
74
11
42
0.0000001000
43
0.0000001000
44
0.0000000001
12
0.2633414843
22
-0.1316707422
32
0.0000000000
13
0.0000000000
23
-0.2944247301
33
0.0000000000
40
0.0000000000
40
0.0000000000
40
0.0000000000
40
0.0000000000
40
0.0874874486
40
0.1810702291
40
0.2799098329
40
0.3828096192
40
0.4883428695
40
0.5949243304
40
0.7009123992
40
0.8047106934
40
0.9048294299
40
1.0000000000
40
1.0000000000
40
1.0000000000
40
1.0000000000
10
14.5263326287
20
19.0920786081
30
0.0000000000
10
14.5340123202
20
19.0882387623
30
0.0000000000
10
14.5492898088
20
19.0790208758
30
0.0000000000
10
14.5707875263
20
19.0618152181
30
0.0000000000
10
14.5911958648
20
19.0411493092
30
0.0000000000
10
14.6100223130
20
19.0175246178
30
0.0000000000
10
14.6268175233
20
18.9915099507
30
0.0000000000
10
14.6411753073
20
18.9637346391
30
0.0000000000
10
14.6527484678
20
18.9348714529
30
0.0000000000
10
14.6612567444
20
18.9056163519
30
0.0000000000
10
14.6664936845
20
18.8766803603
30
0.0000000000
10
14.6677539849
20
18.8575001078
30
0.0000000000
10
14.6677539849
20
18.8481599180
30
0.0000000000
11
14.5263326287
21
19.0920786081
31
0.0000000000
11
14.5484554912
21
19.0788847592
31
0.0000000000
11
14.5700334780
21
19.0617510797
31
0.0000000000
11
14.5905358338
21
19.0410989285
31
0.0000000000
11
14.6094569076
21
19.0174376684
31
0.0000000000
11
14.6263321394
21
18.9913479999
31
0.0000000000
11
14.6407449513
21
18.9634734788
31
0.0000000000
11
14.6523398535
21
18.9345020790
31
0.0000000000
11
14.6608323281
21
18.9051449770
31
0.0000000000
11
14.6660128348
21
18.8761263391
31
0.0000000000
11
14.6677539849
21
18.8481599180
31
0.0000000000
0
SPLINE
5
351
100
AcDbEntity
8
0
100
AcDbSpline
62
7
6
CONTINUOUS
70
0
71
3
72
12
73
8
74
6
42
0.0000001000
43
0.0000001000
44
0.0000000001
12
-0.3738995501
22
0.3698499840
32
0.0000000000
13
-0.4705715043
23
0.2352403694
33
0.0000000000
40
0.0000000000
40
0.0000000000
40
0.0000000000
40
0.0000000000
40
0.2782016263
40
0.5360547201
40
0.7729043495
40
0.9890334496
40
1.0000000000
40
1.0000000000
40
1.0000000000
40
1.0000000000
10
28.6456501956
20
17.8189411212
30
0.0000000000
10
28.6109770413
20
17.8532387436
30
0.0000000000
10
28.5418686501
20
17.9170606995
30
0.0000000000
10
28.4357439535
20
18.0014973584
30
0.0000000000
10
28.3324378647
20
18.0714190780
30
0.0000000000
10
28.2615152638
20
18.1114245673
30
0.0000000000
10
28.2259353362
20
18.1293146663
30
0.0000000000
10
28.2242151542
20
18.1301745914
30
0.0000000000
11
28.6456501956
21
17.8189411212
31
0.0000000000
11
28.5380345334
21
17.9180665972
31
0.0000000000
11
28.4317814961
21
18.0023296413
31
0.0000000000
11
28.3284931034
21
18.0719541863
31
0.0000000000
11
28.2293696622
21
18.1275828786
31
0.0000000000
11
28.2242151542
21
18.1301745914
31
0.0000000000
0
SPLINE
5
352
100
AcDbEntity
8
0
100
AcDbSpline
62
7
6
CONTINUOUS
70
0
71
3
72
14
73
10
74
8
42
0.0000001000
43
0.0000001000
44
0.0000000001
12
0.4124812599
22
0.2033015536
32
0.0000000000
13
0.4118176649
23
-0.2059063785
33
0.0000000000
40
0.0000000000
40
0.0000000000
40
0.0000000000
40
0.0000000000
40
0.1741747360
40
0.3394143230
40
0.4961314172
40
0.6457035274
40
0.7893866376
40
0.9296309077
40
1.0000000000
40
1.0000000000
40
1.0000000000
40
1.0000000000
10
24.5713626788
20
19.7086913100
30
0.0000000000
10
24.5953106170
20
19.7204946415
30
0.0000000000
10
24.6431753541
20
19.7411867771
30
0.0000000000
10
24.7161284730
20
19.7632860553
30
0.0000000000
10
24.7876104427
20
19.7753643467
30
0.0000000000
10
24.8568097506
20
19.7772233110
30
0.0000000000
10
24.9230045311
20
19.7687754688
30
0.0000000000
10
24.9752679146
20
19.7530895850
30
0.0000000000
10
25.0048015547
20
19.7398783779
30
0.0000000000
10
25.0144612998
20
19.7350485629
30
0.0000000000
11
24.5713626788
21
19.7086913100
31
0.0000000000
11
24.6449736830
21
19.7402637894
31
0.0000000000
11
24.7177677159
21
19.7620604491
31
0.0000000000
11
24.7888691640
21
19.7738246499
31
0.0000000000
11
24.8576324646
21
19.7754458096
31
0.0000000000
11
24.9231525909
21
19.7669062386
31
0.0000000000
11
24.9848949764
21
19.7482726258
31
0.0000000000
11
25.0144612998
21
19.7350485629
31
0.0000000000
0
SPLINE
5
353
100
AcDbEntity
8
0
100
AcDbSpline
62
7
6
CONTINUOUS
70
0
71
3
72
16
73
12
74
10
42
0.0000001000
43
0.0000001000
44
0.0000000001
12
0.0000000000
22
0.6312910545
32
0.0000000000
13
-0.5653375740
23
0.2826654183
33
0.0000000000
40
0.0000000000
40
0.0000000000
40
0.0000000000
40
0.0000000000
40
0.1399435214
40
0.2734426103
40
0.4001748734
40
0.5204828508
40
0.6345329124
40
0.7434403612
40
0.8480430070
40
0.9501849209
40
1.0000000000
40
1.0000000000
40
1.0000000000
40
1.0000000000
10
21.0317150156
20
21.3154974176
30
0.0000000000
10
21.0317150156
20
21.3449457820
30
0.0000000000
10
21.0293235490
20
21.4025251353
30
0.0000000000
10
21.0180203607
20
21.4861016689
30
0.0000000000
10
20.9991810632
20
21.5640922420
30
0.0000000000
10
20.9729874147
20
21.6356141027
30
0.0000000000
10
20.9396592453
20
21.6999412878
30
0.0000000000
10
20.8995349156
20
21.7562951612
30
0.0000000000
10
20.8529693929
20
21.8040569117
30
0.0000000000
10
20.8092448252
20
21.8361598508
30
0.0000000000
10
20.7812080580
20
21.8516752398
30
0.0000000000
10
20.7718206127
20
21.8563689065
30
0.0000000000
11
21.0317150156
21
21.3154974176
31
0.0000000000
11
21.0278705918
21
21.4037588242
31
0.0000000000
11
21.0163731483
21
21.4872476531
31
0.0000000000
11
20.9973655112
21
21.5649618783
31
0.0000000000
11
20.9710171817
21
21.6361943799
31
0.0000000000
11
20.9376779208
21
21.7000091003
31
0.0000000000
11
20.8976173009
21
21.7558841863
31
0.0000000000
11
20.8513941708
21
21.8030435521
31
0.0000000000
11
20.7993603793
21
21.8411266135
31
0.0000000000
11
20.7718206127
21
21.8563689065
31
0.0000000000
0
SPLINE
5
354
100
AcDbEntity
8
0
100
AcDbSpline
62
7
6
CONTINUOUS
70
0
71
3
72
15
73
11
74
9
42
0.0000001000
43
0.0000001000
44
0.0000000001
12
0.2735530943
22
0.1364167759
32
0.0000000000
13
0.2465681254
23
-0.1675460903
33
0.0000000000
40
0.0000000000
40
0.0000000000
40
0.0000000000
40
0.0000000000
40
0.1952303224
40
0.3726971241
40
0.5315072712
40
0.6713083740
40
0.7900574792
40
0.8860490590
40
0.9568441895
40
1.0000000000
40
1.0000000000
40
1.0000000000
40
1.0000000000
10
17.2782421425
20
23.3552515782
30
0.0000000000
10
17.2960440954
20
23.3641291419
30
0.0000000000
10
17.3301437737
20
23.3808438786
30
0.0000000000
10
17.3791856040
20
23.4038402933
30
0.0000000000
10
17.4235353144
20
23.4234648153
30
0.0000000000
10
17.4629516644
20
23.4395836693
30
0.0000000000
10
17.4968122334
20
23.4517911989
30
0.0000000000
10
17.5250918140
20
23.4602206926
30
0.0000000000
10
17.5454450955
20
23.4634074627
30
0.0000000000
10
17.5584618344
20
23.4637762816
30
0.0000000000
10
17.5620087835
20
23.4613660858
30
0.0000000000
11
17.2782421425
21
23.3552515782
31
0.0000000000
11
17.3318482936
21
23.3814787884
31
0.0000000000
11
17.3809901179
21
23.4044559551
31
0.0000000000
11
17.4254147118
21
23.4240287724
31
0.0000000000
11
17.4650202229
21
23.4400800546
31
0.0000000000
11
17.4992178426
21
23.4522523463
31
0.0000000000
11
17.5274716232
21
23.4601721653
31
0.0000000000
11
17.5488848586
21
23.4633017304
31
0.0000000000
11
17.5620087835
21
23.4613660858
31
0.0000000000
0
SPLINE
5
355
100
AcDbEntity
8
0
100
AcDbSpline
62
7
6
CONTINUOUS
70
0
71
3
72
19
73
15
74
13
42
0.0000001000
43
0.0000001000
44
0.0000000001
12
1.0614960139
22
0.5321279140
32
0.0000000000
13
0.9953746462
23
0.6474281566
33
0.0000000000
40
0.0000000000
40
0.0000000000
40
0.0000000000
40
0.0000000000
40
0.0555180937
40
0.1157552049
40
0.1807252835
40
0.2509205861
40
0.3263467259
40
0.4074319965
40
0.4941246859
40
0.5864841276
40
0.6841472322
40
0.7864322342
40
0.8922227712
40
1.0000000000
40
1.0000000000
40
1.0000000000
40
1.0000000000
10
27.6218425280
20
-20.5035835351
30
0.0000000000
10
27.6414866064
20
-20.4937359593
30
0.0000000000
10
27.6822951911
20
-20.4729051747
30
0.0000000000
10
27.7456131400
20
-20.4396218192
30
0.0000000000
10
27.8136883281
20
-20.4029126661
30
0.0000000000
10
27.8866717928
20
-20.3626477948
30
0.0000000000
10
27.9648510583
20
-20.3186040116
30
0.0000000000
10
28.0483177828
20
-20.2706494550
30
0.0000000000
10
28.1371746677
20
-20.2186297446
30
0.0000000000
10
28.2312465805
20
-20.1625374552
30
0.0000000000
10
28.3301381157
20
-20.1024848876
30
0.0000000000
10
28.4330520947
20
-20.0388219507
30
0.0000000000
10
28.5388013842
20
-19.9721416066
30
0.0000000000
10
28.6098906220
20
-19.9264032358
30
0.0000000000
10
28.6456501956
20
-19.9031438982
30
0.0000000000
11
27.6218425280
21
-20.5035835351
31
0.0000000000
11
27.6805732930
21
-20.4736422873
31
0.0000000000
11
27.7438978251
21
-20.4403862757
31
0.0000000000
11
27.8118110941
21
-20.4037901616
31
0.0000000000
11
27.8848008906
21
-20.3635437899
31
0.0000000000
11
27.9628394935
21
-20.3195979704
31
0.0000000000
11
28.0463298748
21
-20.2716457084
31
0.0000000000
11
28.1351711451
21
-20.2196480207
31
0.0000000000
11
28.2293696622
21
-20.1634897509
31
0.0000000000
11
28.3284931034
21
-20.1033016406
31
0.0000000000
11
28.4317814961
21
-20.0394068137
31
0.0000000000
11
28.5380345334
21
-19.9724011307
31
0.0000000000
11
28.6456501956
21
-19.9031438982
31
0.0000000000
0
SPLINE
5
356
100
AcDbEntity
8
0
100
AcDbSpline
62
7
6
CONTINUOUS
70
0
71
3
72
13
73
9
74
7
42
0.0000001000
43
0.0000001000
44
0.0000000001
12
-0.2026593183
22
-0.0850944681
32
0.0000000000
13
-0.1962717145
23
0.0981358573
33
0.0000000000
40
0.0000000000
40
0.0000000000
40
0.0000000000
40
0.0000000000
40
0.0554961368
40
0.2265630866
40
0.4040060462
40
0.5908282358
40
0.7891120218
40
1.0000000000
40
1.0000000000
40
1.0000000000
40
1.0000000000
10
21.3309300467
20
-26.1018058253
30
0.0000000000
10
21.3271811102
20
-26.1033799633
30
0.0000000000
10
21.3116688024
20
-26.1093116238
30
0.0000000000
10
21.2827414588
20
-26.1161926219
30
0.0000000000
10
21.2434207206
20
-26.1180525767
30
0.0000000000
10
21.2024040749
20
-26.1130114297
30
0.0000000000
10
21.1602905580
20
-26.1012108891
30
0.0000000000
10
21.1327162509
20
-26.0893408008
30
0.0000000000
10
21.1189191359
20
-26.0824422433
30
0.0000000000
11
21.3309300467
21
-26.1018058253
31
0.0000000000
11
21.3195391046
21
-26.1061614879
31
0.0000000000
11
21.2830426599
21
-26.1149456194
31
0.0000000000
11
21.2441562228
21
-26.1169450884
31
0.0000000000
11
21.2034437891
21
-26.1121318357
31
0.0000000000
11
21.1614954321
21
-26.1005754533
31
0.0000000000
11
21.1189191359
21
-26.0824422433
31
0.0000000000
0
SPLINE
5
357
100
AcDbEntity
8
0
100
AcDbSpline
62
7
6
CONTINUOUS
70
0
71
3
72
14
73
10
74
8
42
0.0000001000
43
0.0000001000
44
0.0000000001
12
0.2472638276
22
-0.1236319138
32
0.0000000000
13
-0.0000053363
23
-0.2767906377
33
0.0000000000
40
0.0000000000
40
0.0000000000
40
0.0000000000
40
0.0000000000
40
0.1557115224
40
0.3069702733
40
0.4601727066
40
0.6159642801
40
0.7740378318
40
0.9340117980
40
1.0000000000
40
1.0000000000
40
1.0000000000
40
1.0000000000
10
22.3071562416
20
-26.1249747686
30
0.0000000000
10
22.3199901839
20
-26.1313917397
30
0.0000000000
10
22.3442514402
20
-26.1462590789
30
0.0000000000
10
22.3762770067
20
-26.1743386422
30
0.0000000000
10
22.4031588700
20
-26.2074101126
30
0.0000000000
10
22.4243281296
20
-26.2451293378
30
0.0000000000
10
22.4388687438
20
-26.2865377587
30
0.0000000000
10
22.4445921746
20
-26.3216509600
30
0.0000000000
10
22.4453529327
20
-26.3424977068
30
0.0000000000
10
22.4453528153
20
-26.3485860123
30
0.0000000000
11
22.3071562416
21
-26.1249747686
31
0.0000000000
11
22.3438577532
21
-26.1474689323
31
0.0000000000
11
22.3753010026
21
-26.1750342824
31
0.0000000000
11
22.4020138723
21
-26.2079002994
31
0.0000000000
11
22.4230928350
21
-26.2454578740
31
0.0000000000
11
22.4375704081
21
-26.2866893130
31
0.0000000000
11
22.4446862825
21
-26.3303377783
31
0.0000000000
11
22.4453528153
21
-26.3485860123
31
0.0000000000
0
SPLINE
5
358
100
AcDbEntity
8
0
100
AcDbSpline
62
7
6
CONTINUOUS
70
0
71
3
72
12
73
8
74
6
42
0.0000001000
43
0.0000001000
44
0.0000000001
12
0.1090316425
22
0.1327020367
32
0.0000000000
13
-0.0000090362
23
0.1719527056
33
0.0000000000
40
0.0000000000
40
0.0000000000
40
0.0000000000
40
0.0000000000
40
0.2419534870
40
0.4852361377
40
0.7286233895
40
0.9719522926
40
1.0000000000
40
1.0000000000
40
1.0000000000
40
1.0000000000
10
22.3885155581
20
14.7923147743
30
0.0000000000
10
22.3973090868
20
14.8030173478
30
0.0000000000
10
22.4131873903
20
14.8259963671
30
0.0000000000
10
22.4309452748
20
14.8639467599
30
0.0000000000
10
22.4421602849
20
14.9044116260
30
0.0000000000
10
22.4452034163
20
14.9338620012
30
0.0000000000
10
22.4453527702
20
14.9494166034
30
0.0000000000
10
22.4453526857
20
14.9510242298
30
0.0000000000
11
22.3885155581
21
14.7923147743
31
0.0000000000
11
22.4121363857
21
14.8265039179
31
0.0000000000
11
22.4298471215
21
14.8643482793
31
0.0000000000
11
22.4410108745
21
14.9046315026
31
0.0000000000
11
22.4453063561
21
14.9462016672
31
0.0000000000
11
22.4453526857
21
14.9510242298
31
0.0000000000
0
SPLINE
5
359
100
AcDbEntity
8
0
100
AcDbSpline
62
7
6
CONTINUOUS
70
0
71
3
72
9
73
5
74
3
42
0.0000001000
43
0.0000001000
44
0.0000000001
12
0.0576442134
22
-0.0288194542
32
0.0000000000
13
0.0630899563
23
-0.0131749282
33
0.0000000000
40
0.0000000000
40
0.0000000000
40
0.0000000000
40
0.0000000000
40
0.5477706721
40
1.0000000000
40
1.0000000000
40
1.0000000000
40
1.0000000000
10
19.9560584760
20
13.6698410246
30
0.0000000000
10
19.9665837459
20
13.6645788740
30
0.0000000000
10
19.9864791990
20
13.6563290187
30
0.0000000000
10
20.0072532701
20
13.6507117258
30
0.0000000000
10
20.0167636463
20
13.6487256961
30
0.0000000000
11
19.9560584760
21
13.6698410246
31
0.0000000000
11
19.9886436691
21
13.6563307239
31
0.0000000000
11
20.0167636463
21
13.6487256961
31
0.0000000000
0
SPLINE
5
35A
100
AcDbEntity
8
0
100
AcDbSpline
62
7
6
CONTINUOUS
70
0
71
3
72
14
73
10
74
8
42
0.0000001000
43
0.0000001000
44
0.0000000001
12
-0.2474251844
22
0.1236745001
32
0.0000000000
13
0.0000034737
23
0.2768655865
33
0.0000000000
40
0.0000000000
40
0.0000000000
40
0.0000000000
40
0.0000000000
40
0.1343939786
40
0.2816787562
40
0.4304339077
40
0.5807308499
40
0.7329726413
40
0.8871110569
40
1.0000000000
40
1.0000000000
40
1.0000000000
40
1.0000000000
10
18.2775596392
20
14.5090904631
30
0.0000000000
10
18.2664754876
20
14.5146308324
30
0.0000000000
10
18.2440731500
20
14.5279924931
30
0.0000000000
10
18.2134446350
20
14.5534727606
30
0.0000000000
10
18.1864089152
20
14.5847320255
30
0.0000000000
10
18.1646568745
20
14.6204132163
30
0.0000000000
10
18.1489707426
20
14.6596898254
30
0.0000000000
10
18.1408635157
20
14.6976674645
30
0.0000000000
10
18.1393238326
20
14.7223104550
30
0.0000000000
10
18.1393239633
20
14.7327288095
30
0.0000000000
11
18.2775596392
21
14.5090904631
31
0.0000000000
11
18.2456353441
21
14.5281351366
31
0.0000000000
11
18.2143248846
21
14.5541799234
31
0.0000000000
11
18.1874178473
21
14.5852921435
31
0.0000000000
11
18.1657847957
21
14.6207777006
31
0.0000000000
11
18.1501715292
21
14.6598728313
31
0.0000000000
11
18.1412733272
21
14.7015556397
31
0.0000000000
11
18.1393239633
21
14.7327288095
31
0.0000000000
0
SPLINE
5
35B
100
AcDbEntity
8
0
100
AcDbSpline
62
7
6
CONTINUOUS
70
0
71
3
72
12
73
8
74
6
42
0.0000001000
43
0.0000001000
44
0.0000000001
12
0.1090316425
22
0.1327020367
32
0.0000000000
13
-0.0000090362
23
0.1719527056
33
0.0000000000
40
0.0000000000
40
0.0000000000
40
0.0000000000
40
0.0000000000
40
0.2419534870
40
0.4852361377
40
0.7286233895
40
0.9719522926
40
1.0000000000
40
1.0000000000
40
1.0000000000
40
1.0000000000
10
10.0848575654
20
20.9441437706
30
0.0000000000
10
10.0936510941
20
20.9548463442
30
0.0000000000
10
10.1095293976
20
20.9778253635
30
0.0000000000
10
10.1272872821
20
21.0157757562
30
0.0000000000
10
10.1385022922
20
21.0562406224
30
0.0000000000
10
10.1415454237
20
21.0856909975
30
0.0000000000
10
10.1416947776
20
21.1012455998
30
0.0000000000
10
10.1416946931
20
21.1028532261
30
0.0000000000
11
10.0848575654
21
20.9441437706
31
0.0000000000
11
10.1084783931
21
20.9783329143
31
0.0000000000
11
10.1261891289
21
21.0161772756
31
0.0000000000
11
10.1373528818
21
21.0564604989
31
0.0000000000
11
10.1416483635
21
21.0980306635
31
0.0000000000
11
10.1416946931
21
21.1028532261
31
0.0000000000
0
SPLINE
5
35C
100
AcDbEntity
8
0
100
AcDbSpline
62
7
6
CONTINUOUS
70
0
71
3
72
10
73
6
74
4
42
0.0000001000
43
0.0000001000
44
0.0000000001
12
-0.0630782797
22
0.0131708033
32
0.0000000000
13
-0.0576482286
23
0.0288264831
33
0.0000000000
40
0.0000000000
40
0.0000000000
40
0.0000000000
40
0.0000000000
40
0.3605745743
40
0.7227559298
40
1.0000000000
40
1.0000000000
40
1.0000000000
40
1.0000000000
10
7.7131055370
20
19.8005545355
30
0.0000000000
10
7.7055240624
20
19.8021375544
30
0.0000000000
10
7.6904652422
20
19.8060199807
30
0.0000000000
10
7.6702284106
20
19.8133042337
30
0.0000000000
10
7.6577173208
20
19.8190113295
30
0.0000000000
10
7.6523897776
20
19.8216753201
30
0.0000000000
11
7.7131055370
21
19.8005545355
31
0.0000000000
11
7.6906063722
21
19.8063553924
31
0.0000000000
11
7.6686471377
21
19.8142596023
31
0.0000000000
11
7.6523897776
21
19.8216753201
31
0.0000000000
0
SPLINE
5
35D
100
AcDbEntity
8
0
100
AcDbSpline
62
7
6
CONTINUOUS
70
0
71
3
72
14
73
10
74
8
42
0.0000001000
43
0.0000001000
44
0.0000000001
12
-0.2472638276
22
0.1236319138
32
0.0000000000
13
0.0000053363
23
0.2767906377
33
0.0000000000
40
0.0000000000
40
0.0000000000
40
0.0000000000
40
0.0000000000
40
0.1557115224
40
0.3069702733
40
0.4601727066
40
0.6159642801
40
0.7740378318
40
0.9340117980
40
1.0000000000
40
1.0000000000
40
1.0000000000
40
1.0000000000
10
5.9738622968
20
20.6609390053
30
0.0000000000
10
5.9610283545
20
20.6673559764
30
0.0000000000
10
5.9367670982
20
20.6822233156
30
0.0000000000
10
5.9047415317
20
20.7103028789
30
0.0000000000
10
5.8778596685
20
20.7433743493
30
0.0000000000
10
5.8566904088
20
20.7810935745
30
0.0000000000
10
5.8421497946
20
20.8225019954
30
0.0000000000
10
5.8364263638
20
20.8576151967
30
0.0000000000
10
5.8356656058
20
20.8784619435
30
0.0000000000
10
5.8356657231
20
20.8845502490
30
0.0000000000
11
5.9738622968
21
20.6609390053
31
0.0000000000
11
5.9371607852
21
20.6834331690
31
0.0000000000
11
5.9057175359
21
20.7109985191
31
0.0000000000
11
5.8790046662
21
20.7438645361
31
0.0000000000
11
5.8579257034
21
20.7814221108
31
0.0000000000
11
5.8434481303
21
20.8226535497
31
0.0000000000
11
5.8363322559
21
20.8663020150
31
0.0000000000
11
5.8356657231
21
20.8845502490
31
0.0000000000
0
SPLINE
5
35E
100
AcDbEntity
8
0
100
AcDbSpline
62
7
6
CONTINUOUS
70
0
71
3
72
14
73
10
74
8
42
0.0000001000
43
0.0000001000
44
0.0000000001
12
-0.2436935158
22
-0.1250193865
32
0.0000000000
13
-0.0000157062
23
-0.2742008108
33
0.0000000000
40
0.0000000000
40
0.0000000000
40
0.0000000000
40
0.0000000000
40
0.1443176514
40
0.2898310469
40
0.4351225178
40
0.5845208251
40
0.7343315250
40
0.8839295348
40
1.0000000000
40
1.0000000000
40
1.0000000000
40
1.0000000000
10
5.9715515902
20
21.4469561796
30
0.0000000000
10
5.9598284983
20
21.4409420115
30
0.0000000000
10
5.9372017615
20
21.4269732960
30
0.0000000000
10
5.9070083352
20
21.4009093356
30
0.0000000000
10
5.8810295100
20
21.3700209609
30
0.0000000000
10
5.8601535526
20
21.3350082416
30
0.0000000000
10
5.8451328630
20
21.2966873902
30
0.0000000000
10
5.8372135787
20
21.2594167761
30
0.0000000000
10
5.8356664709
20
21.2351350057
30
0.0000000000
10
5.8356658633
20
21.2245261338
30
0.0000000000
11
5.9715515902
21
21.4469561796
31
0.0000000000
11
5.9379187284
21
21.4261898480
31
0.0000000000
11
5.9077483696
21
21.4001483939
31
0.0000000000
11
5.8821350982
21
21.3696930676
31
0.0000000000
11
5.8611797415
21
21.3345472625
31
0.0000000000
11
5.8462057050
21
21.2963453096
31
0.0000000000
11
5.8376896038
21
21.2562665139
31
0.0000000000
11
5.8356658633
21
21.2245261338
31
0.0000000000
0
SPLINE
5
35F
100
AcDbEntity
8
0
100
AcDbSpline
62
7
6
CONTINUOUS
70
0
71
3
72
13
73
9
74
7
42
0.0000001000
43
0.0000001000
44
0.0000000001
12
0.2058509839
22
0.1002765354
32
0.0000000000
13
0.2050420785
23
-0.1025286694
33
0.0000000000
40
0.0000000000
40
0.0000000000
40
0.0000000000
40
0.0000000000
40
0.1774292252
40
0.3593739775
40
0.5423737539
40
0.7260526449
40
0.9117680367
40
1.0000000000
40
1.0000000000
40
1.0000000000
40
1.0000000000
10
20.3949896198
20
16.3687455631
30
0.0000000000
10
20.4071642800
20
16.3746762257
30
0.0000000000
10
20.4328500113
20
16.3846987323
30
0.0000000000
10
20.4735423726
20
16.3932507523
30
0.0000000000
10
20.5155819541
20
16.3949287395
30
0.0000000000
10
20.5575946310
20
16.3895108486
30
0.0000000000
10
20.5911501177
20
16.3792185859
30
0.0000000000
10
20.6102520803
20
16.3706127091
30
0.0000000000
10
20.6162825020
20
16.3675972738
30
0.0000000000
11
20.3949896198
21
16.3687455631
31
0.0000000000
11
20.4328385024
21
16.3835109984
31
0.0000000000
11
20.4736084410
21
16.3920812714
31
0.0000000000
11
20.5154776959
21
16.3937515541
31
0.0000000000
11
20.5571903553
21
16.3883724880
31
0.0000000000
11
20.5978452963
21
16.3759026163
31
0.0000000000
11
20.6162825020
21
16.3675972738
31
0.0000000000
0
SPLINE
5
360
100
AcDbEntity
8
0
100
AcDbSpline
62
7
6
CONTINUOUS
70
0
71
3
72
14
73
10
74
8
42
0.0000001000
43
0.0000001000
44
0.0000000001
12
-0.2436935158
22
-0.1250193865
32
0.0000000000
13
-0.0000157062
23
-0.2742008108
33
0.0000000000
40
0.0000000000
40
0.0000000000
40
0.0000000000
40
0.0000000000
40
0.1443176514
40
0.2898310469
40
0.4351225178
40
0.5845208251
40
0.7343315250
40
0.8839295348
40
1.0000000000
40
1.0000000000
40
1.0000000000
40
1.0000000000
10
18.2752095829
20
15.2951271833
30
0.0000000000
10
18.2634864909
20
15.2891130152
30
0.0000000000
10
18.2408597541
20
15.2751442997
30
0.0000000000
10
18.2106663278
20
15.2490803393
30
0.0000000000
10
18.1846875026
20
15.2181919646
30
0.0000000000
10
18.1638115452
20
15.1831792453
30
0.0000000000
10
18.1487908556
20
15.1448583938
30
0.0000000000
10
18.1408715714
20
15.1075877798
30
0.0000000000
10
18.1393244636
20
15.0833060094
30
0.0000000000
10
18.1393238559
20
15.0726971375
30
0.0000000000
11
18.2752095829
21
15.2951271833
31
0.0000000000
11
18.2415767210
21
15.2743608517
31
0.0000000000
11
18.2114063623
21
15.2483193976
31
0.0000000000
11
18.1857930909
21
15.2178640713
31
0.0000000000
11
18.1648377341
21
15.1827182662
31
0.0000000000
11
18.1498636977
21
15.1445163132
31
0.0000000000
11
18.1413475964
21
15.1044375176
31
0.0000000000
11
18.1393238559
21
15.0726971375
31
0.0000000000
0
SPLINE
5
361
100
AcDbEntity
8
0
100
AcDbSpline
62
7
6
CONTINUOUS
70
0
71
3
72
14
73
10
74
8
42
0.0000001000
43
0.0000001000
44
0.0000000001
12
0.2472867605
22
-0.1236433802
32
0.0000000000
13
0.0000162066
23
-0.2767915247
33
0.0000000000
40
0.0000000000
40
0.0000000000
40
0.0000000000
40
0.0000000000
40
0.1437525298
40
0.2886119094
40
0.4331946815
40
0.5818895261
40
0.7310838435
40
0.8800925955
40
1.0000000000
40
1.0000000000
40
1.0000000000
40
1.0000000000
10
22.3071562416
20
15.5221608876
30
0.0000000000
10
22.3190056074
20
15.5162362047
30
0.0000000000
10
22.3418892411
20
15.5024207391
30
0.0000000000
10
22.3724707534
20
15.4765036083
30
0.0000000000
10
22.3988307552
20
15.4456879879
30
0.0000000000
10
22.4200752830
20
15.4106653144
30
0.0000000000
10
22.4354349021
20
15.3722489722
30
0.0000000000
10
22.4437032018
20
15.3344347578
30
0.0000000000
10
22.4453520620
20
15.3096239936
30
0.0000000000
10
22.4453527097
20
15.2985608758
30
0.0000000000
11
22.3071562416
21
15.5221608876
31
0.0000000000
11
22.3411790357
21
15.5016174332
31
0.0000000000
11
22.3717340101
21
15.4757254300
31
0.0000000000
11
22.3977172924
21
15.4453486044
31
0.0000000000
11
22.4190386163
21
15.4101993972
31
0.0000000000
11
22.4343519301
21
15.3718987299
31
0.0000000000
11
22.4431521568
21
15.3316524269
31
0.0000000000
11
22.4453527097
21
15.2985608758
31
0.0000000000
0
SPLINE
5
362
100
AcDbEntity
8
0
100
AcDbSpline
62
7
6
CONTINUOUS
70
0
71
3
72
15
73
11
74
9
42
0.0000001000
43
0.0000001000
44
0.0000000001
12
0.2439506744
22
0.1251622799
32
0.0000000000
13
-0.0000014006
23
0.2741811333
33
0.0000000000
40
0.0000000000
40
0.0000000000
40
0.0000000000
40
0.0000000000
40
0.0876376596
40
0.2288017901
40
0.3706940866
40
0.5134364840
40
0.6570524249
40
0.8015689675
40
0.9468108890
40
1.0000000000
40
1.0000000000
40
1.0000000000
40
1.0000000000
10
22.3094725127
20
-26.9185467122
30
0.0000000000
10
22.3165989347
20
-26.9148904024
30
0.0000000000
10
22.3347430797
20
-26.9044519810
30
0.0000000000
10
22.3618470715
20
-26.8839527462
30
0.0000000000
10
22.3889643718
20
-26.8558759744
30
0.0000000000
10
22.4115181893
20
-26.8237392461
30
0.0000000000
10
22.4288749409
20
-26.7882527294
30
0.0000000000
10
22.4404994404
20
-26.7502566818
30
0.0000000000
10
22.4448241922
20
-26.7191085896
30
0.0000000000
10
22.4453528627
20
-26.7009738971
30
0.0000000000
10
22.4453528378
20
-26.6961127469
30
0.0000000000
11
22.3094725127
21
-26.9185467122
31
0.0000000000
11
22.3302908148
21
-26.9065691204
31
0.0000000000
11
22.3611298719
21
-26.8832439907
31
0.0000000000
11
22.3881306904
21
-26.8552881484
31
0.0000000000
11
22.4105911322
21
-26.8232841439
31
0.0000000000
11
22.4278751944
21
-26.7879463884
31
0.0000000000
11
22.4394555697
21
-26.7500932522
31
0.0000000000
11
22.4449276375
21
-26.7106877798
31
0.0000000000
11
22.4453528378
21
-26.6961127469
31
0.0000000000
0
SPLINE
5
363
100
AcDbEntity
8
0
100
AcDbSpline
62
7
6
CONTINUOUS
70
0
71
3
72
17
73
13
74
11
42
0.0000001000
43
0.0000001000
44
0.0000000001
12
0.3368359012
22
0.4070400689
32
0.0000000000
13
-0.2179357261
23
0.4812941526
33
0.0000000000
40
0.0000000000
40
0.0000000000
40
0.0000000000
40
0.0000000000
40
0.0779683167
40
0.1606217195
40
0.2486522507
40
0.3423320892
40
0.4415691156
40
0.5459701958
40
0.6549011498
40
0.7675403237
40
0.8829261315
40
1.0000000000
40
1.0000000000
40
1.0000000000
40
1.0000000000
10
23.0868263183
20
18.4246534430
30
0.0000000000
10
23.0955804943
20
18.4352321859
30
0.0000000000
10
23.1115948213
20
18.4587561466
30
0.0000000000
10
23.1300564467
20
18.4986430588
30
0.0000000000
10
23.1433689521
20
18.5434085706
30
0.0000000000
10
23.1513606389
20
18.5923554390
30
0.0000000000
10
23.1539417113
20
18.6447522712
30
0.0000000000
10
23.1510868648
20
18.6998104253
30
0.0000000000
10
23.1428475377
20
18.7566990222
30
0.0000000000
10
23.1293521359
20
18.8145564893
30
0.0000000000
10
23.1108099679
20
18.8724982111
30
0.0000000000
10
23.0953311778
20
18.9104495067
30
0.0000000000
10
23.0868263183
20
18.9292318295
30
0.0000000000
11
23.0868263183
21
18.4246534430
31
0.0000000000
11
23.1101642979
21
18.4585982117
31
0.0000000000
11
23.1287010207
21
18.4981375444
31
0.0000000000
11
23.1421500243
21
18.5426604037
31
0.0000000000
11
23.1503034710
21
18.5914787383
31
0.0000000000
11
23.1530353592
21
18.6438381158
31
0.0000000000
11
23.1503034710
21
18.6989293815
31
0.0000000000
11
23.1421500243
21
18.7559011627
31
0.0000000000
11
23.1287010207
21
18.8138730256
31
0.0000000000
11
23.1101642979
21
18.8719490811
31
0.0000000000
11
23.0868263183
21
18.9292318295
31
0.0000000000
0
SPLINE
5
364
100
AcDbEntity
8
0
100
AcDbSpline
62
7
6
CONTINUOUS
70
0
71
3
72
21
73
17
74
15
42
0.0000001000
43
0.0000001000
44
0.0000000001
12
0.6584971561
22
-0.3292485780
32
0.0000000000
13
0.0000000000
23
-0.7362222020
33
0.0000000000
40
0.0000000000
40
0.0000000000
40
0.0000000000
40
0.0000000000
40
0.0616498586
40
0.1268425999
40
0.1948830368
40
0.2652427250
40
0.3381908518
40
0.4129212258
40
0.4883816947
40
0.5643707689
40
0.6406913235
40
0.7162544483
40
0.7901468873
40
0.8625455162
40
0.9328006887
40
1.0000000000
40
1.0000000000
40
1.0000000000
40
1.0000000000
10
22.8996901871
20
13.5197591829
30
0.0000000000
10
22.9132222726
20
13.5129931401
30
0.0000000000
10
22.9402986468
20
13.4975013355
30
0.0000000000
10
22.9793265748
20
13.4697452483
30
0.0000000000
10
23.0173349987
20
13.4372191804
30
0.0000000000
10
23.0538719252
20
13.4003304882
30
0.0000000000
10
23.0885207916
20
13.3594894764
30
0.0000000000
10
23.1208195045
20
13.3152106151
30
0.0000000000
10
23.1503134721
20
13.2681361965
30
0.0000000000
10
23.1766845125
20
13.2188019414
30
0.0000000000
10
23.1996246068
20
13.1677534859
30
0.0000000000
10
23.2187949656
20
13.1157199671
30
0.0000000000
10
23.2339655530
20
13.0633829931
30
0.0000000000
10
23.2449722082
20
13.0113402290
30
0.0000000000
10
23.2516691390
20
12.9602249134
30
0.0000000000
10
23.2532390903
20
12.9264778934
30
0.0000000000
10
23.2532390903
20
12.9099866851
30
0.0000000000
11
22.8996901871
21
13.5197591829
31
0.0000000000
11
22.9391468130
21
13.4973260661
31
0.0000000000
11
22.9783232493
21
13.4695978164
31
0.0000000000
11
23.0164399773
21
13.4370953287
31
0.0000000000
11
23.0529420851
21
13.4003410923
31
0.0000000000
11
23.0877271571
21
13.3594224353
31
0.0000000000
11
23.1201803677
21
13.3149951115
31
0.0000000000
11
23.1496948033
21
13.2679278103
31
0.0000000000
11
23.1760733402
21
13.2185922418
31
0.0000000000
11
23.1990963788
21
13.1673366988
31
0.0000000000
11
23.2183053942
21
13.1151270281
31
0.0000000000
11
23.2334125734
21
13.0628654783
31
0.0000000000
11
23.2443861312
21
13.0107058331
31
0.0000000000
11
23.2510308623
21
12.9594110040
31
0.0000000000
11
23.2532390903
21
12.9099866851
31
0.0000000000
0
SPLINE
5
365
100
AcDbEntity
8
0
100
AcDbSpline
62
7
6
CONTINUOUS
70
0
71
3
72
8
73
4
74
2
42
0.0000001000
43
0.0000001000
44
0.0000000001
12
0.0015698983
22
0.0005108605
32
0.0000000000
13
0.0015654491
23
0.0005243612
33
0.0000000000
40
0.0000000000
40
0.0000000000
40
0.0000000000
40
0.0000000000
40
1.0000000000
40
1.0000000000
40
1.0000000000
40
1.0000000000
10
22.3963237508
20
-25.6546477882
30
0.0000000000
10
22.3968470502
20
-25.6544775014
30
0.0000000000
10
22.3973696188
20
-25.6543049628
30
0.0000000000
10
22.3978914352
20
-25.6541301758
30
0.0000000000
11
22.3963237508
21
-25.6546477882
31
0.0000000000
11
22.3978914352
21
-25.6541301758
31
0.0000000000
0
SPLINE
5
366
100
AcDbEntity
8
0
100
AcDbSpline
62
7
6
CONTINUOUS
70
0
71
3
72
9
73
5
74
3
42
0.0000001000
43
0.0000001000
44
0.0000000001
12
0.0274055723
22
0.0091797414
32
0.0000000000
13
0.0256808851
23
0.0132565175
33
0.0000000000
40
0.0000000000
40
0.0000000000
40
0.0000000000
40
0.0000000000
40
0.7973139266
40
1.0000000000
40
1.0000000000
40
1.0000000000
40
1.0000000000
10
22.3978914352
20
-25.6541301758
30
0.0000000000
10
22.4051750500
20
-25.6516904639
30
0.0000000000
10
22.4141264247
20
-25.6480811028
30
0.0000000000
10
22.4227557223
20
-25.6437962062
30
0.0000000000
10
22.4244907749
20
-25.6429005691
30
0.0000000000
11
22.3978914352
21
-25.6541301758
31
0.0000000000
11
22.4192444139
21
-25.6455054319
31
0.0000000000
11
22.4244907749
21
-25.6429005691
31
0.0000000000
0
SPLINE
5
367
100
AcDbEntity
8
0
100
AcDbSpline
62
7
6
CONTINUOUS
70
0
71
3
72
15
73
11
74
9
42
0.0000001000
43
0.0000001000
44
0.0000000001
12
0.0000000000
22
-0.3132138264
32
0.0000000000
13
-0.2786999341
23
-0.1438653620
33
0.0000000000
40
0.0000000000
40
0.0000000000
40
0.0000000000
40
0.0000000000
40
0.1509119217
40
0.2950365225
40
0.4311190004
40
0.5591729897
40
0.6810838044
40
0.7973936723
40
0.9090404296
40
1.0000000000
40
1.0000000000
40
1.0000000000
40
1.0000000000
10
23.2532390903
20
-25.0118785354
30
0.0000000000
10
23.2532390903
20
-25.0276344355
30
0.0000000000
10
23.2518695821
20
-25.0584617400
30
0.0000000000
10
23.2453600838
20
-25.1030816942
30
0.0000000000
10
23.2345005914
20
-25.1444034328
30
0.0000000000
10
23.2194168536
20
-25.1819063198
30
0.0000000000
10
23.2002401156
20
-25.2151549537
30
0.0000000000
10
23.1771529386
20
-25.2436754293
30
0.0000000000
10
23.1519600791
20
-25.2657110498
30
0.0000000000
10
23.1338768711
20
-25.2768613999
30
0.0000000000
10
23.1254267290
20
-25.2812233771
30
0.0000000000
11
23.2532390903
21
-25.0118785354
31
0.0000000000
11
23.2510308623
21
-25.0590946262
31
0.0000000000
11
23.2443861312
21
-25.1037447242
31
0.0000000000
11
23.2334125734
21
-25.1449308116
31
0.0000000000
11
23.2183053942
21
-25.1820851823
31
0.0000000000
11
23.1990963788
21
-25.2150858376
31
0.0000000000
11
23.1760733402
21
-25.2433183419
31
0.0000000000
11
23.1496948033
21
-25.2662753735
31
0.0000000000
11
23.1254267290
21
-25.2812233771
31
0.0000000000
0
SPLINE
5
368
100
AcDbEntity
8
0
100
AcDbSpline
62
7
6
CONTINUOUS
70
0
71
3
72
14
73
10
74
8
42
0.0000001000
43
0.0000001000
44
0.0000000001
12
0.0000000000
22
0.3038415087
32
0.0000000000
13
0.2628898890
23
0.1532771476
33
0.0000000000
40
0.0000000000
40
0.0000000000
40
0.0000000000
40
0.0000000000
40
0.1680527131
40
0.3269376581
40
0.4764812062
40
0.6170722554
40
0.7497468560
40
0.8762303492
40
1.0000000000
40
1.0000000000
40
1.0000000000
40
1.0000000000
10
5.7419842248
20
19.8345930035
30
0.0000000000
10
5.7419842248
20
19.8516134668
30
0.0000000000
10
5.7435697544
20
19.8847568555
30
0.0000000000
10
5.7511237542
20
19.9325246792
30
0.0000000000
10
5.7637015734
20
19.9763623321
30
0.0000000000
10
5.7811566002
20
20.0156356144
30
0.0000000000
10
5.8032841415
20
20.0497631174
30
0.0000000000
10
5.8298863353
20
20.0782833863
30
0.0000000000
10
5.8505191210
20
20.0932851135
30
0.0000000000
10
5.8613650509
20
20.0996087998
30
0.0000000000
11
5.7419842248
21
19.8345930035
31
0.0000000000
11
5.7445647756
21
19.8855891435
31
0.0000000000
11
5.7522669665
21
19.9332465996
31
0.0000000000
11
5.7649753188
21
19.9768707624
31
0.0000000000
11
5.7825011372
21
20.0158274261
31
0.0000000000
11
5.8045856945
21
20.0495518056
31
0.0000000000
11
5.8309044635
21
20.0775564337
31
0.0000000000
11
5.8613650509
21
20.0996087998
31
0.0000000000
0
SPLINE
5
369
100
AcDbEntity
8
0
100
AcDbSpline
62
7
6
CONTINUOUS
70
0
71
3
72
13
73
9
74
7
42
0.0000001000
43
0.0000001000
44
0.0000000001
12
-0.2048013009
22
0.1024006505
32
0.0000000000
13
-0.2060921486
23
-0.1004031776
33
0.0000000000
40
0.0000000000
40
0.0000000000
40
0.0000000000
40
0.0000000000
40
0.1780417675
40
0.3605922599
40
0.5441907093
40
0.7285502135
40
0.9149400794
40
1.0000000000
40
1.0000000000
40
1.0000000000
40
1.0000000000
10
8.3126186978
20
22.5194296595
30
0.0000000000
10
8.3004643026
20
22.5255068571
30
0.0000000000
10
8.2747932533
20
22.5358226044
30
0.0000000000
10
8.2340469934
20
22.5447912588
30
0.0000000000
10
8.1918786617
20
22.5468527607
30
0.0000000000
10
8.1496720933
20
22.5417685426
30
0.0000000000
10
8.1161704284
20
22.5317760358
30
0.0000000000
10
8.0971685723
20
22.5234176956
30
0.0000000000
10
8.0913251783
20
22.5205709335
30
0.0000000000
11
8.3126186978
21
22.5194296595
31
0.0000000000
11
8.2747904170
21
22.5346275558
31
0.0000000000
11
8.2339685585
21
22.5436148337
31
0.0000000000
11
8.1919792393
21
22.5456666610
31
0.0000000000
11
8.1500685216
21
22.5406182142
31
0.0000000000
11
8.1091704273
21
22.5284195459
31
0.0000000000
11
8.0913251783
21
22.5205709335
31
0.0000000000
0
SPLINE
5
36A
100
AcDbEntity
8
0
100
AcDbSpline
62
7
6
CONTINUOUS
70
0
71
3
72
14
73
10
74
8
42
0.0000001000
43
0.0000001000
44
0.0000000001
12
0.2472867605
22
-0.1236433802
32
0.0000000000
13
0.0000162066
23
-0.2767915247
33
0.0000000000
40
0.0000000000
40
0.0000000000
40
0.0000000000
40
0.0000000000
40
0.1437525298
40
0.2886119094
40
0.4331946815
40
0.5818895261
40
0.7310838435
40
0.8800925955
40
1.0000000000
40
1.0000000000
40
1.0000000000
40
1.0000000000
10
10.0034982489
20
21.6739898839
30
0.0000000000
10
10.0153476147
20
21.6680652010
30
0.0000000000
10
10.0382312485
20
21.6542497355
30
0.0000000000
10
10.0688127608
20
21.6283326047
30
0.0000000000
10
10.0951727626
20
21.5975169842
30
0.0000000000
10
10.1164172903
20
21.5624943108
30
0.0000000000
10
10.1317769094
20
21.5240779685
30
0.0000000000
10
10.1400452092
20
21.4862637542
30
0.0000000000
10
10.1416940693
20
21.4614529899
30
0.0000000000
10
10.1416947171
20
21.4503898721
30
0.0000000000
11
10.0034982489
21
21.6739898839
31
0.0000000000
11
10.0375210430
21
21.6534464296
31
0.0000000000
11
10.0680760175
21
21.6275544263
31
0.0000000000
11
10.0940592998
21
21.5971776007
31
0.0000000000
11
10.1153806237
21
21.5620283936
31
0.0000000000
11
10.1306939375
21
21.5237277262
31
0.0000000000
11
10.1394941642
21
21.4834814232
31
0.0000000000
11
10.1416947171
21
21.4503898721
31
0.0000000000
0
SPLINE
5
36B
100
AcDbEntity
8
0
100
AcDbSpline
62
7
6
CONTINUOUS
70
0
71
3
72
13
73
9
74
7
42
0.0000001000
43
0.0000001000
44
0.0000000001
12
0.2048013009
22
-0.1024006505
32
0.0000000000
13
0.2060921486
23
0.1004031776
33
0.0000000000
40
0.0000000000
40
0.0000000000
40
0.0000000000
40
0.0000000000
40
0.1780417675
40
0.3605922599
40
0.5441907093
40
0.7285502135
40
0.9149400794
40
1.0000000000
40
1.0000000000
40
1.0000000000
40
1.0000000000
10
19.9560583599
20
-27.9697370998
30
0.0000000000
10
19.9682127551
20
-27.9758142974
30
0.0000000000
10
19.9938838044
20
-27.9861300447
30
0.0000000000
10
20.0346300643
20
-27.9950986991
30
0.0000000000
10
20.0767983960
20
-27.9971602010
30
0.0000000000
10
20.1190049643
20
-27.9920759829
30
0.0000000000
10
20.1525066293
20
-27.9820834761
30
0.0000000000
10
20.1715084854
20
-27.9737251359
30
0.0000000000
10
20.1773518793
20
-27.9708783738
30
0.0000000000
11
19.9560583599
21
-27.9697370998
31
0.0000000000
11
19.9938866407
21
-27.9849349961
31
0.0000000000
11
20.0347084992
21
-27.9939222740
31
0.0000000000
11
20.0766978184
21
-27.9959741013
31
0.0000000000
11
20.1186085361
21
-27.9909256545
31
0.0000000000
11
20.1595066304
21
-27.9787269862
31
0.0000000000
11
20.1773518793
21
-27.9708783738
31
0.0000000000
0
SPLINE
5
36C
100
AcDbEntity
8
0
100
AcDbSpline
62
7
6
CONTINUOUS
70
0
71
3
72
14
73
10
74
8
42
0.0000001000
43
0.0000001000
44
0.0000000001
12
0.0000000000
22
0.2200201968
32
0.0000000000
13
0.1964945961
23
0.0996276709
33
0.0000000000
40
0.0000000000
40
0.0000000000
40
0.0000000000
40
0.0000000000
40
0.1557477214
40
0.3132794905
40
0.4716985755
40
0.6306005446
40
0.7898389904
40
0.9491834891
40
1.0000000000
40
1.0000000000
40
1.0000000000
40
1.0000000000
10
15.1041500880
20
17.6142499228
30
0.0000000000
10
15.1041500880
20
17.6256724709
30
0.0000000000
10
15.1061280025
20
17.6486967625
30
0.0000000000
10
15.1150093338
20
17.6823036273
30
0.0000000000
10
15.1296746678
20
17.7140884735
30
0.0000000000
10
15.1497151959
20
17.7429406092
30
0.0000000000
10
15.1745274041
20
17.7679071452
30
0.0000000000
10
15.1967995119
20
17.7835747115
30
0.0000000000
10
15.2103695800
20
17.7909389188
30
0.0000000000
10
15.2136979699
20
17.7926264957
30
0.0000000000
11
15.1041500880
21
17.6142499228
31
0.0000000000
11
15.1070857666
21
17.6483915871
31
0.0000000000
11
15.1159395266
21
17.6819018598
31
0.0000000000
11
15.1305430650
21
17.7135504846
31
0.0000000000
11
15.1504877205
21
17.7422650657
31
0.0000000000
11
15.1751847704
21
17.7671157033
31
0.0000000000
11
15.2038597038
21
17.7872870253
31
0.0000000000
11
15.2136979699
21
17.7926264957
31
0.0000000000
0
SPLINE
5
36D
100
AcDbEntity
8
0
100
AcDbSpline
62
7
6
CONTINUOUS
70
0
71
3
72
12
73
8
74
6
42
0.0000001000
43
0.0000001000
44
0.0000000001
12
0.0830613441
22
0.0409677831
32
0.0000000000
13
0.0826080532
23
-0.0413040266
33
0.0000000000
40
0.0000000000
40
0.0000000000
40
0.0000000000
40
0.0000000000
40
0.0699680866
40
0.2811644663
40
0.5031567930
40
0.7416934967
40
1.0000000000
40
1.0000000000
40
1.0000000000
40
1.0000000000
10
16.1343374924
20
18.2494216080
30
0.0000000000
10
16.1362747068
20
18.2503770871
30
0.0000000000
10
16.1442234028
20
18.2538820952
30
0.0000000000
10
16.1594256955
20
18.2576193451
30
0.0000000000
10
16.1802833707
20
18.2576169533
30
0.0000000000
10
16.2020557141
20
18.2529576523
30
0.0000000000
10
16.2162761711
20
18.2471068369
30
0.0000000000
10
16.2233889035
20
18.2435504707
30
0.0000000000
11
16.1343374924
21
18.2494216080
31
0.0000000000
11
16.1402646246
21
18.2520338099
31
0.0000000000
11
16.1591856984
21
18.2567739962
31
0.0000000000
11
16.1796880542
21
18.2569237915
31
0.0000000000
11
16.2012660410
21
18.2524794844
31
0.0000000000
11
16.2233889035
21
18.2435504707
31
0.0000000000
0
SPLINE
5
36E
100
AcDbEntity
8
0
100
AcDbSpline
62
7
6
CONTINUOUS
70
0
71
3
72
9
73
5
74
3
42
0.0000001000
43
0.0000001000
44
0.0000000001
12
-0.0003653793
22
0.0095468576
32
0.0000000000
13
-0.0085030318
23
0.0051307478
33
0.0000000000
40
0.0000000000
40
0.0000000000
40
0.0000000000
40
0.0000000000
40
0.2172331805
40
1.0000000000
40
1.0000000000
40
1.0000000000
40
1.0000000000
10
23.2526465917
20
19.4129648849
30
0.0000000000
10
23.2526201342
20
19.4136561830
30
0.0000000000
10
23.2521513163
20
19.4167928854
30
0.0000000000
10
23.2497288929
20
19.4195950171
30
0.0000000000
10
23.2475102625
20
19.4209337435
30
0.0000000000
11
23.2526465917
21
19.4129648849
31
0.0000000000
11
23.2523242575
21
19.4150031862
31
0.0000000000
11
23.2475102625
21
19.4209337435
31
0.0000000000
0
SPLINE
5
36F
100
AcDbEntity
8
0
100
AcDbSpline
62
7
6
CONTINUOUS
70
0
71
3
72
9
73
5
74
3
42
0.0000001000
43
0.0000001000
44
0.0000000001
12
-0.0002915661
22
0.0095821353
32
0.0000000000
13
-0.0085878303
23
0.0051799366
33
0.0000000000
40
0.0000000000
40
0.0000000000
40
0.0000000000
40
0.0000000000
40
0.2397017390
40
1.0000000000
40
1.0000000000
40
1.0000000000
40
1.0000000000
10
17.6621993968
20
22.2081901022
30
0.0000000000
10
17.6621761005
20
22.2089557204
30
0.0000000000
10
17.6616975262
20
22.2120917222
30
0.0000000000
10
17.6592254249
20
22.2148283960
30
0.0000000000
10
17.6570489875
20
22.2161411616
30
0.0000000000
11
17.6621993968
21
22.2081901022
31
0.0000000000
11
17.6618321284
21
22.2104361864
31
0.0000000000
11
17.6570489875
21
22.2161411616
31
0.0000000000
0
SPLINE
5
370
100
AcDbEntity
8
0
100
AcDbSpline
62
7
6
CONTINUOUS
70
0
71
3
72
14
73
10
74
8
42
0.0000001000
43
0.0000001000
44
0.0000000001
12
0.0000330682
22
-0.2348439295
32
0.0000000000
13
-0.2080373178
23
-0.1077144745
33
0.0000000000
40
0.0000000000
40
0.0000000000
40
0.0000000000
40
0.0000000000
40
0.0543752711
40
0.1841254121
40
0.3211559735
40
0.4693449976
40
0.6312154439
40
0.8080272866
40
1.0000000000
40
1.0000000000
40
1.0000000000
40
1.0000000000
10
28.6499041771
20
17.0252690067
30
0.0000000000
10
28.6499047764
20
17.0210124393
30
0.0000000000
10
28.6491767583
20
17.0065995368
30
0.0000000000
10
28.6435686846
20
16.9819212045
30
0.0000000000
10
28.6294978648
20
16.9524725653
30
0.0000000000
10
28.6086001797
20
16.9242805862
30
0.0000000000
10
28.5812546184
20
16.8976697595
30
0.0000000000
10
28.5478729328
20
16.8729477335
30
0.0000000000
10
28.5228908178
20
16.8584997049
30
0.0000000000
10
28.5095783217
20
16.8516069582
30
0.0000000000
11
28.6499041771
21
17.0252690067
31
0.0000000000
11
28.6492578710
21
17.0125227537
31
0.0000000000
11
28.6426580030
21
16.9828514792
31
0.0000000000
11
28.6290313361
21
16.9537851312
31
0.0000000000
11
28.6085721916
21
16.9257382072
31
0.0000000000
11
28.5815723250
21
16.8991106670
31
0.0000000000
11
28.5484167646
21
16.8742822296
31
0.0000000000
11
28.5095783217
21
16.8516069582
31
0.0000000000
0
SPLINE
5
371
100
AcDbEntity
8
0
100
AcDbSpline
62
7
6
CONTINUOUS
70
0
71
3
72
14
73
10
74
8
42
0.0000001000
43
0.0000001000
44
0.0000000001
12
0.2156761717
22
-0.1078380858
32
0.0000000000
13
0.0000340371
23
-0.2417251337
33
0.0000000000
40
0.0000000000
40
0.0000000000
40
0.0000000000
40
0.0000000000
40
0.1886271563
40
0.3625650030
40
0.5218981064
40
0.6676885199
40
0.8021974836
40
0.9290052933
40
1.0000000000
40
1.0000000000
40
1.0000000000
40
1.0000000000
10
28.5034618121
20
-18.9978136321
30
0.0000000000
10
28.5170226064
20
-19.0045940292
30
0.0000000000
10
28.5425178038
20
-19.0188312994
30
0.0000000000
10
28.5767445849
20
-19.0432523210
30
0.0000000000
10
28.6049988107
20
-19.0696064770
30
0.0000000000
10
28.6268622010
20
-19.0975867802
30
0.0000000000
10
28.6419535597
20
-19.1268744239
30
0.0000000000
10
28.6488162546
20
-19.1529335188
30
0.0000000000
10
28.6499033716
20
-19.1688724698
30
0.0000000000
10
28.6499041771
20
-19.1745928715
30
0.0000000000
11
28.5034618121
21
-18.9978136321
31
0.0000000000
11
28.5430858159
21
-19.0201465378
31
0.0000000000
11
28.5771029584
21
-19.0446818715
31
0.0000000000
11
28.6050281422
21
-19.0710697498
31
0.0000000000
11
28.6264631432
21
-19.0989338716
31
0.0000000000
11
28.6411022902
21
-19.1278768835
31
0.0000000000
11
28.6487368233
21
-19.1574860472
31
0.0000000000
11
28.6499041771
21
-19.1745928715
31
0.0000000000
0
SPLINE
5
372
100
AcDbEntity
8
0
100
AcDbSpline
62
9
6
CONTINUOUS
70
0
71
3
72
12
73
8
74
6
42
0.0000001000
43
0.0000001000
44
0.0000000001
12
0.0398618365
22
-0.0648932518
32
0.0000000000
13
-0.0482365783
23
-0.0595203730
33
0.0000000000
40
0.0000000000
40
0.0000000000
40
0.0000000000
40
0.0000000000
40
0.2911193810
40
0.5348993931
40
0.7319750866
40
0.8889554546
40
1.0000000000
40
1.0000000000
40
1.0000000000
40
1.0000000000
10
10.0694969931
20
21.0149789372
30
0.0000000000
10
10.0733651774
20
21.0086817095
30
0.0000000000
10
10.0800144346
20
20.9968136295
30
0.0000000000
10
10.0871428076
20
20.9795840693
30
0.0000000000
10
10.0904602994
20
20.9646742610
30
0.0000000000
10
10.0898394518
20
20.9526269650
30
0.0000000000
10
10.0866356317
20
20.9463529081
30
0.0000000000
10
10.0848501621
20
20.9441497705
30
0.0000000000
11
10.0694969931
21
21.0149789372
31
0.0000000000
11
10.0801763287
21
20.9955492398
31
0.0000000000
11
10.0870328986
21
20.9782958394
31
0.0000000000
11
10.0899276384
21
20.9635686679
31
0.0000000000
11
10.0888018371
21
20.9516664208
31
0.0000000000
11
10.0848501621
21
20.9441497705
31
0.0000000000
0
SPLINE
5
373
100
AcDbEntity
8
0
100
AcDbSpline
62
7
6
CONTINUOUS
70
0
71
3
72
17
73
13
74
11
42
0.0000001000
43
0.0000001000
44
0.0000000001
12
0.0000000000
22
0.2935029237
32
0.0000000000
13
0.2617666824
23
0.1327485223
33
0.0000000000
40
0.0000000000
40
0.0000000000
40
0.0000000000
40
0.0000000000
40
0.0951039487
40
0.1951393493
40
0.2988491105
40
0.4047571080
40
0.5112804368
40
0.6167905986
40
0.7197127878
40
0.8186269403
40
0.9123376102
40
1.0000000000
40
1.0000000000
40
1.0000000000
40
1.0000000000
10
11.8393268602
20
19.2052401805
30
0.0000000000
10
11.8393268602
20
19.2145446095
30
0.0000000000
10
11.8405775255
20
19.2336500518
30
0.0000000000
10
11.8457760723
20
19.2624753348
30
0.0000000000
10
11.8542233164
20
19.2916227734
30
0.0000000000
10
11.8657157871
20
19.3203891128
30
0.0000000000
10
11.8799772275
20
19.3480857958
30
0.0000000000
10
11.8966652782
20
19.3740468089
30
0.0000000000
10
11.9153792617
20
19.3976486384
30
0.0000000000
10
11.9356756060
20
19.4183270579
30
0.0000000000
10
11.9570678967
20
19.4355838860
30
0.0000000000
10
11.9722764340
20
19.4448626149
30
0.0000000000
10
11.9799254649
20
19.4487416325
30
0.0000000000
11
11.8393268602
21
19.2052401805
31
0.0000000000
11
11.8410551297
21
19.2330999126
31
0.0000000000
11
11.8461976386
21
19.2620067333
31
0.0000000000
11
11.8546288767
21
19.2912548809
31
0.0000000000
11
11.8661423926
21
19.3201282785
31
0.0000000000
11
11.8804577517
21
19.3479233319
31
0.0000000000
11
11.8972245288
21
19.3739591491
31
0.0000000000
11
11.9160318841
21
19.3975981940
31
0.0000000000
11
11.9364214615
21
19.4182645561
31
0.0000000000
11
11.9578940796
21
19.4354522333
31
0.0000000000
11
11.9799254649
21
19.4487416325
31
0.0000000000
0
SPLINE
5
374
100
AcDbEntity
8
0
100
AcDbSpline
62
7
6
CONTINUOUS
70
0
71
3
72
15
73
11
74
9
42
0.0000001000
43
0.0000001000
44
0.0000000001
12
0.2786999546
22
0.1438654008
32
0.0000000000
13
-0.0000000000
23
0.3132138274
33
0.0000000000
40
0.0000000000
40
0.0000000000
40
0.0000000000
40
0.0000000000
40
0.0909595733
40
0.2026063303
40
0.3189161978
40
0.4408270121
40
0.5688810010
40
0.7049634784
40
0.8490880788
40
1.0000000000
40
1.0000000000
40
1.0000000000
40
1.0000000000
10
22.4244907749
20
-25.6429005691
30
0.0000000000
10
22.4329409179
20
-25.6385385906
30
0.0000000000
10
22.4510241244
20
-25.6273882440
30
0.0000000000
10
22.4762169850
20
-25.6053526216
30
0.0000000000
10
22.4993041618
20
-25.5768321465
30
0.0000000000
10
22.5184808998
20
-25.5435835124
30
0.0000000000
10
22.5335646376
20
-25.5060806255
30
0.0000000000
10
22.5444241300
20
-25.4647588869
30
0.0000000000
10
22.5509336283
20
-25.4201389327
30
0.0000000000
10
22.5523031365
20
-25.3893116282
30
0.0000000000
10
22.5523031365
20
-25.3735557281
30
0.0000000000
11
22.4244907749
21
-25.6429005691
31
0.0000000000
11
22.4487588495
21
-25.6279525662
31
0.0000000000
11
22.4751373864
21
-25.6049955346
31
0.0000000000
11
22.4981604250
21
-25.5767630303
31
0.0000000000
11
22.5173694404
21
-25.5437623750
31
0.0000000000
11
22.5324766196
21
-25.5066080043
31
0.0000000000
11
22.5434501774
21
-25.4654219169
31
0.0000000000
11
22.5500949085
21
-25.4207718189
31
0.0000000000
11
22.5523031365
21
-25.3735557281
31
0.0000000000
0
SPLINE
5
375
100
AcDbEntity
8
0
100
AcDbSpline
62
9
6
CONTINUOUS
70
0
71
3
72
17
73
13
74
11
42
0.0000001000
43
0.0000001000
44
0.0000000001
12
0.0000000000
22
0.2935029484
32
0.0000000000
13
0.2617667045
23
0.1327485335
33
0.0000000000
40
0.0000000000
40
0.0000000000
40
0.0000000000
40
0.0000000000
40
0.0951248516
40
0.1951845763
40
0.2989176042
40
0.4048508556
40
0.5113920684
40
0.6169163707
40
0.7198562270
40
0.8187741003
40
0.9124874805
40
1.0000000000
40
1.0000000000
40
1.0000000000
40
1.0000000000
10
13.4656724569
20
18.3920673821
30
0.0000000000
10
13.4656724569
20
18.4013738569
30
0.0000000000
10
13.4669236850
20
18.4204837332
30
0.0000000000
10
13.4721244799
20
18.4493154561
30
0.0000000000
10
13.4805753366
20
18.4784693015
30
0.0000000000
10
13.4920723617
20
18.5072408526
30
0.0000000000
10
13.5063389264
20
18.5349412310
30
0.0000000000
10
13.5230324539
20
18.5609045339
30
0.0000000000
10
13.5417517642
20
18.5845066340
30
0.0000000000
10
13.5620531162
20
18.6051834670
30
0.0000000000
10
13.5834378854
20
18.6224273775
30
0.0000000000
10
13.5986351071
20
18.6316964479
30
0.0000000000
10
13.6062710617
20
18.6355688341
30
0.0000000000
11
13.4656724569
21
18.3920673821
31
0.0000000000
11
13.4674014652
21
18.4199332177
31
0.0000000000
11
13.4725462584
21
18.4488468857
31
0.0000000000
11
13.4809810104
21
18.4781011299
31
0.0000000000
11
13.4924994209
21
18.5069805581
31
0.0000000000
11
13.5068197602
21
18.5347789536
31
0.0000000000
11
13.5235916572
21
18.5608164130
31
0.0000000000
11
13.5424054293
21
18.5844569818
31
0.0000000000
11
13.5627991614
21
18.6051207819
31
0.0000000000
11
13.5842757879
21
18.6223047273
31
0.0000000000
11
13.6062710617
21
18.6355688341
31
0.0000000000
0
SPLINE
5
376
100
AcDbEntity
8
0
100
AcDbSpline
62
9
6
CONTINUOUS
70
0
71
3
72
14
73
10
74
8
42
0.0000001000
43
0.0000001000
44
0.0000000001
12
0.0000000000
22
-0.1577595547
32
0.0000000000
13
0.1413742327
23
-0.0707242395
33
0.0000000000
40
0.0000000000
40
0.0000000000
40
0.0000000000
40
0.0000000000
40
0.1744480713
40
0.3387525797
40
0.4926022692
40
0.6366352265
40
0.7723534891
40
0.9021719202
40
1.0000000000
40
1.0000000000
40
1.0000000000
40
1.0000000000
10
19.8910850635
20
13.8050594238
30
0.0000000000
10
19.8910850635
20
13.7958858072
30
0.0000000000
10
19.8920064843
20
13.7780520432
30
0.0000000000
10
19.8964203221
20
13.7524586435
30
0.0000000000
10
19.9037743651
20
13.7292034950
30
0.0000000000
10
19.9139737071
20
13.7086936282
30
0.0000000000
10
19.9268836778
20
13.6912966110
30
0.0000000000
10
19.9411663866
20
13.6783977688
30
0.0000000000
10
19.9514485115
20
13.6721477721
30
0.0000000000
10
19.9560586348
20
13.6698414999
30
0.0000000000
11
19.8910850635
21
13.8050594238
31
0.0000000000
11
19.8925946694
21
13.7775800083
31
0.0000000000
11
19.8971038177
21
13.7520546209
31
0.0000000000
11
19.9045353341
21
13.7289490685
31
0.0000000000
11
19.9147624257
21
13.7086581340
31
0.0000000000
11
19.9276097348
21
13.6915300501
31
0.0000000000
11
19.9428576641
21
13.6778576303
31
0.0000000000
11
19.9560586348
21
13.6698414999
31
0.0000000000
0
SPLINE
5
377
100
AcDbEntity
8
0
100
AcDbSpline
62
9
6
CONTINUOUS
70
0
71
3
72
17
73
13
74
11
42
0.0000001000
43
0.0000001000
44
0.0000000001
12
0.0000000000
22
0.2935029300
32
0.0000000000
13
0.2617666881
23
0.1327485252
33
0.0000000000
40
0.0000000000
40
0.0000000000
40
0.0000000000
40
0.0000000000
40
0.0949425163
40
0.1949835689
40
0.2987000612
40
0.4046288794
40
0.5111687881
40
0.6166986188
40
0.7196468526
40
0.8185842039
40
0.9123181992
40
1.0000000000
40
1.0000000000
40
1.0000000000
40
1.0000000000
10
15.1627287317
20
17.5435392447
30
0.0000000000
10
15.1627287317
20
17.5528278803
30
0.0000000000
10
15.1639762970
20
17.5719180208
30
0.0000000000
10
15.1691673469
20
17.6007298840
30
0.0000000000
10
15.1776111999
20
17.6298817002
30
0.0000000000
10
15.1891016591
20
17.6586535311
30
0.0000000000
10
15.2033626906
20
17.6863567286
30
0.0000000000
10
15.2200516090
20
17.7123244563
30
0.0000000000
10
15.2387679394
20
17.7359330690
30
0.0000000000
10
15.2590680096
20
17.7566178265
30
0.0000000000
10
15.2804646256
20
17.7738796291
30
0.0000000000
10
15.2956766117
20
17.7831608201
30
0.0000000000
10
15.3033273365
20
17.7870406967
30
0.0000000000
11
15.1627287317
21
17.5435392447
31
0.0000000000
11
15.1644513028
21
17.5713518588
31
0.0000000000
11
15.1695891051
21
17.6002612020
31
0.0000000000
11
15.1780165310
21
17.6295125048
31
0.0000000000
11
15.1895286342
21
17.6583930451
31
0.0000000000
11
15.2038432142
21
17.6861939740
31
0.0000000000
11
15.2206106579
21
17.7122362289
31
0.0000000000
11
15.2394209105
21
17.7358827378
31
0.0000000000
11
15.2598140107
21
17.7565551901
31
0.0000000000
11
15.2812912738
21
17.7737480206
31
0.0000000000
11
15.3033273365
21
17.7870406967
31
0.0000000000
0
SPLINE
5
378
100
AcDbEntity
8
0
100
AcDbSpline
62
9
6
CONTINUOUS
70
0
71
3
72
14
73
10
74
8
42
0.0000001000
43
0.0000001000
44
0.0000000001
12
0.0000000000
22
-0.1552405841
32
0.0000000000
13
0.1371862473
23
-0.0733005702
33
0.0000000000
40
0.0000000000
40
0.0000000000
40
0.0000000000
40
0.0000000000
40
0.1774573884
40
0.3444195995
40
0.5007609684
40
0.6471200571
40
0.7850340040
40
0.9169491153
40
1.0000000000
40
1.0000000000
40
1.0000000000
40
1.0000000000
10
18.2125469931
20
14.6443284590
30
0.0000000000
10
18.2125469931
20
14.6351455962
30
0.0000000000
10
18.2134697924
20
14.6173029441
30
0.0000000000
10
18.2178884851
20
14.5917016554
30
0.0000000000
10
18.2252457782
20
14.5684488061
30
0.0000000000
10
18.2354483416
20
14.5479418018
30
0.0000000000
10
18.2483610776
20
14.5305485575
30
0.0000000000
10
18.2620129514
20
14.5182249823
30
0.0000000000
10
18.2714809877
20
14.5122991706
30
0.0000000000
10
18.2752788008
20
14.5102699449
30
0.0000000000
11
18.2125469931
21
14.6443284590
31
0.0000000000
11
18.2140597340
21
14.6168214354
31
0.0000000000
11
18.2185720670
21
14.5912979258
31
0.0000000000
11
18.2260069782
21
14.5681942356
31
0.0000000000
11
18.2362369909
21
14.5479066829
31
0.0000000000
11
18.2490872102
21
14.5307820463
31
0.0000000000
11
18.2643370405
21
14.5171140226
31
0.0000000000
11
18.2752788008
21
14.5102699449
31
0.0000000000
0
SPLINE
5
379
100
AcDbEntity
8
0
100
AcDbSpline
62
9
6
CONTINUOUS
70
0
71
3
72
8
73
4
74
2
42
0.0000001000
43
0.0000001000
44
0.0000000001
12
0.0022272381
22
-0.0011900451
32
0.0000000000
13
0.0022585958
23
-0.0011298495
33
0.0000000000
40
0.0000000000
40
0.0000000000
40
0.0000000000
40
0.0000000000
40
1.0000000000
40
1.0000000000
40
1.0000000000
40
1.0000000000
10
18.2752788008
20
14.5102699449
30
0.0000000000
10
18.2760212135
20
14.5098732632
30
0.0000000000
10
18.2767689720
20
14.5094865239
30
0.0000000000
10
18.2775218372
20
14.5091099074
30
0.0000000000
11
18.2752788008
21
14.5102699449
31
0.0000000000
11
18.2775218372
21
14.5091099074
31
0.0000000000
0
SPLINE
5
37A
100
AcDbEntity
8
0
100
AcDbSpline
62
7
6
CONTINUOUS
70
0
71
3
72
21
73
17
74
15
42
0.0000001000
43
0.0000001000
44
0.0000000001
12
-0.2294421987
22
-0.2746997681
32
0.0000000000
13
-0.3506308322
23
0.0730922906
33
0.0000000000
40
0.0000000000
40
0.0000000000
40
0.0000000000
40
0.0000000000
40
0.0745833692
40
0.1507491057
40
0.2281482373
40
0.3064038866
40
0.3851180399
40
0.4638795582
40
0.5422714814
40
0.6198805498
40
0.6963092492
40
0.7711917554
40
0.8442154395
40
0.9151497249
40
0.9838856802
40
1.0000000000
40
1.0000000000
40
1.0000000000
40
1.0000000000
10
20.9548276312
20
13.6560431771
30
0.0000000000
10
20.9491234405
20
13.6492138324
30
0.0000000000
10
20.9371315518
20
13.6357898436
30
0.0000000000
10
20.9177109783
20
13.6166926165
30
0.0000000000
10
20.8967696426
20
13.5985965376
30
0.0000000000
10
20.8744585370
20
13.5817097844
30
0.0000000000
10
20.8509475760
20
13.5662382271
30
0.0000000000
10
20.8264271795
20
13.5523860270
30
0.0000000000
10
20.8011079140
20
13.5403537414
30
0.0000000000
10
20.7752209637
20
13.5303370276
30
0.0000000000
10
20.7490184302
20
13.5225248842
30
0.0000000000
10
20.7227736590
20
13.5170974490
30
0.0000000000
10
20.6967810331
20
13.5142237250
30
0.0000000000
10
20.6713559749
20
13.5140574281
30
0.0000000000
10
20.6528335842
20
13.5160817910
30
0.0000000000
10
20.6428837544
20
13.5179912186
30
0.0000000000
10
20.6410003619
20
13.5183838295
30
0.0000000000
11
20.9548276312
21
13.6560431771
31
0.0000000000
11
20.9370517467
21
13.6361279165
31
0.0000000000
11
20.9176190875
21
13.6170090949
31
0.0000000000
11
20.8966598839
21
13.5988946532
31
0.0000000000
11
20.8743250733
21
13.5819932814
31
0.0000000000
11
20.8507861825
21
13.5665129538
31
0.0000000000
11
20.8262351172
21
13.5526594123
31
0.0000000000
11
20.8008846293
21
13.5406349570
31
0.0000000000
11
20.7749688316
21
13.5306368882
31
0.0000000000
11
20.7487438631
21
13.5228555650
31
0.0000000000
11
20.7224885221
21
13.5174718526
31
0.0000000000
11
20.6965045686
21
13.5146537438
31
0.0000000000
11
20.6711162744
21
13.5145520126
31
0.0000000000
11
20.6466679944
21
13.5172950620
31
0.0000000000
11
20.6410003619
21
13.5183838295
31
0.0000000000
0
SPLINE
5
37B
100
AcDbEntity
8
0
100
AcDbSpline
62
9
6
CONTINUOUS
70
0
71
3
72
17
73
13
74
11
42
0.0000001000
43
0.0000001000
44
0.0000000001
12
-0.1071215419
22
-0.2788735224
32
0.0000000000
13
-0.2928427590
23
0.0611331971
33
0.0000000000
40
0.0000000000
40
0.0000000000
40
0.0000000000
40
0.0000000000
40
0.1173243264
40
0.2325239293
40
0.3448037185
40
0.4536427658
40
0.5587478877
40
0.6601202467
40
0.7580778884
40
0.8532630567
40
0.9466072106
40
1.0000000000
40
1.0000000000
40
1.0000000000
40
1.0000000000
10
20.2436070231
20
13.8045467000
30
0.0000000000
10
20.2394177022
20
13.7936404839
30
0.0000000000
10
20.2298991557
20
13.7724679694
30
0.0000000000
10
20.2122582206
20
13.7429216247
30
0.0000000000
10
20.1916891597
20
13.7163812071
30
0.0000000000
10
20.1686009370
20
13.6933940474
30
0.0000000000
10
20.1434443385
20
13.6744277272
30
0.0000000000
10
20.1167132202
20
13.6598784583
30
0.0000000000
10
20.0889369726
20
13.6500619093
30
0.0000000000
10
20.0606787614
20
13.6452052136
30
0.0000000000
10
20.0364549958
20
13.6454041311
30
0.0000000000
10
20.0219756369
20
13.6476381193
30
0.0000000000
10
20.0167637397
20
13.6487261433
30
0.0000000000
11
20.2436070231
21
13.8045467000
31
0.0000000000
11
20.2292067892
21
13.7725920933
31
0.0000000000
11
20.2115256069
21
13.7430667181
31
0.0000000000
11
20.1909305602
21
13.7165914575
31
0.0000000000
11
20.1678379105
21
13.6937020317
31
0.0000000000
11
20.1427172483
21
13.6748644436
31
0.0000000000
11
20.1160779680
21
13.6604607337
31
0.0000000000
11
20.0884606108
21
13.6507832206
31
0.0000000000
11
20.0604253983
21
13.6460282144
31
0.0000000000
11
20.0325410341
21
13.6462921729
31
0.0000000000
11
20.0167637397
21
13.6487261433
31
0.0000000000
0
SPLINE
5
37C
100
AcDbEntity
8
0
100
AcDbSpline
62
7
6
CONTINUOUS
70
0
71
3
72
13
73
9
74
7
42
0.0000001000
43
0.0000001000
44
0.0000000001
12
0.2110094684
22
0.1230284267
32
0.0000000000
13
0.2181323899
23
-0.1090661950
33
0.0000000000
40
0.0000000000
40
0.0000000000
40
0.0000000000
40
0.0000000000
40
0.1501519207
40
0.3040749742
40
0.4637350501
40
0.6318343932
40
0.8102466806
40
1.0000000000
40
1.0000000000
40
1.0000000000
40
1.0000000000
10
5.8613650509
20
20.0996087998
30
0.0000000000
10
5.8719262099
20
20.1057664513
30
0.0000000000
10
5.8945438999
20
20.1161341356
30
0.0000000000
10
5.9314461675
20
20.1249121429
30
0.0000000000
10
5.9707669057
20
20.1267720977
30
0.0000000000
10
6.0117835514
20
20.1217309507
30
0.0000000000
10
6.0538970683
20
20.1099304101
30
0.0000000000
10
6.0814713754
20
20.0980603218
30
0.0000000000
10
6.0952684904
20
20.0911617643
30
0.0000000000
11
5.8613650509
21
20.0996087998
31
0.0000000000
11
5.8946485217
21
20.1148810089
31
0.0000000000
11
5.9311449664
21
20.1236651404
31
0.0000000000
11
5.9700314034
21
20.1256646094
31
0.0000000000
11
6.0107438372
21
20.1208513567
31
0.0000000000
11
6.0526921942
21
20.1092949743
31
0.0000000000
11
6.0952684904
21
20.0911617643
31
0.0000000000
0
SPLINE
5
37D
100
AcDbEntity
8
0
100
AcDbSpline
62
9
6
CONTINUOUS
70
0
71
3
72
12
73
8
74
6
42
0.0000001000
43
0.0000001000
44
0.0000000001
12
0.0398618365
22
-0.0648932518
32
0.0000000000
13
-0.0482365783
23
-0.0595203730
33
0.0000000000
40
0.0000000000
40
0.0000000000
40
0.0000000000
40
0.0000000000
40
0.2911193810
40
0.5348993931
40
0.7319750866
40
0.8889554546
40
1.0000000000
40
1.0000000000
40
1.0000000000
40
1.0000000000
10
22.3731549857
20
14.8631499409
30
0.0000000000
10
22.3770231701
20
14.8568527131
30
0.0000000000
10
22.3836724272
20
14.8449846332
30
0.0000000000
10
22.3908008002
20
14.8277550730
30
0.0000000000
10
22.3941182921
20
14.8128452647
30
0.0000000000
10
22.3934974445
20
14.8007979687
30
0.0000000000
10
22.3902936244
20
14.7945239118
30
0.0000000000
10
22.3885081547
20
14.7923207742
30
0.0000000000
11
22.3731549857
21
14.8631499409
31
0.0000000000
11
22.3838343213
21
14.8437202435
31
0.0000000000
11
22.3906908912
21
14.8264668430
31
0.0000000000
11
22.3935856310
21
14.8117396716
31
0.0000000000
11
22.3924598298
21
14.7998374244
31
0.0000000000
11
22.3885081547
21
14.7923207742
31
0.0000000000
0
SPLINE
5
37E
100
AcDbEntity
8
0
100
AcDbSpline
62
7
6
CONTINUOUS
70
0
71
3
72
18
73
14
74
12
42
0.0000001000
43
0.0000001000
44
0.0000000001
12
0.3291976587
22
-0.1645988293
32
0.0000000000
13
-0.0000000000
23
-0.3680541714
33
0.0000000000
40
0.0000000000
40
0.0000000000
40
0.0000000000
40
0.0000000000
40
0.0792794165
40
0.1636455452
40
0.2525081052
40
0.3450221634
40
0.4401582221
40
0.5367643443
40
0.6336231642
40
0.7295062953
40
0.8232283081
40
0.9137023846
40
1.0000000000
40
1.0000000000
40
1.0000000000
40
1.0000000000
10
21.6681141103
20
15.2521321764
30
0.0000000000
10
21.6768136430
20
15.2477824100
30
0.0000000000
10
21.6941384014
20
15.2375020600
30
0.0000000000
10
21.7187128803
20
15.2185372758
30
0.0000000000
10
21.7422587261
20
15.1959010286
30
0.0000000000
10
21.7643042460
20
15.1700496938
30
0.0000000000
10
21.7844134268
20
15.1414993096
30
0.0000000000
10
21.8021836721
20
15.1108223630
30
0.0000000000
10
21.8172589374
20
15.0786340940
30
0.0000000000
10
21.8293366190
20
15.0455808119
30
0.0000000000
10
21.8381742039
20
15.0123229591
30
0.0000000000
10
21.8435936170
20
14.9795311971
30
0.0000000000
10
21.8448878140
20
14.9578300367
30
0.0000000000
10
21.8448878140
20
14.9472426376
30
0.0000000000
11
21.6681141103
21
15.2521321764
31
0.0000000000
11
21.6932716510
21
15.2373497820
31
0.0000000000
11
21.7179170892
21
15.2184610034
31
0.0000000000
11
21.7415487161
21
15.1958502963
31
0.0000000000
11
21.7636854432
21
15.1699779092
31
0.0000000000
11
21.7838766037
21
15.1413705169
31
0.0000000000
11
21.8017111377
21
15.1106104959
31
0.0000000000
11
21.8168259689
21
15.0783240599
31
0.0000000000
11
21.8289134036
21
15.0451684997
31
0.0000000000
11
21.8377273973
21
15.0118187889
31
0.0000000000
11
21.8430885625
21
14.9789538324
31
0.0000000000
11
21.8448878140
21
14.9472426376
31
0.0000000000
0
SPLINE
5
37F
100
AcDbEntity
8
0
100
AcDbSpline
62
9
6
CONTINUOUS
70
0
71
3
72
13
73
9
74
7
42
0.0000001000
43
0.0000001000
44
0.0000000001
12
0.0000017314
22
-0.1197775045
32
0.0000000000
13
-0.1065035410
23
-0.0538750159
33
0.0000000000
40
0.0000000000
40
0.0000000000
40
0.0000000000
40
0.0000000000
40
0.0713280664
40
0.2244534374
40
0.3896814561
40
0.5724766347
40
0.7756917816
40
1.0000000000
40
1.0000000000
40
1.0000000000
40
1.0000000000
10
22.4453479155
20
-26.3485860124
30
0.0000000000
10
22.4453479567
20
-26.3514338450
30
0.0000000000
10
22.4447438547
20
-26.3603950159
30
0.0000000000
10
22.4403847512
20
-26.3754747190
30
0.0000000000
10
22.4301183263
20
-26.3927728783
30
0.0000000000
10
22.4151739993
20
-26.4089974483
30
0.0000000000
10
22.3959022211
20
-26.4239138153
30
0.0000000000
10
22.3811181922
20
-26.4324259955
30
0.0000000000
10
22.3731549857
20
-26.4364541985
30
0.0000000000
11
22.4453479155
21
-26.3485860124
31
0.0000000000
11
22.4447714530
21
-26.3571014967
31
0.0000000000
11
22.4398352107
21
-26.3746984754
31
0.0000000000
11
22.4299585383
21
-26.3917676971
31
0.0000000000
11
22.4153409944
21
-26.4079642513
31
0.0000000000
11
22.3962780943
21
-26.4229607356
31
0.0000000000
11
22.3731549857
21
-26.4364541985
31
0.0000000000
0
SPLINE
5
380
100
AcDbEntity
8
0
100
AcDbSpline
62
9
6
CONTINUOUS
70
0
71
3
72
9
73
5
74
3
42
0.0000001000
43
0.0000001000
44
0.0000000001
12
-0.0222198959
22
0.0111157836
32
0.0000000000
13
-0.0242799489
23
0.0050285421
33
0.0000000000
40
0.0000000000
40
0.0000000000
40
0.0000000000
40
0.0000000000
40
0.1862442843
40
1.0000000000
40
1.0000000000
40
1.0000000000
40
1.0000000000
10
22.3071559759
20
-26.1249752997
30
0.0000000000
10
22.3057765330
20
-26.1242852160
30
0.0000000000
10
22.2982778347
20
-26.1207624292
30
0.0000000000
10
22.2903271727
20
-26.1182513941
30
0.0000000000
10
22.2837411903
20
-26.1168873925
30
0.0000000000
11
22.3071559759
21
-26.1249752997
31
0.0000000000
11
22.3029676763
21
-26.1230081128
31
0.0000000000
11
22.2837411903
21
-26.1168873925
31
0.0000000000
0
SPLINE
5
381
100
AcDbEntity
8
0
100
AcDbSpline
62
7
6
CONTINUOUS
70
0
71
3
72
12
73
8
74
6
42
0.0000001000
43
0.0000001000
44
0.0000000001
12
-0.0882344620
22
0.0441172310
32
0.0000000000
13
-0.0000088153
23
0.0989577355
33
0.0000000000
40
0.0000000000
40
0.0000000000
40
0.0000000000
40
0.0000000000
40
0.2398059241
40
0.4563658315
40
0.6514132241
40
0.8297886218
40
1.0000000000
40
1.0000000000
40
1.0000000000
40
1.0000000000
10
15.1627287317
20
16.3099248930
30
0.0000000000
10
15.1556756828
20
16.3134514175
30
0.0000000000
10
15.1426486518
20
16.3210231171
30
0.0000000000
10
15.1259992187
20
16.3346726645
30
0.0000000000
10
15.1136150682
20
16.3498105102
30
0.0000000000
10
15.1059047989
20
16.3661765553
30
0.0000000000
10
15.1041505841
20
16.3776794929
30
0.0000000000
10
15.1041500840
20
16.3832940705
30
0.0000000000
11
15.1627287317
21
16.3099248930
31
0.0000000000
11
15.1423613842
21
16.3219585133
31
0.0000000000
11
15.1259698832
21
16.3356594445
31
0.0000000000
11
15.1139586824
21
16.3506913091
31
0.0000000000
11
15.1066242325
21
16.3666864765
31
0.0000000000
11
15.1041500840
21
16.3832940705
31
0.0000000000
0
SPLINE
5
382
100
AcDbEntity
8
0
100
AcDbSpline
62
9
6
CONTINUOUS
70
0
71
3
72
13
73
9
74
7
42
0.0000001000
43
0.0000001000
44
0.0000000001
12
-0.0862260643
22
0.0431130322
32
0.0000000000
13
-0.0000000000
23
0.0967481053
33
0.0000000000
40
0.0000000000
40
0.0000000000
40
0.0000000000
40
0.0000000000
40
0.2237962451
40
0.4265563558
40
0.6088866355
40
0.7735685378
40
0.9259995157
40
1.0000000000
40
1.0000000000
40
1.0000000000
40
1.0000000000
10
15.1627287317
20
17.5435392447
30
0.0000000000
10
15.1562963753
20
17.5467554229
30
0.0000000000
10
15.1443493695
20
17.5535572960
30
0.0000000000
10
15.1287562084
20
17.5654934407
30
0.0000000000
10
15.1166403715
20
17.5784907446
30
0.0000000000
10
15.1082857186
20
17.5923602268
30
0.0000000000
10
15.1046697533
20
17.6045611823
30
0.0000000000
10
15.1041541130
20
17.6118634539
30
0.0000000000
10
15.1041541130
20
17.6142499228
30
0.0000000000
11
15.1627287317
21
17.5435392447
31
0.0000000000
11
15.1440418398
21
17.5543221562
31
0.0000000000
11
15.1286142901
21
17.5663250242
31
0.0000000000
11
15.1167601430
21
17.5793035049
31
0.0000000000
11
15.1087207148
21
17.5929933939
31
0.0000000000
11
15.1046596651
21
17.6071160045
31
0.0000000000
11
15.1041541130
21
17.6142499228
31
0.0000000000
0
SPLINE
5
383
100
AcDbEntity
8
0
100
AcDbSpline
62
9
6
CONTINUOUS
70
0
71
3
72
18
73
14
74
12
42
0.0000001000
43
0.0000001000
44
0.0000000001
12
0.1279916444
22
0.3378541862
32
0.0000000000
13
-0.3233080881
23
0.1612426507
33
0.0000000000
40
0.0000000000
40
0.0000000000
40
0.0000000000
40
0.0000000000
40
0.0982220178
40
0.1967685710
40
0.2948705958
40
0.3917837288
40
0.4868349361
40
0.5794662792
40
0.6692789808
40
0.7560748900
40
0.8398904030
40
0.9210207430
40
1.0000000000
40
1.0000000000
40
1.0000000000
40
1.0000000000
10
22.3731549857
20
-26.4364541985
30
0.0000000000
10
22.3773455182
20
-26.4253926252
30
0.0000000000
10
22.3844860657
20
-26.4027355980
30
0.0000000000
10
22.3913388235
20
-26.3678211944
30
0.0000000000
10
22.3942492859
20
-26.3325123110
30
0.0000000000
10
22.3931553482
20
-26.2975201478
30
0.0000000000
10
22.3880756734
20
-26.2635423536
30
0.0000000000
10
22.3791053712
20
-26.2312585715
30
0.0000000000
10
22.3664139656
20
-26.2013155848
30
0.0000000000
10
22.3502431497
20
-26.1743179815
30
0.0000000000
10
22.3308983032
20
-26.1508163762
30
0.0000000000
10
22.3087661553
20
-26.1313092891
30
0.0000000000
10
22.2922527345
20
-26.1211323341
30
0.0000000000
10
22.2837411903
20
-26.1168873925
30
0.0000000000
11
22.3731549857
21
-26.4364541985
31
0.0000000000
11
22.3838344871
21
-26.4026131147
31
0.0000000000
11
22.3906910755
21
-26.3676761263
31
0.0000000000
11
22.3935856856
21
-26.3323516726
31
0.0000000000
11
22.3924595672
21
-26.2973564636
31
0.0000000000
11
22.3873355719
21
-26.2634002572
31
0.0000000000
11
22.3783176327
21
-26.2311717767
31
0.0000000000
11
22.3655886568
21
-26.2013246927
31
0.0000000000
11
22.3494067889
21
-26.1744643399
31
0.0000000000
11
22.3301004161
21
-26.1511357397
31
0.0000000000
11
22.3080610144
21
-26.1318118482
31
0.0000000000
11
22.2837411903
21
-26.1168873925
31
0.0000000000
0
SPLINE
5
384
100
AcDbEntity
8
0
100
AcDbSpline
62
9
6
CONTINUOUS
70
0
71
3
72
12
73
8
74
6
42
0.0000001000
43
0.0000001000
44
0.0000000001
12
-0.0832258460
22
0.0416129230
32
0.0000000000
13
-0.0831893512
23
-0.0421429396
33
0.0000000000
40
0.0000000000
40
0.0000000000
40
0.0000000000
40
0.0000000000
40
0.2339367327
40
0.4513336991
40
0.6542958713
40
0.8466895206
40
1.0000000000
40
1.0000000000
40
1.0000000000
40
1.0000000000
10
15.3033273365
20
17.7870406967
30
0.0000000000
10
15.2968374757
20
17.7902856271
30
0.0000000000
10
15.2838718622
20
17.7957212766
30
0.0000000000
10
15.2640487855
20
17.8005017967
30
0.0000000000
10
15.2449416182
20
17.8014717616
30
0.0000000000
10
15.2280057055
20
17.7987134236
30
0.0000000000
10
15.2179493226
20
17.7947799764
30
0.0000000000
10
15.2136980562
20
17.7926263250
30
0.0000000000
11
15.3033273365
21
17.7870406967
31
0.0000000000
11
15.2832064123
21
17.7953460691
31
0.0000000000
11
15.2635118774
21
17.7999637749
31
0.0000000000
11
15.2446448953
21
17.8007997372
31
0.0000000000
11
15.2269896677
21
17.7978369526
31
0.0000000000
11
15.2136980562
21
17.7926263250
31
0.0000000000
0
SPLINE
5
385
100
AcDbEntity
8
0
100
AcDbSpline
62
9
6
CONTINUOUS
70
0
71
3
72
12
73
8
74
6
42
0.0000001000
43
0.0000001000
44
0.0000000001
12
0.1046699958
22
0.0536555175
32
0.0000000000
13
0.1052195208
23
-0.0519968360
33
0.0000000000
40
0.0000000000
40
0.0000000000
40
0.0000000000
40
0.0000000000
40
0.1567768319
40
0.3485859565
40
0.5508368444
40
0.7672930631
40
1.0000000000
40
1.0000000000
40
1.0000000000
40
1.0000000000
10
5.9715519210
20
21.4469555344
30
0.0000000000
10
5.9770218644
20
21.4497595151
30
0.0000000000
10
5.9898000619
20
21.4547984025
30
0.0000000000
10
6.0112374665
20
21.4583306338
30
0.0000000000
10
6.0352519905
20
21.4571891353
30
0.0000000000
10
6.0601690547
20
21.4512892363
30
0.0000000000
10
6.0764754856
20
21.4445415459
30
0.0000000000
10
6.0846372564
20
21.4405082045
30
0.0000000000
11
5.9715519210
21
21.4469555344
31
0.0000000000
11
5.9886752744
21
21.4537249052
31
0.0000000000
11
6.0108700183
21
21.4574904219
31
0.0000000000
11
6.0345873209
21
21.4565135314
31
0.0000000000
11
6.0593443872
21
21.4508141193
31
0.0000000000
11
6.0846372564
21
21.4405082045
31
0.0000000000
0
SPLINE
5
386
100
AcDbEntity
8
0
100
AcDbSpline
62
7
6
CONTINUOUS
70
0
71
3
72
13
73
9
74
7
42
0.0000001000
43
0.0000001000
44
0.0000000001
12
-0.0826605977
22
0.0413302989
32
0.0000000000
13
-0.0830397523
23
-0.0409544820
33
0.0000000000
40
0.0000000000
40
0.0000000000
40
0.0000000000
40
0.0000000000
40
0.2166199280
40
0.4192906031
40
0.6095062040
40
0.7899981979
40
0.9646612274
40
1.0000000000
40
1.0000000000
40
1.0000000000
40
1.0000000000
10
15.5162821223
20
17.8950354685
30
0.0000000000
10
15.5103134781
20
17.8980197906
30
0.0000000000
10
15.4983835061
20
17.9030912780
30
0.0000000000
10
15.4801488702
20
17.9078673438
30
0.0000000000
10
15.4624630034
20
17.9094532555
30
0.0000000000
10
15.4456353513
20
17.9077792151
30
0.0000000000
10
15.4340779536
20
17.9041280773
30
0.0000000000
10
15.4282027852
20
17.9013881733
30
0.0000000000
10
15.4272246109
20
17.9009057462
30
0.0000000000
11
15.5162821223
21
17.8950354685
31
0.0000000000
11
15.4978227356
21
17.9027833118
31
0.0000000000
11
15.4796792347
21
17.9074348785
31
0.0000000000
11
15.4621620617
21
17.9089105954
31
0.0000000000
11
15.4455709405
21
17.9071852298
31
0.0000000000
11
15.4301897478
21
17.9022883216
31
0.0000000000
11
15.4272246109
21
17.9009057462
31
0.0000000000
0
SPLINE
5
387
100
AcDbEntity
8
0
100
AcDbSpline
62
9
6
CONTINUOUS
70
0
71
3
72
12
73
8
74
6
42
0.0000001000
43
0.0000001000
44
0.0000000001
12
0.1046699958
22
0.0536555175
32
0.0000000000
13
0.1052195208
23
-0.0519968360
33
0.0000000000
40
0.0000000000
40
0.0000000000
40
0.0000000000
40
0.0000000000
40
0.1567768319
40
0.3485859565
40
0.5508368444
40
0.7672930631
40
1.0000000000
40
1.0000000000
40
1.0000000000
40
1.0000000000
10
18.2752099136
20
15.2951265381
30
0.0000000000
10
18.2806798571
20
15.2979305188
30
0.0000000000
10
18.2934580546
20
15.3029694062
30
0.0000000000
10
18.3148954591
20
15.3065016375
30
0.0000000000
10
18.3389099831
20
15.3053601390
30
0.0000000000
10
18.3638270474
20
15.2994602400
30
0.0000000000
10
18.3801334782
20
15.2927125496
30
0.0000000000
10
18.3882952490
20
15.2886792081
30
0.0000000000
11
18.2752099136
21
15.2951265381
31
0.0000000000
11
18.2923332671
21
15.3018959089
31
0.0000000000
11
18.3145280109
21
15.3056614256
31
0.0000000000
11
18.3382453135
21
15.3046845350
31
0.0000000000
11
18.3630023798
21
15.2989851230
31
0.0000000000
11
18.3882952490
21
15.2886792081
31
0.0000000000
0
SPLINE
5
388
100
AcDbEntity
8
0
100
AcDbSpline
62
9
6
CONTINUOUS
70
0
71
3
72
12
73
8
74
6
42
0.0000001000
43
0.0000001000
44
0.0000000001
12
-0.1029975786
22
0.0514556913
32
0.0000000000
13
-0.1030457036
23
-0.0507886144
33
0.0000000000
40
0.0000000000
40
0.0000000000
40
0.0000000000
40
0.0000000000
40
0.1465014453
40
0.3409787459
40
0.5457177993
40
0.7646569150
40
1.0000000000
40
1.0000000000
40
1.0000000000
40
1.0000000000
10
22.3071556904
20
15.5221597844
30
0.0000000000
10
22.3021259257
20
15.5246725621
30
0.0000000000
10
22.2898912859
20
15.5294698648
30
0.0000000000
10
22.2691204749
20
15.5330091039
30
0.0000000000
10
22.2453132724
20
15.5319812169
30
0.0000000000
10
22.2206198172
20
15.5262104979
30
0.0000000000
10
22.2044649800
20
15.5195552462
30
0.0000000000
10
22.1963812820
20
15.5155709965
30
0.0000000000
11
22.3071556904
21
15.5221597844
31
0.0000000000
11
22.2914754546
21
15.5283175290
31
0.0000000000
11
22.2694682449
21
15.5321705881
31
0.0000000000
11
22.2459633961
21
15.5313029922
31
0.0000000000
11
22.2214358670
21
15.5257322727
31
0.0000000000
11
22.1963812820
21
15.5155709965
31
0.0000000000
0
SPLINE
5
389
100
AcDbEntity
8
0
100
AcDbSpline
62
7
6
CONTINUOUS
70
0
71
3
72
19
73
15
74
13
42
0.0000001000
43
0.0000001000
44
0.0000000001
12
0.2633824730
22
-0.1316912365
32
0.0000000000
13
-0.0000000000
23
-0.2944705568
33
0.0000000000
40
0.0000000000
40
0.0000000000
40
0.0000000000
40
0.0000000000
40
0.0724762471
40
0.1492586289
40
0.2299202296
40
0.3138455594
40
0.4002771916
40
0.4883572384
40
0.5771652356
40
0.6657538939
40
0.7531839692
40
0.8385593913
40
0.9210638234
40
1.0000000000
40
1.0000000000
40
1.0000000000
40
1.0000000000
10
13.8192258475
20
18.7435636059
30
0.0000000000
10
13.8255888386
20
18.7403821104
30
0.0000000000
10
13.8382703471
20
18.7329612381
30
0.0000000000
10
13.8563727352
20
18.7194180381
30
0.0000000000
10
13.8738387048
20
18.7033542599
30
0.0000000000
10
13.8903733579
20
18.6850430556
30
0.0000000000
10
13.9057012404
20
18.6647924183
30
0.0000000000
10
13.9195640673
20
18.6429443127
30
0.0000000000
10
13.9317280154
20
18.6198678646
30
0.0000000000
10
13.9419874951
20
18.5959530983
30
0.0000000000
10
13.9501690348
20
18.5716044052
30
0.0000000000
10
13.9561342023
20
18.5472315257
30
0.0000000000
10
13.9597816640
20
18.5232484623
30
0.0000000000
10
13.9606472037
20
18.5073930425
30
0.0000000000
10
13.9606472037
20
18.4996449158
30
0.0000000000
11
13.8192258475
21
18.7435636059
31
0.0000000000
11
13.8376852342
21
18.7328520625
31
0.0000000000
11
13.8558287352
21
18.7193601282
31
0.0000000000
11
13.8733459082
21
18.7033186721
31
0.0000000000
11
13.8899370293
21
18.6850021853
31
0.0000000000
11
13.9053182220
21
18.6647240845
31
0.0000000000
11
13.9192263147
21
18.6428313480
31
0.0000000000
11
13.9314233443
21
18.6196985775
31
0.0000000000
11
13.9417006279
21
18.5957215876
31
0.0000000000
11
13.9498823321
21
18.5713106319
31
0.0000000000
11
13.9558284811
21
18.5468833833
31
0.0000000000
11
13.9594373499
21
18.5228577883
31
0.0000000000
11
13.9606472037
21
18.4996449158
31
0.0000000000
0
SPLINE
5
38A
100
AcDbEntity
8
0
100
AcDbSpline
62
9
6
CONTINUOUS
70
0
71
3
72
18
73
14
74
12
42
0.0000001000
43
0.0000001000
44
0.0000000001
12
0.2633031070
22
-0.1316515535
32
0.0000000000
13
0.0014016971
23
-0.2943784859
33
0.0000000000
40
0.0000000000
40
0.0000000000
40
0.0000000000
40
0.0000000000
40
0.0793146232
40
0.1637412334
40
0.2526761866
40
0.3452624229
40
0.4404596569
40
0.5371064943
40
0.6339774122
40
0.7298371586
40
0.8234947706
40
0.9138593500
40
1.0000000000
40
1.0000000000
40
1.0000000000
40
1.0000000000
10
13.6062710617
20
18.6355688341
30
0.0000000000
10
13.6132323239
20
18.6320882030
30
0.0000000000
10
13.6270995922
20
18.6238657394
30
0.0000000000
10
13.6467831210
20
18.6087073788
30
0.0000000000
10
13.6656600783
20
18.5906199370
30
0.0000000000
10
13.6833522306
20
18.5699680158
30
0.0000000000
10
13.6995095446
20
18.5471638646
30
0.0000000000
10
13.7138084893
20
18.5226647560
30
0.0000000000
10
13.7259625392
20
18.4969620375
30
0.0000000000
10
13.7357277150
20
18.4705717948
30
0.0000000000
10
13.7429079486
20
18.4440213185
30
0.0000000000
10
13.7473585578
20
18.4178459848
30
0.0000000000
10
13.7484749217
20
18.4005200335
30
0.0000000000
10
13.7485151694
20
18.3920673821
30
0.0000000000
11
13.6062710617
21
18.6355688341
31
0.0000000000
11
13.6264057935
21
18.6237468944
31
0.0000000000
11
13.6461473892
21
18.6086480935
31
0.0000000000
11
13.6650939666
21
18.5905797994
31
0.0000000000
11
13.6828598282
21
18.5699098304
31
0.0000000000
11
13.6990833122
21
18.5470589675
31
0.0000000000
11
13.7134341553
21
18.5224923883
31
0.0000000000
11
13.7256202157
21
18.4967101977
31
0.0000000000
11
13.7353934203
21
18.4702372466
31
0.0000000000
11
13.7425548149
21
18.4436124479
31
0.0000000000
11
13.7469586141
21
18.4173778059
31
0.0000000000
11
13.7485151694
21
18.3920673821
31
0.0000000000
0
SPLINE
5
38B
100
AcDbEntity
8
0
100
AcDbSpline
62
9
6
CONTINUOUS
70
0
71
3
72
18
73
14
74
12
42
0.0000001000
43
0.0000001000
44
0.0000000001
12
0.3245465297
22
-0.1622732649
32
0.0000000000
13
0.3252956663
23
0.1607662650
33
0.0000000000
40
0.0000000000
40
0.0000000000
40
0.0000000000
40
0.0000000000
40
0.0806602437
40
0.1671780028
40
0.2585287416
40
0.3534787968
40
0.4506549529
40
0.5486020717
40
0.6458367763
40
0.7409024534
40
0.8324161725
40
0.9191443834
40
1.0000000000
40
1.0000000000
40
1.0000000000
40
1.0000000000
10
19.8910850635
20
-27.4945447155
30
0.0000000000
10
19.8998110642
20
-27.4989077159
30
0.0000000000
10
19.9184366762
20
-27.5068922724
30
0.0000000000
10
19.9482660259
20
-27.5164008424
30
0.0000000000
10
19.9804803547
20
-27.5237183641
30
0.0000000000
10
20.0144362849
20
-27.5286967187
30
0.0000000000
10
20.0494593442
20
-27.5312366067
30
0.0000000000
10
20.0848498631
20
-27.5312866161
30
0.0000000000
10
20.1199010247
20
-27.5288457569
30
0.0000000000
10
20.1539119984
20
-27.5239635540
30
0.0000000000
10
20.1862073705
20
-27.5167375446
30
0.0000000000
10
20.2161361972
20
-27.5073160625
30
0.0000000000
10
20.2348396959
20
-27.4993903912
30
0.0000000000
10
20.2436070231
20
-27.4950574394
30
0.0000000000
11
19.8910850635
21
-27.4945447155
31
0.0000000000
11
19.9179385536
21
-27.5061851544
31
0.0000000000
11
19.9478219537
21
-27.5158040368
31
0.0000000000
11
19.9801316783
21
-27.5232070332
31
0.0000000000
11
20.0142144427
21
-27.5282444155
31
0.0000000000
11
20.0493814247
21
-27.5308143773
31
0.0000000000
11
20.0849218976
21
-27.5308649799
31
0.0000000000
11
20.1201173560
21
-27.5283952248
31
0.0000000000
11
20.1542567349
21
-27.5234550338
31
0.0000000000
11
20.1866481923
21
-27.5161447573
31
0.0000000000
11
20.2166392809
21
-27.5066118915
31
0.0000000000
11
20.2436070231
21
-27.4950574394
31
0.0000000000
0
SPLINE
5
38C
100
AcDbEntity
8
0
100
AcDbSpline
62
9
6
CONTINUOUS
70
0
71
3
72
18
73
14
74
12
42
0.0000001000
43
0.0000001000
44
0.0000000001
12
0.3245465336
22
-0.1622732668
32
0.0000000000
13
0.3252956702
23
0.1607662669
33
0.0000000000
40
0.0000000000
40
0.0000000000
40
0.0000000000
40
0.0000000000
40
0.0805551721
40
0.1670661703
40
0.2584105715
40
0.3533608806
40
0.4505383769
40
0.5484896854
40
0.6457313776
40
0.7408057878
40
0.8323347676
40
0.9190782196
40
1.0000000000
40
1.0000000000
40
1.0000000000
40
1.0000000000
10
19.8910850635
20
-27.8345186497
30
0.0000000000
10
19.8997996974
20
-27.8388759667
30
0.0000000000
10
19.9184121504
20
-27.8468565316
30
0.0000000000
10
19.9482268287
20
-27.8563641374
30
0.0000000000
10
19.9804388927
20
-27.8636846065
30
0.0000000000
10
20.0143938000
20
-27.8686660514
30
0.0000000000
10
20.0494173411
20
-27.8712090257
30
0.0000000000
10
20.0848093741
20
-27.8712619637
30
0.0000000000
10
20.1198631385
20
-27.8688237556
30
0.0000000000
10
20.1538782129
20
-27.8639437351
30
0.0000000000
10
20.1861787991
20
-27.8567192378
30
0.0000000000
10
20.2161195039
20
-27.8472965456
30
0.0000000000
10
20.2348325215
20
-27.8393678710
30
0.0000000000
10
20.2436070231
20
-27.8350313735
30
0.0000000000
11
19.8910850635
21
-27.8345186497
31
0.0000000000
11
19.9179028075
21
-27.8461456920
31
0.0000000000
11
19.9477827711
21
-27.8557672446
31
0.0000000000
11
19.9800894907
21
-27.8631730602
31
0.0000000000
11
20.0141718714
21
-27.8682136711
31
0.0000000000
11
20.0493391141
21
-27.8707867415
31
0.0000000000
11
20.0848811033
21
-27.8708403076
31
0.0000000000
11
20.1200792913
21
-27.8683732254
31
0.0000000000
11
20.1542222038
21
-27.8634353249
31
0.0000000000
11
20.1866196428
21
-27.8561263985
31
0.0000000000
11
20.2166167377
21
-27.8465941714
31
0.0000000000
11
20.2436070231
21
-27.8350313735
31
0.0000000000
0
SPLINE
5
38D
100
AcDbEntity
8
0
100
AcDbSpline
62
9
6
CONTINUOUS
70
0
71
3
72
18
73
14
74
12
42
0.0000001000
43
0.0000001000
44
0.0000000001
12
-0.1868959021
22
0.3018192785
32
0.0000000000
13
-0.3165685944
23
0.1606526692
33
0.0000000000
40
0.0000000000
40
0.0000000000
40
0.0000000000
40
0.0000000000
40
0.0724312684
40
0.1534121140
40
0.2416012311
40
0.3354422156
40
0.4332240419
40
0.5331331639
40
0.6333021542
40
0.7318570661
40
0.8269646634
40
0.9168805534
40
1.0000000000
40
1.0000000000
40
1.0000000000
40
1.0000000000
10
20.2436070231
20
-27.4950574394
30
0.0000000000
10
20.2390946541
20
-27.4877703883
30
0.0000000000
10
20.2288379212
20
-27.4727663313
30
0.0000000000
10
20.2111785954
20
-27.4502643262
30
0.0000000000
10
20.1906510815
20
-27.4268524062
30
0.0000000000
10
20.1676644764
20
-27.4030055180
30
0.0000000000
10
20.1426777623
20
-27.3792053090
30
0.0000000000
10
20.1161937139
20
-27.3559335557
30
0.0000000000
10
20.0887464366
20
-27.3336606072
30
0.0000000000
10
20.0608905726
20
-27.3128359905
30
0.0000000000
10
20.0331887522
20
-27.2938781541
30
0.0000000000
10
20.0062021967
20
-27.2771674815
30
0.0000000000
10
19.9882444133
20
-27.2673016620
30
0.0000000000
10
19.9794734111
20
-27.2628505417
30
0.0000000000
11
20.2436070231
21
-27.4950574394
31
0.0000000000
11
20.2291962867
21
-27.4737620416
31
0.0000000000
11
20.2115133768
21
-27.4510954712
31
0.0000000000
11
20.1909169367
21
-27.4275174495
31
0.0000000000
11
20.1678247016
21
-27.4035061842
31
0.0000000000
11
20.1427050264
21
-27.3795486697
31
0.0000000000
11
20.1160673862
21
-27.3561308103
31
0.0000000000
11
20.0884520435
21
-27.3337275651
31
0.0000000000
11
20.0604190903
21
-27.3127933149
31
0.0000000000
11
20.0325370888
21
-27.2937526465
31
0.0000000000
11
20.0053715392
21
-27.2769917410
31
0.0000000000
11
19.9794734111
21
-27.2628505417
31
0.0000000000
0
SPLINE
5
38E
100
AcDbEntity
8
0
100
AcDbSpline
62
7
6
CONTINUOUS
70
0
71
3
72
22
73
18
74
16
42
0.0000001000
43
0.0000001000
44
0.0000000001
12
-0.3676327130
22
0.0767686124
32
0.0000000000
13
-0.3359133597
23
0.1679566799
33
0.0000000000
40
0.0000000000
40
0.0000000000
40
0.0000000000
40
0.0000000000
40
0.0484860306
40
0.1017719328
40
0.1595328658
40
0.2213818258
40
0.2868708470
40
0.3554921096
40
0.4266769445
40
0.4997945492
40
0.5741501667
40
0.6489832730
40
0.7234666436
40
0.7967075626
40
0.8677548451
40
0.9356080525
40
1.0000000000
40
1.0000000000
40
1.0000000000
40
1.0000000000
10
20.9548276312
20
-26.6435609623
30
0.0000000000
10
20.9488859476
20
-26.6423202272
30
0.0000000000
10
20.9364503666
20
-26.6395421974
30
0.0000000000
10
20.9170597078
20
-26.6347551890
30
0.0000000000
10
20.8961493393
20
-26.6291614588
30
0.0000000000
10
20.8738701406
20
-26.6227872778
30
0.0000000000
10
20.8503933500
20
-26.6156676686
30
0.0000000000
10
20.8259109101
20
-26.6078468323
30
0.0000000000
10
20.8006356038
20
-26.5993783999
30
0.0000000000
10
20.7748016050
20
-26.5903259586
30
0.0000000000
10
20.7486650899
20
-26.5807635782
30
0.0000000000
10
20.7225046173
20
-26.5707767688
30
0.0000000000
10
20.6966217439
20
-26.5604621699
30
0.0000000000
10
20.6713382948
20
-26.5499316799
30
0.0000000000
10
20.6470008307
20
-26.5392992378
30
0.0000000000
10
20.6238664910
20
-26.5286877013
30
0.0000000000
10
20.6090014817
20
-26.5213961435
30
0.0000000000
10
20.6017914432
20
-26.5177911242
30
0.0000000000
11
20.9548276312
21
-26.6435609623
31
0.0000000000
11
20.9370517467
21
-26.6396106225
31
0.0000000000
11
20.9176190875
21
-26.6348294632
31
0.0000000000
11
20.8966598839
21
-26.6292356055
31
0.0000000000
11
20.8743250733
21
-26.6228556883
31
0.0000000000
11
20.8507861825
21
-26.6157250737
31
0.0000000000
11
20.8262351172
21
-26.6078880238
31
0.0000000000
11
20.8008846293
21
-26.5993981074
31
0.0000000000
11
20.7749688316
21
-26.5903186857
31
0.0000000000
11
20.7487438631
21
-26.5807235297
31
0.0000000000
11
20.7224885221
21
-26.5706975289
31
0.0000000000
11
20.6965045686
21
-26.5603374076
31
0.0000000000
11
20.6711162744
21
-26.5497522947
31
0.0000000000
11
20.6466679944
21
-26.5390636079
31
0.0000000000
11
20.6235211155
21
-26.5284047338
31
0.0000000000
11
20.6017914432
21
-26.5177911242
31
0.0000000000
0
SPLINE
5
38F
100
AcDbEntity
8
0
100
AcDbSpline
62
9
6
CONTINUOUS
70
0
71
3
72
15
73
11
74
9
42
0.0000001000
43
0.0000001000
44
0.0000000001
12
0.0000000000
22
0.2525633806
32
0.0000000000
13
0.1611233069
23
0.1944930364
33
0.0000000000
40
0.0000000000
40
0.0000000000
40
0.0000000000
40
0.0000000000
40
0.1150569247
40
0.2353154471
40
0.3597619254
40
0.4872014800
40
0.6163302140
40
0.7457729725
40
0.8741534281
40
1.0000000000
40
1.0000000000
40
1.0000000000
40
1.0000000000
10
19.8910850635
20
-27.4945447155
30
0.0000000000
10
19.8910850635
20
-27.4848583269
30
0.0000000000
10
19.8921673008
20
-27.4650364875
30
0.0000000000
10
19.8967279315
20
-27.4350535827
30
0.0000000000
10
19.9041865232
20
-27.4045833579
30
0.0000000000
10
19.9144164150
20
-27.3741434152
30
0.0000000000
10
19.9272440775
20
-27.3442469235
30
0.0000000000
10
19.9424530588
20
-27.3153987096
30
0.0000000000
10
19.9597782051
20
-27.2880982491
30
0.0000000000
10
19.9727144725
20
-27.2710093024
30
0.0000000000
10
19.9794734111
20
-27.2628505417
30
0.0000000000
11
19.8910850635
21
-27.4945447155
31
0.0000000000
11
19.8925978044
21
-27.4655249510
31
0.0000000000
11
19.8971101374
21
-27.4354891083
31
0.0000000000
11
19.9045450487
21
-27.4049505070
31
0.0000000000
11
19.9147750613
21
-27.3744329417
31
0.0000000000
11
19.9276252807
21
-27.3444580856
31
0.0000000000
11
19.9428751109
21
-27.3155402316
31
0.0000000000
11
19.9602639923
21
-27.2881731771
31
0.0000000000
11
19.9794734111
21
-27.2628505417
31
0.0000000000
0
SPLINE
5
390
100
AcDbEntity
8
0
100
AcDbSpline
62
9
6
CONTINUOUS
70
0
71
3
72
18
73
14
74
12
42
0.0000001000
43
0.0000001000
44
0.0000000001
12
0.2604604098
22
-0.1302302049
32
0.0000000000
13
0.2604604098
23
0.1302302049
33
0.0000000000
40
0.0000000000
40
0.0000000000
40
0.0000000000
40
0.0000000000
40
0.0807217251
40
0.1673236997
40
0.2587701252
40
0.3538164207
40
0.4510764237
40
0.5490821470
40
0.6463380921
40
0.7413783739
40
0.8328117125
40
0.9193994957
40
1.0000000000
40
1.0000000000
40
1.0000000000
40
1.0000000000
10
13.4656724569
20
18.3920673821
30
0.0000000000
10
13.4726807281
20
18.3885632465
30
0.0000000000
10
13.4876431718
20
18.3821530570
30
0.0000000000
10
13.5116089126
20
18.3745277011
30
0.0000000000
10
13.5374930087
20
18.3686693727
30
0.0000000000
10
13.5647745407
20
18.3646975461
30
0.0000000000
10
13.5929075874
20
18.3626920086
30
0.0000000000
10
13.6213258750
20
18.3626936411
30
0.0000000000
10
13.6494577136
20
18.3647023735
30
0.0000000000
10
13.6767365478
20
18.3686771573
30
0.0000000000
10
13.7026167442
20
18.3745380456
30
0.0000000000
10
13.7265677378
20
18.3821622524
30
0.0000000000
10
13.7415174226
20
18.3885685087
30
0.0000000000
10
13.7485151694
20
18.3920673821
30
0.0000000000
11
13.4656724569
21
18.3920673821
31
0.0000000000
11
13.4872416467
21
18.3827226760
31
0.0000000000
11
13.5112515137
21
18.3750081143
31
0.0000000000
11
13.5372130084
21
18.3690808443
31
0.0000000000
11
13.5645974420
21
18.3650615590
31
0.0000000000
11
13.5928470993
21
18.3630320940
31
0.0000000000
11
13.6213867178
21
18.3630337460
31
0.0000000000
11
13.6496349588
21
18.3650664298
31
0.0000000000
11
13.6770171722
21
18.3690887814
31
0.0000000000
11
13.7029741956
21
18.3750185134
31
0.0000000000
11
13.7269790813
21
18.3827350679
31
0.0000000000
11
13.7485151694
21
18.3920673821
31
0.0000000000
0
SPLINE
5
391
100
AcDbEntity
8
0
100
AcDbSpline
62
9
6
CONTINUOUS
70
0
71
3
72
8
73
4
74
2
42
0.0000001000
43
0.0000001000
44
0.0000000001
12
0.0000002587
22
-0.0029564082
32
0.0000000000
13
-0.0001377679
23
-0.0029528992
33
0.0000000000
40
0.0000000000
40
0.0000000000
40
0.0000000000
40
0.0000000000
40
1.0000000000
40
1.0000000000
40
1.0000000000
40
1.0000000000
10
22.4453479139
20
-26.6961130658
30
0.0000000000
10
22.4453480002
20
-26.6970985352
30
0.0000000000
10
22.4453250935
20
-26.6980839939
30
0.0000000000
10
22.4452791708
20
-26.6990682936
30
0.0000000000
11
22.4453479139
21
-26.6961130658
31
0.0000000000
11
22.4452791708
21
-26.6990682936
31
0.0000000000
0
SPLINE
5
392
100
AcDbEntity
8
0
100
AcDbSpline
62
9
6
CONTINUOUS
70
0
71
3
72
13
73
9
74
7
42
0.0000001000
43
0.0000001000
44
0.0000000001
12
-0.0054440431
22
-0.1166869378
32
0.0000000000
13
-0.1038787015
23
-0.0525472359
33
0.0000000000
40
0.0000000000
40
0.0000000000
40
0.0000000000
40
0.0000000000
40
0.0477737895
40
0.2047810558
40
0.3741969747
40
0.5616266644
40
0.7699981653
40
1.0000000000
40
1.0000000000
40
1.0000000000
40
1.0000000000
10
22.4452791708
20
-26.6990682936
30
0.0000000000
10
22.4451924767
20
-26.7009264860
30
0.0000000000
10
22.4444692593
20
-26.7088738733
30
0.0000000000
10
22.4403885220
20
-26.7229981281
30
0.0000000000
10
22.4301228414
20
-26.7402986833
30
0.0000000000
10
22.4151780252
20
-26.7565255116
30
0.0000000000
10
22.3959046637
20
-26.7714438721
30
0.0000000000
10
22.3811190830
20
-26.7799570617
30
0.0000000000
10
22.3731549857
20
-26.7839857152
30
0.0000000000
11
22.4452791708
21
-26.6990682936
31
0.0000000000
11
22.4447728538
21
-26.7046227553
31
0.0000000000
11
22.4398386895
21
-26.7222218493
31
0.0000000000
11
22.4299628884
21
-26.7392933056
31
0.0000000000
11
22.4153450357
21
-26.7554920251
31
0.0000000000
11
22.3962805815
21
-26.7704905725
31
0.0000000000
11
22.3731549857
21
-26.7839857152
31
0.0000000000
0
SPLINE
5
393
100
AcDbEntity
8
0
100
AcDbSpline
62
7
6
CONTINUOUS
70
0
71
3
72
17
73
13
74
11
42
0.0000001000
43
0.0000001000
44
0.0000000001
12
-0.2546551481
22
-0.1436729099
32
0.0000000000
13
-0.2615204000
23
0.1307602000
33
0.0000000000
40
0.0000000000
40
0.0000000000
40
0.0000000000
40
0.0000000000
40
0.0908404133
40
0.1881219793
40
0.2904656387
40
0.3961985535
40
0.5035170354
40
0.6105103721
40
0.7153126918
40
0.8161547060
40
0.9114736163
40
1.0000000000
40
1.0000000000
40
1.0000000000
40
1.0000000000
10
13.7485151694
20
17.1675303241
30
0.0000000000
10
13.7408041764
20
17.1631798886
30
0.0000000000
10
13.7242359074
20
17.1552110047
30
0.0000000000
10
13.6975128035
20
17.1457347883
30
0.0000000000
10
13.6686011656
20
17.1384980613
30
0.0000000000
10
13.6382045170
20
17.1336773382
30
0.0000000000
10
13.6070600875
20
17.1313878731
30
0.0000000000
10
13.5759234614
20
17.1316839705
30
0.0000000000
10
13.5455503478
20
17.1345559882
30
0.0000000000
10
13.5166698527
20
17.1399335452
30
0.0000000000
10
13.4899797632
20
17.1476836939
30
0.0000000000
10
13.4733896087
20
17.1545944546
30
0.0000000000
10
13.4656724569
20
17.1584530305
30
0.0000000000
11
13.7485151694
21
17.1675303241
31
0.0000000000
11
13.7246308479
21
17.1559109220
31
0.0000000000
11
13.6978514612
21
17.1463230495
31
0.0000000000
11
13.6688367229
21
17.1390019521
31
0.0000000000
11
13.6383081972
21
17.1341282383
31
0.0000000000
11
13.6070145102
21
17.1318198496
31
0.0000000000
11
13.5757324292
21
17.1321323781
31
0.0000000000
11
13.5452292089
21
17.1350560459
31
0.0000000000
11
13.5162543139
21
17.1405172291
31
0.0000000000
11
13.4895165392
21
17.1483809358
31
0.0000000000
11
13.4656724569
21
17.1584530305
31
0.0000000000
0
SPLINE
5
394
100
AcDbEntity
8
0
100
AcDbSpline
62
9
6
CONTINUOUS
70
0
71
3
72
18
73
14
74
12
42
0.0000001000
43
0.0000001000
44
0.0000000001
12
0.3281370796
22
-0.1660023734
32
0.0000000000
13
0.0017610813
23
-0.3677330956
33
0.0000000000
40
0.0000000000
40
0.0000000000
40
0.0000000000
40
0.0000000000
40
0.0790239223
40
0.1633139850
40
0.2521665569
40
0.3447256299
40
0.4399390534
40
0.5366395780
40
0.6335921752
40
0.7295513444
40
0.8233146865
40
0.9137790332
40
1.0000000000
40
1.0000000000
40
1.0000000000
40
1.0000000000
10
20.0668333195
20
14.4494101729
30
0.0000000000
10
20.0754768791
20
14.4450374534
30
0.0000000000
10
20.0927058726
20
14.4347116282
30
0.0000000000
10
20.1171577914
20
14.4157022368
30
0.0000000000
10
20.1406179508
20
14.3930263444
30
0.0000000000
10
20.1626066320
20
14.3671482092
30
0.0000000000
10
20.1826887055
20
14.3385841625
30
0.0000000000
10
20.2004615872
20
14.3079074500
30
0.0000000000
10
20.2155690684
20
14.2757333093
30
0.0000000000
10
20.2277077188
20
14.2427080321
30
0.0000000000
10
20.2366337368
20
14.2094917772
30
0.0000000000
10
20.2421672506
20
14.1767546031
30
0.0000000000
10
20.2435564091
20
14.1550894018
30
0.0000000000
10
20.2436070231
20
14.1445206341
30
0.0000000000
11
20.0668333195
21
14.4494101729
31
0.0000000000
11
20.0918241921
21
14.4345797148
31
0.0000000000
11
20.1163595167
21
14.4156375098
31
0.0000000000
11
20.1399074606
21
14.3929855531
31
0.0000000000
11
20.1619897952
21
14.3670834918
31
0.0000000000
11
20.1821553880
21
14.3384601439
31
0.0000000000
11
20.1999940233
21
14.3076977561
31
0.0000000000
11
20.2151423224
21
14.2754228171
31
0.0000000000
11
20.2272917835
21
14.2422925124
31
0.0000000000
11
20.2361949615
21
14.2089815068
31
0.0000000000
11
20.2416705442
21
14.1761681104
31
0.0000000000
11
20.2436070231
21
14.1445206341
31
0.0000000000
0
SPLINE
5
395
100
AcDbEntity
8
0
100
AcDbSpline
62
7
6
CONTINUOUS
70
0
71
3
72
15
73
11
74
9
42
0.0000001000
43
0.0000001000
44
0.0000000001
12
0.1708106307
22
0.3465374803
32
0.0000000000
13
-0.1211274767
23
0.3668686839
33
0.0000000000
40
0.0000000000
40
0.0000000000
40
0.0000000000
40
0.0000000000
40
0.1045967298
40
0.2153592470
40
0.3324738237
40
0.4558021131
40
0.5849344065
40
0.7192395231
40
0.8579095852
40
1.0000000000
40
1.0000000000
40
1.0000000000
40
1.0000000000
10
17.8143791612
20
15.8211194950
30
0.0000000000
10
17.8203345723
20
15.8332017240
30
0.0000000000
10
17.8307899212
20
15.8589978998
30
0.0000000000
10
17.8417598735
20
15.9004830996
30
0.0000000000
10
17.8483470186
20
15.9453184438
30
0.0000000000
10
17.8504797558
20
15.9929381973
30
0.0000000000
10
17.8481423834
20
16.0427558423
30
0.0000000000
10
17.8413678437
20
16.0941529689
30
0.0000000000
10
17.8302437725
20
16.1464863381
30
0.0000000000
10
17.8201161790
20
16.1812350423
30
0.0000000000
10
17.8143791612
20
16.1986112167
30
0.0000000000
11
17.8143791612
21
15.8211194950
31
0.0000000000
11
17.8297004492
21
15.8585131143
31
0.0000000000
11
17.8407836892
21
15.8998457729
31
0.0000000000
11
17.8474897566
21
15.9445929990
31
0.0000000000
11
17.8497345003
21
15.9921876863
31
0.0000000000
11
17.8474897566
21
16.0420271173
31
0.0000000000
11
17.8407836892
21
16.0934804108
31
0.0000000000
11
17.8297004492
21
16.1458963095
31
0.0000000000
11
17.8143791612
21
16.1986112167
31
0.0000000000
0
SPLINE
5
396
100
AcDbEntity
8
0
100
AcDbSpline
62
7
6
CONTINUOUS
70
0
71
3
72
9
73
5
74
3
42
0.0000001000
43
0.0000001000
44
0.0000000001
12
0.0305169333
22
0.0150410226
32
0.0000000000
13
0.0317561143
23
0.0122092091
33
0.0000000000
40
0.0000000000
40
0.0000000000
40
0.0000000000
40
0.0000000000
40
0.5062732526
40
1.0000000000
40
1.0000000000
40
1.0000000000
40
1.0000000000
10
17.4982379883
20
22.1716127040
30
0.0000000000
10
17.5033879573
20
22.1741509931
30
0.0000000000
10
17.5136695417
20
22.1789464049
30
0.0000000000
10
17.5241586469
20
22.1832703599
30
0.0000000000
10
17.5293849279
20
22.1852796976
30
0.0000000000
11
17.4982379883
21
22.1716127040
31
0.0000000000
11
17.5138517299
21
22.1788857302
31
0.0000000000
11
17.5293849279
21
22.1852796976
31
0.0000000000
0
SPLINE
5
397
100
AcDbEntity
8
0
100
AcDbSpline
62
7
6
CONTINUOUS
70
0
71
3
72
10
73
6
74
4
42
0.0000001000
43
0.0000001000
44
0.0000000001
12
5.2665313906
22
2.7420195129
32
0.0000000000
13
5.2768701529
23
2.7220700371
33
0.0000000000
40
0.0000000000
40
0.0000000000
40
0.0000000000
40
0.0000000000
40
0.3227146047
40
0.6560905502
40
1.0000000000
40
1.0000000000
40
1.0000000000
40
1.0000000000
10
17.8143791612
20
16.1986112167
30
0.0000000000
10
18.3809080265
20
16.4935744645
30
0.0000000000
10
19.5332461211
20
17.0921619413
30
0.0000000000
10
21.2908506380
20
18.0021359728
30
0.0000000000
10
22.4819044813
20
18.6171832932
30
0.0000000000
10
23.0868263183
20
18.9292318295
30
0.0000000000
11
17.8143791612
21
16.1986112167
31
0.0000000000
11
19.5147167370
21
17.0820570745
31
0.0000000000
11
21.2724953506
21
17.9922443160
31
0.0000000000
11
23.0868263183
21
18.9292318295
31
0.0000000000
0
SPLINE
5
398
100
AcDbEntity
8
0
100
AcDbSpline
62
7
6
CONTINUOUS
70
0
71
3
72
15
73
11
74
9
42
0.0000001000
43
0.0000001000
44
0.0000000001
12
0.0000000000
22
-0.2964443480
32
0.0000000000
13
-0.2503654235
23
-0.1595121428
33
0.0000000000
40
0.0000000000
40
0.0000000000
40
0.0000000000
40
0.0000000000
40
0.1597277936
40
0.3122295795
40
0.4561792629
40
0.5915968972
40
0.7204753723
40
0.8433853176
40
0.9613218016
40
1.0000000000
40
1.0000000000
40
1.0000000000
40
1.0000000000
10
22.5513774654
20
-25.3728800450
30
0.0000000000
10
22.5513774654
20
-25.3886635122
30
0.0000000000
10
22.5500069289
20
-25.4195405523
30
0.0000000000
10
22.5434930181
20
-25.4642270029
30
0.0000000000
10
22.5326289981
20
-25.5055999546
30
0.0000000000
10
22.5175428506
20
-25.5431401965
30
0.0000000000
10
22.4983679495
20
-25.5764139670
30
0.0000000000
10
22.4752890022
20
-25.6049493877
30
0.0000000000
10
22.4543986322
20
-25.6232388587
30
0.0000000000
10
22.4415803692
20
-25.6319613048
30
0.0000000000
10
22.4383524746
20
-25.6340178522
30
0.0000000000
11
22.5513774654
21
-25.3728800450
31
0.0000000000
11
22.5491670958
21
-25.4201788273
31
0.0000000000
11
22.5425176294
21
-25.4648954272
31
0.0000000000
11
22.5315392912
21
-25.5061321462
31
0.0000000000
11
22.5164292147
21
-25.5433236728
31
0.0000000000
11
22.4972213596
21
-25.5763494643
31
0.0000000000
11
22.4742062030
21
-25.6045962633
31
0.0000000000
11
22.4478437493
21
-25.6275600347
31
0.0000000000
11
22.4383524746
21
-25.6340178522
31
0.0000000000
0
SPLINE
5
399
100
AcDbEntity
8
0
100
AcDbSpline
62
7
6
CONTINUOUS
70
0
71
3
72
9
73
5
74
3
42
0.0000001000
43
0.0000001000
44
0.0000000001
12
-0.0269059507
22
-0.0171422467
32
0.0000000000
13
-0.0294159487
23
-0.0123457429
33
0.0000000000
40
0.0000000000
40
0.0000000000
40
0.0000000000
40
0.0000000000
40
0.7174389596
40
1.0000000000
40
1.0000000000
40
1.0000000000
40
1.0000000000
10
22.4383524746
20
-25.6340178522
30
0.0000000000
10
22.4319180156
20
-25.6381173574
30
0.0000000000
10
22.4226046194
20
-25.6432909642
30
0.0000000000
10
22.4128980528
20
-25.6476408316
30
0.0000000000
10
22.4101274524
20
-25.6488036402
30
0.0000000000
11
22.4383524746
21
-25.6340178522
31
0.0000000000
11
22.4183520569
21
-25.6451168575
31
0.0000000000
11
22.4101274524
21
-25.6488036402
31
0.0000000000
0
SPLINE
5
39A
100
AcDbEntity
8
0
100
AcDbSpline
62
7
6
CONTINUOUS
70
0
71
3
72
21
73
17
74
15
42
0.0000001000
43
0.0000001000
44
0.0000000001
12
0.6581164763
22
-0.3290582382
32
0.0000000000
13
0.0000000000
23
-0.7357965891
33
0.0000000000
40
0.0000000000
40
0.0000000000
40
0.0000000000
40
0.0000000000
40
0.0611257782
40
0.1262896845
40
0.1942985575
40
0.2646269109
40
0.3375493248
40
0.4122670187
40
0.4877330864
40
0.5637446124
40
0.6401128754
40
0.7157497463
40
0.7897383161
40
0.8622538569
40
0.9326465089
40
1.0000000000
40
1.0000000000
40
1.0000000000
40
1.0000000000
10
22.1984237167
20
13.1683240253
30
0.0000000000
10
22.2118330106
20
13.1616193783
30
0.0000000000
10
22.2387592465
20
13.1461752949
30
0.0000000000
10
22.2776505810
20
13.1185244313
30
0.0000000000
10
22.3156161337
20
13.0860264852
30
0.0000000000
10
22.3521128972
20
13.0491711261
30
0.0000000000
10
22.3867250324
20
13.0083618705
30
0.0000000000
10
22.4189934703
20
12.9641101111
30
0.0000000000
10
22.4484643368
20
12.9170546356
30
0.0000000000
10
22.4748200604
20
12.8677277772
30
0.0000000000
10
22.4977521958
20
12.8166724939
30
0.0000000000
10
22.5169208873
20
12.7646156195
30
0.0000000000
10
22.5320939661
20
12.7122388955
30
0.0000000000
10
22.5431051461
20
12.6601406097
30
0.0000000000
10
22.5498064650
20
12.6089548170
30
0.0000000000
10
22.5513774654
20
12.5751557470
30
0.0000000000
10
22.5513774654
20
12.5586362573
30
0.0000000000
11
22.1984237167
21
13.1683240253
31
0.0000000000
11
22.2375122629
21
13.1460768086
31
0.0000000000
11
22.2766474482
21
13.1183750304
31
0.0000000000
11
22.3147218797
21
13.0859033659
31
0.0000000000
11
22.3511826251
21
13.0491827508
31
0.0000000000
11
22.3859298826
21
13.0082975305
31
0.0000000000
11
22.4183520568
21
12.9638984784
31
0.0000000000
11
22.4478437493
21
12.9168499631
31
0.0000000000
11
22.4742062030
21
12.8675237380
31
0.0000000000
11
22.4972213595
21
12.8162617825
31
0.0000000000
11
22.5164292147
21
12.7640281358
31
0.0000000000
11
22.5315392912
21
12.7117265328
31
0.0000000000
11
22.5425176294
21
12.6595114755
31
0.0000000000
11
22.5491670958
21
12.6081454092
31
0.0000000000
11
22.5513774654
21
12.5586362573
31
0.0000000000
0
SPLINE
5
39B
100
AcDbEntity
8
0
100
AcDbSpline
62
7
6
CONTINUOUS
70
0
71
3
72
21
73
17
74
15
42
0.0000001000
43
0.0000001000
44
0.0000000001
12
0.3505791315
22
-0.0732522915
32
0.0000000000
13
0.2294504071
23
0.2747095956
33
0.0000000000
40
0.0000000000
40
0.0000000000
40
0.0000000000
40
0.0000000000
40
0.0164580666
40
0.0852500179
40
0.1561791722
40
0.2291427435
40
0.3039209954
40
0.3802154819
40
0.4576770501
40
0.5359263103
40
0.6145684867
40
0.6932044110
40
0.7714391372
40
0.8488892033
40
0.9251895078
40
1.0000000000
40
1.0000000000
40
1.0000000000
40
1.0000000000
10
8.3373308148
20
19.6702174555
30
0.0000000000
10
8.3392540997
20
19.6698155918
30
0.0000000000
10
8.3492499641
20
19.6678958225
30
0.0000000000
10
8.3678228582
20
19.6658811963
30
0.0000000000
10
8.3932469146
20
19.6660603933
30
0.0000000000
10
8.4192191020
20
19.6689440502
30
0.0000000000
10
8.4454280657
20
19.6743722609
30
0.0000000000
10
8.4715861094
20
19.6821753587
30
0.0000000000
10
8.4974266336
20
19.6921740635
30
0.0000000000
10
8.5227041500
20
19.7041824224
30
0.0000000000
10
8.5471932788
20
19.7180093011
30
0.0000000000
10
8.5706880482
20
19.7334597724
30
0.0000000000
10
8.5930011497
20
19.7503359921
30
0.0000000000
10
8.6139640663
20
19.7684387025
30
0.0000000000
10
8.6334253441
20
19.7875662655
30
0.0000000000
10
8.6454478726
20
19.8010217868
30
0.0000000000
10
8.6511696386
20
19.8078721734
30
0.0000000000
11
8.3373308148
21
19.6702174555
31
0.0000000000
11
8.3431189284
21
19.6691049095
31
0.0000000000
11
8.3675896429
21
19.6663742046
31
0.0000000000
11
8.3929769473
21
19.6664902871
31
0.0000000000
11
8.4189391545
21
19.6693180022
31
0.0000000000
11
8.4451572170
21
19.6747025142
31
0.0000000000
11
8.4713358852
21
19.6824744413
31
0.0000000000
11
8.4972033295
21
19.6924539287
31
0.0000000000
11
8.5225101461
21
19.7044536453
31
0.0000000000
11
8.5470281569
21
19.7182808955
31
0.0000000000
11
8.5705492922
21
19.7337390947
31
0.0000000000
11
8.5928847444
21
19.7506288657
31
0.0000000000
11
8.6138644552
21
19.7687489733
31
0.0000000000
11
8.6333369890
21
19.7878973332
31
0.0000000000
11
8.6511696386
21
19.8078721734
31
0.0000000000
0
SPLINE
5
39C
100
AcDbEntity
8
0
100
AcDbSpline
62
7
6
CONTINUOUS
70
0
71
3
72
9
73
5
74
3
42
0.0000001000
43
0.0000001000
44
0.0000000001
12
0.0321079182
22
0.0160117315
32
0.0000000000
13
0.0335048459
23
0.0128343001
33
0.0000000000
40
0.0000000000
40
0.0000000000
40
0.0000000000
40
0.0000000000
40
0.5067221146
40
1.0000000000
40
1.0000000000
40
1.0000000000
40
1.0000000000
10
23.0888712303
20
19.3762960830
30
0.0000000000
10
23.0942944944
20
19.3790005824
30
0.0000000000
10
23.1051205812
20
19.3840943676
30
0.0000000000
10
23.1161807608
20
19.3886592459
30
0.0000000000
10
23.1216898274
20
19.3907695380
30
0.0000000000
11
23.0888712303
21
19.3762960830
31
0.0000000000
11
23.1053262370
21
19.3840270436
31
0.0000000000
11
23.1216898274
21
19.3907695380
31
0.0000000000
0
SPLINE
5
39D
100
AcDbEntity
8
0
100
AcDbSpline
62
7
6
CONTINUOUS
70
0
71
3
72
10
73
6
74
4
42
0.0000001000
43
0.0000001000
44
0.0000000001
12
-5.2681459399
22
-2.6122333457
32
0.0000000000
13
-5.2781914313
23
-2.5918757515
33
0.0000000000
40
0.0000000000
40
0.0000000000
40
0.0000000000
40
0.0000000000
40
0.3443158395
40
0.6777179116
40
1.0000000000
40
1.0000000000
40
1.0000000000
40
1.0000000000
10
23.0868263183
20
18.4246534430
30
0.0000000000
10
22.4821909542
20
18.1248423371
30
0.0000000000
10
21.2918297456
20
17.5352383793
30
0.0000000000
10
19.5344642476
20
16.6671538369
30
0.0000000000
10
18.3814013470
20
16.0995578717
30
0.0000000000
10
17.8143791612
20
15.8211194950
30
0.0000000000
11
23.0868263183
21
18.4246534430
31
0.0000000000
11
21.2724961372
21
17.5260759017
31
0.0000000000
11
19.5147191041
21
16.6579127062
31
0.0000000000
11
17.8143791612
21
15.8211194950
31
0.0000000000
0
SPLINE
5
39E
100
AcDbEntity
8
0
100
AcDbSpline
62
7
6
CONTINUOUS
70
0
71
3
72
21
73
17
74
15
42
0.0000001000
43
0.0000001000
44
0.0000000001
12
0.0000000000
22
0.7365912097
32
0.0000000000
13
-0.6588272066
23
0.3294136033
33
0.0000000000
40
0.0000000000
40
0.0000000000
40
0.0000000000
40
0.0000000000
40
0.0671656467
40
0.1373856236
40
0.2097479832
40
0.2836034046
40
0.3591286747
40
0.4354109953
40
0.5113620015
40
0.5867846672
40
0.6614776037
40
0.7343891860
40
0.8047136263
40
0.8727199773
40
0.9378800591
40
1.0000000000
40
1.0000000000
40
1.0000000000
40
1.0000000000
10
22.5523031365
20
12.5583862692
30
0.0000000000
10
22.5523031365
20
12.5748774776
30
0.0000000000
10
22.5507331852
20
12.6086244975
30
0.0000000000
10
22.5440362544
20
12.6597398131
30
0.0000000000
10
22.5330295992
20
12.7117825772
30
0.0000000000
10
22.5178590118
20
12.7641195512
30
0.0000000000
10
22.4986886531
20
12.8161530702
30
0.0000000000
10
22.4757485583
20
12.8672015248
30
0.0000000000
10
22.4493775198
20
12.9165357834
30
0.0000000000
10
22.4198835452
20
12.9636101889
30
0.0000000000
10
22.3875848580
20
13.0078890983
30
0.0000000000
10
22.3529358991
20
13.0487299370
30
0.0000000000
10
22.3163993007
20
13.0856192432
30
0.0000000000
10
22.2783897163
20
13.1181431397
30
0.0000000000
10
22.2392654774
20
13.1459782175
30
0.0000000000
10
22.2120658191
20
13.1615029741
30
0.0000000000
10
22.1984237167
20
13.1683240253
30
0.0000000000
11
22.5523031365
21
12.5583862692
31
0.0000000000
11
22.5500949085
21
12.6078105881
31
0.0000000000
11
22.5434501774
21
12.6591054172
31
0.0000000000
11
22.5324766196
21
12.7112650624
31
0.0000000000
11
22.5173694404
21
12.7635266123
31
0.0000000000
11
22.4981604250
21
12.8157362829
31
0.0000000000
11
22.4751373864
21
12.8669918259
31
0.0000000000
11
22.4487588495
21
12.9163273944
31
0.0000000000
11
22.4192444139
21
12.9633946956
31
0.0000000000
11
22.3867912033
21
13.0078220194
31
0.0000000000
11
22.3520061313
21
13.0487406764
31
0.0000000000
11
22.3155040235
21
13.0854949129
31
0.0000000000
11
22.2773872955
21
13.1179974005
31
0.0000000000
11
22.2382108592
21
13.1457256502
31
0.0000000000
11
22.1984237167
21
13.1683240253
31
0.0000000000
0
SPLINE
5
39F
100
AcDbEntity
8
0
100
AcDbSpline
62
9
6
CONTINUOUS
70
0
71
3
72
8
73
4
74
2
42
0.0000001000
43
0.0000001000
44
0.0000000001
12
0.0016923813
22
0.0008237107
32
0.0000000000
13
0.0017086246
23
0.0007896457
33
0.0000000000
40
0.0000000000
40
0.0000000000
40
0.0000000000
40
0.0000000000
40
1.0000000000
40
1.0000000000
40
1.0000000000
40
1.0000000000
10
8.0913322597
20
22.5205732882
30
0.0000000000
10
8.0918963868
20
22.5208478585
30
0.0000000000
10
8.0924632836
20
22.5211167693
30
0.0000000000
10
8.0930328251
20
22.5213799845
30
0.0000000000
11
8.0913322597
21
22.5205732882
31
0.0000000000
11
8.0930328251
21
22.5213799845
31
0.0000000000
0
SPLINE
5
3A0
100
AcDbEntity
8
0
100
AcDbSpline
62
9
6
CONTINUOUS
70
0
71
3
72
12
73
8
74
6
42
0.0000001000
43
0.0000001000
44
0.0000000001
12
0.1026343110
22
0.0474327350
32
0.0000000000
13
0.1006631152
23
-0.0509164083
33
0.0000000000
40
0.0000000000
40
0.0000000000
40
0.0000000000
40
0.0000000000
40
0.1289665449
40
0.3274516382
40
0.5364108036
40
0.7599383472
40
1.0000000000
40
1.0000000000
40
1.0000000000
40
1.0000000000
10
8.0930328251
20
22.5213799845
30
0.0000000000
10
8.0974449559
20
22.5234190632
30
0.0000000000
10
8.1090505396
20
22.5277284972
30
0.0000000000
10
8.1291245702
20
22.5310003409
30
0.0000000000
10
8.1529787713
20
22.5297669557
30
0.0000000000
10
8.1776689265
20
22.5237478332
30
0.0000000000
10
8.1937886203
20
22.5169141274
30
0.0000000000
10
8.2018437382
20
22.5128397684
30
0.0000000000
11
8.0930328251
21
22.5213799845
31
0.0000000000
11
8.1066872625
21
22.5264549445
31
0.0000000000
11
8.1287695971
21
22.5301576779
31
0.0000000000
11
8.1523175410
21
22.5290892181
31
0.0000000000
11
8.1768528656
21
22.5232716533
31
0.0000000000
11
8.2018437382
21
22.5128397684
31
0.0000000000
0
SPLINE
5
3A1
100
AcDbEntity
8
0
100
AcDbSpline
62
7
6
CONTINUOUS
70
0
71
3
72
8
73
4
74
2
42
0.0000001000
43
0.0000001000
44
0.0000000001
12
0.0016500710
22
0.0008031249
32
0.0000000000
13
0.0016654853
23
0.0007708221
33
0.0000000000
40
0.0000000000
40
0.0000000000
40
0.0000000000
40
0.0000000000
40
1.0000000000
40
1.0000000000
40
1.0000000000
40
1.0000000000
10
7.5564622841
20
22.2600212036
30
0.0000000000
10
7.5570123077
20
22.2602889119
30
0.0000000000
10
7.5575649584
20
22.2605512521
30
0.0000000000
10
7.5581201202
20
22.2608081928
30
0.0000000000
11
7.5564622841
21
22.2600212036
31
0.0000000000
11
7.5581201202
21
22.2608081928
31
0.0000000000
0
SPLINE
5
3A2
100
AcDbEntity
8
0
100
AcDbSpline
62
7
6
CONTINUOUS
70
0
71
3
72
12
73
8
74
6
42
0.0000001000
43
0.0000001000
44
0.0000000001
12
0.1029889949
22
0.0476655013
32
0.0000000000
13
0.1012739487
23
-0.0506369744
33
0.0000000000
40
0.0000000000
40
0.0000000000
40
0.0000000000
40
0.0000000000
40
0.1289660911
40
0.3272366088
40
0.5361401343
40
0.7596616202
40
1.0000000000
40
1.0000000000
40
1.0000000000
40
1.0000000000
10
7.5581201202
20
22.2608081928
30
0.0000000000
10
7.5625474828
20
22.2628572706
30
0.0000000000
10
7.5741866345
20
22.2671852321
30
0.0000000000
10
7.5943205332
20
22.2704864756
30
0.0000000000
10
7.6182537207
20
22.2693008248
30
0.0000000000
10
7.6430624609
20
22.2633417332
30
0.0000000000
10
7.6592805206
20
22.2565489712
30
0.0000000000
10
7.6673938596
20
22.2524923018
30
0.0000000000
11
7.5581201202
21
22.2608081928
31
0.0000000000
11
7.5718225267
21
22.2659093674
31
0.0000000000
11
7.5939592537
21
22.2696450275
31
0.0000000000
11
7.6175908806
21
22.2686241077
31
0.0000000000
11
7.6422363188
21
22.2628674481
31
0.0000000000
11
7.6673938596
21
22.2524923018
31
0.0000000000
0
SPLINE
5
3A3
100
AcDbEntity
8
0
100
AcDbSpline
62
7
6
CONTINUOUS
70
0
71
3
72
15
73
11
74
9
42
0.0000001000
43
0.0000001000
44
0.0000000001
12
0.0000000000
22
-0.3282824868
32
0.0000000000
13
-0.3031807126
23
-0.1273023205
33
0.0000000000
40
0.0000000000
40
0.0000000000
40
0.0000000000
40
0.0000000000
40
0.1555410110
40
0.3025968039
40
0.4410066768
40
0.5711305738
40
0.6939274101
40
0.8109940736
40
0.9245171592
40
1.0000000000
40
1.0000000000
40
1.0000000000
40
1.0000000000
10
21.4722034015
20
-25.8258734825
30
0.0000000000
10
21.4722034015
20
-25.8428939458
30
0.0000000000
10
21.4706178719
20
-25.8760373345
30
0.0000000000
10
21.4630638720
20
-25.9238051582
30
0.0000000000
10
21.4504860529
20
-25.9676428112
30
0.0000000000
10
21.4330310258
20
-26.0069160930
30
0.0000000000
10
21.4109034857
20
-26.0410435976
30
0.0000000000
10
21.3843787321
20
-26.0694808327
30
0.0000000000
10
21.3571329960
20
-26.0893260531
30
0.0000000000
10
21.3385583605
20
-26.0986027783
30
0.0000000000
10
21.3309300467
20
-26.1018058253
30
0.0000000000
11
21.4722034015
21
-25.8258734825
31
0.0000000000
11
21.4696228507
21
-25.8768696225
31
0.0000000000
11
21.4619206597
21
-25.9245270786
31
0.0000000000
11
21.4492123075
21
-25.9681512414
31
0.0000000000
11
21.4316864891
21
-26.0071079051
31
0.0000000000
11
21.4096019318
21
-26.0408322846
31
0.0000000000
11
21.3832831628
21
-26.0688369127
31
0.0000000000
11
21.3531154838
21
-26.0907181421
31
0.0000000000
11
21.3309300467
21
-26.1018058253
31
0.0000000000
0
SPLINE
5
3A4
100
AcDbEntity
8
0
100
AcDbSpline
62
9
6
CONTINUOUS
70
0
71
3
72
14
73
10
74
8
42
0.0000001000
43
0.0000001000
44
0.0000000001
12
0.0007405432
22
-0.1564390091
32
0.0000000000
13
-0.1395128362
23
-0.0715283319
33
0.0000000000
40
0.0000000000
40
0.0000000000
40
0.0000000000
40
0.0000000000
40
0.1910837507
40
0.3697313935
40
0.5359510935
40
0.6908790373
40
0.8369263283
40
0.9777348580
40
1.0000000000
40
1.0000000000
40
1.0000000000
40
1.0000000000
10
22.3731549857
20
-26.7839857152
30
0.0000000000
10
22.3732021543
20
-26.7939500328
30
0.0000000000
10
22.3722020577
20
-26.8132621123
30
0.0000000000
10
22.3670722401
20
-26.8408271957
30
0.0000000000
10
22.3584315069
20
-26.8655402536
30
0.0000000000
10
22.3464013399
20
-26.8868930916
30
0.0000000000
10
22.3311651270
20
-26.9044087694
30
0.0000000000
10
22.3180184858
20
-26.9139859113
30
0.0000000000
10
22.3105075930
20
-26.9180151784
30
0.0000000000
10
22.3094721687
20
-26.9185460412
30
0.0000000000
11
22.3731549857
21
-26.7839857152
31
0.0000000000
11
22.3714903144
21
-26.8138326164
31
0.0000000000
11
22.3662391236
21
-26.8412826261
31
0.0000000000
11
22.3575083515
21
-26.8657766565
31
0.0000000000
11
22.3454757998
21
-26.8868159550
31
0.0000000000
11
22.3303865333
21
-26.9039721111
31
0.0000000000
11
22.3125478528
21
-26.9168958410
31
0.0000000000
11
22.3094721687
21
-26.9185460412
31
0.0000000000
0
SPLINE
5
3A5
100
AcDbEntity
8
0
100
AcDbSpline
62
9
6
CONTINUOUS
70
0
71
3
72
8
73
4
74
2
42
0.0000001000
43
0.0000001000
44
0.0000000001
12
0.0025368358
22
0.0012347229
32
0.0000000000
13
0.0025729116
23
0.0011580615
33
0.0000000000
40
0.0000000000
40
0.0000000000
40
0.0000000000
40
0.0000000000
40
1.0000000000
40
1.0000000000
40
1.0000000000
40
1.0000000000
10
20.3949902438
20
16.3687442810
30
0.0000000000
10
20.3958358557
20
16.3691558553
30
0.0000000000
10
20.3966876907
20
16.3695547138
30
0.0000000000
10
20.3975453279
20
16.3699407343
30
0.0000000000
11
20.3949902438
21
16.3687442810
31
0.0000000000
11
20.3975453279
21
16.3699407343
31
0.0000000000
0
SPLINE
5
3A6
100
AcDbEntity
8
0
100
AcDbSpline
62
9
6
CONTINUOUS
70
0
71
3
72
12
73
8
74
6
42
0.0000001000
43
0.0000001000
44
0.0000000001
12
0.1022477617
22
0.0460214778
32
0.0000000000
13
0.0998269124
23
-0.0504934486
33
0.0000000000
40
0.0000000000
40
0.0000000000
40
0.0000000000
40
0.0000000000
40
0.1214847268
40
0.3215990546
40
0.5322792390
40
0.7576440012
40
1.0000000000
40
1.0000000000
40
1.0000000000
40
1.0000000000
10
20.3975453279
20
16.3699407343
30
0.0000000000
10
20.4016858417
20
16.3718043699
30
0.0000000000
10
20.4130047715
20
16.3759457345
30
0.0000000000
10
20.4327579675
20
16.3791699042
30
0.0000000000
10
20.4566088055
20
16.3779420375
30
0.0000000000
10
20.4813081759
20
16.3719260736
30
0.0000000000
10
20.4974371805
20
16.3650899021
30
0.0000000000
10
20.5055017309
20
16.3610107720
30
0.0000000000
11
20.3975453279
21
16.3699407343
31
0.0000000000
11
20.4103252140
21
16.3746202053
31
0.0000000000
11
20.4324030367
21
16.3783272615
31
0.0000000000
11
20.4559479388
21
16.3772641707
31
0.0000000000
11
20.4804806347
21
16.3714525734
31
0.0000000000
11
20.5055017309
21
16.3610107720
31
0.0000000000
0
SPLINE
5
3A7
100
AcDbEntity
8
0
100
AcDbSpline
62
7
6
CONTINUOUS
70
0
71
3
72
8
73
4
74
2
42
0.0000001000
43
0.0000001000
44
0.0000000001
12
0.0016500710
22
0.0008031249
32
0.0000000000
13
0.0016654853
23
0.0007708221
33
0.0000000000
40
0.0000000000
40
0.0000000000
40
0.0000000000
40
0.0000000000
40
1.0000000000
40
1.0000000000
40
1.0000000000
40
1.0000000000
10
19.8601202767
20
16.1081922073
30
0.0000000000
10
19.8606703004
20
16.1084599156
30
0.0000000000
10
19.8612229510
20
16.1087222558
30
0.0000000000
10
19.8617781128
20
16.1089791964
30
0.0000000000
11
19.8601202767
21
16.1081922073
31
0.0000000000
11
19.8617781128
21
16.1089791964
31
0.0000000000
0
SPLINE
5
3A8
100
AcDbEntity
8
0
100
AcDbSpline
62
7
6
CONTINUOUS
70
0
71
3
72
12
73
8
74
6
42
0.0000001000
43
0.0000001000
44
0.0000000001
12
0.1029889949
22
0.0476655013
32
0.0000000000
13
0.1012739487
23
-0.0506369744
33
0.0000000000
40
0.0000000000
40
0.0000000000
40
0.0000000000
40
0.0000000000
40
0.1289660911
40
0.3272366088
40
0.5361401343
40
0.7596616202
40
1.0000000000
40
1.0000000000
40
1.0000000000
40
1.0000000000
10
19.8617781128
20
16.1089791964
30
0.0000000000
10
19.8662054755
20
16.1110282742
30
0.0000000000
10
19.8778446272
20
16.1153562358
30
0.0000000000
10
19.8979785258
20
16.1186574792
30
0.0000000000
10
19.9219117134
20
16.1174718285
30
0.0000000000
10
19.9467204536
20
16.1115127369
30
0.0000000000
10
19.9629385133
20
16.1047199749
30
0.0000000000
10
19.9710518522
20
16.1006633055
30
0.0000000000
11
19.8617781128
21
16.1089791964
31
0.0000000000
11
19.8754805193
21
16.1140803711
31
0.0000000000
11
19.8976172464
21
16.1178160312
31
0.0000000000
11
19.9212488733
21
16.1167951114
31
0.0000000000
11
19.9458943114
21
16.1110384518
31
0.0000000000
11
19.9710518522
21
16.1006633055
31
0.0000000000
0
SPLINE
5
3A9
100
AcDbEntity
8
0
100
AcDbSpline
62
7
6
CONTINUOUS
70
0
71
3
72
14
73
10
74
8
42
0.0000001000
43
0.0000001000
44
0.0000000001
12
0.0000000000
22
-0.1567540012
32
0.0000000000
13
-0.1397989498
23
-0.0716622433
33
0.0000000000
40
0.0000000000
40
0.0000000000
40
0.0000000000
40
0.0000000000
40
0.1911658276
40
0.3699263789
40
0.5362431835
40
0.6911951393
40
0.8371323080
40
0.9776446192
40
1.0000000000
40
1.0000000000
40
1.0000000000
40
1.0000000000
10
21.8448878140
20
-27.0549967739
30
0.0000000000
10
21.8448878140
20
-27.0649854433
30
0.0000000000
10
21.8437999115
20
-27.0843410701
30
0.0000000000
10
21.8385595760
20
-27.1119568409
30
0.0000000000
10
21.8298362541
20
-27.1367078001
30
0.0000000000
10
21.8177537410
20
-27.1580860928
30
0.0000000000
10
21.8024961411
20
-27.1756161104
30
0.0000000000
10
21.7893403299
20
-27.1852070211
30
0.0000000000
10
21.7818241233
20
-27.1892398701
30
0.0000000000
10
21.7807823704
20
-27.1897738823
30
0.0000000000
11
21.8448878140
21
-27.0549967739
31
0.0000000000
11
21.8430885625
21
-27.0849087172
31
0.0000000000
11
21.8377273973
21
-27.1124125086
31
0.0000000000
11
21.8289134036
21
-27.1369482256
31
0.0000000000
11
21.8168259689
21
-27.1580163511
31
0.0000000000
11
21.8017111377
21
-27.1751879559
31
0.0000000000
11
21.7838766037
21
-27.1881134429
31
0.0000000000
11
21.7807823704
21
-27.1897738823
31
0.0000000000
0
SPLINE
5
3AA
100
AcDbEntity
8
0
100
AcDbSpline
62
7
6
CONTINUOUS
70
0
71
3
72
14
73
10
74
8
42
0.0000001000
43
0.0000001000
44
0.0000000001
12
-0.4118176649
22
0.2059063785
32
0.0000000000
13
-0.4124812599
23
-0.2033015536
33
0.0000000000
40
0.0000000000
40
0.0000000000
40
0.0000000000
40
0.0000000000
40
0.0703690923
40
0.2106133624
40
0.3542964726
40
0.5038685828
40
0.6605856770
40
0.8258252640
40
1.0000000000
40
1.0000000000
40
1.0000000000
40
1.0000000000
10
20.7718206127
20
21.8563689065
30
0.0000000000
10
20.7621608676
20
21.8611987215
30
0.0000000000
10
20.7326272275
20
21.8744099285
30
0.0000000000
10
20.6803638440
20
21.8900958124
30
0.0000000000
10
20.6141690634
20
21.8985436545
30
0.0000000000
10
20.5449697556
20
21.8966846903
30
0.0000000000
10
20.4734877859
20
21.8846063989
30
0.0000000000
10
20.4005346670
20
21.8625071206
30
0.0000000000
10
20.3526699299
20
21.8418149851
30
0.0000000000
10
20.3287219917
20
21.8300116536
30
0.0000000000
11
20.7718206127
21
21.8563689065
31
0.0000000000
11
20.7422542893
21
21.8695929693
31
0.0000000000
11
20.6805119038
21
21.8882265822
31
0.0000000000
11
20.6149917775
21
21.8967661532
31
0.0000000000
11
20.5462284768
21
21.8951449934
31
0.0000000000
11
20.4751270288
21
21.8833807926
31
0.0000000000
11
20.4023329959
21
21.8615841330
31
0.0000000000
11
20.3287219917
21
21.8300116536
31
0.0000000000
0
SPLINE
5
3AB
100
AcDbEntity
8
0
100
AcDbSpline
62
9
6
CONTINUOUS
70
0
71
3
72
14
73
10
74
8
42
0.0000001000
43
0.0000001000
44
0.0000000001
12
-0.0007577769
22
-0.1589811340
32
0.0000000000
13
-0.1432648719
23
-0.0697434368
33
0.0000000000
40
0.0000000000
40
0.0000000000
40
0.0000000000
40
0.0000000000
40
0.1889842705
40
0.3657380757
40
0.5301768627
40
0.6833123865
40
0.8274090628
40
0.9659657143
40
1.0000000000
40
1.0000000000
40
1.0000000000
40
1.0000000000
10
20.2436070231
20
-27.8350313735
30
0.0000000000
10
20.2435592872
20
-27.8450463514
30
0.0000000000
10
20.2423819192
20
-27.8644492097
30
0.0000000000
10
20.2370267251
20
-27.8921203849
30
0.0000000000
10
20.2282148432
20
-27.9169123477
30
0.0000000000
10
20.2160726755
20
-27.9383171717
30
0.0000000000
10
20.2007854445
20
-27.9558603219
30
0.0000000000
10
20.1871022107
20
-27.9658356687
30
0.0000000000
10
20.1789767555
20
-27.9700862681
30
0.0000000000
10
20.1773514496
20
-27.9708774908
30
0.0000000000
11
20.2436070231
21
-27.8350313735
31
0.0000000000
11
20.2416705442
21
-27.8650141785
31
0.0000000000
11
20.2361949615
21
-27.8925763842
31
0.0000000000
11
20.2272917835
21
-27.9171566176
31
0.0000000000
11
20.2151423224
21
-27.9382543706
31
0.0000000000
11
20.1999940233
21
-27.9554400431
31
0.0000000000
11
20.1821553880
21
-27.9683637504
31
0.0000000000
11
20.1773514496
21
-27.9708774908
31
0.0000000000
0
SPLINE
5
3AC
100
AcDbEntity
8
0
100
AcDbSpline
62
7
6
CONTINUOUS
70
0
71
3
72
15
73
11
74
9
42
0.0000001000
43
0.0000001000
44
0.0000000001
12
-0.5600794601
22
0.2799857150
32
0.0000000000
13
-0.5627365709
23
-0.2741268104
33
0.0000000000
40
0.0000000000
40
0.0000000000
40
0.0000000000
40
0.0000000000
40
0.1559314404
40
0.3060358405
40
0.4430790789
40
0.5687195259
40
0.6853297754
40
0.7945439042
40
0.8988435090
40
1.0000000000
40
1.0000000000
40
1.0000000000
40
1.0000000000
10
28.2242151542
20
18.1301745914
30
0.0000000000
10
28.1951038218
20
18.1447274501
30
0.0000000000
10
28.1368383925
20
18.1710433255
30
0.0000000000
10
28.0493705980
20
18.2014151191
30
0.0000000000
10
27.9654503147
20
18.2214649737
30
0.0000000000
10
27.8867870463
20
18.2315201835
30
0.0000000000
10
27.8132840037
20
18.2323702773
30
0.0000000000
10
27.7446490137
20
18.2246293753
30
0.0000000000
10
27.6807510510
20
18.2087338553
30
0.0000000000
10
27.6408173470
20
18.1926946209
30
0.0000000000
10
27.6218425280
20
18.1834513854
30
0.0000000000
11
28.2242151542
21
18.1301745914
31
0.0000000000
11
28.1351711451
21
18.1701585871
31
0.0000000000
11
28.0463298748
21
18.2007430395
31
0.0000000000
11
27.9628394935
21
18.2204415209
31
0.0000000000
11
27.8848008906
21
18.2301897208
31
0.0000000000
11
27.8118110941
21
18.2308305813
31
0.0000000000
11
27.7438978251
21
18.2230021015
31
0.0000000000
11
27.6805732930
21
18.2071162887
31
0.0000000000
11
27.6218425280
21
18.1834513854
31
0.0000000000
0
SPLINE
5
3AD
100
AcDbEntity
8
0
100
AcDbSpline
62
7
6
CONTINUOUS
70
0
71
3
72
18
73
14
74
12
42
0.0000001000
43
0.0000001000
44
0.0000000001
12
-0.3181467074
22
-0.1775356350
32
0.0000000000
13
-0.3258665114
23
0.1629332557
33
0.0000000000
40
0.0000000000
40
0.0000000000
40
0.0000000000
40
0.0000000000
40
0.0824711995
40
0.1703927471
40
0.2624911810
40
0.3579786781
40
0.4549885733
40
0.5527374323
40
0.6491673466
40
0.7435257574
40
0.8339975930
40
0.9198803357
40
1.0000000000
40
1.0000000000
40
1.0000000000
40
1.0000000000
10
20.9548276312
20
12.8484110554
30
0.0000000000
10
20.9460816510
20
12.8435305298
30
0.0000000000
10
20.9274093870
20
12.8345041177
30
0.0000000000
10
20.8974455429
20
12.8235020817
30
0.0000000000
10
20.8651062432
20
12.8147641162
30
0.0000000000
10
20.8310841576
20
12.8084781613
30
0.0000000000
10
20.7959987799
20
12.8047563356
30
0.0000000000
10
20.7606187684
20
12.8036792839
30
0.0000000000
10
20.7255794279
20
12.8052646324
30
0.0000000000
10
20.6916457762
20
12.8094751842
30
0.0000000000
10
20.6594286121
20
12.8162348330
30
0.0000000000
10
20.6296128990
20
12.8253967880
30
0.0000000000
10
20.6110084434
20
12.8332917878
30
0.0000000000
10
20.6023056716
20
12.8376431737
30
0.0000000000
11
20.9548276312
21
12.8484110554
31
0.0000000000
11
20.9278243118
21
12.8352343320
31
0.0000000000
11
20.8977836850
21
12.8241150629
31
0.0000000000
11
20.8654061847
21
12.8153069817
31
0.0000000000
11
20.8312028651
21
12.8089506019
31
0.0000000000
11
20.7960581187
21
12.8052067001
31
0.0000000000
11
20.7604616707
21
12.8041267719
31
0.0000000000
11
20.7253663354
21
12.8057378537
31
0.0000000000
11
20.6912558701
21
12.8100150556
31
0.0000000000
11
20.6590103987
21
12.8168484971
31
0.0000000000
11
20.6291286039
21
12.8261285971
31
0.0000000000
11
20.6023056716
21
12.8376431737
31
0.0000000000
0
SPLINE
5
3AE
100
AcDbEntity
8
0
100
AcDbSpline
62
7
6
CONTINUOUS
70
0
71
3
72
20
73
16
74
14
42
0.0000001000
43
0.0000001000
44
0.0000000001
12
0.0000000000
22
0.7361349354
32
0.0000000000
13
-0.6584191025
23
0.3292095512
33
0.0000000000
40
0.0000000000
40
0.0000000000
40
0.0000000000
40
0.0000000000
40
0.0728654476
40
0.1487929432
40
0.2272407876
40
0.3075780044
40
0.3891115698
40
0.4711116766
40
0.5528352835
40
0.6335492682
40
0.7125534330
40
0.7892041636
40
0.8629398325
40
0.9333086353
40
1.0000000000
40
1.0000000000
40
1.0000000000
40
1.0000000000
10
21.4722034015
20
11.9694834152
30
0.0000000000
10
21.4722034015
20
11.9873630157
30
0.0000000000
10
21.4703665263
20
12.0238916553
30
0.0000000000
10
21.4625844970
20
12.0791709240
30
0.0000000000
10
21.4498317907
20
12.1354000466
30
0.0000000000
10
21.4322967790
20
12.1917621454
30
0.0000000000
10
21.4102358917
20
12.2474477447
30
0.0000000000
10
21.3839700778
20
12.3016548352
30
0.0000000000
10
21.3538798758
20
12.3536044023
30
0.0000000000
10
21.3203996058
20
12.4025508459
30
0.0000000000
10
21.2840102110
20
12.4477930688
30
0.0000000000
10
21.2452328531
20
12.4886835304
30
0.0000000000
10
21.2046161981
20
12.5246389500
30
0.0000000000
10
21.1627426429
20
12.5551398108
30
0.0000000000
10
21.1335560920
20
12.5720179635
30
0.0000000000
10
21.1189191359
20
12.5793364416
30
0.0000000000
11
21.4722034015
21
11.9694834152
31
0.0000000000
11
21.4696228507
21
12.0230601060
31
0.0000000000
11
21.4619206597
21
12.0784197530
31
0.0000000000
11
21.4492123075
21
12.1347522680
31
0.0000000000
11
21.4316864891
21
12.1912347502
31
0.0000000000
11
21.4096019318
21
12.2470436869
31
0.0000000000
11
21.3832831628
21
12.3013670840
31
0.0000000000
11
21.3531154838
21
12.3534159924
31
0.0000000000
11
21.3195391046
21
12.4024357174
31
0.0000000000
11
21.2830426599
21
12.4477162937
31
0.0000000000
11
21.2441562228
21
12.4886021997
31
0.0000000000
11
21.2034437891
21
12.5245013807
31
0.0000000000
11
21.1614954321
21
12.5548933554
31
0.0000000000
11
21.1189191359
21
12.5793364416
31
0.0000000000
0
SPLINE
5
3AF
100
AcDbEntity
8
0
100
AcDbSpline
62
9
6
CONTINUOUS
70
0
71
3
72
12
73
8
74
6
42
0.0000001000
43
0.0000001000
44
0.0000000001
12
-0.1029975786
22
0.0514556913
32
0.0000000000
13
-0.1030457036
23
-0.0507886144
33
0.0000000000
40
0.0000000000
40
0.0000000000
40
0.0000000000
40
0.0000000000
40
0.1465014453
40
0.3409787459
40
0.5457177993
40
0.7646569150
40
1.0000000000
40
1.0000000000
40
1.0000000000
40
1.0000000000
10
10.0034976978
20
21.6739887807
30
0.0000000000
10
9.9984679331
20
21.6765015584
30
0.0000000000
10
9.9862332933
20
21.6812988611
30
0.0000000000
10
9.9654624822
20
21.6848381002
30
0.0000000000
10
9.9416552798
20
21.6838102132
30
0.0000000000
10
9.9169618246
20
21.6780394943
30
0.0000000000
10
9.9008069873
20
21.6713842425
30
0.0000000000
10
9.8927232894
20
21.6673999928
30
0.0000000000
11
10.0034976978
21
21.6739887807
31
0.0000000000
11
9.9878174619
21
21.6801465253
31
0.0000000000
11
9.9658102523
21
21.6839995844
31
0.0000000000
11
9.9423054034
21
21.6831319885
31
0.0000000000
11
9.9177778744
21
21.6775612691
31
0.0000000000
11
9.8927232894
21
21.6673999928
31
0.0000000000
0
SPLINE
5
3B0
100
AcDbEntity
8
0
100
AcDbSpline
62
9
6
CONTINUOUS
70
0
71
3
72
8
73
4
74
2
42
0.0000001000
43
0.0000001000
44
0.0000000001
12
-0.0028845488
22
0.0014410674
32
0.0000000000
13
-0.0029324103
23
0.0013415041
33
0.0000000000
40
0.0000000000
40
0.0000000000
40
0.0000000000
40
0.0000000000
40
1.0000000000
40
1.0000000000
40
1.0000000000
40
1.0000000000
10
8.3126181466
20
22.5194285563
30
0.0000000000
10
8.3116566304
20
22.5199089120
30
0.0000000000
10
8.3106868243
20
22.5203727638
30
0.0000000000
10
8.3097093541
20
22.5208199319
30
0.0000000000
11
8.3126181466
21
22.5194285563
31
0.0000000000
11
8.3097093541
21
22.5208199319
31
0.0000000000
0
SPLINE
5
3B1
100
AcDbEntity
8
0
100
AcDbSpline
62
9
6
CONTINUOUS
70
0
71
3
72
12
73
8
74
6
42
0.0000001000
43
0.0000001000
44
0.0000000001
12
-0.1017741446
22
0.0465591161
32
0.0000000000
13
-0.1001598071
23
-0.0493662291
33
0.0000000000
40
0.0000000000
40
0.0000000000
40
0.0000000000
40
0.0000000000
40
0.1219096594
40
0.3219904190
40
0.5326286024
40
0.7578759934
40
1.0000000000
40
1.0000000000
40
1.0000000000
40
1.0000000000
10
8.3097093541
20
22.5208199319
30
0.0000000000
10
8.3055736037
20
22.5227119339
30
0.0000000000
10
8.2942877937
20
22.5269202688
30
0.0000000000
10
8.2745829311
20
22.5302778757
30
0.0000000000
10
8.2507757286
20
22.5292499888
30
0.0000000000
10
8.2260822734
20
22.5234792698
30
0.0000000000
10
8.2099274362
20
22.5168240181
30
0.0000000000
10
8.2018437382
20
22.5128397684
30
0.0000000000
11
8.3097093541
21
22.5208199319
31
0.0000000000
11
8.2969379108
21
22.5255863009
31
0.0000000000
11
8.2749307012
21
22.5294393600
31
0.0000000000
11
8.2514258523
21
22.5285717641
31
0.0000000000
11
8.2268983232
21
22.5230010446
31
0.0000000000
11
8.2018437382
21
22.5128397684
31
0.0000000000
0
SPLINE
5
3B2
100
AcDbEntity
8
0
100
AcDbSpline
62
9
6
CONTINUOUS
70
0
71
3
72
8
73
4
74
2
42
0.0000001000
43
0.0000001000
44
0.0000000001
12
-0.0006157720
22
0.0003076280
32
0.0000000000
13
-0.0006180205
23
0.0003031101
33
0.0000000000
40
0.0000000000
40
0.0000000000
40
0.0000000000
40
0.0000000000
40
1.0000000000
40
1.0000000000
40
1.0000000000
40
1.0000000000
10
20.6162761308
20
16.3675995710
30
0.0000000000
10
20.6160708735
20
16.3677021137
30
0.0000000000
10
20.6158652383
20
16.3678039043
30
0.0000000000
10
20.6156592315
20
16.3679049410
30
0.0000000000
11
20.6162761308
21
16.3675995710
31
0.0000000000
11
20.6156592315
21
16.3679049410
31
0.0000000000
0
SPLINE
5
3B3
100
AcDbEntity
8
0
100
AcDbSpline
62
9
6
CONTINUOUS
70
0
71
3
72
12
73
8
74
6
42
0.0000001000
43
0.0000001000
44
0.0000000001
12
-0.1027556792
22
0.0503968429
32
0.0000000000
13
-0.1024296610
23
-0.0504849826
33
0.0000000000
40
0.0000000000
40
0.0000000000
40
0.0000000000
40
0.0000000000
40
0.1415509247
40
0.3372307843
40
0.5432300303
40
0.7635204142
40
1.0000000000
40
1.0000000000
40
1.0000000000
40
1.0000000000
10
20.6156592315
20
16.3679049410
30
0.0000000000
10
20.6108108444
20
16.3702828475
30
0.0000000000
10
20.5987695517
20
16.3749531542
30
0.0000000000
10
20.5782162232
20
16.3784505149
30
0.0000000000
10
20.5544055979
20
16.3774171437
30
0.0000000000
10
20.5297213666
20
16.3716431931
30
0.0000000000
10
20.5135759055
20
16.3649903280
30
0.0000000000
10
20.5055017309
20
16.3610107720
30
0.0000000000
11
20.6156592315
21
16.3679049410
31
0.0000000000
11
20.6005758041
21
16.3737632017
31
0.0000000000
11
20.5785640295
21
16.3776119787
31
0.0000000000
11
20.5550560837
21
16.3767390436
31
0.0000000000
11
20.5305258641
21
16.3711623829
31
0.0000000000
11
20.5055017309
21
16.3610107720
31
0.0000000000
0
SPLINE
5
3B4
100
AcDbEntity
8
0
100
AcDbSpline
62
9
6
CONTINUOUS
70
0
71
3
72
13
73
9
74
7
42
0.0000001000
43
0.0000001000
44
0.0000000001
12
0.0000098581
22
-0.1197820204
32
0.0000000000
13
-0.1065074924
23
-0.0538770147
33
0.0000000000
40
0.0000000000
40
0.0000000000
40
0.0000000000
40
0.0000000000
40
0.0714478618
40
0.2245810029
40
0.3898218514
40
0.5726220059
40
0.7758433903
40
1.0000000000
40
1.0000000000
40
1.0000000000
40
1.0000000000
10
10.1416899203
20
21.1028515615
30
0.0000000000
10
10.1416901550
20
21.0999988384
30
0.0000000000
10
10.1410852615
20
21.0910321845
30
0.0000000000
10
10.1367219302
20
21.0759472182
30
0.0000000000
10
10.1264519751
20
21.0586491235
30
0.0000000000
10
10.1115044233
20
21.0424251647
30
0.0000000000
10
10.0922348704
20
21.0275136304
30
0.0000000000
10
10.0774551125
20
21.0190045669
30
0.0000000000
10
10.0694969931
20
21.0149789372
30
0.0000000000
11
10.1416899203
21
21.1028515615
31
0.0000000000
11
10.1411120741
21
21.0943215000
31
0.0000000000
11
10.1361725639
21
21.0767237708
31
0.0000000000
11
10.1262921819
21
21.0596540813
31
0.0000000000
11
10.1116716289
21
21.0434583526
31
0.0000000000
11
10.0926058973
21
21.0284628083
31
0.0000000000
11
10.0694969931
21
21.0149789372
31
0.0000000000
0
SPLINE
5
3B5
100
AcDbEntity
8
0
100
AcDbSpline
62
9
6
CONTINUOUS
70
0
71
3
72
13
73
9
74
7
42
0.0000001000
43
0.0000001000
44
0.0000000001
12
0.0000104830
22
-0.1197820078
32
0.0000000000
13
-0.1065074733
23
-0.0538770051
33
0.0000000000
40
0.0000000000
40
0.0000000000
40
0.0000000000
40
0.0000000000
40
0.0712762288
40
0.2244083091
40
0.3896427768
40
0.5724464072
40
0.7756749721
40
1.0000000000
40
1.0000000000
40
1.0000000000
40
1.0000000000
10
10.1416899213
20
21.4503831034
30
0.0000000000
10
10.1416901703
20
21.4475372334
30
0.0000000000
10
10.1410872385
20
21.4385774900
30
0.0000000000
10
10.1367305294
20
21.4234980411
30
0.0000000000
10
10.1264648488
20
21.4061974859
30
0.0000000000
10
10.1115200325
20
21.3899706576
30
0.0000000000
10
10.0922466710
20
21.3750522971
30
0.0000000000
10
10.0774610904
20
21.3665391075
30
0.0000000000
10
10.0694969931
20
21.3625104540
30
0.0000000000
11
10.1416899213
21
21.4503831034
31
0.0000000000
11
10.1411148611
21
21.4418734139
31
0.0000000000
11
10.1361806969
21
21.4242743199
31
0.0000000000
11
10.1263048957
21
21.4072028636
31
0.0000000000
11
10.1116870430
21
21.3910041441
31
0.0000000000
11
10.0926225889
21
21.3760055967
31
0.0000000000
11
10.0694969931
21
21.3625104540
31
0.0000000000
0
SPLINE
5
3B6
100
AcDbEntity
8
0
100
AcDbSpline
62
9
6
CONTINUOUS
70
0
71
3
72
14
73
10
74
8
42
0.0000001000
43
0.0000001000
44
0.0000000001
12
0.0000000000
22
-0.1577272144
32
0.0000000000
13
0.1414103592
23
-0.0706460082
33
0.0000000000
40
0.0000000000
40
0.0000000000
40
0.0000000000
40
0.0000000000
40
0.1893088629
40
0.3663812135
40
0.5311737743
40
0.6847360083
40
0.8293612095
40
0.9685595038
40
1.0000000000
40
1.0000000000
40
1.0000000000
40
1.0000000000
10
19.8910850635
20
-27.8345186497
30
0.0000000000
10
19.8910850635
20
-27.8444717029
30
0.0000000000
10
19.8921654154
20
-27.8637606323
30
0.0000000000
10
19.8973679471
20
-27.8912882483
30
0.0000000000
10
19.9060283384
20
-27.9159751959
30
0.0000000000
10
19.9180241827
20
-27.9373189743
30
0.0000000000
10
19.9331738876
20
-27.9548493613
30
0.0000000000
10
19.9466404292
20
-27.9647645026
30
0.0000000000
10
19.9545769071
20
-27.9689956147
30
0.0000000000
10
19.9560589110
20
-27.9697359966
30
0.0000000000
11
19.8910850635
21
-27.8345186497
31
0.0000000000
11
19.8928711141
21
-27.8643243444
31
0.0000000000
11
19.8981931755
21
-27.8917417091
31
0.0000000000
11
19.9069437055
21
-27.9162167250
31
0.0000000000
11
19.9189458834
21
-27.9372548292
31
0.0000000000
11
19.9339571830
21
-27.9544309075
31
0.0000000000
11
19.9516742730
21
-27.9673978854
31
0.0000000000
11
19.9560589110
21
-27.9697359966
31
0.0000000000
0
SPLINE
5
3B7
100
AcDbEntity
8
0
100
AcDbSpline
62
9
6
CONTINUOUS
70
0
71
3
72
13
73
9
74
7
42
0.0000001000
43
0.0000001000
44
0.0000000001
12
-0.1077837678
22
0.0538918839
32
0.0000000000
13
-0.0000099528
23
0.1209329681
33
0.0000000000
40
0.0000000000
40
0.0000000000
40
0.0000000000
40
0.0000000000
40
0.2230198146
40
0.4251567327
40
0.6070017274
40
0.7712816834
40
0.9233018820
40
1.0000000000
40
1.0000000000
40
1.0000000000
40
1.0000000000
10
18.2125469931
20
14.6443284590
30
0.0000000000
10
18.2045343544
20
14.6483347784
30
0.0000000000
10
18.1896482326
20
14.6568064234
30
0.0000000000
10
18.1702062708
20
14.6716653208
30
0.0000000000
10
18.1550777410
20
14.6878420839
30
0.0000000000
10
18.1446133959
20
14.7051024610
30
0.0000000000
10
18.1400045292
20
14.7204048771
30
0.0000000000
10
18.1393288726
20
14.7296250376
30
0.0000000000
10
18.1393286182
20
14.7327168146
30
0.0000000000
11
18.2125469931
21
14.6443284590
31
0.0000000000
11
18.1892661153
21
14.6577552041
31
0.0000000000
11
18.1700283505
21
14.6726969042
31
0.0000000000
11
18.1552223578
21
14.6888517664
31
0.0000000000
11
18.1451475931
21
14.7058931486
31
0.0000000000
11
18.1400076695
21
14.7234766397
31
0.0000000000
11
18.1393286182
21
14.7327168146
31
0.0000000000
0
SPLINE
5
3B8
100
AcDbEntity
8
0
100
AcDbSpline
62
9
6
CONTINUOUS
70
0
71
3
72
13
73
9
74
7
42
0.0000001000
43
0.0000001000
44
0.0000000001
12
-0.1077837588
22
0.0538918794
32
0.0000000000
13
-0.0000097653
23
0.1209330093
33
0.0000000000
40
0.0000000000
40
0.0000000000
40
0.0000000000
40
0.0000000000
40
0.2230342452
40
0.4251835925
40
0.6070362850
40
0.7713222798
40
0.9233481615
40
1.0000000000
40
1.0000000000
40
1.0000000000
40
1.0000000000
10
18.2125469931
20
14.9843023932
30
0.0000000000
10
18.2045338366
20
14.9883089714
30
0.0000000000
10
18.1896467981
20
14.9967812046
30
0.0000000000
10
18.1702039318
20
15.0116412367
30
0.0000000000
10
18.1550751552
20
15.0278192466
30
0.0000000000
10
18.1446112717
20
15.0450808651
30
0.0000000000
10
18.1400039824
20
15.0603823252
30
0.0000000000
10
18.1393288693
20
15.0696008473
30
0.0000000000
10
18.1393286198
20
15.0726907598
30
0.0000000000
11
18.2125469931
21
14.9843023932
31
0.0000000000
11
18.1892646675
21
14.9977301042
31
0.0000000000
11
18.1700259568
21
15.0126730248
31
0.0000000000
11
18.1552198537
21
15.0288290417
31
0.0000000000
11
18.1451456173
21
15.0458715796
31
0.0000000000
11
18.1400068476
21
15.0634561198
31
0.0000000000
11
18.1393286198
21
15.0726907598
31
0.0000000000
0
SPLINE
5
3B9
100
AcDbEntity
8
0
100
AcDbSpline
62
9
6
CONTINUOUS
70
0
71
3
72
13
73
9
74
7
42
0.0000001000
43
0.0000001000
44
0.0000000001
12
0.0000098581
22
-0.1197820204
32
0.0000000000
13
-0.1065074924
23
-0.0538770147
33
0.0000000000
40
0.0000000000
40
0.0000000000
40
0.0000000000
40
0.0000000000
40
0.0714478618
40
0.2245810029
40
0.3898218514
40
0.5726220059
40
0.7758433903
40
1.0000000000
40
1.0000000000
40
1.0000000000
40
1.0000000000
10
22.4453479129
20
14.9510225652
30
0.0000000000
10
22.4453481477
20
14.9481698421
30
0.0000000000
10
22.4447432542
20
14.9392031882
30
0.0000000000
10
22.4403799229
20
14.9241182219
30
0.0000000000
10
22.4301099678
20
14.9068201272
30
0.0000000000
10
22.4151624159
20
14.8905961684
30
0.0000000000
10
22.3958928631
20
14.8756846341
30
0.0000000000
10
22.3811131052
20
14.8671755706
30
0.0000000000
10
22.3731549857
20
14.8631499409
30
0.0000000000
11
22.4453479129
21
14.9510225652
31
0.0000000000
11
22.4447700668
21
14.9424925037
31
0.0000000000
11
22.4398305565
21
14.9248947745
31
0.0000000000
11
22.4299501745
21
14.9078250850
31
0.0000000000
11
22.4153296215
21
14.8916293563
31
0.0000000000
11
22.3962638899
21
14.8766338120
31
0.0000000000
11
22.3731549857
21
14.8631499409
31
0.0000000000
0
SPLINE
5
3BA
100
AcDbEntity
8
0
100
AcDbSpline
62
9
6
CONTINUOUS
70
0
71
3
72
13
73
9
74
7
42
0.0000001000
43
0.0000001000
44
0.0000000001
12
0.0000104830
22
-0.1197820078
32
0.0000000000
13
-0.1065074733
23
-0.0538770051
33
0.0000000000
40
0.0000000000
40
0.0000000000
40
0.0000000000
40
0.0000000000
40
0.0712762288
40
0.2244083091
40
0.3896427768
40
0.5724464072
40
0.7756749721
40
1.0000000000
40
1.0000000000
40
1.0000000000
40
1.0000000000
10
22.4453479139
20
15.2985541071
30
0.0000000000
10
22.4453481630
20
15.2957082371
30
0.0000000000
10
22.4447452312
20
15.2867484937
30
0.0000000000
10
22.4403885220
20
15.2716690448
30
0.0000000000
10
22.4301228414
20
15.2543684896
30
0.0000000000
10
22.4151780252
20
15.2381416613
30
0.0000000000
10
22.3959046637
20
15.2232233008
30
0.0000000000
10
22.3811190830
20
15.2147101112
30
0.0000000000
10
22.3731549857
20
15.2106814576
30
0.0000000000
11
22.4453479139
21
15.2985541071
31
0.0000000000
11
22.4447728538
21
15.2900444176
31
0.0000000000
11
22.4398386895
21
15.2724453236
31
0.0000000000
11
22.4299628884
21
15.2553738673
31
0.0000000000
11
22.4153450357
21
15.2391751478
31
0.0000000000
11
22.3962805815
21
15.2241766003
31
0.0000000000
11
22.3731549857
21
15.2106814576
31
0.0000000000
0
SPLINE
5
3BB
100
AcDbEntity
8
0
100
AcDbSpline
62
9
6
CONTINUOUS
70
0
71
3
72
18
73
14
74
12
42
0.0000001000
43
0.0000001000
44
0.0000000001
12
0.3245465336
22
-0.1622732668
32
0.0000000000
13
0.3252956702
23
0.1607662669
33
0.0000000000
40
0.0000000000
40
0.0000000000
40
0.0000000000
40
0.0000000000
40
0.0805551721
40
0.1670661703
40
0.2584105715
40
0.3533608806
40
0.4505383769
40
0.5484896854
40
0.6457313776
40
0.7408057878
40
0.8323347676
40
0.9190782196
40
1.0000000000
40
1.0000000000
40
1.0000000000
40
1.0000000000
10
19.8910850635
20
14.1450333580
30
0.0000000000
10
19.8997996974
20
14.1406760410
30
0.0000000000
10
19.9184121504
20
14.1326954761
30
0.0000000000
10
19.9482268287
20
14.1231878703
30
0.0000000000
10
19.9804388927
20
14.1158674012
30
0.0000000000
10
20.0143938000
20
14.1108859563
30
0.0000000000
10
20.0494173411
20
14.1083429819
30
0.0000000000
10
20.0848093741
20
14.1082900439
30
0.0000000000
10
20.1198631385
20
14.1107282520
30
0.0000000000
10
20.1538782129
20
14.1156082725
30
0.0000000000
10
20.1861787991
20
14.1228327698
30
0.0000000000
10
20.2161195039
20
14.1322554620
30
0.0000000000
10
20.2348325215
20
14.1401841366
30
0.0000000000
10
20.2436070231
20
14.1445206341
30
0.0000000000
11
19.8910850635
21
14.1450333580
31
0.0000000000
11
19.9179028075
21
14.1334063156
31
0.0000000000
11
19.9477827711
21
14.1237847630
31
0.0000000000
11
19.9800894907
21
14.1163789474
31
0.0000000000
11
20.0141718714
21
14.1113383366
31
0.0000000000
11
20.0493391141
21
14.1087652661
31
0.0000000000
11
20.0848811033
21
14.1087117001
31
0.0000000000
11
20.1200792913
21
14.1111787822
31
0.0000000000
11
20.1542222038
21
14.1161166828
31
0.0000000000
11
20.1866196428
21
14.1234256091
31
0.0000000000
11
20.2166167377
21
14.1329578362
31
0.0000000000
11
20.2436070231
21
14.1445206341
31
0.0000000000
0
SPLINE
5
3BC
100
AcDbEntity
8
0
100
AcDbSpline
62
9
6
CONTINUOUS
70
0
71
3
72
18
73
14
74
12
42
0.0000001000
43
0.0000001000
44
0.0000000001
12
0.3245465248
22
-0.1622732624
32
0.0000000000
13
0.3252956614
23
0.1607662625
33
0.0000000000
40
0.0000000000
40
0.0000000000
40
0.0000000000
40
0.0000000000
40
0.0806542501
40
0.1671652429
40
0.2585077070
40
0.3534491940
40
0.4506168653
40
0.5485559484
40
0.6457840580
40
0.7408442443
40
0.8323592115
40
0.9190895355
40
1.0000000000
40
1.0000000000
40
1.0000000000
40
1.0000000000
10
19.8910850635
20
13.8050594238
30
0.0000000000
10
19.8998104157
20
13.8006967477
30
0.0000000000
10
19.9184345662
20
13.7927127234
30
0.0000000000
10
19.9482613885
20
13.7832046276
30
0.0000000000
10
19.9804728127
20
13.7758872495
30
0.0000000000
10
20.0144256040
20
13.7709086546
30
0.0000000000
10
20.0494455656
20
13.7683681079
30
0.0000000000
10
20.0848332793
20
13.7683170262
30
0.0000000000
10
20.1198820944
20
13.7707564395
30
0.0000000000
10
20.1538919732
20
13.7756369707
30
0.0000000000
10
20.1861874596
20
13.7828612821
30
0.0000000000
10
20.2161235334
20
13.7922831452
30
0.0000000000
10
20.2348337488
20
13.8002108090
30
0.0000000000
10
20.2436070231
20
13.8045467000
30
0.0000000000
11
19.8910850635
21
13.8050594238
31
0.0000000000
11
19.9179365140
21
13.7934197492
31
0.0000000000
11
19.9478174824
21
13.7838013264
31
0.0000000000
11
19.9801241681
21
13.7763985135
31
0.0000000000
11
20.0142037548
21
13.7713608981
31
0.0000000000
11
20.0493676010
21
13.7687902746
31
0.0000000000
11
20.0849051559
21
13.7687385872
31
0.0000000000
11
20.1200983174
21
13.7712068803
31
0.0000000000
11
20.1542359423
21
13.7761452775
31
0.0000000000
11
20.1866282165
21
13.7834539893
31
0.0000000000
11
20.2166205940
21
13.7929853296
31
0.0000000000
11
20.2436070231
21
13.8045467000
31
0.0000000000
0
SPLINE
5
3BD
100
AcDbEntity
8
0
100
AcDbSpline
62
9
6
CONTINUOUS
70
0
71
3
72
18
73
14
74
12
42
0.0000001000
43
0.0000001000
44
0.0000000001
12
0.3245465336
22
-0.1622732668
32
0.0000000000
13
0.3252956701
23
0.1607662669
33
0.0000000000
40
0.0000000000
40
0.0000000000
40
0.0000000000
40
0.0000000000
40
0.0806659212
40
0.1671904826
40
0.2585474575
40
0.3535037071
40
0.4506855134
40
0.5486373666
40
0.6458757671
40
0.7409451719
40
0.8324620195
40
0.9191922409
40
1.0000000000
40
1.0000000000
40
1.0000000000
40
1.0000000000
10
7.5874270708
20
20.2968623543
30
0.0000000000
10
7.5961536859
20
20.2924990468
30
0.0000000000
10
7.6147807260
20
20.2845139675
30
0.0000000000
10
7.6446123328
20
20.2750049993
30
0.0000000000
10
7.6768290386
20
20.2676874127
30
0.0000000000
10
7.7107872244
20
20.2627093301
30
0.0000000000
10
7.7458123406
20
20.2601700166
30
0.0000000000
10
7.7812045685
20
20.2601208466
30
0.0000000000
10
7.8162571348
20
20.2625627680
30
0.0000000000
10
7.8502692224
20
20.2674462469
30
0.0000000000
10
7.8825653644
20
20.2746737502
30
0.0000000000
10
7.9124888242
20
20.2840951288
30
0.0000000000
10
7.9311868924
20
20.2920192432
30
0.0000000000
10
7.9399490305
20
20.2963496304
30
0.0000000000
11
7.5874270708
21
20.2968623543
31
0.0000000000
11
7.6142824928
21
20.2852211915
31
0.0000000000
11
7.6441683341
21
20.2756018362
31
0.0000000000
11
7.6764803679
21
20.2681987846
31
0.0000000000
11
7.7105654438
21
20.2631616664
31
0.0000000000
11
7.7457345241
21
20.2605922815
31
0.0000000000
11
7.7812767164
21
20.2605425282
31
0.0000000000
11
7.8164734447
21
20.2630133501
31
0.0000000000
11
7.8506140019
21
20.2679548461
31
0.0000000000
11
7.8830062778
21
20.2752666540
31
0.0000000000
11
7.9129975932
21
20.2848012158
31
0.0000000000
11
7.9399490305
21
20.2963496304
31
0.0000000000
0
SPLINE
5
3BE
100
AcDbEntity
8
0
100
AcDbSpline
62
9
6
CONTINUOUS
70
0
71
3
72
18
73
14
74
12
42
0.0000001000
43
0.0000001000
44
0.0000000001
12
0.3245465297
22
-0.1622732649
32
0.0000000000
13
0.3252956663
23
0.1607662650
33
0.0000000000
40
0.0000000000
40
0.0000000000
40
0.0000000000
40
0.0000000000
40
0.0806602437
40
0.1671780028
40
0.2585287416
40
0.3534787968
40
0.4506549529
40
0.5486020717
40
0.6458367763
40
0.7409024534
40
0.8324161725
40
0.9191443834
40
1.0000000000
40
1.0000000000
40
1.0000000000
40
1.0000000000
10
7.5874270708
20
19.9568884202
30
0.0000000000
10
7.5961530716
20
19.9525254198
30
0.0000000000
10
7.6147786836
20
19.9445408633
30
0.0000000000
10
7.6446080332
20
19.9350322933
30
0.0000000000
10
7.6768223620
20
19.9277147716
30
0.0000000000
10
7.7107782923
20
19.9227364170
30
0.0000000000
10
7.7458013515
20
19.9201965290
30
0.0000000000
10
7.7811918704
20
19.9201465196
30
0.0000000000
10
7.8162430321
20
19.9225873788
30
0.0000000000
10
7.8502540057
20
19.9274695817
30
0.0000000000
10
7.8825493778
20
19.9346955911
30
0.0000000000
10
7.9124782045
20
19.9441170732
30
0.0000000000
10
7.9311817033
20
19.9520427445
30
0.0000000000
10
7.9399490305
20
19.9563756963
30
0.0000000000
11
7.5874270708
21
19.9568884202
31
0.0000000000
11
7.6142805609
21
19.9452479813
31
0.0000000000
11
7.6441639611
21
19.9356290989
31
0.0000000000
11
7.6764736856
21
19.9282261025
31
0.0000000000
11
7.7105564500
21
19.9231887202
31
0.0000000000
11
7.7457234321
21
19.9206187584
31
0.0000000000
11
7.7812639049
21
19.9205681558
31
0.0000000000
11
7.8164593633
21
19.9230379109
31
0.0000000000
11
7.8505987423
21
19.9279781019
31
0.0000000000
11
7.8829901996
21
19.9352883784
31
0.0000000000
11
7.9129812883
21
19.9448212442
31
0.0000000000
11
7.9399490305
21
19.9563756963
31
0.0000000000
0
SPLINE
5
3BF
100
AcDbEntity
8
0
100
AcDbSpline
62
9
6
CONTINUOUS
70
0
71
3
72
13
73
9
74
7
42
0.0000001000
43
0.0000001000
44
0.0000000001
12
-0.1077837859
22
0.0538918929
32
0.0000000000
13
-0.0000102343
23
0.1209329197
33
0.0000000000
40
0.0000000000
40
0.0000000000
40
0.0000000000
40
0.0000000000
40
0.2229629519
40
0.4250948142
40
0.6069346734
40
0.7712112795
40
0.9232263365
40
1.0000000000
40
1.0000000000
40
1.0000000000
40
1.0000000000
10
5.9088890004
20
20.7961574554
30
0.0000000000
10
5.9008784034
20
20.8001627539
30
0.0000000000
10
5.8859943639
20
20.8086329526
30
0.0000000000
10
5.8665539189
20
20.8234893617
30
0.0000000000
10
5.8514247406
20
20.8396647240
30
0.0000000000
10
5.8409590692
20
20.8569235960
30
0.0000000000
10
5.8363474394
20
20.8722279791
30
0.0000000000
10
5.8356708850
20
20.8814509822
30
0.0000000000
10
5.8356706231
20
20.8845458033
30
0.0000000000
11
5.9088890004
21
20.7961574554
31
0.0000000000
11
5.8856138312
21
20.8095803918
31
0.0000000000
11
5.8663758761
21
20.8245208603
31
0.0000000000
11
5.8515692226
21
20.8406742824
31
0.0000000000
11
5.8414930252
21
20.8577143524
31
0.0000000000
11
5.8363510183
21
20.8752965919
31
0.0000000000
11
5.8356706231
21
20.8845458033
31
0.0000000000
0
SPLINE
5
3C0
100
AcDbEntity
8
0
100
AcDbSpline
62
9
6
CONTINUOUS
70
0
71
3
72
13
73
9
74
7
42
0.0000001000
43
0.0000001000
44
0.0000000001
12
-0.1077837588
22
0.0538918794
32
0.0000000000
13
-0.0000097653
23
0.1209330093
33
0.0000000000
40
0.0000000000
40
0.0000000000
40
0.0000000000
40
0.0000000000
40
0.2230342452
40
0.4251835925
40
0.6070362850
40
0.7713222798
40
0.9233481615
40
1.0000000000
40
1.0000000000
40
1.0000000000
40
1.0000000000
10
5.9088890004
20
21.1361313895
30
0.0000000000
10
5.9008758440
20
21.1401379677
30
0.0000000000
10
5.8859888055
20
21.1486102010
30
0.0000000000
10
5.8665459392
20
21.1634702330
30
0.0000000000
10
5.8514171626
20
21.1796482429
30
0.0000000000
10
5.8409532790
20
21.1969098614
30
0.0000000000
10
5.8363459897
20
21.2122113215
30
0.0000000000
10
5.8356708767
20
21.2214298436
30
0.0000000000
10
5.8356706272
20
21.2245197561
30
0.0000000000
11
5.9088890004
21
21.1361313895
31
0.0000000000
11
5.8856066749
21
21.1495591005
31
0.0000000000
11
5.8663679642
21
21.1645020211
31
0.0000000000
11
5.8515618611
21
21.1806580380
31
0.0000000000
11
5.8414876247
21
21.1977005760
31
0.0000000000
11
5.8363488549
21
21.2152851161
31
0.0000000000
11
5.8356706272
21
21.2245197561
31
0.0000000000
0
SPLINE
5
3C1
100
AcDbEntity
8
0
100
AcDbSpline
62
7
6
CONTINUOUS
70
0
71
3
72
12
73
8
74
6
42
0.0000001000
43
0.0000001000
44
0.0000000001
12
-0.0451362565
22
0.0309042240
32
0.0000000000
13
-0.0542389469
23
-0.0270121570
33
0.0000000000
40
0.0000000000
40
0.0000000000
40
0.0000000000
40
0.0000000000
40
0.0529415380
40
0.1715827490
40
0.3625248330
40
0.6361486833
40
1.0000000000
40
1.0000000000
40
1.0000000000
40
1.0000000000
10
28.1644482085
20
-17.9616517892
30
0.0000000000
10
28.1636516809
20
-17.9611064168
30
0.0000000000
10
28.1594137350
20
-17.9614177034
30
0.0000000000
10
28.1528728898
20
-17.9630143768
30
0.0000000000
10
28.1414898796
20
-17.9671807374
30
0.0000000000
10
28.1262919903
20
-17.9738212178
30
0.0000000000
10
28.1146502223
20
-17.9794355359
30
0.0000000000
10
28.1080719182
20
-17.9827116722
30
0.0000000000
11
28.1644482085
21
-17.9616517892
31
0.0000000000
11
28.1611451969
21
-17.9613408200
31
0.0000000000
11
28.1541102913
21
-17.9628205000
31
0.0000000000
11
28.1431956569
21
-17.9666585020
31
0.0000000000
11
28.1279570692
21
-17.9731908974
31
0.0000000000
11
28.1080719182
21
-17.9827116722
31
0.0000000000
0
SPLINE
5
3C2
100
AcDbEntity
8
0
100
AcDbSpline
62
7
6
CONTINUOUS
70
0
71
3
72
14
73
10
74
8
42
0.0000001000
43
0.0000001000
44
0.0000000001
12
-0.1166739770
22
0.0703744468
32
0.0000000000
13
-0.1240432230
23
-0.0476906471
33
0.0000000000
40
0.0000000000
40
0.0000000000
40
0.0000000000
40
0.0000000000
40
0.0017360161
40
0.0836421131
40
0.2011710385
40
0.3529543558
40
0.5378708807
40
0.7542792219
40
1.0000000000
40
1.0000000000
40
1.0000000000
40
1.0000000000
10
17.6570489875
20
22.2161411616
30
0.0000000000
10
17.6569814715
20
22.2161818853
30
0.0000000000
10
17.6537147529
20
22.2181083696
30
0.0000000000
10
17.6444052053
20
22.2185263942
30
0.0000000000
10
17.6290741588
20
22.2170364938
30
0.0000000000
10
17.6093562946
20
22.2124910886
30
0.0000000000
10
17.5858683838
20
22.2056037400
30
0.0000000000
10
17.5587231654
20
22.1963439078
30
0.0000000000
10
17.5395449270
20
22.1891858919
30
0.0000000000
10
17.5293849279
20
22.1852796976
30
0.0000000000
11
17.6570489875
21
22.2161411616
31
0.0000000000
11
17.6568456080
21
22.2162610997
31
0.0000000000
11
17.6461420398
21
22.2182397773
31
0.0000000000
11
17.6305817851
21
22.2168861285
31
0.0000000000
11
17.6108591999
21
22.2126553377
31
0.0000000000
11
17.5872493819
21
22.2058374982
31
0.0000000000
11
17.5599987857
21
22.1966439894
31
0.0000000000
11
17.5293849279
21
22.1852796976
31
0.0000000000
0
SPLINE
5
3C3
100
AcDbEntity
8
0
100
AcDbSpline
62
9
6
CONTINUOUS
70
0
71
3
72
18
73
14
74
12
42
0.0000001000
43
0.0000001000
44
0.0000000001
12
0.3302350778
22
-0.1632210745
32
0.0000000000
13
-0.0017354402
23
-0.3683657340
33
0.0000000000
40
0.0000000000
40
0.0000000000
40
0.0000000000
40
0.0000000000
40
0.0793369717
40
0.1637806468
40
0.2526571569
40
0.3451431464
40
0.4402200820
40
0.5367545754
40
0.6335453120
40
0.7293800768
40
0.8230890519
40
0.9136005655
40
1.0000000000
40
1.0000000000
40
1.0000000000
40
1.0000000000
10
9.8927232894
20
21.6673999928
30
0.0000000000
10
9.9014565731
20
21.6630835042
30
0.0000000000
10
9.9188567866
20
21.6528632958
30
0.0000000000
10
9.9435389576
20
21.6339631542
30
0.0000000000
10
9.9671765118
20
21.6113693406
30
0.0000000000
10
9.9892861403
20
21.5855449578
30
0.0000000000
10
10.0094306214
20
21.5570054953
30
0.0000000000
10
10.0272063567
20
21.5263237160
30
0.0000000000
10
10.0422572381
20
21.4941148520
30
0.0000000000
10
10.0542810197
20
21.4610257363
30
0.0000000000
10
10.0630360884
20
21.4277175999
30
0.0000000000
10
10.0683458119
20
21.3948623821
30
0.0000000000
10
10.0695469734
20
21.3731193177
30
0.0000000000
10
10.0694969931
20
21.3625104540
30
0.0000000000
11
9.8927232894
21
21.6673999928
31
0.0000000000
11
9.9179856324
21
21.6527052699
31
0.0000000000
11
9.9427454023
21
21.6338752875
31
0.0000000000
11
9.9664658188
21
21.6113095671
31
0.0000000000
11
9.9886651467
21
21.5854660024
31
0.0000000000
11
10.0088898602
21
21.5568722149
31
0.0000000000
11
10.0267285407
21
21.5261098497
31
0.0000000000
11
10.0418178071
21
21.4938053944
31
0.0000000000
11
10.0538503588
21
21.4606166349
31
0.0000000000
11
10.0625811310
21
21.4272194265
31
0.0000000000
11
10.0678323217
21
21.3942938341
31
0.0000000000
11
10.0694969931
21
21.3625104540
31
0.0000000000
0
SPLINE
5
3C4
100
AcDbEntity
8
0
100
AcDbSpline
62
7
6
CONTINUOUS
70
0
71
3
72
13
73
9
74
7
42
0.0000001000
43
0.0000001000
44
0.0000000001
12
-0.1140551979
22
0.0688211525
32
0.0000000000
13
-0.1222498314
23
-0.0468287788
33
0.0000000000
40
0.0000000000
40
0.0000000000
40
0.0000000000
40
0.0000000000
40
0.0814849701
40
0.1990021767
40
0.3510608295
40
0.5364227196
40
0.7534614852
40
1.0000000000
40
1.0000000000
40
1.0000000000
40
1.0000000000
10
23.2475102625
20
19.4209337435
30
0.0000000000
10
23.2444123344
20
19.4228030400
30
0.0000000000
10
23.2353011300
20
19.4233182069
30
0.0000000000
10
23.2202189650
20
19.4219289432
30
0.0000000000
10
23.2007395369
20
19.4175133310
30
0.0000000000
10
23.1775327592
20
19.4107661398
30
0.0000000000
10
23.1506969016
20
19.4016653986
30
0.0000000000
10
23.1317362580
20
19.3946179039
30
0.0000000000
10
23.1216898274
20
19.3907695380
30
0.0000000000
11
23.2475102625
21
19.4209337435
31
0.0000000000
11
23.2370450287
21
19.4230065154
31
0.0000000000
11
23.2217102956
21
19.4217711339
31
0.0000000000
11
23.2022314976
21
19.4176677944
31
0.0000000000
11
23.1789013972
21
19.4109932188
31
0.0000000000
11
23.1519628186
21
19.4019593635
31
0.0000000000
11
23.1216898274
21
19.3907695380
31
0.0000000000
0
SPLINE
5
3C5
100
AcDbEntity
8
0
100
AcDbSpline
62
7
6
CONTINUOUS
70
0
71
3
72
12
73
8
74
6
42
0.0000001000
43
0.0000001000
44
0.0000000001
12
-0.0000227600
22
-0.0953236354
32
0.0000000000
13
-0.0846678590
23
-0.0430793196
33
0.0000000000
40
0.0000000000
40
0.0000000000
40
0.0000000000
40
0.0000000000
40
0.1623022578
40
0.3381224801
40
0.5342854742
40
0.7554450937
40
1.0000000000
40
1.0000000000
40
1.0000000000
40
1.0000000000
10
28.1654217608
20
-18.8702134136
30
0.0000000000
10
28.1654205294
20
-18.8753704941
30
0.0000000000
10
28.1637141114
20
-18.8861166607
30
0.0000000000
10
28.1562346503
20
-18.9015218417
30
0.0000000000
10
28.1440967363
20
-18.9160474312
30
0.0000000000
10
28.1277471766
20
-18.9293185515
30
0.0000000000
10
28.1149738983
20
-18.9367941699
30
0.0000000000
10
28.1080719182
20
-18.9403059229
30
0.0000000000
11
28.1654217608
21
-18.8702134136
31
0.0000000000
11
28.1630848922
21
-18.8854573157
31
0.0000000000
11
28.1559821931
21
-18.9005742924
31
0.0000000000
11
28.1442174829
21
-18.9150260272
31
0.0000000000
11
28.1280388391
21
-18.9284294874
31
0.0000000000
11
28.1080719182
21
-18.9403059229
31
0.0000000000
0
SPLINE
5
3C6
100
AcDbEntity
8
0
100
AcDbSpline
62
7
6
CONTINUOUS
70
0
71
3
72
15
73
11
74
9
42
0.0000001000
43
0.0000001000
44
0.0000000001
12
-0.0279770301
22
0.1560982800
32
0.0000000000
13
-0.1370921830
23
-0.0679987334
33
0.0000000000
40
0.0000000000
40
0.0000000000
40
0.0000000000
40
0.0000000000
40
0.0299485458
40
0.0826844627
40
0.1679491385
40
0.2839449247
40
0.4274018815
40
0.5956324241
40
0.7867945012
40
1.0000000000
40
1.0000000000
40
1.0000000000
40
1.0000000000
10
28.6497660629
20
-19.8932244653
30
0.0000000000
10
28.6494867725
20
-19.8916661598
30
0.0000000000
10
28.6472402252
20
-19.8874039752
30
0.0000000000
10
28.6373769417
20
-19.8882872311
30
0.0000000000
10
28.6252671186
20
-19.8905229157
30
0.0000000000
10
28.6082561715
20
-19.8961019127
30
0.0000000000
10
28.5879897387
20
-19.9038833023
30
0.0000000000
10
28.5643857212
20
-19.9140336201
30
0.0000000000
10
28.5378740446
20
-19.9262656186
30
0.0000000000
10
28.5193212574
20
-19.9352905252
30
0.0000000000
10
28.5095783217
20
-19.9401230931
30
0.0000000000
11
28.6497660629
21
-19.8932244653
31
0.0000000000
11
28.6475170407
21
-19.8891948165
31
0.0000000000
11
28.6395099840
21
-19.8881875603
31
0.0000000000
11
28.6266719523
21
-19.8905190853
31
0.0000000000
11
28.6097130063
21
-19.8957617119
31
0.0000000000
11
28.5891931235
21
-19.9035640459
31
0.0000000000
11
28.5655125257
21
-19.9136633948
31
0.0000000000
11
28.5389325960
21
-19.9258811420
31
0.0000000000
11
28.5095783217
21
-19.9401230931
31
0.0000000000
0
SPLINE
5
3C7
100
AcDbEntity
8
0
100
AcDbSpline
62
7
6
CONTINUOUS
70
0
71
3
72
14
73
10
74
8
42
0.0000001000
43
0.0000001000
44
0.0000000001
12
0.0000330682
22
-0.2348439295
32
0.0000000000
13
-0.2080373178
23
-0.1077144745
33
0.0000000000
40
0.0000000000
40
0.0000000000
40
0.0000000000
40
0.0000000000
40
0.0543752711
40
0.1841254121
40
0.3211559735
40
0.4693449976
40
0.6312154439
40
0.8080272866
40
1.0000000000
40
1.0000000000
40
1.0000000000
40
1.0000000000
10
28.6499041771
20
-19.1745928715
30
0.0000000000
10
28.6499047764
20
-19.1788494389
30
0.0000000000
10
28.6491767583
20
-19.1932623414
30
0.0000000000
10
28.6435686846
20
-19.2179406737
30
0.0000000000
10
28.6294978648
20
-19.2473893129
30
0.0000000000
10
28.6086001797
20
-19.2755812920
30
0.0000000000
10
28.5812546184
20
-19.3021921187
30
0.0000000000
10
28.5478729328
20
-19.3269141447
30
0.0000000000
10
28.5228908178
20
-19.3413621733
30
0.0000000000
10
28.5095783217
20
-19.3482549200
30
0.0000000000
11
28.6499041771
21
-19.1745928715
31
0.0000000000
11
28.6492578710
21
-19.1873391245
31
0.0000000000
11
28.6426580030
21
-19.2170103990
31
0.0000000000
11
28.6290313361
21
-19.2460767470
31
0.0000000000
11
28.6085721916
21
-19.2741236710
31
0.0000000000
11
28.5815723250
21
-19.3007512112
31
0.0000000000
11
28.5484167646
21
-19.3255796486
31
0.0000000000
11
28.5095783217
21
-19.3482549200
31
0.0000000000
0
SPLINE
5
3C8
100
AcDbEntity
8
0
100
AcDbSpline
62
7
6
CONTINUOUS
70
0
71
3
72
15
73
11
74
9
42
0.0000001000
43
0.0000001000
44
0.0000000001
12
-0.0000705175
22
-0.3481038655
32
0.0000000000
13
-0.3061949017
23
-0.1651991741
33
0.0000000000
40
0.0000000000
40
0.0000000000
40
0.0000000000
40
0.0000000000
40
0.1516537254
40
0.3074377997
40
0.4471465916
40
0.5734028731
40
0.6889955620
40
0.7967728278
40
0.8995201727
40
1.0000000000
40
1.0000000000
40
1.0000000000
40
1.0000000000
10
28.6499086458
20
17.7437462851
30
0.0000000000
10
28.6499050810
20
17.7261492025
30
0.0000000000
10
28.6483774283
20
17.6904774696
30
0.0000000000
10
28.6408901435
20
17.6390502577
30
0.0000000000
10
28.6281230253
20
17.5917056878
30
0.0000000000
10
28.6111454250
20
17.5506982140
30
0.0000000000
10
28.5905072828
20
17.5156342589
30
0.0000000000
10
28.5666074633
20
17.4861307517
30
0.0000000000
10
28.5397212769
20
17.4618740999
30
0.0000000000
10
28.5198337920
20
17.4490081929
30
0.0000000000
10
28.5095783217
20
17.4434751314
30
0.0000000000
11
28.6499086458
21
17.7437462851
31
0.0000000000
11
28.6475170407
21
17.6910328001
31
0.0000000000
11
28.6395099840
21
17.6374276186
31
0.0000000000
11
28.6266719523
21
17.5905466141
31
0.0000000000
11
28.6097130063
21
17.5500256657
31
0.0000000000
11
28.5891931235
21
17.5154379190
31
0.0000000000
11
28.5655125257
21
17.4863639921
31
0.0000000000
11
28.5389325960
21
17.4624601661
31
0.0000000000
11
28.5095783217
21
17.4434751314
31
0.0000000000
0
SPLINE
5
3C9
100
AcDbEntity
8
0
100
AcDbSpline
62
7
6
CONTINUOUS
70
0
71
3
72
18
73
14
74
12
42
0.0000001000
43
0.0000001000
44
0.0000000001
12
0.3291976587
22
-0.1645988293
32
0.0000000000
13
-0.0000000000
23
-0.3680541714
33
0.0000000000
40
0.0000000000
40
0.0000000000
40
0.0000000000
40
0.0000000000
40
0.0792794165
40
0.1636455452
40
0.2525081052
40
0.3450221634
40
0.4401582221
40
0.5367643443
40
0.6336231642
40
0.7295062953
40
0.8232283081
40
0.9137023846
40
1.0000000000
40
1.0000000000
40
1.0000000000
40
1.0000000000
10
9.3644561176
20
21.4039611727
30
0.0000000000
10
9.3731556504
20
21.3996114064
30
0.0000000000
10
9.3904804088
20
21.3893310564
30
0.0000000000
10
9.4150548876
20
21.3703662721
30
0.0000000000
10
9.4386007335
20
21.3477300249
30
0.0000000000
10
9.4606462534
20
21.3218786901
30
0.0000000000
10
9.4807554342
20
21.2933283059
30
0.0000000000
10
9.4985256794
20
21.2626513593
30
0.0000000000
10
9.5136009448
20
21.2304630903
30
0.0000000000
10
9.5256786263
20
21.1974098082
30
0.0000000000
10
9.5345162112
20
21.1641519554
30
0.0000000000
10
9.5399356244
20
21.1313601934
30
0.0000000000
10
9.5412298213
20
21.1096590330
30
0.0000000000
10
9.5412298213
20
21.0990716339
30
0.0000000000
11
9.3644561176
21
21.4039611727
31
0.0000000000
11
9.3896136584
21
21.3891787783
31
0.0000000000
11
9.4142590965
21
21.3702899998
31
0.0000000000
11
9.4378907235
21
21.3476792926
31
0.0000000000
11
9.4600274505
21
21.3218069055
31
0.0000000000
11
9.4802186111
21
21.2931995132
31
0.0000000000
11
9.4980531451
21
21.2624394922
31
0.0000000000
11
9.5131679763
21
21.2301530562
31
0.0000000000
11
9.5252554109
21
21.1969974960
31
0.0000000000
11
9.5340694047
21
21.1636477852
31
0.0000000000
11
9.5394305698
21
21.1307828287
31
0.0000000000
11
9.5412298213
21
21.0990716339
31
0.0000000000
0
SPLINE
5
3CA
100
AcDbEntity
8
0
100
AcDbSpline
62
9
6
CONTINUOUS
70
0
71
3
72
18
73
14
74
12
42
0.0000001000
43
0.0000001000
44
0.0000000001
12
0.0000000000
22
0.3669107664
32
0.0000000000
13
0.3272369926
23
0.1659501768
33
0.0000000000
40
0.0000000000
40
0.0000000000
40
0.0000000000
40
0.0000000000
40
0.0862518076
40
0.1766667997
40
0.2703238465
40
0.3661452927
40
0.4629552825
40
0.5595349054
40
0.6546748161
40
0.7472315712
40
0.8361737297
40
0.9206615776
40
1.0000000000
40
1.0000000000
40
1.0000000000
40
1.0000000000
10
18.2125469931
20
14.9843023932
30
0.0000000000
10
18.2125469931
20
14.9948512988
30
0.0000000000
10
18.2138317689
20
15.0164721289
30
0.0000000000
10
18.2192131455
20
15.0491441175
30
0.0000000000
10
18.2279897577
20
15.0822836906
30
0.0000000000
10
18.2399859159
20
15.1152271591
30
0.0000000000
10
18.2549623624
20
15.1473208733
30
0.0000000000
10
18.2726204943
20
15.1779249029
30
0.0000000000
10
18.2926090224
20
15.2064299541
30
0.0000000000
10
18.3145302060
20
15.2322680659
30
0.0000000000
10
18.3379533978
20
15.2549272886
30
0.0000000000
10
18.3624028371
20
15.2739466832
30
0.0000000000
10
18.3796410935
20
15.2842904664
30
0.0000000000
10
18.3882952490
20
15.2886792081
30
0.0000000000
11
18.2125469931
21
14.9843023932
31
0.0000000000
11
18.2143335413
21
15.0158986419
31
0.0000000000
11
18.2196571066
21
15.0486429460
31
0.0000000000
11
18.2284100719
21
15.0818732770
31
0.0000000000
11
18.2404154917
21
15.1149179324
31
0.0000000000
11
18.2554306469
21
15.1471089264
31
0.0000000000
11
18.2731519898
21
15.1777955919
31
0.0000000000
11
18.2932211759
21
15.2063575647
31
0.0000000000
11
18.3152329505
21
15.2322181163
31
0.0000000000
11
18.3387408963
21
15.2548531269
31
0.0000000000
11
18.3632711158
21
15.2738066858
31
0.0000000000
11
18.3882952490
21
15.2886792081
31
0.0000000000
0
SPLINE
5
3CB
100
AcDbEntity
8
0
100
AcDbSpline
62
9
6
CONTINUOUS
70
0
71
3
72
18
73
14
74
12
42
0.0000001000
43
0.0000001000
44
0.0000000001
12
0.0000000000
22
0.3669107486
32
0.0000000000
13
0.3272369767
23
0.1659501687
33
0.0000000000
40
0.0000000000
40
0.0000000000
40
0.0000000000
40
0.0000000000
40
0.0862394810
40
0.1766406970
40
0.2702834467
40
0.3660906775
40
0.4628872984
40
0.5594549994
40
0.6545853859
40
0.7471334945
40
0.8360738167
40
0.9205612840
40
1.0000000000
40
1.0000000000
40
1.0000000000
40
1.0000000000
10
19.8910850635
20
14.1450333580
30
0.0000000000
10
19.8910850635
20
14.1555807555
30
0.0000000000
10
19.8923694671
20
14.1771983872
30
0.0000000000
10
19.8977493319
20
14.2098655951
30
0.0000000000
10
19.9065235139
20
14.2430004393
30
0.0000000000
10
19.9185164598
20
14.2759396054
30
0.0000000000
10
19.9334890886
20
14.3080297479
30
0.0000000000
10
19.9511430396
20
14.3386312503
30
0.0000000000
10
19.9711271677
20
14.3671348673
30
0.0000000000
10
19.9930442723
20
14.3929731928
30
0.0000000000
10
20.0164639164
20
14.4156341539
30
0.0000000000
10
20.0409202314
20
14.4346641756
30
0.0000000000
10
20.0581682244
20
14.4450158835
30
0.0000000000
10
20.0668333195
20
14.4494101729
30
0.0000000000
11
19.8910850635
21
14.1450333580
31
0.0000000000
11
19.8928711141
21
14.1766251033
31
0.0000000000
11
19.8981931755
21
14.2093645293
31
0.0000000000
11
19.9069437055
21
14.2425900753
31
0.0000000000
11
19.9189458834
21
14.2756303574
31
0.0000000000
11
19.9339571830
21
14.3078177352
31
0.0000000000
11
19.9516742730
21
14.3385018033
31
0.0000000000
11
19.9717391469
21
14.3670625329
31
0.0000000000
11
19.9937463565
21
14.3929228016
31
0.0000000000
11
20.0172512054
21
14.4155600546
31
0.0000000000
11
20.0417787345
21
14.4345168642
31
0.0000000000
11
20.0668333195
21
14.4494101729
31
0.0000000000
0
SPLINE
5
3CC
100
AcDbEntity
8
0
100
AcDbSpline
62
9
6
CONTINUOUS
70
0
71
3
72
18
73
14
74
12
42
0.0000001000
43
0.0000001000
44
0.0000000001
12
0.3281370633
22
-0.1660023651
32
0.0000000000
13
0.0017610812
23
-0.3677330773
33
0.0000000000
40
0.0000000000
40
0.0000000000
40
0.0000000000
40
0.0000000000
40
0.0791232075
40
0.1634130412
40
0.2522639082
40
0.3448144854
40
0.4400185060
40
0.5367072129
40
0.6336465280
40
0.7295915586
40
0.8233406740
40
0.9137913189
40
1.0000000000
40
1.0000000000
40
1.0000000000
40
1.0000000000
10
7.7631753268
20
20.6012391692
30
0.0000000000
10
7.7718297458
20
20.5968609561
30
0.0000000000
10
7.7890684145
20
20.5865272534
30
0.0000000000
10
7.8135271806
20
20.5675072983
30
0.0000000000
10
7.8369838504
20
20.5448296530
30
0.0000000000
10
7.8589685041
20
20.5189512867
30
0.0000000000
10
7.8790462198
20
20.4903886534
30
0.0000000000
10
7.8968149510
20
20.4597144473
30
0.0000000000
10
7.9119186331
20
20.4275438574
30
0.0000000000
10
7.9240540781
20
20.3945228617
30
0.0000000000
10
7.9329776625
20
20.3613113141
30
0.0000000000
10
7.9385096514
20
20.3285789033
30
0.0000000000
10
7.9398984237
20
20.3069168916
30
0.0000000000
10
7.9399490305
20
20.2963496304
30
0.0000000000
11
7.7631753268
21
20.6012391692
31
0.0000000000
11
7.7881964230
21
20.5863881014
31
0.0000000000
11
7.8127291189
21
20.5674426324
31
0.0000000000
11
7.8362740210
21
20.5447884206
31
0.0000000000
11
7.8583518437
21
20.5188866206
31
0.0000000000
11
7.8785131655
21
20.4902644957
31
0.0000000000
11
7.8963475776
21
20.4595046848
31
0.0000000000
11
7.9114920386
21
20.4272333419
31
0.0000000000
11
7.9236382641
21
20.3941073904
31
0.0000000000
11
7.9325390026
21
20.3608011499
31
0.0000000000
11
7.9380130685
21
20.3279926104
31
0.0000000000
11
7.9399490305
21
20.2963496304
31
0.0000000000
0
SPLINE
5
3CD
100
AcDbEntity
8
0
100
AcDbSpline
62
9
6
CONTINUOUS
70
0
71
3
72
18
73
14
74
12
42
0.0000001000
43
0.0000001000
44
0.0000000001
12
0.0000000000
22
0.3669107664
32
0.0000000000
13
0.3272369926
23
0.1659501768
33
0.0000000000
40
0.0000000000
40
0.0000000000
40
0.0000000000
40
0.0000000000
40
0.0862518076
40
0.1766667997
40
0.2703238465
40
0.3661452927
40
0.4629552825
40
0.5595349054
40
0.6546748161
40
0.7472315712
40
0.8361737297
40
0.9206615776
40
1.0000000000
40
1.0000000000
40
1.0000000000
40
1.0000000000
10
5.9088890004
20
21.1361313895
30
0.0000000000
10
5.9088890004
20
21.1466802951
30
0.0000000000
10
5.9101737763
20
21.1683011253
30
0.0000000000
10
5.9155551529
20
21.2009731138
30
0.0000000000
10
5.9243317650
20
21.2341126870
30
0.0000000000
10
5.9363279233
20
21.2670561554
30
0.0000000000
10
5.9513043698
20
21.2991498697
30
0.0000000000
10
5.9689625017
20
21.3297538992
30
0.0000000000
10
5.9889510298
20
21.3582589504
30
0.0000000000
10
6.0108722133
20
21.3840970623
30
0.0000000000
10
6.0342954051
20
21.4067562849
30
0.0000000000
10
6.0587448444
20
21.4257756795
30
0.0000000000
10
6.0759831008
20
21.4361194627
30
0.0000000000
10
6.0846372564
20
21.4405082045
30
0.0000000000
11
5.9088890004
21
21.1361313895
31
0.0000000000
11
5.9106755487
21
21.1677276382
31
0.0000000000
11
5.9159991139
21
21.2004719424
31
0.0000000000
11
5.9247520793
21
21.2337022733
31
0.0000000000
11
5.9367574990
21
21.2667469288
31
0.0000000000
11
5.9517726543
21
21.2989379227
31
0.0000000000
11
5.9694939971
21
21.3296245882
31
0.0000000000
11
5.9895631832
21
21.3581865610
31
0.0000000000
11
6.0115749578
21
21.3840471126
31
0.0000000000
11
6.0350829036
21
21.4066821232
31
0.0000000000
11
6.0596131232
21
21.4256356821
31
0.0000000000
11
6.0846372564
21
21.4405082045
31
0.0000000000
0
SPLINE
5
3CE
100
AcDbEntity
8
0
100
AcDbSpline
62
9
6
CONTINUOUS
70
0
71
3
72
18
73
14
74
12
42
0.0000001000
43
0.0000001000
44
0.0000000001
12
0.0000000000
22
0.3669107664
32
0.0000000000
13
0.3272369926
23
0.1659501768
33
0.0000000000
40
0.0000000000
40
0.0000000000
40
0.0000000000
40
0.0000000000
40
0.0862518076
40
0.1766667997
40
0.2703238465
40
0.3661452927
40
0.4629552825
40
0.5595349054
40
0.6546748161
40
0.7472315712
40
0.8361737297
40
0.9206615776
40
1.0000000000
40
1.0000000000
40
1.0000000000
40
1.0000000000
10
7.5874270708
20
20.2968623543
30
0.0000000000
10
7.5874270708
20
20.3074112599
30
0.0000000000
10
7.5887118467
20
20.3290320901
30
0.0000000000
10
7.5940932233
20
20.3617040786
30
0.0000000000
10
7.6028698354
20
20.3948436517
30
0.0000000000
10
7.6148659937
20
20.4277871202
30
0.0000000000
10
7.6298424402
20
20.4598808345
30
0.0000000000
10
7.6475005721
20
20.4904848640
30
0.0000000000
10
7.6674891002
20
20.5189899152
30
0.0000000000
10
7.6894102837
20
20.5448280271
30
0.0000000000
10
7.7128334756
20
20.5674872497
30
0.0000000000
10
7.7372829149
20
20.5865066443
30
0.0000000000
10
7.7545211712
20
20.5968504275
30
0.0000000000
10
7.7631753268
20
20.6012391692
30
0.0000000000
11
7.5874270708
21
20.2968623543
31
0.0000000000
11
7.5892136191
21
20.3284586030
31
0.0000000000
11
7.5945371843
21
20.3612029072
31
0.0000000000
11
7.6032901497
21
20.3944332381
31
0.0000000000
11
7.6152955694
21
20.4274778936
31
0.0000000000
11
7.6303107247
21
20.4596688875
31
0.0000000000
11
7.6480320676
21
20.4903555530
31
0.0000000000
11
7.6681012536
21
20.5189175258
31
0.0000000000
11
7.6901130282
21
20.5447780774
31
0.0000000000
11
7.7136209740
21
20.5674130880
31
0.0000000000
11
7.7381511936
21
20.5863666469
31
0.0000000000
11
7.7631753268
21
20.6012391692
31
0.0000000000
0
SPLINE
5
3CF
100
AcDbEntity
8
0
100
AcDbSpline
62
7
6
CONTINUOUS
70
0
71
3
72
13
73
9
74
7
42
0.0000001000
43
0.0000001000
44
0.0000000001
12
-0.1103347068
22
0.0551673534
32
0.0000000000
13
-0.0000045137
23
0.1237437061
33
0.0000000000
40
0.0000000000
40
0.0000000000
40
0.0000000000
40
0.0000000000
40
0.2181056656
40
0.4173085111
40
0.5980290005
40
0.7641011752
40
0.9198313393
40
1.0000000000
40
1.0000000000
40
1.0000000000
40
1.0000000000
10
18.9155399473
20
13.6810260358
30
0.0000000000
10
18.9075184058
20
13.6850368066
30
0.0000000000
10
18.8925865628
20
13.6936056719
30
0.0000000000
10
18.8731387298
20
13.7088132801
30
0.0000000000
10
18.8580031877
20
13.7255778511
30
0.0000000000
10
18.8475642984
20
13.7436202764
30
0.0000000000
10
18.8429953539
20
13.7597015952
30
0.0000000000
10
18.8423208345
20
13.7694316831
30
0.0000000000
10
18.8423207139
20
13.7727384722
30
0.0000000000
11
18.9155399473
21
13.6810260358
31
0.0000000000
11
18.8922819732
21
13.6945519125
31
0.0000000000
11
18.8730389136
21
13.7098342397
31
0.0000000000
11
18.8582514670
21
13.7265172571
31
0.0000000000
11
18.8481556548
21
13.7443431940
31
0.0000000000
11
18.8430110677
21
13.7628520733
31
0.0000000000
11
18.8423207139
21
13.7727384722
31
0.0000000000
0
SPLINE
5
3D0
100
AcDbEntity
8
0
100
AcDbSpline
62
7
6
CONTINUOUS
70
0
71
3
72
13
73
9
74
7
42
0.0000001000
43
0.0000001000
44
0.0000000001
12
-0.1103347068
22
0.0551673534
32
0.0000000000
13
-0.0000045137
23
0.1237437061
33
0.0000000000
40
0.0000000000
40
0.0000000000
40
0.0000000000
40
0.0000000000
40
0.2181056656
40
0.4173085111
40
0.5980290005
40
0.7641011752
40
0.9198313393
40
1.0000000000
40
1.0000000000
40
1.0000000000
40
1.0000000000
10
6.6118819547
20
19.8328550322
30
0.0000000000
10
6.6038604131
20
19.8368658029
30
0.0000000000
10
6.5889285702
20
19.8454346682
30
0.0000000000
10
6.5694807372
20
19.8606422765
30
0.0000000000
10
6.5543451951
20
19.8774068474
30
0.0000000000
10
6.5439063057
20
19.8954492727
30
0.0000000000
10
6.5393373613
20
19.9115305916
30
0.0000000000
10
6.5386628419
20
19.9212606795
30
0.0000000000
10
6.5386627213
20
19.9245674685
30
0.0000000000
11
6.6118819547
21
19.8328550322
31
0.0000000000
11
6.5886239806
21
19.8463809088
31
0.0000000000
11
6.5693809209
21
19.8616632360
31
0.0000000000
11
6.5545934743
21
19.8783462535
31
0.0000000000
11
6.5444976622
21
19.8961721903
31
0.0000000000
11
6.5393530751
21
19.9146810697
31
0.0000000000
11
6.5386627213
21
19.9245674685
31
0.0000000000
0
SPLINE
5
3D1
100
AcDbEntity
8
0
100
AcDbSpline
62
7
6
CONTINUOUS
70
0
71
3
72
18
73
14
74
12
42
0.0000001000
43
0.0000001000
44
0.0000000001
12
-0.3181467074
22
-0.1775356350
32
0.0000000000
13
-0.3258665114
23
0.1629332557
33
0.0000000000
40
0.0000000000
40
0.0000000000
40
0.0000000000
40
0.0000000000
40
0.0824711995
40
0.1703927471
40
0.2624911810
40
0.3579786781
40
0.4549885733
40
0.5527374323
40
0.6491673466
40
0.7435257574
40
0.8339975930
40
0.9198803357
40
1.0000000000
40
1.0000000000
40
1.0000000000
40
1.0000000000
10
8.6511696386
20
19.0002400517
30
0.0000000000
10
8.6424236584
20
18.9953595261
30
0.0000000000
10
8.6237513943
20
18.9863331140
30
0.0000000000
10
8.5937875503
20
18.9753310780
30
0.0000000000
10
8.5614482506
20
18.9665931125
30
0.0000000000
10
8.5274261649
20
18.9603071576
30
0.0000000000
10
8.4923407872
20
18.9565853319
30
0.0000000000
10
8.4569607758
20
18.9555082802
30
0.0000000000
10
8.4219214353
20
18.9570936287
30
0.0000000000
10
8.3879877836
20
18.9613041805
30
0.0000000000
10
8.3557706195
20
18.9680638294
30
0.0000000000
10
8.3259549063
20
18.9772257843
30
0.0000000000
10
8.3073504508
20
18.9851207841
30
0.0000000000
10
8.2986476789
20
18.9894721701
30
0.0000000000
11
8.6511696386
21
19.0002400517
31
0.0000000000
11
8.6241663192
21
18.9870633284
31
0.0000000000
11
8.5941256924
21
18.9759440593
31
0.0000000000
11
8.5617481920
21
18.9671359780
31
0.0000000000
11
8.5275448725
21
18.9607795982
31
0.0000000000
11
8.4924001260
21
18.9570356964
31
0.0000000000
11
8.4568036780
21
18.9559557682
31
0.0000000000
11
8.4217083428
21
18.9575668500
31
0.0000000000
11
8.3875978774
21
18.9618440519
31
0.0000000000
11
8.3553524061
21
18.9686774934
31
0.0000000000
11
8.3254706113
21
18.9779575935
31
0.0000000000
11
8.2986476789
21
18.9894721701
31
0.0000000000
0
SPLINE
5
3D2
100
AcDbEntity
8
0
100
AcDbSpline
62
9
6
CONTINUOUS
70
0
71
3
72
18
73
14
74
12
42
0.0000001000
43
0.0000001000
44
0.0000000001
12
0.3302350778
22
-0.1632210745
32
0.0000000000
13
-0.0017354402
23
-0.3683657340
33
0.0000000000
40
0.0000000000
40
0.0000000000
40
0.0000000000
40
0.0000000000
40
0.0793369717
40
0.1637806468
40
0.2526571569
40
0.3451431464
40
0.4402200820
40
0.5367545754
40
0.6335453120
40
0.7293800768
40
0.8230890519
40
0.9136005655
40
1.0000000000
40
1.0000000000
40
1.0000000000
40
1.0000000000
10
22.1963812820
20
15.5155709965
30
0.0000000000
10
22.2051145657
20
15.5112545079
30
0.0000000000
10
22.2225147793
20
15.5010342995
30
0.0000000000
10
22.2471969502
20
15.4821341579
30
0.0000000000
10
22.2708345044
20
15.4595403443
30
0.0000000000
10
22.2929441330
20
15.4337159614
30
0.0000000000
10
22.3130886140
20
15.4051764990
30
0.0000000000
10
22.3308643493
20
15.3744947197
30
0.0000000000
10
22.3459152308
20
15.3422858557
30
0.0000000000
10
22.3579390124
20
15.3091967400
30
0.0000000000
10
22.3666940810
20
15.2758886036
30
0.0000000000
10
22.3720038046
20
15.2430333858
30
0.0000000000
10
22.3732049661
20
15.2212903213
30
0.0000000000
10
22.3731549857
20
15.2106814576
30
0.0000000000
11
22.1963812820
21
15.5155709965
31
0.0000000000
11
22.2216436251
21
15.5008762735
31
0.0000000000
11
22.2464033949
21
15.4820462912
31
0.0000000000
11
22.2701238114
21
15.4594805707
31
0.0000000000
11
22.2923231394
21
15.4336370061
31
0.0000000000
11
22.3125478528
21
15.4050432185
31
0.0000000000
11
22.3303865333
21
15.3742808534
31
0.0000000000
11
22.3454757998
21
15.3419763981
31
0.0000000000
11
22.3575083515
21
15.3087876386
31
0.0000000000
11
22.3662391236
21
15.2753904301
31
0.0000000000
11
22.3714903144
21
15.2424648378
31
0.0000000000
11
22.3731549857
21
15.2106814576
31
0.0000000000
0
SPLINE
5
3D3
100
AcDbEntity
8
0
100
AcDbSpline
62
7
6
CONTINUOUS
70
0
71
3
72
14
73
10
74
8
42
0.0000001000
43
0.0000001000
44
0.0000000001
12
0.1948727826
22
0.0960478531
32
0.0000000000
13
-0.0000942571
23
0.2178239755
33
0.0000000000
40
0.0000000000
40
0.0000000000
40
0.0000000000
40
0.0000000000
40
0.1980921479
40
0.3797759134
40
0.5452342550
40
0.6958855188
40
0.8346654170
40
0.9661340347
40
1.0000000000
40
1.0000000000
40
1.0000000000
40
1.0000000000
10
17.5293849279
20
20.8013235947
30
0.0000000000
10
17.5422525173
20
20.8076657032
30
0.0000000000
10
17.5663681305
20
20.8210163129
30
0.0000000000
10
17.5985333272
20
20.8440954185
30
0.0000000000
10
17.6247068252
20
20.8690917145
30
0.0000000000
10
17.6444544327
20
20.8956969414
30
0.0000000000
10
17.6573677870
20
20.9235842400
30
0.0000000000
10
17.6616860321
20
20.9454150840
30
0.0000000000
10
17.6620761570
20
20.9574185820
30
0.0000000000
10
17.6620750930
20
20.9598775217
30
0.0000000000
11
17.5293849279
21
20.8013235947
31
0.0000000000
11
17.5669444476
21
20.8223344786
31
0.0000000000
11
17.5988805964
21
20.8455320278
31
0.0000000000
11
17.6246914511
21
20.8705517203
31
0.0000000000
11
17.6439714459
21
20.8970004847
31
0.0000000000
11
17.6564175483
21
20.9244626646
31
0.0000000000
11
17.6618342051
21
20.9525068215
31
0.0000000000
11
17.6620750930
21
20.9598775217
31
0.0000000000
0
SPLINE
5
3D4
100
AcDbEntity
8
0
100
AcDbSpline
62
7
6
CONTINUOUS
70
0
71
3
72
14
73
10
74
8
42
0.0000001000
43
0.0000001000
44
0.0000000001
12
0.1925670800
22
0.0960302798
32
0.0000000000
13
-0.0000962608
23
0.2157335548
33
0.0000000000
40
0.0000000000
40
0.0000000000
40
0.0000000000
40
0.0000000000
40
0.1992421592
40
0.3819034748
40
0.5482197821
40
0.6996881986
40
0.8393488237
40
0.9718773282
40
1.0000000000
40
1.0000000000
40
1.0000000000
40
1.0000000000
10
23.1216898274
20
18.0070215731
30
0.0000000000
10
23.1344789876
20
18.0133993332
30
0.0000000000
10
23.1584324446
20
18.0268166561
30
0.0000000000
10
23.1903296576
20
18.0499912323
30
0.0000000000
10
23.2162142901
20
18.0750688098
30
0.0000000000
10
23.2356540020
20
18.1017410051
30
0.0000000000
10
23.2482404830
20
18.1296783513
30
0.0000000000
10
23.2522146868
20
18.1510798682
30
0.0000000000
10
23.2525233336
20
18.1626315770
30
0.0000000000
10
23.2525224312
20
18.1646539116
30
0.0000000000
11
23.1216898274
21
18.0070215731
31
0.0000000000
11
23.1590007100
21
18.0281413278
31
0.0000000000
11
23.1906630210
21
18.0514315564
31
0.0000000000
11
23.2161791294
21
18.0765262875
31
0.0000000000
11
23.2351480856
21
18.1030312720
31
0.0000000000
11
23.2472717365
21
18.1305299763
31
0.0000000000
11
23.2523595830
21
18.1585903821
31
0.0000000000
11
23.2525224312
21
18.1646539116
31
0.0000000000
0
SPLINE
5
3D5
100
AcDbEntity
8
0
100
AcDbSpline
62
9
6
CONTINUOUS
70
0
71
3
72
14
73
10
74
8
42
0.0000001000
43
0.0000001000
44
0.0000000001
12
0.0000000000
22
-0.1577476698
32
0.0000000000
13
0.1413543262
23
-0.0707367479
33
0.0000000000
40
0.0000000000
40
0.0000000000
40
0.0000000000
40
0.0000000000
40
0.1746370559
40
0.3389457344
40
0.4928023680
40
0.6368353698
40
0.7725574487
40
0.9023760314
40
1.0000000000
40
1.0000000000
40
1.0000000000
40
1.0000000000
10
7.5874270708
20
19.9568884202
30
0.0000000000
10
7.5874270708
20
19.9477055573
30
0.0000000000
10
7.5883498702
20
19.9298629052
30
0.0000000000
10
7.5927685629
20
19.9042616165
30
0.0000000000
10
7.6001258560
20
19.8810087672
30
0.0000000000
10
7.6103284194
20
19.8605017629
30
0.0000000000
10
7.6232411554
20
19.8431085186
30
0.0000000000
10
7.6375178122
20
19.8302209505
30
0.0000000000
10
7.6477901695
20
19.8239776842
30
0.0000000000
10
7.6523900262
20
19.8216758169
30
0.0000000000
11
7.5874270708
21
19.9568884202
31
0.0000000000
11
7.5889398118
21
19.9293813965
31
0.0000000000
11
7.5934521448
21
19.9038578869
31
0.0000000000
11
7.6008870560
21
19.8807541968
31
0.0000000000
11
7.6111170686
21
19.8604666441
31
0.0000000000
11
7.6239672880
21
19.8433420074
31
0.0000000000
11
7.6392171183
21
19.8296739837
31
0.0000000000
11
7.6523900262
21
19.8216758169
31
0.0000000000
0
SPLINE
5
3D6
100
AcDbEntity
8
0
100
AcDbSpline
62
9
6
CONTINUOUS
70
0
71
3
72
14
73
10
74
8
42
0.0000001000
43
0.0000001000
44
0.0000000001
12
0.0000000000
22
-0.1577595609
32
0.0000000000
13
0.1413741542
23
-0.0707242065
33
0.0000000000
40
0.0000000000
40
0.0000000000
40
0.0000000000
40
0.0000000000
40
0.1746019291
40
0.3388789790
40
0.4927038383
40
0.6367102002
40
0.7724064306
40
0.9022039386
40
1.0000000000
40
1.0000000000
40
1.0000000000
40
1.0000000000
10
5.9088890004
20
20.7961574554
30
0.0000000000
10
5.9088890004
20
20.7869757475
30
0.0000000000
10
5.9098115723
20
20.7691352708
30
0.0000000000
10
5.9142291068
20
20.7435370867
30
0.0000000000
10
5.9215844126
20
20.7202867004
30
0.0000000000
10
5.9317841309
20
20.6997813703
30
0.0000000000
10
5.9446934565
20
20.6823884801
30
0.0000000000
10
5.9589740731
20
20.6694932990
30
0.0000000000
10
5.9692539507
20
20.6632450527
30
0.0000000000
10
5.9738625626
20
20.6609395364
30
0.0000000000
11
5.9088890004
21
20.7961574554
31
0.0000000000
11
5.9104013496
21
20.7686538803
31
0.0000000000
11
5.9149125202
21
20.7431332483
31
0.0000000000
11
5.9223453251
21
20.7200322242
31
0.0000000000
11
5.9325725868
21
20.6997460731
31
0.0000000000
11
5.9454193140
21
20.6826218966
31
0.0000000000
11
5.9606656957
21
20.6689526941
31
0.0000000000
11
5.9738625626
21
20.6609395364
31
0.0000000000
0
SPLINE
5
3D7
100
AcDbEntity
8
0
100
AcDbSpline
62
7
6
CONTINUOUS
70
0
71
3
72
12
73
8
74
6
42
0.0000001000
43
0.0000001000
44
0.0000000001
12
0.0530555274
22
0.0263159327
32
0.0000000000
13
0.0450809426
23
-0.0288698698
33
0.0000000000
40
0.0000000000
40
0.0000000000
40
0.0000000000
40
0.0000000000
40
0.3658406275
40
0.6403278731
40
0.8313109641
40
0.9494062937
40
1.0000000000
40
1.0000000000
40
1.0000000000
40
1.0000000000
10
26.2041409123
20
-17.2893395507
30
0.0000000000
10
26.2106108681
20
-17.2861304049
30
0.0000000000
10
26.2220513691
20
-17.2806429515
30
0.0000000000
10
26.2369693214
20
-17.2741504684
30
0.0000000000
10
26.2481246988
20
-17.2701470178
30
0.0000000000
10
26.2544657384
20
-17.2685825628
30
0.0000000000
10
26.2585469580
20
-17.2684011220
30
0.0000000000
10
26.2593072287
20
-17.2688879999
30
0.0000000000
11
26.2041409123
21
-17.2893395507
31
0.0000000000
11
26.2236999462
21
-17.2800188911
31
0.0000000000
11
26.2386573221
21
-17.2736520145
31
0.0000000000
11
26.2493426690
21
-17.2699432681
31
0.0000000000
11
26.2561984543
21
-17.2685596401
31
0.0000000000
11
26.2593072287
21
-17.2688879999
31
0.0000000000
0
SPLINE
5
3D8
100
AcDbEntity
8
0
100
AcDbSpline
62
9
6
CONTINUOUS
70
0
71
3
72
12
73
8
74
6
42
0.0000001000
43
0.0000001000
44
0.0000000001
12
0.0830921526
22
0.0430222250
32
0.0000000000
13
-0.0000068042
23
0.0940636942
33
0.0000000000
40
0.0000000000
40
0.0000000000
40
0.0000000000
40
0.0000000000
40
0.2726914262
40
0.5137775049
40
0.7259977260
40
0.9174373046
40
1.0000000000
40
1.0000000000
40
1.0000000000
40
1.0000000000
10
26.2041409123
20
-16.3100243251
30
0.0000000000
10
26.2116937515
20
-16.3061137278
30
0.0000000000
10
26.2254755203
20
-16.2977933488
30
0.0000000000
10
26.2426423910
20
-16.2828104067
30
0.0000000000
10
26.2545703431
20
-16.2663437544
30
0.0000000000
10
26.2596109923
20
-16.2517542661
30
0.0000000000
10
26.2602633724
20
-16.2431646323
30
0.0000000000
10
26.2602631851
20
-16.2405759149
30
0.0000000000
11
26.2041409123
21
-16.3100243251
31
0.0000000000
11
26.2258632818
21
-16.2966384361
31
0.0000000000
11
26.2426651782
21
-16.2815861475
31
0.0000000000
11
26.2540473380
21
-16.2653147347
31
0.0000000000
11
26.2596715449
21
-16.2483076993
31
0.0000000000
11
26.2602631851
21
-16.2405759149
31
0.0000000000
0
SPLINE
5
3D9
100
AcDbEntity
8
0
100
AcDbSpline
62
9
6
CONTINUOUS
70
0
71
3
72
22
73
18
74
16
42
0.0000001000
43
0.0000001000
44
0.0000000001
12
0.0892988605
22
0.9004026107
32
0.0000000000
13
-0.9047689018
23
-0.0524906097
33
0.0000000000
40
0.0000000000
40
0.0000000000
40
0.0000000000
40
0.0000000000
40
0.0732684636
40
0.1488165569
40
0.2258967346
40
0.3036698775
40
0.3812890814
40
0.4579391214
40
0.5328653479
40
0.6054192166
40
0.6750793290
40
0.7414833103
40
0.8044456167
40
0.8640055513
40
0.9204423797
40
0.9743181170
40
1.0000000000
40
1.0000000000
40
1.0000000000
40
1.0000000000
10
26.2041407134
20
-16.3100242290
30
0.0000000000
10
26.2063216435
20
-16.2880338571
30
0.0000000000
10
26.2082534310
20
-16.2430913059
30
0.0000000000
10
26.2042399799
20
-16.1749735605
30
0.0000000000
10
26.1934898519
20
-16.1062132132
30
0.0000000000
10
26.1762587848
20
-16.0381468010
30
0.0000000000
10
26.1529320669
20
-15.9720596606
30
0.0000000000
10
26.1240051926
20
-15.9091671668
30
0.0000000000
10
26.0900631373
20
-15.8505871060
30
0.0000000000
10
26.0517602999
20
-15.7973270370
30
0.0000000000
10
26.0097990908
20
-15.7502747288
30
0.0000000000
10
25.9649157043
20
-15.7102016175
30
0.0000000000
10
25.9178658795
20
-15.6777659037
30
0.0000000000
10
25.8694213978
20
-15.6535243634
30
0.0000000000
10
25.8203698265
20
-15.6379404927
30
0.0000000000
10
25.7794906360
20
-15.6324562890
30
0.0000000000
10
25.7554285452
20
-15.6326955630
30
0.0000000000
10
25.7476831555
20
-15.6331449156
30
0.0000000000
11
26.2041407134
21
-16.3100242290
31
0.0000000000
11
26.2071146739
21
-16.2437962002
31
0.0000000000
11
26.2031868060
21
-16.1755517204
31
0.0000000000
11
26.1924685090
21
-16.1066365595
31
0.0000000000
11
26.1752194815
21
-16.0384126247
31
0.0000000000
11
26.1518316431
21
-15.9721898252
31
0.0000000000
11
26.1228097484
21
-15.9091995537
31
0.0000000000
11
26.0887538346
21
-15.8505794022
31
0.0000000000
11
26.0503340155
21
-15.7973478129
31
0.0000000000
11
26.0082748301
21
-15.7504032910
31
0.0000000000
11
25.9633377555
21
-15.7105196604
31
0.0000000000
11
25.9163176329
21
-15.6783538738
31
0.0000000000
11
25.8680238526
21
-15.6544383449
31
0.0000000000
11
25.8192884545
21
-15.6391899876
31
0.0000000000
11
25.7709480736
21
-15.6329003388
31
0.0000000000
11
25.7476831555
21
-15.6331449156
31
0.0000000000
0
SPLINE
5
3DA
100
AcDbEntity
8
0
100
AcDbSpline
62
7
6
CONTINUOUS
70
0
71
3
72
10
73
6
74
4
42
0.0000001000
43
0.0000001000
44
0.0000000001
12
-0.0012151252
22
-0.0006027111
32
0.0000000000
13
-0.0012098396
23
-0.0006132521
33
0.0000000000
40
0.0000000000
40
0.0000000000
40
0.0000000000
40
0.0000000000
40
0.3328362562
40
0.6661695970
40
1.0000000000
40
1.0000000000
40
1.0000000000
40
1.0000000000
10
26.2041409123
20
-17.2893395507
30
0.0000000000
10
26.2040060997
20
-17.2894064188
30
0.0000000000
10
26.2037364680
20
-17.2895406478
30
0.0000000000
10
26.2033323053
20
-17.2897433153
30
0.0000000000
10
26.2030630548
20
-17.2898793074
30
0.0000000000
10
26.2029284278
20
-17.2899475481
30
0.0000000000
11
26.2041409123
21
-17.2893395507
31
0.0000000000
11
26.2037367668
21
-17.2895407428
31
0.0000000000
11
26.2033326041
21
-17.2897434092
31
0.0000000000
11
26.2029284278
21
-17.2899475481
31
0.0000000000
0
SPLINE
5
3DB
100
AcDbEntity
8
0
100
AcDbSpline
62
9
6
CONTINUOUS
70
0
71
3
72
8
73
4
74
2
42
0.0000001000
43
0.0000001000
44
0.0000000001
12
-0.4314268727
22
-0.4141465755
32
0.0000000000
13
-0.4314268727
23
-0.4141465755
33
0.0000000000
40
0.0000000000
40
0.0000000000
40
0.0000000000
40
0.0000000000
40
1.0000000000
40
1.0000000000
40
1.0000000000
40
1.0000000000
10
23.4269426602
20
13.8697125781
30
0.0000000000
10
23.2831337026
20
13.7316637196
30
0.0000000000
10
23.1393247451
20
13.5936148611
30
0.0000000000
10
22.9955157875
20
13.4555660026
30
0.0000000000
11
23.4269426602
21
13.8697125781
31
0.0000000000
11
22.9955157875
21
13.4555660026
31
0.0000000000
0
SPLINE
5
3DC
100
AcDbEntity
8
0
100
AcDbSpline
62
9
6
CONTINUOUS
70
0
71
3
72
8
73
4
74
2
42
0.0000001000
43
0.0000001000
44
0.0000000001
12
2.2499658682
22
0.1700617365
32
0.0000000000
13
2.2499658682
23
0.1700617365
33
0.0000000000
40
0.0000000000
40
0.0000000000
40
0.0000000000
40
0.0000000000
40
1.0000000000
40
1.0000000000
40
1.0000000000
40
1.0000000000
10
23.9541750441
20
-16.4800860616
30
0.0000000000
10
24.7041636668
20
-16.4233988161
30
0.0000000000
10
25.4541522896
20
-16.3667115706
30
0.0000000000
10
26.2041409123
20
-16.3100243251
30
0.0000000000
11
23.9541750441
21
-16.4800860616
31
0.0000000000
11
26.2041409123
21
-16.3100243251
31
0.0000000000
0
SPLINE
5
3DD
100
AcDbEntity
8
0
100
AcDbSpline
62
9
6
CONTINUOUS
70
0
71
3
72
17
73
13
74
11
42
0.0000001000
43
0.0000001000
44
0.0000000001
12
-0.1071215747
22
-0.2788736077
32
0.0000000000
13
-0.2928427406
23
0.0611333747
33
0.0000000000
40
0.0000000000
40
0.0000000000
40
0.0000000000
40
0.0000000000
40
0.1174001578
40
0.2325962789
40
0.3448722947
40
0.4537009878
40
0.5587962401
40
0.6601587203
40
0.7581072288
40
0.8532839516
40
0.9466201971
40
1.0000000000
40
1.0000000000
40
1.0000000000
40
1.0000000000
10
7.9399490305
20
19.9563756963
30
0.0000000000
10
7.9357570006
20
19.9454624278
30
0.0000000000
10
7.9262346923
20
19.9242835806
30
0.0000000000
10
7.9085879967
20
19.8947327047
30
0.0000000000
10
7.8880179237
20
19.8681952726
30
0.0000000000
10
7.8649296130
20
19.8452115962
30
0.0000000000
10
7.8397740363
20
19.8262489134
30
0.0000000000
10
7.8130444927
20
19.8117027967
30
0.0000000000
10
7.7852702757
20
19.8018887646
30
0.0000000000
10
7.7570143624
20
19.7970338235
30
0.0000000000
10
7.7327935549
20
19.7972335308
30
0.0000000000
10
7.7183162958
20
19.7994673938
30
0.0000000000
10
7.7131056666
20
19.8005551563
30
0.0000000000
11
7.9399490305
21
19.9563756963
31
0.0000000000
11
7.9255382941
21
19.9244009629
31
0.0000000000
11
7.9078553842
21
19.8948778225
31
0.0000000000
11
7.8872589440
21
19.8684050611
31
0.0000000000
11
7.8641667089
21
19.8455195970
31
0.0000000000
11
7.8390470337
21
19.8266855913
31
0.0000000000
11
7.8124093936
21
19.8122850338
31
0.0000000000
11
7.7847940509
21
19.8026099953
31
0.0000000000
11
7.7567610977
21
19.7978567042
31
0.0000000000
11
7.7288790961
21
19.7981215664
31
0.0000000000
11
7.7131056666
21
19.8005551563
31
0.0000000000
0
SPLINE
5
3DE
100
AcDbEntity
8
0
100
AcDbSpline
62
7
6
CONTINUOUS
70
0
71
3
72
9
73
5
74
3
42
0.0000001000
43
0.0000001000
44
0.0000000001
12
0.0132421723
22
-0.1591498193
32
0.0000000000
13
-0.0156087514
23
-0.1589351660
33
0.0000000000
40
0.0000000000
40
0.0000000000
40
0.0000000000
40
0.0000000000
40
0.5136304684
40
1.0000000000
40
1.0000000000
40
1.0000000000
40
1.0000000000
10
19.3561463036
20
-20.0864534934
30
0.0000000000
10
19.3584134980
20
-20.1137015588
30
0.0000000000
10
19.3607393756
20
-20.1669534200
30
0.0000000000
10
19.3582814666
20
-20.2202234248
30
0.0000000000
10
19.3557509262
20
-20.2459904989
30
0.0000000000
11
19.3561463036
21
-20.0864534934
31
0.0000000000
11
19.3595407405
21
-20.1684099022
31
0.0000000000
11
19.3557509262
21
-20.2459904989
31
0.0000000000
0
SPLINE
5
3DF
100
AcDbEntity
8
0
100
AcDbSpline
62
7
6
CONTINUOUS
70
0
71
3
72
10
73
6
74
4
42
0.0000001000
43
0.0000001000
44
0.0000000001
12
-0.0339976455
22
-0.1871621348
32
0.0000000000
13
-0.0856533223
23
-0.1700527123
33
0.0000000000
40
0.0000000000
40
0.0000000000
40
0.0000000000
40
0.0000000000
40
0.4590041032
40
0.8921156525
40
1.0000000000
40
1.0000000000
40
1.0000000000
40
1.0000000000
10
19.3557509262
20
-20.2459904989
30
0.0000000000
10
19.3505492400
20
-20.2746265615
30
0.0000000000
10
19.3374218468
20
-20.3298059172
30
0.0000000000
10
19.3151412440
20
-20.3893596667
30
0.0000000000
10
19.3002700948
20
-20.4203146036
30
0.0000000000
10
19.2971898772
20
-20.4264299456
30
0.0000000000
11
19.3557509262
21
-20.2459904989
31
0.0000000000
11
19.3352541010
21
-20.3308646101
31
0.0000000000
11
19.3060892035
21
-20.4079184150
31
0.0000000000
11
19.2971898772
21
-20.4264299456
31
0.0000000000
0
SPLINE
5
3E0
100
AcDbEntity
8
0
100
AcDbSpline
62
7
6
CONTINUOUS
70
0
71
3
72
9
73
5
74
3
42
0.0000001000
43
0.0000001000
44
0.0000000001
12
0.0120786384
22
-0.0502162959
32
0.0000000000
13
0.0099667356
23
-0.0506777472
33
0.0000000000
40
0.0000000000
40
0.0000000000
40
0.0000000000
40
0.0000000000
40
0.5012596180
40
1.0000000000
40
1.0000000000
40
1.0000000000
40
1.0000000000
10
-3.7253682005
20
-8.4642894381
30
0.0000000000
10
-3.7233500226
20
-8.4726799052
30
0.0000000000
10
-3.7194961166
20
-8.4894606038
30
0.0000000000
10
-3.7159940447
20
-8.5063182937
30
0.0000000000
10
-3.7143371069
20
-8.5147433067
30
0.0000000000
11
-3.7253682005
21
-8.4642894381
31
0.0000000000
11
-3.7195748100
21
-8.4895222233
31
0.0000000000
11
-3.7143371069
21
-8.5147433067
31
0.0000000000
0
SPLINE
5
3E1
100
AcDbEntity
8
0
100
AcDbSpline
62
7
6
CONTINUOUS
70
0
71
3
72
8
73
4
74
2
42
0.0000001000
43
0.0000001000
44
0.0000000001
12
-0.0271602930
22
-0.1049168500
32
0.0000000000
13
-0.0494044696
23
-0.0968227610
33
0.0000000000
40
0.0000000000
40
0.0000000000
40
0.0000000000
40
0.0000000000
40
1.0000000000
40
1.0000000000
40
1.0000000000
40
1.0000000000
10
-3.7142301162
20
-13.6303160071
30
0.0000000000
10
-3.7232835472
20
-13.6652882905
30
0.0000000000
10
-3.7356447712
20
-13.6995805122
30
0.0000000000
10
-3.7521129278
20
-13.7318547659
30
0.0000000000
11
-3.7142301162
21
-13.6303160071
31
0.0000000000
11
-3.7521129278
21
-13.7318547659
31
0.0000000000
0
SPLINE
5
3E2
100
AcDbEntity
8
0
100
AcDbSpline
62
7
6
CONTINUOUS
70
0
71
3
72
9
73
5
74
3
42
0.0000001000
43
0.0000001000
44
0.0000000001
12
-0.0640482323
22
-0.1255215719
32
0.0000000000
13
-0.1071879830
23
-0.0916888447
33
0.0000000000
40
0.0000000000
40
0.0000000000
40
0.0000000000
40
0.0000000000
40
0.7042704500
40
1.0000000000
40
1.0000000000
40
1.0000000000
40
1.0000000000
10
-3.7521129278
20
-13.7318547659
30
0.0000000000
10
-3.7671486869
20
-13.7613218105
30
0.0000000000
10
-3.7933592457
20
-13.8007737777
30
0.0000000000
10
-3.8270885400
20
-13.8336873989
30
0.0000000000
10
-3.8376547580
20
-13.8427257658
30
0.0000000000
11
-3.7521129278
21
-13.7318547659
31
0.0000000000
11
-3.8077966002
21
-13.8136485207
31
0.0000000000
11
-3.8376547580
21
-13.8427257658
31
0.0000000000
0
SPLINE
5
3E3
100
AcDbEntity
8
0
100
AcDbSpline
62
7
6
CONTINUOUS
70
0
71
3
72
9
73
5
74
3
42
0.0000001000
43
0.0000001000
44
0.0000000001
12
-0.0683510419
22
-0.0584676369
32
0.0000000000
13
-0.0824699914
23
-0.0359068635
33
0.0000000000
40
0.0000000000
40
0.0000000000
40
0.0000000000
40
0.0000000000
40
0.5735401840
40
1.0000000000
40
1.0000000000
40
1.0000000000
40
1.0000000000
10
-3.8376547580
20
-13.8427257658
30
0.0000000000
10
-3.8507221143
20
-13.8539036122
30
0.0000000000
10
-3.8750830592
20
-13.8715390393
30
0.0000000000
10
-3.9018140328
20
-13.8852330314
30
0.0000000000
10
-3.9135374119
20
-13.8903373095
30
0.0000000000
11
-3.8376547580
21
-13.8427257658
31
0.0000000000
11
-3.8794456929
21
-13.8728363359
31
0.0000000000
11
-3.9135374119
21
-13.8903373095
31
0.0000000000
0
SPLINE
5
3E4
100
AcDbEntity
8
0
100
AcDbSpline
62
7
6
CONTINUOUS
70
0
71
3
72
15
73
11
74
9
42
0.0000001000
43
0.0000001000
44
0.0000000001
12
0.9949519222
22
-5.0590207247
32
0.0000000000
13
-1.2921436729
23
-4.9913910635
33
0.0000000000
40
0.0000000000
40
0.0000000000
40
0.0000000000
40
0.0000000000
40
0.1381961610
40
0.2734538936
40
0.4052554591
40
0.5331709688
40
0.6568350816
40
0.7759765790
40
0.8904089969
40
1.0000000000
40
1.0000000000
40
1.0000000000
40
1.0000000000
10
-3.7143371069
20
-8.5147433067
30
0.0000000000
10
-3.6685042616
20
-8.7477890543
30
0.0000000000
10
-3.5880218697
20
-9.2110094066
30
0.0000000000
10
-3.5005435384
20
-9.9022310991
30
0.0000000000
10
-3.4477554652
20
-10.5792744076
30
0.0000000000
10
-3.4298201200
20
-11.2382237594
30
0.0000000000
10
-3.4467553563
20
-11.8754627298
30
0.0000000000
10
-3.4984774391
20
-12.4876220855
30
0.0000000000
10
-3.5847956051
20
-13.0714435390
30
0.0000000000
10
-3.6670276758
20
-13.4479788226
30
0.0000000000
10
-3.7142301162
20
-13.6303160071
30
0.0000000000
11
-3.7143371069
21
-8.5147433067
31
0.0000000000
11
-3.5926366062
21
-9.2168029337
31
0.0000000000
11
-3.5054292472
21
-9.9087082829
31
0.0000000000
11
-3.4530463687
21
-10.5862460663
31
0.0000000000
11
-3.4356349500
21
-11.2455396820
31
0.0000000000
11
-3.4532037360
21
-11.8829011668
31
0.0000000000
11
-3.5056467575
21
-12.4949437674
31
0.0000000000
11
-3.5927666436
21
-13.0784818853
31
0.0000000000
11
-3.7142301162
21
-13.6303160071
31
0.0000000000
0
SPLINE
5
3E5
100
AcDbEntity
8
0
100
AcDbSpline
62
7
6
CONTINUOUS
70
0
71
3
72
14
73
10
74
8
42
0.0000001000
43
0.0000001000
44
0.0000000001
12
0.8655210443
22
-0.4327605221
32
0.0000000000
13
0.2263042521
23
-0.9408478799
33
0.0000000000
40
0.0000000000
40
0.0000000000
40
0.0000000000
40
0.0000000000
40
0.1335660204
40
0.2717674676
40
0.4142958814
40
0.5598057715
40
0.7070408165
40
0.8545815478
40
1.0000000000
40
1.0000000000
40
1.0000000000
40
1.0000000000
10
-4.2745421376
20
-7.7003941060
30
0.0000000000
10
-4.2360074038
20
-7.7196614729
30
0.0000000000
10
-4.1612824121
20
-7.7664721630
30
0.0000000000
10
-4.0598882494
20
-7.8541244035
30
0.0000000000
10
-3.9681935790
20
-7.9570441149
30
0.0000000000
10
-3.8874202924
20
-8.0722351985
30
0.0000000000
10
-3.8187866109
20
-8.1968778324
30
0.0000000000
10
-3.7636247278
20
-8.3279821578
30
0.0000000000
10
-3.7363378052
20
-8.4186838906
30
0.0000000000
10
-3.7253682005
20
-8.4642894381
30
0.0000000000
11
-4.2745421376
21
-7.7003941060
31
0.0000000000
11
-4.1645407757
21
-7.7682551008
31
0.0000000000
11
-4.0629620253
21
-7.8552425700
31
0.0000000000
11
-3.9709194175
21
-7.9579590929
31
0.0000000000
11
-3.8898874074
21
-8.0731133689
31
0.0000000000
11
-3.8210825513
21
-8.1978751431
31
0.0000000000
11
-3.7657491788
21
-8.3294889919
31
0.0000000000
11
-3.7253682005
21
-8.4642894381
31
0.0000000000
0
SPLINE
5
3E6
100
AcDbEntity
8
0
100
AcDbSpline
62
7
6
CONTINUOUS
70
0
71
3
72
10
73
6
74
4
42
0.0000001000
43
0.0000001000
44
0.0000000001
12
0.2136915121
22
0.0930372882
32
0.0000000000
13
0.2283050253
23
-0.0459759865
33
0.0000000000
40
0.0000000000
40
0.0000000000
40
0.0000000000
40
0.0000000000
40
0.2967463781
40
0.7083806439
40
1.0000000000
40
1.0000000000
40
1.0000000000
40
1.0000000000
10
-12.8386183083
20
-3.5734781964
30
0.0000000000
10
-12.8174809142
20
-3.5642753703
30
0.0000000000
10
-12.7647530343
20
-3.5474739375
30
0.0000000000
10
-12.6866354396
20
-3.5418990496
30
0.0000000000
10
-12.6323736958
20
-3.5488729981
30
0.0000000000
10
-12.6101809743
20
-3.5533421606
30
0.0000000000
11
-12.8386183083
21
-3.5734781964
31
0.0000000000
11
-12.7728467865
21
-3.5524542293
31
0.0000000000
11
-12.6774913349
21
-3.5449625393
31
0.0000000000
11
-12.6101809743
21
-3.5533421606
31
0.0000000000
0
SPLINE
5
3E7
100
AcDbEntity
8
0
100
AcDbSpline
62
7
6
CONTINUOUS
70
0
71
3
72
9
73
5
74
3
42
0.0000001000
43
0.0000001000
44
0.0000000001
12
0.1464562819
22
-0.0294933150
32
0.0000000000
13
0.1333238293
23
-0.0666619147
33
0.0000000000
40
0.0000000000
40
0.0000000000
40
0.0000000000
40
0.0000000000
40
0.2373235800
40
1.0000000000
40
1.0000000000
40
1.0000000000
40
1.0000000000
10
-12.6101809743
20
-3.5533421606
30
0.0000000000
10
-12.5985951313
20
-3.5556753136
30
0.0000000000
10
-12.5501301774
20
-3.5673177485
30
0.0000000000
10
-12.5036412367
20
-3.5858445564
30
0.0000000000
10
-12.4697469231
20
-3.6027917132
30
0.0000000000
11
-12.6101809743
21
-3.5533421606
31
0.0000000000
11
-12.5757026725
21
-3.5615891073
31
0.0000000000
11
-12.4697469231
21
-3.6027917132
31
0.0000000000
0
SPLINE
5
3E8
100
AcDbEntity
8
0
100
AcDbSpline
62
7
6
CONTINUOUS
70
0
71
3
72
11
73
7
74
5
42
0.0000001000
43
0.0000001000
44
0.0000000001
12
0.2116795002
22
0.1045946585
32
0.0000000000
13
0.2103183193
23
-0.1051591597
33
0.0000000000
40
0.0000000000
40
0.0000000000
40
0.0000000000
40
0.0000000000
40
0.1260365430
40
0.3967106681
40
0.6851952391
40
1.0000000000
40
1.0000000000
40
1.0000000000
40
1.0000000000
10
-10.6945760104
20
27.3229594333
30
0.0000000000
10
-10.6856828929
20
27.3273536830
30
0.0000000000
10
-10.6566967963
20
27.3391647671
30
0.0000000000
10
-10.6028179530
20
27.3475632534
30
0.0000000000
10
-10.5341335922
20
27.3386180848
30
0.0000000000
10
-10.4896275035
20
27.3213998239
30
0.0000000000
10
-10.4675577674
20
27.3103649558
30
0.0000000000
11
-10.6945760104
21
27.3229594333
31
0.0000000000
11
-10.6670419933
21
27.3341571792
31
0.0000000000
11
-10.6042241153
21
27.3443978744
31
0.0000000000
11
-10.5368666032
21
27.3363622508
31
0.0000000000
11
-10.4675577674
21
27.3103649558
31
0.0000000000
0
SPLINE
5
3E9
100
AcDbEntity
8
0
100
AcDbSpline
62
7
6
CONTINUOUS
70
0
71
3
72
12
73
8
74
6
42
0.0000001000
43
0.0000001000
44
0.0000000001
12
-1.0187853365
22
-0.5036637538
32
0.0000000000
13
-0.1689487294
23
-1.1220895878
33
0.0000000000
40
0.0000000000
40
0.0000000000
40
0.0000000000
40
0.0000000000
40
0.1260527123
40
0.3628805760
40
0.6101273157
40
0.8578231239
40
1.0000000000
40
1.0000000000
40
1.0000000000
40
1.0000000000
10
-13.4297934529
20
25.9718508290
30
0.0000000000
10
-13.4726003378
20
25.9506881016
30
0.0000000000
10
-13.5911521431
20
25.8796843364
30
0.0000000000
10
-13.7613880903
20
25.7214551795
30
0.0000000000
10
-13.9177708064
20
25.4911181657
30
0.0000000000
10
-14.0095647782
20
25.2670935966
30
0.0000000000
10
-14.0415512720
20
25.1225756640
30
0.0000000000
10
-14.0495581395
20
25.0693972665
30
0.0000000000
11
-13.4297934529
21
25.9718508290
31
0.0000000000
11
-13.5528745760
21
25.8985714527
31
0.0000000000
11
-13.7509135985
21
25.7177349110
31
0.0000000000
11
-13.9090749925
21
25.4867076080
31
0.0000000000
11
-14.0150055973
21
25.2269916907
31
0.0000000000
11
-14.0495581395
21
25.0693972665
31
0.0000000000
0
SPLINE
5
3EA
100
AcDbEntity
8
0
100
AcDbSpline
62
7
6
CONTINUOUS
70
0
71
3
72
10
73
6
74
4
42
0.0000001000
43
0.0000001000
44
0.0000000001
12
-1.5851934058
22
-10.5266853972
32
0.0000000000
13
-0.5984200538
23
-10.6285412988
33
0.0000000000
40
0.0000000000
40
0.0000000000
40
0.0000000000
40
0.0000000000
40
0.3354481046
40
0.6750249853
40
1.0000000000
40
1.0000000000
40
1.0000000000
40
1.0000000000
10
-14.0495473005
20
25.0694802908
30
0.0000000000
10
-14.2267973416
20
23.8924280696
30
0.0000000000
10
-14.5487746774
20
21.5184402820
30
0.0000000000
10
-14.9175117505
20
17.9886741299
30
0.0000000000
10
-15.0882588139
20
15.6362539043
30
0.0000000000
10
-15.1530826692
20
14.4849171160
30
0.0000000000
11
-14.0495473005
21
25.0694802908
31
0.0000000000
11
-14.5287604441
21
21.5308140919
31
0.0000000000
11
-14.9034963131
21
17.9353815987
31
0.0000000000
11
-15.1530826692
21
14.4849171160
31
0.0000000000
0
SPLINE
5
3EB
100
AcDbEntity
8
0
100
AcDbSpline
62
7
6
CONTINUOUS
70
0
71
3
72
10
73
6
74
4
42
0.0000001000
43
0.0000001000
44
0.0000000001
12
-0.9441993599
22
-16.7698686182
32
0.0000000000
13
-0.4581644276
23
-16.7901787188
33
0.0000000000
40
0.0000000000
40
0.0000000000
40
0.0000000000
40
0.0000000000
40
0.3333257568
40
0.6704460148
40
1.0000000000
40
1.0000000000
40
1.0000000000
40
1.0000000000
10
-15.1530826550
20
14.4849172609
30
0.0000000000
10
-15.2579913105
20
12.6216408777
30
0.0000000000
10
-15.4513092195
20
8.8728549087
30
0.0000000000
10
-15.6857627191
20
3.2788777330
30
0.0000000000
10
-15.8057892180
20
-0.4518441242
30
0.0000000000
10
-15.8561191890
20
-2.2962675607
30
0.0000000000
11
-15.1530826550
21
14.4849172609
31
0.0000000000
11
-15.4412846820
21
8.8936580776
31
0.0000000000
11
-15.6782602250
21
3.2362040678
31
0.0000000000
11
-15.8561191890
21
-2.2962675607
31
0.0000000000
0
SPLINE
5
3EC
100
AcDbEntity
8
0
100
AcDbSpline
62
7
6
CONTINUOUS
70
0
71
3
72
8
73
4
74
2
42
0.0000001000
43
0.0000001000
44
0.0000000001
12
-0.0047082666
22
-0.1725415858
32
0.0000000000
13
-0.0044160659
23
-0.1725508554
33
0.0000000000
40
0.0000000000
40
0.0000000000
40
0.0000000000
40
0.0000000000
40
1.0000000000
40
1.0000000000
40
1.0000000000
40
1.0000000000
10
-15.8561191678
20
-2.2962673664
30
0.0000000000
10
-15.8576885900
20
-2.3537812283
30
0.0000000000
10
-15.8592093806
20
-2.4112966863
30
0.0000000000
10
-15.8606814026
20
-2.4688136380
30
0.0000000000
11
-15.8561191678
21
-2.2962673664
31
0.0000000000
11
-15.8606814026
21
-2.4688136380
31
0.0000000000
0
SPLINE
5
3ED
100
AcDbEntity
8
0
100
AcDbSpline
62
7
6
CONTINUOUS
70
0
71
3
72
10
73
6
74
4
42
0.0000001000
43
0.0000001000
44
0.0000000001
12
-0.2509324491
22
-9.8047922672
32
0.0000000000
13
0.7740846933
23
-9.7773228915
33
0.0000000000
40
0.0000000000
40
0.0000000000
40
0.0000000000
40
0.0000000000
40
0.3251402035
40
0.6706578745
40
1.0000000000
40
1.0000000000
40
1.0000000000
40
1.0000000000
10
-15.8606814026
20
-2.4688136380
30
0.0000000000
10
-15.8878774784
20
-3.5314576890
30
0.0000000000
10
-15.9096376382
20
-5.7243964826
30
0.0000000000
10
-15.8309914888
20
-8.9933738991
30
0.0000000000
10
-15.6980702034
20
-11.1962774584
30
0.0000000000
10
-15.6130906374
20
-12.2696388928
30
0.0000000000
11
-15.8606814026
21
-2.4688136380
31
0.0000000000
11
-15.8914649587
21
-5.6576308219
31
0.0000000000
11
-15.8087894300
21
-9.0454131392
31
0.0000000000
11
-15.6130906374
21
-12.2696388928
31
0.0000000000
0
SPLINE
5
3EE
100
AcDbEntity
8
0
100
AcDbSpline
62
7
6
CONTINUOUS
70
0
71
3
72
9
73
5
74
3
42
0.0000001000
43
0.0000001000
44
0.0000000001
12
0.0268235812
22
-0.3365554302
32
0.0000000000
13
0.1548624044
23
-0.3013339941
33
0.0000000000
40
0.0000000000
40
0.0000000000
40
0.0000000000
40
0.0000000000
40
0.7462884676
40
1.0000000000
40
1.0000000000
40
1.0000000000
40
1.0000000000
10
-15.6130657355
20
-12.2699065685
30
0.0000000000
10
-15.6063930257
20
-12.3536290473
30
0.0000000000
10
-15.5828503208
20
-12.4654173058
30
0.0000000000
10
-15.5368053190
20
-12.5687745183
30
0.0000000000
10
-15.5237085264
20
-12.5942584881
30
0.0000000000
11
-15.6130657355
21
-12.2699065685
31
0.0000000000
11
-15.5587211524
21
-12.5157859822
31
0.0000000000
11
-15.5237085264
21
-12.5942584881
31
0.0000000000
0
SPLINE
5
3EF
100
AcDbEntity
8
0
100
AcDbSpline
62
7
6
CONTINUOUS
70
0
71
3
72
10
73
6
74
4
42
0.0000001000
43
0.0000001000
44
0.0000000001
12
0.2044704935
22
-0.3978622878
32
0.0000000000
13
0.4010449901
23
-0.1995572535
33
0.0000000000
40
0.0000000000
40
0.0000000000
40
0.0000000000
40
0.0000000000
40
0.3692789650
40
0.8986367584
40
1.0000000000
40
1.0000000000
40
1.0000000000
40
1.0000000000
10
-15.5237085264
20
-12.5942584881
30
0.0000000000
10
-15.4985396423
20
-12.6432325460
30
0.0000000000
10
-15.4245776196
20
-12.7557693248
30
0.0000000000
10
-15.3094259213
20
-12.8538374270
30
0.0000000000
10
-15.2265232543
20
-12.8986094777
30
0.0000000000
10
-15.2129728476
20
-12.9053520678
30
0.0000000000
11
-15.5237085264
21
-12.5942584881
31
0.0000000000
11
-15.4327683684
21
-12.7316006980
31
0.0000000000
11
-15.2529044905
21
-12.8837776579
31
0.0000000000
11
-15.2129728476
21
-12.9053520678
31
0.0000000000
0
SPLINE
5
3F0
100
AcDbEntity
8
0
100
AcDbSpline
62
7
6
CONTINUOUS
70
0
71
3
72
11
73
7
74
5
42
0.0000001000
43
0.0000001000
44
0.0000000001
12
0.5550279134
22
-0.2780803603
32
0.0000000000
13
0.5805203747
23
0.2206627827
33
0.0000000000
40
0.0000000000
40
0.0000000000
40
0.0000000000
40
0.0000000000
40
0.1997065663
40
0.5089938556
40
0.8334190004
40
1.0000000000
40
1.0000000000
40
1.0000000000
40
1.0000000000
10
15.3876855861
20
-28.2056980791
30
0.0000000000
10
15.4246331590
20
-28.2242095704
30
0.0000000000
10
15.5231636409
20
-28.2631539991
30
0.0000000000
10
15.6952395799
20
-28.2892666885
30
0.0000000000
10
15.8611681343
20
-28.2699649295
30
0.0000000000
10
15.9583698285
20
-28.2394665359
30
0.0000000000
10
15.9906043833
20
-28.2272137936
30
0.0000000000
11
15.3876855861
21
-28.2056980791
31
0.0000000000
11
15.5029612080
21
-28.2512295287
31
0.0000000000
11
15.6922446010
21
-28.2804221806
31
0.0000000000
11
15.8918860775
21
-28.2580132563
31
0.0000000000
11
15.9906043833
21
-28.2272137936
31
0.0000000000
0
SPLINE
5
3F1
100
AcDbEntity
8
0
100
AcDbSpline
62
7
6
CONTINUOUS
70
0
71
3
72
12
73
8
74
6
42
0.0000001000
43
0.0000001000
44
0.0000000001
12
-0.0145194311
22
-0.3465719125
32
0.0000000000
13
-0.3253355300
23
-0.1240273739
33
0.0000000000
40
0.0000000000
40
0.0000000000
40
0.0000000000
40
0.0000000000
40
0.2404201973
40
0.4609642753
40
0.6624953366
40
0.8494432161
40
1.0000000000
40
1.0000000000
40
1.0000000000
40
1.0000000000
10
19.0280447303
20
-26.8482459639
30
0.0000000000
10
19.0268811421
20
-26.8760202597
30
0.0000000000
10
19.0205716826
20
-26.9292495139
30
0.0000000000
10
18.9974953900
20
-27.0028269364
30
0.0000000000
10
18.9616898527
20
-27.0642866248
30
0.0000000000
10
18.9165173394
20
-27.1084867618
30
0.0000000000
10
18.8816935667
20
-27.1271778956
30
0.0000000000
10
18.8653664096
20
-27.1334022831
30
0.0000000000
11
19.0280447303
21
-26.8482459639
31
0.0000000000
11
19.0176482020
21
-26.9309913640
31
0.0000000000
11
18.9940720566
21
-27.0037693426
31
0.0000000000
11
18.9582176600
21
-27.0637805847
31
0.0000000000
11
18.9114610665
21
-27.1087143968
31
0.0000000000
11
18.8653664096
21
-27.1334022831
31
0.0000000000
0
SPLINE
5
3F2
100
AcDbEntity
8
0
100
AcDbSpline
62
7
6
CONTINUOUS
70
0
71
3
72
15
73
11
74
9
42
0.0000001000
43
0.0000001000
44
0.0000000001
12
0.6590491369
22
-0.3295245685
32
0.0000000000
13
-0.0308424059
23
-0.7361935562
33
0.0000000000
40
0.0000000000
40
0.0000000000
40
0.0000000000
40
0.0000000000
40
0.1098451028
40
0.2285729678
40
0.3545695040
40
0.4854532224
40
0.6183862851
40
0.7503509345
40
0.8784137974
40
1.0000000000
40
1.0000000000
40
1.0000000000
40
1.0000000000
10
20.2918295220
20
11.9306713111
30
0.0000000000
10
20.3159606288
20
11.9186057577
30
0.0000000000
10
20.3636316627
20
11.8882440469
30
0.0000000000
10
20.4285050733
20
11.8296669585
30
0.0000000000
10
20.4874848992
20
11.7583374386
30
0.0000000000
10
20.5383720404
20
11.6769298809
30
0.0000000000
10
20.5792939262
20
11.5884787025
30
0.0000000000
10
20.6087191759
20
11.4962829034
30
0.0000000000
10
20.6255477623
20
11.4038139348
30
0.0000000000
10
20.6280145483
20
11.3422724849
30
0.0000000000
10
20.6267645446
20
11.3124354920
30
0.0000000000
11
20.2918295220
21
11.9306713111
31
0.0000000000
11
20.3604279404
21
11.8877149610
31
0.0000000000
11
20.4256810647
21
11.8294451726
31
0.0000000000
11
20.4850808752
21
11.7580954683
31
0.0000000000
11
20.5363417532
21
11.6764067391
31
0.0000000000
11
20.5774918840
21
11.5875195641
31
0.0000000000
11
20.6069497714
21
11.4948523242
31
0.0000000000
11
20.6235855385
21
11.4019685688
31
0.0000000000
11
20.6267645446
21
11.3124354920
31
0.0000000000
0
SPLINE
5
3F3
100
AcDbEntity
8
0
100
AcDbSpline
62
7
6
CONTINUOUS
70
0
71
3
72
11
73
7
74
5
42
0.0000001000
43
0.0000001000
44
0.0000000001
12
-1.2500832807
22
5.0213826621
32
0.0000000000
13
1.5436236978
23
4.9390503063
33
0.0000000000
40
0.0000000000
40
0.0000000000
40
0.0000000000
40
0.0000000000
40
0.2700621606
40
0.5274006391
40
0.7707958747
40
1.0000000000
40
1.0000000000
40
1.0000000000
40
1.0000000000
10
-13.0585836682
20
-8.9581392313
30
0.0000000000
10
-13.1711170655
20
-8.5061107475
30
0.0000000000
10
-13.3432855521
20
-7.6104501367
30
0.0000000000
10
-13.4348707542
20
-6.2805226149
30
0.0000000000
10
-13.3522287940
20
-5.0202083929
30
0.0000000000
10
-13.1766256321
20
-4.2199167655
30
0.0000000000
10
-13.0586906589
20
-3.8425665304
30
0.0000000000
11
-13.0585836682
21
-8.9581392313
31
0.0000000000
11
-13.3187265154
21
-7.5850888537
31
0.0000000000
11
-13.4058401172
21
-6.2563050335
31
0.0000000000
11
-13.3182373167
21
-4.9998704026
31
0.0000000000
11
-13.0586906589
21
-3.8425665304
31
0.0000000000
0
SPLINE
5
3F4
100
AcDbEntity
8
0
100
AcDbSpline
62
9
6
CONTINUOUS
70
0
71
3
72
10
73
6
74
4
42
0.0000001000
43
0.0000001000
44
0.0000000001
12
-0.0480628740
22
-0.2221208139
32
0.0000000000
13
0.2054441898
23
-0.1016053945
33
0.0000000000
40
0.0000000000
40
0.0000000000
40
0.0000000000
40
0.0000000000
40
0.0634222175
40
0.4337948855
40
1.0000000000
40
1.0000000000
40
1.0000000000
40
1.0000000000
10
-14.0486422122
20
25.0691989842
30
0.0000000000
10
-14.0496582969
20
25.0645031860
30
0.0000000000
10
-14.0532935975
20
25.0322273413
30
0.0000000000
10
-14.0007875897
20
24.9620793484
30
0.0000000000
10
-13.9403106156
20
24.9275717084
30
0.0000000000
10
-13.9015360986
20
24.9083952104
30
0.0000000000
11
-14.0486422122
21
25.0691989842
31
0.0000000000
11
-14.0501567127
21
25.0551049789
31
0.0000000000
11
-14.0093026807
21
24.9806944149
31
0.0000000000
11
-13.9015360986
21
24.9083952104
31
0.0000000000
0
SPLINE
5
3F5
100
AcDbEntity
8
0
100
AcDbSpline
62
7
6
CONTINUOUS
70
0
71
3
72
9
73
5
74
3
42
0.0000001000
43
0.0000001000
44
0.0000000001
12
0.0617957043
22
0.1583900356
32
0.0000000000
13
0.1149129796
23
0.1258096457
33
0.0000000000
40
0.0000000000
40
0.0000000000
40
0.0000000000
40
0.0000000000
40
0.6146149270
40
1.0000000000
40
1.0000000000
40
1.0000000000
40
1.0000000000
10
-13.0452951739
20
-3.8043259514
30
0.0000000000
10
-13.0326349864
20
-3.7718763247
30
0.0000000000
10
-13.0070536632
20
-3.7207681849
30
0.0000000000
10
-12.9722850308
20
-3.6755805104
30
0.0000000000
10
-12.9575231151
20
-3.6594187906
30
0.0000000000
11
-13.0452951739
21
-3.8043259514
31
0.0000000000
11
-12.9977191403
21
-3.7112891382
31
0.0000000000
11
-12.9575231151
21
-3.6594187906
31
0.0000000000
0
SPLINE
5
3F6
100
AcDbEntity
8
0
100
AcDbSpline
62
7
6
CONTINUOUS
70
0
71
3
72
10
73
6
74
4
42
0.0000001000
43
0.0000001000
44
0.0000000001
12
0.0996186638
22
0.1090650407
32
0.0000000000
13
0.1355449964
23
0.0590137566
33
0.0000000000
40
0.0000000000
40
0.0000000000
40
0.0000000000
40
0.0000000000
40
0.2152713069
40
0.8438697602
40
1.0000000000
40
1.0000000000
40
1.0000000000
40
1.0000000000
10
-12.9575231151
20
-3.6594187906
30
0.0000000000
10
-12.9503747684
20
-3.6515925993
30
0.0000000000
10
-12.9211005226
20
-3.6220654143
30
0.0000000000
10
-12.8805956628
20
-3.5931977828
30
0.0000000000
10
-12.8456725325
20
-3.5765494738
30
0.0000000000
10
-12.8386183083
20
-3.5734781964
30
0.0000000000
11
-12.9575231151
21
-3.6594187906
31
0.0000000000
11
-12.9351197380
21
-3.6368640466
31
0.0000000000
11
-12.8594449884
21
-3.5834119035
31
0.0000000000
11
-12.8386183083
21
-3.5734781964
31
0.0000000000
0
SPLINE
5
3F7
100
AcDbEntity
8
0
100
AcDbSpline
62
7
6
CONTINUOUS
70
0
71
3
72
8
73
4
74
2
42
0.0000001000
43
0.0000001000
44
0.0000000001
12
-0.0338158103
22
0.0169079082
32
0.0000000000
13
-0.0329296919
23
0.0186316680
33
0.0000000000
40
0.0000000000
40
0.0000000000
40
0.0000000000
40
0.0000000000
40
1.0000000000
40
1.0000000000
40
1.0000000000
40
1.0000000000
10
-12.4685809589
20
-9.7595021053
30
0.0000000000
10
-12.4798528956
20
-9.7538661359
30
0.0000000000
10
-12.4909783710
20
-9.7479289912
30
0.0000000000
10
-12.5019549350
20
-9.7417184352
30
0.0000000000
11
-12.4685809589
21
-9.7595021053
31
0.0000000000
11
-12.5019549350
21
-9.7417184352
31
0.0000000000
0
SPLINE
5
3F8
100
AcDbEntity
8
0
100
AcDbSpline
62
7
6
CONTINUOUS
70
0
71
3
72
8
73
4
74
2
42
0.0000001000
43
0.0000001000
44
0.0000000001
12
-0.0781246437
22
0.0442030381
32
0.0000000000
13
-0.0729975121
23
0.0523243316
33
0.0000000000
40
0.0000000000
40
0.0000000000
40
0.0000000000
40
0.0000000000
40
1.0000000000
40
1.0000000000
40
1.0000000000
40
1.0000000000
10
-12.5019549350
20
-9.7417184352
30
0.0000000000
10
-12.5279964829
20
-9.7269840892
30
0.0000000000
10
-12.5531998673
20
-9.7107108188
30
0.0000000000
10
-12.5775323713
20
-9.6932693749
30
0.0000000000
11
-12.5019549350
21
-9.7417184352
31
0.0000000000
11
-12.5775323713
21
-9.6932693749
31
0.0000000000
0
SPLINE
5
3F9
100
AcDbEntity
8
0
100
AcDbSpline
62
7
6
CONTINUOUS
70
0
71
3
72
12
73
8
74
6
42
0.0000001000
43
0.0000001000
44
0.0000000001
12
-0.6063796134
22
0.4346505388
32
0.0000000000
13
-0.2630507493
23
0.6976882248
33
0.0000000000
40
0.0000000000
40
0.0000000000
40
0.0000000000
40
0.0000000000
40
0.1851583010
40
0.3819253418
40
0.5860987774
40
0.7935591437
40
1.0000000000
40
1.0000000000
40
1.0000000000
40
1.0000000000
10
-12.5775323713
20
-9.6932693749
30
0.0000000000
10
-12.6149577776
20
-9.6664429898
30
0.0000000000
10
-12.6879053740
20
-9.6054079476
30
0.0000000000
10
-12.7872075361
20
-9.4984838515
30
0.0000000000
10
-12.8768822132
20
-9.3764827681
30
0.0000000000
10
-12.9539745979
20
-9.2433852915
30
0.0000000000
10
-12.9956968278
20
-9.1492245515
30
0.0000000000
10
-13.0137983018
20
-9.1012141000
30
0.0000000000
11
-12.5775323713
21
-9.6932693749
31
0.0000000000
11
-12.6837518232
21
-9.6052322124
31
0.0000000000
11
-12.7838248446
21
-9.4980877692
31
0.0000000000
11
-12.8741025025
21
-9.3756415908
31
0.0000000000
11
-12.9516136430
21
-9.2419019467
31
0.0000000000
11
-13.0137983018
21
-9.1012141000
31
0.0000000000
0
SPLINE
5
3FA
100
AcDbEntity
8
0
100
AcDbSpline
62
7
6
CONTINUOUS
70
0
71
3
72
8
73
4
74
2
42
0.0000001000
43
0.0000001000
44
0.0000000001
12
-0.0387836157
22
0.1028655955
32
0.0000000000
13
-0.0299938899
23
0.1057270012
33
0.0000000000
40
0.0000000000
40
0.0000000000
40
0.0000000000
40
0.0000000000
40
1.0000000000
40
1.0000000000
40
1.0000000000
40
1.0000000000
10
-13.0137983018
20
-9.1012141000
30
0.0000000000
10
-13.0267261737
20
-9.0669255682
30
0.0000000000
10
-13.0382726566
20
-9.0321034828
30
0.0000000000
10
-13.0482706199
20
-8.9968611491
30
0.0000000000
11
-13.0137983018
21
-9.1012141000
31
0.0000000000
11
-13.0482706199
21
-8.9968611491
31
0.0000000000
0
SPLINE
5
3FB
100
AcDbEntity
8
0
100
AcDbSpline
62
7
6
CONTINUOUS
70
0
71
3
72
8
73
4
74
2
42
0.0000001000
43
0.0000001000
44
0.0000000001
12
-0.0109390783
22
0.0385597183
32
0.0000000000
13
-0.0096789106
23
0.0388786208
33
0.0000000000
40
0.0000000000
40
0.0000000000
40
0.0000000000
40
0.0000000000
40
1.0000000000
40
1.0000000000
40
1.0000000000
40
1.0000000000
10
-13.0482706199
20
-8.9968611491
30
0.0000000000
10
-13.0519169793
20
-8.9840079096
30
0.0000000000
10
-13.0553573647
20
-8.9710987715
30
0.0000000000
10
-13.0585836682
20
-8.9581392312
30
0.0000000000
11
-13.0482706199
21
-8.9968611491
31
0.0000000000
11
-13.0585836682
21
-8.9581392312
31
0.0000000000
0
SPLINE
5
3FC
100
AcDbEntity
8
0
100
AcDbSpline
62
9
6
CONTINUOUS
70
0
71
3
72
9
73
5
74
3
42
0.0000001000
43
0.0000001000
44
0.0000000001
12
0.0212696046
22
-0.2374292783
32
0.0000000000
13
0.2124242769
23
-0.1071384024
33
0.0000000000
40
0.0000000000
40
0.0000000000
40
0.0000000000
40
0.0000000000
40
0.4291841258
40
1.0000000000
40
1.0000000000
40
1.0000000000
40
1.0000000000
10
-15.6130173148
20
-12.2699021971
30
0.0000000000
10
-15.6099744559
20
-12.3038691562
30
0.0000000000
10
-15.5749982179
20
-12.3814429530
30
0.0000000000
10
-15.5069745383
20
-12.4274982809
30
0.0000000000
10
-15.4665561551
20
-12.4478837145
30
0.0000000000
11
-15.6130173148
21
-12.2699021971
31
0.0000000000
11
-15.5738646575
21
-12.3646503696
31
0.0000000000
11
-15.4665561551
21
-12.4478837145
31
0.0000000000
0
SPLINE
5
3FD
100
AcDbEntity
8
0
100
AcDbSpline
62
7
6
CONTINUOUS
70
0
71
3
72
11
73
7
74
5
42
0.0000001000
43
0.0000001000
44
0.0000000001
12
-0.3426857308
22
-0.1492029955
32
0.0000000000
13
-0.3329781364
23
0.1664890682
33
0.0000000000
40
0.0000000000
40
0.0000000000
40
0.0000000000
40
0.0000000000
40
0.1447217023
40
0.4043581810
40
0.6874946763
40
1.0000000000
40
1.0000000000
40
1.0000000000
40
1.0000000000
10
-3.9135374119
20
-13.8903373095
30
0.0000000000
10
-3.9300687660
20
-13.8975349467
30
0.0000000000
10
-3.9780563879
20
-13.9135582814
30
0.0000000000
10
-4.0641937842
20
-13.9206844098
30
0.0000000000
10
-4.1696411806
20
-13.9022155099
30
0.0000000000
10
-4.2386902685
20
-13.8744474505
30
0.0000000000
10
-4.2733760820
20
-13.8571045438
30
0.0000000000
11
-3.9135374119
21
-13.8903373095
31
0.0000000000
11
-3.9647614297
21
-13.9074889694
31
0.0000000000
11
-4.0610008363
21
-13.9164715452
31
0.0000000000
11
-4.1650288749
21
-13.8994816758
31
0.0000000000
11
-4.2733760820
21
-13.8571045438
31
0.0000000000
0
SPLINE
5
3FE
100
AcDbEntity
8
0
100
AcDbSpline
62
9
6
CONTINUOUS
70
0
71
3
72
10
73
6
74
4
42
0.0000001000
43
0.0000001000
44
0.0000000001
12
-0.0186900718
22
-0.2343768982
32
0.0000000000
13
0.2120922398
23
-0.1059096910
33
0.0000000000
40
0.0000000000
40
0.0000000000
40
0.0000000000
40
0.0000000000
40
0.0387670341
40
0.4427490442
40
1.0000000000
40
1.0000000000
40
1.0000000000
40
1.0000000000
10
-15.1529117595
20
14.4849034877
30
0.0000000000
10
-15.1531532790
20
14.4818747886
30
0.0000000000
10
-15.1542675228
20
14.4472711556
30
0.0000000000
10
-15.1114779125
20
14.3709685943
30
0.0000000000
10
-15.0459230238
20
14.3310301120
30
0.0000000000
10
-15.0065268227
20
14.3113573531
30
0.0000000000
11
-15.1529117595
21
14.4849034877
31
0.0000000000
11
-15.1531946159
21
14.4758213041
31
0.0000000000
11
-15.1137221788
21
14.3885639498
31
0.0000000000
11
-15.0065268227
21
14.3113573531
31
0.0000000000
0
SPLINE
5
3FF
100
AcDbEntity
8
0
100
AcDbSpline
62
9
6
CONTINUOUS
70
0
71
3
72
9
73
5
74
3
42
0.0000001000
43
0.0000001000
44
0.0000000001
12
0.2151626233
22
0.1038880206
32
0.0000000000
13
0.2133205017
23
-0.1013948944
33
0.0000000000
40
0.0000000000
40
0.0000000000
40
0.0000000000
40
0.0000000000
40
0.3936518050
40
1.0000000000
40
1.0000000000
40
1.0000000000
40
1.0000000000
10
-13.4296761584
20
25.9716347348
30
0.0000000000
10
-13.4014431067
20
25.9852666371
30
0.0000000000
10
-13.3213783671
20
26.0042639824
30
0.0000000000
10
-13.2422263161
20
25.9815898464
30
0.0000000000
10
-13.1991108157
20
25.9610963094
30
0.0000000000
11
-13.4296761584
21
25.9716347348
31
0.0000000000
11
-13.3385492800
21
25.9937658302
31
0.0000000000
11
-13.1991108157
21
25.9610963094
31
0.0000000000
0
SPLINE
5
400
100
AcDbEntity
8
0
100
AcDbSpline
62
9
6
CONTINUOUS
70
0
71
3
72
10
73
6
74
4
42
0.0000001000
43
0.0000001000
44
0.0000000001
12
-0.0097572484
22
-0.2364876272
32
0.0000000000
13
0.2131202602
23
-0.1066934615
33
0.0000000000
40
0.0000000000
40
0.0000000000
40
0.0000000000
40
0.0000000000
40
0.0268215985
40
0.4424602651
40
1.0000000000
40
1.0000000000
40
1.0000000000
40
1.0000000000
10
-15.8560517044
20
-2.2962703450
30
0.0000000000
10
-15.8561389394
20
-2.2983846704
30
0.0000000000
10
-15.8565152053
20
-2.3332594204
30
0.0000000000
10
-15.8160593051
20
-2.4106593259
30
0.0000000000
10
-15.7492696004
20
-2.4523139585
30
0.0000000000
10
-15.7096619293
20
-2.4721425732
30
0.0000000000
11
-15.8560517044
21
-2.2962703450
31
0.0000000000
11
-15.8561173972
21
-2.3026105220
31
0.0000000000
11
-15.8167985790
21
-2.3935346063
31
0.0000000000
11
-15.7096619293
21
-2.4721425732
31
0.0000000000
0
SPLINE
5
401
100
AcDbEntity
8
0
100
AcDbSpline
62
9
6
CONTINUOUS
70
0
71
3
72
13
73
9
74
7
42
0.0000001000
43
0.0000001000
44
0.0000000001
12
-0.4893111813
22
0.2446434827
32
0.0000000000
13
-0.0439199335
23
0.5437732474
33
0.0000000000
40
0.0000000000
40
0.0000000000
40
0.0000000000
40
0.0000000000
40
0.1104865579
40
0.2859597192
40
0.4663804017
40
0.6495509779
40
0.8300454182
40
1.0000000000
40
1.0000000000
40
1.0000000000
40
1.0000000000
10
-15.2135205841
20
-12.9051004222
30
0.0000000000
10
-15.2315413535
20
-12.8960904834
30
0.0000000000
10
-15.2762737163
20
-12.8689303344
30
0.0000000000
10
-15.3385792161
20
-12.8101513551
30
0.0000000000
10
-15.3932952374
20
-12.7279606625
30
0.0000000000
10
-15.4319195589
20
-12.6363568511
30
0.0000000000
10
-15.4558292564
20
-12.5420182697
30
0.0000000000
10
-15.4640680492
20
-12.4786893151
30
0.0000000000
10
-15.4665561805
20
-12.4478837302
30
0.0000000000
11
-15.2135205841
21
-12.9051004222
31
0.0000000000
11
-15.2651331281
21
-12.8737770628
31
0.0000000000
11
-15.3351417657
21
-12.8084876656
31
0.0000000000
11
-15.3902844006
21
-12.7269570052
31
0.0000000000
11
-15.4296939332
21
-12.6351288102
31
0.0000000000
11
-15.4543216765
21
-12.5397906976
31
0.0000000000
11
-15.4665561805
21
-12.4478837302
31
0.0000000000
0
SPLINE
5
402
100
AcDbEntity
8
0
100
AcDbSpline
62
7
6
CONTINUOUS
70
0
71
3
72
9
73
5
74
3
42
0.0000001000
43
0.0000001000
44
0.0000000001
12
0.0120887911
22
0.0386798593
32
0.0000000000
13
0.0147294243
23
0.0377533368
33
0.0000000000
40
0.0000000000
40
0.0000000000
40
0.0000000000
40
0.0000000000
40
0.5036471606
40
1.0000000000
40
1.0000000000
40
1.0000000000
40
1.0000000000
10
-13.0586906590
20
-3.8425665306
30
0.0000000000
10
-13.0566611638
20
-3.8360728635
30
0.0000000000
10
-13.0524168304
20
-3.8232456084
30
0.0000000000
10
-13.0477321710
20
-3.8105722767
30
0.0000000000
10
-13.0452951739
20
-3.8043259514
30
0.0000000000
11
-13.0586906590
21
-3.8425665306
31
0.0000000000
11
-13.0522741776
21
-3.8231910865
31
0.0000000000
11
-13.0452951739
21
-3.8043259514
31
0.0000000000
0
SPLINE
5
403
100
AcDbEntity
8
0
100
AcDbSpline
62
9
6
CONTINUOUS
70
0
71
3
72
10
73
6
74
4
42
0.0000001000
43
0.0000001000
44
0.0000000001
12
-0.0217458731
22
-0.3462382260
32
0.0000000000
13
-0.3300470046
23
-0.1239831004
33
0.0000000000
40
0.0000000000
40
0.0000000000
40
0.0000000000
40
0.0000000000
40
0.4638587914
40
0.8515019557
40
1.0000000000
40
1.0000000000
40
1.0000000000
40
1.0000000000
10
16.1572767397
20
-27.9405463685
30
0.0000000000
10
16.1539144015
20
-27.9940815835
30
0.0000000000
10
16.1342987006
20
-28.0927282401
30
0.0000000000
10
16.0631997256
20
-28.1912760857
30
0.0000000000
10
16.0070565996
20
-28.2205110095
30
0.0000000000
10
15.9907194881
20
-28.2266480921
30
0.0000000000
11
16.1572767397
21
-27.9405463685
31
0.0000000000
11
16.1203981276
21
-28.0971857283
31
0.0000000000
11
16.0367744312
21
-28.2025057526
31
0.0000000000
11
15.9907194881
21
-28.2266480921
31
0.0000000000
0
SPLINE
5
404
100
AcDbEntity
8
0
100
AcDbSpline
62
9
6
CONTINUOUS
70
0
71
3
72
17
73
13
74
11
42
0.0000001000
43
0.0000001000
44
0.0000000001
12
0.0413159910
22
-0.4829996776
32
0.0000000000
13
0.4530757049
23
0.1723894002
33
0.0000000000
40
0.0000000000
40
0.0000000000
40
0.0000000000
40
0.0000000000
40
0.0949109521
40
0.1966240434
40
0.3008510210
40
0.4046214250
40
0.5066434099
40
0.6072069958
40
0.7072854968
40
0.8072044374
40
0.9057426169
40
1.0000000000
40
1.0000000000
40
1.0000000000
40
1.0000000000
10
15.8241970995
20
-27.7082493054
30
0.0000000000
10
15.8255042129
20
-27.7235299585
30
0.0000000000
10
15.8298005953
20
-27.7550804185
30
0.0000000000
10
15.8421633609
20
-27.8022475375
30
0.0000000000
10
15.8621492090
20
-27.8483927220
30
0.0000000000
10
15.8904955954
20
-27.8901278104
30
0.0000000000
10
15.9270162887
20
-27.9242353039
30
0.0000000000
10
15.9702713200
20
-27.9481375829
30
0.0000000000
10
16.0176671910
20
-27.9606688177
30
0.0000000000
10
16.0662183142
20
-27.9624099409
30
0.0000000000
10
16.1131941651
20
-27.9552550710
30
0.0000000000
10
16.1430414962
20
-27.9459626931
30
0.0000000000
10
16.1572767397
20
-27.9405463685
30
0.0000000000
11
15.8241970995
21
-27.7082493054
31
0.0000000000
11
15.8305335075
21
-27.7538202618
31
0.0000000000
11
15.8432374889
21
-27.8014623578
31
0.0000000000
11
15.8635837848
21
-27.8477100421
31
0.0000000000
11
15.8921088551
21
-27.8891446145
31
0.0000000000
11
15.9284080307
21
-27.9227350768
31
0.0000000000
11
15.9710854567
21
-27.9462968467
31
0.0000000000
11
16.0179397225
21
-27.9588796010
31
0.0000000000
11
16.0663348387
21
-27.9608949283
31
0.0000000000
11
16.1135955969
21
-27.9539540644
31
0.0000000000
11
16.1572767397
21
-27.9405463685
31
0.0000000000
0
SPLINE
5
405
100
AcDbEntity
8
0
100
AcDbSpline
62
9
6
CONTINUOUS
70
0
71
3
72
13
73
9
74
7
42
0.0000001000
43
0.0000001000
44
0.0000000001
12
0.0461573433
22
-0.5498142995
32
0.0000000000
13
0.4942193737
23
-0.2485615475
33
0.0000000000
40
0.0000000000
40
0.0000000000
40
0.0000000000
40
0.0000000000
40
0.1665255826
40
0.3447131859
40
0.5269205434
40
0.7078425732
40
0.8851968336
40
1.0000000000
40
1.0000000000
40
1.0000000000
40
1.0000000000
10
15.1281012870
20
-27.7452124639
30
0.0000000000
10
15.1306634132
20
-27.7757318461
30
0.0000000000
10
15.1390988074
20
-27.8387035595
30
0.0000000000
10
15.1634270044
20
-27.9328060097
30
0.0000000000
10
15.2027843127
20
-28.0247718279
30
0.0000000000
10
15.2586438990
20
-28.1078500600
30
0.0000000000
10
15.3226213283
20
-28.1680414831
30
0.0000000000
10
15.3687771283
20
-28.1961944629
30
0.0000000000
10
15.3876897779
20
-28.2057063472
30
0.0000000000
11
15.1281012870
21
-27.7452124639
31
0.0000000000
11
15.1405590861
21
-27.8362442049
31
0.0000000000
11
15.1655792390
21
-27.9313219418
31
0.0000000000
11
15.2056794759
21
-28.0235107546
31
0.0000000000
11
15.2619257047
21
-28.1059794149
31
0.0000000000
11
15.3335294527
21
-28.1726764122
31
0.0000000000
11
15.3876897779
21
-28.2057063472
31
0.0000000000
0
SPLINE
5
406
100
AcDbEntity
8
0
100
AcDbSpline
62
9
6
CONTINUOUS
70
0
71
3
72
11
73
7
74
5
42
0.0000001000
43
0.0000001000
44
0.0000000001
12
-0.6198680140
22
-0.3659743679
32
0.0000000000
13
-0.6449687797
23
0.3196699329
33
0.0000000000
40
0.0000000000
40
0.0000000000
40
0.0000000000
40
0.0000000000
40
0.2426393784
40
0.5075702030
40
0.7684053900
40
1.0000000000
40
1.0000000000
40
1.0000000000
40
1.0000000000
10
15.8241970995
20
-27.7082493054
30
0.0000000000
10
15.7740623030
20
-27.7378492364
30
0.0000000000
10
15.6592829008
20
-27.7832019948
30
0.0000000000
10
15.4759530789
20
-27.8121043636
30
0.0000000000
10
15.2932418222
20
-27.8032438643
30
0.0000000000
10
15.1778917371
20
-27.7698903966
30
0.0000000000
10
15.1281013061
20
-27.7452124521
30
0.0000000000
11
15.8241970995
21
-27.7082493054
31
0.0000000000
11
15.6628797126
21
-27.7752088780
31
0.0000000000
11
15.4746204723
21
-27.8056753131
31
0.0000000000
11
15.2871548264
21
-27.7951601178
31
0.0000000000
11
15.1281013061
21
-27.7452124521
31
0.0000000000
0
SPLINE
5
407
100
AcDbEntity
8
0
100
AcDbSpline
62
9
6
CONTINUOUS
70
0
71
3
72
11
73
7
74
5
42
0.0000001000
43
0.0000001000
44
0.0000000001
12
-0.6555811344
22
-0.2849553020
32
0.0000000000
13
-0.6395259813
23
0.3193629084
33
0.0000000000
40
0.0000000000
40
0.0000000000
40
0.0000000000
40
0.0000000000
40
0.2354214742
40
0.5000177931
40
0.7646045821
40
1.0000000000
40
1.0000000000
40
1.0000000000
40
1.0000000000
10
15.5464477944
20
-17.7699318612
30
0.0000000000
10
15.4950018353
20
-17.7922933936
30
0.0000000000
10
15.3784191514
20
-17.8229011195
30
0.0000000000
10
15.1957135552
20
-17.8341729731
30
0.0000000000
10
15.0138689217
20
-17.8132298142
30
0.0000000000
10
14.8990816707
20
-17.7764829396
30
0.0000000000
10
14.8489011755
20
-17.7514240845
30
0.0000000000
11
15.5464477944
21
-17.7699318612
31
0.0000000000
11
15.3845788864
21
-17.8159642428
31
0.0000000000
11
15.1958591792
21
-17.8285987839
31
0.0000000000
11
15.0080818202
21
-17.8059747690
31
0.0000000000
11
14.8489011755
21
-17.7514240845
31
0.0000000000
0
SPLINE
5
408
100
AcDbEntity
8
0
100
AcDbSpline
62
9
6
CONTINUOUS
70
0
71
3
72
10
73
6
74
4
42
0.0000001000
43
0.0000001000
44
0.0000000001
12
-0.2632428186
22
-9.9433104349
32
0.0000000000
13
0.8477025122
23
-9.9106064213
33
0.0000000000
40
0.0000000000
40
0.0000000000
40
0.0000000000
40
0.0000000000
40
0.3392207477
40
0.6726153642
40
1.0000000000
40
1.0000000000
40
1.0000000000
40
1.0000000000
10
15.5464477944
20
-17.7699318612
30
0.0000000000
10
15.5166819858
20
-18.8942575946
30
0.0000000000
10
15.4967249224
20
-21.1248658383
30
0.0000000000
10
15.5882720261
20
-24.4398874570
30
0.0000000000
10
15.7316888401
20
-26.6267225474
30
0.0000000000
10
15.8241970995
20
-27.7082493054
30
0.0000000000
11
15.5464477944
21
-17.7699318612
31
0.0000000000
11
15.5172899643
21
-21.1439649145
31
0.0000000000
11
15.6099321450
21
-24.4588783376
31
0.0000000000
11
15.8241970995
21
-27.7082493054
31
0.0000000000
0
SPLINE
5
409
100
AcDbEntity
8
0
100
AcDbSpline
62
9
6
CONTINUOUS
70
0
71
3
72
10
73
6
74
4
42
0.0000001000
43
0.0000001000
44
0.0000000001
12
-0.2647370494
22
-9.9988045128
32
0.0000000000
13
0.8522615380
23
-9.9659333563
33
0.0000000000
40
0.0000000000
40
0.0000000000
40
0.0000000000
40
0.0000000000
40
0.3392270163
40
0.6726147432
40
1.0000000000
40
1.0000000000
40
1.0000000000
40
1.0000000000
10
14.8489011321
20
-17.7514241044
30
0.0000000000
10
14.8189658123
20
-18.8820456449
30
0.0000000000
10
14.7988876232
20
-21.1251008766
30
0.0000000000
10
14.8909130630
20
-24.4586246558
30
0.0000000000
10
15.0350953328
20
-26.6576459136
30
0.0000000000
10
15.1281012870
20
-27.7452124639
30
0.0000000000
11
14.8489011321
21
-17.7514241044
31
0.0000000000
11
14.8195646594
21
-21.1443505836
31
0.0000000000
11
14.9126894361
21
-24.4776969377
31
0.0000000000
11
15.1281012870
21
-27.7452124639
31
0.0000000000
0
SPLINE
5
40A
100
AcDbEntity
8
0
100
AcDbSpline
62
9
6
CONTINUOUS
70
0
71
3
72
10
73
6
74
4
42
0.0000001000
43
0.0000001000
44
0.0000000001
12
-0.9569814345
22
-16.7546975647
32
0.0000000000
13
-0.4441459803
23
-16.7761270352
33
0.0000000000
40
0.0000000000
40
0.0000000000
40
0.0000000000
40
0.0000000000
40
0.3349057511
40
0.6682320891
40
1.0000000000
40
1.0000000000
40
1.0000000000
40
1.0000000000
10
16.2488797409
20
-1.0032154450
30
0.0000000000
10
16.1420468789
20
-2.8736303022
30
0.0000000000
10
15.9475995856
20
-6.6067373417
30
0.0000000000
10
15.7133097106
20
-12.1959179253
30
0.0000000000
10
15.5955655890
20
-15.9146716548
30
0.0000000000
10
15.5464477944
20
-17.7699318612
30
0.0000000000
11
16.2488797409
21
-1.0032154450
31
0.0000000000
11
15.9566566436
21
-6.6160035799
31
0.0000000000
11
15.7225094356
21
-12.2049853909
31
0.0000000000
11
15.5464477944
21
-17.7699318612
31
0.0000000000
0
SPLINE
5
40B
100
AcDbEntity
8
0
100
AcDbSpline
62
9
6
CONTINUOUS
70
0
71
3
72
10
73
6
74
4
42
0.0000001000
43
0.0000001000
44
0.0000000001
12
-0.9579326398
22
-16.7714693874
32
0.0000000000
13
-0.4445973250
23
-16.7929197454
33
0.0000000000
40
0.0000000000
40
0.0000000000
40
0.0000000000
40
0.0000000000
40
0.3349060665
40
0.6682320406
40
1.0000000000
40
1.0000000000
40
1.0000000000
40
1.0000000000
10
15.5520362137
20
-0.9679241883
30
0.0000000000
10
15.4450970629
20
-2.8402131357
30
0.0000000000
10
15.2504561822
20
-6.5770567910
30
0.0000000000
10
15.0159317969
20
-12.1718321351
30
0.0000000000
10
14.8980688479
20
-15.8943065320
30
0.0000000000
10
14.8489011321
20
-17.7514241044
30
0.0000000000
11
15.5520362137
21
-0.9679241883
31
0.0000000000
11
15.2595218705
21
-6.5863360921
31
0.0000000000
11
15.0251405524
21
-12.1809063598
31
0.0000000000
11
14.8489011321
21
-17.7514241044
31
0.0000000000
0
SPLINE
5
40C
100
AcDbEntity
8
0
100
AcDbSpline
62
9
6
CONTINUOUS
70
0
71
3
72
11
73
7
74
5
42
0.0000001000
43
0.0000001000
44
0.0000000001
12
-0.6646336914
22
-0.2586084170
32
0.0000000000
13
-0.6377174739
23
0.3192689785
33
0.0000000000
40
0.0000000000
40
0.0000000000
40
0.0000000000
40
0.0000000000
40
0.2333389455
40
0.4978369136
40
0.7634901265
40
1.0000000000
40
1.0000000000
40
1.0000000000
40
1.0000000000
10
16.2488797409
20
-1.0032154450
30
0.0000000000
10
16.1971847660
20
-1.0233299168
30
0.0000000000
10
16.0804074309
20
-1.0494311727
30
0.0000000000
10
15.8982398550
20
-1.0554420449
30
0.0000000000
10
15.7168635880
20
-1.0308838415
30
0.0000000000
10
15.6023117076
20
-0.9930942765
30
0.0000000000
10
15.5520362146
20
-0.9679241879
30
0.0000000000
11
16.2488797409
21
-1.0032154450
31
0.0000000000
11
16.0872757440
21
-1.0429245096
31
0.0000000000
11
15.8987819233
21
-1.0501669799
31
0.0000000000
11
15.7111581637
21
-1.0238762417
31
0.0000000000
11
15.5520362146
21
-0.9679241879
31
0.0000000000
0
SPLINE
5
40D
100
AcDbEntity
8
0
100
AcDbSpline
62
9
6
CONTINUOUS
70
0
71
3
72
10
73
6
74
4
42
0.0000001000
43
0.0000001000
44
0.0000000001
12
-1.6419952752
22
-10.4568816058
32
0.0000000000
13
-0.6036068829
23
-10.5677897468
33
0.0000000000
40
0.0000000000
40
0.0000000000
40
0.0000000000
40
0.0000000000
40
0.3380253398
40
0.6714539242
40
1.0000000000
40
1.0000000000
40
1.0000000000
40
1.0000000000
10
17.3837255466
20
9.5169528560
30
0.0000000000
10
17.1987135430
20
8.3387225368
30
0.0000000000
10
16.8678589956
20
5.9923340023
30
0.0000000000
10
16.4885586586
20
2.4838692513
30
0.0000000000
10
16.3149839651
20
0.1541198386
30
0.0000000000
10
16.2488797409
20
-1.0032154450
30
0.0000000000
11
17.3837255466
21
9.5169528560
31
0.0000000000
11
16.8848985640
21
5.9738924868
31
0.0000000000
11
16.5063717586
21
2.4649037002
31
0.0000000000
11
16.2488797409
21
-1.0032154450
31
0.0000000000
0
SPLINE
5
40E
100
AcDbEntity
8
0
100
AcDbSpline
62
9
6
CONTINUOUS
70
0
71
3
72
10
73
6
74
4
42
0.0000001000
43
0.0000001000
44
0.0000000001
12
-1.6509926174
22
-10.5153661448
32
0.0000000000
13
-0.6069551406
23
-10.6268672354
33
0.0000000000
40
0.0000000000
40
0.0000000000
40
0.0000000000
40
0.0000000000
40
0.3380310423
40
0.6714527373
40
1.0000000000
40
1.0000000000
40
1.0000000000
40
1.0000000000
10
16.6931211177
20
9.6110664139
30
0.0000000000
10
16.5070921993
20
8.4262263546
30
0.0000000000
10
16.1744251332
20
6.0667202109
30
0.0000000000
10
15.7930400669
20
2.5386388361
30
0.0000000000
10
15.6185073638
20
0.1958851922
30
0.0000000000
10
15.5520362137
20
-0.9679241883
30
0.0000000000
11
16.6931211177
21
9.6110664139
31
0.0000000000
11
16.1915514861
21
6.0481318896
31
0.0000000000
11
15.8109521095
21
2.5195962418
31
0.0000000000
11
15.5520362137
21
-0.9679241883
31
0.0000000000
0
SPLINE
5
40F
100
AcDbEntity
8
0
100
AcDbSpline
62
9
6
CONTINUOUS
70
0
71
3
72
11
73
7
74
5
42
0.0000001000
43
0.0000001000
44
0.0000000001
12
-0.6891948147
22
-0.1589547906
32
0.0000000000
13
-0.6312369450
23
0.3190549128
33
0.0000000000
40
0.0000000000
40
0.0000000000
40
0.0000000000
40
0.0000000000
40
0.2265189627
40
0.4907088504
40
0.7598153728
40
1.0000000000
40
1.0000000000
40
1.0000000000
40
1.0000000000
10
17.3837255466
20
9.5169528560
30
0.0000000000
10
17.3316869817
20
9.5049507646
30
0.0000000000
10
17.2154420175
20
9.4947539309
30
0.0000000000
10
17.0362579128
20
9.5069347538
30
0.0000000000
10
16.8571915815
20
9.5440340975
30
0.0000000000
10
16.7436589637
20
9.5855223961
30
0.0000000000
10
16.6931211602
20
9.6110664245
30
0.0000000000
11
17.3837255466
21
9.5169528560
31
0.0000000000
11
17.2244774295
21
9.4993858679
31
0.0000000000
11
17.0379826111
21
9.5110352112
31
0.0000000000
11
16.8517165909
21
9.5501846369
31
0.0000000000
11
16.6931211602
21
9.6110664245
31
0.0000000000
0
SPLINE
5
410
100
AcDbEntity
8
0
100
AcDbSpline
62
9
6
CONTINUOUS
70
0
71
3
72
17
73
13
74
11
42
0.0000001000
43
0.0000001000
44
0.0000000001
12
-0.6018863425
22
-0.2667775736
32
0.0000000000
13
-0.1021293152
23
-0.6503899185
33
0.0000000000
40
0.0000000000
40
0.0000000000
40
0.0000000000
40
0.0000000000
40
0.0703112442
40
0.1542819780
40
0.2507542711
40
0.3576479158
40
0.4717295014
40
0.5887797762
40
0.7041454398
40
0.8134238824
40
0.9129621745
40
1.0000000000
40
1.0000000000
40
1.0000000000
40
1.0000000000
10
17.7483082312
20
10.0366184781
30
0.0000000000
10
17.7342017720
20
10.0303659904
30
0.0000000000
10
17.7040286855
20
10.0148367316
30
0.0000000000
10
17.6580497471
20
9.9844093068
30
0.0000000000
10
17.6094691207
20
9.9440121737
30
0.0000000000
10
17.5608506110
20
9.8939393061
30
0.0000000000
10
17.5148345240
20
9.8355932058
30
0.0000000000
10
17.4738332007
20
9.7714092106
30
0.0000000000
10
17.4396698380
20
9.7045306907
30
0.0000000000
10
17.4133231298
20
9.6383354475
30
0.0000000000
10
17.3948578039
20
9.5760034467
30
0.0000000000
10
17.3866885844
20
9.5358223641
30
0.0000000000
10
17.3837255466
20
9.5169528560
30
0.0000000000
11
17.7483082312
21
10.0366184781
31
0.0000000000
11
17.7070912843
21
10.0155487029
31
0.0000000000
11
17.6609004833
21
9.9851741446
31
0.0000000000
11
17.6119595420
21
9.9446927336
31
0.0000000000
11
17.5628316798
21
9.8943040613
31
0.0000000000
11
17.5162410111
21
9.8353945707
31
0.0000000000
11
17.4747154951
21
9.7704788032
31
0.0000000000
11
17.4401697720
21
9.7028377330
31
0.0000000000
11
17.4136099681
21
9.6359752581
31
0.0000000000
11
17.3950668527
21
9.5731214961
31
0.0000000000
11
17.3837255466
21
9.5169528560
31
0.0000000000
0
SPLINE
5
411
100
AcDbEntity
8
0
100
AcDbSpline
62
9
6
CONTINUOUS
70
0
71
3
72
17
73
13
74
11
42
0.0000001000
43
0.0000001000
44
0.0000000001
12
-1.1960579267
22
-0.5447168946
32
0.0000000000
13
-0.2018312098
23
-1.2986667093
33
0.0000000000
40
0.0000000000
40
0.0000000000
40
0.0000000000
40
0.0000000000
40
0.0699145623
40
0.1535328555
40
0.2497449838
40
0.3565054678
40
0.4705943290
40
0.5877806553
40
0.7033756560
40
0.8129275012
40
0.9127347291
40
1.0000000000
40
1.0000000000
40
1.0000000000
40
1.0000000000
10
17.4133732086
20
10.6548542972
30
0.0000000000
10
17.3854992531
20
10.6421597495
30
0.0000000000
10
17.3258808133
20
10.6106901088
30
0.0000000000
10
17.2350958250
20
10.5492516050
30
0.0000000000
10
17.1391761860
20
10.4678594473
30
0.0000000000
10
17.0431721000
20
10.3671305379
30
0.0000000000
10
16.9522883423
20
10.2498940031
30
0.0000000000
10
16.8712868837
20
10.1210420523
30
0.0000000000
10
16.8037728917
20
9.9868802658
30
0.0000000000
10
16.7516874182
20
9.8541781787
30
0.0000000000
10
16.7151643037
20
9.7293006561
30
0.0000000000
10
16.6989920695
20
9.6488425812
30
0.0000000000
10
16.6931211177
20
9.6110664139
30
0.0000000000
11
17.4133732086
21
10.6548542972
31
0.0000000000
11
17.3319916745
21
10.6121925304
31
0.0000000000
11
17.2407943329
21
10.5508724125
31
0.0000000000
11
17.1441614010
21
10.4693185428
31
0.0000000000
11
17.0471424229
21
10.3679557805
31
0.0000000000
11
16.9551099334
21
10.2495807648
31
0.0000000000
11
16.8730569690
21
10.1192454505
31
0.0000000000
11
16.8047729227
21
9.9835345901
31
0.0000000000
11
16.7522555072
21
9.8494750917
31
0.0000000000
11
16.7155732166
21
9.7235362557
31
0.0000000000
11
16.6931211177
21
9.6110664139
31
0.0000000000
0
SPLINE
5
412
100
AcDbEntity
8
0
100
AcDbSpline
62
9
6
CONTINUOUS
70
0
71
3
72
11
73
7
74
5
42
0.0000001000
43
0.0000001000
44
0.0000000001
12
0.0150877327
22
0.7320718419
32
0.0000000000
13
-0.6480431086
23
0.3408767384
33
0.0000000000
40
0.0000000000
40
0.0000000000
40
0.0000000000
40
0.0000000000
40
0.2493292309
40
0.5152780187
40
0.7728626908
40
1.0000000000
40
1.0000000000
40
1.0000000000
40
1.0000000000
10
17.7483082312
20
10.0366184781
30
0.0000000000
10
17.7495621688
20
10.0974607812
30
0.0000000000
10
17.7318525444
20
10.2238474356
30
0.0000000000
10
17.6614537953
20
10.4005567198
30
0.0000000000
10
17.5556484893
20
10.5520737555
30
0.0000000000
10
17.4624381312
20
10.6290456889
30
0.0000000000
10
17.4133732086
20
10.6548542972
30
0.0000000000
11
17.7483082312
21
10.0366184781
31
0.0000000000
11
17.7255809227
21
10.2177639812
31
0.0000000000
11
17.6539559779
21
10.3988484179
31
0.0000000000
11
17.5443282546
21
10.5523270617
31
0.0000000000
11
17.4133732086
21
10.6548542972
31
0.0000000000
0
SPLINE
5
413
100
AcDbEntity
8
0
100
AcDbSpline
62
9
6
CONTINUOUS
70
0
71
3
72
8
73
4
74
2
42
0.0000001000
43
0.0000001000
44
0.0000000001
12
-0.0148747264
22
0.1878390139
32
0.0000000000
13
-0.0144646359
23
0.1878729926
33
0.0000000000
40
0.0000000000
40
0.0000000000
40
0.0000000000
40
0.0000000000
40
1.0000000000
40
1.0000000000
40
1.0000000000
40
1.0000000000
10
-15.4665561805
20
-12.4478837302
30
0.0000000000
10
-15.4715144226
20
-12.3852707255
30
0.0000000000
10
-15.4764042072
20
-12.3226519659
30
0.0000000000
10
-15.4812257525
20
-12.2600276350
30
0.0000000000
11
-15.4665561805
21
-12.4478837302
31
0.0000000000
11
-15.4812257525
21
-12.2600276350
31
0.0000000000
0
SPLINE
5
414
100
AcDbEntity
8
0
100
AcDbSpline
62
9
6
CONTINUOUS
70
0
71
3
72
10
73
6
74
4
42
0.0000001000
43
0.0000001000
44
0.0000000001
12
-0.7518723676
22
9.7656458727
32
0.0000000000
13
0.2671435371
23
9.7908018761
33
0.0000000000
40
0.0000000000
40
0.0000000000
40
0.0000000000
40
0.0000000000
40
0.3140493466
40
0.6538658940
40
1.0000000000
40
1.0000000000
40
1.0000000000
40
1.0000000000
10
-15.4812257525
20
-12.2600276350
30
0.0000000000
10
-15.5599340944
20
-11.2377293999
30
0.0000000000
10
-15.6859475011
20
-9.1061640736
30
0.0000000000
10
-15.7644080638
20
-5.8416803093
30
0.0000000000
10
-15.7404844262
20
-3.6017860582
30
0.0000000000
10
-15.7096619298
20
-2.4721425734
30
0.0000000000
11
-15.4812257525
21
-12.2600276350
31
0.0000000000
11
-15.6637470261
21
-9.1894787066
31
0.0000000000
11
-15.7448328152
21
-5.8621518464
31
0.0000000000
11
-15.7096619298
21
-2.4721425734
31
0.0000000000
0
SPLINE
5
415
100
AcDbEntity
8
0
100
AcDbSpline
62
9
6
CONTINUOUS
70
0
71
3
72
10
73
6
74
4
42
0.0000001000
43
0.0000001000
44
0.0000000001
12
0.4582208618
22
16.7924934133
32
0.0000000000
13
0.9443362679
23
16.7721802521
33
0.0000000000
40
0.0000000000
40
0.0000000000
40
0.0000000000
40
0.0000000000
40
0.3316864819
40
0.6650136483
40
1.0000000000
40
1.0000000000
40
1.0000000000
40
1.0000000000
10
-15.7096619298
20
-2.4721425734
30
0.0000000000
10
-15.6590000412
20
-0.6155282192
30
0.0000000000
10
-15.5391391254
20
3.1064111627
30
0.0000000000
10
-15.3046165287
20
8.7011575115
30
0.0000000000
10
-15.1119734352
20
12.4385401853
30
0.0000000000
10
-15.0065268481
20
14.3113573427
30
0.0000000000
11
-15.7096619298
21
-2.4721425734
31
0.0000000000
11
-15.5304543634
21
3.0968910981
31
0.0000000000
11
-15.2960730458
21
8.6914613661
31
0.0000000000
11
-15.0065268481
21
14.3113573427
31
0.0000000000
0
SPLINE
5
416
100
AcDbEntity
8
0
100
AcDbSpline
62
9
6
CONTINUOUS
70
0
71
3
72
10
73
6
74
4
42
0.0000001000
43
0.0000001000
44
0.0000000001
12
0.5991532477
22
10.6410635659
32
0.0000000000
13
1.5872429706
23
10.5390643883
33
0.0000000000
40
0.0000000000
40
0.0000000000
40
0.0000000000
40
0.0000000000
40
0.3283568775
40
0.6617914837
40
1.0000000000
40
1.0000000000
40
1.0000000000
40
1.0000000000
10
-15.0065268481
20
14.3113573427
30
0.0000000000
10
-14.9409481516
20
15.4760461446
30
0.0000000000
10
-14.7702920245
20
17.8214348212
30
0.0000000000
10
-14.4009797190
20
21.3553410947
30
0.0000000000
10
-14.0804760465
20
23.7202613711
30
0.0000000000
10
-13.9015363498
20
24.9083951476
30
0.0000000000
11
-15.0065268481
21
14.3113573427
31
0.0000000000
11
-14.7534453668
21
17.8017949800
31
0.0000000000
11
-14.3848849743
21
21.3363501197
31
0.0000000000
11
-13.9015363498
21
24.9083951476
31
0.0000000000
0
SPLINE
5
417
100
AcDbEntity
8
0
100
AcDbSpline
62
9
6
CONTINUOUS
70
0
71
3
72
15
73
11
74
9
42
0.0000001000
43
0.0000001000
44
0.0000000001
12
0.1606842888
22
1.0557877812
32
0.0000000000
13
0.8142204863
23
0.6917844304
33
0.0000000000
40
0.0000000000
40
0.0000000000
40
0.0000000000
40
0.0000000000
40
0.1063269582
40
0.2283166693
40
0.3625090999
40
0.5043196014
40
0.6482251033
40
0.7883965405
40
0.9195659259
40
1.0000000000
40
1.0000000000
40
1.0000000000
40
1.0000000000
10
-13.9015363498
20
24.9083951476
30
0.0000000000
10
-13.8958413259
20
24.9458147154
30
0.0000000000
10
-13.8801948441
20
25.0256768105
30
0.0000000000
10
-13.8449409370
20
25.1499700560
30
0.0000000000
10
-13.7946020426
20
25.2826028102
30
0.0000000000
10
-13.7292237016
20
25.4172567082
30
0.0000000000
10
-13.6506025333
20
25.5471497893
30
0.0000000000
10
-13.5621642136
20
25.6658935215
30
0.0000000000
10
-13.4775604944
20
25.7585145071
30
0.0000000000
10
-13.4219625279
20
25.8094727871
30
0.0000000000
10
-13.4001321710
20
25.8280204671
30
0.0000000000
11
-13.9015363498
21
24.9083951476
31
0.0000000000
11
-13.8798460983
21
25.0198556748
31
0.0000000000
11
-13.8444295612
21
25.1452275861
31
0.0000000000
11
-13.7936595003
21
25.2792432920
31
0.0000000000
11
-13.7275151269
21
25.4154812172
31
0.0000000000
11
-13.6478448935
21
25.5469010925
31
0.0000000000
11
-13.5582536980
21
25.6668266569
31
0.0000000000
11
-13.4635499969
21
25.7700453650
31
0.0000000000
11
-13.4001321710
21
25.8280204671
31
0.0000000000
0
SPLINE
5
418
100
AcDbEntity
8
0
100
AcDbSpline
62
9
6
CONTINUOUS
70
0
71
3
72
10
73
6
74
4
42
0.0000001000
43
0.0000001000
44
0.0000000001
12
0.1842108633
22
0.1565106864
32
0.0000000000
13
0.2177553752
23
0.1046898342
33
0.0000000000
40
0.0000000000
40
0.0000000000
40
0.0000000000
40
0.0000000000
40
0.1667734139
40
0.6205152880
40
1.0000000000
40
1.0000000000
40
1.0000000000
40
1.0000000000
10
-13.4001321710
20
25.8280204671
30
0.0000000000
10
-13.3898916794
20
25.8367210743
30
0.0000000000
10
-13.3512194402
20
25.8684201440
30
0.0000000000
10
-13.2854384339
20
25.9151562638
30
0.0000000000
10
-13.2266557610
20
25.9478535788
30
0.0000000000
10
-13.1991108157
20
25.9610963094
30
0.0000000000
11
-13.4001321710
21
25.8280204671
31
0.0000000000
11
-13.3689491050
21
25.8535654055
31
0.0000000000
11
-13.2793757877
21
25.9167749875
31
0.0000000000
11
-13.1991108157
21
25.9610963094
31
0.0000000000
0
ENDSEC
0
SECTION
2
OBJECTS
0
DICTIONARY
5
419
100
AcDbDictionary
3
ACAD_GROUP
350
41A
3
ACAD_MLINESTYLE
350
41B
0
DICTIONARY
5
41A
102
{ACAD_REACTORS
330
419
102
}
100
AcDbDictionary
0
DICTIONARY
5
41B
102
{ACAD_REACTORS
330
419
102
}
100
AcDbDictionary
3
STANDARD
350
41C
0
MLINESTYLE
5
41C
102
{ACAD_REACTORS
330
41B
102
}
100
AcDbMlineStyle
2
STANDARD
70
0
3

62
256
51
90.0
52
90.0
71
2
49
0.5
62
256
6
BYLAYER
49
-0.5
62
256
6
BYLAYER
0
ENDSEC
0
EOF
