0
SECTION
2
HEADER
9
$ACADVER
1
AC1015
9
$DWGCODEPAGE
3
ANSI_1252
9
$EXTMAX
10
210.0000000000
20
297.0000000000
30
0.0000000000
9
$EXTMIN
10
0.0000000000
20
0.0000000000
30
0.0000000000
9
$LIMMIN
10
0.0000000000
20
0.0000000000
9
$LIMMAX
10
210.0000000000
20
297.0000000000
9
$VIEWCTR
10
105.0000000000
20
148.5000000000
9
$VIEWSIZE
40
297.0000000000
9
$CLAYER
8
0
9
$LTSCALE
40
19.3600000000
9
$CELTYPE
6
BYLAYER
9
$DIMSCALE
40
1
9
$DIMASZ
40
3.0000000000
9
$DIMEXO
40
2.2000000000
9
$DIMDLI
40
13.3760000000
9
$DIMEXE
40
6.3360000000
9
$DIMCEN
40
3.1680000000
9
$DIMLFAC
40
1.0000000000
9
$DIMBLK
1
_FILLED
9
$DIMTXT
40
3.0000000000
9
$DIMTOL
70
1
9
$DIMLIM
70
0
9
$DIMTFAC
40
1.0000000000
9
$DIMTP
40
0.0100000000
9
$DIMTM
40
0.0100000000
9
$PDMODE
70
3
9
$PDSIZE
40
3.0000000000
9
$HANDSEED
5
327
9
$MEASUREMENT
70
1
9
$INSUNITS
70
4
0
ENDSEC
0
SECTION
2
CLASSES
0
CLASS
1
ACDBDICTIONARYWDFLT
2
AcDbDictionaryWithDefault
3
AutoCAD 2000
90
0
280
0
281
0
0
CLASS
1
ACDBPLACEHOLDER
2
AcDbPlaceHolder
3
AutoCAD 2000
90
0
280
0
281
0
0
CLASS
1
LAYOUT
2
AcDbLayout
3
AutoCAD 2000
90
0
280
0
281
0
0
ENDSEC
0
SECTION
2
TABLES
0
TABLE
2
VPORT
5
8
100
AcDbSymbolTable
70
2
0
VPORT
5
1F4
100
AcDbSymbolTableRecord
100
AcDbViewportTableRecord
2
*ACTIVE
70
0
10
0.0
20
0.0
11
1.0
21
1.0
12
105.0000000000
22
148.5000000000
13
0.0
23
0.0
14
1.0
24
1.0
15
0.0
25
0.0
16
0.0
26
0.0
36
1.0
17
0.0
27
0.0
37
0.0
40
297.0000000000
41
0.7070707071
42
50.0
43
0.0
44
0.0
50
0.0
51
0.0
71
0
72
100
73
1
74
1
75
0
76
0
77
0
78
0
0
ENDTAB
0
TABLE
2
LTYPE
5
5
100
AcDbSymbolTable
70
6
0
LTYPE
5
14
100
AcDbSymbolTableRecord
100
AcDbLinetypeTableRecord
2
BYBLOCK
70
0
3

72
65
73
0
40
0.0
0
LTYPE
5
15
100
AcDbSymbolTableRecord
100
AcDbLinetypeTableRecord
2
BYLAYER
70
0
3

72
65
73
0
40
0.0
0
LTYPE
5
16
100
AcDbSymbolTableRecord
100
AcDbLinetypeTableRecord
2
CONTINUOUS
70
64
3
Solid line
72
65
73
0
40
0
0
LTYPE
5
1F5
100
AcDbSymbolTableRecord
100
AcDbLinetypeTableRecord
2
CENTER
70
64
3
____ _ ____ _ ____ _ ____ _ ____ _ ____ _ ____
72
65
73
4
40
0.6
49
0.375
74
0
49
-0.075
74
0
49
0.075
74
0
49
-0.075
74
0
0
LTYPE
5
1F6
100
AcDbSymbolTableRecord
100
AcDbLinetypeTableRecord
2
HIDDEN
70
64
3
- - - - - - - - - - - - - - - - - - - -
72
65
73
2
40
0.2
49
0.1
74
0
49
-0.1
74
0
0
LTYPE
5
1F7
100
AcDbSymbolTableRecord
100
AcDbLinetypeTableRecord
2
PHANTOM
70
64
3
_____ _ _ _____ _ _ _____ _ _ _____
72
65
73
6
40
0.8
49
0.45
74
0
49
-0.05
74
0
49
0.1
74
0
49
-0.05
74
0
49
0.1
74
0
49
-0.05
74
0
0
LTYPE
5
1F8
100
AcDbSymbolTableRecord
100
AcDbLinetypeTableRecord
2
DOT
70
64
3
. . . . . . . . . . . . . . . . . . . .
72
65
73
2
40
0.2
49
0.1
74
0
49
-0.1
74
0
0
LTYPE
5
1F9
100
AcDbSymbolTableRecord
100
AcDbLinetypeTableRecord
2
DASHED
70
64
3
- - - - - - - - - - - - - - - - - - - -
72
65
73
2
40
0.2
49
0.1
74
0
49
-0.1
74
0
0
ENDTAB
0
TABLE
2
LAYER
5
2
100
AcDbSymbolTable
70
36
0
LAYER
5
10
100
AcDbSymbolTableRecord
100
AcDbLayerTableRecord
2
0
70
0
62
7
6
CONTINUOUS
370
-3
390
F
0
LAYER
5
1FA
100
AcDbSymbolTableRecord
100
AcDbLayerTableRecord
2
DEFAULT_1
70
0
62
7
6
CENTER
370
-3
390
F
0
LAYER
5
1FB
100
AcDbSymbolTableRecord
100
AcDbLayerTableRecord
2
DEFAULT_2
70
0
62
8
6
HIDDEN
370
-3
390
F
0
LAYER
5
1FC
100
AcDbSymbolTableRecord
100
AcDbLayerTableRecord
2
DEFAULT_3
70
0
62
7
6
PHANTOM
370
-3
390
F
0
LAYER
5
1FD
100
AcDbSymbolTableRecord
100
AcDbLayerTableRecord
2
ASSI
70
0
62
7
6
CONTINUOUS
370
-3
390
F
0
LAYER
5
1FE
100
AcDbSymbolTableRecord
100
AcDbLayerTableRecord
2
COLORE_MATERIALE
70
0
62
7
6
CONTINUOUS
370
-3
390
F
0
LAYER
5
1FF
100
AcDbSymbolTableRecord
100
AcDbLayerTableRecord
2
COORDINATE
70
0
62
7
6
CONTINUOUS
370
-3
390
F
0
LAYER
5
200
100
AcDbSymbolTableRecord
100
AcDbLayerTableRecord
2
COORD_ORIGINE
70
0
62
7
6
CONTINUOUS
370
-3
390
F
0
LAYER
5
201
100
AcDbSymbolTableRecord
100
AcDbLayerTableRecord
2
COPY
70
0
62
7
6
CONTINUOUS
370
-3
390
F
0
LAYER
5
202
100
AcDbSymbolTableRecord
100
AcDbLayerTableRecord
2
CURVE
70
0
62
7
6
CONTINUOUS
370
-3
390
F
0
LAYER
5
203
100
AcDbSymbolTableRecord
100
AcDbLayerTableRecord
2
DRAFT
70
0
62
7
6
CONTINUOUS
370
-3
390
F
0
LAYER
5
204
100
AcDbSymbolTableRecord
100
AcDbLayerTableRecord
2
IGS
70
0
62
7
6
CONTINUOUS
370
-3
390
F
0
LAYER
5
205
100
AcDbSymbolTableRecord
100
AcDbLayerTableRecord
2
INC_LASER
70
0
62
7
6
CONTINUOUS
370
-3
390
F
0
LAYER
5
206
100
AcDbSymbolTableRecord
100
AcDbLayerTableRecord
2
PIANI
70
0
62
7
6
CONTINUOUS
370
-3
390
F
0
LAYER
5
207
100
AcDbSymbolTableRecord
100
AcDbLayerTableRecord
2
PIANI_ORIGINE
70
0
62
7
6
CONTINUOUS
370
-3
390
F
0
LAYER
5
208
100
AcDbSymbolTableRecord
100
AcDbLayerTableRecord
2
PIANI_RIFERIMENTO
70
0
62
7
6
CONTINUOUS
370
-3
390
F
0
LAYER
5
209
100
AcDbSymbolTableRecord
100
AcDbLayerTableRecord
2
RACCORDO
70
0
62
7
6
CONTINUOUS
370
-3
390
F
0
LAYER
5
20A
100
AcDbSymbolTableRecord
100
AcDbLayerTableRecord
2
SMUSSO
70
0
62
7
6
CONTINUOUS
370
-3
390
F
0
LAYER
5
20B
100
AcDbSymbolTableRecord
100
AcDbLayerTableRecord
2
SUPERFICI
70
0
62
7
6
CONTINUOUS
370
-3
390
F
0
LAYER
5
20C
100
AcDbSymbolTableRecord
100
AcDbLayerTableRecord
2
TRASH
70
0
62
7
6
CONTINUOUS
370
-3
390
F
0
ENDTAB
0
TABLE
2
STYLE
5
3
100
AcDbSymbolTable
70
1
0
STYLE
5
11
100
AcDbSymbolTableRecord
100
AcDbTextStyleTableRecord
2
STANDARD
70
0
40
0.0
41
0.8000000000
50
0.0
71
0
42
0.2
3
txt
4

0
ENDTAB
0
TABLE
2
VIEW
5
6
100
AcDbSymbolTable
70
0
0
ENDTAB
0
TABLE
2
UCS
5
7
100
AcDbSymbolTable
70
0
0
ENDTAB
0
TABLE
2
APPID
5
9
100
AcDbSymbolTable
70
1
0
APPID
5
20D
100
AcDbSymbolTableRecord
100
AcDbRegAppTableRecord
2
ACAD
70
0
0
ENDTAB
0
TABLE
2
BLOCK_RECORD
5
1
100
AcDbSymbolTable
70
0
0
BLOCK_RECORD
5
1F
100
AcDbSymbolTableRecord
100
AcDbBlockTableRecord
2
*MODEL_SPACE
0
BLOCK_RECORD
5
1B
100
AcDbSymbolTableRecord
100
AcDbBlockTableRecord
2
*PAPER_SPACE
0
ENDTAB
0
TABLE
2
DIMSTYLE
5
A
100
AcDbSymbolTable
70
1
100
AcDbDimStyleTable
71
0
0
DIMSTYLE
105
20E
100
AcDbSymbolTableRecord
100
AcDbDimStyleTableRecord
2
STANDARD
70
0
3

4

40
1.0
41
3.0000000000
42
0.0625
43
0.38
44
0.18
45
0.0
46
0.0
47
0.0100000000
48
0.0100000000
140
3.0000000000
141
0.09
142
0.0
143
25.4
144
1.0000000000
145
0.0
146
1.0000000000
147
0.09
71
1
72
0
73
0
74
0
75
0
76
0
77
1
78
8
170
0
171
2
172
0
173
0
174
0
175
0
176
0
177
0
178
0
270
2
271
2
272
2
273
2
274
2
275
0
280
0
281
0
282
0
283
1
284
8
285
0
286
0
287
3
288
0
340
11
0
ENDTAB
0
ENDSEC
0
SECTION
2
BLOCKS
0
BLOCK
5
20
100
AcDbEntity
8
0
100
AcDbBlockBegin
2
*MODEL_SPACE
70
0
10
0.0
20
0.0
30
0.0
3
*MODEL_SPACE
1

0
ENDBLK
5
21
100
AcDbEntity
8
0
100
AcDbBlockEnd
0
BLOCK
5
1C
100
AcDbEntity
8
0
100
AcDbBlockBegin
2
*PAPER_SPACE
70
0
10
0.0
20
0.0
30
0.0
3
*PAPER_SPACE
1

0
ENDBLK
5
1D
100
AcDbEntity
8
0
100
AcDbBlockEnd
0
ENDSEC
0
SECTION
2
ENTITIES
0
LWPOLYLINE
5
20F
100
AcDbEntity
8
0
100
AcDbPolyline
62
7
6
CONTINUOUS
90
40
70
0
10
-17.6241730428
20
26.0180582738
10
-17.6409684163
20
26.0080280476
10
-17.6644416070
20
25.9932021470
10
-17.6876131769
20
25.9776148670
10
-17.7104950670
20
25.9612605040
10
-17.7330618180
20
25.9441590434
10
-17.7552513883
20
25.9263624472
10
-17.7770616889
20
25.9078801966
10
-17.7984883578
20
25.8887219288
10
-17.8194707283
20
25.8689502696
10
-17.8400077730
20
25.8485777437
10
-17.8600984850
20
25.8276144470
10
-17.8796872600
20
25.8061306542
10
-17.8987689405
20
25.7841469382
10
-17.9173499512
20
25.7616689539
10
-17.9353952756
20
25.7387532577
10
-17.9528999810
20
25.7154214454
10
-17.9698708524
20
25.6916787456
10
-17.9862908562
20
25.6675617039
10
-18.0021571589
20
25.6430877510
10
-18.0174721240
20
25.6182645145
10
-18.0322262205
20
25.5931168193
10
-18.0464149382
20
25.5676618351
10
-18.0600387234
20
25.5419050376
10
-18.0730951471
20
25.5158553015
10
-18.0855807149
20
25.4895204210
10
-18.0974890232
20
25.4629120309
10
-18.1088120323
20
25.4360442477
10
-18.1195447120
20
25.4089207673
10
-18.1296773861
20
25.3815553256
10
-18.1391946554
20
25.3539756694
10
-18.1480886289
20
25.3261888956
10
-18.1563494849
20
25.2982041649
10
-18.1639611213
20
25.2700504143
10
-18.1709135796
20
25.2417359128
10
-18.1771953046
20
25.2132682964
10
-18.1827908854
20
25.1846716488
10
-18.1876870513
20
25.1559570285
10
-18.1918708409
20
25.1271281261
10
-18.1944236141
20
25.1063932593
0
LINE
5
210
100
AcDbEntity
8
0
100
AcDbLine
62
7
6
CONTINUOUS
10
-17.6241726488
20
26.0180585585
11
-15.0783418463
21
27.5025110966
0
LINE
5
211
100
AcDbEntity
8
0
100
AcDbLine
62
9
6
CONTINUOUS
10
-17.3908186012
20
26.0092911654
11
-14.8469864120
21
27.4925783289
0
LINE
5
212
100
AcDbEntity
8
0
100
AcDbLine
62
7
6
CONTINUOUS
10
-15.0783401909
20
27.5025120614
11
-15.0761875876
21
27.5037467945
0
LINE
5
213
100
AcDbEntity
8
0
100
AcDbLine
62
7
6
CONTINUOUS
10
-15.0761864344
20
27.5037474451
11
-14.1440554931
21
28.0296428205
0
LINE
5
214
100
AcDbEntity
8
0
100
AcDbLine
62
9
6
CONTINUOUS
10
-14.8469864120
20
27.4925783289
11
-13.9123294554
21
28.0198988471
0
LINE
5
215
100
AcDbEntity
8
0
100
AcDbLine
62
7
6
CONTINUOUS
10
-8.0079878325
20
25.0677280357
11
-9.5636227511
21
24.1900603463
0
LINE
5
216
100
AcDbEntity
8
0
100
AcDbLine
62
7
6
CONTINUOUS
10
-8.0079878325
20
23.7658682304
11
-8.4817056957
21
23.4986031687
0
LINE
5
217
100
AcDbEntity
8
0
100
AcDbLine
62
7
6
CONTINUOUS
10
-4.8260073171
20
23.4767377780
11
-6.3816422357
21
22.5990700886
0
LWPOLYLINE
5
218
100
AcDbEntity
8
0
100
AcDbPolyline
62
7
6
CONTINUOUS
90
19
70
0
10
-18.1944232272
20
25.1063968682
10
-18.2597179027
20
24.5194216884
10
-18.3225669436
20
23.9263360962
10
-18.3821468534
20
23.3343713948
10
-18.4384540579
20
22.7435609156
10
-18.4914856265
20
22.1539341956
10
-18.5412387515
20
21.5655198187
10
-18.5877107010
20
20.9783481224
10
-18.6308987321
20
20.3924506990
10
-18.6708003035
20
19.8078584661
10
-18.7074131646
20
19.2246019313
10
-18.7407351159
20
18.6427115817
10
-18.7707642093
20
18.0622180754
10
-18.7974986187
20
17.4831526270
10
-18.8209366748
20
16.9055451333
10
-18.8410770254
20
16.3294235269
10
-18.8579183185
20
15.7548166601
10
-18.8714593671
20
15.1817568786
10
-18.8815855750
20
14.6178066375
0
LWPOLYLINE
5
219
100
AcDbEntity
8
0
100
AcDbPolyline
62
7
6
CONTINUOUS
90
19
70
0
10
-18.8183171241
20
-1.8669649683
10
-18.8083549734
20
-2.4211175083
10
-18.7950458992
20
-2.9802312209
10
-18.7784924941
20
-3.5374916830
10
-18.7586954025
20
-4.0928674624
10
-18.7356554293
20
-4.6463308535
10
-18.7093733736
20
-5.1978551544
10
-18.6798503506
20
-5.7474119148
10
-18.6470876278
20
-6.2949715386
10
-18.6110865820
20
-6.8405052679
10
-18.5718488443
20
-7.3839846187
10
-18.5293760944
20
-7.9253811474
10
-18.4836702803
20
-8.4646665002
10
-18.4347335604
20
-9.0018116546
10
-18.3825680809
20
-9.5367888412
10
-18.3271760356
20
-10.0695723624
10
-18.2685597488
20
-10.6001355400
10
-18.2067221957
20
-11.1284483909
10
-18.1425437582
20
-11.6475719189
0
LWPOLYLINE
5
21A
100
AcDbEntity
8
0
100
AcDbPolyline
62
7
6
CONTINUOUS
90
33
70
0
10
-18.9441785497
20
6.7028184625
10
-18.9440414976
20
6.6933658438
10
-18.9434956640
20
6.6819968525
10
-18.9425334117
20
6.6706408163
10
-18.9411547728
20
6.6593105659
10
-18.9393593151
20
6.6480140420
10
-18.9371482750
20
6.6367684482
10
-18.9345228923
20
6.6255866658
10
-18.9314816408
20
6.6144699296
10
-18.9280285177
20
6.6034398279
10
-18.9241641568
20
6.5925039057
10
-18.9198776726
20
6.5816428269
10
-18.9151691081
20
6.5708719204
10
-18.9100392454
20
6.5602059533
10
-18.9044714346
20
6.5496262431
10
-18.8984603067
20
6.5391422978
10
-18.8920083188
20
6.5287765248
10
-18.8851052396
20
6.5185300863
10
-18.8777467216
20
6.5084144752
10
-18.8699347744
20
6.4984491292
10
-18.8616658788
20
6.4886452392
10
-18.8529386639
20
6.4790163887
10
-18.8437529245
20
6.4695762837
10
-18.8341033593
20
6.4603332002
10
-18.8239879318
20
6.4512990840
10
-18.8134047674
20
6.4424854836
10
-18.8023437340
20
6.4338972008
10
-18.7907973398
20
6.4255426876
10
-18.7787638885
20
6.4174348855
10
-18.7662360463
20
6.4095826224
10
-18.7532048015
20
6.4019948050
10
-18.7396644876
20
6.3946826885
10
-18.7327667426
20
6.3911661279
0
LWPOLYLINE
5
21B
100
AcDbEntity
8
0
100
AcDbPolyline
62
7
6
CONTINUOUS
90
10
70
0
10
-18.8797982698
20
5.9827132677
10
-18.8785657509
20
5.1137485907
10
-18.8759265814
20
4.2375569036
10
-18.8718857058
20
3.3621235384
10
-18.8664431333
20
2.4874524827
10
-18.8595988823
20
1.6135470786
10
-18.8513529710
20
0.7404104809
10
-18.8417054238
20
-0.1319538768
10
-18.8306562844
20
-1.0035419156
10
-18.8183171244
20
-1.8669649683
0
LWPOLYLINE
5
21C
100
AcDbEntity
8
0
100
AcDbPolyline
62
7
6
CONTINUOUS
90
10
70
0
10
-18.8815855754
20
14.6178066372
10
-18.8941560083
20
13.7406735438
10
-18.9054039939
20
12.8573468737
10
-18.9152250672
20
11.9747303403
10
-18.9236191715
20
11.0928280716
10
-18.9305862699
20
10.2116435301
10
-18.9361263315
20
9.3311798947
10
-18.9402393256
20
8.4514405307
10
-18.9429252304
20
7.5724294389
10
-18.9441785864
20
6.7028021048
0
LWPOLYLINE
5
21D
100
AcDbEntity
8
0
100
AcDbPolyline
62
7
6
CONTINUOUS
90
30
70
0
10
12.9566446717
20
-27.5900642694
10
12.9660529877
20
-27.5946813141
10
12.9856270078
20
-27.6037380710
10
13.0054834887
20
-27.6121943261
10
13.0256112556
20
-27.6200445572
10
13.0460142123
20
-27.6272884341
10
13.0666741996
20
-27.6339167046
10
13.0875727812
20
-27.6399208548
10
13.1087148036
20
-27.6452989223
10
13.1300822055
20
-27.6500424217
10
13.1516560292
20
-27.6541434965
10
13.1734410758
20
-27.6575984910
10
13.1954201965
20
-27.6603992241
10
13.2175735237
20
-27.6625383500
10
13.2399032572
20
-27.6640106425
10
13.2623911266
20
-27.6648086106
10
13.2850186420
20
-27.6649254923
10
13.3077891817
20
-27.6643548190
10
13.3306852520
20
-27.6630897566
10
13.3536882402
20
-27.6611240655
10
13.3768015972
20
-27.6584494004
10
13.4000094467
20
-27.6550590742
10
13.4232923679
20
-27.6509474273
10
13.4466503408
20
-27.6461051003
10
13.4700669394
20
-27.6405255231
10
13.4935253013
20
-27.6342029728
10
13.5170270402
20
-27.6271261458
10
13.5405623503
20
-27.6192858516
10
13.5641074654
20
-27.6106783146
10
13.5799208376
20
-27.6044625962
0
LINE
5
21E
100
AcDbEntity
8
0
100
AcDbLine
62
7
6
CONTINUOUS
10
-17.7485427026
20
-12.2374707402
11
12.9566757102
21
-27.5900799466
0
LINE
5
21F
100
AcDbEntity
8
0
100
AcDbLine
62
9
6
CONTINUOUS
10
-17.9961232429
20
-11.8239881890
11
12.7002818547
21
-27.1721907378
0
LWPOLYLINE
5
220
100
AcDbEntity
8
0
100
AcDbPolyline
62
7
6
CONTINUOUS
90
33
70
0
10
-18.1425428527
20
-11.6475788387
10
-18.1399002239
20
-11.6668090059
10
-18.1355660350
20
-11.6934135279
10
-18.1305196951
20
-11.7195313129
10
-18.1247778689
20
-11.7451497813
10
-18.1183556944
20
-11.7702667936
10
-18.1112660072
20
-11.7948850117
10
-18.1035244436
20
-11.8189951497
10
-18.0951467484
20
-11.8425897928
10
-18.0861453901
20
-11.8656692799
10
-18.0765374955
20
-11.8882210666
10
-18.0663390411
20
-11.9102381699
10
-18.0555604507
20
-11.9317245164
10
-18.0442187786
20
-11.9526690813
10
-18.0323318274
20
-11.9730615446
10
-18.0199111660
20
-11.9929029428
10
-18.0069769332
20
-12.0121800477
10
-17.9935468997
20
-12.0308846743
10
-17.9796291104
20
-12.0490223522
10
-17.9652466035
20
-12.0665785431
10
-17.9504165266
20
-12.0835474136
10
-17.9351364670
20
-12.0999437722
10
-17.9194265660
20
-12.1157562549
10
-17.9033065266
20
-12.1309755129
10
-17.8867706032
20
-12.1456150292
10
-17.8698386351
20
-12.1596631640
10
-17.8525300631
20
-12.1731102291
10
-17.8348357336
20
-12.1859680132
10
-17.8167752486
20
-12.1982249811
10
-17.7983680466
20
-12.2098708624
10
-17.7796020051
20
-12.2209144303
10
-17.7604854253
20
-12.2313498326
10
-17.7485034811
20
-12.2374901925
0
LINE
5
221
100
AcDbEntity
8
0
100
AcDbLine
62
7
6
CONTINUOUS
10
-13.5841789408
20
3.9905087974
11
-13.5841789408
21
4.3794743526
0
LINE
5
222
100
AcDbEntity
8
0
100
AcDbLine
62
9
6
CONTINUOUS
10
-13.6484796287
20
4.8240327958
11
-13.7644857904
21
4.6046287267
0
LINE
5
223
100
AcDbEntity
8
0
100
AcDbLine
62
9
6
CONTINUOUS
10
-13.4117180627
20
4.7056520129
11
-13.5841789408
21
4.3794743526
0
LWPOLYLINE
5
224
100
AcDbEntity
8
0
100
AcDbPolyline
62
7
6
CONTINUOUS
90
31
70
0
10
-18.6826659651
20
6.2887303596
10
-18.6897627425
20
6.2847677458
10
-18.7034457252
20
6.2766633956
10
-18.7165741600
20
6.2682648556
10
-18.7291543822
20
6.2595846931
10
-18.7411932653
20
6.2506350942
10
-18.7526927818
20
6.2414313827
10
-18.7636562088
20
6.2319886157
10
-18.7740890892
20
6.2223201749
10
-18.7839918458
20
6.2124441825
10
-18.7933608437
20
6.2023849798
10
-18.8022074247
20
6.1921524032
10
-18.8105491664
20
6.1817461763
10
-18.8183836846
20
6.1711890828
10
-18.8257177937
20
6.1604936476
10
-18.8325750888
20
6.1496440569
10
-18.8389554149
20
6.1386562155
10
-18.8448583249
20
6.1275480968
10
-18.8502994286
20
6.1163057925
10
-18.8552782102
20
6.1049426896
10
-18.8597919315
20
6.0934789287
10
-18.8638473378
20
6.0819102223
10
-18.8674424805
20
6.0702537907
10
-18.8705765759
20
6.0585266946
10
-18.8732541864
20
6.0467242710
10
-18.8754735119
20
6.0348642943
10
-18.8772338799
20
6.0229635627
10
-18.8785377068
20
6.0110157809
10
-18.8793839797
20
5.9990304266
10
-18.8797711672
20
5.9870328614
10
-18.8797982024
20
5.9826930476
0
LINE
5
225
100
AcDbEntity
8
0
100
AcDbLine
62
7
6
CONTINUOUS
10
-18.6087728544
20
6.3291691028
11
-18.6826554688
21
6.2887361560
0
LINE
5
226
100
AcDbEntity
8
0
100
AcDbLine
62
9
6
CONTINUOUS
10
-18.5434430677
20
6.2965042095
11
-18.5641801619
21
6.2851556421
0
LINE
5
227
100
AcDbEntity
8
0
100
AcDbLine
62
7
6
CONTINUOUS
10
-13.2405780133
20
3.9988250871
11
-13.2405780133
21
4.6200819881
0
LINE
5
228
100
AcDbEntity
8
0
100
AcDbLine
62
9
6
CONTINUOUS
10
-9.5636227511
20
24.0395616964
11
-9.5636227511
21
24.1900603463
0
LINE
5
229
100
AcDbEntity
8
0
100
AcDbLine
62
7
6
CONTINUOUS
10
7.9019147442
20
17.1127767473
11
6.3462798256
21
16.2351090579
0
LINE
5
22A
100
AcDbEntity
8
0
100
AcDbLine
62
7
6
CONTINUOUS
10
7.9019147442
20
15.8109169421
11
7.4281968809
21
15.5436518804
0
LINE
5
22B
100
AcDbEntity
8
0
100
AcDbLine
62
9
6
CONTINUOUS
10
-14.6545051734
20
4.1578885254
11
-13.7644857904
21
4.6046287267
0
LINE
5
22C
100
AcDbEntity
8
0
100
AcDbLine
62
9
6
CONTINUOUS
10
-14.5130892020
20
3.9139820541
11
-13.5841817105
21
4.3802419218
0
LINE
5
22D
100
AcDbEntity
8
0
100
AcDbLine
62
9
6
CONTINUOUS
10
-13.5841789408
20
3.9905087974
11
-14.5481002283
21
3.5066739527
0
LINE
5
22E
100
AcDbEntity
8
0
100
AcDbLine
62
9
6
CONTINUOUS
10
-13.2306390125
20
3.3807426191
11
-14.1934135186
21
2.8974833948
0
LINE
5
22F
100
AcDbEntity
8
0
100
AcDbLine
62
7
6
CONTINUOUS
10
-14.4152169429
20
5.1607656882
11
-14.4152930427
21
5.1607290831
0
LINE
5
230
100
AcDbEntity
8
0
100
AcDbLine
62
9
6
CONTINUOUS
10
-14.1555989931
20
5.0775924781
11
-14.5481002019
21
4.8888963788
0
LINE
5
231
100
AcDbEntity
8
0
100
AcDbLine
62
9
6
CONTINUOUS
10
-13.7582160134
20
4.8789009882
11
-14.5130892020
21
4.5159935043
0
LINE
5
232
100
AcDbEntity
8
0
100
AcDbLine
62
7
6
CONTINUOUS
10
-13.6733892266
20
4.8364875948
11
-14.5666145572
21
4.4070669157
0
LWPOLYLINE
5
233
100
AcDbEntity
8
0
100
AcDbPolyline
62
7
6
CONTINUOUS
90
24
70
0
10
-14.4152916880
20
5.1607296399
10
-14.4114971573
20
5.1624104416
10
-14.4078981149
20
5.1637472155
10
-14.4041632889
20
5.1648980819
10
-14.4002529234
20
5.1658731061
10
-14.3960817524
20
5.1666829768
10
-14.3916244229
20
5.1673154639
10
-14.3868901109
20
5.1677524178
10
-14.3818487210
20
5.1679800031
10
-14.3764937394
20
5.1679803629
10
-14.3708409837
20
5.1677362240
10
-14.3648972519
20
5.1672325322
10
-14.3586708065
20
5.1664555534
10
-14.3521795786
20
5.1653940294
10
-14.3454450053
20
5.1640398396
10
-14.3384834128
20
5.1623862741
10
-14.3313120819
20
5.1604282599
10
-14.3239508412
20
5.1581630750
10
-14.3164171701
20
5.1555892395
10
-14.3087267742
20
5.1527059569
10
-14.3008922060
20
5.1495121562
10
-14.2929273615
20
5.1460083173
10
-14.2848501804
20
5.1421978772
10
-14.2816283837
20
5.1406071094
0
LINE
5
234
100
AcDbEntity
8
0
100
AcDbLine
62
9
6
CONTINUOUS
10
11.9759204378
20
-17.3682820987
11
-18.6718636524
21
-2.0443900536
0
LWPOLYLINE
5
235
100
AcDbEntity
8
0
100
AcDbPolyline
62
7
6
CONTINUOUS
90
29
70
0
10
-7.9617998982
20
1.1499857740
10
-7.9615871050
20
1.1394735064
10
-7.9609984800
20
1.1297778194
10
-7.9600375045
20
1.1201806325
10
-7.9587082978
20
1.1106884832
10
-7.9570143971
20
1.1013085483
10
-7.9549604439
20
1.0920531441
10
-7.9525516927
20
1.0829343898
10
-7.9497938173
20
1.0739649869
10
-7.9466946024
20
1.0651608683
10
-7.9432616010
20
1.0565337036
10
-7.9395020311
20
1.0480935792
10
-7.9354278946
20
1.0398590430
10
-7.9310481667
20
1.0318388845
10
-7.9263655096
20
1.0240314614
10
-7.9213909568
20
1.0164505203
10
-7.9161362408
20
1.0091085568
10
-7.9106036901
20
1.0020044308
10
-7.9048052256
20
0.9951504272
10
-7.8987537037
20
0.9885583822
10
-7.8924515679
20
0.9822284258
10
-7.8859117789
20
0.9761715969
10
-7.8791480953
20
0.9703982725
10
-7.8721631004
20
0.9649091387
10
-7.8649709394
20
0.9597145150
10
-7.8575855968
20
0.9548230346
10
-7.8500082231
20
0.9502347014
10
-7.8422485566
20
0.9459558428
10
-7.8383439843
20
0.9439546889
0
LINE
5
236
100
AcDbEntity
8
0
100
AcDbLine
62
7
6
CONTINUOUS
10
-7.9618080783
20
0.4739003452
11
-7.9614641278
21
0.1143314711
0
LINE
5
237
100
AcDbEntity
8
0
100
AcDbLine
62
7
6
CONTINUOUS
10
-8.0079878325
20
25.0677280357
11
-8.0079878325
21
23.7658682304
0
LINE
5
238
100
AcDbEntity
8
0
100
AcDbLine
62
7
6
CONTINUOUS
10
-7.9614641268
20
1.4970708210
11
-7.9617999630
21
1.1499990300
0
LWPOLYLINE
5
239
100
AcDbEntity
8
0
100
AcDbPolyline
62
7
6
CONTINUOUS
90
31
70
0
10
-7.9614641810
20
0.1143308290
10
-7.9615277643
20
0.1053485438
10
-7.9618543339
20
0.0933387155
10
-7.9624458989
20
0.0817235976
10
-7.9632873241
20
0.0705290691
10
-7.9643650581
20
0.0597446434
10
-7.9656709521
20
0.0493298301
10
-7.9671933546
20
0.0392919948
10
-7.9689192234
20
0.0296419737
10
-7.9708429316
20
0.0203527322
10
-7.9729532500
20
0.0114331282
10
-7.9752368588
20
0.0028957263
10
-7.9776871132
20
-0.0052725105
10
-7.9802913473
20
-0.0130615997
10
-7.9830345149
20
-0.0204590793
10
-7.9859058067
20
-0.0274668057
10
-7.9888900573
20
-0.0340764434
10
-7.9919688153
20
-0.0402767648
10
-7.9951234265
20
-0.0460610257
10
-7.9983327106
20
-0.0514216760
10
-8.0015777017
20
-0.0563593264
10
-8.0048406441
20
-0.0608791580
10
-8.0080957020
20
-0.0649781258
10
-8.0113295792
20
-0.0686730982
10
-8.0145471538
20
-0.0719989066
10
-8.0177249993
20
-0.0749586402
10
-8.0208668620
20
-0.0775835196
10
-8.0240347230
20
-0.0799416888
10
-8.0272616347
20
-0.0820620348
10
-8.0305437505
20
-0.0839454715
10
-8.0312217623
20
-0.0843020109
0
LINE
5
23A
100
AcDbEntity
8
0
100
AcDbLine
62
7
6
CONTINUOUS
10
11.0838952596
20
15.5217864897
11
9.5282603410
21
14.6441188003
0
LWPOLYLINE
5
23B
100
AcDbEntity
8
0
100
AcDbPolyline
62
7
6
CONTINUOUS
90
30
70
0
10
-7.8273229026
20
0.6954912589
10
-7.8288696363
20
0.6946806938
10
-7.8373477907
20
0.6899868663
10
-7.8456427754
20
0.6849637307
10
-7.8537422706
20
0.6796178559
10
-7.8616301638
20
0.6739592033
10
-7.8692937158
20
0.6679965749
10
-7.8767216795
20
0.6617383779
10
-7.8839010230
20
0.6551953465
10
-7.8908205950
20
0.6483775819
10
-7.8974700195
20
0.6412952497
10
-7.9038382475
20
0.6339601613
10
-7.9099153149
20
0.6263840222
10
-7.9156924520
20
0.6185780155
10
-7.9211611317
20
0.6105538516
10
-7.9263130604
20
0.6023238914
10
-7.9311405337
20
0.5939006629
10
-7.9356365339
20
0.5852965938
10
-7.9397943048
20
0.5765247559
10
-7.9436075267
20
0.5675986655
10
-7.9470705257
20
0.5585318267
10
-7.9501779040
20
0.5493387331
10
-7.9529252382
20
0.5400329290
10
-7.9553088875
20
0.5306268014
10
-7.9573251696
20
0.5211344988
10
-7.9589708489
20
0.5115709278
10
-7.9602434727
20
0.5019498779
10
-7.9611409873
20
0.4922859614
10
-7.9616618870
20
0.4825945373
10
-7.9618080229
20
0.4739060933
0
LINE
5
23C
100
AcDbEntity
8
0
100
AcDbLine
62
9
6
CONTINUOUS
10
2.6111012517
20
-4.5545477242
11
2.9755107813
21
-4.4842193101
0
LINE
5
23D
100
AcDbEntity
8
0
100
AcDbLine
62
9
6
CONTINUOUS
10
2.6693245634
20
-3.9561262012
11
2.3049150339
21
-4.0264546153
0
LINE
5
23E
100
AcDbEntity
8
0
100
AcDbLine
62
9
6
CONTINUOUS
10
16.9882368825
20
12.5696156782
11
16.0535799258
21
12.0422951600
0
LINE
5
23F
100
AcDbEntity
8
0
100
AcDbLine
62
9
6
CONTINUOUS
10
16.0535799258
20
12.0422951600
11
13.4193645807
21
10.6041995744
0
LINE
5
240
100
AcDbEntity
8
0
100
AcDbLine
62
9
6
CONTINUOUS
10
16.4225514575
20
11.4410062729
11
13.7851973207
21
10.0011971287
0
LINE
5
241
100
AcDbEntity
8
0
100
AcDbLine
62
7
6
CONTINUOUS
10
-7.5890371012
20
0.8193012262
11
-7.8273430361
21
0.6954808038
0
LINE
5
242
100
AcDbEntity
8
0
100
AcDbLine
62
9
6
CONTINUOUS
10
-7.5378759447
20
0.7937206480
11
-7.7282931738
21
0.6947825256
0
LINE
5
243
100
AcDbEntity
8
0
100
AcDbLine
62
9
6
CONTINUOUS
10
-7.9624397604
20
0.0818441233
11
-8.2565273744
21
-0.0709596774
0
LINE
5
244
100
AcDbEntity
8
0
100
AcDbLine
62
7
6
CONTINUOUS
10
-8.0311512928
20
-0.0842654200
11
-8.0312225472
21
-0.0843024231
0
LWPOLYLINE
5
245
100
AcDbEntity
8
0
100
AcDbPolyline
62
7
6
CONTINUOUS
90
37
70
0
10
12.0393259291
20
-8.9948802068
10
12.0479709424
20
-8.9991002344
10
12.0633208066
20
-9.0061091796
10
12.0788261412
20
-9.0126026292
10
12.0944722555
20
-9.0186017485
10
12.1102526870
20
-9.0241279270
10
12.1261595254
20
-9.0291991537
10
12.1421817768
20
-9.0338300557
10
12.1583126801
20
-9.0380342989
10
12.1745413201
20
-9.0418229360
10
12.1908577475
20
-9.0452054508
10
12.2072559680
20
-9.0481910441
10
12.2237244782
20
-9.0507861469
10
12.2402539656
20
-9.0529968282
10
12.2568375463
20
-9.0548281198
10
12.2734620623
20
-9.0562834647
10
12.2901183628
20
-9.0573659447
10
12.3067989364
20
-9.0580776614
10
12.3234903180
20
-9.0584198595
10
12.3401835860
20
-9.0583929501
10
12.3568708550
20
-9.0579967842
10
12.3735401446
20
-9.0572301242
10
12.3901837062
20
-9.0560911111
10
12.4067926907
20
-9.0545767119
10
12.4233560839
20
-9.0526833818
10
12.4398670031
20
-9.0504060774
10
12.4563162453
20
-9.0477388444
10
12.4726941767
20
-9.0446748470
10
12.4889948674
20
-9.0412049373
10
12.5052084355
20
-9.0373195895
10
12.5213258126
20
-9.0330071965
10
12.5373403417
20
-9.0282540939
10
12.5532411154
20
-9.0230454301
10
12.5690224501
20
-9.0173624868
10
12.5846786274
20
-9.0111833627
10
12.6001942019
20
-9.0044870370
10
12.6083748679
20
-9.0007110834
0
LWPOLYLINE
5
246
100
AcDbEntity
8
0
100
AcDbPolyline
62
7
6
CONTINUOUS
90
26
70
0
10
-14.7649694063
20
4.4072673997
10
-14.7621905146
20
4.4059022010
10
-14.7546434328
20
4.4024353498
10
-14.7469747460
20
4.3992586965
10
-14.7391935745
20
4.3963753291
10
-14.7313009081
20
4.3937857296
10
-14.7233096276
20
4.3914947735
10
-14.7152329927
20
4.3895066241
10
-14.7070719907
20
4.3878221251
10
-14.6988401540
20
4.3864450773
10
-14.6905509106
20
4.3853784993
10
-14.6822045221
20
4.3846237444
10
-14.6738148670
20
4.3841837851
10
-14.6653956440
20
4.3840605448
10
-14.6569462574
20
4.3842557836
10
-14.6484789557
20
4.3847716859
10
-14.6400095393
20
4.3856094822
10
-14.6315420197
20
4.3867708674
10
-14.6230899497
20
4.3882563467
10
-14.6146677039
20
4.3900655886
10
-14.6062792048
20
4.3922002708
10
-14.5979376831
20
4.3946596057
10
-14.5896561912
20
4.3974421224
10
-14.5814363924
20
4.4005502917
10
-14.5732867862
20
4.4039845091
10
-14.5666299875
20
4.4070596062
0
LINE
5
247
100
AcDbEntity
8
0
100
AcDbLine
62
9
6
CONTINUOUS
10
-8.3967139769
20
-0.3147705894
11
-14.3336001212
21
2.6536724827
0
LINE
5
248
100
AcDbEntity
8
0
100
AcDbLine
62
9
6
CONTINUOUS
10
7.4791385607
20
-8.2112234177
11
1.6101522769
21
-5.2767302758
0
LINE
5
249
100
AcDbEntity
8
0
100
AcDbLine
62
9
6
CONTINUOUS
10
-8.2565273744
20
-0.0709596774
11
-14.1934135186
21
2.8974833948
0
LINE
5
24A
100
AcDbEntity
8
0
100
AcDbLine
62
9
6
CONTINUOUS
10
7.6205593218
20
-7.9668054607
11
1.7515730380
21
-5.0323123187
0
LINE
5
24B
100
AcDbEntity
8
0
100
AcDbLine
62
9
6
CONTINUOUS
10
11.9099875818
20
-9.5162621895
11
7.9727373006
21
-7.5476370487
0
LINE
5
24C
100
AcDbEntity
8
0
100
AcDbLine
62
9
6
CONTINUOUS
10
-18.7333513348
20
5.8054072688
11
-14.8300450134
21
3.8537541083
0
LINE
5
24D
100
AcDbEntity
8
0
100
AcDbLine
62
9
6
CONTINUOUS
10
-7.9032251711
20
0.3903441872
11
1.1138015231
21
-4.1181691599
0
LINE
5
24E
100
AcDbEntity
8
0
100
AcDbLine
62
7
6
CONTINUOUS
10
2.6605312909
20
-4.5778331923
11
8.0236065348
21
-7.2593708142
0
LINE
5
24F
100
AcDbEntity
8
0
100
AcDbLine
62
7
6
CONTINUOUS
10
-7.8426752647
20
0.6867607453
11
-13.2306390125
21
3.3807426191
0
LINE
5
250
100
AcDbEntity
8
0
100
AcDbLine
62
9
6
CONTINUOUS
10
12.0852215732
20
-9.2119748477
11
8.1479712919
21
-7.2433497072
0
LINE
5
251
100
AcDbEntity
8
0
100
AcDbLine
62
9
6
CONTINUOUS
10
-18.5581173434
20
6.1096946106
11
-14.6545051734
21
4.1578885254
0
LINE
5
252
100
AcDbEntity
8
0
100
AcDbLine
62
9
6
CONTINUOUS
10
-7.7282931738
20
0.6947825256
11
1.2890355144
21
-3.8138818184
0
LINE
5
253
100
AcDbEntity
8
0
100
AcDbLine
62
7
6
CONTINUOUS
10
-7.6098755548
20
0.8084738579
11
-12.9343917954
21
3.4707319782
0
LINE
5
254
100
AcDbEntity
8
0
100
AcDbLine
62
7
6
CONTINUOUS
10
2.9755107813
20
-4.4842193101
11
8.2682268782
21
-7.1305773586
0
LINE
5
255
100
AcDbEntity
8
0
100
AcDbLine
62
7
6
CONTINUOUS
10
12.0393411349
20
-8.9948878918
11
8.0377105411
21
-6.9940725949
0
LINE
5
256
100
AcDbEntity
8
0
100
AcDbLine
62
7
6
CONTINUOUS
10
1.1787747636
20
-3.5646047062
11
-7.8383615490
21
0.9439634501
0
LINE
5
257
100
AcDbEntity
8
0
100
AcDbLine
62
7
6
CONTINUOUS
10
-14.7649582997
20
4.4072618255
11
-18.7327584070
21
6.3911618791
0
LINE
5
258
100
AcDbEntity
8
0
100
AcDbLine
62
9
6
CONTINUOUS
10
11.9743678944
20
-8.8594971747
11
7.9727373006
21
-6.8586818780
0
LINE
5
259
100
AcDbEntity
8
0
100
AcDbLine
62
9
6
CONTINUOUS
10
1.1138015231
20
-3.4292139893
11
-7.9032213163
21
1.0792974304
0
LINE
5
25A
100
AcDbEntity
8
0
100
AcDbLine
62
9
6
CONTINUOUS
10
-14.8300450134
20
4.5427092790
11
-18.7977316474
21
6.5265525962
0
LWPOLYLINE
5
25B
100
AcDbEntity
8
0
100
AcDbPolyline
62
7
6
CONTINUOUS
90
28
70
0
10
8.0377105411
20
-6.9940725949
10
8.0298967262
20
-6.9899665782
10
8.0222177552
20
-6.9855262273
10
8.0146907821
20
-6.9807556950
10
8.0073343309
20
-6.9756613879
10
8.0001635439
20
-6.9702487910
10
7.9931904105
20
-6.9645217250
10
7.9864320522
20
-6.9584890164
10
7.9799035403
20
-6.9521592767
10
7.9736139076
20
-6.9455359750
10
7.9675788304
20
-6.9386299777
10
7.9618127394
20
-6.9314526180
10
7.9563230511
20
-6.9240073179
10
7.9511232638
20
-6.9163058024
10
7.9462272349
20
-6.9083625245
10
7.9416427879
20
-6.9001837290
10
7.9373812541
20
-6.8917823868
10
7.9334543390
20
-6.8831748531
10
7.9298694360
20
-6.8743704472
10
7.9266399554
20
-6.8653968023
10
7.9237686980
20
-6.8562569646
10
7.9212508981
20
-6.8469189243
10
7.9190901624
20
-6.8373569123
10
7.9173086906
20
-6.8276244195
10
7.9159243795
20
-6.8178029298
10
7.9149394217
20
-6.8079256034
10
7.9143506841
20
-6.7979809017
10
7.9141586543
20
-6.7879791451
0
LINE
5
25C
100
AcDbEntity
8
0
100
AcDbLine
62
9
6
CONTINUOUS
10
17.3417902731
20
11.9592320378
11
16.4225514575
21
11.4406102213
0
LINE
5
25D
100
AcDbEntity
8
0
100
AcDbLine
62
7
6
CONTINUOUS
10
1.6621303189
20
-2.8729291667
11
7.5311166027
21
-5.8074223086
0
LINE
5
25E
100
AcDbEntity
8
0
100
AcDbLine
62
7
6
CONTINUOUS
10
-14.2816221192
20
5.1406040411
11
-8.3447359750
21
2.1721609690
0
LINE
5
25F
100
AcDbEntity
8
0
100
AcDbLine
62
9
6
CONTINUOUS
10
1.6101522769
20
-2.7642516133
11
7.4791385607
21
-5.6987447553
0
LINE
5
260
100
AcDbEntity
8
0
100
AcDbLine
62
9
6
CONTINUOUS
10
-14.3336001212
20
5.2492982440
11
-8.3967139769
21
2.2808551718
0
LWPOLYLINE
5
261
100
AcDbEntity
8
0
100
AcDbPolyline
62
7
6
CONTINUOUS
90
55
70
0
10
7.5311197612
20
-5.8074239401
10
7.5354451585
20
-5.8096225763
10
7.5448836184
20
-5.8146664574
10
7.5545204358
20
-5.8201595931
10
7.5643403011
20
-5.8261088268
10
7.5743226371
20
-5.8325165126
10
7.5844421408
20
-5.8393802844
10
7.5946811236
20
-5.8467013093
10
7.6050216921
20
-5.8544794175
10
7.6154396600
20
-5.8627084032
10
7.6259164878
20
-5.8713849821
10
7.6364349222
20
-5.8805056870
10
7.6469741969
20
-5.8900628861
10
7.6575165101
20
-5.9000504175
10
7.6680447146
20
-5.9104615566
10
7.6785403452
20
-5.9212872257
10
7.6889865031
20
-5.9325189459
10
7.6993662107
20
-5.9441469933
10
7.7096619986
20
-5.9561599937
10
7.7198589297
20
-5.9685486186
10
7.7299394179
20
-5.9812992113
10
7.7398831601
20
-5.9943930880
10
7.7496751811
20
-6.0078170592
10
7.7593000992
20
-6.0215561611
10
7.7687383585
20
-6.0355878509
10
7.7779759337
20
-6.0498960243
10
7.7869993583
20
-6.0644641187
10
7.7957913662
20
-6.0792677967
10
7.8043396099
20
-6.0942891290
10
7.8126323313
20
-6.1095097890
10
7.8206546344
20
-6.1249039176
10
7.8283960789
20
-6.1404521783
10
7.8358468753
20
-6.1561349554
10
7.8429946322
20
-6.1719251968
10
7.8498310009
20
-6.1878025134
10
7.8563484242
20
-6.2037465527
10
7.8625372659
20
-6.2197296792
10
7.8683913219
20
-6.2357305034
10
7.8739055974
20
-6.2517288110
10
7.8790737799
20
-6.2676982116
10
7.8838922465
20
-6.2836178208
10
7.8883582021
20
-6.2994669370
10
7.8924680523
20
-6.3152189919
10
7.8962207684
20
-6.3308537346
10
7.8996160408
20
-6.3463506688
10
7.9026529888
20
-6.3616824759
10
7.9053332915
20
-6.3768297012
10
7.9076594066
20
-6.3917727053
10
7.9096335233
20
-6.4064836339
10
7.9112602164
20
-6.4209441579
10
7.9125449246
20
-6.4351364733
10
7.9134933092
20
-6.4490335379
10
7.9141128465
20
-6.4626153957
10
7.9144123377
20
-6.4758689363
10
7.9144447837
20
-6.4825398223
0
LWPOLYLINE
5
262
100
AcDbEntity
8
0
100
AcDbPolyline
62
7
6
CONTINUOUS
90
55
70
0
10
-8.3447330448
20
2.1721594457
10
-8.3399898360
20
2.1697446429
10
-8.3305458441
20
2.1646828317
10
-8.3209040924
20
2.1591716716
10
-8.3110799299
20
2.1532043395
10
-8.3010939915
20
2.1467785253
10
-8.2909715284
20
2.1398966433
10
-8.2807301315
20
2.1325574739
10
-8.2703875760
20
2.1247610651
10
-8.2599680924
20
2.1165137402
10
-8.2494902119
20
2.1078188014
10
-8.2389711613
20
2.0986795846
10
-8.2284317811
20
2.0891038701
10
-8.2178898774
20
2.0790978841
10
-8.2073625387
20
2.0686681675
10
-8.1968683048
20
2.0578239463
10
-8.1864240928
20
2.0465738096
10
-8.1760468570
20
2.0349273167
10
-8.1657541353
20
2.0228959750
10
-8.1555608656
20
2.0104892341
10
-8.1454846447
20
1.9977206368
10
-8.1355458745
20
1.9846090397
10
-8.1257595219
20
1.9711677866
10
-8.1161409891
20
1.9574117659
10
-8.1067099353
20
1.9433637075
10
-8.0974803540
20
1.9290398846
10
-8.0884657294
20
1.9144568197
10
-8.0796834109
20
1.8996390192
10
-8.0711456763
20
1.8846045640
10
-8.0628642956
20
1.8693717755
10
-8.0548542265
20
1.8539666577
10
-8.0471257916
20
1.8384086467
10
-8.0396887869
20
1.8227173886
10
-8.0325556653
20
1.8069200976
10
-8.0257346215
20
1.7910372181
10
-8.0192331939
20
1.7750891314
10
-8.0130610640
20
1.7591036209
10
-8.0072242538
20
1.7431020800
10
-8.0017277103
20
1.7271047275
10
-7.9965777646
20
1.7111380439
10
-7.9917778371
20
1.6952228402
10
-7.9873306611
20
1.6793798292
10
-7.9832398490
20
1.6636356800
10
-7.9795062221
20
1.6480104797
10
-7.9761300049
20
1.6325247001
10
-7.9731120978
20
1.6172058153
10
-7.9704506518
20
1.6020732301
10
-7.9681430811
20
1.5871464871
10
-7.9661871730
20
1.5724534399
10
-7.9645782099
20
1.5580121582
10
-7.9633106153
20
1.5438401052
10
-7.9623786979
20
1.5299641202
10
-7.9617749006
20
1.5164043218
10
-7.9614903067
20
1.5031741523
10
-7.9614641712
20
1.4970730137
0
LINE
5
263
100
AcDbEntity
8
0
100
AcDbLine
62
7
6
CONTINUOUS
10
2.3069779003
20
-3.6109310065
11
2.3069779003
21
-3.9680437951
0
LINE
5
264
100
AcDbEntity
8
0
100
AcDbLine
62
7
6
CONTINUOUS
10
17.7431035281
20
5.9042382020
11
17.3417902731
21
5.7078708854
0
LINE
5
265
100
AcDbEntity
8
0
100
AcDbLine
62
7
6
CONTINUOUS
10
16.2457208795
20
-7.3958570187
11
16.1292920976
21
-7.3376426277
0
LINE
5
266
100
AcDbEntity
8
0
100
AcDbLine
62
7
6
CONTINUOUS
10
2.6693245634
20
-3.3765262890
11
2.6693245634
21
-3.9561262012
0
LINE
5
267
100
AcDbEntity
8
0
100
AcDbLine
62
9
6
CONTINUOUS
10
2.2440028225
20
-3.1638654185
11
2.1264286874
21
-3.3862350175
0
LINE
5
268
100
AcDbEntity
8
0
100
AcDbLine
62
9
6
CONTINUOUS
10
2.4807643884
20
-3.2822462015
11
2.3069779003
21
-3.6109310065
0
LINE
5
269
100
AcDbEntity
8
0
100
AcDbLine
62
9
6
CONTINUOUS
10
1.2890355144
20
-3.8138818184
11
2.1264286874
21
-3.3862350175
0
LINE
5
26A
100
AcDbEntity
8
0
100
AcDbLine
62
9
6
CONTINUOUS
10
1.3966180213
20
-4.0750852733
11
2.3069752079
21
-3.6101766125
0
LINE
5
26B
100
AcDbEntity
8
0
100
AcDbLine
62
9
6
CONTINUOUS
10
1.3969302643
20
-3.1240295074
11
1.7806306323
21
-2.9321793234
0
LINE
5
26C
100
AcDbEntity
8
0
100
AcDbLine
62
9
6
CONTINUOUS
10
1.3969302643
20
-4.4230676131
11
2.3069779003
21
-3.9680437951
0
LWPOLYLINE
5
26D
100
AcDbEntity
8
0
100
AcDbPolyline
62
7
6
CONTINUOUS
90
25
70
0
10
1.5275922913
20
-2.8532349072
10
1.5281987089
20
-2.8529348376
10
1.5316583716
20
-2.8513713586
10
1.5352488430
20
-2.8499970581
10
1.5389677105
20
-2.8488130937
10
1.5428565708
20
-2.8478069652
10
1.5470051722
20
-2.8469657319
10
1.5514408213
20
-2.8463015494
10
1.5561546212
20
-2.8458323682
10
1.5611794258
20
-2.8455721493
10
1.5665231414
20
-2.8455393621
10
1.5721698606
20
-2.8457516051
10
1.5781134127
20
-2.8462247504
10
1.5843461462
20
-2.8469732749
10
1.5908497783
20
-2.8480087621
10
1.5976020601
20
-2.8493398523
10
1.6045868141
20
-2.8509738628
10
1.6117862777
20
-2.8529159910
10
1.6191788817
20
-2.8551687466
10
1.6267468462
20
-2.8577338469
10
1.6344739829
20
-2.8606119958
10
1.6423458094
20
-2.8638035130
10
1.6503480294
20
-2.8673078232
10
1.6584629861
20
-2.8711215453
10
1.6621243493
20
-2.8729262589
0
LINE
5
26E
100
AcDbEntity
8
0
100
AcDbLine
62
7
6
CONTINUOUS
10
17.3417902731
20
5.3231188848
11
17.4478562902
21
5.3750182400
0
LINE
5
26F
100
AcDbEntity
8
0
100
AcDbLine
62
9
6
CONTINUOUS
10
2.1366790034
20
-3.1102035090
11
1.4316909891
21
-3.4551624727
0
LINE
5
270
100
AcDbEntity
8
0
100
AcDbLine
62
7
6
CONTINUOUS
10
2.2203222056
20
-3.1520251101
11
1.3781729747
21
-3.5640986774
0
LWPOLYLINE
5
271
100
AcDbEntity
8
0
100
AcDbPolyline
62
7
6
CONTINUOUS
90
25
70
0
10
1.3781729747
20
-3.5640986774
10
1.3699533006
20
-3.5679291966
10
1.3616677317
20
-3.5714137826
10
1.3533318250
20
-3.5745526924
10
1.3449699525
20
-3.5773444058
10
1.3365877485
20
-3.5797949033
10
1.3281725349
20
-3.5819137080
10
1.3197454534
20
-3.5837003364
10
1.3113146060
20
-3.5851582349
10
1.3028473081
20
-3.5862954328
10
1.2943450948
20
-3.5871110213
10
1.2858337357
20
-3.5876021400
10
1.2773170433
20
-3.5877686024
10
1.2688101905
20
-3.5876099415
10
1.2603265353
20
-3.5871265665
10
1.2518680691
20
-3.5863183123
10
1.2434496646
20
-3.5851859552
10
1.2350853818
20
-3.5837310672
10
1.2267767637
20
-3.5819531275
10
1.2185384436
20
-3.5798540212
10
1.2103849187
20
-3.5774365143
10
1.2023183331
20
-3.5746998473
10
1.1943494035
20
-3.5716455150
10
1.1864967783
20
-3.5682788356
10
1.1787747636
20
-3.5646047062
0
LINE
5
272
100
AcDbEntity
8
0
100
AcDbLine
62
9
6
CONTINUOUS
10
-18.7351323330
20
14.4417269586
11
12.0391891184
21
-0.9454337671
0
LINE
5
273
100
AcDbEntity
8
0
100
AcDbLine
62
9
6
CONTINUOUS
10
6.3462798256
20
16.0846104081
11
6.3462798256
21
16.2351090579
0
LINE
5
274
100
AcDbEntity
8
0
100
AcDbLine
62
7
6
CONTINUOUS
10
17.3417902731
20
4.4836599744
11
18.7596837542
21
5.3422016793
0
LINE
5
275
100
AcDbEntity
8
0
100
AcDbLine
62
9
6
CONTINUOUS
10
1.7515730380
20
-5.0323123187
11
2.6605312909
21
-4.5778331923
0
LINE
5
276
100
AcDbEntity
8
0
100
AcDbLine
62
9
6
CONTINUOUS
10
-13.2800237269
20
3.4040275053
11
-12.9343917954
21
3.4707319782
0
LINE
5
277
100
AcDbEntity
8
0
100
AcDbLine
62
9
6
CONTINUOUS
10
-13.2405780133
20
3.9988250871
11
-13.5862099448
21
3.9321206142
0
LINE
5
278
100
AcDbEntity
8
0
100
AcDbLine
62
7
6
CONTINUOUS
10
18.5209209874
20
5.9000814729
11
17.7431035281
21
5.9042382020
0
LINE
5
279
100
AcDbEntity
8
0
100
AcDbLine
62
7
6
CONTINUOUS
10
7.9144448358
20
-7.7820700210
11
7.9141586543
21
-7.4769185547
0
LINE
5
27A
100
AcDbEntity
8
0
100
AcDbLine
62
7
6
CONTINUOUS
10
7.9019147442
20
17.1127767473
11
7.9019147442
21
15.8109169421
0
LINE
5
27B
100
AcDbEntity
8
0
100
AcDbLine
62
7
6
CONTINUOUS
10
7.9144448355
20
-6.4825418210
11
7.9141586543
21
-6.7879791450
0
LWPOLYLINE
5
27C
100
AcDbEntity
8
0
100
AcDbPolyline
62
7
6
CONTINUOUS
90
31
70
0
10
7.9144448008
20
-7.7820715995
10
7.9144202320
20
-7.7879160110
10
7.9141561121
20
-7.8002266848
10
7.9136146481
20
-7.8121338559
10
7.9128113122
20
-7.8236099498
10
7.9117602557
20
-7.8346646927
10
7.9104703612
20
-7.8453386558
10
7.9089537454
20
-7.8556239694
10
7.9072239672
20
-7.8655090705
10
7.9052873989
20
-7.8750205577
10
7.9031558484
20
-7.8841491347
10
7.9008432776
20
-7.8928813677
10
7.8983573271
20
-7.9012292644
10
7.8957115443
20
-7.9091823160
10
7.8929217314
20
-7.9167278107
10
7.8899997763
20
-7.9238671113
10
7.8869620956
20
-7.9305912965
10
7.8838279133
20
-7.9368896011
10
7.8806164653
20
-7.9427563525
10
7.8773501572
20
-7.9481839586
10
7.8740488186
20
-7.9531735775
10
7.8707302753
20
-7.9577322378
10
7.8674216556
20
-7.9618570528
10
7.8641364391
20
-7.9655663276
10
7.8608675807
20
-7.9688983521
10
7.8576393703
20
-7.9718563793
10
7.8544462970
20
-7.9744738247
10
7.8512184444
20
-7.9768237792
10
7.8479178140
20
-7.9789361736
10
7.8445472009
20
-7.9808104593
10
7.8437830127
20
-7.9811978755
0
LWPOLYLINE
5
27D
100
AcDbEntity
8
0
100
AcDbPolyline
62
7
6
CONTINUOUS
90
31
70
0
10
7.9141586543
20
-7.4769185547
10
7.9143345249
20
-7.4673017998
10
7.9148811868
20
-7.4575687086
10
7.9158094388
20
-7.4477221065
10
7.9171418481
20
-7.4376958366
10
7.9188862232
20
-7.4275652393
10
7.9210105667
20
-7.4175358648
10
7.9235008466
20
-7.4076344455
10
7.9263626797
20
-7.3978172888
10
7.9295653087
20
-7.3881696687
10
7.9331012535
20
-7.3786874284
10
7.9369725865
20
-7.3693504323
10
7.9411499505
20
-7.3602154757
10
7.9456310320
20
-7.3512725489
10
7.9504195293
20
-7.3425075163
10
7.9554852358
20
-7.3339687720
10
7.9608305872
20
-7.3256447725
10
7.9664595493
20
-7.3175277732
10
7.9723338701
20
-7.3096694782
10
7.9784541358
20
-7.3020635402
10
7.9848246688
20
-7.2947031546
10
7.9914005884
20
-7.2876365642
10
7.9981730611
20
-7.2808662544
10
8.0051479901
20
-7.2743819561
10
8.0122907591
20
-7.2682111532
10
8.0195841854
20
-7.2623614641
10
8.0270341151
20
-7.2568223802
10
8.0346329125
20
-7.2515957654
10
8.0423720562
20
-7.2466842250
10
8.0502446374
20
-7.2420894216
10
8.0582429307
20
-7.2378136799
0
LINE
5
27E
100
AcDbEntity
8
0
100
AcDbLine
62
7
6
CONTINUOUS
10
17.3417902731
20
0.8660032705
11
18.7596837542
21
1.7584141937
0
LINE
5
27F
100
AcDbEntity
8
0
100
AcDbLine
62
7
6
CONTINUOUS
10
8.2892487872
20
-7.1198417180
11
8.0582429308
21
-7.2378136799
0
LINE
5
280
100
AcDbEntity
8
0
100
AcDbLine
62
9
6
CONTINUOUS
10
8.3400648965
20
-7.1452497726
11
8.1479712919
21
-7.2433497072
0
LINE
5
281
100
AcDbEntity
8
0
100
AcDbLine
62
9
6
CONTINUOUS
10
7.6205593218
20
-7.9668054607
11
7.9130238887
21
-7.8205731772
0
LINE
5
282
100
AcDbEntity
8
0
100
AcDbLine
62
7
6
CONTINUOUS
10
7.8438592081
20
-7.9811598100
11
7.8437819283
21
-7.9811984270
0
LINE
5
283
100
AcDbEntity
8
0
100
AcDbLine
62
9
6
CONTINUOUS
10
17.3417902731
20
-6.6447582200
11
16.4225514575
21
-7.0945526318
0
LINE
5
284
100
AcDbEntity
8
0
100
AcDbLine
62
7
6
CONTINUOUS
10
17.2760924403
20
-6.7803414556
11
16.3562289863
21
-7.2304415104
0
LINE
5
285
100
AcDbEntity
8
0
100
AcDbLine
62
7
6
CONTINUOUS
10
16.3550664902
20
-7.2310004498
11
16.3562273674
21
-7.2304423028
0
LINE
5
286
100
AcDbEntity
8
0
100
AcDbLine
62
9
6
CONTINUOUS
10
16.2457208795
20
-7.3958570187
11
12.4324966954
21
-9.2131827866
0
LINE
5
287
100
AcDbEntity
8
0
100
AcDbLine
62
9
6
CONTINUOUS
10
16.4225514575
20
-7.0945856067
11
12.6752492483
21
-8.8645846955
0
LINE
5
288
100
AcDbEntity
8
0
100
AcDbLine
62
7
6
CONTINUOUS
10
16.3550647298
20
-7.2310012813
11
12.6083579202
21
-9.0007191393
0
LINE
5
289
100
AcDbEntity
8
0
100
AcDbLine
62
7
6
CONTINUOUS
10
18.7106563280
20
5.8052138027
11
18.5209209874
21
5.9000814729
0
LINE
5
28A
100
AcDbEntity
8
0
100
AcDbLine
62
9
6
CONTINUOUS
10
16.4225514575
20
-7.7007209630
11
12.6045389335
21
-9.5203287823
0
LINE
5
28B
100
AcDbEntity
8
0
100
AcDbLine
62
9
6
CONTINUOUS
10
12.7513915800
20
9.5402947592
11
-18.0472329682
21
24.9396070332
0
LINE
5
28C
100
AcDbEntity
8
0
100
AcDbLine
62
9
6
CONTINUOUS
10
13.4193645807
20
10.6041995744
11
-17.3908186012
21
26.0092911654
0
LINE
5
28D
100
AcDbEntity
8
0
100
AcDbLine
62
7
6
CONTINUOUS
10
16.4225514575
20
-7.7007209630
11
16.4225514575
21
-18.7426025569
0
LINE
5
28E
100
AcDbEntity
8
0
100
AcDbLine
62
7
6
CONTINUOUS
10
16.4225514575
20
-7.0945526318
11
16.4225514575
21
11.4406102213
0
LINE
5
28F
100
AcDbEntity
8
0
100
AcDbLine
62
7
6
CONTINUOUS
10
17.3417902731
20
-6.6447582200
11
17.3417902731
21
11.9592320378
0
LINE
5
290
100
AcDbEntity
8
0
100
AcDbLine
62
7
6
CONTINUOUS
10
15.6499752746
20
-26.5490457581
11
16.4225514575
21
-18.7426025569
0
LINE
5
291
100
AcDbEntity
8
0
100
AcDbLine
62
7
6
CONTINUOUS
10
9.2454176285
20
14.6350415066
11
6.3462798256
21
16.0846104081
0
LINE
5
292
100
AcDbEntity
8
0
100
AcDbLine
62
7
6
CONTINUOUS
10
-9.5636227511
20
24.0395616964
11
-6.6644849482
21
22.5899927950
0
LINE
5
293
100
AcDbEntity
8
0
100
AcDbLine
62
7
6
CONTINUOUS
10
17.3417902731
20
5.5713915233
11
17.4478562902
21
5.3750182400
0
LINE
5
294
100
AcDbEntity
8
0
100
AcDbLine
62
9
6
CONTINUOUS
10
18.7596837542
20
5.3422016793
11
18.7596837542
21
1.7584141937
0
LINE
5
295
100
AcDbEntity
8
0
100
AcDbLine
62
7
6
CONTINUOUS
10
18.9156815811
20
5.5592797905
11
18.9156815811
21
1.9818603562
0
LINE
5
296
100
AcDbEntity
8
0
100
AcDbLine
62
7
6
CONTINUOUS
10
-13.9123294554
20
28.0198988471
11
-8.0079878325
21
25.0677280357
0
LINE
5
297
100
AcDbEntity
8
0
100
AcDbLine
62
7
6
CONTINUOUS
10
-4.8260073171
20
23.4767377780
11
7.9019147442
21
17.1127767473
0
LINE
5
298
100
AcDbEntity
8
0
100
AcDbLine
62
7
6
CONTINUOUS
10
11.0838952596
20
15.5217864897
11
16.9882368825
21
12.5696156782
0
LINE
5
299
100
AcDbEntity
8
0
100
AcDbLine
62
9
6
CONTINUOUS
10
13.7335404299
20
-27.3237399809
11
15.6499752746
21
-26.5490457581
0
LINE
5
29A
100
AcDbEntity
8
0
100
AcDbLine
62
7
6
CONTINUOUS
10
13.5799286113
20
-27.6044595096
11
15.4706736155
21
-26.8401500755
0
SPLINE
5
29B
100
AcDbEntity
8
0
100
AcDbSpline
62
7
6
CONTINUOUS
70
0
71
3
72
23
73
19
74
17
42
0.0000001000
43
0.0000001000
44
0.0000000001
12
0.0000000000
22
-0.6405370413
32
0.0000000000
13
0.5729137465
23
-0.2864568733
33
0.0000000000
40
0.0000000000
40
0.0000000000
40
0.0000000000
40
0.0000000000
40
0.0679051914
40
0.1349988344
40
0.2010364197
40
0.2660154745
40
0.3306242123
40
0.3947922444
40
0.4580820133
40
0.5201616343
40
0.5816046908
40
0.6429266749
40
0.7041805470
40
0.7653304230
40
0.8265542076
40
0.8869001134
40
0.9450886742
40
1.0000000000
40
1.0000000000
40
1.0000000000
40
1.0000000000
10
2.6693245634
20
-3.9561262012
30
0.0000000000
10
2.6693245634
20
-3.9706247980
30
0.0000000000
10
2.6704165637
20
-3.9994595705
30
0.0000000000
10
2.6751404492
20
-4.0421565267
30
0.0000000000
10
2.6826911814
20
-4.0838095520
30
0.0000000000
10
2.6928654069
20
-4.1243504704
30
0.0000000000
10
2.7055257657
20
-4.1637650187
30
0.0000000000
10
2.7205537427
20
-4.2019507987
30
0.0000000000
10
2.7377486717
20
-4.2386146400
30
0.0000000000
10
2.7569432384
20
-4.2736093032
30
0.0000000000
10
2.7780874808
20
-4.3069655098
30
0.0000000000
10
2.8012314188
20
-4.3387503925
30
0.0000000000
10
2.8263913689
20
-4.3688854967
30
0.0000000000
10
2.8535488974
20
-4.3972079158
30
0.0000000000
10
2.8825272467
20
-4.4233805331
30
0.0000000000
10
2.9128892685
20
-4.4469208079
30
0.0000000000
10
2.9438520694
20
-4.4673021863
30
0.0000000000
10
2.9650242968
20
-4.4789760679
30
0.0000000000
10
2.9755107813
20
-4.4842193101
30
0.0000000000
11
2.6693245634
21
-3.9561262012
31
0.0000000000
11
2.6709494387
21
-3.9995916307
31
0.0000000000
11
2.6756594780
21
-4.0423087113
31
0.0000000000
11
2.6831940268
21
-4.0839317809
31
0.0000000000
11
2.6933190907
21
-4.1243029543
31
0.0000000000
11
2.7059727722
21
-4.1637052865
31
0.0000000000
11
2.7210255285
21
-4.2019517118
31
0.0000000000
11
2.7382427332
21
-4.2386534034
31
0.0000000000
11
2.7573718548
21
-4.2735142123
31
0.0000000000
11
2.7784512888
21
-4.3067496719
31
0.0000000000
11
2.8015827705
21
-4.3384951374
31
0.0000000000
11
2.8267413112
21
-4.3686026514
31
0.0000000000
11
2.8538649218
21
-4.3968604213
31
0.0000000000
11
2.8829843636
21
-4.4231275252
31
0.0000000000
11
2.9135489237
21
-4.4467902172
31
0.0000000000
11
2.9446970726
21
-4.4672594497
31
0.0000000000
11
2.9755107813
21
-4.4842193101
31
0.0000000000
0
SPLINE
5
29C
100
AcDbEntity
8
0
100
AcDbSpline
62
7
6
CONTINUOUS
70
0
71
3
72
23
73
19
74
17
42
0.0000001000
43
0.0000001000
44
0.0000000001
12
0.0000000000
22
-0.6405370469
32
0.0000000000
13
0.5729137516
23
-0.2864568758
33
0.0000000000
40
0.0000000000
40
0.0000000000
40
0.0000000000
40
0.0000000000
40
0.0679089667
40
0.1350048577
40
0.2010435165
40
0.2660319526
40
0.3306524395
40
0.3948253291
40
0.4581127151
40
0.5201932474
40
0.5816494369
40
0.6429900802
40
0.7042606602
40
0.7654240742
40
0.8266545871
40
0.8869836180
40
0.9451345602
40
1.0000000000
40
1.0000000000
40
1.0000000000
40
1.0000000000
10
-13.2405780133
20
3.9988250871
30
0.0000000000
10
-13.2405780133
20
3.9843256841
30
0.0000000000
10
-13.2394859035
20
3.9554896236
30
0.0000000000
10
-13.2347616296
20
3.9127911822
30
0.0000000000
10
-13.2272101324
20
3.8711355364
30
0.0000000000
10
-13.2170342667
20
3.8305901288
30
0.0000000000
10
-13.2043713263
20
3.7911705662
30
0.0000000000
10
-13.1893410685
20
3.7529824128
30
0.0000000000
10
-13.1721446612
20
3.7163184679
30
0.0000000000
10
-13.1529477889
20
3.6813222265
30
0.0000000000
10
-13.1317984818
20
3.6479609424
30
0.0000000000
10
-13.1086466074
20
3.6161689961
30
0.0000000000
10
-13.0834775705
20
3.5860278406
30
0.0000000000
10
-13.0563117418
20
3.5577024087
30
0.0000000000
10
-13.0273297909
20
3.5315326749
30
0.0000000000
10
-12.9969730959
20
3.5080022147
30
0.0000000000
10
-12.9660264625
20
3.4876353673
30
0.0000000000
10
-12.9448695171
20
3.4759708390
30
0.0000000000
10
-12.9343917954
20
3.4707319782
30
0.0000000000
11
-13.2405780133
21
3.9988250871
31
0.0000000000
11
-13.2389529585
21
3.9553572440
31
0.0000000000
11
-13.2342425406
21
3.9126387562
31
0.0000000000
11
-13.2267075886
21
3.8710150604
31
0.0000000000
11
-13.2165805828
21
3.8306381785
31
0.0000000000
11
-13.2039237199
21
3.7912289633
31
0.0000000000
11
-13.1888686543
21
3.7529801028
31
0.0000000000
11
-13.1716509236
21
3.7162803436
31
0.0000000000
11
-13.1525204167
21
3.6814196286
31
0.0000000000
11
-13.1314351594
21
3.6481779005
31
0.0000000000
11
-13.1082948071
21
3.6164241101
31
0.0000000000
11
-13.0831270185
21
3.5863103770
31
0.0000000000
11
-13.0559945795
21
3.5580490610
31
0.0000000000
11
-13.0268688658
21
3.5317824756
31
0.0000000000
11
-12.9963100912
21
3.5081299673
31
0.0000000000
11
-12.9651803042
21
3.4876766691
31
0.0000000000
11
-12.9343917954
21
3.4707319782
31
0.0000000000
0
SPLINE
5
29D
100
AcDbEntity
8
0
100
AcDbSpline
62
7
6
CONTINUOUS
70
0
71
3
72
17
73
13
74
11
42
0.0000001000
43
0.0000001000
44
0.0000000001
12
-0.0353647116
22
-0.3573403100
32
0.0000000000
13
-0.3332135975
23
-0.1346977961
33
0.0000000000
40
0.0000000000
40
0.0000000000
40
0.0000000000
40
0.0000000000
40
0.1219869434
40
0.2398603996
40
0.3533954071
40
0.4625200323
40
0.5673453395
40
0.6681549894
40
0.7654563993
40
0.8599310563
40
0.9524588297
40
1.0000000000
40
1.0000000000
40
1.0000000000
40
1.0000000000
10
15.6499752746
20
-26.5490457581
30
0.0000000000
10
15.6485372636
20
-26.5635760422
30
0.0000000000
10
15.6445869653
20
-26.5920515267
30
0.0000000000
10
15.6352245259
20
-26.6333560482
30
0.0000000000
10
15.6226019891
20
-26.6721776553
30
0.0000000000
10
15.6068317750
20
-26.7081392802
30
0.0000000000
10
15.5880549123
20
-26.7408923705
30
0.0000000000
10
15.5664399798
20
-26.7701156242
30
0.0000000000
10
15.5421855215
20
-26.7955147445
30
0.0000000000
10
15.5155188446
20
-26.8168285544
30
0.0000000000
10
15.4912561499
20
-26.8311433419
30
0.0000000000
10
15.4759366524
20
-26.8380217366
30
0.0000000000
10
15.4706561976
20
-26.8401563002
30
0.0000000000
11
15.6499752746
21
-26.5490457581
31
0.0000000000
11
15.6438973570
21
-26.5924258479
31
0.0000000000
11
15.6344746970
21
-26.6336904059
31
0.0000000000
11
15.6217965719
21
-26.6724378296
31
0.0000000000
11
15.6059847148
21
-26.7082911316
31
0.0000000000
11
15.5871903288
21
-26.7409046041
31
0.0000000000
11
15.5655974058
21
-26.7699586485
31
0.0000000000
11
15.5414131095
21
-26.7951755812
31
0.0000000000
11
15.5148756473
21
-26.8163093611
31
0.0000000000
11
15.4862403132
21
-26.8331600806
31
0.0000000000
11
15.4706561976
21
-26.8401563002
31
0.0000000000
0
SPLINE
5
29E
100
AcDbEntity
8
0
100
AcDbSpline
62
7
6
CONTINUOUS
70
0
71
3
72
21
73
17
74
15
42
0.0000001000
43
0.0000001000
44
0.0000000001
12
0.3292591763
22
-0.1646295882
32
0.0000000000
13
0.0000000000
23
-0.3681229503
33
0.0000000000
40
0.0000000000
40
0.0000000000
40
0.0000000000
40
0.0000000000
40
0.0616942968
40
0.1269240036
40
0.1949935395
40
0.2653816358
40
0.3383524422
40
0.4130944495
40
0.4885542724
40
0.5645349851
40
0.6408401720
40
0.7163828967
40
0.7902490033
40
0.8626110890
40
0.9328308405
40
1.0000000000
40
1.0000000000
40
1.0000000000
40
1.0000000000
10
16.2457208795
20
-7.3958570187
30
0.0000000000
10
16.2524920172
20
-7.3992425876
30
0.0000000000
10
16.2660394705
20
-7.4069934233
30
0.0000000000
10
16.2855657961
20
-7.4208788119
30
0.0000000000
10
16.3045806009
20
-7.4371485348
30
0.0000000000
10
16.3228581342
20
-7.4555989327
30
0.0000000000
10
16.3401898648
20
-7.4760244817
30
0.0000000000
10
16.3563440293
20
-7.4981666175
30
0.0000000000
10
16.3710935441
20
-7.5217036790
30
0.0000000000
10
16.3842799138
20
-7.5463679846
30
0.0000000000
10
16.3957497743
20
-7.5718873498
30
0.0000000000
10
16.4053339962
20
-7.5978972953
30
0.0000000000
10
16.4129176814
20
-7.6240565238
30
0.0000000000
10
16.4184193645
20
-7.6500667934
30
0.0000000000
10
16.4217667386
20
-7.6756127868
30
0.0000000000
10
16.4225514575
20
-7.6924787932
30
0.0000000000
10
16.4225514575
20
-7.7007209630
30
0.0000000000
11
16.2457208795
21
-7.3958570187
31
0.0000000000
11
16.2654642398
21
-7.4070816868
31
0.0000000000
11
16.2850648298
21
-7.4209532236
31
0.0000000000
11
16.3041330799
21
-7.4372106254
31
0.0000000000
11
16.3223935914
21
-7.4555942645
31
0.0000000000
11
16.3397938077
21
-7.4760591563
31
0.0000000000
11
16.3560252713
21
-7.4982756692
31
0.0000000000
11
16.3707846766
21
-7.5218087227
31
0.0000000000
11
16.3839747107
21
-7.5464736281
31
0.0000000000
11
16.3954859138
21
-7.5720963312
31
0.0000000000
11
16.4050894759
21
-7.5981944666
31
0.0000000000
11
16.4126415805
21
-7.6243164917
31
0.0000000000
11
16.4181264308
21
-7.6503838499
31
0.0000000000
11
16.4214476581
21
-7.6760191031
31
0.0000000000
11
16.4225514575
21
-7.7007209630
31
0.0000000000
0
SPLINE
5
29F
100
AcDbEntity
8
0
100
AcDbSpline
62
9
6
CONTINUOUS
70
0
71
3
72
15
73
11
74
9
42
0.0000001000
43
0.0000001000
44
0.0000000001
12
-0.2076347185
22
-0.1036784590
32
0.0000000000
13
-0.2074052961
23
0.1037012698
33
0.0000000000
40
0.0000000000
40
0.0000000000
40
0.0000000000
40
0.0000000000
40
0.0972948026
40
0.2135131816
40
0.3323741043
40
0.4552887928
40
0.5832465253
40
0.7166848429
40
0.8556817381
40
1.0000000000
40
1.0000000000
40
1.0000000000
40
1.0000000000
10
7.8437818522
20
-7.9811982745
30
0.0000000000
10
7.8370479259
20
-7.9845607329
30
0.0000000000
10
7.8218225063
20
-7.9910437398
30
0.0000000000
10
7.7969887460
20
-7.9979461024
30
0.0000000000
10
7.7694825441
20
-8.0016455929
30
0.0000000000
10
7.7408289743
20
-8.0017523030
30
0.0000000000
10
7.7112613999
20
-7.9982685751
30
0.0000000000
10
7.6810606716
20
-7.9912425254
30
0.0000000000
10
7.6505409801
20
-7.9807853754
30
0.0000000000
10
7.6305367791
20
-7.9717941230
30
0.0000000000
10
7.6205593218
20
-7.9668054607
30
0.0000000000
11
7.8437818522
21
-7.9811982745
31
0.0000000000
11
7.8230208650
21
-7.9900436787
31
0.0000000000
11
7.7970644973
21
-7.9972917925
31
0.0000000000
11
7.7697552309
21
-8.0010167125
31
0.0000000000
11
7.7412536023
21
-8.0011875625
31
0.0000000000
11
7.7117775719
21
-7.9977869016
31
0.0000000000
11
7.6816234501
21
-7.9908470039
31
0.0000000000
11
7.6511096411
21
-7.9804658282
31
0.0000000000
11
7.6205593218
21
-7.9668054607
31
0.0000000000
0
SPLINE
5
2A0
100
AcDbEntity
8
0
100
AcDbSpline
62
9
6
CONTINUOUS
70
0
71
3
72
15
73
11
74
9
42
0.0000001000
43
0.0000001000
44
0.0000000001
12
-0.2081694640
22
-0.1080396480
32
0.0000000000
13
-0.2093034009
23
0.1053910510
33
0.0000000000
40
0.0000000000
40
0.0000000000
40
0.0000000000
40
0.0000000000
40
0.1086906385
40
0.2235212303
40
0.3409308107
40
0.4623239135
40
0.5886690414
40
0.7203910644
40
0.8575757350
40
1.0000000000
40
1.0000000000
40
1.0000000000
40
1.0000000000
10
-8.0312225562
20
-0.0843024057
30
0.0000000000
10
-8.0387645802
20
-0.0882167052
30
0.0000000000
10
-8.0548283086
20
-0.0952006500
30
0.0000000000
10
-8.0805745060
20
-0.1023444466
30
0.0000000000
10
-8.1080366667
20
-0.1060157647
30
0.0000000000
10
-8.1366350343
20
-0.1060871315
30
0.0000000000
10
-8.1661330614
20
-0.1025614734
30
0.0000000000
10
-8.1962472829
20
-0.0954893371
30
0.0000000000
10
-8.2266635410
20
-0.0849848993
30
0.0000000000
10
-8.2465907467
20
-0.0759630917
30
0.0000000000
10
-8.2565273744
20
-0.0709596774
30
0.0000000000
11
-8.0312225562
21
-0.0843024057
31
0.0000000000
11
-8.0545799986
21
-0.0944648853
31
0.0000000000
11
-8.0805012408
21
-0.1016901478
31
0.0000000000
11
-8.1077655782
21
-0.1053864016
31
0.0000000000
11
-8.1362125028
21
-0.1055218640
31
0.0000000000
11
-8.1656193969
21
-0.1020793746
31
0.0000000000
11
-8.1956862933
21
-0.0950938034
31
0.0000000000
11
-8.2260958582
21
-0.0846658565
31
0.0000000000
11
-8.2565273744
21
-0.0709596774
31
0.0000000000
0
SPLINE
5
2A1
100
AcDbEntity
8
0
100
AcDbSpline
62
9
6
CONTINUOUS
70
0
71
3
72
9
73
5
74
3
42
0.0000001000
43
0.0000001000
44
0.0000000001
12
-0.0003741201
22
0.3051581932
32
0.0000000000
13
-0.0001982810
23
0.3051583581
33
0.0000000000
40
0.0000000000
40
0.0000000000
40
0.0000000000
40
0.0000000000
40
0.4999639837
40
1.0000000000
40
1.0000000000
40
1.0000000000
40
1.0000000000
10
1.1140877110
20
-4.4233274451
30
0.0000000000
10
1.1140253622
20
-4.3724714098
30
0.0000000000
10
1.1139153140
20
-4.2707519935
30
0.0000000000
10
1.1138345723
20
-4.1690325498
30
0.0000000000
10
1.1138015231
20
-4.1181691599
30
0.0000000000
11
1.1140877110
21
-4.4233274451
31
0.0000000000
11
1.1139226475
21
-4.2707593138
31
0.0000000000
11
1.1138015231
21
-4.1181691599
31
0.0000000000
0
SPLINE
5
2A2
100
AcDbEntity
8
0
100
AcDbSpline
62
9
6
CONTINUOUS
70
0
71
3
72
25
73
21
74
19
42
0.0000001000
43
0.0000001000
44
0.0000000001
12
-0.9221703597
22
0.4611003342
32
0.0000000000
13
-0.0012750434
23
1.0310237945
33
0.0000000000
40
0.0000000000
40
0.0000000000
40
0.0000000000
40
0.0000000000
40
0.0473653863
40
0.0970311015
40
0.1487721817
40
0.2023195318
40
0.2573577450
40
0.3136517831
40
0.3710555669
40
0.4293739077
40
0.4883213364
40
0.5475947673
40
0.6068850647
40
0.6658870843
40
0.7243747306
40
0.7821702064
40
0.8390003658
40
0.8944858877
40
0.9482661954
40
1.0000000000
40
1.0000000000
40
1.0000000000
40
1.0000000000
10
1.6101522769
20
-5.2767302758
30
0.0000000000
10
1.5955926251
20
-5.2694502106
30
0.0000000000
10
1.5663972406
20
-5.2532462554
30
0.0000000000
10
1.5237225336
20
-5.2250028538
30
0.0000000000
10
1.4815251699
20
-5.1924437822
30
0.0000000000
10
1.4402532906
20
-5.1558785548
30
0.0000000000
10
1.4002942898
20
-5.1156502383
30
0.0000000000
10
1.3619620979
20
-5.0720908744
30
0.0000000000
10
1.3255148193
20
-5.0255050530
30
0.0000000000
10
1.2912037509
20
-4.9762105792
30
0.0000000000
10
1.2592913096
20
-4.9245745181
30
0.0000000000
10
1.2300353646
20
-4.8710078752
30
0.0000000000
10
1.2036696645
20
-4.8159404045
30
0.0000000000
10
1.1803906889
20
-4.7597905967
30
0.0000000000
10
1.1603584701
20
-4.7029458300
30
0.0000000000
10
1.1437180360
20
-4.6457927949
30
0.0000000000
10
1.1306134510
20
-4.5887833797
30
0.0000000000
10
1.1211686865
20
-4.5324502932
30
0.0000000000
10
1.1154562536
20
-4.4773781844
30
0.0000000000
10
1.1141096986
20
-4.4411070396
30
0.0000000000
10
1.1140877110
20
-4.4233274451
30
0.0000000000
11
1.6101522769
21
-5.2767302758
31
0.0000000000
11
1.5674140214
21
-5.2531021823
31
0.0000000000
11
1.5246711443
21
-5.2249036079
31
0.0000000000
11
1.4823958612
21
-5.1923669993
31
0.0000000000
11
1.4410350429
21
-5.1557982146
31
0.0000000000
11
1.4010116723
21
-5.1155712332
31
0.0000000000
11
1.3626403594
21
-5.0720241747
31
0.0000000000
11
1.3261485010
21
-5.0254283118
31
0.0000000000
11
1.2917817194
21
-4.9760901139
31
0.0000000000
11
1.2598191969
21
-4.9243972761
31
0.0000000000
11
1.2305219752
21
-4.8707652531
31
0.0000000000
11
1.2041261364
21
-4.8156280921
31
0.0000000000
11
1.1808385114
21
-4.7594294840
31
0.0000000000
11
1.1608135681
21
-4.7025492843
31
0.0000000000
11
1.1441815232
21
-4.6453289110
31
0.0000000000
11
1.1310899213
21
-4.5882168828
31
0.0000000000
11
1.1216741829
21
-4.5317901381
31
0.0000000000
11
1.1160064130
21
-4.4766317485
31
0.0000000000
11
1.1140877110
21
-4.4233274451
31
0.0000000000
0
SPLINE
5
2A3
100
AcDbEntity
8
0
100
AcDbSpline
62
9
6
CONTINUOUS
70
0
71
3
72
16
73
12
74
10
42
0.0000001000
43
0.0000001000
44
0.0000000001
12
0.0001391494
22
-0.2420124672
32
0.0000000000
13
0.2161411317
23
-0.1080758570
33
0.0000000000
40
0.0000000000
40
0.0000000000
40
0.0000000000
40
0.0000000000
40
0.0177378007
40
0.1181787152
40
0.2216804058
40
0.3305405748
40
0.4465586951
40
0.5709881401
40
0.7045701264
40
0.8475926831
40
1.0000000000
40
1.0000000000
40
1.0000000000
40
1.0000000000
10
-18.8797977044
20
5.9826949597
30
0.0000000000
10
-18.8797968817
20
5.9812640367
30
0.0000000000
10
-18.8796293826
20
5.9717307701
30
0.0000000000
10
-18.8772759708
20
5.9539206219
30
0.0000000000
10
-18.8693743996
20
5.9298533801
30
0.0000000000
10
-18.8569267374
20
5.9063845527
30
0.0000000000
10
-18.8400957577
20
5.8837200418
30
0.0000000000
10
-18.8190634520
20
5.8620428722
30
0.0000000000
10
-18.7940320632
20
5.8415268547
30
0.0000000000
10
-18.7652321880
20
5.8223414413
30
0.0000000000
10
-18.7443318311
20
5.8108977859
30
0.0000000000
10
-18.7333513345
20
5.8054072688
30
0.0000000000
11
-18.8797977044
21
5.9826949597
31
0.0000000000
11
-18.8797221104
21
5.9784031528
31
0.0000000000
11
-18.8765840581
21
5.9543347621
31
0.0000000000
11
-18.8688718439
21
5.9305417060
31
0.0000000000
11
-18.8566564674
21
5.9072431041
31
0.0000000000
11
-18.8400505303
21
5.8846536483
31
0.0000000000
11
-18.8192069393
21
5.8629812454
31
0.0000000000
11
-18.7943172358
21
5.8424251248
31
0.0000000000
11
-18.7656119024
21
5.8231754854
31
0.0000000000
11
-18.7333513345
21
5.8054072688
31
0.0000000000
0
SPLINE
5
2A4
100
AcDbEntity
8
0
100
AcDbSpline
62
9
6
CONTINUOUS
70
0
71
3
72
25
73
21
74
19
42
0.0000001000
43
0.0000001000
44
0.0000000001
12
0.0009345833
22
-0.7663706745
32
0.0000000000
13
-0.6854674791
23
0.3427232402
33
0.0000000000
40
0.0000000000
40
0.0000000000
40
0.0000000000
40
0.0000000000
40
0.0671442617
40
0.1321918424
40
0.1948025243
40
0.2547755847
40
0.3120406626
40
0.3667698646
40
0.4193420629
40
0.4701965267
40
0.5198016003
40
0.5687018461
40
0.6174890108
40
0.6667626944
40
0.7171482241
40
0.7692434939
40
0.8234679402
40
0.8800076732
40
0.9388967077
40
1.0000000000
40
1.0000000000
40
1.0000000000
40
1.0000000000
10
7.9730234885
20
-7.8527953338
30
0.0000000000
10
7.9730444058
20
-7.8699477982
30
0.0000000000
10
7.9719193325
20
-7.9037334563
30
0.0000000000
10
7.9664845745
20
-7.9532500444
30
0.0000000000
10
7.9573141989
20
-8.0003580989
30
0.0000000000
10
7.9444647795
20
-8.0445400709
30
0.0000000000
10
7.9280453420
20
-8.0853715313
30
0.0000000000
10
7.9081873862
20
-8.1225272184
30
0.0000000000
10
7.8850214991
20
-8.1557518410
30
0.0000000000
10
7.8586920762
20
-8.1848014889
30
0.0000000000
10
7.8293878715
20
-8.2094275521
30
0.0000000000
10
7.7973497876
20
-8.2294030192
30
0.0000000000
10
7.7628579267
20
-8.2445498653
30
0.0000000000
10
7.7262056849
20
-8.2547531108
30
0.0000000000
10
7.6876722870
20
-8.2599523385
30
0.0000000000
10
7.6475357976
20
-8.2601175942
30
0.0000000000
10
7.6061234538
20
-8.2552520181
30
0.0000000000
10
7.5638290219
20
-8.2454226147
30
0.0000000000
10
7.5211012104
20
-8.2307886169
30
0.0000000000
10
7.4931000006
20
-8.2182039238
30
0.0000000000
10
7.4791385607
20
-8.2112234177
30
0.0000000000
11
7.9730234885
21
-7.8527953338
31
0.0000000000
11
7.9712402712
21
-7.9042218579
31
0.0000000000
11
7.9657213581
21
-7.9537660145
31
0.0000000000
11
7.9564634827
21
-8.0008474605
31
0.0000000000
11
7.9435339535
21
-8.0449529999
31
0.0000000000
11
7.9270656810
21
-8.0856322835
31
0.0000000000
11
7.9072067167
21
-8.1225758523
31
0.0000000000
11
7.8840864083
21
-8.1555716250
31
0.0000000000
11
7.8578554959
21
-8.1843963547
31
0.0000000000
11
7.8287171463
21
-8.2088128530
31
0.0000000000
11
7.7969044738
21
-8.2286215664
31
0.0000000000
11
7.7626758671
21
-8.2436663593
31
0.0000000000
11
7.7263093373
21
-8.2538368650
31
0.0000000000
11
7.6880517268
21
-8.2590711617
31
0.0000000000
11
7.6481282222
21
-8.2593258173
31
0.0000000000
11
7.6068444779
21
-8.2545762619
31
0.0000000000
11
7.5646157458
21
-8.2448675048
31
0.0000000000
11
7.5218880581
21
-8.2303368659
31
0.0000000000
11
7.4791385607
21
-8.2112234177
31
0.0000000000
0
SPLINE
5
2A5
100
AcDbEntity
8
0
100
AcDbSpline
62
9
6
CONTINUOUS
70
0
71
3
72
9
73
5
74
3
42
0.0000001000
43
0.0000001000
44
0.0000000001
12
0.0001982810
22
-0.3051583581
32
0.0000000000
13
0.0003741201
23
-0.3051581932
33
0.0000000000
40
0.0000000000
40
0.0000000000
40
0.0000000000
40
0.0000000000
40
0.5000360163
40
1.0000000000
40
1.0000000000
40
1.0000000000
40
1.0000000000
10
7.9727373006
20
-7.5476370487
30
0.0000000000
10
7.9727703498
20
-7.5985004386
30
0.0000000000
10
7.9728510915
20
-7.7002198823
30
0.0000000000
10
7.9729611397
20
-7.8019392985
30
0.0000000000
10
7.9730234885
20
-7.8527953338
30
0.0000000000
11
7.9727373006
21
-7.5476370487
31
0.0000000000
11
7.9728584250
21
-7.7002272025
31
0.0000000000
11
7.9730234885
21
-7.8527953338
31
0.0000000000
0
SPLINE
5
2A6
100
AcDbEntity
8
0
100
AcDbSpline
62
9
6
CONTINUOUS
70
0
71
3
72
15
73
11
74
9
42
0.0000001000
43
0.0000001000
44
0.0000000001
12
0.0036783651
22
-0.2418546220
32
0.0000000000
13
0.2159101928
23
-0.1081277918
33
0.0000000000
40
0.0000000000
40
0.0000000000
40
0.0000000000
40
0.0000000000
40
0.0646841121
40
0.1750781315
40
0.2902924028
40
0.4127322090
40
0.5441346839
40
0.6855721690
40
0.8375292017
40
1.0000000000
40
1.0000000000
40
1.0000000000
40
1.0000000000
10
-18.8183151925
20
-1.8669649389
30
0.0000000000
10
-18.8182358819
20
-1.8721796561
30
0.0000000000
10
-18.8171830648
20
-1.8862820375
30
0.0000000000
10
-18.8117116147
20
-1.9091507196
30
0.0000000000
10
-18.8001655128
20
-1.9348378564
30
0.0000000000
10
-18.7835627574
20
-1.9596172968
30
0.0000000000
10
-18.7621240653
20
-1.9832576920
30
0.0000000000
10
-18.7360921997
20
-2.0055468336
30
0.0000000000
10
-18.7057440775
20
-2.0262784987
30
0.0000000000
10
-18.6835566862
20
-2.0385341840
30
0.0000000000
10
-18.6718636524
20
-2.0443900536
30
0.0000000000
11
-18.8183151925
21
-1.8669649389
31
0.0000000000
11
-18.8171512136
21
-1.8825578237
31
0.0000000000
11
-18.8110286203
21
-1.9085022685
31
0.0000000000
11
-18.7997453801
21
-1.9339325468
31
0.0000000000
11
-18.7834196872
21
-1.9585822719
31
0.0000000000
11
-18.7622225561
21
-1.9821932332
31
0.0000000000
11
-18.7363760307
21
-2.0045181017
31
0.0000000000
11
-18.7061508580
21
-2.0253230203
31
0.0000000000
11
-18.6718636524
21
-2.0443900536
31
0.0000000000
0
SPLINE
5
2A7
100
AcDbEntity
8
0
100
AcDbSpline
62
9
6
CONTINUOUS
70
0
71
3
72
9
73
5
74
3
42
0.0000001000
43
0.0000001000
44
0.0000000001
12
-0.0004562842
22
0.3467421268
32
0.0000000000
13
-0.0002272656
23
0.3467423525
33
0.0000000000
40
0.0000000000
40
0.0000000000
40
0.0000000000
40
0.0000000000
40
0.4999594316
40
1.0000000000
40
1.0000000000
40
1.0000000000
40
1.0000000000
10
-14.8297032571
20
3.5070118545
30
0.0000000000
10
-14.8297792983
20
3.5647975200
30
0.0000000000
10
-14.8299123004
20
3.6803782549
30
0.0000000000
10
-14.8300071327
20
3.7959590273
30
0.0000000000
10
-14.8300450134
20
3.8537541083
30
0.0000000000
11
-14.8297032571
21
3.5070118545
31
0.0000000000
11
-14.8299027487
21
3.6803688864
31
0.0000000000
11
-14.8300450134
21
3.8537541083
31
0.0000000000
0
SPLINE
5
2A8
100
AcDbEntity
8
0
100
AcDbSpline
62
9
6
CONTINUOUS
70
0
71
3
72
25
73
21
74
19
42
0.0000001000
43
0.0000001000
44
0.0000000001
12
-0.9221316157
22
0.4610799876
32
0.0000000000
13
-0.0013685262
23
1.0309799216
33
0.0000000000
40
0.0000000000
40
0.0000000000
40
0.0000000000
40
0.0000000000
40
0.0473937057
40
0.0970842505
40
0.1488394539
40
0.2023881308
40
0.2574211646
40
0.3137131281
40
0.3711193777
40
0.4294402100
40
0.4883880373
40
0.5476596226
40
0.6069461198
40
0.6659446905
40
0.7244341451
40
0.7822355294
40
0.8390656560
40
0.8945381381
40
0.9482941763
40
1.0000000000
40
1.0000000000
40
1.0000000000
40
1.0000000000
10
-14.3336001212
20
2.6536724827
30
0.0000000000
10
-14.3481678660
20
2.6609565791
30
0.0000000000
10
-14.3773777374
20
2.6771692736
30
0.0000000000
10
-14.4200687632
20
2.7054260428
30
0.0000000000
10
-14.4622737183
20
2.7379942515
30
0.0000000000
10
-14.5035449731
20
2.7745619531
30
0.0000000000
10
-14.5434998811
20
2.8147880377
30
0.0000000000
10
-14.5818290040
20
2.8583446104
30
0.0000000000
10
-14.6182754024
20
2.9049291838
30
0.0000000000
10
-14.6525863803
20
2.9542228532
30
0.0000000000
10
-14.6844982204
20
3.0058566738
30
0.0000000000
10
-14.7137529125
20
3.0594189875
30
0.0000000000
10
-14.7401173212
20
3.1144807301
30
0.0000000000
10
-14.7633960730
20
3.1706258079
30
0.0000000000
10
-14.7834295032
20
3.2274689935
30
0.0000000000
10
-14.8000713153
20
3.2846217572
30
0.0000000000
10
-14.8131758267
20
3.3416261184
30
0.0000000000
10
-14.8226193125
20
3.3979439282
30
0.0000000000
10
-14.8283313271
20
3.4529911185
30
0.0000000000
10
-14.8296796702
20
3.4892426325
30
0.0000000000
10
-14.8297032571
20
3.5070118545
30
0.0000000000
11
-14.3336001212
21
2.6536724827
31
0.0000000000
11
-14.3763617275
21
2.6773144003
31
0.0000000000
11
-14.4191230039
21
2.7055276250
31
0.0000000000
11
-14.4614064354
21
2.7380738079
31
0.0000000000
11
-14.5027650050
21
2.7746436641
31
0.0000000000
11
-14.5427819362
21
2.8148661227
31
0.0000000000
11
-14.5811498426
21
2.8584100492
31
0.0000000000
11
-14.6176417648
21
2.9050059011
31
0.0000000000
11
-14.6520088593
21
2.9543439019
31
0.0000000000
11
-14.6839707954
21
3.0060345532
31
0.0000000000
11
-14.7132667057
21
3.0596621691
31
0.0000000000
11
-14.7396609036
21
3.1147928959
31
0.0000000000
11
-14.7629476525
21
3.1709852238
31
0.0000000000
11
-14.7829739291
21
3.2278642174
31
0.0000000000
11
-14.7996082919
21
3.2850876273
31
0.0000000000
11
-14.8127003608
21
3.3421969627
31
0.0000000000
11
-14.8221147298
21
3.3986078450
31
0.0000000000
11
-14.8277818918
21
3.4537387785
31
0.0000000000
11
-14.8297032571
21
3.5070118545
31
0.0000000000
0
SPLINE
5
2A9
100
AcDbEntity
8
0
100
AcDbSpline
62
9
6
CONTINUOUS
70
0
71
3
72
14
73
10
74
8
42
0.0000001000
43
0.0000001000
44
0.0000000001
12
0.0300800215
22
-0.2369216843
32
0.0000000000
13
0.2128785943
23
-0.1076155718
33
0.0000000000
40
0.0000000000
40
0.0000000000
40
0.0000000000
40
0.0000000000
40
0.1264886174
40
0.2556140172
40
0.3893955839
40
0.5296449497
40
0.6776868135
40
0.8343492007
40
1.0000000000
40
1.0000000000
40
1.0000000000
40
1.0000000000
10
-18.1425428793
20
-11.6475788421
30
0.0000000000
10
-18.1412746192
20
-11.6575681408
30
0.0000000000
10
-18.1369398911
20
-11.6775300534
30
0.0000000000
10
-18.1252424820
20
-11.7063532141
30
0.0000000000
10
-18.1084836910
20
-11.7338307312
30
0.0000000000
10
-18.0868869605
20
-11.7596630226
30
0.0000000000
10
-18.0607057032
20
-11.7835988497
30
0.0000000000
10
-18.0302310606
20
-11.8054085576
30
0.0000000000
10
-18.0078777458
20
-11.8180459870
30
0.0000000000
10
-17.9961232427
20
-11.8239881888
30
0.0000000000
11
-18.1425428793
21
-11.6475788421
31
0.0000000000
11
-18.1361657903
21
-11.6770691552
31
0.0000000000
11
-18.1246511887
21
-11.7056366557
31
0.0000000000
11
-18.1081256015
21
-11.7329358249
31
0.0000000000
11
-18.0867622237
21
-11.7586805563
31
0.0000000000
11
-18.0607849524
21
-11.7826010341
31
0.0000000000
11
-18.0304660404
21
-11.8044465617
31
0.0000000000
11
-17.9961232427
21
-11.8239881888
31
0.0000000000
0
SPLINE
5
2AA
100
AcDbEntity
8
0
100
AcDbSpline
62
9
6
CONTINUOUS
70
0
71
3
72
16
73
12
74
10
42
0.0000001000
43
0.0000001000
44
0.0000000001
12
-0.4490457681
22
0.2245449204
32
0.0000000000
13
-0.0642134784
23
0.4975058800
33
0.0000000000
40
0.0000000000
40
0.0000000000
40
0.0000000000
40
0.0000000000
40
0.0624596970
40
0.1659834587
40
0.2716839930
40
0.3806780968
40
0.4938932377
40
0.6120431388
40
0.7356218290
40
0.8649083584
40
1.0000000000
40
1.0000000000
40
1.0000000000
40
1.0000000000
10
-17.7485355133
20
-12.2374731107
30
0.0000000000
10
-17.7578846008
20
-12.2327981082
30
0.0000000000
10
-17.7821927438
20
-12.2193006891
30
0.0000000000
10
-17.8192529669
20
-12.1927704688
30
0.0000000000
10
-17.8579749782
20
-12.1560426494
30
0.0000000000
10
-17.8925998495
20
-12.1133410893
30
0.0000000000
10
-17.9228881021
20
-12.0650058319
30
0.0000000000
10
-17.9486385847
20
-12.0114070970
30
0.0000000000
10
-17.9696835730
20
-11.9529421270
30
0.0000000000
10
-17.9858863870
20
-11.8900420647
30
0.0000000000
10
-17.9932316748
20
-11.8463911510
30
0.0000000000
10
-17.9961232429
20
-11.8239881890
30
0.0000000000
11
-17.7485355133
21
-12.2374731107
31
0.0000000000
11
-17.7759429710
21
-12.2222560420
31
0.0000000000
11
-17.8182017434
21
-12.1920729991
31
0.0000000000
11
-17.8567368323
21
-12.1556522613
31
0.0000000000
11
-17.8912664809
21
-12.1132605054
31
0.0000000000
11
-17.9215381262
21
-12.0652083727
31
0.0000000000
11
-17.9473308507
21
-12.0118471945
31
0.0000000000
11
-17.9684564113
21
-11.9535667495
31
0.0000000000
11
-17.9847599934
21
-11.8907950855
31
0.0000000000
11
-17.9961232429
21
-11.8239881890
31
0.0000000000
0
SPLINE
5
2AB
100
AcDbEntity
8
0
100
AcDbSpline
62
9
6
CONTINUOUS
70
0
71
3
72
25
73
21
74
19
42
0.0000001000
43
0.0000001000
44
0.0000000001
12
0.0009864270
22
-0.7662998702
32
0.0000000000
13
-0.6854045287
23
0.3426909630
33
0.0000000000
40
0.0000000000
40
0.0000000000
40
0.0000000000
40
0.0000000000
40
0.0671790331
40
0.1322510524
40
0.1948692987
40
0.2548342826
40
0.3120853766
40
0.3668050978
40
0.4193731469
40
0.4702245895
40
0.5198262990
40
0.5687230705
40
0.6175070849
40
0.6667798802
40
0.7171710320
40
0.7692779152
40
0.8235108417
40
0.8800473570
40
0.9389202460
40
1.0000000000
40
1.0000000000
40
1.0000000000
40
1.0000000000
10
-7.9028854710
20
0.0436029614
30
0.0000000000
10
-7.9028633819
20
0.0264432000
30
0.0000000000
10
-7.9039871591
20
-0.0073545665
30
0.0000000000
10
-7.9094227330
20
-0.0568836644
30
0.0000000000
10
-7.9185944544
20
-0.1039932185
30
0.0000000000
10
-7.9314435420
20
-0.1481670186
30
0.0000000000
10
-7.9478604595
20
-0.1889864157
30
0.0000000000
10
-7.9677153111
20
-0.2261313561
30
0.0000000000
10
-7.9908790252
20
-0.2593477853
30
0.0000000000
10
-8.0172070443
20
-0.2883902403
30
0.0000000000
10
-8.0465096185
20
-0.3130088837
30
0.0000000000
10
-8.0785453664
20
-0.3329767164
30
0.0000000000
10
-8.1130345200
20
-0.3481163043
30
0.0000000000
10
-8.1496852822
20
-0.3583132694
30
0.0000000000
10
-8.1882200656
20
-0.3635067696
30
0.0000000000
10
-8.2283594761
20
-0.3636657407
30
0.0000000000
10
-8.2697715162
20
-0.3587936942
30
0.0000000000
10
-8.3120580110
20
-0.3489604140
30
0.0000000000
10
-8.3547702178
20
-0.3343278274
30
0.0000000000
10
-8.3827591969
20
-0.3217477493
30
0.0000000000
10
-8.3967139769
20
-0.3147705894
30
0.0000000000
11
-7.9028854710
21
0.0436029614
31
0.0000000000
11
-7.9046669494
21
-0.0078455317
31
0.0000000000
11
-7.9101869644
21
-0.0574037788
31
0.0000000000
11
-7.9194462101
21
-0.1044863490
31
0.0000000000
11
-7.9323747085
21
-0.1485813201
31
0.0000000000
11
-7.9488394490
21
-0.1892461027
31
0.0000000000
11
-7.9686951904
21
-0.2261787602
31
0.0000000000
11
-7.9918139196
21
-0.2591672159
31
0.0000000000
11
-8.0180436362
21
-0.2879850392
31
0.0000000000
11
-8.0471802530
21
-0.3123941278
31
0.0000000000
11
-8.0789904482
21
-0.3321952377
31
0.0000000000
11
-8.1132158759
21
-0.3472326863
31
0.0000000000
11
-8.1495798852
21
-0.3573967337
31
0.0000000000
11
-8.1878390108
21
-0.3626254420
31
0.0000000000
11
-8.2277677685
21
-0.3628739428
31
0.0000000000
11
-8.2690534279
21
-0.3581177425
31
0.0000000000
11
-8.3112746046
21
-0.3484049792
31
0.0000000000
11
-8.3539854186
21
-0.3338760890
31
0.0000000000
11
-8.3967139769
21
-0.3147705894
31
0.0000000000
0
SPLINE
5
2AC
100
AcDbEntity
8
0
100
AcDbSpline
62
9
6
CONTINUOUS
70
0
71
3
72
9
73
5
74
3
42
0.0000001000
43
0.0000001000
44
0.0000000001
12
0.0002233349
22
-0.3467413242
32
0.0000000000
13
0.0004483961
23
-0.3467411062
33
0.0000000000
40
0.0000000000
40
0.0000000000
40
0.0000000000
40
0.0000000000
40
0.5000429899
40
1.0000000000
40
1.0000000000
40
1.0000000000
40
1.0000000000
10
-7.9032251711
20
0.3903441872
30
0.0000000000
10
-7.9031879454
20
0.3325489977
30
0.0000000000
10
-7.9030889734
20
0.2169685723
30
0.0000000000
10
-7.9029601972
20
0.1013881770
30
0.0000000000
10
-7.9028854710
20
0.0436029614
30
0.0000000000
11
-7.9032251711
21
0.3903441872
31
0.0000000000
11
-7.9030815125
21
0.2169586423
31
0.0000000000
11
-7.9028854710
21
0.0436029614
31
0.0000000000
0
SPLINE
5
2AD
100
AcDbEntity
8
0
100
AcDbSpline
62
9
6
CONTINUOUS
70
0
71
3
72
23
73
19
74
17
42
0.0000001000
43
0.0000001000
44
0.0000000001
12
-0.2068885289
22
-0.1132253219
32
0.0000000000
13
0.2109447745
23
-0.1054757745
33
0.0000000000
40
0.0000000000
40
0.0000000000
40
0.0000000000
40
0.0000000000
40
0.0766832359
40
0.1486014739
40
0.2157302123
40
0.2782850661
40
0.3367224710
40
0.3917677146
40
0.4444206350
40
0.4959129511
40
0.5476031009
40
0.6008273749
40
0.6567591598
40
0.7163207334
40
0.7801574791
40
0.8486534652
40
0.9219626960
40
1.0000000000
40
1.0000000000
40
1.0000000000
40
1.0000000000
10
-18.5641801619
20
6.2851556421
30
0.0000000000
10
-18.5694684558
20
6.2822614807
30
0.0000000000
10
-18.5795059787
20
6.2762526553
30
0.0000000000
10
-18.5932326602
20
6.2662492855
30
0.0000000000
10
-18.6050343863
20
6.2556219647
30
0.0000000000
10
-18.6147975904
20
6.2444601736
30
0.0000000000
10
-18.6224255943
20
6.2328535531
30
0.0000000000
10
-18.6278312030
20
6.2208979542
30
0.0000000000
10
-18.6309384482
20
6.2087033178
30
0.0000000000
10
-18.6316932532
20
6.1964005887
30
0.0000000000
10
-18.6300803217
20
6.1841363729
30
0.0000000000
10
-18.6261297279
20
6.1720538259
30
0.0000000000
10
-18.6199053575
20
6.1602766662
30
0.0000000000
10
-18.6114884952
20
6.1489086528
30
0.0000000000
10
-18.6009703551
20
6.1380418882
30
0.0000000000
10
-18.5884521579
20
6.1277636588
30
0.0000000000
10
-18.5740534803
20
6.1181613499
30
0.0000000000
10
-18.5636045305
20
6.1124382923
30
0.0000000000
10
-18.5581173434
20
6.1096946106
30
0.0000000000
11
-18.5641801619
21
6.2851556421
31
0.0000000000
11
-18.5796728119
21
6.2758251650
31
0.0000000000
11
-18.5933481061
21
6.2657911928
31
0.0000000000
11
-18.6050713695
21
6.2551508696
31
0.0000000000
11
-18.6147342129
21
6.2440024292
31
0.0000000000
11
-18.6222477574
21
6.2324484360
31
0.0000000000
11
-18.6275427862
21
6.2205952217
31
0.0000000000
11
-18.6305704443
21
6.2085520432
31
0.0000000000
11
-18.6313028338
21
6.1964299454
31
0.0000000000
11
-18.6297332635
21
6.1843405481
31
0.0000000000
11
-18.6258762152
21
6.1723951369
31
0.0000000000
11
-18.6197672399
21
6.1607037327
31
0.0000000000
11
-18.6114626907
21
6.1493740820
31
0.0000000000
11
-18.6010390739
21
6.1385104496
31
0.0000000000
11
-18.5885922479
21
6.1282127706
31
0.0000000000
11
-18.5742372845
21
6.1185760862
31
0.0000000000
11
-18.5581173434
21
6.1096946106
31
0.0000000000
0
SPLINE
5
2AE
100
AcDbEntity
8
0
100
AcDbSpline
62
9
6
CONTINUOUS
70
0
71
3
72
20
73
16
74
14
42
0.0000001000
43
0.0000001000
44
0.0000000001
12
-0.3262272162
22
-0.1670890838
32
0.0000000000
13
0.0006806522
23
-0.3665276186
33
0.0000000000
40
0.0000000000
40
0.0000000000
40
0.0000000000
40
0.0000000000
40
0.0669126726
40
0.1374930642
40
0.2114119088
40
0.2882045029
40
0.3673016467
40
0.4480559803
40
0.5297665355
40
0.6117022812
40
0.6931251126
40
0.7733128159
40
0.8515830075
40
0.9273189508
40
1.0000000000
40
1.0000000000
40
1.0000000000
40
1.0000000000
10
-7.7282931738
20
0.6947825256
30
0.0000000000
10
-7.7355694188
20
0.6910557333
30
0.0000000000
10
-7.7500718603
20
0.6824983323
30
0.0000000000
10
-7.7708708890
20
0.6671176579
30
0.0000000000
10
-7.7910327626
20
0.6490485023
30
0.0000000000
10
-7.8102670904
20
0.6285501398
30
0.0000000000
10
-7.8283015574
20
0.6059137169
30
0.0000000000
10
-7.8448791762
20
0.5814624793
30
0.0000000000
10
-7.8597639098
20
0.5555457072
30
0.0000000000
10
-7.8727436349
20
0.5285339551
30
0.0000000000
10
-7.8836331720
20
0.5008131665
30
0.0000000000
10
-7.8922768640
20
0.4727792927
30
0.0000000000
10
-7.8985500245
20
0.4448303218
30
0.0000000000
10
-7.9023608093
20
0.4173658038
30
0.0000000000
10
-7.9032378065
20
0.3992221304
30
0.0000000000
10
-7.9032213163
20
0.3903422598
30
0.0000000000
11
-7.7282931738
21
0.6947825256
31
0.0000000000
11
-7.7494539221
21
0.6823842502
31
0.0000000000
11
-7.7702917577
21
0.6670536804
31
0.0000000000
11
-7.7905021899
21
0.6490096297
31
0.0000000000
11
-7.8097909480
21
0.6285113857
31
0.0000000000
11
-7.8278784963
21
0.6058544164
31
0.0000000000
11
-7.8445035262
21
0.5813657646
31
0.0000000000
11
-7.8594262716
21
0.5553990964
31
0.0000000000
11
-7.8724317080
21
0.5283294535
31
0.0000000000
11
-7.8833323586
21
0.5005476915
31
0.0000000000
11
-7.8919707198
21
0.4724547557
31
0.0000000000
11
-7.8982210941
21
0.4444556891
31
0.0000000000
11
-7.9019908397
21
0.4169534848
31
0.0000000000
11
-7.9032213163
21
0.3903422598
31
0.0000000000
0
SPLINE
5
2AF
100
AcDbEntity
8
0
100
AcDbSpline
62
9
6
CONTINUOUS
70
0
71
3
72
20
73
16
74
14
42
0.0000001000
43
0.0000001000
44
0.0000000001
12
-0.3264447598
22
-0.1667114775
32
0.0000000000
13
0.0002381806
23
-0.3665499164
33
0.0000000000
40
0.0000000000
40
0.0000000000
40
0.0000000000
40
0.0000000000
40
0.0669550477
40
0.1375631929
40
0.2115011114
40
0.2883073903
40
0.3674136447
40
0.4481723564
40
0.5298823045
40
0.6118124319
40
0.6932248794
40
0.7733978343
40
0.8516488206
40
0.9273591055
40
1.0000000000
40
1.0000000000
40
1.0000000000
40
1.0000000000
10
1.2890355144
20
-3.8138818184
30
0.0000000000
10
1.2817498062
20
-3.8176025434
30
0.0000000000
10
1.2672294215
20
-3.8261487262
30
0.0000000000
10
1.2464072021
20
-3.8415191934
30
0.0000000000
10
1.2262240154
20
-3.8595780327
30
0.0000000000
10
1.2069682005
20
-3.8800655023
30
0.0000000000
10
1.1889110784
20
-3.9026902659
30
0.0000000000
10
1.1723097523
20
-3.9271294178
30
0.0000000000
10
1.1574008186
20
-3.9530340635
30
0.0000000000
10
1.1443972037
20
-3.9800340629
30
0.0000000000
10
1.1334847282
20
-4.0077437225
30
0.0000000000
10
1.1248193979
20
-4.0357670828
30
0.0000000000
10
1.1185251984
20
-4.0637056021
30
0.0000000000
10
1.1146925953
20
-4.0911581159
30
0.0000000000
10
1.1137957552
20
-4.1092936550
30
0.0000000000
10
1.1138015224
20
-4.1181691596
30
0.0000000000
11
1.2890355144
21
-3.8138818184
31
0.0000000000
11
1.2678465497
21
-3.8262655100
31
0.0000000000
11
1.2469857112
21
-3.8415845526
31
0.0000000000
11
1.2267541334
21
-3.8596178165
31
0.0000000000
11
1.2074438689
21
-3.8801049904
31
0.0000000000
11
1.1893336722
21
-3.9027503391
31
0.0000000000
11
1.1726849756
21
-3.9272269717
31
0.0000000000
11
1.1577381157
21
-3.9531815601
31
0.0000000000
11
1.1447088634
21
-3.9802394394
31
0.0000000000
11
1.1337853087
21
-4.0080100161
31
0.0000000000
11
1.1251251459
21
-4.0360924062
31
0.0000000000
11
1.1188533960
21
-4.0640812222
31
0.0000000000
11
1.1150606022
21
-4.0915724257
31
0.0000000000
11
1.1138015224
21
-4.1181691596
31
0.0000000000
0
SPLINE
5
2B0
100
AcDbEntity
8
0
100
AcDbSpline
62
9
6
CONTINUOUS
70
0
71
3
72
20
73
16
74
14
42
0.0000001000
43
0.0000001000
44
0.0000000001
12
0.2684915316
22
-0.1342560410
32
0.0000000000
13
-0.0504921597
23
-0.2959103392
33
0.0000000000
40
0.0000000000
40
0.0000000000
40
0.0000000000
40
0.0000000000
40
0.0636232722
40
0.1301550748
40
0.1999502609
40
0.2726817408
40
0.3483276211
40
0.4264609235
40
0.5068125383
40
0.5887192578
40
0.6717432671
40
0.7550663865
40
0.8381499777
40
0.9200599584
40
1.0000000000
40
1.0000000000
40
1.0000000000
40
1.0000000000
10
1.2890355144
20
-3.8138818184
30
0.0000000000
10
1.2947296176
20
-3.8167290880
30
0.0000000000
10
1.3059767793
20
-3.8233862359
30
0.0000000000
10
1.3217930323
20
-3.8357156117
30
0.0000000000
10
1.3367059143
20
-3.8504499783
30
0.0000000000
10
1.3505071561
20
-3.8674157114
30
0.0000000000
10
1.3629862304
20
-3.8863795399
30
0.0000000000
10
1.3739651236
20
-3.9071133563
30
0.0000000000
10
1.3832646943
20
-3.9293314530
30
0.0000000000
10
1.3907373881
20
-3.9527420929
30
0.0000000000
10
1.3962367953
20
-3.9769970974
30
0.0000000000
10
1.3996823557
20
-4.0017484322
30
0.0000000000
10
1.4009479028
20
-4.0265930743
30
0.0000000000
10
1.4001073212
20
-4.0511224941
30
0.0000000000
10
1.3979634919
20
-4.0672002337
30
0.0000000000
10
1.3966180435
20
-4.0750852619
30
0.0000000000
11
1.2890355144
21
-3.8138818184
31
0.0000000000
11
1.3054980152
21
-3.8235644766
31
0.0000000000
11
1.3212826917
21
-3.8358006826
31
0.0000000000
11
1.3362204598
21
-3.8504919617
31
0.0000000000
11
1.3500316760
21
-3.8674015138
31
0.0000000000
11
1.3625440410
21
-3.8863512042
31
0.0000000000
11
1.3735449679
21
-3.9070659060
31
0.0000000000
11
1.3828774787
21
-3.9293078537
31
0.0000000000
11
1.3903651968
21
-3.9527273331
31
0.0000000000
11
1.3958846373
21
-3.9770312260
31
0.0000000000
11
1.3993219698
21
-4.0018064519
31
0.0000000000
11
1.4005970798
21
-4.0267144701
31
0.0000000000
11
1.3996937404
21
-4.0512862029
31
0.0000000000
11
1.3966180435
21
-4.0750852619
31
0.0000000000
0
SPLINE
5
2B1
100
AcDbEntity
8
0
100
AcDbSpline
62
9
6
CONTINUOUS
70
0
71
3
72
19
73
15
74
13
42
0.0000001000
43
0.0000001000
44
0.0000000001
12
0.2604993950
22
-0.1302496975
32
0.0000000000
13
0.2603077507
23
0.1306322831
33
0.0000000000
40
0.0000000000
40
0.0000000000
40
0.0000000000
40
0.0000000000
40
0.0737380579
40
0.1524753836
40
0.2354407633
40
0.3217064705
40
0.4102336328
40
0.4999118062
40
0.5895953768
40
0.6781385679
40
0.7644304401
40
0.8474312728
40
0.9262120988
40
1.0000000000
40
1.0000000000
40
1.0000000000
40
1.0000000000
10
1.1140877110
20
-4.4233274451
30
0.0000000000
10
1.1204906175
20
-4.4265288983
30
0.0000000000
10
1.1340941113
20
-4.4324360302
30
0.0000000000
10
1.1558171999
20
-4.4396263640
30
0.0000000000
10
1.1792262942
20
-4.4453444349
30
0.0000000000
10
1.2039248424
20
-4.4494923590
30
0.0000000000
10
1.2294970048
20
-4.4520000992
30
0.0000000000
10
1.2555098067
20
-4.4528247336
30
0.0000000000
10
1.2815225998
20
-4.4519522039
30
0.0000000000
10
1.3070947337
20
-4.4493973774
30
0.0000000000
10
1.3317932284
20
-4.4452039720
30
0.0000000000
10
1.3552022290
20
-4.4394427941
30
0.0000000000
10
1.3769251751
20
-4.4322124619
30
0.0000000000
10
1.3905277434
20
-4.4262806404
30
0.0000000000
10
1.3969302643
20
-4.4230676131
30
0.0000000000
11
1.1140877110
21
-4.4233274451
31
0.0000000000
11
1.1337567801
21
-4.4319498781
31
0.0000000000
11
1.1555090618
21
-4.4392104538
31
0.0000000000
11
1.1789723687
21
-4.4449849417
31
0.0000000000
11
1.2037452369
21
-4.4491745387
31
0.0000000000
11
1.2294037959
21
-4.4517075597
31
0.0000000000
11
1.2555090206
21
-4.4525406639
31
0.0000000000
11
1.2816142434
21
-4.4516595968
31
0.0000000000
11
1.3072727967
21
-4.4490794336
31
0.0000000000
11
1.3320456554
21
-4.4448443216
31
0.0000000000
11
1.3555089492
21
-4.4390267248
31
0.0000000000
11
1.3772612146
21
-4.4317261839
31
0.0000000000
11
1.3969302643
21
-4.4230676131
31
0.0000000000
0
SPLINE
5
2B2
100
AcDbEntity
8
0
100
AcDbSpline
62
9
6
CONTINUOUS
70
0
71
3
72
20
73
16
74
14
42
0.0000001000
43
0.0000001000
44
0.0000000001
12
0.2680868247
22
-0.1339303851
32
0.0000000000
13
0.2349236734
23
0.1860611763
33
0.0000000000
40
0.0000000000
40
0.0000000000
40
0.0000000000
40
0.0000000000
40
0.0641693364
40
0.1319661370
40
0.2034955804
40
0.2781643588
40
0.3557145889
40
0.4354978727
40
0.5170514945
40
0.5995345574
40
0.6823577909
40
0.7645746551
40
0.8455519830
40
0.9242937246
40
1.0000000000
40
1.0000000000
40
1.0000000000
40
1.0000000000
10
1.1138015231
20
-4.1181691599
30
0.0000000000
10
1.1195358410
20
-4.1210339012
30
0.0000000000
10
1.1317117017
20
-4.1261795133
30
0.0000000000
10
1.1512248643
20
-4.1319969302
30
0.0000000000
10
1.1722472896
20
-4.1360510596
30
0.0000000000
10
1.1945183000
20
-4.1382559100
30
0.0000000000
10
1.2177185200
20
-4.1385615294
30
0.0000000000
10
1.2415516339
20
-4.1369379825
30
0.0000000000
10
1.2656718910
20
-4.1333887718
30
0.0000000000
10
1.2897478784
20
-4.1279453600
30
0.0000000000
10
1.3134008375
20
-4.1206601068
30
0.0000000000
10
1.3362913084
20
-4.1116453990
30
0.0000000000
10
1.3580064956
20
-4.1009805366
30
0.0000000000
10
1.3782427135
20
-4.0889360777
30
0.0000000000
10
1.3906896284
20
-4.0797806207
30
0.0000000000
10
1.3966180272
20
-4.0750852878
30
0.0000000000
11
1.1138015231
21
-4.1181691599
31
0.0000000000
11
1.1314901179
21
-4.1257134235
31
0.0000000000
11
1.1509444047
21
-4.1315721163
31
0.0000000000
11
1.1719843141
21
-4.1356734358
31
0.0000000000
11
1.1942484883
21
-4.1379148314
31
0.0000000000
11
1.2174863196
21
-4.1382484471
31
0.0000000000
11
1.2413418412
21
-4.1366438364
31
0.0000000000
11
1.2655232795
21
-4.1330984545
31
0.0000000000
11
1.2896336078
21
-4.1276490424
31
0.0000000000
11
1.3133542706
21
-4.1203425873
31
0.0000000000
11
1.3362704420
21
-4.1112918595
31
0.0000000000
11
1.3580511442
21
-4.1005913551
31
0.0000000000
11
1.3782882011
21
-4.0884548817
31
0.0000000000
11
1.3966180272
21
-4.0750852878
31
0.0000000000
0
SPLINE
5
2B3
100
AcDbEntity
8
0
100
AcDbSpline
62
9
6
CONTINUOUS
70
0
71
3
72
19
73
15
74
13
42
0.0000001000
43
0.0000001000
44
0.0000000001
12
-0.0006995496
22
0.2949686706
32
0.0000000000
13
0.2638287414
23
0.1319143707
33
0.0000000000
40
0.0000000000
40
0.0000000000
40
0.0000000000
40
0.0000000000
40
0.0788653137
40
0.1613186089
40
0.2466626594
40
0.3340797245
40
0.4226712522
40
0.5114947536
40
0.5995992098
40
0.6860602001
40
0.7700159054
40
0.8507052504
40
0.9275096568
40
1.0000000000
40
1.0000000000
40
1.0000000000
40
1.0000000000
10
1.6101522769
20
-5.2767302758
30
0.0000000000
10
1.6101338868
20
-5.2689760102
30
0.0000000000
10
1.6109663933
20
-5.2531036552
30
0.0000000000
10
1.6145750240
20
-5.2290882078
30
0.0000000000
10
1.6205113839
20
-5.2046740280
30
0.0000000000
10
1.6286742395
20
-5.1802773288
30
0.0000000000
10
1.6389249494
20
-5.1563101390
30
0.0000000000
10
1.6510895436
20
-5.1331792093
30
0.0000000000
10
1.6649616582
20
-5.1112769037
30
0.0000000000
10
1.6803064482
20
-5.0909746051
30
0.0000000000
10
1.6968643915
20
-5.0726163884
30
0.0000000000
10
1.7143586375
20
-5.0565121460
30
0.0000000000
10
1.7324927372
20
-5.0429366935
30
0.0000000000
10
1.7451980260
20
-5.0354998247
30
0.0000000000
10
1.7515730380
20
-5.0323123187
30
0.0000000000
11
1.6101522769
21
-5.2767302758
31
0.0000000000
11
1.6113129673
21
-5.2534963877
31
0.0000000000
11
1.6148824082
21
-5.2294385363
31
0.0000000000
11
1.6207992992
21
-5.2049698781
31
0.0000000000
11
1.6289620265
21
-5.1805106245
31
0.0000000000
11
1.6392304074
21
-5.1564808252
31
0.0000000000
11
1.6514280980
21
-5.1332931545
31
0.0000000000
11
1.6653456216
21
-5.1113458244
31
0.0000000000
11
1.6807439663
21
-5.0910157456
31
0.0000000000
11
1.6973586894
21
-5.0726520554
31
0.0000000000
11
1.7149044589
21
-5.0565701211
31
0.0000000000
11
1.7330799536
21
-5.0430461244
31
0.0000000000
11
1.7515730380
21
-5.0323123187
31
0.0000000000
0
SPLINE
5
2B4
100
AcDbEntity
8
0
100
AcDbSpline
62
9
6
CONTINUOUS
70
0
71
3
72
19
73
15
74
13
42
0.0000001000
43
0.0000001000
44
0.0000000001
12
-0.0006995496
22
0.2949686706
32
0.0000000000
13
0.2638287414
23
0.1319143707
33
0.0000000000
40
0.0000000000
40
0.0000000000
40
0.0000000000
40
0.0000000000
40
0.0788652855
40
0.1613185567
40
0.2466625885
40
0.3340796413
40
0.4226711634
40
0.5114946659
40
0.5995991290
40
0.6860601312
40
0.7700158520
40
0.8507052146
40
0.9275096393
40
1.0000000000
40
1.0000000000
40
1.0000000000
40
1.0000000000
10
7.4791385607
20
-8.2112234177
30
0.0000000000
10
7.4791201707
20
-8.2034691549
30
0.0000000000
10
7.4799526766
20
-8.1875968051
30
0.0000000000
10
7.4835613052
20
-8.1635813644
30
0.0000000000
10
7.4894976623
20
-8.1391671895
30
0.0000000000
10
7.4976605149
20
-8.1147704931
30
0.0000000000
10
7.5079112223
20
-8.0908033041
30
0.0000000000
10
7.5200758147
20
-8.0676723732
30
0.0000000000
10
7.5339479287
20
-8.0457700649
30
0.0000000000
10
7.5492927192
20
-8.0254677624
30
0.0000000000
10
7.5658506643
20
-8.0071095413
30
0.0000000000
10
7.5833449132
20
-7.9910052945
30
0.0000000000
10
7.6014790166
20
-7.9774298381
30
0.0000000000
10
7.6141843083
20
-7.9699929674
30
0.0000000000
10
7.6205593218
20
-7.9668054607
30
0.0000000000
11
7.4791385607
21
-8.2112234177
31
0.0000000000
11
7.4802992504
21
-8.1879895379
31
0.0000000000
11
7.4838686891
21
-8.1639316934
31
0.0000000000
11
7.4897855773
21
-8.1394630401
31
0.0000000000
11
7.4979483016
21
-8.1150037894
31
0.0000000000
11
7.5082166800
21
-8.0909739908
31
0.0000000000
11
7.5204143688
21
-8.0677863189
31
0.0000000000
11
7.5343318919
21
-8.0458389859
31
0.0000000000
11
7.5497302372
21
-8.0255089032
31
0.0000000000
11
7.5663449622
21
-8.0071452085
31
0.0000000000
11
7.5838907346
21
-7.9910632698
31
0.0000000000
11
7.6020662332
21
-7.9775392692
31
0.0000000000
11
7.6205593218
21
-7.9668054607
31
0.0000000000
0
SPLINE
5
2B5
100
AcDbEntity
8
0
100
AcDbSpline
62
9
6
CONTINUOUS
70
0
71
3
72
13
73
9
74
7
42
0.0000001000
43
0.0000001000
44
0.0000000001
12
-0.0862512763
22
0.0431256382
32
0.0000000000
13
-0.0001241163
23
0.0966765334
33
0.0000000000
40
0.0000000000
40
0.0000000000
40
0.0000000000
40
0.0000000000
40
0.2059175375
40
0.3942080848
40
0.5651632333
40
0.7205448106
40
0.8639079505
40
1.0000000000
40
1.0000000000
40
1.0000000000
40
1.0000000000
10
7.9730234885
20
-7.8527953338
30
0.0000000000
10
7.9671032717
20
-7.8498352254
30
0.0000000000
10
7.9560387443
20
-7.8435956835
30
0.0000000000
10
7.9413852966
20
-7.8327686447
30
0.0000000000
10
7.9296269949
20
-7.8210285525
30
0.0000000000
10
7.9209812941
20
-7.8085298351
30
0.0000000000
10
7.9156653302
20
-7.7954614852
30
0.0000000000
10
7.9144504691
20
-7.7864572353
30
0.0000000000
10
7.9144448387
20
-7.7820715994
30
0.0000000000
11
7.9730234885
21
-7.8527953338
31
0.0000000000
11
7.9557741698
21
-7.8429585721
31
0.0000000000
11
7.9412397504
21
-7.8320757951
31
0.0000000000
11
7.9296689179
21
-7.8203332105
31
0.0000000000
11
7.9212596518
21
-7.8079317373
31
0.0000000000
11
7.9161558362
21
-7.7950835685
31
0.0000000000
11
7.9144448387
21
-7.7820715994
31
0.0000000000
0
SPLINE
5
2B6
100
AcDbEntity
8
0
100
AcDbSpline
62
9
6
CONTINUOUS
70
0
71
3
72
13
73
9
74
7
42
0.0000001000
43
0.0000001000
44
0.0000000001
12
-0.0862511453
22
0.0431255727
32
0.0000000000
13
-0.0000641494
23
0.0966767750
33
0.0000000000
40
0.0000000000
40
0.0000000000
40
0.0000000000
40
0.0000000000
40
0.2059124083
40
0.3941838156
40
0.5651012611
40
0.7204224231
40
0.8637002642
40
1.0000000000
40
1.0000000000
40
1.0000000000
40
1.0000000000
10
7.9727373006
20
-7.5476370487
30
0.0000000000
10
7.9668172403
20
-7.5446770185
30
0.0000000000
10
7.9557531753
20
-7.5384383937
30
0.0000000000
10
7.9410999071
20
-7.5276146440
30
0.0000000000
10
7.9293416946
20
-7.5158799571
30
0.0000000000
10
7.9206958666
20
-7.5033886086
30
0.0000000000
10
7.9153756526
20
-7.4903197556
30
0.0000000000
10
7.9141615691
20
-7.4813108944
30
0.0000000000
10
7.9141586546
20
-7.4769185547
30
0.0000000000
11
7.9727373006
21
-7.5476370487
31
0.0000000000
11
7.9554879884
21
-7.5378013348
31
0.0000000000
11
7.9409535746
21
-7.5269216762
31
0.0000000000
11
7.9293827469
21
-7.5151842268
31
0.0000000000
11
7.9209734856
21
-7.5027898175
31
0.0000000000
11
7.9158696753
21
-7.4899505203
31
0.0000000000
11
7.9141586546
21
-7.4769185547
31
0.0000000000
0
SPLINE
5
2B7
100
AcDbEntity
8
0
100
AcDbSpline
62
9
6
CONTINUOUS
70
0
71
3
72
13
73
9
74
7
42
0.0000001000
43
0.0000001000
44
0.0000000001
12
-0.0833545113
22
0.0416772555
32
0.0000000000
13
-0.0831455180
23
-0.0424874931
33
0.0000000000
40
0.0000000000
40
0.0000000000
40
0.0000000000
40
0.0000000000
40
0.2147323199
40
0.4154297384
40
0.6035300253
40
0.7817168225
40
0.9538602596
40
1.0000000000
40
1.0000000000
40
1.0000000000
40
1.0000000000
10
8.1479712919
20
-7.2433497072
30
0.0000000000
10
8.1420049893
20
-7.2403665559
30
0.0000000000
10
8.1300886446
20
-7.2352941216
30
0.0000000000
10
8.1118881960
20
-7.2305013337
30
0.0000000000
10
8.0942561070
20
-7.2288868083
30
0.0000000000
10
8.0774996235
20
-7.2305213483
30
0.0000000000
10
8.0656614445
20
-7.2342455964
30
0.0000000000
10
8.0595221024
20
-7.2371610103
30
0.0000000000
10
8.0582433315
20
-7.2378144643
30
0.0000000000
11
8.1479712919
21
-7.2433497072
31
0.0000000000
11
8.1295226490
21
-7.2355965664
31
0.0000000000
11
8.1114107847
21
-7.2309290034
31
0.0000000000
11
8.0939455986
21
-7.2294268812
31
0.0000000000
11
8.0774259256
21
-7.2311159010
31
0.0000000000
11
8.0621344221
21
-7.2359671619
31
0.0000000000
11
8.0582433315
21
-7.2378144643
31
0.0000000000
0
SPLINE
5
2B8
100
AcDbEntity
8
0
100
AcDbSpline
62
7
6
CONTINUOUS
70
0
71
3
72
20
73
16
74
14
42
0.0000001000
43
0.0000001000
44
0.0000000001
12
-0.0021886205
22
0.3060607649
32
0.0000000000
13
-0.2942367100
23
0.0842777570
33
0.0000000000
40
0.0000000000
40
0.0000000000
40
0.0000000000
40
0.0000000000
40
0.0709574114
40
0.1442429990
40
0.2196886077
40
0.2969975147
40
0.3757743084
40
0.4555536470
40
0.5358280545
40
0.6160730658
40
0.6957700399
40
0.7744267103
40
0.8515952622
40
0.9268894369
40
1.0000000000
40
1.0000000000
40
1.0000000000
40
1.0000000000
10
2.3069752079
20
-3.6101766125
30
0.0000000000
10
2.3069234416
20
-3.6029375193
30
0.0000000000
10
2.3058572372
20
-3.5882153871
30
0.0000000000
10
2.3015975939
20
-3.5661641874
30
0.0000000000
10
2.2947508714
20
-3.5440963015
30
0.0000000000
10
2.2854502070
20
-3.5223401036
30
0.0000000000
10
2.2738616475
20
-3.5012089242
30
0.0000000000
10
2.2601814651
20
-3.4810039744
30
0.0000000000
10
2.2446324897
20
-3.4620070931
30
0.0000000000
10
2.2274597177
20
-3.4444771360
30
0.0000000000
10
2.2089254518
20
-3.4286464640
30
0.0000000000
10
2.1893049531
20
-3.4147187823
30
0.0000000000
10
2.1688803875
20
-3.4028672738
30
0.0000000000
10
2.1479420899
20
-3.3932355066
30
0.0000000000
10
2.1335992912
20
-3.3882888822
30
0.0000000000
10
2.1264286874
20
-3.3862350175
30
0.0000000000
11
2.3069752079
21
-3.6101766125
31
0.0000000000
11
2.3054556528
21
-3.5885120030
31
0.0000000000
11
2.3012458553
21
-3.5664801809
31
0.0000000000
11
2.2944391417
21
-3.5444146544
31
0.0000000000
11
2.2851660113
21
-3.5226456130
31
0.0000000000
11
2.2735920087
21
-3.5014940713
31
0.0000000000
11
2.2599144792
21
-3.4812663317
31
0.0000000000
11
2.2443583308
21
-3.4622488309
31
0.0000000000
11
2.2271712931
21
-3.4447039517
31
0.0000000000
11
2.2086189531
21
-3.4288667653
31
0.0000000000
11
2.1889798438
21
-3.4149427197
31
0.0000000000
11
2.1685409242
21
-3.4031062682
31
0.0000000000
11
2.1475933242
21
-3.3935001003
31
0.0000000000
11
2.1264286874
21
-3.3862350175
31
0.0000000000
0
SPLINE
5
2B9
100
AcDbEntity
8
0
100
AcDbSpline
62
7
6
CONTINUOUS
70
0
71
3
72
10
73
6
74
4
42
0.0000001000
43
0.0000001000
44
0.0000000001
12
0.0000055493
22
-0.0007675556
32
0.0000000000
13
0.0000000000
23
-0.0007675757
33
0.0000000000
40
0.0000000000
40
0.0000000000
40
0.0000000000
40
0.0000000000
40
0.3329314809
40
0.6662635313
40
1.0000000000
40
1.0000000000
40
1.0000000000
40
1.0000000000
10
-13.5841817105
20
4.3802419218
30
0.0000000000
10
-13.5841810947
20
4.3801567407
30
0.0000000000
10
-13.5841800685
20
4.3799862743
30
0.0000000000
10
-13.5841791456
20
4.3797304172
30
0.0000000000
10
-13.5841789408
20
4.3795597419
30
0.0000000000
10
-13.5841789408
20
4.3794743526
30
0.0000000000
11
-13.5841817105
21
4.3802419218
31
0.0000000000
11
-13.5841801718
21
4.3799863763
31
0.0000000000
11
-13.5841792486
21
4.3797305204
31
0.0000000000
11
-13.5841789408
21
4.3794743526
31
0.0000000000
0
SPLINE
5
2BA
100
AcDbEntity
8
0
100
AcDbSpline
62
9
6
CONTINUOUS
70
0
71
3
72
9
73
5
74
3
42
0.0000001000
43
0.0000001000
44
0.0000000001
12
-0.0004561032
22
0.3466034305
32
0.0000000000
13
-0.0002271755
23
0.3466036562
33
0.0000000000
40
0.0000000000
40
0.0000000000
40
0.0000000000
40
0.0000000000
40
0.4999594307
40
1.0000000000
40
1.0000000000
40
1.0000000000
40
1.0000000000
10
-14.5481002283
20
3.5066739527
30
0.0000000000
10
-14.5481762393
20
3.5644365039
30
0.0000000000
10
-14.5483091887
20
3.6799710067
30
0.0000000000
10
-14.5484039834
20
3.7955055470
30
0.0000000000
10
-14.5484418491
20
3.8532775102
30
0.0000000000
11
-14.5481002283
21
3.5066739527
31
0.0000000000
11
-14.5482996408
21
3.6799616418
31
0.0000000000
11
-14.5484418491
21
3.8532775102
31
0.0000000000
0
SPLINE
5
2BB
100
AcDbEntity
8
0
100
AcDbSpline
62
9
6
CONTINUOUS
70
0
71
3
72
21
73
17
74
15
42
0.0000001000
43
0.0000001000
44
0.0000000001
12
-0.0000466069
22
0.0733826363
32
0.0000000000
13
0.0655836137
23
0.0329211648
33
0.0000000000
40
0.0000000000
40
0.0000000000
40
0.0000000000
40
0.0000000000
40
0.0672073173
40
0.1371393653
40
0.2093253811
40
0.2832892813
40
0.3585038321
40
0.4344067136
40
0.5104163664
40
0.5859463820
40
0.6604249525
40
0.7333098220
40
0.8041048636
40
0.8723776787
40
0.9377782634
40
1.0000000000
40
1.0000000000
40
1.0000000000
40
1.0000000000
10
-14.5484418491
20
3.8532775102
30
0.0000000000
10
-14.5484428932
20
3.8549214603
30
0.0000000000
10
-14.5482879903
20
3.8582776012
30
0.0000000000
10
-14.5476216182
20
3.8633596487
30
0.0000000000
10
-14.5465244911
20
3.8685354198
30
0.0000000000
10
-14.5450103288
20
3.8737391080
30
0.0000000000
10
-14.5430978796
20
3.8789068100
30
0.0000000000
10
-14.5408107233
20
3.8839747548
30
0.0000000000
10
-14.5381771094
20
3.8888803557
30
0.0000000000
10
-14.5352295702
20
3.8935629858
30
0.0000000000
10
-14.5320045061
20
3.8979648050
30
0.0000000000
10
-14.5285416210
20
3.9020315338
30
0.0000000000
10
-14.5248835086
20
3.9057130695
30
0.0000000000
10
-14.5210746876
20
3.9089641424
30
0.0000000000
10
-14.5171635071
20
3.9117435567
30
0.0000000000
10
-14.5144494441
20
3.9132992501
30
0.0000000000
10
-14.5130892020
20
3.9139820541
30
0.0000000000
11
-14.5484418491
21
3.8532775102
31
0.0000000000
11
-14.5482234208
21
3.8582045219
31
0.0000000000
11
-14.5475636204
21
3.8632937287
31
0.0000000000
11
-14.5464706685
21
3.8684769513
31
0.0000000000
11
-14.5449581338
21
3.8736896098
31
0.0000000000
11
-14.5430448325
21
3.8788668224
31
0.0000000000
11
-14.5407545583
21
3.8839441287
31
0.0000000000
11
-14.5381158201
21
3.8888582716
31
0.0000000000
11
-14.5351615545
21
3.8935479037
31
0.0000000000
11
-14.5319285909
21
3.8979545947
31
0.0000000000
11
-14.5284572106
21
3.9020234779
31
0.0000000000
11
-14.5247906456
21
3.9057039200
31
0.0000000000
11
-14.5209745361
21
3.9089501194
31
0.0000000000
11
-14.5170564472
21
3.9117216813
31
0.0000000000
11
-14.5130892020
21
3.9139820541
31
0.0000000000
0
SPLINE
5
2BC
100
AcDbEntity
8
0
100
AcDbSpline
62
7
6
CONTINUOUS
70
0
71
3
72
10
73
6
74
4
42
0.0000001000
43
0.0000001000
44
0.0000000001
12
0.0038787556
22
0.0583278865
32
0.0000000000
13
0.0000000000
23
0.0584567113
33
0.0000000000
40
0.0000000000
40
0.0000000000
40
0.0000000000
40
0.0000000000
40
0.3509468851
40
0.6835731239
40
1.0000000000
40
1.0000000000
40
1.0000000000
40
1.0000000000
10
2.3049150339
20
-4.0264546153
30
0.0000000000
10
2.3053687796
20
-4.0196312853
30
0.0000000000
10
2.3061242226
20
-4.0063317913
30
0.0000000000
10
2.3068168785
20
-3.9868571428
30
0.0000000000
10
2.3069779003
20
-3.9742095533
30
0.0000000000
10
2.3069779003
20
-3.9680437951
30
0.0000000000
11
2.3049150339
21
-4.0264546153
31
0.0000000000
11
2.3060701498
21
-4.0059719600
31
0.0000000000
11
2.3067523161
21
-3.9865396940
31
0.0000000000
11
2.3069779003
21
-3.9680437951
31
0.0000000000
0
SPLINE
5
2BD
100
AcDbEntity
8
0
100
AcDbSpline
62
9
6
CONTINUOUS
70
0
71
3
72
25
73
21
74
19
42
0.0000001000
43
0.0000001000
44
0.0000000001
12
-0.6585482127
22
0.3292788294
32
0.0000000000
13
-0.0012674220
23
0.7362803064
33
0.0000000000
40
0.0000000000
40
0.0000000000
40
0.0000000000
40
0.0000000000
40
0.0473987445
40
0.0970759171
40
0.1488287038
40
0.2023870923
40
0.2574349845
40
0.3137367680
40
0.3711458476
40
0.4294666775
40
0.4884139168
40
0.5476843451
40
0.6069687307
40
0.6659619037
40
0.7244377914
40
0.7822187552
40
0.8390319953
40
0.8944986324
40
0.9482584497
40
1.0000000000
40
1.0000000000
40
1.0000000000
40
1.0000000000
10
1.7515730380
20
-5.0323123187
30
0.0000000000
10
1.7411682518
20
-5.0271098510
30
0.0000000000
10
1.7203091259
20
-5.0155335171
30
0.0000000000
10
1.6898196928
20
-4.9953608498
30
0.0000000000
10
1.6596732049
20
-4.9721118499
30
0.0000000000
10
1.6301849560
20
-4.9460046445
30
0.0000000000
10
1.6016318742
20
-4.9172840155
30
0.0000000000
10
1.5742383478
20
-4.8861869685
30
0.0000000000
10
1.5481889539
20
-4.8529308309
30
0.0000000000
10
1.5236633628
20
-4.8177422780
30
0.0000000000
10
1.5008492392
20
-4.7808830918
30
0.0000000000
10
1.4799310632
20
-4.7426464062
30
0.0000000000
10
1.4610761711
20
-4.7033388267
30
0.0000000000
10
1.4444252858
20
-4.6632589527
30
0.0000000000
10
1.4300930814
20
-4.6226831812
30
0.0000000000
10
1.4181834564
20
-4.5818874035
30
0.0000000000
10
1.4087997138
20
-4.5411940126
30
0.0000000000
10
1.4020306103
20
-4.5009831659
30
0.0000000000
10
1.3979278978
20
-4.4616649520
30
0.0000000000
10
1.3969521237
20
-4.4357663746
30
0.0000000000
10
1.3969302643
20
-4.4230676131
30
0.0000000000
11
1.7515730380
21
-5.0323123187
31
0.0000000000
11
1.7210304056
21
-5.0154281600
31
0.0000000000
11
1.6904968364
21
-4.9952903204
31
0.0000000000
11
1.6602944847
21
-4.9720571638
31
0.0000000000
11
1.6307426137
21
-4.9459471881
31
0.0000000000
11
1.6021434862
21
-4.9172273220
31
0.0000000000
11
1.5747219872
21
-4.8861388699
31
0.0000000000
11
1.5486407538
21
-4.8528754112
31
0.0000000000
11
1.5240754397
21
-4.8176555942
31
0.0000000000
11
1.5012255798
21
-4.7807557799
31
0.0000000000
11
1.4802779615
21
-4.7424723382
31
0.0000000000
11
1.4614015902
21
-4.7031149468
31
0.0000000000
11
1.4447445919
21
-4.6630001908
31
0.0000000000
11
1.4304176614
21
-4.6223991197
31
0.0000000000
11
1.4185141161
21
-4.5815553123
31
0.0000000000
11
1.4091396804
21
-4.5407887408
31
0.0000000000
11
1.4023914203
21
-4.5005110890
31
0.0000000000
11
1.3983213052
21
-4.4611385495
31
0.0000000000
11
1.3969302643
21
-4.4230676131
31
0.0000000000
0
SPLINE
5
2BE
100
AcDbEntity
8
0
100
AcDbSpline
62
7
6
CONTINUOUS
70
0
71
3
72
21
73
17
74
15
42
0.0000001000
43
0.0000001000
44
0.0000000001
12
-0.0430151466
22
-0.6468524515
32
0.0000000000
13
0.5918036541
23
-0.2646447277
33
0.0000000000
40
0.0000000000
40
0.0000000000
40
0.0000000000
40
0.0000000000
40
0.0726880389
40
0.1453993783
40
0.2179563925
40
0.2905199006
40
0.3627643623
40
0.4348928934
40
0.5066803966
40
0.5781647063
40
0.6493899835
40
0.7201566212
40
0.7907005578
40
0.8607579361
40
0.9305531340
40
1.0000000000
40
1.0000000000
40
1.0000000000
40
1.0000000000
10
2.3049150339
20
-4.0264546153
30
0.0000000000
10
2.3038728050
20
-4.0421274274
30
0.0000000000
10
2.3031765026
20
-4.0735872848
30
0.0000000000
10
2.3062189491
20
-4.1206430035
30
0.0000000000
10
2.3132481642
20
-4.1672447496
30
0.0000000000
10
2.3241429374
20
-4.2129913144
30
0.0000000000
10
2.3387810473
20
-4.2575827493
30
0.0000000000
10
2.3570039179
20
-4.3006509814
30
0.0000000000
10
2.3786674705
20
-4.3419100072
30
0.0000000000
10
2.4035997678
20
-4.3810496019
30
0.0000000000
10
2.4316187027
20
-4.4177669270
30
0.0000000000
10
2.4625493743
20
-4.4517952545
30
0.0000000000
10
2.4961545101
20
-4.4828174900
30
0.0000000000
10
2.5322380217
20
-4.5105813084
30
0.0000000000
10
2.5705163272
20
-4.5347886348
30
0.0000000000
10
2.5974016154
20
-4.5484214753
30
0.0000000000
10
2.6111012517
20
-4.5545477242
30
0.0000000000
11
2.3049150339
21
-4.0264546153
31
0.0000000000
11
2.3038578777
21
-4.0735650380
31
0.0000000000
11
2.3068874837
21
-4.1206049659
31
0.0000000000
11
2.3138956070
21
-4.1671173054
31
0.0000000000
11
2.3247899657
21
-4.2128799595
31
0.0000000000
11
2.3393971517
21
-4.2573785111
31
0.0000000000
11
2.3576208572
21
-4.3004407149
31
0.0000000000
11
2.3792613439
21
-4.3416416817
31
0.0000000000
11
2.4041675115
21
-4.3807218182
31
0.0000000000
11
2.4321891158
21
-4.4174209753
31
0.0000000000
11
2.4630586968
21
-4.4513582442
31
0.0000000000
11
2.4966747751
21
-4.4823647383
31
0.0000000000
11
2.5326825473
21
-4.5100438437
31
0.0000000000
11
2.5709367156
21
-4.5342078938
31
0.0000000000
11
2.6111012517
21
-4.5545477242
31
0.0000000000
0
SPLINE
5
2BF
100
AcDbEntity
8
0
100
AcDbSpline
62
9
6
CONTINUOUS
70
0
71
3
72
23
73
19
74
17
42
0.0000001000
43
0.0000001000
44
0.0000000001
12
-0.3225337584
22
-0.1537098650
32
0.0000000000
13
-0.3195702071
23
0.1597799443
33
0.0000000000
40
0.0000000000
40
0.0000000000
40
0.0000000000
40
0.0000000000
40
0.0558161253
40
0.1143747115
40
0.1753458338
40
0.2383780771
40
0.3030829135
40
0.3690416783
40
0.4358133914
40
0.5029439118
40
0.5699734539
40
0.6364435874
40
0.7019051281
40
0.7659255494
40
0.8280982764
40
0.8880507797
40
0.9454520673
40
1.0000000000
40
1.0000000000
40
1.0000000000
40
1.0000000000
10
12.4324966954
20
-9.2131827866
30
0.0000000000
10
12.4264958339
20
-9.2160426163
30
0.0000000000
10
12.4139747830
20
-9.2214401864
30
0.0000000000
10
12.3942788509
20
-9.2284197887
30
0.0000000000
10
12.3733690921
20
-9.2344253428
30
0.0000000000
10
12.3514407106
20
-9.2394000545
30
0.0000000000
10
12.3286935304
20
-9.2432986592
30
0.0000000000
10
12.3053355643
20
-9.2460853021
30
0.0000000000
10
12.2815805862
20
-9.2477343846
30
0.0000000000
10
12.2576462087
20
-9.2482307257
30
0.0000000000
10
12.2337517004
20
-9.2475697653
30
0.0000000000
10
12.2101159517
20
-9.2457575917
30
0.0000000000
10
12.1869554701
20
-9.2428109018
30
0.0000000000
10
12.1644821285
20
-9.2387567643
30
0.0000000000
10
12.1429013078
20
-9.2336324397
30
0.0000000000
10
12.1224094358
20
-9.2274844689
30
0.0000000000
10
12.1031975003
20
-9.2203708301
30
0.0000000000
10
12.0910322046
20
-9.2148800696
30
0.0000000000
10
12.0852215732
20
-9.2119748477
30
0.0000000000
11
12.4324966954
21
-9.2131827866
31
0.0000000000
11
12.4141973186
21
-9.2211095448
31
0.0000000000
11
12.3944864713
21
-9.2281255562
31
0.0000000000
11
12.3735551747
21
-9.2341616569
31
0.0000000000
11
12.3515966563
21
-9.2391620482
31
0.0000000000
11
12.3288129346
21
-9.2430807446
31
0.0000000000
11
12.3054136956
21
-9.2458816522
31
0.0000000000
11
12.2816145948
21
-9.2475389392
31
0.0000000000
11
12.2576348412
21
-9.2480373386
31
0.0000000000
11
12.2336952237
21
-9.2473722593
31
0.0000000000
11
12.2100162671
21
-9.2455498270
31
0.0000000000
11
12.1868160836
21
-9.2425868365
31
0.0000000000
11
12.1643084842
21
-9.2385106189
31
0.0000000000
11
12.1427005985
21
-9.2333587201
31
0.0000000000
11
12.1221912110
21
-9.2271785241
31
0.0000000000
11
12.1029696449
21
-9.2200271587
31
0.0000000000
11
12.0852215732
21
-9.2119748477
31
0.0000000000
0
SPLINE
5
2C0
100
AcDbEntity
8
0
100
AcDbSpline
62
9
6
CONTINUOUS
70
0
71
3
72
14
73
10
74
8
42
0.0000001000
43
0.0000001000
44
0.0000000001
12
-0.0961226009
22
0.0483221823
32
0.0000000000
13
-0.0000725486
23
0.1077435860
33
0.0000000000
40
0.0000000000
40
0.0000000000
40
0.0000000000
40
0.0000000000
40
0.1682916541
40
0.3277491332
40
0.4797784062
40
0.6260685054
40
0.7689941770
40
0.9116231637
40
1.0000000000
40
1.0000000000
40
1.0000000000
40
1.0000000000
10
-7.9032251720
20
0.3903456927
30
0.0000000000
10
-7.9086173825
20
0.3930564327
30
0.0000000000
10
-7.9188196341
20
0.3989697952
30
0.0000000000
10
-7.9324289797
20
0.4095922640
30
0.0000000000
10
-7.9437186798
20
0.4216105832
30
0.0000000000
10
-7.9524835981
20
0.4348850917
30
0.0000000000
10
-7.9585454239
20
0.4492357558
30
0.0000000000
10
-7.9613390202
20
0.4624352889
30
0.0000000000
10
-7.9618052966
20
0.4707311849
30
0.0000000000
10
-7.9618074338
20
0.4739051974
30
0.0000000000
11
-7.9032251720
21
0.3903456927
31
0.0000000000
11
-7.9188559222
21
0.3994833104
31
0.0000000000
11
-7.9323373392
21
0.4100924961
31
0.0000000000
11
-7.9434884880
21
0.4220580369
31
0.0000000000
11
-7.9521192540
21
0.4352191628
31
0.0000000000
11
-7.9580798637
21
0.4493935725
31
0.0000000000
11
-7.9612641762
21
0.4644043124
31
0.0000000000
11
-7.9618074338
21
0.4739051974
31
0.0000000000
0
SPLINE
5
2C1
100
AcDbEntity
8
0
100
AcDbSpline
62
9
6
CONTINUOUS
70
0
71
3
72
14
73
10
74
8
42
0.0000001000
43
0.0000001000
44
0.0000000001
12
-0.0862549148
22
0.0431288562
32
0.0000000000
13
-0.0001124609
23
0.0966793507
33
0.0000000000
40
0.0000000000
40
0.0000000000
40
0.0000000000
40
0.0000000000
40
0.2048156159
40
0.3922037597
40
0.5624408629
40
0.7172371615
40
0.8600525603
40
0.9961555367
40
1.0000000000
40
1.0000000000
40
1.0000000000
40
1.0000000000
10
-7.9028854161
20
0.0436029889
30
0.0000000000
10
-7.9087742006
20
0.0465474767
30
0.0000000000
10
-7.9197841846
20
0.0527527828
30
0.0000000000
10
-7.9343781252
20
0.0635129256
30
0.0000000000
10
-7.9461106825
20
0.0751774181
30
0.0000000000
10
-7.9547679242
20
0.0875938801
30
0.0000000000
10
-7.9601449095
20
0.1005959470
30
0.0000000000
10
-7.9614417886
20
0.1096969624
30
0.0000000000
10
-7.9614640074
20
0.1142069357
30
0.0000000000
10
-7.9614641515
20
0.1143308291
30
0.0000000000
11
-7.9028854161
21
0.0436029889
31
0.0000000000
11
-7.9200461678
21
0.0533824940
31
0.0000000000
11
-7.9345235613
21
0.0641976927
31
0.0000000000
11
-7.9460726249
21
0.0758655811
31
0.0000000000
11
-7.9544979372
21
0.0881887273
31
0.0000000000
11
-7.9596569336
21
0.1009586116
31
0.0000000000
11
-7.9614623191
21
0.1139591551
31
0.0000000000
11
-7.9614641515
21
0.1143308291
31
0.0000000000
0
SPLINE
5
2C2
100
AcDbEntity
8
0
100
AcDbSpline
62
9
6
CONTINUOUS
70
0
71
3
72
19
73
15
74
13
42
0.0000001000
43
0.0000001000
44
0.0000000001
12
-0.0007193865
22
0.2936045459
32
0.0000000000
13
0.2614812555
23
0.1335353882
33
0.0000000000
40
0.0000000000
40
0.0000000000
40
0.0000000000
40
0.0000000000
40
0.0787842844
40
0.1611377402
40
0.2463725757
40
0.3336820853
40
0.4221795021
40
0.5109340795
40
0.5990057163
40
0.6854792820
40
0.7694997523
40
0.8503093721
40
0.9272882607
40
1.0000000000
40
1.0000000000
40
1.0000000000
40
1.0000000000
10
-8.3967139769
20
-0.3147705894
30
0.0000000000
10
-8.3967328690
20
-0.3070601148
30
0.0000000000
10
-8.3959111373
20
-0.2912788972
30
0.0000000000
10
-8.3923437746
20
-0.2673998738
30
0.0000000000
10
-8.3864729505
20
-0.2431215885
30
0.0000000000
10
-8.3783977048
20
-0.2188534698
30
0.0000000000
10
-8.3682537129
20
-0.1950009457
30
0.0000000000
10
-8.3562112766
20
-0.1719644450
30
0.0000000000
10
-8.3424724884
20
-0.1501305145
30
0.0000000000
10
-8.3272674502
20
-0.1298653961
30
0.0000000000
10
-8.3108505920
20
-0.1115088535
30
0.0000000000
10
-8.2934935770
20
-0.0953674335
30
0.0000000000
10
-8.2754874687
20
-0.0817135877
30
0.0000000000
10
-8.2628649600
20
-0.0741962075
30
0.0000000000
10
-8.2565273744
20
-0.0709596774
30
0.0000000000
11
-8.3967139769
21
-0.3147705894
31
0.0000000000
11
-8.3955680252
21
-0.2916674991
31
0.0000000000
11
-8.3920393855
21
-0.2677469403
31
0.0000000000
11
-8.3861879949
21
-0.2434152246
31
0.0000000000
11
-8.3781132443
21
-0.2190856471
31
0.0000000000
11
-8.3679522903
21
-0.1951714666
31
0.0000000000
11
-8.3558777255
21
-0.1720788860
31
0.0000000000
11
-8.3420946467
21
-0.1502001529
31
0.0000000000
11
-8.3268371714
21
-0.1299068963
31
0.0000000000
11
-8.3103644611
21
-0.1115438147
31
0.0000000000
11
-8.2929563188
21
-0.0954228208
31
0.0000000000
11
-8.2749084370
21
-0.0818177437
31
0.0000000000
11
-8.2565273744
21
-0.0709596774
31
0.0000000000
0
SPLINE
5
2C3
100
AcDbEntity
8
0
100
AcDbSpline
62
9
6
CONTINUOUS
70
0
71
3
72
19
73
15
74
13
42
0.0000001000
43
0.0000001000
44
0.0000000001
12
-0.0007193865
22
0.2936045459
32
0.0000000000
13
0.2614812555
23
0.1335353882
33
0.0000000000
40
0.0000000000
40
0.0000000000
40
0.0000000000
40
0.0000000000
40
0.0787843278
40
0.1611378206
40
0.2463726850
40
0.3336822136
40
0.4221796394
40
0.5109342154
40
0.5990058417
40
0.6854793891
40
0.7694998354
40
0.8503094279
40
0.9272882881
40
1.0000000000
40
1.0000000000
40
1.0000000000
40
1.0000000000
10
-14.3336001212
20
2.6536724827
30
0.0000000000
10
-14.3336190133
20
2.6613829616
30
0.0000000000
10
-14.3327972807
20
2.6771641871
30
0.0000000000
10
-14.3292299147
20
2.7010432208
30
0.0000000000
10
-14.3233590863
20
2.7253215137
30
0.0000000000
10
-14.3152838362
20
2.7495896367
30
0.0000000000
10
-14.3051398403
20
2.7734421620
30
0.0000000000
10
-14.2930974013
20
2.7964786610
30
0.0000000000
10
-14.2793586121
20
2.8183125874
30
0.0000000000
10
-14.2641535747
20
2.8385776999
30
0.0000000000
10
-14.2477367193
20
2.8569342357
30
0.0000000000
10
-14.2303797086
20
2.8730756490
30
0.0000000000
10
-14.2123736061
20
2.8867294888
30
0.0000000000
10
-14.1997511019
20
2.8942468659
30
0.0000000000
10
-14.1934135186
20
2.8974833948
30
0.0000000000
11
-14.3336001212
21
2.6536724827
31
0.0000000000
11
-14.3324541682
21
2.6767755858
31
0.0000000000
11
-14.3289255253
21
2.7006961550
31
0.0000000000
11
-14.3230741303
21
2.7250278784
31
0.0000000000
11
-14.3149993752
21
2.7493574603
31
0.0000000000
11
-14.3048384173
21
2.7732716420
31
0.0000000000
11
-14.2927638498
21
2.7963642207
31
0.0000000000
11
-14.2789807701
21
2.8182429496
31
0.0000000000
11
-14.2637232957
21
2.8385362002
31
0.0000000000
11
-14.2472505882
21
2.8568992749
31
0.0000000000
11
-14.2298424505
21
2.8730202618
31
0.0000000000
11
-14.2117945746
21
2.8866253329
31
0.0000000000
11
-14.1934135186
21
2.8974833948
31
0.0000000000
0
SPLINE
5
2C4
100
AcDbEntity
8
0
100
AcDbSpline
62
9
6
CONTINUOUS
70
0
71
3
72
19
73
15
74
13
42
0.0000001000
43
0.0000001000
44
0.0000000001
12
0.2592655766
22
-0.1296283695
32
0.0000000000
13
0.2599580481
23
0.1282340306
33
0.0000000000
40
0.0000000000
40
0.0000000000
40
0.0000000000
40
0.0000000000
40
0.0736630526
40
0.1522972350
40
0.2351420908
40
0.3212828237
40
0.4096947253
40
0.4992819267
40
0.5889130208
40
0.6774552896
40
0.7638088806
40
0.8469422684
40
0.9259306864
40
1.0000000000
40
1.0000000000
40
1.0000000000
40
1.0000000000
10
-14.8297032571
20
3.5070118545
30
0.0000000000
10
-14.8233371592
20
3.5038289140
30
0.0000000000
10
-14.8098159440
20
3.4979529172
30
0.0000000000
10
-14.7882285364
20
3.4907906877
30
0.0000000000
10
-14.7649693342
20
3.4850836434
30
0.0000000000
10
-14.7404280373
20
3.4809283942
30
0.0000000000
10
-14.7150133004
20
3.4783943253
30
0.0000000000
10
-14.6891507034
20
3.4775243255
30
0.0000000000
10
-14.6632735417
20
3.4783330649
30
0.0000000000
10
-14.6378153756
20
3.4808069175
30
0.0000000000
10
-14.6132025660
20
3.4849040150
30
0.0000000000
10
-14.5898450889
20
3.4905559109
30
0.0000000000
10
-14.5681343869
20
3.4976668899
30
0.0000000000
10
-14.5545185330
20
3.5035078838
30
0.0000000000
10
-14.5481002283
20
3.5066739527
30
0.0000000000
11
-14.8297032571
21
3.5070118545
31
0.0000000000
11
-14.8101495448
21
3.4984341420
31
0.0000000000
11
-14.7885337182
21
3.4912027431
31
0.0000000000
11
-14.7652215376
21
3.4854400202
31
0.0000000000
11
-14.7406074677
21
3.4812434839
31
0.0000000000
11
-14.7151080021
21
3.4786841437
31
0.0000000000
11
-14.6891546161
21
3.4778053061
31
0.0000000000
11
-14.6631864660
21
3.4786218419
31
0.0000000000
11
-14.6376429578
21
3.4811199345
31
0.0000000000
11
-14.6129563121
21
3.4852573137
31
0.0000000000
11
-14.5895442507
21
3.4909639712
31
0.0000000000
11
-14.5678029281
21
3.4981433448
31
0.0000000000
11
-14.5481002283
21
3.5066739527
31
0.0000000000
0
SPLINE
5
2C5
100
AcDbEntity
8
0
100
AcDbSpline
62
9
6
CONTINUOUS
70
0
71
3
72
19
73
15
74
13
42
0.0000001000
43
0.0000001000
44
0.0000000001
12
0.2592509490
22
-0.1296232736
32
0.0000000000
13
0.2600445751
23
0.1280236954
33
0.0000000000
40
0.0000000000
40
0.0000000000
40
0.0000000000
40
0.0000000000
40
0.0736687946
40
0.1523111430
40
0.2351652916
40
0.3213152831
40
0.4097353661
40
0.4993287317
40
0.5889631257
40
0.6775050693
40
0.7638540332
40
0.8469778991
40
0.9259513979
40
1.0000000000
40
1.0000000000
40
1.0000000000
40
1.0000000000
10
-14.8300449211
20
3.8537541546
30
0.0000000000
10
-14.8236786861
20
3.8505710912
30
0.0000000000
10
-14.8101573498
20
3.8446940964
30
0.0000000000
10
-14.7885701122
20
3.8375282289
30
0.0000000000
10
-14.7653110599
20
3.8318152758
30
0.0000000000
10
-14.7407698922
20
3.8276519532
30
0.0000000000
10
-14.7153552709
20
3.8251077880
30
0.0000000000
10
-14.6894927806
20
3.8242258407
30
0.0000000000
10
-14.6636157207
20
3.8250209819
30
0.0000000000
10
-14.6381576545
20
3.8274798120
30
0.0000000000
10
-14.6135449447
20
3.8315607111
30
0.0000000000
10
-14.5901875667
20
3.8371954974
30
0.0000000000
10
-14.5684769582
20
3.8442887373
30
0.0000000000
10
-14.5548604948
20
3.8501175183
30
0.0000000000
10
-14.5484418491
20
3.8532775102
30
0.0000000000
11
-14.8300449211
21
3.8537541546
31
0.0000000000
11
-14.8104912105
21
3.8451751122
31
0.0000000000
11
-14.7888753849
21
3.8379400582
31
0.0000000000
11
-14.7655632045
21
3.8321714167
31
0.0000000000
11
-14.7409491339
21
3.8279667985
31
0.0000000000
11
-14.7154496665
21
3.8253973499
31
0.0000000000
11
-14.6894962777
21
3.8245065483
31
0.0000000000
11
-14.6635281237
21
3.8253094669
31
0.0000000000
11
-14.6379846104
21
3.8277925197
31
0.0000000000
11
-14.6132979585
21
3.8319136909
31
0.0000000000
11
-14.5898858897
21
3.8376032465
31
0.0000000000
11
-14.5681445585
21
3.8447649137
31
0.0000000000
11
-14.5484418491
21
3.8532775102
31
0.0000000000
0
SPLINE
5
2C6
100
AcDbEntity
8
0
100
AcDbSpline
62
9
6
CONTINUOUS
70
0
71
3
72
19
73
15
74
13
42
0.0000001000
43
0.0000001000
44
0.0000000001
12
0.2620902678
22
-0.1333769794
32
0.0000000000
13
0.0021209871
23
-0.2940684079
33
0.0000000000
40
0.0000000000
40
0.0000000000
40
0.0000000000
40
0.0000000000
40
0.0722565686
40
0.1489213929
40
0.2295501552
40
0.3135086645
40
0.4000202425
40
0.4882075777
40
0.5771308113
40
0.6658234151
40
0.7533271689
40
0.8387274150
40
0.9211898116
40
1.0000000000
40
1.0000000000
40
1.0000000000
40
1.0000000000
10
-14.6545051734
20
4.1578885254
30
0.0000000000
10
-14.6481925922
20
4.1546760711
30
0.0000000000
10
-14.6356074753
20
4.1471969808
30
0.0000000000
10
-14.6176363895
20
4.1335915952
30
0.0000000000
10
-14.6002752588
20
4.1174795474
30
0.0000000000
10
-14.5838171990
20
4.0991345309
30
0.0000000000
10
-14.5685364872
20
4.0788649438
30
0.0000000000
10
-14.5546906974
20
4.0570129990
30
0.0000000000
10
-14.5425134335
20
4.0339478670
30
0.0000000000
10
-14.5322105435
20
4.0100593957
30
0.0000000000
10
-14.5239562318
20
3.9857515588
30
0.0000000000
10
-14.5178900980
20
3.9614334567
30
0.0000000000
10
-14.5141151008
20
3.9375181053
30
0.0000000000
10
-14.5131449205
20
3.9217072497
30
0.0000000000
10
-14.5130892020
20
3.9139820541
30
0.0000000000
11
-14.6545051734
21
4.1578885254
31
0.0000000000
11
-14.6361980825
21
4.1471011572
31
0.0000000000
11
-14.6181830867
21
4.1335457158
31
0.0000000000
11
-14.6007683976
21
4.1174541162
31
0.0000000000
11
-14.5842519566
21
4.0991016633
31
0.0000000000
11
-14.5689163371
21
4.0788023425
31
0.0000000000
11
-14.5550239105
21
4.0569034469
31
0.0000000000
11
-14.5428123570
21
4.0337796367
31
0.0000000000
11
-14.5324905995
21
4.0098265281
31
0.0000000000
11
-14.5242352289
21
3.9854539260
31
0.0000000000
11
-14.5181874834
21
3.9610788118
31
0.0000000000
11
-14.5144508314
21
3.9371182103
31
0.0000000000
11
-14.5130892020
21
3.9139820541
31
0.0000000000
0
SPLINE
5
2C7
100
AcDbEntity
8
0
100
AcDbSpline
62
9
6
CONTINUOUS
70
0
71
3
72
13
73
9
74
7
42
0.0000001000
43
0.0000001000
44
0.0000000001
12
-0.0922541908
22
0.0452718700
32
0.0000000000
13
-0.0913011043
23
-0.0474218072
33
0.0000000000
40
0.0000000000
40
0.0000000000
40
0.0000000000
40
0.0000000000
40
0.1794909513
40
0.3531202771
40
0.5228910746
40
0.6908571131
40
0.8593161829
40
1.0000000000
40
1.0000000000
40
1.0000000000
40
1.0000000000
10
-7.7282940900
20
0.6947820496
30
0.0000000000
10
-7.7338136875
20
0.6974906799
30
0.0000000000
10
-7.7450543527
20
0.7020892431
30
0.0000000000
10
-7.7625239570
20
0.7063427867
30
0.0000000000
10
-7.7800647277
20
0.7077363087
30
0.0000000000
10
-7.7974194788
20
0.7061963185
30
0.0000000000
10
-7.8132929288
20
0.7019859737
30
0.0000000000
10
-7.8230261842
20
0.6977227463
30
0.0000000000
10
-7.8273077135
20
0.6954989194
30
0.0000000000
11
-7.7282940900
21
0.6947820496
31
0.0000000000
11
-7.7453848426
21
0.7017196203
31
0.0000000000
11
-7.7627311900
21
0.7058992678
31
0.0000000000
11
-7.7801251724
21
0.7072490446
31
0.0000000000
11
-7.7973174930
21
0.7057129048
31
0.0000000000
11
-7.8140531164
21
0.7012850212
31
0.0000000000
11
-7.8273077135
21
0.6954989194
31
0.0000000000
0
SPLINE
5
2C8
100
AcDbEntity
8
0
100
AcDbSpline
62
7
6
CONTINUOUS
70
0
71
3
72
20
73
16
74
14
42
0.0000001000
43
0.0000001000
44
0.0000000001
12
-0.0022135304
22
0.3061682254
32
0.0000000000
13
-0.2941096389
23
0.0851081799
33
0.0000000000
40
0.0000000000
40
0.0000000000
40
0.0000000000
40
0.0000000000
40
0.0709979988
40
0.1443353462
40
0.2198383922
40
0.2972045218
40
0.3760325515
40
0.4558518558
40
0.5361504363
40
0.6164002160
40
0.6960799149
40
0.7746955958
40
0.8517986758
40
0.9270029571
40
1.0000000000
40
1.0000000000
40
1.0000000000
40
1.0000000000
10
-13.5841817105
20
4.3802419218
30
0.0000000000
10
-13.5842340959
20
4.3874876989
30
0.0000000000
10
-13.5853019725
20
4.4022243042
30
0.0000000000
10
-13.5895631389
20
4.4242986817
30
0.0000000000
10
-13.5964094507
20
4.4463928107
30
0.0000000000
10
-13.6057067438
20
4.4681777129
30
0.0000000000
10
-13.6172880631
20
4.4893395853
30
0.0000000000
10
-13.6309563822
20
4.5095769083
30
0.0000000000
10
-13.6464883163
20
4.5286077143
30
0.0000000000
10
-13.6636385563
20
4.5461731921
30
0.0000000000
10
-13.6821447573
20
4.5620411723
30
0.0000000000
10
-13.7017319026
20
4.5760082466
30
0.0000000000
10
-13.7221183515
20
4.5879015898
30
0.0000000000
10
-13.7430145769
20
4.5975779879
30
0.0000000000
10
-13.7573294125
20
4.6025578449
30
0.0000000000
10
-13.7644857904
20
4.6046287267
30
0.0000000000
11
-13.5841817105
21
4.3802419218
31
0.0000000000
11
-13.5857032104
21
4.4019265087
31
0.0000000000
11
-13.5899144042
21
4.4239822291
31
0.0000000000
11
-13.5967207995
21
4.4460747542
31
0.0000000000
11
-13.6059908130
21
4.4678732070
31
0.0000000000
11
-13.6175579319
21
4.4890560527
31
0.0000000000
11
-13.6312240042
21
4.5093166577
31
0.0000000000
11
-13.6467635273
21
4.5283684513
31
0.0000000000
11
-13.6639284311
21
4.5459491004
31
0.0000000000
11
-13.6824530701
21
4.5618237346
31
0.0000000000
11
-13.7020591479
21
4.5757872145
31
0.0000000000
11
-13.7224602293
21
4.5876654495
31
0.0000000000
11
-13.7433659799
21
4.5973161158
31
0.0000000000
11
-13.7644857904
21
4.6046287267
31
0.0000000000
0
SPLINE
5
2C9
100
AcDbEntity
8
0
100
AcDbSpline
62
9
6
CONTINUOUS
70
0
71
3
72
20
73
16
74
14
42
0.0000001000
43
0.0000001000
44
0.0000000001
12
-0.0027085850
22
0.3664863770
32
0.0000000000
13
-0.3229443612
23
0.1732816797
33
0.0000000000
40
0.0000000000
40
0.0000000000
40
0.0000000000
40
0.0000000000
40
0.0728689199
40
0.1489554571
40
0.2276755463
40
0.3083555868
40
0.3902595617
40
0.4726140926
40
0.5546323375
40
0.6355374889
40
0.7145865696
40
0.7910952666
40
0.8644646849
40
0.9342111071
40
1.0000000000
40
1.0000000000
40
1.0000000000
40
1.0000000000
10
12.6045389335
20
-9.5203287823
30
0.0000000000
10
12.6044731430
20
-9.5114269601
30
0.0000000000
10
12.6034549845
20
-9.4932285638
30
0.0000000000
10
12.5995173085
20
-9.4656648635
30
0.0000000000
10
12.5931904645
20
-9.4375709817
30
0.0000000000
10
12.5845659918
20
-9.4093541789
30
0.0000000000
10
12.5737683187
20
-9.3814199535
30
0.0000000000
10
12.5609532715
20
-9.3541715392
30
0.0000000000
10
12.5463057949
20
-9.3280021149
30
0.0000000000
10
12.5300372077
20
-9.3032893004
30
0.0000000000
10
12.5123817197
20
-9.2803892699
30
0.0000000000
10
12.4935932326
20
-9.2596318339
30
0.0000000000
10
12.4739389270
20
-9.2413145896
30
0.0000000000
10
12.4537020140
20
-9.2257030071
30
0.0000000000
10
12.4395787461
20
-9.2169827899
30
0.0000000000
10
12.4324966954
20
-9.2131827866
30
0.0000000000
11
12.6045389335
21
-9.5203287823
31
0.0000000000
11
12.6031041130
21
-9.4936611580
31
0.0000000000
11
12.5992049016
21
-9.4660496755
31
0.0000000000
11
12.5928981366
21
-9.4378968166
31
0.0000000000
11
12.5842757495
21
-9.4096129547
31
0.0000000000
11
12.5734634255
21
-9.3816103726
31
0.0000000000
11
12.5606187719
21
-9.3542972529
31
0.0000000000
11
12.5459290203
21
-9.3280717282
31
0.0000000000
11
12.5296082976
21
-9.3033160776
31
0.0000000000
11
12.5118945046
21
-9.2803911544
31
0.0000000000
11
12.4930458484
21
-9.2596311258
31
0.0000000000
11
12.4733370785
21
-9.2413386024
31
0.0000000000
11
12.4530554819
21
-9.2257802267
31
0.0000000000
11
12.4324966954
21
-9.2131827866
31
0.0000000000
0
SPLINE
5
2CA
100
AcDbEntity
8
0
100
AcDbSpline
62
9
6
CONTINUOUS
70
0
71
3
72
20
73
16
74
14
42
0.0000001000
43
0.0000001000
44
0.0000000001
12
-0.0002381714
22
0.3665499159
32
0.0000000000
13
0.3264447576
23
0.1667114809
33
0.0000000000
40
0.0000000000
40
0.0000000000
40
0.0000000000
40
0.0000000000
40
0.0726405182
40
0.1483504569
40
0.2266011449
40
0.3067738655
40
0.3881861555
40
0.4701162103
40
0.5518261734
40
0.6325849852
40
0.7116914169
40
0.7884979378
40
0.8624361474
40
0.9330446154
40
1.0000000000
40
1.0000000000
40
1.0000000000
40
1.0000000000
10
11.9099875818
20
-9.5162621895
30
0.0000000000
10
11.9099818149
20
-9.5073867309
30
0.0000000000
10
11.9108786462
20
-9.4892512803
30
0.0000000000
10
11.9147112147
20
-9.4617988880
30
0.0000000000
10
11.9210053654
20
-9.4338604681
30
0.0000000000
10
11.9296706401
20
-9.4058371791
30
0.0000000000
10
11.9405830611
20
-9.3781275592
30
0.0000000000
10
11.9535866294
20
-9.3511275666
30
0.0000000000
10
11.9684955310
20
-9.3252228966
30
0.0000000000
10
11.9850968445
20
-9.3007836929
30
0.0000000000
10
12.0031539772
20
-9.2781588565
30
0.0000000000
10
12.0224098275
20
-9.2576713008
30
0.0000000000
10
12.0425930744
20
-9.2396123714
30
0.0000000000
10
12.0634153765
20
-9.2242418199
30
0.0000000000
10
12.0779358285
20
-9.2156955915
30
0.0000000000
10
12.0852215732
20
-9.2119748477
30
0.0000000000
11
11.9099875818
21
-9.5162621895
31
0.0000000000
11
11.9112466493
21
-9.4896655931
31
0.0000000000
11
11.9150394087
21
-9.4621745131
31
0.0000000000
11
11.9213111096
21
-9.4341857982
31
0.0000000000
11
11.9299712165
21
-9.4061034808
31
0.0000000000
11
11.9408947160
21
-9.3783329445
31
0.0000000000
11
11.9539239214
21
-9.3512750721
31
0.0000000000
11
11.9688707492
21
-9.3253204589
31
0.0000000000
11
11.9855194335
21
-9.3008437737
31
0.0000000000
11
12.0036296417
21
-9.2781983510
31
0.0000000000
11
12.0229399429
21
-9.2577110898
31
0.0000000000
11
12.0431715824
21
-9.2396777348
31
0.0000000000
11
12.0640325055
21
-9.2243586075
31
0.0000000000
11
12.0852215732
21
-9.2119748477
31
0.0000000000
0
SPLINE
5
2CB
100
AcDbEntity
8
0
100
AcDbSpline
62
9
6
CONTINUOUS
70
0
71
3
72
9
73
5
74
3
42
0.0000001000
43
0.0000001000
44
0.0000000001
12
-0.0004266218
22
0.3479822231
32
0.0000000000
13
-0.0001978899
23
0.3479824284
33
0.0000000000
40
0.0000000000
40
0.0000000000
40
0.0000000000
40
0.0000000000
40
0.4999075388
40
1.0000000000
40
1.0000000000
40
1.0000000000
40
1.0000000000
10
1.3969302643
20
-4.4230676131
30
0.0000000000
10
1.3968591738
20
-4.3650813009
30
0.0000000000
10
1.3967360363
20
-4.2490872023
30
0.0000000000
10
1.3966510091
20
-4.1330930696
30
0.0000000000
10
1.3966180213
20
-4.0750852733
30
0.0000000000
11
1.3969302643
21
-4.4230676131
31
0.0000000000
11
1.3967455831
21
-4.2491086437
31
0.0000000000
11
1.3966180213
21
-4.0750852733
31
0.0000000000
0
SPLINE
5
2CC
100
AcDbEntity
8
0
100
AcDbSpline
62
7
6
CONTINUOUS
70
0
71
3
72
10
73
6
74
4
42
0.0000001000
43
0.0000001000
44
0.0000000001
12
0.0000053945
22
-0.0007543809
32
0.0000000000
13
0.0000000000
23
-0.0007544002
33
0.0000000000
40
0.0000000000
40
0.0000000000
40
0.0000000000
40
0.0000000000
40
0.3329288768
40
0.6662609277
40
1.0000000000
40
1.0000000000
40
1.0000000000
40
1.0000000000
10
2.3069752079
20
-3.6101766125
30
0.0000000000
10
2.3069758066
20
-3.6102603309
30
0.0000000000
10
2.3069768041
20
-3.6104278706
30
0.0000000000
10
2.3069777012
20
-3.6106793359
30
0.0000000000
10
2.3069779003
20
-3.6108470822
30
0.0000000000
10
2.3069779003
20
-3.6109310065
30
0.0000000000
11
2.3069752079
21
-3.6101766125
31
0.0000000000
11
2.3069767037
21
-3.6104277697
31
0.0000000000
11
2.3069776011
21
-3.6106792338
31
0.0000000000
11
2.3069779003
21
-3.6109310065
31
0.0000000000
0
SPLINE
5
2CD
100
AcDbEntity
8
0
100
AcDbSpline
62
9
6
CONTINUOUS
70
0
71
3
72
21
73
17
74
15
42
0.0000001000
43
0.0000001000
44
0.0000000001
12
-0.3264581337
22
-0.1667183123
32
0.0000000000
13
0.0002381808
23
-0.3665649355
33
0.0000000000
40
0.0000000000
40
0.0000000000
40
0.0000000000
40
0.0000000000
40
0.0620508734
40
0.1272666298
40
0.1954025481
40
0.2661059726
40
0.3389410467
40
0.4134072350
40
0.4889571605
40
0.5650141098
40
0.6409878111
40
0.7162898716
40
0.7903502938
40
0.8626335955
40
0.9326546435
40
1.0000000000
40
1.0000000000
40
1.0000000000
40
1.0000000000
10
8.1479712919
20
-7.2433497072
30
0.0000000000
10
8.1412189544
20
-7.2467980462
30
0.0000000000
10
8.1277549052
20
-7.2546439162
30
0.0000000000
10
8.1083655820
20
-7.2686307454
30
0.0000000000
10
8.0894903809
20
-7.2849683072
30
0.0000000000
10
8.0713622857
20
-7.3034535539
30
0.0000000000
10
8.0542019710
20
-7.3238593824
30
0.0000000000
10
8.0382203523
20
-7.3459343034
30
0.0000000000
10
8.0236140429
20
-7.3694062018
30
0.0000000000
10
8.0105631186
20
-7.3939855035
30
0.0000000000
10
7.9992285951
20
-7.4193688801
30
0.0000000000
10
7.9897503706
20
-7.4452432129
30
0.0000000000
10
7.9822454565
20
-7.4712892880
30
0.0000000000
10
7.9768066210
20
-7.4971871986
30
0.0000000000
10
7.9735013895
20
-7.5226158468
30
0.0000000000
10
7.9727319538
20
-7.5394082332
30
0.0000000000
10
7.9727373006
20
-7.5476370487
30
0.0000000000
11
8.1479712919
21
-7.2433497072
31
0.0000000000
11
8.1282883913
21
-7.2547492400
31
0.0000000000
11
8.1088698947
21
-7.2686923373
31
0.0000000000
11
8.0899572309
21
-7.2850056417
31
0.0000000000
11
8.0717860551
21
-7.3034859036
31
0.0000000000
11
8.0545825021
21
-7.3239031302
31
0.0000000000
11
8.0385607206
21
-7.3460031825
31
0.0000000000
11
8.0239202209
21
-7.3695108655
31
0.0000000000
11
8.0108432442
21
-7.3941335553
31
0.0000000000
11
7.9994925740
21
-7.4195647535
31
0.0000000000
11
7.9900095496
21
-7.4454877822
31
0.0000000000
11
7.9825122054
21
-7.4715799562
31
0.0000000000
11
7.9770938526
21
-7.4975165621
31
0.0000000000
11
7.9738219898
21
-7.5229744386
31
0.0000000000
11
7.9727373006
21
-7.5476370487
31
0.0000000000
0
SPLINE
5
2CE
100
AcDbEntity
8
0
100
AcDbSpline
62
9
6
CONTINUOUS
70
0
71
3
72
13
73
9
74
7
42
0.0000001000
43
0.0000001000
44
0.0000000001
12
-0.1114151805
22
0.0519082664
32
0.0000000000
13
-0.1079941553
23
-0.0590785539
33
0.0000000000
40
0.0000000000
40
0.0000000000
40
0.0000000000
40
0.0000000000
40
0.1926305247
40
0.3744445863
40
0.5462886738
40
0.7097924001
40
0.8673616606
40
1.0000000000
40
1.0000000000
40
1.0000000000
40
1.0000000000
10
-18.5641801619
20
6.2851556421
30
0.0000000000
10
-18.5713341501
20
6.2884886809
30
0.0000000000
10
-18.5856259358
20
6.2941891226
30
0.0000000000
10
-18.6073838520
20
6.2997239765
30
0.0000000000
10
-18.6285464621
20
6.3019010028
30
0.0000000000
10
-18.6488032172
20
6.3006581090
30
0.0000000000
10
-18.6669599323
20
6.2961990618
30
0.0000000000
10
-18.6778806197
20
6.2913479505
30
0.0000000000
10
-18.6826553415
20
6.2887359234
30
0.0000000000
11
-18.5641801619
21
6.2851556421
31
0.0000000000
11
-18.5862033440
21
6.2938491863
31
0.0000000000
11
-18.6078830171
21
6.2992714453
31
0.0000000000
11
-18.6289031652
21
6.3013433808
31
0.0000000000
11
-18.6489573860
21
6.3000347905
31
0.0000000000
11
-18.6677533568
21
6.2953647491
31
0.0000000000
11
-18.6826553415
21
6.2887359234
31
0.0000000000
0
SPLINE
5
2CF
100
AcDbEntity
8
0
100
AcDbSpline
62
9
6
CONTINUOUS
70
0
71
3
72
20
73
16
74
14
42
0.0000001000
43
0.0000001000
44
0.0000000001
12
-0.3264447576
22
-0.1667114809
32
0.0000000000
13
0.0002381714
23
-0.3665499159
33
0.0000000000
40
0.0000000000
40
0.0000000000
40
0.0000000000
40
0.0000000000
40
0.0669553846
40
0.1375638526
40
0.2115020622
40
0.2883085831
40
0.3674150148
40
0.4481738266
40
0.5298837897
40
0.6118138445
40
0.6932261345
40
0.7733988551
40
0.8516495431
40
0.9273594818
40
1.0000000000
40
1.0000000000
40
1.0000000000
40
1.0000000000
10
-18.5581173434
20
6.1096946106
30
0.0000000000
10
-18.5654030882
20
6.1059738668
30
0.0000000000
10
-18.5799235401
20
6.0974276384
30
0.0000000000
10
-18.6007458423
20
6.0820570869
30
0.0000000000
10
-18.6209290891
20
6.0639981575
30
0.0000000000
10
-18.6401849394
20
6.0435106018
30
0.0000000000
10
-18.6582420721
20
6.0208857654
30
0.0000000000
10
-18.6748433856
20
5.9964465617
30
0.0000000000
10
-18.6897522873
20
5.9705418917
30
0.0000000000
10
-18.7027558556
20
5.9435418991
30
0.0000000000
10
-18.7136682765
20
5.9158322792
30
0.0000000000
10
-18.7223335512
20
5.8878089902
30
0.0000000000
10
-18.7286277019
20
5.8598705703
30
0.0000000000
10
-18.7324602704
20
5.8324181780
30
0.0000000000
10
-18.7333571018
20
5.8142827275
30
0.0000000000
10
-18.7333513348
20
5.8054072688
30
0.0000000000
11
-18.5581173434
21
6.1096946106
31
0.0000000000
11
-18.5793064112
21
6.0973108508
31
0.0000000000
11
-18.6001673342
21
6.0819917235
31
0.0000000000
11
-18.6203989737
21
6.0639583685
31
0.0000000000
11
-18.6397092749
21
6.0434711073
31
0.0000000000
11
-18.6578194831
21
6.0208256846
31
0.0000000000
11
-18.6744681675
21
5.9963489995
31
0.0000000000
11
-18.6894149952
21
5.9703943862
31
0.0000000000
11
-18.7024442007
21
5.9433365138
31
0.0000000000
11
-18.7133677002
21
5.9155659775
31
0.0000000000
11
-18.7220278070
21
5.8874836601
31
0.0000000000
11
-18.7282995079
21
5.8594949452
31
0.0000000000
11
-18.7320922673
21
5.8320038652
31
0.0000000000
11
-18.7333513348
21
5.8054072688
31
0.0000000000
0
SPLINE
5
2D0
100
AcDbEntity
8
0
100
AcDbSpline
62
9
6
CONTINUOUS
70
0
71
3
72
21
73
17
74
15
42
0.0000001000
43
0.0000001000
44
0.0000000001
12
-0.0002352370
22
0.3666338790
32
0.0000000000
13
0.3267508508
23
0.1662959354
33
0.0000000000
40
0.0000000000
40
0.0000000000
40
0.0000000000
40
0.0000000000
40
0.0673303084
40
0.1373323851
40
0.2095947010
40
0.2836338683
40
0.3589160572
40
0.4348728254
40
0.5109172093
40
0.5864602429
40
0.6609263946
40
0.7337693271
40
0.8044893709
40
0.8726513688
40
0.9379031103
40
1.0000000000
40
1.0000000000
40
1.0000000000
40
1.0000000000
10
-14.8300450134
20
3.8537541083
30
0.0000000000
10
-14.8300502929
20
3.8619826324
30
0.0000000000
10
-14.8292796880
20
3.8787740488
30
0.0000000000
10
-14.8259686369
20
3.9042001248
30
0.0000000000
10
-14.8205202737
20
3.9300935662
30
0.0000000000
10
-14.8130021803
20
3.9561333341
30
0.0000000000
10
-14.8035073067
20
3.9819996081
30
0.0000000000
10
-14.7921528696
20
4.0073732823
30
0.0000000000
10
-14.7790790094
20
4.0319413628
30
0.0000000000
10
-14.7644470242
20
4.0554006628
30
0.0000000000
10
-14.7484373053
20
4.0774617655
30
0.0000000000
10
-14.7312468045
20
4.0978527153
30
0.0000000000
10
-14.7130868214
20
4.1163222137
30
0.0000000000
10
-14.6941783982
20
4.1326432951
30
0.0000000000
10
-14.6747550041
20
4.1466131944
30
0.0000000000
10
-14.6612685772
20
4.1544463720
30
0.0000000000
10
-14.6545051734
20
4.1578885254
30
0.0000000000
11
-14.8300450134
21
3.8537541083
31
0.0000000000
11
-14.8289584327
21
3.8784157601
31
0.0000000000
11
-14.8256808666
21
3.9038707572
31
0.0000000000
11
-14.8202530643
21
3.9298026177
31
0.0000000000
11
-14.8127426447
21
3.9558882349
31
0.0000000000
11
-14.8032430783
21
3.9818029760
31
0.0000000000
11
-14.7918726045
21
4.0072242629
31
0.0000000000
11
-14.7787728072
21
4.0318355403
31
0.0000000000
11
-14.7641067548
21
4.0553304513
31
0.0000000000
11
-14.7480570062
21
4.0774165312
31
0.0000000000
11
-14.7308234182
21
4.0978187582
31
0.0000000000
11
-14.7126205189
21
4.1162831778
31
0.0000000000
11
-14.6936748290
21
4.1325799893
31
0.0000000000
11
-14.6742224309
21
4.1465061608
31
0.0000000000
11
-14.6545051734
21
4.1578885254
31
0.0000000000
0
SPLINE
5
2D1
100
AcDbEntity
8
0
100
AcDbSpline
62
7
6
CONTINUOUS
70
0
71
3
72
10
73
6
74
4
42
0.0000001000
43
0.0000001000
44
0.0000000001
12
0.0498318238
22
-0.0223208338
32
0.0000000000
13
0.0488379384
23
-0.0244189692
33
0.0000000000
40
0.0000000000
40
0.0000000000
40
0.0000000000
40
0.0000000000
40
0.3557856526
40
0.6884210240
40
1.0000000000
40
1.0000000000
40
1.0000000000
40
1.0000000000
10
-13.2800237269
20
3.4040275053
30
0.0000000000
10
-13.2741139109
20
3.4013803611
30
0.0000000000
10
-13.2627087920
20
3.3961909382
30
0.0000000000
10
-13.2462436961
20
3.3884327340
30
0.0000000000
10
-13.2357113041
20
3.3832787649
30
0.0000000000
10
-13.2306390125
20
3.3807426191
30
0.0000000000
11
-13.2800237269
21
3.4040275053
31
0.0000000000
11
-13.2623440101
21
3.3959759659
31
0.0000000000
11
-13.2459169054
21
3.3882277770
31
0.0000000000
11
-13.2306390125
21
3.3807426191
31
0.0000000000
0
SPLINE
5
2D2
100
AcDbEntity
8
0
100
AcDbSpline
62
9
6
CONTINUOUS
70
0
71
3
72
25
73
21
74
19
42
0.0000001000
43
0.0000001000
44
0.0000000001
12
-0.6597889603
22
0.3275794307
32
0.0000000000
13
0.0007572664
23
0.7366336824
33
0.0000000000
40
0.0000000000
40
0.0000000000
40
0.0000000000
40
0.0000000000
40
0.0474952490
40
0.0972431909
40
0.1490389381
40
0.2026122101
40
0.2576553801
40
0.3139448043
40
0.3713376468
40
0.4296360162
40
0.4885542992
40
0.5477913880
40
0.6070407379
40
0.6660022763
40
0.7244572131
40
0.7822289720
40
0.8390369430
40
0.8944973708
40
0.9482538295
40
1.0000000000
40
1.0000000000
40
1.0000000000
40
1.0000000000
10
-14.1934135186
20
2.8974833948
30
0.0000000000
10
-14.2038591323
20
2.9026695503
30
0.0000000000
10
-14.2247957428
20
2.9142147825
30
0.0000000000
10
-14.2553922806
20
2.9343511990
30
0.0000000000
10
-14.2856283234
20
2.9575659908
30
0.0000000000
10
-14.3151887257
20
2.9836401460
30
0.0000000000
10
-14.3437992334
20
3.0123305803
30
0.0000000000
10
-14.3712382484
20
3.0434034161
30
0.0000000000
10
-14.3973217243
20
3.0766429488
30
0.0000000000
10
-14.4218686794
20
3.1118217148
30
0.0000000000
10
-14.4446902778
20
3.1486765169
30
0.0000000000
10
-14.4656018560
20
3.1869136521
30
0.0000000000
10
-14.4844366767
20
3.2262270532
30
0.0000000000
10
-14.5010550695
20
3.2663198938
30
0.0000000000
10
-14.5153429113
20
3.3069173468
30
0.0000000000
10
-14.5271956598
20
3.3477421014
30
0.0000000000
10
-14.5365092740
20
3.3884671801
30
0.0000000000
10
-14.5431957714
20
3.4287082062
30
0.0000000000
10
-14.5472057654
20
3.4680540171
30
0.0000000000
10
-14.5481132902
20
3.4939679619
30
0.0000000000
10
-14.5481002283
20
3.5066739527
30
0.0000000000
11
-14.1934135186
21
2.8974833948
31
0.0000000000
11
-14.2240785434
21
2.9143273771
31
0.0000000000
11
-14.2547191875
21
2.9344291772
31
0.0000000000
11
-14.2850107736
21
2.9576280265
31
0.0000000000
11
-14.3146329568
21
2.9837034070
31
0.0000000000
11
-14.3432871819
21
3.0123908293
31
0.0000000000
11
-14.3707533312
21
3.0434541939
31
0.0000000000
11
-14.3968688294
21
3.0767012950
31
0.0000000000
11
-14.4214554155
21
3.1119111723
31
0.0000000000
11
-14.4443123614
21
3.1488059614
31
0.0000000000
11
-14.4652529558
21
3.1870890786
31
0.0000000000
11
-14.4841086086
21
3.2264509665
31
0.0000000000
11
-14.5007323360
21
3.2665768181
31
0.0000000000
11
-14.5150147391
21
3.3071990754
31
0.0000000000
11
-14.5268618488
21
3.3480734453
31
0.0000000000
11
-14.5361663119
21
3.3888726141
31
0.0000000000
11
-14.5428317718
21
3.4291792425
31
0.0000000000
11
-14.5468090934
21
3.4685778334
31
0.0000000000
11
-14.5481002283
21
3.5066739527
31
0.0000000000
0
SPLINE
5
2D3
100
AcDbEntity
8
0
100
AcDbSpline
62
7
6
CONTINUOUS
70
0
71
3
72
21
73
17
74
15
42
0.0000001000
43
0.0000001000
44
0.0000000001
12
-0.5915274736
22
0.2649589248
32
0.0000000000
13
0.0423664674
23
0.6467712627
33
0.0000000000
40
0.0000000000
40
0.0000000000
40
0.0000000000
40
0.0000000000
40
0.0694446952
40
0.1392318205
40
0.2092776792
40
0.2798075504
40
0.3505578760
40
0.4217673568
40
0.4932368408
40
0.5650129637
40
0.6371360623
40
0.7093814376
40
0.7819549990
40
0.8545312112
40
0.9272714887
40
1.0000000000
40
1.0000000000
40
1.0000000000
40
1.0000000000
10
-13.2800237269
20
3.4040275053
30
0.0000000000
10
-13.2937165419
20
3.4101608358
30
0.0000000000
10
-13.3205859080
20
3.4238075474
30
0.0000000000
10
-13.3588369728
20
3.4480328842
30
0.0000000000
10
-13.3948907267
20
3.4758090221
30
0.0000000000
10
-13.4284663699
20
3.5068367529
30
0.0000000000
10
-13.4593705617
20
3.5408635397
30
0.0000000000
10
-13.4873684836
20
3.5775727766
30
0.0000000000
10
-13.5122875267
20
3.6166992734
30
0.0000000000
10
-13.5339472684
20
3.6579422617
30
0.0000000000
10
-13.5521767372
20
3.7009940230
30
0.0000000000
10
-13.5668320992
20
3.7455713868
30
0.0000000000
10
-13.5777540425
20
3.7913087416
30
0.0000000000
10
-13.5848188996
20
3.8379085484
30
0.0000000000
10
-13.5879031964
20
3.8849715889
30
0.0000000000
10
-13.5872370281
20
3.9164410438
30
0.0000000000
10
-13.5862099448
20
3.9321206142
30
0.0000000000
11
-13.2800237269
21
3.4040275053
31
0.0000000000
11
-13.3201663087
21
3.4243885336
31
0.0000000000
11
-13.3583930426
21
3.4485700292
31
0.0000000000
11
-13.3943712263
21
3.4762611375
31
0.0000000000
11
-13.4279580453
21
3.5072730239
31
0.0000000000
11
-13.4588010597
21
3.5412083239
31
0.0000000000
11
-13.4868018387
21
3.5778994102
31
0.0000000000
11
-13.5116946823
21
3.6169661544
31
0.0000000000
11
-13.5333312681
21
3.6581508049
31
0.0000000000
11
-13.5515616457
21
3.7011966688
31
0.0000000000
11
-13.5661859099
21
3.7456808244
31
0.0000000000
11
-13.5771074324
21
3.7914344718
31
0.0000000000
11
-13.5841510286
21
3.8379449577
31
0.0000000000
11
-13.5872222882
21
3.8849919647
31
0.0000000000
11
-13.5862099448
21
3.9321206142
31
0.0000000000
0
SPLINE
5
2D4
100
AcDbEntity
8
0
100
AcDbSpline
62
9
6
CONTINUOUS
70
0
71
3
72
10
73
6
74
4
42
0.0000001000
43
0.0000001000
44
0.0000000001
12
0.0052801313
22
-7.8523648587
32
0.0000000000
13
0.1270242260
23
-7.8513391597
33
0.0000000000
40
0.0000000000
40
0.0000000000
40
0.0000000000
40
0.0000000000
40
0.3341399207
40
0.6674711918
40
1.0000000000
40
1.0000000000
40
1.0000000000
40
1.0000000000
10
11.9099875818
20
-9.5162621895
30
0.0000000000
10
11.9105756827
20
-10.3908583798
30
0.0000000000
10
11.9162272143
20
-12.1379346515
30
0.0000000000
10
11.9381887597
20
-14.7553085476
30
0.0000000000
10
11.9618406997
20
-16.4980166142
30
0.0000000000
10
11.9759204378
20
-17.3682820987
30
0.0000000000
11
11.9099875818
21
-9.5162621895
31
0.0000000000
11
11.9184913125
21
-12.1400375733
31
0.0000000000
11
11.9404689826
21
-14.7573846540
31
0.0000000000
11
11.9759204378
21
-17.3682820987
31
0.0000000000
0
SPLINE
5
2D5
100
AcDbEntity
8
0
100
AcDbSpline
62
9
6
CONTINUOUS
70
0
71
3
72
10
73
6
74
4
42
0.0000001000
43
0.0000001000
44
0.0000000001
12
0.0052508251
22
-7.8461643555
32
0.0000000000
13
0.1269281720
23
-7.8451393808
33
0.0000000000
40
0.0000000000
40
0.0000000000
40
0.0000000000
40
0.0000000000
40
0.3341397447
40
0.6674711732
40
1.0000000000
40
1.0000000000
40
1.0000000000
40
1.0000000000
10
12.6045389335
20
-9.5203287823
30
0.0000000000
10
12.6051237700
20
-10.3942339005
30
0.0000000000
10
12.6107663115
20
-12.1399305860
30
0.0000000000
10
12.6327069879
20
-14.7552377408
30
0.0000000000
10
12.6563400943
20
-16.4965701671
30
0.0000000000
10
12.6704091863
20
-17.3661484986
30
0.0000000000
11
12.6045389335
21
-9.5203287823
31
0.0000000000
11
12.6130291558
21
-12.1420309766
31
0.0000000000
11
12.6349859597
21
-14.7573125666
31
0.0000000000
11
12.6704091863
21
-17.3661484986
31
0.0000000000
0
SPLINE
5
2D6
100
AcDbEntity
8
0
100
AcDbSpline
62
9
6
CONTINUOUS
70
0
71
3
72
23
73
19
74
17
42
0.0000001000
43
0.0000001000
44
0.0000000001
12
-0.6460766937
22
-0.3048727489
32
0.0000000000
13
-0.6389818984
23
0.3194755399
33
0.0000000000
40
0.0000000000
40
0.0000000000
40
0.0000000000
40
0.0000000000
40
0.0557718522
40
0.1142664290
40
0.1751889606
40
0.2381860099
40
0.3028682888
40
0.3688159185
40
0.4355866746
40
0.5027250463
40
0.5697698933
40
0.6362615956
40
0.7017492411
40
0.7657983909
40
0.8280003122
40
0.8879804219
40
0.9454042004
40
1.0000000000
40
1.0000000000
40
1.0000000000
40
1.0000000000
10
12.6045389335
20
-9.5203287823
30
0.0000000000
10
12.5925279689
20
-9.5259965549
30
0.0000000000
10
12.5674748947
20
-9.5366831145
30
0.0000000000
10
12.5280771042
20
-9.5504809681
30
0.0000000000
10
12.4862599676
20
-9.5623317091
30
0.0000000000
10
12.4424060581
20
-9.5721262777
30
0.0000000000
10
12.3969151266
20
-9.5797753965
30
0.0000000000
10
12.3502030932
20
-9.5852087839
30
0.0000000000
10
12.3026974381
20
-9.5883765265
30
0.0000000000
10
12.2548332703
20
-9.5892494856
30
0.0000000000
10
12.2070489052
20
-9.5878196514
30
0.0000000000
10
12.1597818953
20
-9.5841001806
30
0.0000000000
10
12.1134650667
20
-9.5781253002
30
0.0000000000
10
12.0685220971
20
-9.5699498888
30
0.0000000000
10
12.0253636658
20
-9.5596489995
30
0.0000000000
10
11.9843827348
20
-9.5473163761
30
0.0000000000
10
11.9459540848
20
-9.5330653334
30
0.0000000000
10
11.9216161580
20
-9.5220761970
30
0.0000000000
10
11.9099875822
20
-9.5162621895
30
0.0000000000
11
12.6045389335
21
-9.5203287823
31
0.0000000000
11
12.5679184355
21
-9.5360265968
31
0.0000000000
11
12.5284983263
21
-9.5498945166
31
0.0000000000
11
12.4866373475
21
-9.5618065619
31
0.0000000000
11
12.4427226886
21
-9.5716524595
31
0.0000000000
11
12.3971581370
21
-9.5793417239
31
0.0000000000
11
12.3503630446
21
-9.5848035590
31
0.0000000000
11
12.3027686321
21
-9.5879876225
31
0.0000000000
11
12.2548132266
21
-9.5888646118
31
0.0000000000
11
12.2069382123
21
-9.5874264710
31
0.0000000000
11
12.1595842326
21
-9.5836864283
31
0.0000000000
11
12.1131873953
21
-9.5776789139
31
0.0000000000
11
12.0681752325
21
-9.5694593053
31
0.0000000000
11
12.0249619769
21
-9.5591032765
31
0.0000000000
11
11.9839449685
21
-9.5467060177
31
0.0000000000
11
11.9455035169
21
-9.5323822554
31
0.0000000000
11
11.9099875822
21
-9.5162621895
31
0.0000000000
0
SPLINE
5
2D7
100
AcDbEntity
8
0
100
AcDbSpline
62
9
6
CONTINUOUS
70
0
71
3
72
22
73
18
74
16
42
0.0000001000
43
0.0000001000
44
0.0000000001
12
-0.6423342162
22
-0.3139562556
32
0.0000000000
13
-0.6396804284
23
0.3193285539
33
0.0000000000
40
0.0000000000
40
0.0000000000
40
0.0000000000
40
0.0000000000
40
0.0598797690
40
0.1227779339
40
0.1883253208
40
0.2560911560
40
0.3255970190
40
0.3963292434
40
0.4677503106
40
0.5393096327
40
0.6104540259
40
0.6806381241
40
0.7493349745
40
0.8160470829
40
0.8803182552
40
0.9417466950
40
1.0000000000
40
1.0000000000
40
1.0000000000
40
1.0000000000
10
12.6704091863
20
-17.3661484986
30
0.0000000000
10
12.6575882448
20
-17.3724150412
30
0.0000000000
10
12.6307727520
20
-17.3842049552
30
0.0000000000
10
12.5884841133
20
-17.3993327352
30
0.0000000000
10
12.5435012497
20
-17.4122165501
30
0.0000000000
10
12.4962932910
20
-17.4227213712
30
0.0000000000
10
12.4473490102
20
-17.4307384263
30
0.0000000000
10
12.3971773715
20
-17.4361839751
30
0.0000000000
10
12.3463002939
20
-17.4390011807
30
0.0000000000
10
12.2952474384
20
-17.4391606066
30
0.0000000000
10
12.2445503198
20
-17.4366606262
30
0.0000000000
10
12.1947366155
20
-17.4315274317
30
0.0000000000
10
12.1463242753
20
-17.4238146227
30
0.0000000000
10
12.0998163891
20
-17.4136027364
30
0.0000000000
10
12.0556938115
20
-17.4009972386
30
0.0000000000
10
12.0144163937
20
-17.3861300383
30
0.0000000000
10
11.9883416045
20
-17.3744827464
30
0.0000000000
10
11.9759204382
20
-17.3682820985
30
0.0000000000
11
12.6704091863
21
-17.3661484986
31
0.0000000000
11
12.6312525448
21
-17.3834566558
31
0.0000000000
11
12.5889340472
21
-17.3986682409
31
0.0000000000
11
12.5438969876
21
-17.4116239095
31
0.0000000000
11
12.4966131374
21
-17.4221879488
31
0.0000000000
11
12.4475778037
21
-17.4302496984
31
0.0000000000
11
12.3973046406
21
-17.4357247100
31
0.0000000000
11
12.3463202688
21
-17.4385556319
31
0.0000000000
11
12.2951587588
21
-17.4387128097
31
0.0000000000
11
12.2443560370
21
-17.4361945968
31
0.0000000000
11
12.1944442711
21
-17.4310273721
31
0.0000000000
11
12.1459462961
21
-17.4232652632
31
0.0000000000
11
12.0993701372
21
-17.4129895796
31
0.0000000000
11
12.0552036883
21
-17.4003079609
31
0.0000000000
11
12.0139096009
21
-17.3853532494
31
0.0000000000
11
11.9759204382
21
-17.3682820985
31
0.0000000000
0
SPLINE
5
2D8
100
AcDbEntity
8
0
100
AcDbSpline
62
9
6
CONTINUOUS
70
0
71
3
72
14
73
10
74
8
42
0.0000001000
43
0.0000001000
44
0.0000000001
12
0.1590926861
22
-9.8349704914
32
0.0000000000
13
1.3203401482
23
-9.7472384265
33
0.0000000000
40
0.0000000000
40
0.0000000000
40
0.0000000000
40
0.0000000000
40
0.1462545272
40
0.2913936989
40
0.4354059158
40
0.5782808816
40
0.7200096711
40
0.8605847415
40
1.0000000000
40
1.0000000000
40
1.0000000000
40
1.0000000000
10
11.9759204378
20
-17.3682820987
30
0.0000000000
10
11.9836764464
20
-17.8477517519
30
0.0000000000
10
12.0067483430
20
-18.8029298607
30
0.0000000000
10
12.0644169416
20
-20.2294136722
30
0.0000000000
10
12.1449953011
20
-21.6436937189
30
0.0000000000
10
12.2484555325
20
-23.0452724407
30
0.0000000000
10
12.3747621713
20
-24.4336647065
30
0.0000000000
10
12.5238707960
20
-25.8083810016
30
0.0000000000
10
12.6389233337
20
-26.7192194830
30
0.0000000000
10
12.7002818547
20
-27.1721907378
30
0.0000000000
11
11.9759204378
21
-17.3682820987
31
0.0000000000
11
12.0107470654
21
-18.8064576241
31
0.0000000000
11
12.0685049490
21
-20.2329149998
31
0.0000000000
11
12.1491740151
21
-21.6471573670
31
0.0000000000
11
12.2527262140
21
-23.0486920101
31
0.0000000000
11
12.3791255467
21
-24.4370307819
31
0.0000000000
11
12.5283280544
21
-25.8116899760
31
0.0000000000
11
12.7002818547
21
-27.1721907378
31
0.0000000000
0
SPLINE
5
2D9
100
AcDbEntity
8
0
100
AcDbSpline
62
9
6
CONTINUOUS
70
0
71
3
72
14
73
10
74
8
42
0.0000001000
43
0.0000001000
44
0.0000000001
12
0.1582397265
22
-9.7804105382
32
0.0000000000
13
1.3132407277
23
-9.6931351428
33
0.0000000000
40
0.0000000000
40
0.0000000000
40
0.0000000000
40
0.0000000000
40
0.1462535581
40
0.2913921913
40
0.4354041389
40
0.5782791187
40
0.7200082193
40
0.8605839119
40
1.0000000000
40
1.0000000000
40
1.0000000000
40
1.0000000000
10
12.6704091863
20
-17.3661484986
30
0.0000000000
10
12.6781235606
20
-17.8429551122
30
0.0000000000
10
12.7010715866
20
-18.7928293736
30
0.0000000000
10
12.7584305630
20
-20.2113935768
30
0.0000000000
10
12.8385763265
20
-21.6178245180
30
0.0000000000
10
12.9414811251
20
-23.0116268242
30
0.0000000000
10
13.0671096844
20
-24.3923180550
30
0.0000000000
10
13.2154177703
20
-25.7594110290
30
0.0000000000
10
13.3298524698
20
-26.6651988466
30
0.0000000000
10
13.3908814315
20
-27.1156585077
30
0.0000000000
11
12.6704091863
21
-17.3661484986
31
0.0000000000
11
12.7050487840
21
-18.7963361170
31
0.0000000000
11
12.7624965594
21
-20.2148745350
31
0.0000000000
11
12.8427325174
21
-21.6212679366
31
0.0000000000
11
12.9457287600
21
-23.0150263400
31
0.0000000000
11
13.0714494810
21
-24.3956643049
31
0.0000000000
11
13.2198509572
21
-25.7627008065
31
0.0000000000
11
13.3908814315
21
-27.1156585077
31
0.0000000000
0
SPLINE
5
2DA
100
AcDbEntity
8
0
100
AcDbSpline
62
9
6
CONTINUOUS
70
0
71
3
72
22
73
18
74
16
42
0.0000001000
43
0.0000001000
44
0.0000000001
12
-0.6046615012
22
-0.3899708983
32
0.0000000000
13
-0.6449695927
23
0.3189154386
33
0.0000000000
40
0.0000000000
40
0.0000000000
40
0.0000000000
40
0.0000000000
40
0.0625526002
40
0.1275513915
40
0.1946477515
40
0.2634407642
40
0.3334898475
40
0.4043263929
40
0.4754647522
40
0.5464128491
40
0.6166826529
40
0.6858007392
40
0.7533191686
40
0.8188269512
40
0.8819624165
40
0.9424268756
40
1.0000000000
40
1.0000000000
40
1.0000000000
40
1.0000000000
10
13.3908814315
20
-27.1156585077
30
0.0000000000
10
13.3782737151
20
-27.1237897390
30
0.0000000000
10
13.3518758257
20
-27.1393205569
30
0.0000000000
10
13.3099689883
20
-27.1599753181
30
0.0000000000
10
13.2653557383
20
-27.1782652716
30
0.0000000000
10
13.2185023663
20
-27.1939991418
30
0.0000000000
10
13.1698945400
20
-27.2070144206
30
0.0000000000
10
13.1200379331
20
-27.2171757117
30
0.0000000000
10
13.0694511747
20
-27.2243773739
30
0.0000000000
10
13.0186607113
20
-27.2285444541
30
0.0000000000
10
12.9681949902
20
-27.2296335746
30
0.0000000000
10
12.9185788310
20
-27.2276333468
30
0.0000000000
10
12.8703275527
20
-27.2225642721
30
0.0000000000
10
12.8239420634
20
-27.2144786013
30
0.0000000000
10
12.7799011140
20
-27.2034582031
30
0.0000000000
10
12.7386645958
20
-27.1896171707
30
0.0000000000
10
12.7126595207
20
-27.1783110382
30
0.0000000000
10
12.7002818825
20
-27.1721907188
30
0.0000000000
11
13.3908814315
21
-27.1156585077
31
0.0000000000
11
13.3521263392
21
-27.1385426885
31
0.0000000000
11
13.3102036026
21
-27.1592708101
31
0.0000000000
11
13.2655525894
21
-27.1776256331
31
0.0000000000
11
13.2186412609
21
-27.1934147911
31
0.0000000000
11
13.1699612676
21
-27.2064728074
31
0.0000000000
11
13.1200227961
21
-27.2166628282
31
0.0000000000
11
13.0693492225
21
-27.2238780581
31
0.0000000000
11
13.0184716271
21
-27.2280428783
31
0.0000000000
11
12.9679232285
21
-27.2291136398
31
0.0000000000
11
12.9182337950
21
-27.2270791206
31
0.0000000000
11
12.8699240926
21
-27.2219606432
31
0.0000000000
11
12.8235004274
21
-27.2138118515
31
0.0000000000
11
12.7794493388
21
-27.2027181482
31
0.0000000000
11
12.7382325006
21
-27.1887957999
31
0.0000000000
11
12.7002818825
21
-27.1721907188
31
0.0000000000
0
SPLINE
5
2DB
100
AcDbEntity
8
0
100
AcDbSpline
62
9
6
CONTINUOUS
70
0
71
3
72
16
73
12
74
10
42
0.0000001000
43
0.0000001000
44
0.0000000001
12
0.0674426649
22
-0.5057509175
32
0.0000000000
13
0.4566990764
23
-0.2284100474
33
0.0000000000
40
0.0000000000
40
0.0000000000
40
0.0000000000
40
0.0000000000
40
0.1333407514
40
0.2612880100
40
0.3839834143
40
0.5017400815
40
0.6150706759
40
0.7246857621
40
0.8314819772
40
0.9365139326
40
1.0000000000
40
1.0000000000
40
1.0000000000
40
1.0000000000
10
12.7002818547
20
-27.1721907378
30
0.0000000000
10
12.7032794733
20
-27.1946698069
30
0.0000000000
10
12.7109008860
20
-27.2385123923
30
0.0000000000
10
12.7276919930
20
-27.3017133925
30
0.0000000000
10
12.7495003355
20
-27.3605621093
30
0.0000000000
10
12.7761828490
20
-27.4146222648
30
0.0000000000
10
12.8075631504
20
-27.4634913058
30
0.0000000000
10
12.8434286774
20
-27.5067940983
30
0.0000000000
10
12.8835266524
20
-27.5441873920
30
0.0000000000
10
12.9218596802
20
-27.5713298271
30
0.0000000000
10
12.9469792592
20
-27.5852293255
30
0.0000000000
10
12.9566439353
20
-27.5900629441
30
0.0000000000
11
12.7002818547
21
-27.1721907378
31
0.0000000000
11
12.7120489719
21
-27.2391995682
31
0.0000000000
11
12.7289319829
21
-27.3022609466
31
0.0000000000
11
12.7508083867
21
-27.3609168133
31
0.0000000000
11
12.7775178134
21
-27.4147363425
31
0.0000000000
11
12.8088653589
21
-27.4633264253
31
0.0000000000
11
12.8446222406
21
-27.5063317977
31
0.0000000000
11
12.8845269245
21
-27.5434373331
31
0.0000000000
11
12.9282876370
21
-27.5743713460
31
0.0000000000
11
12.9566439353
21
-27.5900629441
31
0.0000000000
0
SPLINE
5
2DC
100
AcDbEntity
8
0
100
AcDbSpline
62
9
6
CONTINUOUS
70
0
71
3
72
23
73
19
74
17
42
0.0000001000
43
0.0000001000
44
0.0000000001
12
0.0639146498
22
-0.4717263451
32
0.0000000000
13
0.4413430296
23
0.1784016741
33
0.0000000000
40
0.0000000000
40
0.0000000000
40
0.0000000000
40
0.0000000000
40
0.0715824589
40
0.1403805947
40
0.2064611017
40
0.2700019701
40
0.3312847826
40
0.3906922850
40
0.4487005684
40
0.5058630620
40
0.5627833973
40
0.6200800273
40
0.6783484031
40
0.7381271916
40
0.7998741925
40
0.8639510075
40
0.9306146420
40
1.0000000000
40
1.0000000000
40
1.0000000000
40
1.0000000000
10
13.3908814315
20
-27.1156585077
30
0.0000000000
10
13.3924064874
20
-27.1269142850
30
0.0000000000
10
13.3962856650
20
-27.1488813615
30
0.0000000000
10
13.4048273712
20
-27.1805555010
30
0.0000000000
10
13.4159224006
20
-27.2100773833
30
0.0000000000
10
13.4294969260
20
-27.2372242057
30
0.0000000000
10
13.4454604608
20
-27.2617934173
30
0.0000000000
10
13.4637039206
20
-27.2835962494
30
0.0000000000
10
13.4840976437
20
-27.3024602937
30
0.0000000000
10
13.5064899728
20
-27.3182327969
30
0.0000000000
10
13.5307077538
20
-27.3307856952
30
0.0000000000
10
13.5565594573
20
-27.3400201956
30
0.0000000000
10
13.5838403712
20
-27.3458692589
30
0.0000000000
10
13.6123382849
20
-27.3482970617
30
0.0000000000
10
13.6418371482
20
-27.3472964857
30
0.0000000000
10
13.6721194815
20
-27.3428853591
30
0.0000000000
10
13.7029587742
20
-27.3351076550
30
0.0000000000
10
13.7233328485
20
-27.3278661356
30
0.0000000000
10
13.7335404299
20
-27.3237399809
30
0.0000000000
11
13.3908814315
21
-27.1156585077
31
0.0000000000
11
13.3968640828
21
-27.1492050833
31
0.0000000000
11
13.4054502218
21
-27.1808099697
31
0.0000000000
11
13.4165761060
21
-27.2102334486
31
0.0000000000
11
13.4301602289
21
-27.2372593559
31
0.0000000000
11
13.4461034472
21
-27.2616902704
31
0.0000000000
11
13.4642894098
21
-27.2833475401
31
0.0000000000
11
13.4845850917
21
-27.3020724401
31
0.0000000000
11
13.5068420379
21
-27.3177278131
31
0.0000000000
11
13.5308975889
21
-27.3301990783
31
0.0000000000
11
13.5565759525
21
-27.3393949030
31
0.0000000000
11
13.5836892907
21
-27.3452478329
31
0.0000000000
11
13.6120390386
21
-27.3477148949
31
0.0000000000
11
13.6414179345
21
-27.3467779915
31
0.0000000000
11
13.6716113491
21
-27.3424438123
31
0.0000000000
11
13.7023974576
21
-27.3347442578
31
0.0000000000
11
13.7335404299
21
-27.3237399809
31
0.0000000000
0
SPLINE
5
2DD
100
AcDbEntity
8
0
100
AcDbSpline
62
9
6
CONTINUOUS
70
0
71
3
72
16
73
12
74
10
42
0.0000001000
43
0.0000001000
44
0.0000000001
12
-0.0146221373
22
-0.3374025031
32
0.0000000000
13
-0.3134610182
23
-0.1267381627
33
0.0000000000
40
0.0000000000
40
0.0000000000
40
0.0000000000
40
0.0000000000
40
0.1339712048
40
0.2620410255
40
0.3839461128
40
0.4996716156
40
0.6094920792
40
0.7140069138
40
0.8141589315
40
0.9112192060
40
1.0000000000
40
1.0000000000
40
1.0000000000
40
1.0000000000
10
13.7335404299
20
-27.3237399809
30
0.0000000000
10
13.7328874481
20
-27.3388073875
30
0.0000000000
10
13.7304208092
20
-27.3682453421
30
0.0000000000
10
13.7229642945
20
-27.4108810745
30
0.0000000000
10
13.7119016743
20
-27.4506117020
30
0.0000000000
10
13.6973393806
20
-27.4870059450
30
0.0000000000
10
13.6794160113
20
-27.5196684656
30
0.0000000000
10
13.6583027239
20
-27.5482333161
30
0.0000000000
10
13.6342074803
20
-27.5723646028
30
0.0000000000
10
13.6079998897
20
-27.5913145192
30
0.0000000000
10
13.5892050176
20
-27.6007087895
30
0.0000000000
10
13.5799285782
20
-27.6044594278
30
0.0000000000
11
13.7335404299
21
-27.3237399809
31
0.0000000000
11
13.7296797992
21
-27.3688196180
31
0.0000000000
11
13.7221339854
21
-27.4114079356
31
0.0000000000
11
13.7109854699
21
-27.4510394108
31
0.0000000000
11
13.6963561145
21
-27.4872808410
31
0.0000000000
11
13.6784058294
21
-27.5197360798
31
0.0000000000
11
13.6573308249
21
-27.5480503663
31
0.0000000000
11
13.6333614670
21
-27.5719142036
31
0.0000000000
11
13.6067597593
21
-27.5910667418
31
0.0000000000
11
13.5799285782
21
-27.6044594278
31
0.0000000000
0
SPLINE
5
2DE
100
AcDbEntity
8
0
100
AcDbSpline
62
9
6
CONTINUOUS
70
0
71
3
72
10
73
6
74
4
42
0.0000001000
43
0.0000001000
44
0.0000000001
12
-0.1184927087
22
7.8492046519
32
0.0000000000
13
-0.0049228355
23
7.8500974488
33
0.0000000000
40
0.0000000000
40
0.0000000000
40
0.0000000000
40
0.0000000000
40
0.3324686474
40
0.6658003023
40
1.0000000000
40
1.0000000000
40
1.0000000000
40
1.0000000000
10
-18.6718636524
20
-2.0443900536
30
0.0000000000
10
-18.6849953559
20
-1.1745185690
30
0.0000000000
10
-18.7070539013
20
0.5675493994
30
0.0000000000
10
-18.7275336321
20
3.1841780473
30
0.0000000000
10
-18.7328029314
20
4.9309072040
30
0.0000000000
10
-18.7333513348
20
5.8054072688
30
0.0000000000
11
-18.6718636524
21
-2.0443900536
31
0.0000000000
11
-18.7049249810
21
0.5653123279
31
0.0000000000
11
-18.7254209231
21
3.1819185447
31
0.0000000000
11
-18.7333513348
21
5.8054072688
31
0.0000000000
0
SPLINE
5
2DF
100
AcDbEntity
8
0
100
AcDbSpline
62
9
6
CONTINUOUS
70
0
71
3
72
14
73
10
74
8
42
0.0000001000
43
0.0000001000
44
0.0000000001
12
-1.2351234471
22
9.7297722745
32
0.0000000000
13
-0.1480682793
23
9.8067361659
33
0.0000000000
40
0.0000000000
40
0.0000000000
40
0.0000000000
40
0.0000000000
40
0.1390919771
40
0.2794596784
40
0.4210921229
40
0.5639768728
40
0.7081001078
40
0.8534466426
40
1.0000000000
40
1.0000000000
40
1.0000000000
40
1.0000000000
10
-17.9961232429
20
-11.8239881890
30
0.0000000000
10
-18.0533884970
20
-11.3728771017
30
0.0000000000
10
-18.1607562330
20
-10.4655236417
30
0.0000000000
10
-18.2998442259
20
-9.0958388194
30
0.0000000000
10
-18.4176617952
20
-7.7117132284
30
0.0000000000
10
-18.5141675459
20
-6.3136341547
30
0.0000000000
10
-18.5893283316
20
-4.9020858099
30
0.0000000000
10
-18.6431181108
20
-3.4775641030
30
0.0000000000
10
-18.6646303513
20
-2.5234600903
30
0.0000000000
10
-18.6718636524
20
-2.0443900536
30
0.0000000000
11
-17.9961232429
21
-11.8239881890
31
0.0000000000
11
-18.1565350604
21
-10.4692584186
31
0.0000000000
11
-18.2957227109
21
-9.0996066531
31
0.0000000000
11
-18.4136377941
21
-7.7155100060
31
0.0000000000
11
-18.5102393023
21
-6.3174507083
31
0.0000000000
11
-18.5854936525
21
-4.9059156991
31
0.0000000000
11
-18.6393746779
21
-3.4813967525
31
0.0000000000
11
-18.6718636524
21
-2.0443900536
31
0.0000000000
0
SPLINE
5
2E0
100
AcDbEntity
8
0
100
AcDbSpline
62
7
6
CONTINUOUS
70
0
71
3
72
10
73
6
74
4
42
0.0000001000
43
0.0000001000
44
0.0000000001
12
0.0498833270
22
-0.0223069922
32
0.0000000000
13
0.0488749278
23
-0.0244374639
33
0.0000000000
40
0.0000000000
40
0.0000000000
40
0.0000000000
40
0.0000000000
40
0.3557798487
40
0.6883912018
40
1.0000000000
40
1.0000000000
40
1.0000000000
40
1.0000000000
10
2.6111012517
20
-4.5545477242
30
0.0000000000
10
2.6170170793
20
-4.5571931837
30
0.0000000000
10
2.6284331519
20
-4.5623801586
30
0.0000000000
10
2.6449134864
20
-4.5701383964
30
0.0000000000
10
2.6554546717
20
-4.5752948827
30
0.0000000000
10
2.6605312909
20
-4.5778331923
30
0.0000000000
11
2.6111012517
21
-4.5545477242
31
0.0000000000
11
2.6287983649
21
-4.5625957938
31
0.0000000000
11
2.6452394156
21
-4.5703435828
31
0.0000000000
11
2.6605312909
21
-4.5778331923
31
0.0000000000
0
SPLINE
5
2E1
100
AcDbEntity
8
0
100
AcDbSpline
62
7
6
CONTINUOUS
70
0
71
3
72
10
73
6
74
4
42
0.0000001000
43
0.0000001000
44
0.0000000001
12
0.0038194220
22
0.0583077270
32
0.0000000000
13
0.0000000000
23
0.0584326879
33
0.0000000000
40
0.0000000000
40
0.0000000000
40
0.0000000000
40
0.0000000000
40
0.3510198703
40
0.6836721356
40
1.0000000000
40
1.0000000000
40
1.0000000000
40
1.0000000000
10
-13.5862099448
20
3.9321206142
30
0.0000000000
10
-13.5857630471
20
3.9389430044
30
0.0000000000
10
-13.5850191450
20
3.9522395657
30
0.0000000000
10
-13.5843373620
20
3.9717065440
30
0.0000000000
10
-13.5841789408
20
3.9843475016
30
0.0000000000
10
-13.5841789408
20
3.9905087974
30
0.0000000000
11
-13.5862099448
21
3.9321206142
31
0.0000000000
11
-13.5850723874
21
3.9526000795
31
0.0000000000
11
-13.5844008602
21
3.9720262423
31
0.0000000000
11
-13.5841789408
21
3.9905087974
31
0.0000000000
0
SPLINE
5
2E2
100
AcDbEntity
8
0
100
AcDbSpline
62
7
6
CONTINUOUS
70
0
71
3
72
15
73
11
74
9
42
0.0000001000
43
0.0000001000
44
0.0000000001
12
0.0000000000
22
-0.1586169949
32
0.0000000000
13
-0.1426622111
23
-0.0698199648
33
0.0000000000
40
0.0000000000
40
0.0000000000
40
0.0000000000
40
0.0000000000
40
0.1490122659
40
0.2913333667
40
0.4257186799
40
0.5521552284
40
0.6725304344
40
0.7873886653
40
0.8976362187
40
1.0000000000
40
1.0000000000
40
1.0000000000
40
1.0000000000
10
17.3417902731
20
-6.6447582200
30
0.0000000000
10
17.3417902731
20
-6.6526368459
30
0.0000000000
10
17.3411054310
20
-6.6680523870
30
0.0000000000
10
17.3378501329
20
-6.6903656640
30
0.0000000000
10
17.3324193726
20
-6.7110293280
30
0.0000000000
10
17.3248763330
20
-6.7297826939
30
0.0000000000
10
17.3152867541
20
-6.7464085724
30
0.0000000000
10
17.3037412672
20
-6.7606705303
30
0.0000000000
10
17.2906405219
20
-6.7721285430
30
0.0000000000
10
17.2809610744
20
-6.7779586691
30
0.0000000000
10
17.2760932599
20
-6.7803410143
30
0.0000000000
11
17.3417902731
21
-6.6447582200
31
0.0000000000
11
17.3406860642
21
-6.6683682908
31
0.0000000000
11
17.3373630927
21
-6.6906969261
31
0.0000000000
11
17.3318749224
21
-6.7112940881
31
0.0000000000
11
17.3243206823
21
-6.7298719216
31
0.0000000000
11
17.3147152004
21
-6.7463733912
31
0.0000000000
11
17.3032011274
21
-6.7604921262
31
0.0000000000
11
17.2900095291
21
-6.7719717450
31
0.0000000000
11
17.2760932599
21
-6.7803410143
31
0.0000000000
0
SPLINE
5
2E3
100
AcDbEntity
8
0
100
AcDbSpline
62
7
6
CONTINUOUS
70
0
71
3
72
15
73
11
74
9
42
0.0000001000
43
0.0000001000
44
0.0000000001
12
0.0000310888
22
-0.2845827006
32
0.0000000000
13
-0.2405145934
23
-0.1513779796
33
0.0000000000
40
0.0000000000
40
0.0000000000
40
0.0000000000
40
0.0000000000
40
0.0486446224
40
0.1642317390
40
0.2837830498
40
0.4090050991
40
0.5421049955
40
0.6849413139
40
0.8377418957
40
1.0000000000
40
1.0000000000
40
1.0000000000
40
1.0000000000
10
18.9156798073
20
1.9818725046
30
0.0000000000
10
18.9156803114
20
1.9772580319
30
0.0000000000
10
18.9150814836
20
1.9616790052
30
0.0000000000
10
18.9105358353
20
1.9350373099
30
0.0000000000
10
18.8990012442
20
1.9027398281
30
0.0000000000
10
18.8817216210
20
1.8712389394
30
0.0000000000
10
18.8588838807
20
1.8407282839
30
0.0000000000
10
18.8306575093
20
1.8113997575
30
0.0000000000
10
18.7973276886
20
1.7835290343
30
0.0000000000
10
18.7726922348
20
1.7666016284
30
0.0000000000
10
18.7596837542
20
1.7584141937
30
0.0000000000
11
18.9156798073
21
1.9818725046
31
0.0000000000
11
18.9151473152
21
1.9680432851
31
0.0000000000
11
18.9096907696
21
1.9356512373
31
0.0000000000
11
18.8983816257
21
1.9036137051
31
0.0000000000
11
18.8814019524
21
1.8723392262
31
0.0000000000
11
18.8588663495
21
1.8419599169
31
0.0000000000
11
18.8308336777
21
1.8126017088
31
0.0000000000
11
18.7976156206
21
1.7846337553
31
0.0000000000
11
18.7596837542
21
1.7584141937
31
0.0000000000
0
SPLINE
5
2E4
100
AcDbEntity
8
0
100
AcDbSpline
62
7
6
CONTINUOUS
70
0
71
3
72
16
73
12
74
10
42
0.0000001000
43
0.0000001000
44
0.0000000001
12
-0.0000394897
22
0.3369029784
32
0.0000000000
13
-0.3008987329
23
0.1504493665
33
0.0000000000
40
0.0000000000
40
0.0000000000
40
0.0000000000
40
0.0000000000
40
0.0539002793
40
0.1494718344
40
0.2492072381
40
0.3546330038
40
0.4666881160
40
0.5867354442
40
0.7159040561
40
0.8539388613
40
1.0000000000
40
1.0000000000
40
1.0000000000
40
1.0000000000
10
18.9156797062
20
5.5592840595
30
0.0000000000
10
18.9156789967
20
5.5653371144
30
0.0000000000
10
18.9147914015
20
5.5821232629
30
0.0000000000
10
18.9092440008
20
5.6096680786
30
0.0000000000
10
18.8968738767
20
5.6412105652
30
0.0000000000
10
18.8787475542
20
5.6719711905
30
0.0000000000
10
18.8551152121
20
5.7016727083
30
0.0000000000
10
18.8261802359
20
5.7301502517
30
0.0000000000
10
18.7921371744
20
5.7572243689
30
0.0000000000
10
18.7533169464
20
5.7826368734
30
0.0000000000
10
18.7253061985
20
5.7978888674
30
0.0000000000
10
18.7106563280
20
5.8052138027
30
0.0000000000
11
18.9156797062
21
5.5592840595
31
0.0000000000
11
18.9147216088
21
5.5774089823
31
0.0000000000
11
18.9084540509
21
5.6089438820
31
0.0000000000
11
18.8963317719
21
5.6402299768
31
0.0000000000
11
18.8784684246
21
5.6708697458
31
0.0000000000
11
18.8551296863
21
5.7004732716
31
0.0000000000
11
18.8264587206
21
5.7289158869
31
0.0000000000
11
18.7925403312
21
5.7560786475
31
0.0000000000
11
18.7537583330
21
5.7816197863
31
0.0000000000
11
18.7106563280
21
5.8052138027
31
0.0000000000
0
SPLINE
5
2E5
100
AcDbEntity
8
0
100
AcDbSpline
62
7
6
CONTINUOUS
70
0
71
3
72
15
73
11
74
9
42
0.0000001000
43
0.0000001000
44
0.0000000001
12
0.2104886928
22
0.1187733918
32
0.0000000000
13
0.2159430699
23
-0.1079715349
33
0.0000000000
40
0.0000000000
40
0.0000000000
40
0.0000000000
40
0.0000000000
40
0.0353229671
40
0.1600319998
40
0.2866181198
40
0.4168912916
40
0.5523816586
40
0.6942589918
40
0.8433240829
40
1.0000000000
40
1.0000000000
40
1.0000000000
40
1.0000000000
10
-14.1440375366
20
28.0296522203
30
0.0000000000
10
-14.1415591749
20
28.0310506965
30
0.0000000000
10
-14.1301873660
20
28.0371318597
30
0.0000000000
10
-14.1087390895
20
28.0458853092
30
0.0000000000
10
-14.0787089522
20
28.0528707013
30
0.0000000000
10
-14.0471138331
20
28.0553028209
30
0.0000000000
10
-14.0142763855
20
28.0531841910
30
0.0000000000
10
-13.9805144469
20
28.0465610820
30
0.0000000000
10
-13.9461499657
20
28.0355194922
30
0.0000000000
10
-13.9236071482
20
28.0255376935
30
0.0000000000
10
-13.9123294554
20
28.0198988471
30
0.0000000000
11
-14.1440375366
21
28.0296522203
31
0.0000000000
11
-14.1365096895
21
28.0336770619
31
0.0000000000
11
-14.1086400702
21
28.0450708719
31
0.0000000000
11
-14.0788852095
21
28.0520478381
31
0.0000000000
11
-14.0475322465
21
28.0545427460
31
0.0000000000
11
-14.0148823482
21
28.0525334194
31
0.0000000000
11
-13.9812496461
21
28.0460406341
31
0.0000000000
11
-13.9469552081
21
28.0351272335
31
0.0000000000
11
-13.9123294554
21
28.0198988471
31
0.0000000000
0
SPLINE
5
2E6
100
AcDbEntity
8
0
100
AcDbSpline
62
7
6
CONTINUOUS
70
0
71
3
72
14
73
10
74
8
42
0.0000001000
43
0.0000001000
44
0.0000000001
12
-0.0883080787
22
0.0441540394
32
0.0000000000
13
0.0000005074
23
0.0989485797
33
0.0000000000
40
0.0000000000
40
0.0000000000
40
0.0000000000
40
0.0000000000
40
0.1858445057
40
0.3588727360
40
0.5180416621
40
0.6648578285
40
0.8029532372
40
0.9348803873
40
1.0000000000
40
1.0000000000
40
1.0000000000
40
1.0000000000
10
6.3462798256
20
16.0846104081
30
0.0000000000
10
6.3408093019
20
16.0873456699
30
0.0000000000
10
6.3304933105
20
16.0931523468
30
0.0000000000
10
6.3166878118
20
16.1032325392
30
0.0000000000
10
6.3053212907
20
16.1142419840
30
0.0000000000
10
6.2965723162
20
16.1260431250
30
0.0000000000
10
6.2906039229
20
16.1385018919
30
0.0000000000
10
6.2880696111
20
16.1493327065
30
0.0000000000
10
6.2877026522
20
16.1558317048
30
0.0000000000
10
6.2877026632
20
16.1579795359
30
0.0000000000
11
6.3462798256
21
16.0846104081
31
0.0000000000
11
6.3303266341
21
16.0936751899
31
0.0000000000
11
6.3165816635
21
16.1038199316
31
0.0000000000
11
6.3053616548
21
16.1148231984
31
0.0000000000
11
6.2968077637
21
16.1265256220
31
0.0000000000
11
6.2909927702
21
16.1388577572
31
0.0000000000
11
6.2880678548
21
16.1515504632
31
0.0000000000
11
6.2877026632
21
16.1579795359
31
0.0000000000
0
SPLINE
5
2E7
100
AcDbEntity
8
0
100
AcDbSpline
62
7
6
CONTINUOUS
70
0
71
3
72
20
73
16
74
14
42
0.0000001000
43
0.0000001000
44
0.0000000001
12
-0.2546964089
22
-0.1436961886
32
0.0000000000
13
-0.2615627731
23
0.1307813865
33
0.0000000000
40
0.0000000000
40
0.0000000000
40
0.0000000000
40
0.0000000000
40
0.0690255982
40
0.1423849379
40
0.2189643397
40
0.2981208369
40
0.3797108898
40
0.4622891238
40
0.5446376868
40
0.6268557719
40
0.7077054656
40
0.7857822876
40
0.8610127653
40
0.9327710756
40
1.0000000000
40
1.0000000000
40
1.0000000000
40
1.0000000000
10
9.5282603410
20
14.6441188003
30
0.0000000000
10
9.5224001503
20
14.6408125618
30
0.0000000000
10
9.5099662386
20
14.6345932803
30
0.0000000000
10
9.4901082613
20
14.6267079486
30
0.0000000000
10
9.4687561606
20
14.6200942244
30
0.0000000000
10
9.4462070847
20
14.6148425240
30
0.0000000000
10
9.4227782815
20
14.6110330836
30
0.0000000000
10
9.3988419810
20
14.6087301981
30
0.0000000000
10
9.3747466306
20
14.6079598265
30
0.0000000000
10
9.3508193365
20
14.6087317440
30
0.0000000000
10
9.3274085574
20
14.6110406999
30
0.0000000000
10
9.3048832460
20
14.6148448395
30
0.0000000000
10
9.2835562016
20
14.6200840395
30
0.0000000000
10
9.2637216271
20
14.6266872513
30
0.0000000000
10
9.2512791564
20
14.6321107427
30
0.0000000000
10
9.2454176285
20
14.6350415066
30
0.0000000000
11
9.5282603410
21
14.6441188003
31
0.0000000000
11
9.5102321053
21
14.6350391446
31
0.0000000000
11
9.4903101515
21
14.6270802876
31
0.0000000000
11
9.4689281459
21
14.6204224336
31
0.0000000000
11
9.4463886829
21
14.6151486811
31
0.0000000000
11
9.4228405078
21
14.6113045873
31
0.0000000000
11
9.3988032737
21
14.6089854192
31
0.0000000000
11
9.3747338312
21
14.6082174750
31
0.0000000000
11
9.3507031192
21
14.6090025827
31
0.0000000000
11
9.3271757388
21
14.6113416344
31
0.0000000000
11
9.3046666240
21
14.6151707138
31
0.0000000000
11
9.2833106772
21
14.6204554247
31
0.0000000000
11
9.2634159247
21
14.6271305446
31
0.0000000000
11
9.2454176285
21
14.6350415066
31
0.0000000000
0
SPLINE
5
2E8
100
AcDbEntity
8
0
100
AcDbSpline
62
7
6
CONTINUOUS
70
0
71
3
72
20
73
16
74
14
42
0.0000001000
43
0.0000001000
44
0.0000000001
12
-0.2546964089
22
-0.1436961886
32
0.0000000000
13
-0.2615627731
23
0.1307813865
33
0.0000000000
40
0.0000000000
40
0.0000000000
40
0.0000000000
40
0.0000000000
40
0.0690255982
40
0.1423849379
40
0.2189643397
40
0.2981208369
40
0.3797108898
40
0.4622891238
40
0.5446376868
40
0.6268557719
40
0.7077054656
40
0.7857822876
40
0.8610127653
40
0.9327710756
40
1.0000000000
40
1.0000000000
40
1.0000000000
40
1.0000000000
10
-6.3816422357
20
22.5990700886
30
0.0000000000
10
-6.3875024264
20
22.5957638502
30
0.0000000000
10
-6.3999363381
20
22.5895445687
30
0.0000000000
10
-6.4197943154
20
22.5816592369
30
0.0000000000
10
-6.4411464161
20
22.5750455128
30
0.0000000000
10
-6.4636954920
20
22.5697938123
30
0.0000000000
10
-6.4871242952
20
22.5659843720
30
0.0000000000
10
-6.5110605957
20
22.5636814864
30
0.0000000000
10
-6.5351559461
20
22.5629111148
30
0.0000000000
10
-6.5590832402
20
22.5636830324
30
0.0000000000
10
-6.5824940193
20
22.5659919882
30
0.0000000000
10
-6.6050193307
20
22.5697961279
30
0.0000000000
10
-6.6263463751
20
22.5750353278
30
0.0000000000
10
-6.6461809496
20
22.5816385397
30
0.0000000000
10
-6.6586234202
20
22.5870620310
30
0.0000000000
10
-6.6644849482
20
22.5899927950
30
0.0000000000
11
-6.3816422357
21
22.5990700886
31
0.0000000000
11
-6.3996704713
21
22.5899904330
31
0.0000000000
11
-6.4195924252
21
22.5820315759
31
0.0000000000
11
-6.4409744308
21
22.5753737219
31
0.0000000000
11
-6.4635138938
21
22.5700999695
31
0.0000000000
11
-6.4870620689
21
22.5662558756
31
0.0000000000
11
-6.5110993030
21
22.5639367075
31
0.0000000000
11
-6.5351687455
21
22.5631687634
31
0.0000000000
11
-6.5591994575
21
22.5639538710
31
0.0000000000
11
-6.5827268379
21
22.5662929227
31
0.0000000000
11
-6.6052359527
21
22.5701220022
31
0.0000000000
11
-6.6265918995
21
22.5754067131
31
0.0000000000
11
-6.6464866519
21
22.5820818330
31
0.0000000000
11
-6.6644849482
21
22.5899927950
31
0.0000000000
0
SPLINE
5
2E9
100
AcDbEntity
8
0
100
AcDbSpline
62
7
6
CONTINUOUS
70
0
71
3
72
14
73
10
74
8
42
0.0000001000
43
0.0000001000
44
0.0000000001
12
-0.0883080787
22
0.0441540394
32
0.0000000000
13
0.0000005074
23
0.0989485797
33
0.0000000000
40
0.0000000000
40
0.0000000000
40
0.0000000000
40
0.0000000000
40
0.1858445057
40
0.3588727360
40
0.5180416621
40
0.6648578285
40
0.8029532372
40
0.9348803873
40
1.0000000000
40
1.0000000000
40
1.0000000000
40
1.0000000000
10
-9.5636227511
20
24.0395616964
30
0.0000000000
10
-9.5690932748
20
24.0422969583
30
0.0000000000
10
-9.5794092662
20
24.0481036351
30
0.0000000000
10
-9.5932147649
20
24.0581838276
30
0.0000000000
10
-9.6045812860
20
24.0691932724
30
0.0000000000
10
-9.6133302605
20
24.0809944133
30
0.0000000000
10
-9.6192986538
20
24.0934531802
30
0.0000000000
10
-9.6218329656
20
24.1042839949
30
0.0000000000
10
-9.6221999245
20
24.1107829932
30
0.0000000000
10
-9.6221999135
20
24.1129308242
30
0.0000000000
11
-9.5636227511
21
24.0395616964
31
0.0000000000
11
-9.5795759426
21
24.0486264783
31
0.0000000000
11
-9.5933209132
21
24.0587712199
31
0.0000000000
11
-9.6045409219
21
24.0697744868
31
0.0000000000
11
-9.6130948130
21
24.0814769103
31
0.0000000000
11
-9.6189098065
21
24.0938090455
31
0.0000000000
11
-9.6218347219
21
24.1065017515
31
0.0000000000
11
-9.6221999135
21
24.1129308242
31
0.0000000000
0
SPLINE
5
2EA
100
AcDbEntity
8
0
100
AcDbSpline
62
7
6
CONTINUOUS
70
0
71
3
72
23
73
19
74
17
42
0.0000001000
43
0.0000001000
44
0.0000000001
12
0.6590293427
22
-0.3295146714
32
0.0000000000
13
-0.0000000000
23
-0.7368172048
33
0.0000000000
40
0.0000000000
40
0.0000000000
40
0.0000000000
40
0.0000000000
40
0.0538651871
40
0.1101972075
40
0.1688512193
40
0.2296202518
40
0.2922378073
40
0.3563939263
40
0.4217412955
40
0.4879093266
40
0.5545032484
40
0.6211290129
40
0.6873778417
40
0.7528638649
40
0.8172018574
40
0.8800436731
40
0.9410678659
40
1.0000000000
40
1.0000000000
40
1.0000000000
40
1.0000000000
10
16.9882368825
20
12.5696156782
30
0.0000000000
10
17.0000697954
20
12.5636992217
30
0.0000000000
10
17.0236936443
20
12.5503991257
30
0.0000000000
10
17.0579537862
20
12.5269509784
30
0.0000000000
10
17.0915412615
20
12.4997664116
30
0.0000000000
10
17.1241352900
20
12.4691060416
30
0.0000000000
10
17.1554295463
20
12.4352594172
30
0.0000000000
10
17.1851262076
20
12.3985480016
30
0.0000000000
10
17.2129424765
20
12.3593201660
30
0.0000000000
10
17.2386117032
20
12.3179499472
30
0.0000000000
10
17.2618880700
20
12.2748311160
30
0.0000000000
10
17.2825469696
20
12.2303768958
30
0.0000000000
10
17.3003899247
20
12.1850112450
30
0.0000000000
10
17.3152440442
20
12.1391700814
30
0.0000000000
10
17.3269660798
20
12.0932915002
30
0.0000000000
10
17.3354421029
20
12.0478148363
30
0.0000000000
10
17.3405894974
20
12.0031783981
30
0.0000000000
10
17.3417902731
20
11.9737061079
30
0.0000000000
10
17.3417902731
20
11.9592320378
30
0.0000000000
11
16.9882368825
21
12.5696156782
31
0.0000000000
11
17.0228626352
21
12.5502183118
31
0.0000000000
11
17.0571570732
21
12.5268372744
31
0.0000000000
11
17.0907897752
21
12.4996973577
31
0.0000000000
11
17.1234396736
21
12.4690567859
31
0.0000000000
11
17.1547926366
21
12.4352089151
31
0.0000000000
11
17.1845474973
21
12.3984770881
31
0.0000000000
11
17.2124171166
21
12.3592136589
31
0.0000000000
11
17.2381333545
21
12.3177938251
31
0.0000000000
11
17.2614459534
21
12.2746180571
31
0.0000000000
11
17.2821310797
21
12.2300978059
31
0.0000000000
11
17.2999856524
21
12.1846670869
31
0.0000000000
11
17.3148382739
21
12.1387586924
31
0.0000000000
11
17.3265426995
21
12.0928209882
31
0.0000000000
11
17.3349858751
21
12.0472943564
31
0.0000000000
11
17.3400849921
21
12.0026207502
31
0.0000000000
11
17.3417902731
21
11.9592320378
31
0.0000000000
0
SPLINE
5
2EB
100
AcDbEntity
8
0
100
AcDbSpline
62
9
6
CONTINUOUS
70
0
71
3
72
15
73
11
74
9
42
0.0000001000
43
0.0000001000
44
0.0000000001
12
-0.1414838791
22
0.0707547871
32
0.0000000000
13
0.0001025823
23
0.1579786794
33
0.0000000000
40
0.0000000000
40
0.0000000000
40
0.0000000000
40
0.0000000000
40
0.1023524578
40
0.2127756057
40
0.3272586109
40
0.4473948855
40
0.5743068297
40
0.7086389984
40
0.8505946386
40
1.0000000000
40
1.0000000000
40
1.0000000000
40
1.0000000000
10
1.1787747800
20
-3.5646046723
30
0.0000000000
10
1.1739477057
20
-3.5621906969
30
0.0000000000
10
1.1643483213
20
-3.5563007190
30
0.0000000000
10
1.1513920783
20
-3.5448031018
30
0.0000000000
10
1.1399889504
20
-3.5305537488
30
0.0000000000
10
1.1305067680
20
-3.5139653694
30
0.0000000000
10
1.1230453719
20
-3.4952568885
30
0.0000000000
10
1.1176807057
20
-3.4746625375
30
0.0000000000
10
1.1144670344
20
-3.4524369987
30
0.0000000000
10
1.1137964143
20
-3.4370816099
30
0.0000000000
10
1.1138015231
20
-3.4292139893
30
0.0000000000
11
1.1787747800
21
-3.5646046723
31
0.0000000000
11
1.1649844466
21
-3.5561572545
31
0.0000000000
11
1.1519074694
21
-3.5446115418
31
0.0000000000
11
1.1405567987
21
-3.5305310144
31
0.0000000000
11
1.1310737744
21
-3.5140910113
31
0.0000000000
11
1.1235764295
21
-3.4954961818
31
0.0000000000
11
1.1181580760
21
-3.4749779282
31
0.0000000000
11
1.1148862131
21
-3.4527919189
31
0.0000000000
11
1.1138015231
21
-3.4292139893
31
0.0000000000
0
SPLINE
5
2EC
100
AcDbEntity
8
0
100
AcDbSpline
62
9
6
CONTINUOUS
70
0
71
3
72
25
73
21
74
19
42
0.0000001000
43
0.0000001000
44
0.0000000001
12
0.0009496299
22
0.7683537188
32
0.0000000000
13
0.6872396032
23
-0.3436132517
33
0.0000000000
40
0.0000000000
40
0.0000000000
40
0.0000000000
40
0.0000000000
40
0.0670641047
40
0.1320578778
40
0.1946428259
40
0.2546186750
40
0.3119139109
40
0.3666977524
40
0.4193444644
40
0.4702868027
40
0.5199847143
40
0.5689731542
40
0.6178340775
40
0.6671583024
40
0.7175643919
40
0.7696458567
40
0.8238202173
40
0.8802741609
40
0.9390443599
40
1.0000000000
40
1.0000000000
40
1.0000000000
40
1.0000000000
10
1.1140877110
20
-3.1237695162
30
0.0000000000
10
1.1141089397
20
-3.1065931981
30
0.0000000000
10
1.1153221027
20
-3.0727572530
30
0.0000000000
10
1.1209013155
20
-3.0231680424
30
0.0000000000
10
1.1302249496
20
-2.9759834529
30
0.0000000000
10
1.1432342763
20
-2.9317222946
30
0.0000000000
10
1.1598177534
20
-2.8908102529
30
0.0000000000
10
1.1798412978
20
-2.8535737610
30
0.0000000000
10
1.2031717040
20
-2.8202691402
30
0.0000000000
10
1.2296618633
20
-2.7911411721
30
0.0000000000
10
1.2591203463
20
-2.7664391790
30
0.0000000000
10
1.2913038993
20
-2.7463908726
30
0.0000000000
10
1.3259305087
20
-2.7311752171
30
0.0000000000
10
1.3627051293
20
-2.7209085126
30
0.0000000000
10
1.4013468662
20
-2.7156527355
30
0.0000000000
10
1.4415758280
20
-2.7154393814
30
0.0000000000
10
1.4830628388
20
-2.7202666581
30
0.0000000000
10
1.5254123455
20
-2.7300685350
30
0.0000000000
10
1.5681742362
20
-2.7446863270
30
0.0000000000
10
1.5961885669
20
-2.7572698914
30
0.0000000000
10
1.6101522769
20
-2.7642516133
30
0.0000000000
11
1.1140877110
21
-3.1237695162
31
0.0000000000
11
1.1160044733
21
-3.0722761846
31
0.0000000000
11
1.1216672618
21
-3.0226600463
31
0.0000000000
11
1.1310775662
21
-2.9755023790
31
0.0000000000
11
1.1441659541
21
-2.9313174322
31
0.0000000000
11
1.1607970910
21
-2.8905567472
31
0.0000000000
11
1.1808206299
21
-2.8535309150
31
0.0000000000
11
1.2041050982
21
-2.8204530756
31
0.0000000000
11
1.2304974111
21
-2.7915476506
31
0.0000000000
11
1.2597917723
21
-2.7670531456
31
0.0000000000
11
1.2917524268
21
-2.7471704346
31
0.0000000000
11
1.3261184208
21
-2.7320569363
31
0.0000000000
11
1.3626093294
21
-2.7218242231
31
0.0000000000
11
1.4009762318
21
-2.7165352500
31
0.0000000000
11
1.4409921183
21
-2.7162343571
31
0.0000000000
11
1.4823495861
21
-2.7209470083
31
0.0000000000
11
1.5246318680
21
-2.7306289873
31
0.0000000000
11
1.5673919421
21
-2.7451434869
31
0.0000000000
11
1.6101522769
21
-2.7642516133
31
0.0000000000
0
SPLINE
5
2ED
100
AcDbEntity
8
0
100
AcDbSpline
62
9
6
CONTINUOUS
70
0
71
3
72
10
73
6
74
4
42
0.0000001000
43
0.0000001000
44
0.0000000001
12
0.0001983381
22
0.3054445465
32
0.0000000000
13
0.0003740124
23
0.3054443819
33
0.0000000000
40
0.0000000000
40
0.0000000000
40
0.0000000000
40
0.0000000000
40
0.3333013972
40
0.6666347282
40
1.0000000000
40
1.0000000000
40
1.0000000000
40
1.0000000000
10
1.1138015231
20
-3.4292139893
30
0.0000000000
10
1.1138235586
20
-3.3952789579
30
0.0000000000
10
1.1138741399
20
-3.3274056479
30
0.0000000000
10
1.1139695368
20
-3.2255908217
30
0.0000000000
10
1.1140461501
20
-3.1577110327
30
0.0000000000
10
1.1140877110
20
-3.1237695162
30
0.0000000000
11
1.1138015231
21
-3.4292139893
31
0.0000000000
11
1.1138773906
21
-3.3274089020
31
0.0000000000
11
1.1139727865
21
-3.2255940771
31
0.0000000000
11
1.1140877110
21
-3.1237695162
31
0.0000000000
0
SPLINE
5
2EE
100
AcDbEntity
8
0
100
AcDbSpline
62
9
6
CONTINUOUS
70
0
71
3
72
15
73
11
74
9
42
0.0000001000
43
0.0000001000
44
0.0000000001
12
-0.1415051666
22
0.0707493808
32
0.0000000000
13
0.0001025633
23
0.1579490896
33
0.0000000000
40
0.0000000000
40
0.0000000000
40
0.0000000000
40
0.0000000000
40
0.0438323812
40
0.1613565498
40
0.2825718711
40
0.4096918209
40
0.5443266957
40
0.6874391863
40
0.8393862721
40
1.0000000000
40
1.0000000000
40
1.0000000000
40
1.0000000000
10
-18.7327662998
20
6.3911670136
30
0.0000000000
10
-18.7348338026
20
6.3922007182
30
0.0000000000
10
-18.7423043538
20
6.3962862296
30
0.0000000000
10
-18.7543409942
20
6.4051888072
30
0.0000000000
10
-18.7674687863
20
6.4194301968
30
0.0000000000
10
-18.7784116503
20
6.4364744062
30
0.0000000000
10
-18.7870361506
20
6.4560510855
30
0.0000000000
10
-18.7932435113
20
6.4778721838
30
0.0000000000
10
-18.7969635479
20
6.5016243779
30
0.0000000000
10
-18.7977371384
20
6.5180963321
30
0.0000000000
10
-18.7977316474
20
6.5265525962
30
0.0000000000
11
-18.7327662998
21
6.3911670136
31
0.0000000000
11
-18.7388484656
21
6.3944940242
31
0.0000000000
11
-18.7537952953
21
6.4055018072
31
0.0000000000
11
-18.7668245034
21
6.4195304725
31
0.0000000000
11
-18.7777480057
21
6.4363775090
31
0.0000000000
11
-18.7864081153
21
6.4557997207
31
0.0000000000
11
-18.7926798185
21
6.4775167374
31
0.0000000000
11
-18.7964725794
21
6.5012150621
31
0.0000000000
11
-18.7977316474
21
6.5265525962
31
0.0000000000
0
SPLINE
5
2EF
100
AcDbEntity
8
0
100
AcDbSpline
62
9
6
CONTINUOUS
70
0
71
3
72
9
73
5
74
3
42
0.0000001000
43
0.0000001000
44
0.0000000001
12
-0.0004482463
22
-0.3470809400
32
0.0000000000
13
-0.0002234083
23
-0.3470811576
33
0.0000000000
40
0.0000000000
40
0.0000000000
40
0.0000000000
40
0.0000000000
40
0.5000409889
40
1.0000000000
40
1.0000000000
40
1.0000000000
40
1.0000000000
10
-7.9028854712
20
1.4263784928
30
0.0000000000
10
-7.9029601851
20
1.3685269273
30
0.0000000000
10
-7.9030908710
20
1.2528332557
30
0.0000000000
10
-7.9031840846
20
1.1371395478
30
0.0000000000
10
-7.9032213163
20
1.0792974304
30
0.0000000000
11
-7.9028854712
21
1.4263784928
31
0.0000000000
11
-7.9030815121
21
1.2528237624
31
0.0000000000
11
-7.9032213163
21
1.0792974304
31
0.0000000000
0
SPLINE
5
2F0
100
AcDbEntity
8
0
100
AcDbSpline
62
9
6
CONTINUOUS
70
0
71
3
72
24
73
20
74
18
42
0.0000001000
43
0.0000001000
44
0.0000000001
12
0.0013236453
22
1.0310370625
32
0.0000000000
13
-0.9221837734
23
0.4611033120
33
0.0000000000
40
0.0000000000
40
0.0000000000
40
0.0000000000
40
0.0000000000
40
0.0548840399
40
0.1120404425
40
0.1710640122
40
0.2315198149
40
0.2929617061
40
0.3551056129
40
0.4177335225
40
0.4805379557
40
0.5431505500
40
0.6052093988
40
0.6663620758
40
0.7263316752
40
0.7849394020
40
0.8419537664
40
0.8970100021
40
0.9497820147
40
1.0000000000
40
1.0000000000
40
1.0000000000
40
1.0000000000
10
-7.9028854712
20
1.4263784928
30
0.0000000000
10
-7.9028612556
20
1.4452409859
30
0.0000000000
10
-7.9042722438
20
1.4837607438
30
0.0000000000
10
-7.9105148403
20
1.5422620523
30
0.0000000000
10
-7.9209237461
20
1.6021122679
30
0.0000000000
10
-7.9354066392
20
1.6626209243
30
0.0000000000
10
-7.9538131673
20
1.7231733586
30
0.0000000000
10
-7.9759726953
20
1.7832499841
30
0.0000000000
10
-8.0017109459
20
1.8423929137
30
0.0000000000
10
-8.0308262635
20
1.9001287759
30
0.0000000000
10
-8.0630695083
20
1.9559525973
30
0.0000000000
10
-8.0981506962
20
2.0093612135
30
0.0000000000
10
-8.1357620996
20
2.0598931348
30
0.0000000000
10
-8.1756025061
20
2.1071485753
30
0.0000000000
10
-8.2173727082
20
2.1507625774
30
0.0000000000
10
-8.2607223783
20
2.1903489543
30
0.0000000000
10
-8.3052162437
20
2.2255031705
30
0.0000000000
10
-8.3503316644
20
2.2558476238
30
0.0000000000
10
-8.3812772399
20
2.2731366121
30
0.0000000000
10
-8.3967139769
20
2.2808551718
30
0.0000000000
11
-7.9028854712
21
1.4263784928
31
0.0000000000
11
-7.9048861671
21
1.4829306396
31
0.0000000000
11
-7.9110775749
21
1.5415349111
31
0.0000000000
11
-7.9214552271
21
1.6014990742
31
0.0000000000
11
-7.9359262319
21
1.6621282440
31
0.0000000000
11
-7.9543229618
21
1.7227471016
31
0.0000000000
11
-7.9764788587
21
1.7828672329
31
0.0000000000
11
-8.0022376006
21
1.8420787014
31
0.0000000000
11
-8.0313954764
21
1.8998962302
31
0.0000000000
11
-8.0636930567
21
1.9557920090
31
0.0000000000
11
-8.0988386623
21
2.0092604104
31
0.0000000000
11
-8.1365096502
21
2.0598201871
31
0.0000000000
11
-8.1763961616
21
2.1070656121
31
0.0000000000
11
-8.2182300963
21
2.1506697249
31
0.0000000000
11
-8.2616818432
21
2.1902614028
31
0.0000000000
11
-8.3062696399
21
2.2253926016
31
0.0000000000
11
-8.3514667284
21
2.2556855941
31
0.0000000000
11
-8.3967139769
21
2.2808551718
31
0.0000000000
0
SPLINE
5
2F1
100
AcDbEntity
8
0
100
AcDbSpline
62
9
6
CONTINUOUS
70
0
71
3
72
15
73
11
74
9
42
0.0000001000
43
0.0000001000
44
0.0000000001
12
-0.0035983299
22
-0.2413202102
32
0.0000000000
13
0.2154941241
23
-0.1076581907
33
0.0000000000
40
0.0000000000
40
0.0000000000
40
0.0000000000
40
0.0000000000
40
0.0689056520
40
0.1761340286
40
0.2889199381
40
0.4098380416
40
0.5406748498
40
0.6824675769
40
0.8356153513
40
1.0000000000
40
1.0000000000
40
1.0000000000
40
1.0000000000
10
-18.8815835354
20
14.6178066067
30
0.0000000000
10
-18.8816661838
20
14.6122638313
30
0.0000000000
10
-18.8808931726
20
14.5980794906
30
0.0000000000
10
-18.8755545907
20
14.5753356883
30
0.0000000000
10
-18.8641732893
20
14.5502681799
30
0.0000000000
10
-18.8476214268
20
14.5259764482
30
0.0000000000
10
-18.8261258344
20
14.5026821360
30
0.0000000000
10
-18.7999320140
20
14.4805931745
30
0.0000000000
10
-18.7693208721
20
14.4599166294
30
0.0000000000
10
-18.7469403079
20
14.4476260767
30
0.0000000000
10
-18.7351323326
20
14.4417269588
30
0.0000000000
11
-18.8815835354
21
14.6178066067
31
0.0000000000
11
-18.8806815707
21
14.6012145080
31
0.0000000000
11
-18.8748783397
21
14.5760446028
31
0.0000000000
11
-18.8637904098
21
14.5512411273
31
0.0000000000
11
-18.8475365812
21
14.5270698346
31
0.0000000000
11
-18.8262910030
21
14.5037897045
31
0.0000000000
11
-18.8002813077
21
14.4816501684
31
0.0000000000
11
-18.7697861724
21
14.4608884370
31
0.0000000000
11
-18.7351323326
21
14.4417269588
31
0.0000000000
0
SPLINE
5
2F2
100
AcDbEntity
8
0
100
AcDbSpline
62
9
6
CONTINUOUS
70
0
71
3
72
24
73
20
74
18
42
0.0000001000
43
0.0000001000
44
0.0000000001
12
-0.6872075479
22
0.3435952599
32
0.0000000000
13
-0.0010200061
23
-0.7683169112
33
0.0000000000
40
0.0000000000
40
0.0000000000
40
0.0000000000
40
0.0000000000
40
0.0644527015
40
0.1264530868
40
0.1858655076
40
0.2427564614
40
0.2973874779
40
0.3503229080
40
0.4022893742
40
0.4540102009
40
0.5061844447
40
0.5594810723
40
0.6144841213
40
0.6717139411
40
0.7316466210
40
0.7945677762
40
0.8604406372
40
0.9290479228
40
1.0000000000
40
1.0000000000
40
1.0000000000
40
1.0000000000
10
-14.3336001212
20
5.2492982440
30
0.0000000000
10
-14.3483642488
20
5.2566801249
30
0.0000000000
10
-14.3779882373
20
5.2699026573
30
0.0000000000
10
-14.4232350699
20
5.2849509580
30
0.0000000000
10
-14.4679756389
20
5.2945806064
30
0.0000000000
10
-14.5116816979
20
5.2986140569
30
0.0000000000
10
-14.5538976619
20
5.2969859811
30
0.0000000000
10
-14.5942441641
20
5.2897035976
30
0.0000000000
10
-14.6323869773
20
5.2768133904
30
0.0000000000
10
-14.6679816283
20
5.2584113268
30
0.0000000000
10
-14.7006784383
20
5.2346704010
30
0.0000000000
10
-14.7301612346
20
5.2058381897
30
0.0000000000
10
-14.7561754589
20
5.1722065256
30
0.0000000000
10
-14.7785301159
20
5.1340725181
30
0.0000000000
10
-14.7970660208
20
5.0917350141
30
0.0000000000
10
-14.8116251715
20
5.0455575911
30
0.0000000000
10
-14.8220702497
20
4.9960175169
30
0.0000000000
10
-14.8283224719
20
4.9437168051
30
0.0000000000
10
-14.8296791330
20
4.9079586126
30
0.0000000000
10
-14.8297032568
20
4.8897873856
30
0.0000000000
11
-14.3336001212
21
5.2492982440
31
0.0000000000
11
-14.3788639833
21
5.2693837479
31
0.0000000000
11
-14.4241020545
21
5.2843070224
31
0.0000000000
11
-14.4687529764
21
5.2937938171
31
0.0000000000
11
-14.5122888335
21
5.2976952608
31
0.0000000000
11
-14.5542276328
21
5.2959773150
31
0.0000000000
11
-14.5942389025
21
5.2886802883
31
0.0000000000
11
-14.6320519718
21
5.2758616629
31
0.0000000000
11
-14.6673536644
21
5.2576160938
31
0.0000000000
11
-14.6998182519
21
5.2341007975
31
0.0000000000
11
-14.7291509499
21
5.2055282261
31
0.0000000000
11
-14.7550892408
21
5.1721651237
31
0.0000000000
11
-14.7774267754
21
5.1342909241
31
0.0000000000
11
-14.7960045233
21
5.0921575161
31
0.0000000000
11
-14.8106526089
21
5.0460866919
31
0.0000000000
11
-14.8212002578
21
4.9965867067
31
0.0000000000
11
-14.8275525010
21
4.9442586706
31
0.0000000000
11
-14.8297032568
21
4.8897873856
31
0.0000000000
0
SPLINE
5
2F3
100
AcDbEntity
8
0
100
AcDbSpline
62
9
6
CONTINUOUS
70
0
71
3
72
9
73
5
74
3
42
0.0000001000
43
0.0000001000
44
0.0000000001
12
0.0002273397
22
0.3470782052
32
0.0000000000
13
0.0004561369
23
0.3470779799
33
0.0000000000
40
0.0000000000
40
0.0000000000
40
0.0000000000
40
0.0000000000
40
0.4999597213
40
1.0000000000
40
1.0000000000
40
1.0000000000
40
1.0000000000
10
-14.8300450134
20
4.5427092790
30
0.0000000000
10
-14.8300071265
20
4.6005509865
30
0.0000000000
10
-14.8299122728
20
4.7162437099
30
0.0000000000
10
-14.8297792857
20
4.8319363957
30
0.0000000000
10
-14.8297032568
20
4.8897873856
30
0.0000000000
11
-14.8300450134
21
4.5427092790
31
0.0000000000
11
-14.8299027486
21
4.7162343806
31
0.0000000000
11
-14.8297032568
21
4.8897873856
31
0.0000000000
0
SPLINE
5
2F4
100
AcDbEntity
8
0
100
AcDbSpline
62
9
6
CONTINUOUS
70
0
71
3
72
16
73
12
74
10
42
0.0000001000
43
0.0000001000
44
0.0000000001
12
-0.0267347465
22
-0.2341394025
32
0.0000000000
13
0.2105564856
23
-0.1045330851
33
0.0000000000
40
0.0000000000
40
0.0000000000
40
0.0000000000
40
0.0000000000
40
0.0070876303
40
0.0963197495
40
0.1906359155
40
0.2938438246
40
0.4085446630
40
0.5362227633
40
0.6774801209
40
0.8322573209
40
1.0000000000
40
1.0000000000
40
1.0000000000
40
1.0000000000
10
-18.1944232502
20
25.1063932177
30
0.0000000000
10
-18.1944864122
20
25.1058400532
30
0.0000000000
10
-18.1952659261
20
25.0983138329
30
0.0000000000
10
-18.1946663306
20
25.0832213777
30
0.0000000000
10
-18.1882738961
20
25.0614761944
30
0.0000000000
10
-18.1765859980
20
25.0398192272
30
0.0000000000
10
-18.1598274051
20
25.0184171884
30
0.0000000000
10
-18.1382030680
20
24.9974284739
30
0.0000000000
10
-18.1119363656
20
24.9770307251
30
0.0000000000
10
-18.0812943925
20
24.9574173873
30
0.0000000000
10
-18.0590060434
20
24.9454519286
30
0.0000000000
10
-18.0472329404
20
24.9396070420
30
0.0000000000
11
-18.1944232502
21
25.1063932177
31
0.0000000000
11
-18.1945952711
21
25.1047318907
31
0.0000000000
11
-18.1938517199
21
25.0837686536
31
0.0000000000
11
-18.1877901898
21
25.0624417688
31
0.0000000000
11
-18.1764756420
21
25.0409797964
31
0.0000000000
11
-18.1600293347
21
25.0196127442
31
0.0000000000
11
-18.1386275228
21
24.9985696029
31
0.0000000000
11
-18.1124995695
21
24.9780758918
31
0.0000000000
11
-18.0819254879
21
24.9583512418
31
0.0000000000
11
-18.0472329404
21
24.9396070420
31
0.0000000000
0
SPLINE
5
2F5
100
AcDbEntity
8
0
100
AcDbSpline
62
7
6
CONTINUOUS
70
0
71
3
72
16
73
12
74
10
42
0.0000001000
43
0.0000001000
44
0.0000000001
12
0.2080521078
22
0.1174021310
32
0.0000000000
13
0.2142594513
23
-0.1051624664
33
0.0000000000
40
0.0000000000
40
0.0000000000
40
0.0000000000
40
0.0000000000
40
0.0207702824
40
0.1291416107
40
0.2393700373
40
0.3528191297
40
0.4706463605
40
0.5937590872
40
0.7228013622
40
0.8581627988
40
1.0000000000
40
1.0000000000
40
1.0000000000
40
1.0000000000
10
-15.0761874556
20
27.5037465605
30
0.0000000000
10
-15.0747470219
20
27.5045593856
30
0.0000000000
10
-15.0657191404
20
27.5094857747
30
0.0000000000
10
-15.0481968451
20
27.5171196076
30
0.0000000000
10
-15.0226192426
20
27.5240754524
30
0.0000000000
10
-14.9955877040
20
27.5275273379
30
0.0000000000
10
-14.9673207777
20
27.5274648360
30
0.0000000000
10
-14.9380380931
20
27.5239055007
30
0.0000000000
10
-14.9079600610
20
27.5168905798
30
0.0000000000
10
-14.8773129623
20
27.5064853386
30
0.0000000000
10
-14.8571163990
20
27.4975503122
30
0.0000000000
10
-14.8469864120
20
27.4925783289
30
0.0000000000
11
-15.0761874556
21
27.5037465605
31
0.0000000000
11
-15.0718320457
21
27.5061231433
31
0.0000000000
11
-15.0481271310
21
27.5164724611
31
0.0000000000
11
-15.0227519212
21
27.5234191282
31
0.0000000000
11
-14.9959004051
21
27.5269107590
31
0.0000000000
11
-14.9677778691
21
27.5269215978
31
0.0000000000
11
-14.9385992860
21
27.5234527035
31
0.0000000000
11
-14.9085876269
21
27.5165319209
31
0.0000000000
11
-14.8779721126
21
27.5062136377
31
0.0000000000
11
-14.8469864120
21
27.4925783289
31
0.0000000000
0
SPLINE
5
2F6
100
AcDbEntity
8
0
100
AcDbSpline
62
9
6
CONTINUOUS
70
0
71
3
72
14
73
10
74
8
42
0.0000001000
43
0.0000001000
44
0.0000000001
12
0.2101710320
22
0.1225218558
32
0.0000000000
13
0.2188932873
23
-0.1054611190
33
0.0000000000
40
0.0000000000
40
0.0000000000
40
0.0000000000
40
0.0000000000
40
0.1168418182
40
0.2476234172
40
0.3829687791
40
0.5247573302
40
0.6743660043
40
0.8326542726
40
1.0000000000
40
1.0000000000
40
1.0000000000
40
1.0000000000
10
-17.6241725705
20
26.0180584242
30
0.0000000000
10
-17.6159869820
20
26.0228303163
30
0.0000000000
10
-17.5978256960
20
26.0315499800
30
0.0000000000
10
-17.5678841098
20
26.0402024708
30
0.0000000000
10
-17.5349336275
20
26.0440610821
30
0.0000000000
10
-17.5002732180
20
26.0428567689
30
0.0000000000
10
-17.4642844257
20
26.0366386455
30
0.0000000000
10
-17.4273545077
20
26.0255033342
30
0.0000000000
10
-17.4030288867
20
26.0151739880
30
0.0000000000
10
-17.3908186012
20
26.0092911654
30
0.0000000000
11
-17.6241725705
21
26.0180584242
31
0.0000000000
11
-17.5985812065
21
26.0303633340
31
0.0000000000
11
-17.5680741467
21
26.0392552551
31
0.0000000000
11
-17.5354248004
21
26.0431883384
31
0.0000000000
11
-17.5009904654
21
26.0421195423
31
0.0000000000
11
-17.4651479731
21
26.0360605631
31
0.0000000000
11
-17.4282895652
21
26.0250777073
31
0.0000000000
11
-17.3908186012
21
26.0092911654
31
0.0000000000
0
SPLINE
5
2F7
100
AcDbEntity
8
0
100
AcDbSpline
62
9
6
CONTINUOUS
70
0
71
3
72
19
73
15
74
13
42
0.0000001000
43
0.0000001000
44
0.0000000001
12
0.2604584879
22
-0.1302292440
32
0.0000000000
13
0.2605599573
23
0.1300261073
33
0.0000000000
40
0.0000000000
40
0.0000000000
40
0.0000000000
40
0.0000000000
40
0.0737543332
40
0.1525150748
40
0.2355072405
40
0.3217997278
40
0.4103506267
40
0.5000467525
40
0.5897400178
40
0.6782824215
40
0.7645610407
40
0.8475344140
40
0.9262720948
40
1.0000000000
40
1.0000000000
40
1.0000000000
40
1.0000000000
10
1.1138015231
20
-3.4292139893
30
0.0000000000
10
1.1202048371
20
-3.4324156463
30
0.0000000000
10
1.1338086988
20
-3.4383253636
30
0.0000000000
10
1.1555312962
20
-3.4455257946
30
0.0000000000
10
1.1789399578
20
-3.4512605562
30
0.0000000000
10
1.2036381324
20
-3.4554314608
30
0.0000000000
10
1.2292099592
20
-3.4579680627
30
0.0000000000
10
1.2552224500
20
-3.4588269442
30
0.0000000000
10
1.2812349437
20
-3.4579934656
30
0.0000000000
10
1.3068067809
20
-3.4554818375
30
0.0000000000
10
1.3315049759
20
-3.4513350555
30
0.0000000000
10
1.3549136762
20
-3.4456231572
30
0.0000000000
10
1.3766363354
20
-3.4384439409
30
0.0000000000
10
1.3902406775
20
-3.4325473202
30
0.0000000000
10
1.3966441908
20
-3.4293518027
30
0.0000000000
11
1.1138015231
21
-3.4292139893
31
0.0000000000
11
1.1334705932
21
-3.4378398242
31
0.0000000000
11
1.1552228778
21
-3.4451105474
31
0.0000000000
11
1.1786861895
21
-3.4509017548
31
0.0000000000
11
1.2034590643
21
-3.4551143573
31
0.0000000000
11
1.2291176317
21
-3.4576762760
31
0.0000000000
11
1.2552228662
21
-3.4585436758
31
0.0000000000
11
1.2813281003
21
-3.4577017152
31
0.0000000000
11
1.3069866660
21
-3.4551648005
31
0.0000000000
11
1.3317595382
21
-3.4509763389
31
0.0000000000
11
1.3552228462
21
-3.4452079962
31
0.0000000000
11
1.3769751262
21
-3.4379584704
31
0.0000000000
11
1.3966441908
21
-3.4293518027
31
0.0000000000
0
SPLINE
5
2F8
100
AcDbEntity
8
0
100
AcDbSpline
62
9
6
CONTINUOUS
70
0
71
3
72
19
73
15
74
13
42
0.0000001000
43
0.0000001000
44
0.0000000001
12
0.2604459021
22
-0.1302229510
32
0.0000000000
13
0.2606372255
23
0.1298395994
33
0.0000000000
40
0.0000000000
40
0.0000000000
40
0.0000000000
40
0.0000000000
40
0.0737593628
40
0.1525273198
40
0.2355277286
40
0.3218284495
40
0.4103866405
40
0.5000882758
40
0.5897845096
40
0.6783266592
40
0.7646011939
40
0.8475661190
40
0.9262905346
40
1.0000000000
40
1.0000000000
40
1.0000000000
40
1.0000000000
10
1.1140877110
20
-3.1237695162
30
0.0000000000
10
1.1204911523
20
-3.1269712369
30
0.0000000000
10
1.1340951301
20
-3.1328817503
30
0.0000000000
10
1.1558175800
20
-3.1400852850
30
0.0000000000
10
1.1792261081
20
-3.1458251748
30
0.0000000000
10
1.2039241636
20
-3.1500031392
30
0.0000000000
10
1.2294958787
20
-3.1525486072
30
0.0000000000
10
1.2555082612
20
-3.1534180093
30
0.0000000000
10
1.2815206466
20
-3.1525965274
30
0.0000000000
10
1.3070923728
20
-3.1500981706
30
0.0000000000
10
1.3317904536
20
-3.1459657128
30
0.0000000000
10
1.3551990376
20
-3.1402689556
30
0.0000000000
10
1.3769215837
20
-3.1331054455
30
0.0000000000
10
1.3905264541
20
-3.1272196432
30
0.0000000000
10
1.3969302643
20
-3.1240295074
30
0.0000000000
11
1.1140877110
21
-3.1237695162
31
0.0000000000
11
1.1337567874
21
-3.1323963992
31
0.0000000000
11
1.1555090760
21
-3.1396702416
31
0.0000000000
11
1.1789723886
21
-3.1454665861
31
0.0000000000
11
1.2037452609
21
-3.1496862562
31
0.0000000000
11
1.2294038220
21
-3.1522570523
31
0.0000000000
11
1.2555090468
21
-3.1531349878
31
0.0000000000
11
1.2816142676
21
-3.1523050413
31
0.0000000000
11
1.3072728173
21
-3.1497814136
31
0.0000000000
11
1.3320456712
21
-3.1456072850
31
0.0000000000
11
1.3555089596
21
-3.1398540760
31
0.0000000000
11
1.3772612195
21
-3.1326202258
31
0.0000000000
11
1.3969302643
21
-3.1240295074
31
0.0000000000
0
SPLINE
5
2F9
100
AcDbEntity
8
0
100
AcDbSpline
62
9
6
CONTINUOUS
70
0
71
3
72
14
73
10
74
8
42
0.0000001000
43
0.0000001000
44
0.0000000001
12
-0.0002997755
22
-0.1267016560
32
0.0000000000
13
0.1135189752
23
-0.0568083652
33
0.0000000000
40
0.0000000000
40
0.0000000000
40
0.0000000000
40
0.0000000000
40
0.1744541039
40
0.3385952325
40
0.4922824692
40
0.6361360840
40
0.7716525991
40
0.9012352645
40
1.0000000000
40
1.0000000000
40
1.0000000000
40
1.0000000000
10
1.6101522769
20
-2.7642516133
30
0.0000000000
10
1.6101348445
20
-2.7716194879
30
0.0000000000
10
1.6108409346
20
-2.7859374659
30
0.0000000000
10
1.6143349899
20
-2.8064872670
30
0.0000000000
10
1.6201891310
20
-2.8251581727
30
0.0000000000
10
1.6283286921
20
-2.8416301643
30
0.0000000000
10
1.6386466037
20
-2.8556075456
30
0.0000000000
10
1.6501069126
20
-2.8660088727
30
0.0000000000
10
1.6583874512
20
-2.8710553869
30
0.0000000000
10
1.6621246751
20
-2.8729256079
30
0.0000000000
11
1.6101522769
21
-2.7642516133
31
0.0000000000
11
1.6113129665
21
-2.7863248034
31
0.0000000000
11
1.6148824052
21
-2.8068132093
31
0.0000000000
11
1.6207992934
21
-2.8253649743
31
0.0000000000
11
1.6289620178
21
-2.8416615007
31
0.0000000000
11
1.6392303961
21
-2.8554229210
31
0.0000000000
11
1.6514280850
21
-2.8664129040
31
0.0000000000
11
1.6621246751
21
-2.8729256079
31
0.0000000000
0
SPLINE
5
2FA
100
AcDbEntity
8
0
100
AcDbSpline
62
9
6
CONTINUOUS
70
0
71
3
72
14
73
10
74
8
42
0.0000001000
43
0.0000001000
44
0.0000000001
12
-0.0002997912
22
-0.1267082832
32
0.0000000000
13
0.1135299231
23
-0.0568012817
33
0.0000000000
40
0.0000000000
40
0.0000000000
40
0.0000000000
40
0.0000000000
40
0.1744450387
40
0.3385776219
40
0.4922568434
40
0.6361029440
40
0.7716123716
40
0.9011882539
40
1.0000000000
40
1.0000000000
40
1.0000000000
40
1.0000000000
10
7.4791385607
20
-5.6987447553
30
0.0000000000
10
7.4791211284
20
-5.7061126324
30
0.0000000000
10
7.4798272189
20
-5.7204306145
30
0.0000000000
10
7.4833212762
20
-5.7409804206
30
0.0000000000
10
7.4891754202
20
-5.7596513286
30
0.0000000000
10
7.4973149844
20
-5.7761233203
30
0.0000000000
10
7.5076328987
20
-5.7901007000
30
0.0000000000
10
7.5190948531
20
-5.8005035161
30
0.0000000000
10
7.5273775335
20
-5.8055508431
30
0.0000000000
10
7.5311168968
20
-5.8074217210
30
0.0000000000
11
7.4791385607
21
-5.6987447553
31
0.0000000000
11
7.4802992512
21
-5.7208179528
31
0.0000000000
11
7.4838686920
21
-5.7413063634
31
0.0000000000
11
7.4897855831
21
-5.7598581306
31
0.0000000000
11
7.4979483104
21
-5.7761546569
31
0.0000000000
11
7.5082166913
21
-5.7899160754
31
0.0000000000
11
7.5204143819
21
-5.8009060554
31
0.0000000000
11
7.5311168968
21
-5.8074217210
31
0.0000000000
0
SPLINE
5
2FB
100
AcDbEntity
8
0
100
AcDbSpline
62
9
6
CONTINUOUS
70
0
71
3
72
13
73
9
74
7
42
0.0000001000
43
0.0000001000
44
0.0000000001
12
-0.0862455882
22
0.0431227941
32
0.0000000000
13
0.0001208925
23
0.0966716159
33
0.0000000000
40
0.0000000000
40
0.0000000000
40
0.0000000000
40
0.0000000000
40
0.2059082063
40
0.3941287060
40
0.5649337264
40
0.7200675057
40
0.8630760806
40
1.0000000000
40
1.0000000000
40
1.0000000000
40
1.0000000000
10
7.9730234885
20
-6.5532374050
30
0.0000000000
10
7.9671039304
20
-6.5502776259
30
0.0000000000
10
7.9560413575
20
-6.5440419808
30
0.0000000000
10
7.9413886546
20
-6.5332289358
30
0.0000000000
10
7.9296307153
20
-6.5215118523
30
0.0000000000
10
7.9209844551
20
-6.5090445126
30
0.0000000000
10
7.9156510728
20
-6.4959758630
30
0.0000000000
10
7.9144393186
20
-6.4869540398
30
0.0000000000
10
7.9144448363
20
-6.4825418210
30
0.0000000000
11
7.9730234885
21
-6.5532374050
31
0.0000000000
11
7.9557741753
21
-6.5434050940
31
0.0000000000
11
7.9412397586
21
-6.5325355858
31
0.0000000000
11
7.9296689261
21
-6.5208148607
31
0.0000000000
11
7.9212596582
21
-6.5084434636
31
0.0000000000
11
7.9161558396
21
-6.4956330724
31
0.0000000000
11
7.9144448363
21
-6.4825418210
31
0.0000000000
0
SPLINE
5
2FC
100
AcDbEntity
8
0
100
AcDbSpline
62
9
6
CONTINUOUS
70
0
71
3
72
13
73
9
74
7
42
0.0000001000
43
0.0000001000
44
0.0000000001
12
-0.0862473829
22
0.0431236913
32
0.0000000000
13
0.0000641129
23
0.0966733289
33
0.0000000000
40
0.0000000000
40
0.0000000000
40
0.0000000000
40
0.0000000000
40
0.2059093859
40
0.3941453905
40
0.5649847905
40
0.7201759613
40
0.8632670844
40
1.0000000000
40
1.0000000000
40
1.0000000000
40
1.0000000000
10
7.9727373006
20
-6.8586818780
30
0.0000000000
10
7.9668175854
20
-6.8557220205
30
0.0000000000
10
7.9557545499
20
-6.8494854573
30
0.0000000000
10
7.9411016700
20
-6.8386691185
30
0.0000000000
10
7.9293436480
20
-6.8269466219
30
0.0000000000
10
7.9206975263
20
-6.8144719017
30
0.0000000000
10
7.9153681955
20
-6.8014031561
30
0.0000000000
10
7.9141557324
20
-6.7923852871
30
0.0000000000
10
7.9141586545
20
-6.7879791451
30
0.0000000000
11
7.9727373006
21
-6.8586818780
31
0.0000000000
11
7.9554879799
21
-6.8488485163
31
0.0000000000
11
7.9409535611
21
-6.8379758842
31
0.0000000000
11
7.9293827323
21
-6.8262500160
31
0.0000000000
11
7.9209734734
21
-6.8138715454
31
0.0000000000
11
7.9158696685
21
-6.8010522719
31
0.0000000000
11
7.9141586545
21
-6.7879791451
31
0.0000000000
0
SPLINE
5
2FD
100
AcDbEntity
8
0
100
AcDbSpline
62
9
6
CONTINUOUS
70
0
71
3
72
18
73
14
74
12
42
0.0000001000
43
0.0000001000
44
0.0000000001
12
0.0005436681
22
0.3163165542
32
0.0000000000
13
0.2831099805
23
0.1416746870
33
0.0000000000
40
0.0000000000
40
0.0000000000
40
0.0000000000
40
0.0000000000
40
0.1163960855
40
0.2291483555
40
0.3377295485
40
0.4417933182
40
0.5412161812
40
0.6362918137
40
0.7276689193
40
0.8160970730
40
0.9023727366
40
0.9874212418
40
1.0000000000
40
1.0000000000
40
1.0000000000
40
1.0000000000
10
1.3969302643
20
-3.1240295074
30
0.0000000000
10
1.3969513579
20
-3.1117568379
30
0.0000000000
10
1.3978311690
20
-3.0875863962
30
0.0000000000
10
1.4018384217
20
-3.0521663486
30
0.0000000000
10
1.4085207236
20
-3.0184694742
30
0.0000000000
10
1.4178361690
20
-2.9868600838
30
0.0000000000
10
1.4297048300
20
-2.9576421886
30
0.0000000000
10
1.4440305019
20
-2.9310489153
30
0.0000000000
10
1.4607176695
20
-2.9072633355
30
0.0000000000
10
1.4796608873
20
-2.8864602164
30
0.0000000000
10
1.5007230973
20
-2.8688175564
30
0.0000000000
10
1.5172409926
20
-2.8585368710
30
0.0000000000
10
1.5264053044
20
-2.8538290787
30
0.0000000000
10
1.5275923618
20
-2.8532350481
30
0.0000000000
11
1.3969302643
21
-3.1240295074
31
0.0000000000
11
1.3983196719
21
-3.0872376698
31
0.0000000000
11
1.4023859369
21
-3.0518047658
31
0.0000000000
11
1.4091299462
21
-3.0181273028
31
0.0000000000
11
1.4185016741
21
-2.9865724468
31
0.0000000000
11
1.4304041068
21
-2.9574626418
31
0.0000000000
11
1.4447295115
21
-2.9310196708
31
0.0000000000
11
1.4613836641
21
-2.9073957813
31
0.0000000000
11
1.4802568981
21
-2.8867512578
31
0.0000000000
11
1.5012020153
21
-2.8692563635
31
0.0000000000
11
1.5240503248
21
-2.8550546752
31
0.0000000000
11
1.5275923618
21
-2.8532350481
31
0.0000000000
0
SPLINE
5
2FE
100
AcDbEntity
8
0
100
AcDbSpline
62
9
6
CONTINUOUS
70
0
71
3
72
15
73
11
74
9
42
0.0000001000
43
0.0000001000
44
0.0000000001
12
-0.0001025823
22
-0.1579786794
32
0.0000000000
13
0.1414838791
23
-0.0707547871
33
0.0000000000
40
0.0000000000
40
0.0000000000
40
0.0000000000
40
0.0000000000
40
0.1494053614
40
0.2913610016
40
0.4256931703
40
0.5526051145
40
0.6727413891
40
0.7872243943
40
0.8976475422
40
1.0000000000
40
1.0000000000
40
1.0000000000
40
1.0000000000
10
7.9727373006
20
-6.8586818780
30
0.0000000000
10
7.9727321918
20
-6.8665494986
30
0.0000000000
10
7.9734028119
20
-6.8819048875
30
0.0000000000
10
7.9766164832
20
-6.9041304262
30
0.0000000000
10
7.9819811494
20
-6.9247247773
30
0.0000000000
10
7.9894425455
20
-6.9434332582
30
0.0000000000
10
7.9989247279
20
-6.9600216375
30
0.0000000000
10
8.0103278558
20
-6.9742709906
30
0.0000000000
10
8.0232840988
20
-6.9857686077
30
0.0000000000
10
8.0328834832
20
-6.9916585856
30
0.0000000000
10
8.0377105575
20
-6.9940725611
30
0.0000000000
11
7.9727373006
21
-6.8586818780
31
0.0000000000
11
7.9738219907
21
-6.8822598076
31
0.0000000000
11
7.9770938535
21
-6.9044458170
31
0.0000000000
11
7.9825122070
21
-6.9249640706
31
0.0000000000
11
7.9900095519
21
-6.9435589000
31
0.0000000000
11
7.9994925762
21
-6.9599989032
31
0.0000000000
11
8.0108432469
21
-6.9740794305
31
0.0000000000
11
8.0239202241
21
-6.9856251433
31
0.0000000000
11
8.0377105575
21
-6.9940725611
31
0.0000000000
0
SPLINE
5
2FF
100
AcDbEntity
8
0
100
AcDbSpline
62
9
6
CONTINUOUS
70
0
71
3
72
14
73
10
74
8
42
0.0000001000
43
0.0000001000
44
0.0000000001
12
-0.0862364811
22
0.0431175058
32
0.0000000000
13
0.0000534436
23
0.0966591972
33
0.0000000000
40
0.0000000000
40
0.0000000000
40
0.0000000000
40
0.0000000000
40
0.2048408224
40
0.3922029391
40
0.5623476926
40
0.7169718797
40
0.8595288605
40
0.9952951856
40
1.0000000000
40
1.0000000000
40
1.0000000000
40
1.0000000000
10
-7.9032212236
20
1.0792974766
30
0.0000000000
10
-7.9091094742
20
1.0822415518
30
0.0000000000
10
-7.9201178894
20
1.0884434784
30
0.0000000000
10
-7.9347112260
20
1.0991921335
30
0.0000000000
10
-7.9464434765
20
1.1108380479
30
0.0000000000
10
-7.9551011278
20
1.1232293496
30
0.0000000000
10
-7.9604794158
20
1.1362008189
30
0.0000000000
10
-7.9617814882
20
1.1453082565
30
0.0000000000
10
-7.9617999375
20
1.1498341861
30
0.0000000000
10
-7.9617998537
20
1.1499857739
30
0.0000000000
11
-7.9032212236
21
1.0792974766
31
0.0000000000
11
-7.9203819522
21
1.0890730100
31
0.0000000000
11
-7.9348593223
21
1.0998772917
31
0.0000000000
11
-7.9464083631
21
1.1115275031
31
0.0000000000
11
-7.9548336536
21
1.1238265113
31
0.0000000000
11
-7.9599926300
21
1.1365662054
31
0.0000000000
11
-7.9617979974
21
1.1495310177
31
0.0000000000
11
-7.9617998537
21
1.1499857739
31
0.0000000000
0
SPLINE
5
300
100
AcDbEntity
8
0
100
AcDbSpline
62
9
6
CONTINUOUS
70
0
71
3
72
14
73
10
74
8
42
0.0000001000
43
0.0000001000
44
0.0000000001
12
-0.0862637700
22
0.0431296331
32
0.0000000000
13
0.0001155982
23
0.0966860465
33
0.0000000000
40
0.0000000000
40
0.0000000000
40
0.0000000000
40
0.0000000000
40
0.1896494433
40
0.3644157912
40
0.5243839846
40
0.6706424084
40
0.8055115717
40
0.9326663759
40
1.0000000000
40
1.0000000000
40
1.0000000000
40
1.0000000000
10
-7.9028854696
20
1.4263784858
30
0.0000000000
10
-7.9083387615
20
1.4291049894
30
0.0000000000
10
-7.9185874262
20
1.4348298831
30
0.0000000000
10
-7.9323360669
20
1.4446531791
30
0.0000000000
10
-7.9436674977
20
1.4552533484
30
0.0000000000
10
-7.9524119050
20
1.4665060616
30
0.0000000000
10
-7.9584141477
20
1.4782821554
30
0.0000000000
10
-7.9610663957
20
1.4886318964
30
0.0000000000
10
-7.9614649154
20
1.4949007449
30
0.0000000000
10
-7.9614623209
20
1.4970708189
30
0.0000000000
11
-7.9028854696
21
1.4263784858
31
0.0000000000
11
-7.9188179833
21
1.4353620790
31
0.0000000000
11
-7.9324813178
21
1.4452319690
31
0.0000000000
11
-7.9436784356
21
1.4558456834
31
0.0000000000
11
-7.9522478642
21
1.4670501640
31
0.0000000000
11
-7.9580660256
21
1.4786838345
31
0.0000000000
11
-7.9610490175
21
1.4905789295
31
0.0000000000
11
-7.9614623209
21
1.4970708189
31
0.0000000000
0
SPLINE
5
301
100
AcDbEntity
8
0
100
AcDbSpline
62
9
6
CONTINUOUS
70
0
71
3
72
15
73
11
74
9
42
0.0000001000
43
0.0000001000
44
0.0000000001
12
-0.0003097793
22
-0.1267405648
32
0.0000000000
13
0.1135467859
23
-0.0567707327
33
0.0000000000
40
0.0000000000
40
0.0000000000
40
0.0000000000
40
0.0000000000
40
0.1605035314
40
0.3123490507
40
0.4553606464
40
0.5898873311
40
0.7168844409
40
0.8379564835
40
0.9553138479
40
1.0000000000
40
1.0000000000
40
1.0000000000
40
1.0000000000
10
-14.3336001212
20
5.2492982440
30
0.0000000000
10
-14.3336166947
20
5.2425174746
30
0.0000000000
10
-14.3330203128
20
5.2293079870
30
0.0000000000
10
-14.3300728772
20
5.2102564275
30
0.0000000000
10
-14.3251292680
20
5.1927499835
30
0.0000000000
10
-14.3182454885
20
5.1770406353
30
0.0000000000
10
-14.3095005118
20
5.1633600316
30
0.0000000000
10
-14.2990010941
20
5.1519256045
30
0.0000000000
10
-14.2893368167
20
5.1447508844
30
0.0000000000
10
-14.2833192923
20
5.1414535601
30
0.0000000000
10
-14.2816279693
20
5.1406079382
30
0.0000000000
11
-14.3336001212
21
5.2492982440
31
0.0000000000
11
-14.3326274090
21
5.2289791444
31
0.0000000000
11
-14.3296215423
21
5.2099702913
31
0.0000000000
11
-14.3246260346
21
5.1925468611
31
0.0000000000
11
-14.3177132027
21
5.1769610797
31
0.0000000000
11
-14.3089831187
21
5.1634385699
31
0.0000000000
11
-14.2985621616
21
5.1521750857
31
0.0000000000
11
-14.2866011878
21
5.1433336786
31
0.0000000000
11
-14.2816279693
21
5.1406079382
31
0.0000000000
0
SPLINE
5
302
100
AcDbEntity
8
0
100
AcDbSpline
62
9
6
CONTINUOUS
70
0
71
3
72
15
73
11
74
9
42
0.0000001000
43
0.0000001000
44
0.0000000001
12
-0.0003097963
22
-0.1267475288
32
0.0000000000
13
0.1135582900
23
-0.0567633395
33
0.0000000000
40
0.0000000000
40
0.0000000000
40
0.0000000000
40
0.0000000000
40
0.1604947065
40
0.3123318772
40
0.4553356104
40
0.5898549001
40
0.7168450305
40
0.8379104204
40
0.9552613374
40
1.0000000000
40
1.0000000000
40
1.0000000000
40
1.0000000000
10
-8.3967139769
20
2.2808551718
30
0.0000000000
10
-8.3967305505
20
2.2740744027
30
0.0000000000
10
-8.3961341686
20
2.2608649157
30
0.0000000000
10
-8.3931867332
20
2.2418133569
30
0.0000000000
10
-8.3882431244
20
2.2243069134
30
0.0000000000
10
-8.3813593454
20
2.2085975654
30
0.0000000000
10
-8.3726143692
20
2.1949169617
30
0.0000000000
10
-8.3621149520
20
2.1834825343
30
0.0000000000
10
-8.3524487985
20
2.1763064208
30
0.0000000000
10
-8.3464290679
20
2.1730082523
30
0.0000000000
10
-8.3447355859
20
2.1721617470
30
0.0000000000
11
-8.3967139769
21
2.2808551718
31
0.0000000000
11
-8.3957412648
21
2.2605360731
31
0.0000000000
11
-8.3927353983
21
2.2415272206
31
0.0000000000
11
-8.3877398911
21
2.2241037910
31
0.0000000000
11
-8.3808270597
21
2.2085180098
31
0.0000000000
11
-8.3720969762
21
2.1949955000
31
0.0000000000
11
-8.3616760195
21
2.1837320154
31
0.0000000000
11
-8.3497150460
21
2.1748906079
31
0.0000000000
11
-8.3447355859
21
2.1721617470
31
0.0000000000
0
SPLINE
5
303
100
AcDbEntity
8
0
100
AcDbSpline
62
9
6
CONTINUOUS
70
0
71
3
72
19
73
15
74
13
42
0.0000001000
43
0.0000001000
44
0.0000000001
12
0.2592221133
22
-0.1296132622
32
0.0000000000
13
0.2602163000
23
0.1276055600
33
0.0000000000
40
0.0000000000
40
0.0000000000
40
0.0000000000
40
0.0000000000
40
0.0736801643
40
0.1523386974
40
0.2352112723
40
0.3213796287
40
0.4098159458
40
0.4994215486
40
0.5890625010
40
0.6776038134
40
0.7639436109
40
0.8470485958
40
0.9259924982
40
1.0000000000
40
1.0000000000
40
1.0000000000
40
1.0000000000
10
-14.8300450131
20
4.5427092791
30
0.0000000000
10
-14.8236785038
20
4.5395259703
30
0.0000000000
10
-14.8101569223
20
4.5336469911
30
0.0000000000
10
-14.7885700153
20
4.5264738958
30
0.0000000000
10
-14.7653112539
20
4.5207492061
30
0.0000000000
10
-14.7407703369
20
4.5165698486
30
0.0000000000
10
-14.7153559405
20
4.5140056322
30
0.0000000000
10
-14.6894936585
20
4.5130999577
30
0.0000000000
10
-14.6636167992
20
4.5138680946
30
0.0000000000
10
-14.6381589322
20
4.5162970923
30
0.0000000000
10
-14.6135464238
20
4.5203458247
30
0.0000000000
10
-14.5901892486
20
4.5259466351
30
0.0000000000
10
-14.5684788352
20
4.5330046495
30
0.0000000000
10
-14.5548611685
20
4.5388091758
30
0.0000000000
10
-14.5484418491
20
4.5419570987
30
0.0000000000
11
-14.8300450131
21
4.5427092791
31
0.0000000000
11
-14.8104912995
21
4.5341275925
31
0.0000000000
11
-14.7888754693
21
4.5268852767
31
0.0000000000
11
-14.7655632830
21
4.5211048788
31
0.0000000000
11
-14.7409492053
21
4.5168842086
31
0.0000000000
11
-14.7154497298
21
4.5142946839
31
0.0000000000
11
-14.6894963323
21
4.5133801220
31
0.0000000000
11
-14.6635281689
21
4.5141559981
31
0.0000000000
11
-14.6379846461
21
4.5166091836
31
0.0000000000
11
-14.6132979846
21
4.5206981683
31
0.0000000000
11
-14.5898859065
21
4.5263537626
31
0.0000000000
11
-14.5681445665
21
4.5334802686
31
0.0000000000
11
-14.5484418491
21
4.5419570987
31
0.0000000000
0
SPLINE
5
304
100
AcDbEntity
8
0
100
AcDbSpline
62
9
6
CONTINUOUS
70
0
71
3
72
20
73
16
74
14
42
0.0000001000
43
0.0000001000
44
0.0000000001
12
0.2592154043
22
-0.1296160078
32
0.0000000000
13
0.2603119525
23
0.1273994612
33
0.0000000000
40
0.0000000000
40
0.0000000000
40
0.0000000000
40
0.0000000000
40
0.0678341107
40
0.1399568930
40
0.2157823038
40
0.2946070830
40
0.3756416068
40
0.4580365975
40
0.5409075090
40
0.6233576982
40
0.7045012090
40
0.7834858976
40
0.8595177159
40
0.9318872352
40
1.0000000000
40
1.0000000000
40
1.0000000000
40
1.0000000000
10
-14.8297032557
20
4.8897873788
30
0.0000000000
10
-14.8238420402
20
4.8868565833
30
0.0000000000
10
-14.8114460031
20
4.8814041454
30
0.0000000000
10
-14.7917136843
20
4.8746216981
30
0.0000000000
10
-14.7705046696
20
4.8690589524
30
0.0000000000
10
-14.7481222741
20
4.8647962021
30
0.0000000000
10
-14.7248845478
20
4.8618941306
30
0.0000000000
10
-14.7011234772
20
4.8603945585
30
0.0000000000
10
-14.6771787202
20
4.8603190595
30
0.0000000000
10
-14.6533928048
20
4.8616687173
30
0.0000000000
10
-14.6301057624
20
4.8644241034
30
0.0000000000
10
-14.6076503207
20
4.8685454989
30
0.0000000000
10
-14.5863456342
20
4.8739741879
30
0.0000000000
10
-14.5664964789
20
4.8806318276
30
0.0000000000
10
-14.5540104161
20
4.8860038568
30
0.0000000000
10
-14.5481002271
20
4.8888963667
30
0.0000000000
11
-14.8297032557
21
4.8897873788
31
0.0000000000
11
-14.8117313257
21
4.8818186640
31
0.0000000000
11
-14.7919791485
21
4.8749807411
31
0.0000000000
11
-14.7707315688
21
4.8693720742
31
0.0000000000
11
-14.7482949965
21
4.8650735420
31
0.0000000000
11
-14.7249929875
21
4.8621471308
31
0.0000000000
11
-14.7011615772
21
4.8606350400
31
0.0000000000
11
-14.6771444353
21
4.8605590731
31
0.0000000000
11
-14.6532879100
21
4.8619203236
31
0.0000000000
11
-14.6299360326
21
4.8646991598
31
0.0000000000
11
-14.6074255571
21
4.8688555076
31
0.0000000000
11
-14.5860811035
21
4.8743294278
31
0.0000000000
11
-14.5662104769
21
4.8810419812
31
0.0000000000
11
-14.5481002271
21
4.8888963667
31
0.0000000000
0
SPLINE
5
305
100
AcDbEntity
8
0
100
AcDbSpline
62
9
6
CONTINUOUS
70
0
71
3
72
15
73
11
74
9
42
0.0000001000
43
0.0000001000
44
0.0000000001
12
-0.0001009374
22
-0.1578689818
32
0.0000000000
13
0.1413862057
23
-0.0707059848
33
0.0000000000
40
0.0000000000
40
0.0000000000
40
0.0000000000
40
0.0000000000
40
0.1495025144
40
0.2915335352
40
0.4259147276
40
0.5528453937
40
0.6729673334
40
0.7874022726
40
0.8977459134
40
1.0000000000
40
1.0000000000
40
1.0000000000
40
1.0000000000
10
-7.9032213163
20
1.0792974304
30
0.0000000000
10
-7.9032263464
20
1.0714301605
30
0.0000000000
10
-7.9025571127
20
1.0560763859
30
0.0000000000
10
-7.8993492404
20
1.0338540752
30
0.0000000000
10
-7.8939942951
20
1.0132647821
30
0.0000000000
10
-7.8865463644
20
0.9945630442
30
0.0000000000
10
-7.8770811968
20
0.9779829106
30
0.0000000000
10
-7.8656982803
20
0.9637431327
30
0.0000000000
10
-7.8527644823
20
0.9522560630
30
0.0000000000
10
-7.8431805749
20
0.9463734441
30
0.0000000000
10
-7.8383614692
20
0.9439634522
30
0.0000000000
11
-7.9032213163
21
1.0792974304
31
0.0000000000
11
-7.9021385206
21
1.0557204670
31
0.0000000000
11
-7.8988723717
21
1.0335373274
31
0.0000000000
11
-7.8934634827
21
1.0130238125
31
0.0000000000
11
-7.8859792319
21
0.9944355304
31
0.0000000000
11
-7.8765127698
21
0.9780038035
31
0.0000000000
11
-7.8651819212
21
0.9639331778
31
0.0000000000
11
-7.8521277787
21
0.9523988703
31
0.0000000000
11
-7.8383614692
21
0.9439634522
31
0.0000000000
0
SPLINE
5
306
100
AcDbEntity
8
0
100
AcDbSpline
62
9
6
CONTINUOUS
70
0
71
3
72
15
73
11
74
9
42
0.0000001000
43
0.0000001000
44
0.0000000001
12
-0.2130127050
22
0.1065061136
32
0.0000000000
13
-0.0049445004
23
0.2384614837
33
0.0000000000
40
0.0000000000
40
0.0000000000
40
0.0000000000
40
0.0000000000
40
0.1563084566
40
0.3027771019
40
0.4393283928
40
0.5662514947
40
0.6843218550
40
0.7948689476
40
0.8998166146
40
1.0000000000
40
1.0000000000
40
1.0000000000
40
1.0000000000
10
-18.7977316470
20
6.5265525965
30
0.0000000000
10
-18.8088302094
20
6.5321018653
30
0.0000000000
10
-18.8299408828
20
6.5436588742
30
0.0000000000
10
-18.8590045134
20
6.5630241170
30
0.0000000000
10
-18.8842094806
20
6.5837079687
30
0.0000000000
10
-18.9053188767
20
6.6055364323
30
0.0000000000
10
-18.9221251211
20
6.6283319022
30
0.0000000000
10
-18.9344408163
20
6.6519079553
30
0.0000000000
10
-18.9420576688
20
6.6759295913
30
0.0000000000
10
-18.9439869909
20
6.6922012502
30
0.0000000000
10
-18.9441521098
20
6.7001645431
30
0.0000000000
11
-18.7977316470
21
6.5265525965
31
0.0000000000
11
-18.8303389677
21
6.5445112957
31
0.0000000000
11
-18.8593065580
21
6.5639445878
31
0.0000000000
11
-18.8843656595
21
6.5846718420
31
0.0000000000
11
-18.9052789067
21
6.6064968886
31
0.0000000000
11
-18.9218497346
21
6.6292145181
31
0.0000000000
11
-18.9339220740
21
6.6526108760
31
0.0000000000
11
-18.9413820962
21
6.6764654449
31
0.0000000000
11
-18.9441521098
21
6.7001645431
31
0.0000000000
0
SPLINE
5
307
100
AcDbEntity
8
0
100
AcDbSpline
62
9
6
CONTINUOUS
70
0
71
3
72
9
73
5
74
3
42
0.0000001000
43
0.0000001000
44
0.0000000001
12
-0.0000546816
22
0.0026371629
32
0.0000000000
13
0.0000020883
23
0.0026377751
33
0.0000000000
40
0.0000000000
40
0.0000000000
40
0.0000000000
40
0.0000000000
40
0.1474954590
40
1.0000000000
40
1.0000000000
40
1.0000000000
40
1.0000000000
10
-18.9441521098
20
6.7001645431
30
0.0000000000
10
-18.9441547982
20
6.7002941996
30
0.0000000000
10
-18.9441716287
20
6.7011732834
30
0.0000000000
10
-18.9441789780
20
6.7020525393
30
0.0000000000
10
-18.9441783846
20
6.7028021110
30
0.0000000000
11
-18.9441521098
21
6.7001645431
31
0.0000000000
11
-18.9441595568
21
6.7005535251
31
0.0000000000
11
-18.9441783846
21
6.7028021110
31
0.0000000000
0
SPLINE
5
308
100
AcDbEntity
8
0
100
AcDbSpline
62
9
6
CONTINUOUS
70
0
71
3
72
10
73
6
74
4
42
0.0000001000
43
0.0000001000
44
0.0000000001
12
0.0050502121
22
7.9154818157
32
0.0000000000
13
0.1197180597
23
7.9145780345
33
0.0000000000
40
0.0000000000
40
0.0000000000
40
0.0000000000
40
0.0000000000
40
0.3325044106
40
0.6658360576
40
1.0000000000
40
1.0000000000
40
1.0000000000
40
1.0000000000
10
-18.7977316474
20
6.5265525962
30
0.0000000000
10
-18.7971719081
20
7.4038634681
30
0.0000000000
10
-18.7917719738
20
9.1606682069
30
0.0000000000
10
-18.7708894541
20
11.7990892715
30
0.0000000000
10
-18.7484674859
20
13.5601380924
30
0.0000000000
10
-18.7351323330
20
14.4417269586
30
0.0000000000
11
-18.7977316474
21
6.5265525962
31
0.0000000000
11
-18.7896578623
21
9.1584733640
31
0.0000000000
11
-18.7687913753
21
11.7968719783
31
0.0000000000
11
-18.7351323330
21
14.4417269586
31
0.0000000000
0
SPLINE
5
309
100
AcDbEntity
8
0
100
AcDbSpline
62
9
6
CONTINUOUS
70
0
71
3
72
14
73
10
74
8
42
0.0000001000
43
0.0000001000
44
0.0000000001
12
0.1591919159
22
10.5233295456
32
0.0000000000
13
1.1906596420
23
10.4569659275
33
0.0000000000
40
0.0000000000
40
0.0000000000
40
0.0000000000
40
0.0000000000
40
0.1398556385
40
0.2807463514
40
0.4226523539
40
0.5655528729
40
0.7094262094
40
0.8542497444
40
1.0000000000
40
1.0000000000
40
1.0000000000
40
1.0000000000
10
-18.7351323330
20
14.4417269586
30
0.0000000000
10
-18.7277110373
20
14.9323092830
30
0.0000000000
10
-18.7055256509
20
15.9170092102
30
0.0000000000
10
-18.6505979344
20
17.3987798596
30
0.0000000000
10
-18.5739154109
20
18.8902825789
30
0.0000000000
10
-18.4755049522
20
20.3909934424
30
0.0000000000
10
-18.3554007769
20
21.9003918886
30
0.0000000000
10
-18.2136451871
20
23.4179483989
30
0.0000000000
10
-18.1050792839
20
24.4315718809
30
0.0000000000
10
-18.0472329682
20
24.9396070332
30
0.0000000000
11
-18.7351323330
21
14.4417269586
31
0.0000000000
11
-18.7020586866
21
15.9132706948
31
0.0000000000
11
-18.6472080185
21
17.3950648924
31
0.0000000000
11
-18.5705994292
21
18.8865932714
31
0.0000000000
11
-18.4722596038
21
20.3873360537
31
0.0000000000
11
-18.3522227872
21
21.8967704087
31
0.0000000000
11
-18.2105307927
21
23.4143703201
31
0.0000000000
11
-18.0472329682
21
24.9396070332
31
0.0000000000
0
SPLINE
5
30A
100
AcDbEntity
8
0
100
AcDbSpline
62
9
6
CONTINUOUS
70
0
71
3
72
23
73
19
74
17
42
0.0000001000
43
0.0000001000
44
0.0000000001
12
0.1479816886
22
1.2876557004
32
0.0000000000
13
1.1243233035
23
0.6448665693
33
0.0000000000
40
0.0000000000
40
0.0000000000
40
0.0000000000
40
0.0000000000
40
0.0612296714
40
0.1239314127
40
0.1878571841
40
0.2527334316
40
0.3182736210
40
0.3841804823
40
0.4501500878
40
0.5158779238
40
0.5810636178
40
0.6454152966
40
0.7086540692
40
0.7705191238
40
0.8307743794
40
0.8892135882
40
0.9456640716
40
1.0000000000
40
1.0000000000
40
1.0000000000
40
1.0000000000
10
-18.0472329682
20
24.9396070332
30
0.0000000000
10
-18.0442126781
20
24.9658879450
30
0.0000000000
10
-18.0364305427
20
25.0189021932
30
0.0000000000
10
-18.0199442220
20
25.0984154940
30
0.0000000000
10
-17.9986107882
20
25.1784000858
30
0.0000000000
10
-17.9725857532
20
25.2582714198
30
0.0000000000
10
-17.9420585129
20
25.3374496464
30
0.0000000000
10
-17.9072510966
20
25.4153587073
30
0.0000000000
10
-17.8684167769
20
25.4914317016
30
0.0000000000
10
-17.8258381697
20
25.5651148785
30
0.0000000000
10
-17.7798248882
20
25.6358722432
30
0.0000000000
10
-17.7307113146
20
25.7031891767
30
0.0000000000
10
-17.6788543200
20
25.7665759383
30
0.0000000000
10
-17.6246301365
20
25.8255717131
30
0.0000000000
10
-17.5684318620
20
25.8797476635
30
0.0000000000
10
-17.5106643676
20
25.9287108403
30
0.0000000000
10
-17.4517490697
20
25.9721024359
30
0.0000000000
10
-17.4111823180
20
25.9976113575
30
0.0000000000
10
-17.3908186012
20
26.0092911654
30
0.0000000000
11
-18.0472329682
21
24.9396070332
31
0.0000000000
11
-18.0357677293
21
25.0181361653
31
0.0000000000
11
-18.0193176818
21
25.0977235774
31
0.0000000000
11
-17.9980023721
21
25.1777910740
31
0.0000000000
11
-17.9719781712
21
25.2577507703
31
0.0000000000
11
-17.9414351666
21
25.3370186865
31
0.0000000000
11
-17.9065964481
21
25.4150155567
31
0.0000000000
11
-17.8677170245
21
25.4911702627
31
0.0000000000
11
-17.8250813277
21
25.5649256402
31
0.0000000000
11
-17.7790010079
21
25.6357425148
31
0.0000000000
11
-17.7298128595
21
25.7031031542
31
0.0000000000
11
-17.6778767025
21
25.7665146511
31
0.0000000000
11
-17.6235728589
21
25.8255126350
31
0.0000000000
11
-17.5672982404
21
25.8796658967
31
0.0000000000
11
-17.5094638736
21
25.9285787999
31
0.0000000000
11
-17.4504944421
21
25.9718921829
31
0.0000000000
11
-17.3908186012
21
26.0092911654
31
0.0000000000
0
SPLINE
5
30B
100
AcDbEntity
8
0
100
AcDbSpline
62
7
6
CONTINUOUS
70
0
71
3
72
25
73
21
74
19
42
0.0000001000
43
0.0000001000
44
0.0000000001
12
0.0000000000
22
0.7340211102
32
0.0000000000
13
-0.6540658927
23
0.3331438101
33
0.0000000000
40
0.0000000000
40
0.0000000000
40
0.0000000000
40
0.0000000000
40
0.0515655743
40
0.1047211178
40
0.1595434612
40
0.2158087762
40
0.2732675102
40
0.3316498847
40
0.3906710543
40
0.4500360258
40
0.5094444270
40
0.5685951981
40
0.6271912749
40
0.6849443314
40
0.7415796539
40
0.7968412296
40
0.8504971498
40
0.9023454415
40
0.9522204626
40
1.0000000000
40
1.0000000000
40
1.0000000000
40
1.0000000000
10
16.4225514575
20
11.4406102213
30
0.0000000000
10
16.4225514575
20
11.4532269613
30
0.0000000000
10
16.4197073622
20
11.4787749048
30
0.0000000000
10
16.4143944180
20
11.5174319635
30
0.0000000000
10
16.4060754545
20
11.5567895888
30
0.0000000000
10
16.3953471636
20
11.5966244791
30
0.0000000000
10
16.3821379519
20
11.6366327994
30
0.0000000000
10
16.3665895872
20
11.6765119660
30
0.0000000000
10
16.3488078904
20
11.7159591501
30
0.0000000000
10
16.3289307086
20
11.7546748163
30
0.0000000000
10
16.3071079455
20
11.7923648307
30
0.0000000000
10
16.2835055345
20
11.8287428992
30
0.0000000000
10
16.2583027140
20
11.8635328287
30
0.0000000000
10
16.2316909390
20
11.8964707294
30
0.0000000000
10
16.2038722381
20
11.9273070771
30
0.0000000000
10
16.1750574470
20
11.9558087127
30
0.0000000000
10
16.1454648135
20
11.9817604181
30
0.0000000000
10
16.1153167214
20
12.0049672094
30
0.0000000000
10
16.0848427365
20
12.0252531239
30
0.0000000000
10
16.0639969144
20
12.0369893409
30
0.0000000000
10
16.0535799258
20
12.0422951600
30
0.0000000000
11
16.4225514575
21
11.4406102213
31
0.0000000000
11
16.4195945861
21
11.4783447688
31
0.0000000000
11
16.4139959346
21
11.5169582911
31
0.0000000000
11
16.4057967821
21
11.5563548956
31
0.0000000000
11
16.3950585011
21
11.5962343823
31
0.0000000000
11
16.3818620636
21
11.6362926221
31
0.0000000000
11
16.3663074246
21
11.6762239325
31
0.0000000000
11
16.3485127545
21
11.7157234688
31
0.0000000000
11
16.3286135242
21
11.7544896095
31
0.0000000000
11
16.3067614518
21
11.7922263180
31
0.0000000000
11
16.2831233188
21
11.8286454611
31
0.0000000000
11
16.2578796658
21
11.8634690627
31
0.0000000000
11
16.2312233784
21
11.8964314784
31
0.0000000000
11
16.2033581752
21
11.9272814689
31
0.0000000000
11
16.1744970094
21
11.9557841585
31
0.0000000000
11
16.1448603987
21
11.9817228612
31
0.0000000000
11
16.1146746959
21
12.0049007595
31
0.0000000000
11
16.0841703155
21
12.0251424237
31
0.0000000000
11
16.0535799258
21
12.0422951600
31
0.0000000000
0
SPLINE
5
30C
100
AcDbEntity
8
0
100
AcDbSpline
62
9
6
CONTINUOUS
70
0
71
3
72
10
73
6
74
4
42
0.0000001000
43
0.0000001000
44
0.0000000001
12
-0.1238870970
22
-7.9071942042
32
0.0000000000
13
-0.0051992262
23
-7.9081629449
33
0.0000000000
40
0.0000000000
40
0.0000000000
40
0.0000000000
40
0.0000000000
40
0.3341367047
40
0.6674683195
40
1.0000000000
40
1.0000000000
40
1.0000000000
40
1.0000000000
10
12.7400078721
20
-0.9567511743
30
0.0000000000
10
12.7262094633
20
-1.8374457794
30
0.0000000000
10
12.7030098366
20
-3.5967846692
30
0.0000000000
10
12.6814075160
20
-6.2327609336
30
0.0000000000
10
12.6758255508
20
-7.9880131242
30
0.0000000000
10
12.6752492483
20
-8.8645846955
30
0.0000000000
11
12.7400078721
21
-0.9567511743
31
0.0000000000
11
12.7051823429
21
-3.5989297515
31
0.0000000000
11
12.6835960828
21
-6.2348826598
31
0.0000000000
11
12.6752492483
21
-8.8645846955
31
0.0000000000
0
SPLINE
5
30D
100
AcDbEntity
8
0
100
AcDbSpline
62
9
6
CONTINUOUS
70
0
71
3
72
22
73
18
74
16
42
0.0000001000
43
0.0000001000
44
0.0000000001
12
-0.6543926149
22
-0.3009959648
32
0.0000000000
13
-0.6441472341
23
0.3223392715
33
0.0000000000
40
0.0000000000
40
0.0000000000
40
0.0000000000
40
0.0000000000
40
0.0586380402
40
0.1205603965
40
0.1853917733
40
0.2526884815
40
0.3219537238
40
0.3926509489
40
0.4642159671
40
0.5360683131
40
0.6076222068
40
0.6782973892
40
0.7475300887
40
0.8147843939
40
0.8795643883
40
0.9414275335
40
1.0000000000
40
1.0000000000
40
1.0000000000
40
1.0000000000
10
12.7400078721
20
-0.9567511743
30
0.0000000000
10
12.7272171053
20
-0.9626344455
30
0.0000000000
10
12.7004107006
20
-0.9736454955
30
0.0000000000
10
12.6581057351
20
-0.9875899141
30
0.0000000000
10
12.6129780243
20
-0.9992977365
30
0.0000000000
10
12.5655085102
20
-1.0086432682
30
0.0000000000
10
12.5161995553
20
-1.0155273759
30
0.0000000000
10
12.4655755085
20
-1.0198762957
30
0.0000000000
10
12.4141750056
20
-1.0216434333
30
0.0000000000
10
12.3625454465
20
-1.0208097770
30
0.0000000000
10
12.3112367539
20
-1.0173842081
30
0.0000000000
10
12.2607953392
20
-1.0114034032
30
0.0000000000
10
12.2117578744
20
-1.0029313210
30
0.0000000000
10
12.1646457885
20
-0.9920586110
30
0.0000000000
10
12.1199576254
20
-0.9789005583
30
0.0000000000
10
12.0781695977
20
-0.9635983052
30
0.0000000000
10
12.0517655492
20
-0.9517271692
30
0.0000000000
10
12.0391891184
20
-0.9454337671
30
0.0000000000
11
12.7400078721
21
-0.9567511743
31
0.0000000000
11
12.7009742930
21
-0.9728858903
31
0.0000000000
11
12.6586375267
21
-0.9869209186
31
0.0000000000
11
12.6134511843
21
-0.9987058830
31
0.0000000000
11
12.5658994079
21
-1.0081145153
31
0.0000000000
11
12.5164916841
21
-1.0150460080
31
0.0000000000
11
12.4657573844
21
-1.0194260949
31
0.0000000000
11
12.4142400939
21
-1.0212078460
31
0.0000000000
11
12.3624917870
21
-1.0203721711
31
0.0000000000
11
12.3110669131
21
-1.0169280238
31
0.0000000000
11
12.2605164563
21
-1.0109123060
31
0.0000000000
11
12.2113820320
21
-1.0023894722
31
0.0000000000
11
12.1641900835
21
-0.9914508391
31
0.0000000000
11
12.1194462420
21
-0.9782136069
31
0.0000000000
11
12.0776299087
21
-0.9628196040
31
0.0000000000
11
12.0391891184
21
-0.9454337671
31
0.0000000000
0
SPLINE
5
30E
100
AcDbEntity
8
0
100
AcDbSpline
62
9
6
CONTINUOUS
70
0
71
3
72
10
73
6
74
4
42
0.0000001000
43
0.0000001000
44
0.0000000001
12
-0.1239825528
22
-7.9134236847
32
0.0000000000
13
-0.0052288054
23
-7.9143931382
33
0.0000000000
40
0.0000000000
40
0.0000000000
40
0.0000000000
40
0.0000000000
40
0.3341363892
40
0.6674678474
40
1.0000000000
40
1.0000000000
40
1.0000000000
40
1.0000000000
10
12.0391891184
20
-0.9454337671
30
0.0000000000
10
12.0253800909
20
-1.8268213724
30
0.0000000000
10
12.0021616685
20
-3.5875450486
30
0.0000000000
10
11.9805384685
20
-6.2255979519
30
0.0000000000
10
11.9749474764
20
-7.9822337792
30
0.0000000000
10
11.9743678944
20
-8.8594971747
30
0.0000000000
11
12.0391891184
21
-0.9454337671
31
0.0000000000
11
12.0043353769
21
-3.5896913978
31
0.0000000000
11
11.9827282516
21
-6.2277196929
31
0.0000000000
11
11.9743678944
21
-8.8594971747
31
0.0000000000
0
SPLINE
5
30F
100
AcDbEntity
8
0
100
AcDbSpline
62
9
6
CONTINUOUS
70
0
71
3
72
23
73
19
74
17
42
0.0000001000
43
0.0000001000
44
0.0000000001
12
-0.6507046003
22
-0.3104569712
32
0.0000000000
13
-0.6448562887
23
0.3224288676
33
0.0000000000
40
0.0000000000
40
0.0000000000
40
0.0000000000
40
0.0000000000
40
0.0551603465
40
0.1131635842
40
0.1737153562
40
0.2364585000
40
0.3009967183
40
0.3669005291
40
0.4337158748
40
0.5009737096
40
0.5681980572
40
0.6349135077
40
0.7006527116
40
0.7649644489
40
0.8274232039
40
0.8876381807
40
0.9452587886
40
1.0000000000
40
1.0000000000
40
1.0000000000
40
1.0000000000
10
12.6752492483
20
-8.8645846955
30
0.0000000000
10
12.6632848846
20
-8.8702930002
30
0.0000000000
10
12.6382774252
20
-8.8810525414
30
0.0000000000
10
12.5988723704
20
-8.8949228933
30
0.0000000000
10
12.5569333314
20
-8.9068294079
30
0.0000000000
10
12.5128526009
20
-8.9166601100
30
0.0000000000
10
12.4670409012
20
-8.9243233334
30
0.0000000000
10
12.4199265243
20
-8.9297470584
30
0.0000000000
10
12.3719503828
20
-8.9328802892
30
0.0000000000
10
12.3235618885
20
-8.9336935256
30
0.0000000000
10
12.2752142528
20
-8.9321791201
30
0.0000000000
10
12.2273602842
20
-8.9283513201
30
0.0000000000
10
12.1804481939
20
-8.9222461614
30
0.0000000000
10
12.1349169336
20
-8.9139210261
30
0.0000000000
10
12.0911920471
20
-8.9034541322
30
0.0000000000
10
12.0496808228
20
-8.8909430041
30
0.0000000000
10
12.0107712821
20
-8.8765052283
30
0.0000000000
10
11.9861346329
20
-8.8653805566
30
0.0000000000
10
11.9743678947
20
-8.8594971744
30
0.0000000000
11
12.6752492483
21
-8.8645846955
31
0.0000000000
11
12.6387483206
21
-8.8803726326
31
0.0000000000
11
12.5993230702
21
-8.8943172401
31
0.0000000000
11
12.5573405151
21
-8.9062889021
31
0.0000000000
11
12.5131978294
21
-8.9161742988
31
0.0000000000
11
12.4673101838
21
-8.9238804931
31
0.0000000000
11
12.4201095174
21
-8.9293349260
31
0.0000000000
11
12.3720407351
21
-8.9324861745
31
0.0000000000
11
12.3235566550
21
-8.9333045808
31
0.0000000000
11
12.2751137187
21
-8.9317824625
31
0.0000000000
11
12.2271679682
21
-8.9279341451
31
0.0000000000
11
12.1801710366
21
-8.9217958675
31
0.0000000000
11
12.1345658868
21
-8.9134255082
31
0.0000000000
11
12.0907818314
21
-8.9029019035
31
0.0000000000
11
12.0492305505
21
-8.8903239664
31
0.0000000000
11
12.0103053011
21
-8.8758108387
31
0.0000000000
11
11.9743678947
21
-8.8594971744
31
0.0000000000
0
SPLINE
5
310
100
AcDbEntity
8
0
100
AcDbSpline
62
9
6
CONTINUOUS
70
0
71
3
72
22
73
18
74
16
42
0.0000001000
43
0.0000001000
44
0.0000000001
12
-0.6835201074
22
-0.2059171239
32
0.0000000000
13
-0.6375934082
23
0.3210548938
33
0.0000000000
40
0.0000000000
40
0.0000000000
40
0.0000000000
40
0.0000000000
40
0.0559369014
40
0.1157642744
40
0.1790687705
40
0.2453640674
40
0.3141068100
40
0.3847100973
40
0.4565554923
40
0.5290041632
40
0.6014075464
40
0.6731178054
40
0.7434983032
40
0.8119343148
40
0.8778442612
40
0.9406918831
40
1.0000000000
40
1.0000000000
40
1.0000000000
40
1.0000000000
10
13.4483211619
20
9.4706895503
30
0.0000000000
10
13.4355764963
20
9.4668500950
30
0.0000000000
10
13.4088838437
20
9.4599344710
30
0.0000000000
10
13.3670036408
20
9.4519501393
30
0.0000000000
10
13.3222905974
20
9.4460696001
30
0.0000000000
10
13.2752208686
20
9.4423574256
30
0.0000000000
10
13.2262930396
20
9.4408541548
30
0.0000000000
10
13.1760280400
20
9.4415769401
30
0.0000000000
10
13.1249614652
20
9.4445188265
30
0.0000000000
10
13.0736380129
20
9.4496488893
30
0.0000000000
10
13.0226052680
20
9.4569125286
30
0.0000000000
10
12.9724076897
20
9.4662320663
30
0.0000000000
10
12.9235804639
20
9.4775076559
30
0.0000000000
10
12.8766438852
20
9.4906182695
30
0.0000000000
10
12.8320962402
20
9.5054236683
30
0.0000000000
10
12.7904124685
20
9.5217642463
30
0.0000000000
10
12.7639964017
20
9.5339477055
30
0.0000000000
10
12.7513915802
20
9.5402947592
30
0.0000000000
11
13.4483211619
21
9.4706895503
31
0.0000000000
11
13.4096917019
21
9.4605763861
31
0.0000000000
11
13.3677539079
21
9.4524988954
31
0.0000000000
11
13.3229572271
21
9.4465436444
31
0.0000000000
11
13.2757817453
21
9.4427744557
31
0.0000000000
11
13.2267330422
21
9.4412317236
31
0.0000000000
11
13.1763367724
21
9.4419319815
31
0.0000000000
11
13.1251330326
21
9.4448677249
31
0.0000000000
11
13.0736705733
21
9.4500074912
31
0.0000000000
11
13.0225009173
21
9.4572961978
31
0.0000000000
11
12.9721724498
21
9.4666557315
31
0.0000000000
11
12.9232245408
21
9.4779857863
31
0.0000000000
11
12.8761817648
21
9.4911649379
31
0.0000000000
11
12.8315482793
21
9.5060519455
31
0.0000000000
11
12.7898024210
21
9.5224872650
31
0.0000000000
11
12.7513915802
21
9.5402947592
31
0.0000000000
0
SPLINE
5
311
100
AcDbEntity
8
0
100
AcDbSpline
62
9
6
CONTINUOUS
70
0
71
3
72
14
73
10
74
8
42
0.0000001000
43
0.0000001000
44
0.0000000001
12
-1.2334112251
22
-10.4417429267
32
0.0000000000
13
-0.1646990618
23
-10.5130477416
33
0.0000000000
40
0.0000000000
40
0.0000000000
40
0.0000000000
40
0.0000000000
40
0.1456783453
40
0.2904504056
40
0.4342948041
40
0.5771910431
40
0.7191195639
40
0.8600617523
40
1.0000000000
40
1.0000000000
40
1.0000000000
40
1.0000000000
10
12.7513915800
20
9.5402947592
30
0.0000000000
10
12.6914978112
20
9.0332494818
30
0.0000000000
10
12.5790891601
20
8.0214708476
30
0.0000000000
10
12.4323258821
20
6.5064067649
30
0.0000000000
10
12.3079792641
20
4.9991178208
30
0.0000000000
10
12.2060931536
20
3.5001330922
30
0.0000000000
10
12.1267029863
20
2.0099723842
30
0.0000000000
10
12.0698366089
20
0.5291594834
30
0.0000000000
10
12.0468716844
20
-0.4550412740
30
0.0000000000
10
12.0391891184
20
-0.9454337671
30
0.0000000000
11
12.7513915800
21
9.5402947592
31
0.0000000000
11
12.5823245354
21
8.0179426561
31
0.0000000000
11
12.4356266426
21
6.5028456938
31
0.0000000000
11
12.3113489929
21
4.9955317553
31
0.0000000000
11
12.2095348770
21
3.4965261183
31
0.0000000000
11
12.1302197494
21
2.0063510084
31
0.0000000000
11
12.0734312381
21
0.5255257324
31
0.0000000000
11
12.0391891184
21
-0.9454337671
31
0.0000000000
0
SPLINE
5
312
100
AcDbEntity
8
0
100
AcDbSpline
62
9
6
CONTINUOUS
70
0
71
3
72
14
73
10
74
8
42
0.0000001000
43
0.0000001000
44
0.0000000001
12
-1.2266775718
22
-10.3836908122
32
0.0000000000
13
-0.1637995527
23
-10.4546134531
33
0.0000000000
40
0.0000000000
40
0.0000000000
40
0.0000000000
40
0.0000000000
40
0.1456780654
40
0.2904500255
40
0.4342943857
40
0.5771906543
40
0.7191192784
40
0.8600616500
40
1.0000000000
40
1.0000000000
40
1.0000000000
40
1.0000000000
10
13.4483211619
20
9.4706895503
30
0.0000000000
10
13.3887544901
20
8.9664642205
30
0.0000000000
10
13.2769596547
20
7.9603118392
30
0.0000000000
10
13.1309978133
20
6.4536716869
30
0.0000000000
10
13.0073301850
20
4.9547619893
30
0.0000000000
10
12.9060004278
20
3.4641093125
30
0.0000000000
10
12.8270437853
20
1.9822305732
30
0.0000000000
10
12.7704879634
20
0.5096472308
30
0.0000000000
10
12.7476484851
20
-0.4690840555
30
0.0000000000
10
12.7400078721
20
-0.9567511743
30
0.0000000000
11
13.4483211619
21
9.4706895503
31
0.0000000000
11
13.2801774401
21
7.9568038104
31
0.0000000000
11
13.1342805788
21
6.4501305624
31
0.0000000000
11
13.0106815415
21
4.9511960393
31
0.0000000000
11
12.9094233829
21
3.4605226011
31
0.0000000000
11
12.8305413644
21
1.9786295720
31
0.0000000000
11
12.7740629620
21
0.5060333725
31
0.0000000000
11
12.7400078721
21
-0.9567511743
31
0.0000000000
0
SPLINE
5
313
100
AcDbEntity
8
0
100
AcDbSpline
62
9
6
CONTINUOUS
70
0
71
3
72
22
73
18
74
16
42
0.0000001000
43
0.0000001000
44
0.0000000001
12
-0.0325530559
22
0.7322080464
32
0.0000000000
13
-0.6505742275
23
0.3375522170
33
0.0000000000
40
0.0000000000
40
0.0000000000
40
0.0000000000
40
0.0000000000
40
0.0619071126
40
0.1264432765
40
0.1932519098
40
0.2619169802
40
0.3319771885
40
0.4029389192
40
0.4742883781
40
0.5455032518
40
0.6160641732
40
0.6854662543
40
0.7532309530
40
0.8189185831
40
0.8821418412
40
0.9425808148
40
1.0000000000
40
1.0000000000
40
1.0000000000
40
1.0000000000
10
13.7851973207
20
10.0011971287
30
0.0000000000
10
13.7845255655
20
10.0163067574
30
0.0000000000
10
13.7818347161
20
10.0471201656
30
0.0000000000
10
13.7741515645
20
10.0937442011
30
0.0000000000
10
13.7628151401
20
10.1413154277
30
0.0000000000
10
13.7479489883
20
10.1893149491
30
0.0000000000
10
13.7297144154
20
10.2372239847
30
0.0000000000
10
13.7083093939
20
10.2845223207
30
0.0000000000
10
13.6839663917
20
10.3306963946
30
0.0000000000
10
13.6569498673
20
10.3752445571
30
0.0000000000
10
13.6275532753
20
10.4176829156
30
0.0000000000
10
13.5960957572
20
10.4575507010
30
0.0000000000
10
13.5629182090
20
10.4944155154
30
0.0000000000
10
13.5283799025
20
10.5278777061
30
0.0000000000
10
13.4928515577
20
10.5575759096
30
0.0000000000
10
13.4567194584
20
10.5831860147
30
0.0000000000
10
13.4318163948
20
10.5977389167
30
0.0000000000
10
13.4193645807
20
10.6041995744
30
0.0000000000
11
13.7851973207
21
10.0011971287
31
0.0000000000
11
13.7813306552
21
10.0464057352
31
0.0000000000
11
13.7737053138
21
10.0930876231
31
0.0000000000
11
13.7624047443
21
10.1407319301
31
0.0000000000
11
13.7475526142
21
10.1888172617
31
0.0000000000
11
13.7293114573
21
10.2368173969
31
0.0000000000
11
13.7078808952
21
10.2842070469
31
0.0000000000
11
13.6834954529
21
10.3304676040
31
0.0000000000
11
13.6564219920
21
10.3750928164
31
0.0000000000
11
13.6269567904
21
10.4175943289
31
0.0000000000
11
13.5954223000
21
10.4575070266
31
0.0000000000
11
13.5621636178
21
10.4943941257
31
0.0000000000
11
13.5275447099
21
10.5278519524
31
0.0000000000
11
13.4919444276
21
10.5575143617
31
0.0000000000
11
13.4557523621
21
10.5830567433
31
0.0000000000
11
13.4193645807
21
10.6041995744
31
0.0000000000
0
SPLINE
5
314
100
AcDbEntity
8
0
100
AcDbSpline
62
9
6
CONTINUOUS
70
0
71
3
72
9
73
5
74
3
42
0.0000001000
43
0.0000001000
44
0.0000000001
12
0.0002272500
22
0.3469393785
32
0.0000000000
13
0.0004559566
23
0.3469391533
33
0.0000000000
40
0.0000000000
40
0.0000000000
40
0.0000000000
40
0.0000000000
40
0.4999602602
40
1.0000000000
40
1.0000000000
40
1.0000000000
40
1.0000000000
10
-14.5484418491
20
4.5419570987
30
0.0000000000
10
-14.5484039771
20
4.5997757327
30
0.0000000000
10
-14.5483091724
20
4.7154221806
30
0.0000000000
10
-14.5481762007
20
4.8310685908
30
0.0000000000
10
-14.5481002019
20
4.8888963788
30
0.0000000000
11
-14.5484418491
21
4.5419570987
31
0.0000000000
11
-14.5482996397
21
4.7154129796
31
0.0000000000
11
-14.5481002019
21
4.8888963788
31
0.0000000000
0
SPLINE
5
315
100
AcDbEntity
8
0
100
AcDbSpline
62
9
6
CONTINUOUS
70
0
71
3
72
21
73
17
74
15
42
0.0000001000
43
0.0000001000
44
0.0000000001
12
-0.0493552707
22
-0.0237263077
32
0.0000000000
13
0.0000347602
23
0.0547620235
33
0.0000000000
40
0.0000000000
40
0.0000000000
40
0.0000000000
40
0.0000000000
40
0.0783787277
40
0.1525884585
40
0.2228786224
40
0.2898480212
40
0.3543655642
40
0.4175283315
40
0.4805724054
40
0.5447463586
40
0.6111800665
40
0.6807896255
40
0.7542268500
40
0.8318727822
40
0.9138560517
40
1.0000000000
40
1.0000000000
40
1.0000000000
40
1.0000000000
10
-14.5130892020
20
4.5159935043
30
0.0000000000
10
-14.5143786698
20
4.5153736251
30
0.0000000000
10
-14.5169563958
20
4.5142993566
30
0.0000000000
10
-14.5208855317
20
4.5132022857
30
0.0000000000
10
-14.5247239684
20
4.5126804637
30
0.0000000000
10
-14.5284223450
20
4.5127453232
30
0.0000000000
10
-14.5319325768
20
4.5134006387
30
0.0000000000
10
-14.5352057609
20
4.5146414978
30
0.0000000000
10
-14.5381945362
20
4.5164519296
30
0.0000000000
10
-14.5408566924
20
4.5188049152
30
0.0000000000
10
-14.5431578451
20
4.5216650281
30
0.0000000000
10
-14.5450714213
20
4.5249916982
30
0.0000000000
10
-14.5465771432
20
4.5287409197
30
0.0000000000
10
-14.5476595813
20
4.5328656376
30
0.0000000000
10
-14.5483076661
20
4.5373131084
30
0.0000000000
10
-14.5484428472
20
4.5403846264
30
0.0000000000
10
-14.5484418491
20
4.5419570987
30
0.0000000000
11
-14.5130892020
21
4.5159935043
31
0.0000000000
11
-14.5170564440
21
4.5143552773
31
0.0000000000
11
-14.5209745329
21
4.5132765435
31
0.0000000000
11
-14.5247906426
21
4.5127726620
31
0.0000000000
11
-14.5284572080
21
4.5128499803
31
0.0000000000
11
-14.5319285889
21
4.5135075473
31
0.0000000000
11
-14.5351615534
21
4.5147372138
31
0.0000000000
11
-14.5381158201
21
4.5165236976
31
0.0000000000
11
-14.5407545592
21
4.5188447607
31
0.0000000000
11
-14.5430448338
21
4.5216714219
31
0.0000000000
11
-14.5449581353
21
4.5249684395
31
0.0000000000
11
-14.5464706697
21
4.5286947352
31
0.0000000000
11
-14.5475636212
21
4.5328039175
31
0.0000000000
11
-14.5482234212
21
4.5372447405
31
0.0000000000
11
-14.5484418491
21
4.5419570987
31
0.0000000000
0
SPLINE
5
316
100
AcDbEntity
8
0
100
AcDbSpline
62
9
6
CONTINUOUS
70
0
71
3
72
23
73
19
74
17
42
0.0000001000
43
0.0000001000
44
0.0000000001
12
-1.1354538151
22
-0.6301607017
32
0.0000000000
13
-0.1509894523
23
-1.2897907045
33
0.0000000000
40
0.0000000000
40
0.0000000000
40
0.0000000000
40
0.0000000000
40
0.0547089587
40
0.1114655221
40
0.1701448141
40
0.2305762146
40
0.2925565616
40
0.3558536577
40
0.4202112793
40
0.4853557424
40
0.5510009412
40
0.6168527872
40
0.6826135382
40
0.7479865037
40
0.8126820966
40
0.8764218968
40
0.9389409004
40
1.0000000000
40
1.0000000000
40
1.0000000000
40
1.0000000000
10
13.4193645807
20
10.6041995744
30
0.0000000000
10
13.3986580821
20
10.5927077625
30
0.0000000000
10
13.3574044648
20
10.5675760802
30
0.0000000000
10
13.2974473360
20
10.5247043157
30
0.0000000000
10
13.2386579922
20
10.4762500789
30
0.0000000000
10
13.1814656145
20
10.4225683933
30
0.0000000000
10
13.1262822694
20
10.3640489207
30
0.0000000000
10
13.0735080780
20
10.3011171006
30
0.0000000000
10
13.0235259109
20
10.2342305370
30
0.0000000000
10
12.9766989373
20
10.1638758731
30
0.0000000000
10
12.9333674245
20
10.0905648114
30
0.0000000000
10
12.8938464340
20
10.0148306235
30
0.0000000000
10
12.8584235670
20
9.9372245553
30
0.0000000000
10
12.8273565570
20
9.8583112488
30
0.0000000000
10
12.8008714009
20
9.7786647694
30
0.0000000000
10
12.7791608249
20
9.6988632186
30
0.0000000000
10
12.7623832576
20
9.6194898673
30
0.0000000000
10
12.7544646733
20
9.5665459122
30
0.0000000000
10
12.7513915800
20
9.5402947592
30
0.0000000000
11
13.4193645807
21
10.6041995744
31
0.0000000000
11
13.3586379228
21
10.5673260004
31
0.0000000000
11
13.2986301520
21
10.5245317871
31
0.0000000000
11
13.2397773733
21
10.4761280899
31
0.0000000000
11
13.1825118334
21
10.4224702889
31
0.0000000000
11
13.1272517614
21
10.3639504191
31
0.0000000000
11
13.0744010710
21
10.3009961890
31
0.0000000000
11
13.0243467770
21
10.2340686224
31
0.0000000000
11
12.9774550370
21
10.1636574579
31
0.0000000000
11
12.9340685757
21
10.0902774627
31
0.0000000000
11
12.8945045309
21
10.0144650672
31
0.0000000000
11
12.8590523447
21
9.9367749309
31
0.0000000000
11
12.8279715133
21
9.8577759281
31
0.0000000000
11
12.8014890617
21
9.7780453571
31
0.0000000000
11
12.7797984099
21
9.6981655315
31
0.0000000000
11
12.7630587087
21
9.6187229463
31
0.0000000000
11
12.7513915800
21
9.5402947592
31
0.0000000000
0
SPLINE
5
317
100
AcDbEntity
8
0
100
AcDbSpline
62
9
6
CONTINUOUS
70
0
71
3
72
23
73
19
74
17
42
0.0000001000
43
0.0000001000
44
0.0000000001
12
-0.5704634073
22
-0.3114401015
32
0.0000000000
13
-0.0762552199
23
-0.6454522270
33
0.0000000000
40
0.0000000000
40
0.0000000000
40
0.0000000000
40
0.0000000000
40
0.0548774191
40
0.1117900475
40
0.1705926102
40
0.2311154893
40
0.2931569485
40
0.3564866596
40
0.4208506214
40
0.4859776946
40
0.5515846077
40
0.6173803367
40
0.6830703448
40
0.7483615293
40
0.8129681451
40
0.8766158394
40
0.9390439263
40
1.0000000000
40
1.0000000000
40
1.0000000000
40
1.0000000000
10
13.7851973207
20
10.0011971287
30
0.0000000000
10
13.7747621342
20
9.9955001190
30
0.0000000000
10
13.7539668676
20
9.9830308338
30
0.0000000000
10
13.7237302701
20
9.9617276351
30
0.0000000000
10
13.6940787915
20
9.9376276679
30
0.0000000000
10
13.6652327065
20
9.9109100018
30
0.0000000000
10
13.6373998562
20
9.8817686698
30
0.0000000000
10
13.6107820950
20
9.8504155496
30
0.0000000000
10
13.5855725495
20
9.8170786566
30
0.0000000000
10
13.5619544112
20
9.7820005591
30
0.0000000000
10
13.5400993211
20
9.7454364117
30
0.0000000000
10
13.5201662224
20
9.7076522355
30
0.0000000000
10
13.5023001973
20
9.6689231055
30
0.0000000000
10
13.4866312662
20
9.6295308472
30
0.0000000000
10
13.4732733901
20
9.5897620484
30
0.0000000000
10
13.4623238514
20
9.5499053378
30
0.0000000000
10
13.4538632011
20
9.5102558747
30
0.0000000000
10
13.4498705682
20
9.4838042948
30
0.0000000000
10
13.4483211619
20
9.4706895503
30
0.0000000000
11
13.7851973207
21
10.0011971287
31
0.0000000000
11
13.7545818839
21
9.9828985946
31
0.0000000000
11
13.7243171114
21
9.9616314127
31
0.0000000000
11
13.6946347776
21
9.9375567361
31
0.0000000000
11
13.6657528947
21
9.9108512710
31
0.0000000000
11
13.6378824187
21
9.8817101551
31
0.0000000000
11
13.6112270830
21
9.8503463765
31
0.0000000000
11
13.5859821006
21
9.8169896276
31
0.0000000000
11
13.5623321651
21
9.7818840066
31
0.0000000000
11
13.5404501529
21
9.7452861813
31
0.0000000000
11
13.5204960461
21
9.7074637329
31
0.0000000000
11
13.5026158821
21
9.6686934904
31
0.0000000000
11
13.4869405448
21
9.6292593803
31
0.0000000000
11
13.4735845271
21
9.5894496017
31
0.0000000000
11
13.4626453909
21
9.5495549294
31
0.0000000000
11
13.4542033526
21
9.5098683007
31
0.0000000000
11
13.4483211619
21
9.4706895503
31
0.0000000000
0
SPLINE
5
318
100
AcDbEntity
8
0
100
AcDbSpline
62
7
6
CONTINUOUS
70
0
71
3
72
14
73
10
74
8
42
0.0000001000
43
0.0000001000
44
0.0000000001
12
0.0000005206
22
0.1015235846
32
0.0000000000
13
0.0882276484
23
0.0497768180
33
0.0000000000
40
0.0000000000
40
0.0000000000
40
0.0000000000
40
0.0000000000
40
0.0629566810
40
0.1933375385
40
0.3313237083
40
0.4789451815
40
0.6392546155
40
0.8133841449
40
1.0000000000
40
1.0000000000
40
1.0000000000
40
1.0000000000
10
-9.6221999135
20
24.1129308242
30
0.0000000000
10
-9.6221999025
20
24.1150613535
30
0.0000000000
10
-9.6218333905
20
24.1216042941
30
0.0000000000
10
-9.6192983277
20
24.1325929985
30
0.0000000000
10
-9.6133435664
20
24.1454131531
30
0.0000000000
10
-9.6046110659
20
24.1577640285
30
0.0000000000
10
-9.5932556932
20
24.1695023127
30
0.0000000000
10
-9.5794508835
20
24.1804766635
30
0.0000000000
10
-9.5691109771
20
24.1869639651
30
0.0000000000
10
-9.5636227511
20
24.1900603463
30
0.0000000000
11
-9.6221999135
21
24.1129308242
31
0.0000000000
11
-9.6218432136
21
24.1193086628
31
0.0000000000
11
-9.6189344382
21
24.1321920603
31
0.0000000000
11
-9.6131302650
21
24.1449081551
31
0.0000000000
11
-9.6045783934
21
24.1571757032
31
0.0000000000
11
-9.5933554706
21
24.1689130986
31
0.0000000000
11
-9.5795994183
21
24.1799549064
31
0.0000000000
11
-9.5636227511
21
24.1900603463
31
0.0000000000
0
SPLINE
5
319
100
AcDbEntity
8
0
100
AcDbSpline
62
7
6
CONTINUOUS
70
0
71
3
72
14
73
10
74
8
42
0.0000001000
43
0.0000001000
44
0.0000000001
12
0.0000005206
22
0.1015235846
32
0.0000000000
13
0.0882276484
23
0.0497768180
33
0.0000000000
40
0.0000000000
40
0.0000000000
40
0.0000000000
40
0.0000000000
40
0.0629566810
40
0.1933375385
40
0.3313237083
40
0.4789451815
40
0.6392546155
40
0.8133841449
40
1.0000000000
40
1.0000000000
40
1.0000000000
40
1.0000000000
10
6.2877026632
20
16.1579795359
30
0.0000000000
10
6.2877026742
20
16.1601100652
30
0.0000000000
10
6.2880691862
20
16.1666530058
30
0.0000000000
10
6.2906042490
20
16.1776417101
30
0.0000000000
10
6.2965590103
20
16.1904618648
30
0.0000000000
10
6.3052915108
20
16.2028127402
30
0.0000000000
10
6.3166468835
20
16.2145510244
30
0.0000000000
10
6.3304516932
20
16.2255253752
30
0.0000000000
10
6.3407915996
20
16.2320126768
30
0.0000000000
10
6.3462798256
20
16.2351090579
30
0.0000000000
11
6.2877026632
21
16.1579795359
31
0.0000000000
11
6.2880593631
21
16.1643573745
31
0.0000000000
11
6.2909681385
21
16.1772407719
31
0.0000000000
11
6.2967723117
21
16.1899568667
31
0.0000000000
11
6.3053241833
21
16.2022244149
31
0.0000000000
11
6.3165471061
21
16.2139618103
31
0.0000000000
11
6.3303031584
21
16.2250036181
31
0.0000000000
11
6.3462798256
21
16.2351090579
31
0.0000000000
0
SPLINE
5
31A
100
AcDbEntity
8
0
100
AcDbSpline
62
9
6
CONTINUOUS
70
0
71
3
72
15
73
11
74
9
42
0.0000001000
43
0.0000001000
44
0.0000000001
12
0.1446488384
22
0.0683491673
32
0.0000000000
13
0.0011534807
23
0.1597098604
33
0.0000000000
40
0.0000000000
40
0.0000000000
40
0.0000000000
40
0.0000000000
40
0.0509615216
40
0.1667608919
40
0.2865203260
40
0.4124593445
40
0.5461613094
40
0.6885408852
40
0.8398968128
40
1.0000000000
40
1.0000000000
40
1.0000000000
40
1.0000000000
10
12.6083743547
20
-9.0007099972
30
0.0000000000
10
12.6108315297
20
-8.9995489380
30
0.0000000000
10
12.6187041000
20
-8.9953943905
30
0.0000000000
10
12.6311014840
20
-8.9863391051
30
0.0000000000
10
12.6442791121
20
-8.9721653623
30
0.0000000000
10
12.6553045490
20
-8.9551322032
30
0.0000000000
10
12.6640436131
20
-8.9355119508
30
0.0000000000
10
12.6703955440
20
-8.9135950626
30
0.0000000000
10
12.6742872535
20
-8.8896984328
30
0.0000000000
10
12.6751876897
20
-8.8731080481
30
0.0000000000
10
12.6752492483
20
-8.8645846955
30
0.0000000000
11
12.6083743547
21
-9.0007099972
31
0.0000000000
11
12.6155818278
21
-8.9969055033
31
0.0000000000
11
12.6305421316
21
-8.9860313904
31
0.0000000000
11
12.6436223097
21
-8.9720757082
31
0.0000000000
11
12.6546316603
21
-8.9552419220
31
0.0000000000
11
12.6634096729
21
-8.9357754589
31
0.0000000000
11
12.6698283689
21
-8.9139601286
31
0.0000000000
11
12.6737941671
21
-8.8901139864
31
0.0000000000
11
12.6752492483
21
-8.8645846955
31
0.0000000000
0
SPLINE
5
31B
100
AcDbEntity
8
0
100
AcDbSpline
62
9
6
CONTINUOUS
70
0
71
3
72
15
73
11
74
9
42
0.0000001000
43
0.0000001000
44
0.0000000001
12
-0.1414925137
22
0.0707574873
32
0.0000000000
13
0.0001025582
23
0.1579414207
33
0.0000000000
40
0.0000000000
40
0.0000000000
40
0.0000000000
40
0.0000000000
40
0.0437860606
40
0.1613159351
40
0.2825371382
40
0.4096632521
40
0.5443046503
40
0.6874240695
40
0.8393785059
40
1.0000000000
40
1.0000000000
40
1.0000000000
40
1.0000000000
10
12.0393263716
20
-8.9948793219
30
0.0000000000
10
12.0372612384
20
-8.9938465914
30
0.0000000000
10
12.0297931102
20
-8.9897620057
30
0.0000000000
10
12.0177585352
20
-8.9808609525
30
0.0000000000
10
12.0046307459
20
-8.9666195613
30
0.0000000000
10
11.9936878848
20
-8.9495753517
30
0.0000000000
10
11.9850633872
20
-8.9299986737
30
0.0000000000
10
11.9788560287
20
-8.9081775782
30
0.0000000000
10
11.9751359936
20
-8.8844253881
30
0.0000000000
10
11.9743624034
20
-8.8679534371
30
0.0000000000
10
11.9743678944
20
-8.8594971747
30
0.0000000000
11
12.0393263716
21
-8.9948793219
31
0.0000000000
11
12.0332510617
21
-8.9915557380
31
0.0000000000
11
12.0183042340
21
-8.9805479525
31
0.0000000000
11
12.0052750285
21
-8.9665192856
31
0.0000000000
11
11.9943515290
21
-8.9496722488
31
0.0000000000
11
11.9856914222
21
-8.9302500383
31
0.0000000000
11
11.9794197213
21
-8.9085330243
31
0.0000000000
11
11.9756269618
21
-8.8848347037
31
0.0000000000
11
11.9743678944
21
-8.8594971747
31
0.0000000000
0
SPLINE
5
31C
100
AcDbEntity
8
0
100
AcDbSpline
62
7
6
CONTINUOUS
70
0
71
3
72
15
73
11
74
9
42
0.0000001000
43
0.0000001000
44
0.0000000001
12
0.2388040134
22
0.1445970431
32
0.0000000000
13
-0.0000327700
23
0.2795745267
33
0.0000000000
40
0.0000000000
40
0.0000000000
40
0.0000000000
40
0.0000000000
40
0.1632523816
40
0.3166460921
40
0.4596911617
40
0.5926626316
40
0.7174962061
40
0.8365074299
40
0.9515492226
40
1.0000000000
40
1.0000000000
40
1.0000000000
40
1.0000000000
10
18.7596837542
20
5.3422016793
30
0.0000000000
10
18.7726788621
20
5.3500702832
30
0.0000000000
10
18.7972876462
20
5.3663581717
30
0.0000000000
10
18.8306201181
20
5.3932825342
30
0.0000000000
10
18.8588527066
20
5.4216902722
30
0.0000000000
10
18.8817000641
20
5.4513167606
30
0.0000000000
10
18.8989912594
20
5.4819785651
30
0.0000000000
10
18.9105357717
20
5.5134899962
30
0.0000000000
10
18.9150823890
20
5.5395329512
30
0.0000000000
10
18.9156802354
20
5.5547688585
30
0.0000000000
10
18.9156797062
20
5.5592840595
30
0.0000000000
11
18.7596837542
21
5.3422016793
31
0.0000000000
11
18.7976156206
21
5.3674655534
31
0.0000000000
11
18.8308336777
21
5.3944906897
31
0.0000000000
11
18.8588663495
21
5.4229315126
31
0.0000000000
11
18.8814019524
21
5.4524299723
31
0.0000000000
11
18.8983816257
21
5.4828634235
31
0.0000000000
11
18.9096907696
21
5.5141037558
31
0.0000000000
11
18.9151473152
21
5.5457529977
31
0.0000000000
11
18.9156797062
21
5.5592840595
31
0.0000000000
0
SPLINE
5
31D
100
AcDbEntity
8
0
100
AcDbSpline
62
9
6
CONTINUOUS
70
0
71
3
72
17
73
13
74
11
42
0.0000001000
43
0.0000001000
44
0.0000000001
12
-0.2875816164
22
-0.1384348175
32
0.0000000000
13
0.0003278430
23
-0.3188640672
33
0.0000000000
40
0.0000000000
40
0.0000000000
40
0.0000000000
40
0.0000000000
40
0.0612136439
40
0.1510657383
40
0.2427943559
40
0.3374078879
40
0.4358078476
40
0.5388212294
40
0.6469483511
40
0.7601354996
40
0.8780183579
40
1.0000000000
40
1.0000000000
40
1.0000000000
40
1.0000000000
10
-14.4152927881
20
5.1607285541
30
0.0000000000
10
-14.4211607610
20
5.1579038542
30
0.0000000000
10
-14.4352825227
20
5.1501852783
30
0.0000000000
10
-14.4562499861
20
5.1349779432
30
0.0000000000
10
-14.4773192001
20
5.1143932043
30
0.0000000000
10
-14.4958971734
20
5.0903876771
30
0.0000000000
10
-14.5118469948
20
5.0631736464
30
0.0000000000
10
-14.5250547646
20
5.0329646698
30
0.0000000000
10
-14.5354076379
20
5.0000203661
30
0.0000000000
10
-14.5428080609
20
4.9646813462
30
0.0000000000
10
-14.5472009988
20
4.9273702028
30
0.0000000000
10
-14.5481135586
20
4.9018615536
30
0.0000000000
10
-14.5481002283
20
4.8888963661
30
0.0000000000
11
-14.4152927881
21
5.1607285541
31
0.0000000000
11
-14.4324287177
21
5.1513622799
31
0.0000000000
11
-14.4556399839
21
5.1345665924
31
0.0000000000
11
-14.4766006634
21
5.1141667766
31
0.0000000000
11
-14.4951230215
21
5.0903532707
31
0.0000000000
11
-14.5110594938
21
5.0633255714
31
0.0000000000
11
-14.5242963841
21
5.0332634898
31
0.0000000000
11
-14.5347123709
21
5.0003966238
31
0.0000000000
11
-14.5421858458
21
4.9650875381
31
0.0000000000
11
-14.5466495462
21
4.9277648868
31
0.0000000000
11
-14.5481002283
21
4.8888963661
31
0.0000000000
0
SPLINE
5
31E
100
AcDbEntity
8
0
100
AcDbSpline
62
9
6
CONTINUOUS
70
0
71
3
72
14
73
10
74
8
42
0.0000001000
43
0.0000001000
44
0.0000000001
12
0.1148612423
22
0.0562377698
32
0.0000000000
13
0.0009063551
23
0.1276527188
33
0.0000000000
40
0.0000000000
40
0.0000000000
40
0.0000000000
40
0.0000000000
40
0.1024939697
40
0.2318410578
40
0.3670458332
40
0.5104319178
40
0.6634451731
40
0.8266822153
40
1.0000000000
40
1.0000000000
40
1.0000000000
40
1.0000000000
10
1.3781727513
20
-3.5640982207
30
0.0000000000
10
1.3820969462
20
-3.5621768766
30
0.0000000000
10
1.3905998989
20
-3.5570647228
30
0.0000000000
10
1.4022954361
20
-3.5465498709
30
0.0000000000
10
1.4127569450
20
-3.5325726282
30
0.0000000000
10
1.4210624001
20
-3.5160995457
30
0.0000000000
10
1.4271011558
20
-3.4974251307
30
0.0000000000
10
1.4307950010
20
-3.4768687520
30
0.0000000000
10
1.4316386266
20
-3.4625373016
30
0.0000000000
10
1.4316909891
20
-3.4551624727
30
0.0000000000
11
1.3781727513
21
-3.5640982207
31
0.0000000000
11
1.3893970103
21
-3.5573579227
31
0.0000000000
11
1.4017154804
21
-3.5463625184
31
0.0000000000
11
1.4121270801
21
-3.5325967795
31
0.0000000000
11
1.4204536649
21
-3.5162962424
31
0.0000000000
11
1.4265527658
21
-3.4977398143
31
0.0000000000
11
1.4303200266
21
-3.4772450006
31
0.0000000000
11
1.4316909891
21
-3.4551624727
31
0.0000000000
0
SPLINE
5
31F
100
AcDbEntity
8
0
100
AcDbSpline
62
7
6
CONTINUOUS
70
0
71
3
72
8
73
4
74
2
42
0.0000001000
43
0.0000001000
44
0.0000000001
12
0.0007174946
22
0.0003509721
32
0.0000000000
13
0.0007144750
23
0.0003570657
33
0.0000000000
40
0.0000000000
40
0.0000000000
40
0.0000000000
40
0.0000000000
40
1.0000000000
40
1.0000000000
40
1.0000000000
40
1.0000000000
10
16.3562268859
20
-7.2304413184
30
0.0000000000
10
16.3564660508
20
-7.2303243277
30
0.0000000000
10
16.3567047169
20
-7.2302063195
30
0.0000000000
10
16.3569428753
20
-7.2300872976
30
0.0000000000
11
16.3562268859
21
-7.2304413184
31
0.0000000000
11
16.3569428753
21
-7.2300872976
31
0.0000000000
0
SPLINE
5
320
100
AcDbEntity
8
0
100
AcDbSpline
62
7
6
CONTINUOUS
70
0
71
3
72
15
73
11
74
9
42
0.0000001000
43
0.0000001000
44
0.0000000001
12
0.1417572937
22
0.0708445546
32
0.0000000000
13
0.0000000000
23
0.1582141891
33
0.0000000000
40
0.0000000000
40
0.0000000000
40
0.0000000000
40
0.0000000000
40
0.0388751022
40
0.1566927055
40
0.2783491346
40
0.4060707921
40
0.5414623903
40
0.6854674257
40
0.8384149653
40
1.0000000000
40
1.0000000000
40
1.0000000000
40
1.0000000000
10
16.3569428753
20
-7.2300872976
30
0.0000000000
10
16.3587798184
20
-7.2291692678
30
0.0000000000
10
16.3660621585
20
-7.2252259205
30
0.0000000000
10
16.3780057260
20
-7.2165312650
30
0.0000000000
10
16.3913017365
20
-7.2023043672
30
0.0000000000
10
16.4024283426
20
-7.1852245964
30
0.0000000000
10
16.4112454955
20
-7.1655650279
30
0.0000000000
10
16.4176634679
20
-7.1436171605
30
0.0000000000
10
16.4215549492
20
-7.1197038847
30
0.0000000000
10
16.4225514575
20
-7.1031072885
30
0.0000000000
10
16.4225514575
20
-7.0945856067
30
0.0000000000
11
16.3569428753
21
-7.2300872976
31
0.0000000000
11
16.3623588819
21
-7.2271540490
31
0.0000000000
11
16.3774527045
21
-7.2162159665
31
0.0000000000
11
16.3906493439
21
-7.2022043469
31
0.0000000000
11
16.4017564257
21
-7.1853232663
31
0.0000000000
11
16.4106119651
21
-7.1658185701
31
0.0000000000
11
16.4170867233
21
-7.1439743087
31
0.0000000000
11
16.4210860885
21
-7.1201086205
31
0.0000000000
11
16.4225514575
21
-7.0945856067
31
0.0000000000
0
SPLINE
5
321
100
AcDbEntity
8
0
100
AcDbSpline
62
9
6
CONTINUOUS
70
0
71
3
72
10
73
6
74
4
42
0.0000001000
43
0.0000001000
44
0.0000000001
12
0.0001982588
22
0.3053223687
32
0.0000000000
13
0.0003738628
23
0.3053222041
33
0.0000000000
40
0.0000000000
40
0.0000000000
40
0.0000000000
40
0.0000000000
40
0.3333013970
40
0.6666347284
40
1.0000000000
40
1.0000000000
40
1.0000000000
40
1.0000000000
10
1.3966441908
20
-3.4293518027
30
0.0000000000
10
1.3966662175
20
-3.3954303454
30
0.0000000000
10
1.3967167786
20
-3.3275841846
30
0.0000000000
10
1.3968121373
20
-3.2258100844
30
0.0000000000
10
1.3968887200
20
-3.1579574473
30
0.0000000000
10
1.3969302643
20
-3.1240295074
30
0.0000000000
11
1.3966441908
21
-3.4293518027
31
0.0000000000
11
1.3967200279
21
-3.3275874375
31
0.0000000000
11
1.3968153858
21
-3.2258133384
31
0.0000000000
11
1.3969302643
21
-3.1240295074
31
0.0000000000
0
SPLINE
5
322
100
AcDbEntity
8
0
100
AcDbSpline
62
9
6
CONTINUOUS
70
0
71
3
72
21
73
17
74
15
42
0.0000001000
43
0.0000001000
44
0.0000000001
12
-0.0489281767
22
-0.0239411349
32
0.0000000000
13
0.0000353707
23
0.0544714895
33
0.0000000000
40
0.0000000000
40
0.0000000000
40
0.0000000000
40
0.0000000000
40
0.0783363693
40
0.1524259477
40
0.2225308004
40
0.2892695972
40
0.3535384432
40
0.4164669124
40
0.4793243465
40
0.5433876148
40
0.6098055752
40
0.6795027416
40
0.7531302570
40
0.8310620118
40
0.9134154412
40
1.0000000000
40
1.0000000000
40
1.0000000000
40
1.0000000000
10
1.4316909891
20
-3.4551624727
30
0.0000000000
10
1.4304133705
20
-3.4557876266
30
0.0000000000
10
1.4278593759
20
-3.4568725766
30
0.0000000000
10
1.4239641012
20
-3.4579869977
30
0.0000000000
10
1.4201584273
20
-3.4585257574
30
0.0000000000
10
1.4164912676
20
-3.4584770874
30
0.0000000000
10
1.4130103989
20
-3.4578368281
30
0.0000000000
10
1.4097645844
20
-3.4566096176
30
0.0000000000
10
1.4068010882
20
-3.4548113758
30
0.0000000000
10
1.4041618785
20
-3.4524692356
30
0.0000000000
10
1.4018809232
20
-3.4496187016
30
0.0000000000
10
1.3999843482
20
-3.4463002736
30
0.0000000000
10
1.3984920870
20
-3.4425577850
30
0.0000000000
10
1.3974193475
20
-3.4384381117
30
0.0000000000
10
1.3967771125
20
-3.4339938502
30
0.0000000000
10
1.3966431700
20
-3.4309239327
30
0.0000000000
10
1.3966441908
20
-3.4293518027
30
0.0000000000
11
1.4316909891
21
-3.4551624727
31
0.0000000000
11
1.4277580724
21
-3.4568178596
31
0.0000000000
11
1.4238738834
21
-3.4579135417
31
0.0000000000
11
1.4200907906
21
-3.4584339313
31
0.0000000000
11
1.4164559477
21
-3.4583724750
31
0.0000000000
11
1.4130145998
21
-3.4577299262
31
0.0000000000
11
1.4098096049
21
-3.4565142467
31
0.0000000000
11
1.4068808959
21
-3.4547405443
31
0.0000000000
11
1.4042649840
21
-3.4524308972
31
0.0000000000
11
1.4019945215
21
-3.4496141440
31
0.0000000000
11
1.4000977707
21
-3.4463254027
31
0.0000000000
11
1.3985983198
21
-3.4426056487
31
0.0000000000
11
1.3975148223
21
-3.4385011921
31
0.0000000000
11
1.3968607294
21
-3.4340632201
31
0.0000000000
11
1.3966441908
21
-3.4293518027
31
0.0000000000
0
SPLINE
5
323
100
AcDbEntity
8
0
100
AcDbSpline
62
9
6
CONTINUOUS
70
0
71
3
72
14
73
10
74
8
42
0.0000001000
43
0.0000001000
44
0.0000000001
12
0.1153081390
22
0.0554688665
32
0.0000000000
13
0.0009146832
23
0.1277168696
33
0.0000000000
40
0.0000000000
40
0.0000000000
40
0.0000000000
40
0.0000000000
40
0.1056246153
40
0.2340045598
40
0.3684344428
40
0.5112403320
40
0.6638495105
40
0.8268285590
40
1.0000000000
40
1.0000000000
40
1.0000000000
40
1.0000000000
10
-14.5666147253
20
4.4070672656
30
0.0000000000
10
-14.5625549327
20
4.4090202248
30
0.0000000000
10
-14.5539515265
20
4.4141625713
30
0.0000000000
10
-14.5422273525
20
4.4247480636
30
0.0000000000
10
-14.5318583954
20
4.4386815876
30
0.0000000000
10
-14.5236269044
20
4.4551176260
30
0.0000000000
10
-14.5176414257
20
4.4737631097
30
0.0000000000
10
-14.5139791661
20
4.4943000094
30
0.0000000000
10
-14.5131420010
20
4.5086211995
30
0.0000000000
10
-14.5130892020
20
4.5159935043
30
0.0000000000
11
-14.5666147253
21
4.4070672656
31
0.0000000000
11
-14.5550238798
21
4.4139845979
31
0.0000000000
11
-14.5428123313
21
4.4249267193
31
0.0000000000
11
-14.5324905803
21
4.4386471382
31
0.0000000000
11
-14.5242352168
21
4.4549111164
31
0.0000000000
11
-14.5181874775
21
4.4734403990
31
0.0000000000
11
-14.5144508298
21
4.4939179758
31
0.0000000000
11
-14.5130892020
21
4.5159935043
31
0.0000000000
0
SPLINE
5
324
100
AcDbEntity
8
0
100
AcDbSpline
62
9
6
CONTINUOUS
70
0
71
3
72
15
73
11
74
9
42
0.0000001000
43
0.0000001000
44
0.0000000001
12
-0.1415586635
22
0.0708184025
32
0.0000000000
13
0.0001013587
23
0.1580745379
33
0.0000000000
40
0.0000000000
40
0.0000000000
40
0.0000000000
40
0.0000000000
40
0.1023727749
40
0.2128850128
40
0.3274260461
40
0.4475871246
40
0.5744914067
40
0.7087862435
40
0.8506788351
40
1.0000000000
40
1.0000000000
40
1.0000000000
40
1.0000000000
10
-14.7649707619
20
4.4072681010
30
0.0000000000
10
-14.7698013463
20
4.4096847264
30
0.0000000000
10
-14.7794117980
20
4.4155803188
30
0.0000000000
10
-14.7923870251
20
4.4270854470
30
0.0000000000
10
-14.8038103440
20
4.4413443835
30
0.0000000000
10
-14.8133095192
20
4.4579410064
30
0.0000000000
10
-14.8207843667
20
4.4766562183
30
0.0000000000
10
-14.8261587199
20
4.4972556056
30
0.0000000000
10
-14.8293782590
20
4.5194843414
30
0.0000000000
10
-14.8300500584
20
4.5348413209
30
0.0000000000
10
-14.8300450134
20
4.5427092790
30
0.0000000000
11
-14.7649707619
21
4.4072681010
31
0.0000000000
11
-14.7787728072
21
4.4157213846
31
0.0000000000
11
-14.7918726045
21
4.4272785195
31
0.0000000000
11
-14.8032430784
21
4.4413689578
31
0.0000000000
11
-14.8127426447
21
4.4578172369
31
0.0000000000
11
-14.8202530643
21
4.4764186033
31
0.0000000000
11
-14.8256808666
21
4.4969415748
31
0.0000000000
11
-14.8289584327
21
4.5191304230
31
0.0000000000
11
-14.8300450134
21
4.5427092790
31
0.0000000000
0
SPLINE
5
325
100
AcDbEntity
8
0
100
AcDbSpline
62
9
6
CONTINUOUS
70
0
71
3
72
10
73
6
74
4
42
0.0000001000
43
0.0000001000
44
0.0000000001
12
-0.0003740124
22
-0.3054443819
32
0.0000000000
13
-0.0001983381
23
-0.3054445465
33
0.0000000000
40
0.0000000000
40
0.0000000000
40
0.0000000000
40
0.0000000000
40
0.3333652717
40
0.6666986027
40
1.0000000000
40
1.0000000000
40
1.0000000000
40
1.0000000000
10
7.9730234885
20
-6.5532374050
30
0.0000000000
10
7.9729819276
20
-6.5871789214
30
0.0000000000
10
7.9729053143
20
-6.6550587105
30
0.0000000000
10
7.9728099174
20
-6.7568735366
30
0.0000000000
10
7.9727593361
20
-6.8247468467
30
0.0000000000
10
7.9727373006
20
-6.8586818780
30
0.0000000000
11
7.9730234885
21
-6.5532374050
31
0.0000000000
11
7.9729085640
21
-6.6550619658
31
0.0000000000
11
7.9728131681
21
-6.7568767907
31
0.0000000000
11
7.9727373006
21
-6.8586818780
31
0.0000000000
0
SPLINE
5
326
100
AcDbEntity
8
0
100
AcDbSpline
62
9
6
CONTINUOUS
70
0
71
3
72
25
73
21
74
19
42
0.0000001000
43
0.0000001000
44
0.0000000001
12
0.9222344017
22
-0.4611268866
32
0.0000000000
13
-0.0012565051
23
-1.0310929727
33
0.0000000000
40
0.0000000000
40
0.0000000000
40
0.0000000000
40
0.0000000000
40
0.0473556635
40
0.0970006033
40
0.1487129713
40
0.2022268765
40
0.2572299910
40
0.3134900088
40
0.3708631669
40
0.4291562630
40
0.4880854835
40
0.5473490100
40
0.6066385670
40
0.6656494593
40
0.7241556733
40
0.7819792179
40
0.8388464460
40
0.8943771030
40
0.9482092753
40
1.0000000000
40
1.0000000000
40
1.0000000000
40
1.0000000000
10
7.4791385607
20
-5.6987447553
30
0.0000000000
10
7.4936962347
20
-5.7060237451
30
0.0000000000
10
7.5228814812
20
-5.7222298634
30
0.0000000000
10
7.5655251844
20
-5.7504903001
30
0.0000000000
10
7.6076701357
20
-5.7830772240
30
0.0000000000
10
7.6488691350
20
-5.8196804234
30
0.0000000000
10
7.6887362887
20
-5.8599560356
30
0.0000000000
10
7.7269594807
20
-5.9035710860
30
0.0000000000
10
7.7632825630
20
-5.9502200127
30
0.0000000000
10
7.7974563621
20
-5.9995839425
30
0.0000000000
10
7.8292208323
20
-6.0512946153
30
0.0000000000
10
7.8583206793
20
-6.1049397363
30
0.0000000000
10
7.8845248059
20
-6.1600882287
30
0.0000000000
10
7.9076393161
20
-6.2163203184
30
0.0000000000
10
7.9275065833
20
-6.2732474417
30
0.0000000000
10
7.9439838598
20
-6.3304817897
30
0.0000000000
10
7.9569293752
20
-6.3875703522
30
0.0000000000
10
7.9662214834
20
-6.4439792956
30
0.0000000000
10
7.9717897344
20
-6.4991229355
30
0.0000000000
10
7.9730451803
20
-6.5354370542
30
0.0000000000
10
7.9730234885
20
-6.5532374050
30
0.0000000000
11
7.4791385607
21
-5.6987447553
31
0.0000000000
11
7.5218661295
21
-5.7223782265
31
0.0000000000
11
7.5645767774
21
-5.7505929734
31
0.0000000000
11
7.6067985832
21
-5.7831563483
31
0.0000000000
11
7.6480856501
21
-5.8197619970
31
0.0000000000
11
7.6880165593
21
-5.8600351704
31
0.0000000000
11
7.7262785162
21
-5.9036368627
31
0.0000000000
11
7.7626459634
21
-5.9502948925
31
0.0000000000
11
7.7968753381
21
-5.9997017609
31
0.0000000000
11
7.8286898586
21
-6.0514685676
31
0.0000000000
11
7.8578310473
21
-6.1051785763
31
0.0000000000
11
7.8840654635
21
-6.1603964196
31
0.0000000000
11
7.9071889074
21
-6.2166770827
31
0.0000000000
11
7.9270492675
21
-6.2736395167
31
0.0000000000
11
7.9435184575
21
-6.3309412480
31
0.0000000000
11
7.9564512164
21
-6.3881326713
31
0.0000000000
11
7.9657145259
21
-6.4446356886
31
0.0000000000
11
7.9712383906
21
-6.4998661576
31
0.0000000000
11
7.9730234885
21
-6.5532374050
31
0.0000000000
0
ENDSEC
0
SECTION
2
OBJECTS
0
DICTIONARY
5
C
100
AcDbDictionary
280
0
281
1
3
ACAD_GROUP
350
D
3
ACAD_MLINESTYLE
350
17
3
ACAD_LAYOUT
350
1A
3
ACAD_PLOTSETTINGS
350
19
3
ACAD_PLOTSTYLENAME
350
E
0
DICTIONARY
5
D
102
{ACAD_REACTORS
330
C
102
}
100
AcDbDictionary
280
0
281
1
0
ACDBDICTIONARYWDFLT
5
E
102
{ACAD_REACTORS
330
C
102
}
100
AcDbDictionary
281
1
3
Normal
350
F
100
AcDbDictionaryWithDefault
340
F
0
DICTIONARY
5
17
102
{ACAD_REACTORS
330
C
102
}
100
AcDbDictionary
280
0
281
1
3
Standard
350
18
0
DICTIONARY
5
19
102
{ACAD_REACTORS
330
C
102
}
100
AcDbDictionary
281
1
0
DICTIONARY
5
1A
102
{ACAD_REACTORS
330
C
102
}
100
AcDbDictionary
281
1
3
Layout1
350
1E
3
Model
350
22
0
ACDBPLACEHOLDER
5
F
102
{ACAD_REACTORS
330
E
102
}
0
MLINESTYLE
5
18
102
{ACAD_REACTORS
330
17
102
}
100
AcDbMlineStyle
2
STANDARD
70
0
3

62
256
51
90.0
52
90.0
71
2
49
0.5
62
256
6
BYLAYER
49
-0.5
62
256
6
BYLAYER
0
LAYOUT
5
1E
102
{ACAD_REACTORS
330
1A
102
}
100
AcDbPlotSettings
1

2

4

6

40
0.0
41
0.0
42
0.0
43
0.0
44
0.0
45
0.0
46
0.0
47
0.0
48
0.0
49
0.0
140
0.0
141
0.0
142
1.0
143
1.0
70
0
72
0
73
0
74
0
7

75
0
147
1.0
148
0.0
149
0.0
100
AcDbLayout
1
Layout1
70
0
71
0
10
0.0
20
0.0
11
0.0
21
0.0
12
0.0
22
0.0
32
0.0
14
0.0
24
0.0
34
0.0
15
0.0
25
0.0
35
0.0
146
0.0
13
0.0
23
0.0
33
0.0
16
0.0
26
0.0
36
0.0
17
0.0
27
0.0
37
0.0
76
0
330
1B
331
0
345
0
346
0
0
LAYOUT
5
22
102
{ACAD_REACTORS
330
1A
102
}
100
AcDbPlotSettings
1

2

4

6

40
0.0
41
0.0
42
0.0
43
0.0
44
0.0
45
0.0
46
0.0
47
0.0
48
0.0
49
0.0
140
0.0
141
0.0
142
1.0
143
1.0
70
0
72
0
73
0
74
0
7

75
0
147
1.0
148
0.0
149
0.0
100
AcDbLayout
1
Model
70
0
71
0
10
0.0
20
0.0
11
0.0
21
0.0
12
0.0
22
0.0
32
0.0
14
0.0
24
0.0
34
0.0
15
0.0
25
0.0
35
0.0
146
0.0
13
0.0
23
0.0
33
0.0
16
0.0
26
0.0
36
0.0
17
0.0
27
0.0
37
0.0
76
0
330
1F
331
0
345
0
346
0
0
ENDSEC
0
EOF
