  0
SECTION
  2
HEADER
  9
$ACADVER
  1
AC1024
  9
$DWGCODEPAGE
  3
ANSI_1252
  9
$EXTMAX
 10
297.0
 20
210.0
 30
0.0
  9
$EXTMIN
 10
0.0
 20
0.0
 30
0.0
  9
$LIMMIN
 10
0.0
 20
0.0
  9
$LIMMAX
 10
297.0
 20
210.0
  9
$VIEWCTR
 10
148.5
 20
105.0
  9
$VIEWSIZE
 40
210.0
  9
$CLAYER
  8
0
  9
$LTSCALE
 40
16.335
  9
$CELTYPE
  6
BYLAYER
  9
$DIMSCALE
 40
1.0
  9
$DIMASZ
 40
3.0
  9
$DIMEXO
 40
0.5
  9
$DIMDLI
 40
11.286
  9
$DIMEXE
 40
1.5
  9
$DIMCEN
 40
2.673
  9
$DIMLFAC
 40
1.0
  9
$DIMBLK
  1
_FILLED
  9
$DIMALT
 70
0
  9
$DIMALTF
 40
0.0393700787
  9
$DIMTXT
 40
3.0
  9
$DIMTOL
 70
1
  9
$DIMLIM
 70
0
  9
$DIMTFAC
 40
1.0
  9
$DIMTP
 40
0.01
  9
$DIMTM
 40
0.01
  9
$DIMGAP
 40
0.625
  9
$DIMDSEP
 70
44
  9
$AUNITS
 70
0
  9
$PDMODE
 70
3
  9
$PDSIZE
 40
3.0
  9
$HANDSEED
  5
2D5
  9
$TILEMODE
 70
1
  9
$MEASUREMENT
 70
1
  9
$INSUNITS
 70
4
  0
ENDSEC
  0
SECTION
  2
CLASSES
  0
CLASS
  1
ACDBDICTIONARYWDFLT
  2
AcDbDictionaryWithDefault
  3
AutoCAD 2000
 90
0
 91
1
280
0
281
0
  0
CLASS
  1
ACDBPLACEHOLDER
  2
AcDbPlaceHolder
  3
AutoCAD 2000
 90
0
 91
1
280
0
281
0
  0
CLASS
  1
LAYOUT
  2
AcDbLayout
  3
AutoCAD 2000
 90
0
 91
0
280
0
281
0
  0
ENDSEC
  0
SECTION
  2
TABLES
  0
TABLE
  2
VPORT
  5
8
100
AcDbSymbolTable
 70
2
  0
VPORT
  5
1F4
100
AcDbSymbolTableRecord
100
AcDbViewportTableRecord
  2
*ACTIVE
 70
0
 10
0.0
 20
0.0
 11
1.0
 21
1.0
 12
148.5
 22
105.0
 13
0.0
 23
0.0
 14
1.0
 24
1.0
 15
0.0
 25
0.0
 16
0.0
 26
0.0
 36
1.0
 17
0.0
 27
0.0
 37
0.0
 40
210.0
 41
1.4142857143
 42
50.0
 43
0.0
 44
0.0
 50
0.0
 51
0.0
 71
0
 72
100
 73
1
 74
1
 75
0
 76
0
 77
0
 78
0
  0
ENDTAB
  0
TABLE
  2
LTYPE
  5
5
100
AcDbSymbolTable
 70
6
  0
LTYPE
  5
14
100
AcDbSymbolTableRecord
100
AcDbLinetypeTableRecord
  2
BYBLOCK
 70
0
  3

 72
65
 73
0
 40
0.0
  0
LTYPE
  5
15
100
AcDbSymbolTableRecord
100
AcDbLinetypeTableRecord
  2
BYLAYER
 70
0
  3

 72
65
 73
0
 40
0.0
  0
LTYPE
  5
16
100
AcDbSymbolTableRecord
100
AcDbLinetypeTableRecord
  2
CONTINUOUS
 70
64
  3
Solid line
 72
65
 73
0
 40
0.0
  0
LTYPE
  5
1F5
100
AcDbSymbolTableRecord
100
AcDbLinetypeTableRecord
  2
CENTER
 70
64
  3
____ _ ____ _ ____ _ ____ _ ____ _ ____ _ ____
 72
65
 73
4
 40
0.6
 49
0.375
 74
0
 49
-0.075
 74
0
 49
0.075
 74
0
 49
-0.075
 74
0
  0
LTYPE
  5
1F6
100
AcDbSymbolTableRecord
100
AcDbLinetypeTableRecord
  2
HIDDEN
 70
64
  3
- - - - - - - - - - - - - - - - - - - -
 72
65
 73
2
 40
0.2
 49
0.1
 74
0
 49
-0.1
 74
0
  0
LTYPE
  5
1F7
100
AcDbSymbolTableRecord
100
AcDbLinetypeTableRecord
  2
PHANTOM
 70
64
  3
_____ _ _ _____ _ _ _____ _ _ _____
 72
65
 73
6
 40
0.8
 49
0.45
 74
0
 49
-0.05
 74
0
 49
0.1
 74
0
 49
-0.05
 74
0
 49
0.1
 74
0
 49
-0.05
 74
0
  0
LTYPE
  5
1F8
100
AcDbSymbolTableRecord
100
AcDbLinetypeTableRecord
  2
DOT
 70
64
  3
. . . . . . . . . . . . . . . . . . . .
 72
65
 73
2
 40
0.2
 49
0.1
 74
0
 49
-0.1
 74
0
  0
LTYPE
  5
1F9
100
AcDbSymbolTableRecord
100
AcDbLinetypeTableRecord
  2
DASHED
 70
64
  3
- - - - - - - - - - - - - - - - - - - -
 72
65
 73
2
 40
0.2
 49
0.1
 74
0
 49
-0.1
 74
0
  0
ENDTAB
  0
TABLE
  2
LAYER
  5
2
100
AcDbSymbolTable
 70
36
  0
LAYER
  5
10
100
AcDbSymbolTableRecord
100
AcDbLayerTableRecord
  2
0
 70
0
 62
7
  6
CONTINUOUS
370
-3
390
F
  0
LAYER
  5
1FA
100
AcDbSymbolTableRecord
100
AcDbLayerTableRecord
  2
DEFAULT_1
 70
0
 62
7
  6
CENTER
370
-3
390
F
  0
LAYER
  5
1FB
100
AcDbSymbolTableRecord
100
AcDbLayerTableRecord
  2
DEFAULT_2
 70
0
 62
7
  6
HIDDEN
370
-3
390
F
  0
LAYER
  5
1FC
100
AcDbSymbolTableRecord
100
AcDbLayerTableRecord
  2
DEFAULT_3
 70
0
 62
7
  6
PHANTOM
370
-3
390
F
  0
LAYER
  5
1FD
100
AcDbSymbolTableRecord
100
AcDbLayerTableRecord
  2
ASSI
 70
0
 62
7
  6
CONTINUOUS
370
-3
390
F
  0
LAYER
  5
1FE
100
AcDbSymbolTableRecord
100
AcDbLayerTableRecord
  2
COLOR9
 70
0
 62
7
  6
CONTINUOUS
370
-3
390
F
  0
LAYER
  5
1FF
100
AcDbSymbolTableRecord
100
AcDbLayerTableRecord
  2
COORDINATE
 70
0
 62
7
  6
CONTINUOUS
370
-3
390
F
  0
LAYER
  5
200
100
AcDbSymbolTableRecord
100
AcDbLayerTableRecord
  2
COORD_ORIGINE
 70
0
 62
7
  6
CONTINUOUS
370
-3
390
F
  0
LAYER
  5
201
100
AcDbSymbolTableRecord
100
AcDbLayerTableRecord
  2
COPY_PUBLISH
 70
0
 62
7
  6
CONTINUOUS
370
-3
390
F
  0
LAYER
  5
202
100
AcDbSymbolTableRecord
100
AcDbLayerTableRecord
  2
COSMETICI
 70
0
 62
7
  6
CONTINUOUS
370
-3
390
F
  0
LAYER
  5
203
100
AcDbSymbolTableRecord
100
AcDbLayerTableRecord
  2
CURVE
 70
0
 62
7
  6
CONTINUOUS
370
-3
390
F
  0
LAYER
  5
204
100
AcDbSymbolTableRecord
100
AcDbLayerTableRecord
  2
DRAFT
 70
0
 62
7
  6
CONTINUOUS
370
-3
390
F
  0
LAYER
  5
205
100
AcDbSymbolTableRecord
100
AcDbLayerTableRecord
  2
IMPORT_IGES
 70
0
 62
7
  6
CONTINUOUS
370
-3
390
F
  0
LAYER
  5
206
100
AcDbSymbolTableRecord
100
AcDbLayerTableRecord
  2
INTF_1
 70
0
 62
7
  6
CONTINUOUS
370
-3
390
F
  0
LAYER
  5
207
100
AcDbSymbolTableRecord
100
AcDbLayerTableRecord
  2
INTF_5
 70
0
 62
7
  6
CONTINUOUS
370
-3
390
F
  0
LAYER
  5
208
100
AcDbSymbolTableRecord
100
AcDbLayerTableRecord
  2
INTF_6
 70
0
 62
7
  6
CONTINUOUS
370
-3
390
F
  0
LAYER
  5
209
100
AcDbSymbolTableRecord
100
AcDbLayerTableRecord
  2
INTF_YELLOW
 70
0
 62
7
  6
CONTINUOUS
370
-3
390
F
  0
LAYER
  5
20A
100
AcDbSymbolTableRecord
100
AcDbLayerTableRecord
  2
LIVELLO_1
 70
0
 62
7
  6
CONTINUOUS
370
-3
390
F
  0
LAYER
  5
20B
100
AcDbSymbolTableRecord
100
AcDbLayerTableRecord
  2
NOTE
 70
0
 62
7
  6
CONTINUOUS
370
-3
390
F
  0
LAYER
  5
20C
100
AcDbSymbolTableRecord
100
AcDbLayerTableRecord
  2
PIANI
 70
0
 62
7
  6
CONTINUOUS
370
-3
390
F
  0
LAYER
  5
20D
100
AcDbSymbolTableRecord
100
AcDbLayerTableRecord
  2
PIANI_ORIGINE
 70
0
 62
7
  6
CONTINUOUS
370
-3
390
F
  0
LAYER
  5
20E
100
AcDbSymbolTableRecord
100
AcDbLayerTableRecord
  2
PIANI_RIFERIMENTO
 70
0
 62
7
  6
CONTINUOUS
370
-3
390
F
  0
LAYER
  5
20F
100
AcDbSymbolTableRecord
100
AcDbLayerTableRecord
  2
PUNTI
 70
0
 62
7
  6
CONTINUOUS
370
-3
390
F
  0
LAYER
  5
210
100
AcDbSymbolTableRecord
100
AcDbLayerTableRecord
  2
RACCORDO
 70
0
 62
7
  6
CONTINUOUS
370
-3
390
F
  0
LAYER
  5
211
100
AcDbSymbolTableRecord
100
AcDbLayerTableRecord
  2
SIMBOLI
 70
0
 62
7
  6
CONTINUOUS
370
-3
390
F
  0
LAYER
  5
212
100
AcDbSymbolTableRecord
100
AcDbLayerTableRecord
  2
SMUSSO
 70
0
 62
7
  6
CONTINUOUS
370
-3
390
F
  0
LAYER
  5
213
100
AcDbSymbolTableRecord
100
AcDbLayerTableRecord
  2
SUPERFICI
 70
0
 62
7
  6
CONTINUOUS
370
-3
390
F
  0
LAYER
  5
214
100
AcDbSymbolTableRecord
100
AcDbLayerTableRecord
  2
TRASH
 70
0
 62
7
  6
CONTINUOUS
370
-3
390
F
  0
LAYER
  5
215
100
AcDbSymbolTableRecord
100
AcDbLayerTableRecord
  2
WHITE
 70
0
 62
7
  6
CONTINUOUS
370
-3
390
F
  0
LAYER
  5
216
100
AcDbSymbolTableRecord
100
AcDbLayerTableRecord
  2
XSEC_DATUMS
 70
0
 62
7
  6
CONTINUOUS
370
-3
390
F
  0
ENDTAB
  0
TABLE
  2
STYLE
  5
3
100
AcDbSymbolTable
 70
1
  0
STYLE
  5
11
100
AcDbSymbolTableRecord
100
AcDbTextStyleTableRecord
  2
STANDARD
 70
0
 40
0.0
 41
0.8
 50
0.0
 71
0
 42
0.2
  3
txt
  4

  0
STYLE
  5
217
100
AcDbSymbolTableRecord
100
AcDbTextStyleTableRecord
  2
TEXTSTYLE_1
 70
0
 40
0.0
 41
0.8
 50
0.0
 71
0
 42
0.2
  3
gdt
  4

  0
ENDTAB
  0
TABLE
  2
VIEW
  5
6
100
AcDbSymbolTable
 70
0
  0
ENDTAB
  0
TABLE
  2
UCS
  5
7
100
AcDbSymbolTable
 70
0
  0
ENDTAB
  0
TABLE
  2
APPID
  5
9
100
AcDbSymbolTable
 70
1
  0
APPID
  5
218
100
AcDbSymbolTableRecord
100
AcDbRegAppTableRecord
  2
ACAD
 70
0
  0
ENDTAB
  0
TABLE
  2
BLOCK_RECORD
  5
1
100
AcDbSymbolTable
 70
0
  0
BLOCK_RECORD
  5
219
100
AcDbSymbolTableRecord
100
AcDbBlockTableRecord
  2
*Model_Space
  0
BLOCK_RECORD
  5
21A
100
AcDbSymbolTableRecord
100
AcDbBlockTableRecord
  2
*Paper_Space
  0
BLOCK_RECORD
  5
21B
100
AcDbSymbolTableRecord
100
AcDbBlockTableRecord
  2
_FILLED
  0
ENDTAB
  0
TABLE
  2
DIMSTYLE
  5
A
100
AcDbSymbolTable
 70
1
100
AcDbDimStyleTable
 71
0
  0
DIMSTYLE
105
21C
100
AcDbSymbolTableRecord
100
AcDbDimStyleTableRecord
  2
STANDARD
 70
0
  3

  4

 40
1.0
 41
3.0
 42
0.5
 43
0.38
 44
1.5
 45
0.0
 46
0.0
 47
0.01
 48
0.01
140
3.0
141
0.09
142
0.0
143
25.4
144
1.0
145
0.0
146
1.0
147
0.625
 71
1.0
 72
0.0
 73
0
 74
0
 75
0
 76
0
 77
1
 78
8
 79
2
170
0
171
1
172
0
173
0
174
0
175
0
176
0
177
0
178
0
270
2
179
2
271
2
272
2
273
2
274
2
275
0
280
0
281
0
282
0
283
1
284
8
285
0
286
0
287
3
288
0
340
11
278
44
341
21B
342
21B
343
21B
344
21B
  0
ENDTAB
  0
ENDSEC
  0
SECTION
  2
BLOCKS
  0
BLOCK
  5
20
100
AcDbEntity
  8
0
100
AcDbBlockBegin
  2
*Model_Space
 70
0
 10
0.0
 20
0.0
 30
0.0
  3
*Model_Space
  1

  0
ENDBLK
  5
21
100
AcDbEntity
  8
0
100
AcDbBlockEnd
  0
BLOCK
  5
1C
100
AcDbEntity
  8
0
100
AcDbBlockBegin
  2
*Paper_Space
 70
0
 10
0.0
 20
0.0
 30
0.0
  3
*Paper_Space
  1

  0
ENDBLK
  5
1D
100
AcDbEntity
  8
0
100
AcDbBlockEnd
  0
BLOCK
  5
21D
100
AcDbEntity
  8
0
100
AcDbBlockBegin
  2
_FILLED
 70
64
 10
0.0
 20
0.0
  3
_FILLED
  1

  0
SOLID
  5
21E
100
AcDbEntity
  8
0
  6
BYBLOCK
 62
0
100
AcDbTrace
 10
0.0
 20
0.0
 11
-1.0
 21
0.3166666667
 12
-1.0
 22
-0.3166666667
 13
-1.0
 23
-0.3166666667
  0
ENDBLK
  5
21F
100
AcDbEntity
  8
0
  6
BYBLOCK
 62
0
100
AcDbBlockEnd
  0
ENDSEC
  0
SECTION
  2
ENTITIES
  0
LWPOLYLINE
  5
220
100
AcDbEntity
  8
0
100
AcDbPolyline
 62
7
  6
CONTINUOUS
 90
7
 70
0
 10
138.8523440266
 20
117.6318920284
 10
138.8238018241
 20
117.6122180266
 10
138.7953985395
 20
117.5922399796
 10
138.7671341728
 20
117.5719578874
 10
138.739008724
 20
117.55137175
 10
138.7110221931
 20
117.5304815674
 10
138.68317458
 20
117.5092873396
  0
LWPOLYLINE
  5
221
100
AcDbEntity
  8
0
100
AcDbPolyline
 62
7
  6
CONTINUOUS
 90
7
 70
0
 10
139.0626999816
 20
118.3207834092
 10
138.9963850921
 20
118.2777200421
 10
138.9308655745
 20
118.2332342288
 10
138.8661519842
 20
118.187333141
 10
138.8022547469
 20
118.1400241784
 10
138.7391841568
 20
118.0913149673
 10
138.6769503747
 20
118.04121336
  0
LINE
  5
222
100
AcDbEntity
  8
0
100
AcDbLine
 62
7
  6
CONTINUOUS
 10
141.8016332475
 20
119.7680426876
 11
139.0626999816
 21
118.3207834092
  0
LINE
  5
223
100
AcDbEntity
  8
DRAFT
100
AcDbLine
 62
7
  6
CONTINUOUS
 10
142.9330040974
 20
120.3337281126
 11
141.8328709607
 21
119.752423831
  0
LINE
  5
224
100
AcDbEntity
  8
0
100
AcDbLine
 62
7
  6
CONTINUOUS
 10
149.1872779734
 20
81.3728978578
 11
148.7085538259
 21
81.4920787172
  0
LINE
  5
225
100
AcDbEntity
  8
0
100
AcDbLine
 62
7
  6
CONTINUOUS
 10
148.7085538259
 20
81.4920787172
 11
148.4740546826
 21
81.5513243354
  0
LINE
  5
226
100
AcDbEntity
  8
0
100
AcDbLine
 62
7
  6
CONTINUOUS
 10
139.0626999816
 20
85.9627420009
 11
148.8015283664
 21
81.0933278085
  0
LINE
  5
227
100
AcDbEntity
  8
0
100
AcDbLine
 62
7
  6
CONTINUOUS
 10
138.8523440266
 20
86.1549902513
 11
148.304885236
 21
81.4287196466
  0
LINE
  5
228
100
AcDbEntity
  8
0
100
AcDbLine
 62
7
  6
CONTINUOUS
 10
139.0626999816
 20
85.9627420009
 11
138.8523440266
 21
86.1549902513
  0
LINE
  5
229
100
AcDbEntity
  8
0
100
AcDbLine
 62
7
  6
CONTINUOUS
 10
148.8015283664
 20
81.0933278085
 11
148.304885236
 21
81.4287196466
  0
LINE
  5
22A
100
AcDbEntity
  8
0
100
AcDbLine
 62
7
  6
CONTINUOUS
 10
138.7953986058
 20
86.2515876729
 11
138.8523440266
 21
86.1549902513
  0
LINE
  5
22B
100
AcDbEntity
  8
0
100
AcDbLine
 62
7
  6
CONTINUOUS
 10
138.7390087902
 20
86.3488457181
 11
138.7953986058
 21
86.2515876729
  0
LINE
  5
22C
100
AcDbEntity
  8
0
100
AcDbLine
 62
7
  6
CONTINUOUS
 10
138.68317458
 20
86.4467643867
 11
138.7390087902
 21
86.3488457181
  0
LINE
  5
22D
100
AcDbEntity
  8
0
100
AcDbLine
 62
7
  6
CONTINUOUS
 10
138.9911406533
 20
118.0882261463
 11
138.8523440266
 21
117.6318920284
  0
LINE
  5
22E
100
AcDbEntity
  8
0
100
AcDbLine
 62
7
  6
CONTINUOUS
 10
139.0626999816
 20
118.3207834092
 11
138.9911406533
 21
118.0882261463
  0
LINE
  5
22F
100
AcDbEntity
  8
0
100
AcDbLine
 62
7
  6
CONTINUOUS
 10
141.0153525495
 20
90.6361383839
 11
141.899236026
 21
90.1941966457
  0
LINE
  5
230
100
AcDbEntity
  8
0
100
AcDbLine
 62
7
  6
CONTINUOUS
 10
143.0482845454
 20
89.619672386
 11
144.1089447172
 21
89.0893423001
  0
LINE
  5
231
100
AcDbEntity
  8
0
100
AcDbLine
 62
7
  6
CONTINUOUS
 10
145.2579932366
 20
88.5148180404
 11
146.1418767131
 21
88.0728763021
  0
LINE
  5
232
100
AcDbEntity
  8
0
100
AcDbLine
 62
7
  6
CONTINUOUS
 10
144.1117731443
 20
89.0949991544
 11
143.0553556132
 21
89.6232079199
  0
LINE
  5
233
100
AcDbEntity
  8
0
100
AcDbLine
 62
7
  6
CONTINUOUS
 10
141.9020644531
 20
90.1998535
 11
141.0224236173
 21
90.6396739179
  0
LINE
  5
234
100
AcDbEntity
  8
0
100
AcDbLine
 62
7
  6
CONTINUOUS
 10
145.2650643044
 20
88.5183535743
 11
146.1447051402
 21
88.0785331564
  0
LINE
  5
235
100
AcDbEntity
  8
0
100
AcDbLine
 62
7
  6
CONTINUOUS
 10
151.5781356896
 20
114.8797914666
 11
148.8015283664
 21
113.4513692168
  0
LINE
  5
236
100
AcDbEntity
  8
DRAFT
100
AcDbLine
 62
7
  6
CONTINUOUS
 10
152.7095065395
 20
115.4454768915
 11
151.584789104
 21
114.8668585694
  0
LINE
  5
237
100
AcDbEntity
  8
0
100
AcDbLine
 62
7
  6
CONTINUOUS
 10
141.0224236173
 20
110.125245503
 11
141.0153525495
 21
110.1217099691
  0
LINE
  5
238
100
AcDbEntity
  8
0
100
AcDbLine
 62
7
  6
CONTINUOUS
 10
146.1418767131
 20
88.9389017059
 11
145.2579932366
 21
89.3808434442
  0
LINE
  5
239
100
AcDbEntity
  8
0
100
AcDbLine
 62
7
  6
CONTINUOUS
 10
144.1089447172
 20
89.9553677039
 11
143.0482845454
 21
90.4856977898
  0
LINE
  5
23A
100
AcDbEntity
  8
0
100
AcDbLine
 62
7
  6
CONTINUOUS
 10
141.899236026
 20
91.0602220495
 11
141.0153525495
 21
91.5021637877
  0
LWPOLYLINE
  5
23B
100
AcDbEntity
  8
0
100
AcDbPolyline
 62
7
  6
CONTINUOUS
 90
10
 70
0
 10
141.0153525495
 20
110.9877353729
 10
140.9846777952
 20
110.9095785447
 10
140.9616717295
 20
110.8262219525
 10
140.9463343523
 20
110.7376655962
 10
140.9386656638
 20
110.642999196
 10
140.9386656638
 20
110.5431330317
 10
140.9463343523
 20
110.4407979429
 10
140.9616717295
 20
110.3369042095
 10
140.9846777952
 20
110.2305415516
 10
141.0153525495
 20
110.1217099691
  0
LINE
  5
23C
100
AcDbEntity
  8
0
100
AcDbLine
 62
7
  6
CONTINUOUS
 10
140.991748863
 20
110.9131140786
 11
141.0201036525
 21
110.9853598214
  0
LINE
  5
23D
100
AcDbEntity
  8
0
100
AcDbLine
 62
7
  6
CONTINUOUS
 10
143.0553556132
 20
109.108779505
 11
143.0482845454
 21
109.1052439711
  0
LINE
  5
23E
100
AcDbEntity
  8
DRAFT
100
AcDbLine
 62
7
  6
CONTINUOUS
 10
153.1245561773
 20
114.7296221572
 11
151.9891822646
 21
114.1720886607
  0
LINE
  5
23F
100
AcDbEntity
  8
0
100
AcDbLine
 62
7
  6
CONTINUOUS
 10
151.9931853274
 20
114.1639367323
 11
149.1872779734
 21
112.7860495606
  0
LINE
  5
240
100
AcDbEntity
  8
0
100
AcDbLine
 62
7
  6
CONTINUOUS
 10
138.6769503747
 20
86.6280616571
 11
138.68317458
 21
86.4467643867
  0
LINE
  5
241
100
AcDbEntity
  8
0
100
AcDbLine
 62
7
  6
CONTINUOUS
 10
138.6769503747
 20
106.1136332423
 11
138.68317458
 21
105.9323359718
  0
LINE
  5
242
100
AcDbEntity
  8
0
100
AcDbLine
 62
7
  6
CONTINUOUS
 10
138.6769503747
 20
98.5556417748
 11
138.68317458
 21
98.0237157545
  0
LINE
  5
243
100
AcDbEntity
  8
0
100
AcDbLine
 62
7
  6
CONTINUOUS
 10
138.6769503747
 20
118.04121336
 11
138.68317458
 21
117.5092873396
  0
LINE
  5
244
100
AcDbEntity
  8
0
100
AcDbLine
 62
7
  6
CONTINUOUS
 10
138.6769503747
 20
118.04121336
 11
138.6769503747
 21
106.1136332423
  0
LINE
  5
245
100
AcDbEntity
  8
0
100
AcDbLine
 62
7
  6
CONTINUOUS
 10
138.6769503747
 20
98.5556417748
 11
138.6769503747
 21
86.6280616571
  0
LINE
  5
246
100
AcDbEntity
  8
0
100
AcDbLine
 62
7
  6
CONTINUOUS
 10
138.68317458
 20
117.5092873396
 11
138.68317458
 21
105.9323359718
  0
LINE
  5
247
100
AcDbEntity
  8
0
100
AcDbLine
 62
7
  6
CONTINUOUS
 10
138.68317458
 20
98.0237157545
 11
138.68317458
 21
86.4467643867
  0
LWPOLYLINE
  5
248
100
AcDbEntity
  8
0
100
AcDbPolyline
 62
7
  6
CONTINUOUS
 90
10
 70
0
 10
141.899236026
 20
109.6797682309
 10
141.9299107803
 20
109.757925059
 10
141.952916846
 20
109.8412816512
 10
141.9682542232
 20
109.9298380075
 10
141.9759229117
 20
110.0245044077
 10
141.9759229117
 20
110.124370572
 10
141.9682542232
 20
110.2267056608
 10
141.952916846
 20
110.3305993942
 10
141.9299107803
 20
110.4369620522
 10
141.899236026
 20
110.5457936346
  0
LINE
  5
249
100
AcDbEntity
  8
0
100
AcDbLine
 62
7
  6
CONTINUOUS
 10
145.2650643044
 20
108.0039251594
 11
145.2579932366
 21
108.0003896255
  0
LINE
  5
24A
100
AcDbEntity
  8
0
100
AcDbLine
 62
7
  6
CONTINUOUS
 10
148.9462665401
 20
93.2428687827
 11
148.4740546826
 21
93.1282757032
  0
LINE
  5
24B
100
AcDbEntity
  8
0
100
AcDbLine
 62
7
  6
CONTINUOUS
 10
149.1872779734
 20
93.3004779755
 11
148.9462665401
 21
93.2428687827
  0
LWPOLYLINE
  5
24C
100
AcDbEntity
  8
0
100
AcDbPolyline
 62
7
  6
CONTINUOUS
 90
9
 70
0
 10
141.0224236173
 20
90.6396739179
 10
140.991748863
 20
90.7485055003
 10
140.9687427973
 20
90.8548681583
 10
140.9534054202
 20
90.9587618917
 10
140.9457367316
 20
91.0610969805
 10
140.9457367316
 20
91.1609631448
 10
140.9534054202
 20
91.255629545
 10
140.9687427973
 20
91.3441859013
 10
140.991748863
 20
91.4275424935
  0
LINE
  5
24D
100
AcDbEntity
  8
0
100
AcDbLine
 62
7
  6
CONTINUOUS
 10
138.9911406533
 20
98.6026545612
 11
138.8523440266
 21
98.1463204433
  0
LINE
  5
24E
100
AcDbEntity
  8
0
100
AcDbLine
 62
7
  6
CONTINUOUS
 10
139.0626999816
 20
98.8352118241
 11
138.9911406533
 21
98.6026545612
  0
LWPOLYLINE
  5
24F
100
AcDbEntity
  8
0
100
AcDbPolyline
 62
7
  6
CONTINUOUS
 90
10
 70
0
 10
143.0482845454
 20
109.9712693749
 10
143.0176097911
 20
109.8931125468
 10
142.9946037254
 20
109.8097559545
 10
142.9792663483
 20
109.7211995983
 10
142.9715976597
 20
109.626533198
 10
142.9715976597
 20
109.5266670338
 10
142.9792663483
 20
109.424331945
 10
142.9946037254
 20
109.3204382115
 10
143.0176097911
 20
109.2140755536
 10
143.0482845454
 20
109.1052439711
  0
LINE
  5
250
100
AcDbEntity
  8
0
100
AcDbLine
 62
7
  6
CONTINUOUS
 10
143.0246808589
 20
109.8966480807
 11
143.0530356484
 21
109.9688938234
  0
LWPOLYLINE
  5
251
100
AcDbEntity
  8
0
100
AcDbPolyline
 62
7
  6
CONTINUOUS
 90
3
 70
0
 10
148.8015283664
 20
113.4513692168
 10
148.3866469424
 20
112.9949929816
 10
148.304885236
 20
112.9056214238
  0
LINE
  5
252
100
AcDbEntity
  8
DRAFT
100
AcDbLine
 62
7
  6
CONTINUOUS
 10
153.1296329756
 20
111.4549378467
 11
153.377120349
 21
111.5733907481
  0
LINE
  5
253
100
AcDbEntity
  8
0
100
AcDbLine
 62
7
  6
CONTINUOUS
 10
148.304885236
 20
93.4200498386
 11
138.8523440266
 21
98.1463204433
  0
LWPOLYLINE
  5
254
100
AcDbEntity
  8
0
100
AcDbPolyline
 62
7
  6
CONTINUOUS
 90
9
 70
0
 10
143.0553556132
 20
89.6232079199
 10
143.0246808589
 20
89.7320395024
 10
143.0016747932
 20
89.8384021603
 10
142.9863374161
 20
89.9422958937
 10
142.9786687275
 20
90.0446309825
 10
142.9786687275
 20
90.1444971468
 10
142.9863374161
 20
90.239163547
 10
143.0016747932
 20
90.3277199033
 10
143.0246808589
 20
90.4110764955
  0
LWPOLYLINE
  5
255
100
AcDbEntity
  8
0
100
AcDbPolyline
 62
7
  6
CONTINUOUS
 90
10
 70
0
 10
144.1089447172
 20
108.5749138853
 10
144.1396194715
 20
108.6530707134
 10
144.1626255372
 20
108.7364273056
 10
144.1779629144
 20
108.8249836619
 10
144.185631603
 20
108.9196500621
 10
144.185631603
 20
109.0195162264
 10
144.1779629144
 20
109.1218513152
 10
144.1626255372
 20
109.2257450486
 10
144.1396194715
 20
109.3321077066
 10
144.1089447172
 20
109.440939289
  0
LINE
  5
256
100
AcDbEntity
  8
0
100
AcDbLine
 62
7
  6
CONTINUOUS
 10
148.8015283664
 20
93.9657976317
 11
139.0626999816
 21
98.8352118241
  0
LWPOLYLINE
  5
257
100
AcDbEntity
  8
0
100
AcDbPolyline
 62
7
  6
CONTINUOUS
 90
9
 70
0
 10
145.2650643044
 20
88.5183535743
 10
145.2343895501
 20
88.6271851568
 10
145.2113834844
 20
88.7335478147
 10
145.1960461073
 20
88.8374415481
 10
145.1883774187
 20
88.9397766369
 10
145.1883774187
 20
89.0396428012
 10
145.1960461073
 20
89.1343092014
 10
145.2113834844
 20
89.2228655577
 10
145.2343895501
 20
89.3062221499
  0
LWPOLYLINE
  5
258
100
AcDbEntity
  8
0
100
AcDbPolyline
 62
7
  6
CONTINUOUS
 90
10
 70
0
 10
145.2579932366
 20
108.8664150293
 10
145.2273184823
 20
108.7882582012
 10
145.2043124166
 20
108.7049016089
 10
145.1889750395
 20
108.6163452526
 10
145.1813063509
 20
108.5216788524
 10
145.1813063509
 20
108.4218126882
 10
145.1889750395
 20
108.3194775994
 10
145.2043124166
 20
108.2155838659
 10
145.2273184823
 20
108.109221208
 10
145.2579932366
 20
108.0003896255
  0
LINE
  5
259
100
AcDbEntity
  8
0
100
AcDbLine
 62
7
  6
CONTINUOUS
 10
145.2343895501
 20
108.7917937351
 11
145.2627443396
 21
108.8640394778
  0
LINE
  5
25A
100
AcDbEntity
  8
DRAFT
100
AcDbLine
 62
7
  6
CONTINUOUS
 10
153.1296329756
 20
107.5912969585
 11
153.377120349
 21
107.7203314306
  0
LINE
  5
25B
100
AcDbEntity
  8
0
100
AcDbLine
 62
7
  6
CONTINUOUS
 10
138.7953986058
 20
105.7371592581
 11
138.8523440266
 21
105.6405618364
  0
LINE
  5
25C
100
AcDbEntity
  8
0
100
AcDbLine
 62
7
  6
CONTINUOUS
 10
138.7390087902
 20
105.8344173032
 11
138.7953986058
 21
105.7371592581
  0
LINE
  5
25D
100
AcDbEntity
  8
0
100
AcDbLine
 62
7
  6
CONTINUOUS
 10
138.68317458
 20
105.9323359718
 11
138.7390087902
 21
105.8344173032
  0
LWPOLYLINE
  5
25E
100
AcDbEntity
  8
0
100
AcDbPolyline
 62
7
  6
CONTINUOUS
 90
10
 70
0
 10
146.1418767131
 20
107.5584478873
 10
146.1725514674
 20
107.6366047155
 10
146.1955575331
 20
107.7199613077
 10
146.2108949103
 20
107.808517664
 10
146.2185635989
 20
107.9031840642
 10
146.2185635989
 20
108.0030502285
 10
146.2108949103
 20
108.1053853172
 10
146.1955575331
 20
108.2092790507
 10
146.1725514674
 20
108.3156417086
 10
146.1418767131
 20
108.4244732911
  0
LWPOLYLINE
  5
25F
100
AcDbEntity
  8
0
100
AcDbPolyline
 62
7
  6
CONTINUOUS
 90
10
 70
0
 10
141.0153525495
 20
91.5021637877
 10
140.9846777952
 20
91.4240069596
 10
140.9616717295
 20
91.3406503673
 10
140.9463343523
 20
91.2520940111
 10
140.9386656638
 20
91.1574276109
 10
140.9386656638
 20
91.0575614466
 10
140.9463343523
 20
90.9552263578
 10
140.9616717295
 20
90.8513326244
 10
140.9846777952
 20
90.7449699664
 10
141.0153525495
 20
90.6361383839
  0
LINE
  5
260
100
AcDbEntity
  8
0
100
AcDbLine
 62
7
  6
CONTINUOUS
 10
140.991748863
 20
91.4275424935
 11
141.0201036525
 21
91.4997882362
  0
LWPOLYLINE
  5
261
100
AcDbEntity
  8
0
100
AcDbPolyline
 62
7
  6
CONTINUOUS
 90
7
 70
0
 10
138.8523440266
 20
98.1463204433
 10
138.8238018241
 20
98.1266464415
 10
138.7953985395
 20
98.1066683945
 10
138.7671341728
 20
98.0863863023
 10
138.739008724
 20
98.0658001649
 10
138.7110221931
 20
98.0449099823
 10
138.68317458
 20
98.0237157545
  0
LWPOLYLINE
  5
262
100
AcDbEntity
  8
0
100
AcDbPolyline
 62
7
  6
CONTINUOUS
 90
7
 70
0
 10
139.0626999816
 20
98.8352118241
 10
138.9963850921
 20
98.7921484569
 10
138.9308655745
 20
98.7476626437
 10
138.8661519842
 20
98.7017615559
 10
138.8022547469
 20
98.6544525932
 10
138.7391841568
 20
98.6057433822
 10
138.6769503747
 20
98.5556417748
  0
LINE
  5
263
100
AcDbEntity
  8
0
100
AcDbLine
 62
7
  6
CONTINUOUS
 10
141.8016332475
 20
100.2824711025
 11
139.0626999816
 21
98.8352118241
  0
LINE
  5
264
100
AcDbEntity
  8
DRAFT
100
AcDbLine
 62
7
  6
CONTINUOUS
 10
142.9330040974
 20
100.8481565274
 11
141.8328709607
 21
100.2668522458
  0
LINE
  5
265
100
AcDbEntity
  8
0
100
AcDbLine
 62
7
  6
CONTINUOUS
 10
151.5781356896
 20
95.3942198814
 11
141.8016332475
 21
100.2824711025
  0
LINE
  5
266
100
AcDbEntity
  8
RACCORDO
100
AcDbLine
 62
7
  6
CONTINUOUS
 10
146.4396772915
 20
98.805930606
 11
148.6371479204
 21
97.7071952915
  0
LINE
  5
267
100
AcDbEntity
  8
RACCORDO
100
AcDbLine
 62
7
  6
CONTINUOUS
 10
152.7095065395
 20
95.9599053064
 11
149.2664007944
 21
97.6814581789
  0
LINE
  5
268
100
AcDbEntity
  8
RACCORDO
100
AcDbLine
 62
7
  6
CONTINUOUS
 10
146.3761098424
 20
99.1266036549
 11
142.9330040974
 21
100.8481565274
  0
LINE
  5
269
100
AcDbEntity
  8
0
100
AcDbLine
 62
7
  6
CONTINUOUS
 10
138.9210739028
 20
105.5775519023
 11
138.8523440266
 21
105.6405618364
  0
LINE
  5
26A
100
AcDbEntity
  8
0
100
AcDbLine
 62
7
  6
CONTINUOUS
 10
148.3618306568
 20
93.323452417
 11
148.304885236
 21
93.4200498386
  0
LINE
  5
26B
100
AcDbEntity
  8
0
100
AcDbLine
 62
7
  6
CONTINUOUS
 10
148.4182204724
 20
93.2261943718
 11
148.3618306568
 21
93.323452417
  0
LINE
  5
26C
100
AcDbEntity
  8
0
100
AcDbLine
 62
7
  6
CONTINUOUS
 10
148.4740546826
 20
93.1282757032
 11
148.4182204724
 21
93.2261943718
  0
LWPOLYLINE
  5
26D
100
AcDbEntity
  8
0
100
AcDbPolyline
 62
7
  6
CONTINUOUS
 90
9
 70
0
 10
141.0224236173
 20
110.125245503
 10
140.991748863
 20
110.2340770855
 10
140.9687427973
 20
110.3404397434
 10
140.9534054202
 20
110.4443334768
 10
140.9457367316
 20
110.5466685656
 10
140.9457367316
 20
110.6465347299
 10
140.9534054202
 20
110.7412011301
 10
140.9687427973
 20
110.8297574864
 10
140.991748863
 20
110.9131140786
  0
LWPOLYLINE
  5
26E
100
AcDbEntity
  8
0
100
AcDbPolyline
 62
7
  6
CONTINUOUS
 90
10
 70
0
 10
141.899236026
 20
90.1941966457
 10
141.9299107803
 20
90.2723534739
 10
141.952916846
 20
90.3557100661
 10
141.9682542232
 20
90.4442664224
 10
141.9759229117
 20
90.5389328226
 10
141.9759229117
 20
90.6387989869
 10
141.9682542232
 20
90.7411340756
 10
141.952916846
 20
90.8450278091
 10
141.9299107803
 20
90.951390467
 10
141.899236026
 20
91.0602220495
  0
LINE
  5
26F
100
AcDbEntity
  8
0
100
AcDbLine
 62
7
  6
CONTINUOUS
 10
139.0626999816
 20
105.4483135861
 11
138.9210739028
 21
105.5775519023
  0
LWPOLYLINE
  5
270
100
AcDbEntity
  8
0
100
AcDbPolyline
 62
7
  6
CONTINUOUS
 90
7
 70
0
 10
149.1872779734
 20
93.3004779755
 10
149.1250440236
 20
93.4128136647
 10
149.0619733294
 20
93.5245936432
 10
148.9980760543
 20
93.6357998999
 10
148.9333624949
 20
93.7464145161
 10
148.8678430796
 20
93.8564196684
 10
148.8015283664
 20
93.9657976317
  0
LWPOLYLINE
  5
271
100
AcDbEntity
  8
0
100
AcDbPolyline
 62
7
  6
CONTINUOUS
 90
9
 70
0
 10
143.0553556132
 20
109.108779505
 10
143.0246808589
 20
109.2176110875
 10
143.0016747932
 20
109.3239737455
 10
142.9863374161
 20
109.4278674789
 10
142.9786687275
 20
109.5302025677
 10
142.9786687275
 20
109.630068732
 10
142.9863374161
 20
109.7247351322
 10
143.0016747932
 20
109.8132914884
 10
143.0246808589
 20
109.8966480807
  0
LINE
  5
272
100
AcDbEntity
  8
RACCORDO
100
AcDbLine
 62
7
  6
CONTINUOUS
 10
146.3761098424
 20
118.61217524
 11
146.3761098424
 21
118.3312245982
  0
LINE
  5
273
100
AcDbEntity
  8
RACCORDO
100
AcDbLine
 62
7
  6
CONTINUOUS
 10
146.3761098424
 20
99.1266036549
 11
146.3761098424
 21
98.8456530131
  0
LWPOLYLINE
  5
274
100
AcDbEntity
  8
0
100
AcDbPolyline
 62
7
  6
CONTINUOUS
 90
10
 70
0
 10
143.0482845454
 20
90.4856977898
 10
143.0176097911
 20
90.4075409616
 10
142.9946037254
 20
90.3241843694
 10
142.9792663483
 20
90.2356280131
 10
142.9715976597
 20
90.1409616129
 10
142.9715976597
 20
90.0410954486
 10
142.9792663483
 20
89.9387603598
 10
142.9946037254
 20
89.8348666264
 10
143.0176097911
 20
89.7285039684
 10
143.0482845454
 20
89.619672386
  0
LINE
  5
275
100
AcDbEntity
  8
0
100
AcDbLine
 62
7
  6
CONTINUOUS
 10
143.0246808589
 20
90.4110764955
 11
143.0530356484
 21
90.4833222383
  0
LWPOLYLINE
  5
276
100
AcDbEntity
  8
0
100
AcDbPolyline
 62
7
  6
CONTINUOUS
 90
7
 70
0
 10
148.304885236
 20
100.9142912317
 10
148.3335578241
 20
100.9340597297
 10
148.36203934
 20
100.9540944745
 10
148.3903297838
 20
100.9743954659
 10
148.4184291555
 20
100.9949627041
 10
148.4463374551
 20
101.015796189
 10
148.4740546826
 20
101.0368959206
  0
LINE
  5
277
100
AcDbEntity
  8
DRAFT
100
AcDbLine
 62
7
  6
CONTINUOUS
 10
153.1245561773
 20
102.7559009312
 11
151.9931853274
 21
102.2189165651
  0
LINE
  5
278
100
AcDbEntity
  8
0
100
AcDbLine
 62
7
  6
CONTINUOUS
 10
151.9931853274
 20
102.1902155062
 11
149.1872779734
 21
100.8584694429
  0
LINE
  5
279
100
AcDbEntity
  8
DRAFT
100
AcDbLine
 62
7
  6
CONTINUOUS
 10
152.7095065395
 20
102.4550958347
 11
151.7417693361
 21
101.9983332162
  0
LINE
  5
27A
100
AcDbEntity
  8
0
100
AcDbLine
 62
7
  6
CONTINUOUS
 10
151.5781356896
 20
101.8894104098
 11
148.8015283664
 21
100.5788993937
  0
LINE
  5
27B
100
AcDbEntity
  8
0
100
AcDbLine
 62
7
  6
CONTINUOUS
 10
149.1872779734
 20
100.8584694429
 11
148.7085538259
 21
100.9776503023
  0
LINE
  5
27C
100
AcDbEntity
  8
0
100
AcDbLine
 62
7
  6
CONTINUOUS
 10
148.7085538259
 20
100.9776503023
 11
148.4740546826
 21
101.0368959206
  0
LINE
  5
27D
100
AcDbEntity
  8
0
100
AcDbLine
 62
7
  6
CONTINUOUS
 10
139.0626999816
 20
105.4483135861
 11
148.8015283664
 21
100.5788993937
  0
LINE
  5
27E
100
AcDbEntity
  8
0
100
AcDbLine
 62
7
  6
CONTINUOUS
 10
138.8523440266
 20
105.6405618364
 11
148.304885236
 21
100.9142912317
  0
LINE
  5
27F
100
AcDbEntity
  8
0
100
AcDbLine
 62
7
  6
CONTINUOUS
 10
148.8015283664
 20
100.5788993937
 11
148.304885236
 21
100.9142912317
  0
LWPOLYLINE
  5
280
100
AcDbEntity
  8
0
100
AcDbPolyline
 62
7
  6
CONTINUOUS
 90
9
 70
0
 10
145.2650643044
 20
108.0039251594
 10
145.2343895501
 20
108.1127567419
 10
145.2113834844
 20
108.2191193999
 10
145.1960461073
 20
108.3230131333
 10
145.1883774187
 20
108.4253482221
 10
145.1883774187
 20
108.5252143863
 10
145.1960461073
 20
108.6198807866
 10
145.2113834844
 20
108.7084371428
 10
145.2343895501
 20
108.7917937351
  0
LINE
  5
281
100
AcDbEntity
  8
0
100
AcDbLine
 62
7
  6
CONTINUOUS
 10
148.4740546826
 20
81.5513243354
 11
148.4740546826
 21
93.1282757032
  0
LINE
  5
282
100
AcDbEntity
  8
0
100
AcDbLine
 62
7
  6
CONTINUOUS
 10
148.4740546826
 20
101.0368959206
 11
148.4740546826
 21
112.6138472883
  0
LWPOLYLINE
  5
283
100
AcDbEntity
  8
0
100
AcDbPolyline
 62
7
  6
CONTINUOUS
 90
10
 70
0
 10
144.1089447172
 20
89.0893423001
 10
144.1396194715
 20
89.1674991283
 10
144.1626255372
 20
89.2508557205
 10
144.1779629144
 20
89.3394120768
 10
144.185631603
 20
89.434078477
 10
144.185631603
 20
89.5339446413
 10
144.1779629144
 20
89.63627973
 10
144.1626255372
 20
89.7401734635
 10
144.1396194715
 20
89.8465361214
 10
144.1089447172
 20
89.9553677039
  0
LWPOLYLINE
  5
284
100
AcDbEntity
  8
0
100
AcDbPolyline
 62
7
  6
CONTINUOUS
 90
9
 70
0
 10
151.6259096952
 20
101.9199469134
 10
151.673272186
 20
101.9512070393
 10
151.7202231621
 20
101.9831907874
 10
151.7667663969
 20
102.0159008926
 10
151.8128981169
 20
102.0493346201
 10
151.858607002
 20
102.0834837656
 10
151.9038892787
 20
102.1183455944
 10
151.9487487205
 20
102.1539228413
 10
151.9931853274
 20
102.1902155062
  0
LWPOLYLINE
  5
285
100
AcDbEntity
  8
0
100
AcDbPolyline
 62
7
  6
CONTINUOUS
 90
7
 70
0
 10
148.8015283664
 20
100.5788993937
 10
148.8678430367
 20
100.6219626152
 10
148.9333624271
 20
100.6664483336
 10
148.9980759789
 20
100.7123493829
 10
149.0619732633
 20
100.7596583691
 10
149.1250439829
 20
100.8083676712
 10
149.1872779734
 20
100.8584694429
  0
LINE
  5
286
100
AcDbEntity
  8
0
100
AcDbLine
 62
7
  6
CONTINUOUS
 10
151.5781356896
 20
101.8894104098
 11
151.6259096952
 21
101.9199469134
  0
LWPOLYLINE
  5
287
100
AcDbEntity
  8
DRAFT
100
AcDbPolyline
 62
7
  6
CONTINUOUS
 90
10
 70
0
 10
152.7095065395
 20
102.4550958347
 10
152.7572805451
 20
102.4856323383
 10
152.8046430359
 20
102.5168924642
 10
152.851594012
 20
102.5488762124
 10
152.8981372468
 20
102.5815863176
 10
152.9442689668
 20
102.6150200451
 10
152.9899778519
 20
102.6491691906
 10
153.0352601286
 20
102.6840310194
 10
153.0801195704
 20
102.7196082663
 10
153.1245561773
 20
102.7559009312
  0
LWPOLYLINE
  5
288
100
AcDbEntity
  8
0
100
AcDbPolyline
 62
7
  6
CONTINUOUS
 90
10
 70
0
 10
151.9931853274
 20
94.6783651471
 10
151.9487487205
 20
94.7590944189
 10
151.9038892787
 20
94.8395311076
 10
151.858607002
 20
94.9196752132
 10
151.8128981169
 20
94.9995332438
 10
151.7667663969
 20
95.0790986913
 10
151.7202231621
 20
95.1583520312
 10
151.673272186
 20
95.2372867555
 10
151.6259096952
 20
95.3159093722
 10
151.5781356896
 20
95.3942198814
  0
LINE
  5
289
100
AcDbEntity
  8
0
100
AcDbLine
 62
7
  6
CONTINUOUS
 10
149.1872779734
 20
81.3728978578
 11
149.1872779734
 21
93.3004779755
  0
LINE
  5
28A
100
AcDbEntity
  8
0
100
AcDbLine
 62
7
  6
CONTINUOUS
 10
149.1872779734
 20
100.8584694429
 11
149.1872779734
 21
112.7860495606
  0
LWPOLYLINE
  5
28B
100
AcDbEntity
  8
0
100
AcDbPolyline
 62
7
  6
CONTINUOUS
 90
10
 70
0
 10
145.2579932366
 20
89.3808434442
 10
145.2273184823
 20
89.302686616
 10
145.2043124166
 20
89.2193300238
 10
145.1889750395
 20
89.1307736675
 10
145.1813063509
 20
89.0361072673
 10
145.1813063509
 20
88.936241103
 10
145.1889750395
 20
88.8339060142
 10
145.2043124166
 20
88.7300122808
 10
145.2273184823
 20
88.6236496228
 10
145.2579932366
 20
88.5148180404
  0
LINE
  5
28C
100
AcDbEntity
  8
0
100
AcDbLine
 62
7
  6
CONTINUOUS
 10
145.2343895501
 20
89.3062221499
 11
145.2627443396
 21
89.3784678927
  0
LWPOLYLINE
  5
28D
100
AcDbEntity
  8
DRAFT
100
AcDbPolyline
 62
7
  6
CONTINUOUS
 90
10
 70
0
 10
153.1245561773
 20
95.2440505721
 10
153.0801195704
 20
95.3247798439
 10
153.0352601286
 20
95.4052165326
 10
152.9899778519
 20
95.4853606381
 10
152.9442689668
 20
95.5652186687
 10
152.8981372468
 20
95.6447841162
 10
152.851594012
 20
95.7240374562
 10
152.8046430359
 20
95.8029721804
 10
152.7572805451
 20
95.8815947972
 10
152.7095065395
 20
95.9599053064
  0
LINE
  5
28E
100
AcDbEntity
  8
RACCORDO
100
AcDbLine
 62
7
  6
CONTINUOUS
 10
153.1245561773
 20
114.6895452304
 11
153.1299275656
 21
114.7222113591
  0
LWPOLYLINE
  5
28F
100
AcDbEntity
  8
0
100
AcDbPolyline
 62
7
  6
CONTINUOUS
 90
10
 70
0
 10
146.1418767131
 20
88.0728763021
 10
146.1725514674
 20
88.1510331303
 10
146.1955575331
 20
88.2343897225
 10
146.2108949103
 20
88.3229460788
 10
146.2185635989
 20
88.417612479
 10
146.2185635989
 20
88.5174786433
 10
146.2108949103
 20
88.6198137321
 10
146.1955575331
 20
88.7237074655
 10
146.1725514674
 20
88.8300701235
 10
146.1418767131
 20
88.9389017059
  0
LWPOLYLINE
  5
290
100
AcDbEntity
  8
RACCORDO
100
AcDbPolyline
 62
7
  6
CONTINUOUS
 90
3
 70
0
 10
153.1328040772
 20
84.4646712926
 10
153.1295126908
 20
84.5223893421
 10
153.1245561773
 20
84.5518052647
  0
LWPOLYLINE
  5
291
100
AcDbEntity
  8
RACCORDO
100
AcDbPolyline
 62
7
  6
CONTINUOUS
 90
12
 70
0
 10
153.1328040772
 20
95.2899888399
 10
153.1295126908
 20
95.3477068894
 10
153.1201456326
 20
95.4032985187
 10
153.105173852
 20
95.4570559506
 10
153.0839891121
 20
95.5108480655
 10
153.0565188957
 20
95.5635206458
 10
153.0248060363
 20
95.6112875627
 10
152.9896261769
 20
95.6539615033
 10
152.9502493902
 20
95.6927004778
 10
152.9081714195
 20
95.7261260031
 10
152.864504228
 20
95.7538330461
 10
152.8211006324
 20
95.7753034087
  0
LINE
  5
292
100
AcDbEntity
  8
0
100
AcDbLine
 62
7
  6
CONTINUOUS
 10
151.9931853274
 20
82.7046439211
 11
151.9931853274
 21
94.6783651471
  0
LINE
  5
293
100
AcDbEntity
  8
0
100
AcDbLine
 62
7
  6
CONTINUOUS
 10
151.9931853274
 20
102.1902155062
 11
151.9931853274
 21
114.1639367323
  0
LINE
  5
294
100
AcDbEntity
  8
DRAFT
100
AcDbLine
 62
7
  6
CONTINUOUS
 10
153.1245561773
 20
83.270329346
 11
153.1245561773
 21
95.2440505721
  0
LINE
  5
295
100
AcDbEntity
  8
DRAFT
100
AcDbLine
 62
7
  6
CONTINUOUS
 10
153.1245561773
 20
102.7559009312
 11
153.1245561773
 21
114.7296221572
  0
LINE
  5
296
100
AcDbEntity
  8
DRAFT
100
AcDbLine
 62
7
  6
CONTINUOUS
 10
153.1296329756
 20
88.1057253734
 11
153.1296329756
 21
91.9693662616
  0
LINE
  5
297
100
AcDbEntity
  8
DRAFT
100
AcDbLine
 62
7
  6
CONTINUOUS
 10
153.1296329756
 20
107.5912969585
 11
153.1296329756
 21
111.4549378467
  0
LINE
  5
298
100
AcDbEntity
  8
RACCORDO
100
AcDbLine
 62
7
  6
CONTINUOUS
 10
153.1299275656
 20
114.7222113591
 11
153.1328040772
 21
114.775560436
  0
LWPOLYLINE
  5
299
100
AcDbEntity
  8
RACCORDO
100
AcDbPolyline
 62
7
  6
CONTINUOUS
 90
3
 70
0
 10
153.1245561773
 20
103.8642276831
 10
153.1299275656
 20
103.8968938118
 10
153.1328040772
 20
103.9502428887
  0
LWPOLYLINE
  5
29A
100
AcDbEntity
  8
0
100
AcDbPolyline
 62
7
  6
CONTINUOUS
 90
3
 70
0
 10
148.8015283664
 20
93.9657976317
 10
148.3866469424
 20
93.5094213965
 10
148.304885236
 20
93.4200498386
  0
LINE
  5
29B
100
AcDbEntity
  8
0
100
AcDbLine
 62
7
  6
CONTINUOUS
 10
141.0224236173
 20
90.6396739179
 11
141.0153525495
 21
90.6361383839
  0
LINE
  5
29C
100
AcDbEntity
  8
0
100
AcDbLine
 62
7
  6
CONTINUOUS
 10
141.0153525495
 20
110.1217099691
 11
141.899236026
 21
109.6797682309
  0
LINE
  5
29D
100
AcDbEntity
  8
0
100
AcDbLine
 62
7
  6
CONTINUOUS
 10
143.0482845454
 20
109.1052439711
 11
144.1089447172
 21
108.5749138853
  0
LINE
  5
29E
100
AcDbEntity
  8
0
100
AcDbLine
 62
7
  6
CONTINUOUS
 10
145.2579932366
 20
108.0003896255
 11
146.1418767131
 21
107.5584478873
  0
LINE
  5
29F
100
AcDbEntity
  8
0
100
AcDbLine
 62
7
  6
CONTINUOUS
 10
144.1117731443
 20
108.5805707395
 11
143.0553556132
 21
109.108779505
  0
LINE
  5
2A0
100
AcDbEntity
  8
0
100
AcDbLine
 62
7
  6
CONTINUOUS
 10
141.9020644531
 20
109.6854250851
 11
141.0224236173
 21
110.125245503
  0
LINE
  5
2A1
100
AcDbEntity
  8
0
100
AcDbLine
 62
7
  6
CONTINUOUS
 10
145.2650643044
 20
108.0039251594
 11
146.1447051402
 21
107.5641047415
  0
LINE
  5
2A2
100
AcDbEntity
  8
0
100
AcDbLine
 62
7
  6
CONTINUOUS
 10
146.1418767131
 20
108.4244732911
 11
145.2579932366
 21
108.8664150293
  0
LINE
  5
2A3
100
AcDbEntity
  8
0
100
AcDbLine
 62
7
  6
CONTINUOUS
 10
144.1089447172
 20
109.440939289
 11
143.0482845454
 21
109.9712693749
  0
LINE
  5
2A4
100
AcDbEntity
  8
0
100
AcDbLine
 62
7
  6
CONTINUOUS
 10
141.899236026
 20
110.5457936346
 11
141.0153525495
 21
110.9877353729
  0
LWPOLYLINE
  5
2A5
100
AcDbEntity
  8
RACCORDO
100
AcDbPolyline
 62
7
  6
CONTINUOUS
 90
3
 70
0
 10
153.1328040772
 20
103.9502428778
 10
153.1295126908
 20
104.0079609273
 10
153.1245561773
 20
104.0373768499
  0
LWPOLYLINE
  5
2A6
100
AcDbEntity
  8
RACCORDO
100
AcDbPolyline
 62
7
  6
CONTINUOUS
 90
12
 70
0
 10
153.1328040772
 20
114.7755604251
 10
153.1295126908
 20
114.8332784746
 10
153.1201456326
 20
114.8888701038
 10
153.105173852
 20
114.9426275358
 10
153.0839891121
 20
114.9964196506
 10
153.0565188957
 20
115.049092231
 10
153.0248060363
 20
115.0968591478
 10
152.9896261769
 20
115.1395330884
 10
152.9502493902
 20
115.1782720629
 10
152.9081714195
 20
115.2116975882
 10
152.864504228
 20
115.2394046313
 10
152.8211006324
 20
115.2608749939
  0
LINE
  5
2A7
100
AcDbEntity
  8
DRAFT
100
AcDbLine
 62
7
  6
CONTINUOUS
 10
153.377120349
 20
88.2347598455
 11
153.377120349
 21
92.0878191629
  0
LINE
  5
2A8
100
AcDbEntity
  8
RACCORDO
100
AcDbLine
 62
7
  6
CONTINUOUS
 10
153.377120349
 20
92.0878191629
 11
153.377120349
 21
92.5737516552
  0
LINE
  5
2A9
100
AcDbEntity
  8
DRAFT
100
AcDbLine
 62
7
  6
CONTINUOUS
 10
153.377120349
 20
107.7203314306
 11
153.377120349
 21
111.5733907481
  0
LINE
  5
2AA
100
AcDbEntity
  8
RACCORDO
100
AcDbLine
 62
7
  6
CONTINUOUS
 10
153.377120349
 20
111.5733907481
 11
153.377120349
 21
112.0593232404
  0
LINE
  5
2AB
100
AcDbEntity
  8
RACCORDO
100
AcDbLine
 62
7
  6
CONTINUOUS
 10
153.1299275656
 20
95.2366397739
 11
153.1328040772
 21
95.2899888509
  0
LINE
  5
2AC
100
AcDbEntity
  8
RACCORDO
100
AcDbLine
 62
7
  6
CONTINUOUS
 10
153.1245561773
 20
95.2039736452
 11
153.1299275656
 21
95.2366397739
  0
LINE
  5
2AD
100
AcDbEntity
  8
0
100
AcDbLine
 62
7
  6
CONTINUOUS
 10
151.5781356896
 20
95.3942198814
 11
148.8015283664
 21
93.9657976317
  0
LINE
  5
2AE
100
AcDbEntity
  8
DRAFT
100
AcDbLine
 62
7
  6
CONTINUOUS
 10
152.7095065395
 20
95.9599053064
 11
151.584789104
 21
95.3812869843
  0
LINE
  5
2AF
100
AcDbEntity
  8
DRAFT
100
AcDbLine
 62
7
  6
CONTINUOUS
 10
153.1245561773
 20
95.2440505721
 11
151.9891822646
 21
94.6865170755
  0
LINE
  5
2B0
100
AcDbEntity
  8
0
100
AcDbLine
 62
7
  6
CONTINUOUS
 10
151.9931853274
 20
94.6783651471
 11
149.1872779734
 21
93.3004779755
  0
LINE
  5
2B1
100
AcDbEntity
  8
0
100
AcDbLine
 62
7
  6
CONTINUOUS
 10
148.3618306568
 20
112.8090240021
 11
148.304885236
 21
112.9056214238
  0
LINE
  5
2B2
100
AcDbEntity
  8
0
100
AcDbLine
 62
7
  6
CONTINUOUS
 10
148.4182204724
 20
112.711765957
 11
148.3618306568
 21
112.8090240021
  0
LINE
  5
2B3
100
AcDbEntity
  8
0
100
AcDbLine
 62
7
  6
CONTINUOUS
 10
148.4740546826
 20
112.6138472883
 11
148.4182204724
 21
112.711765957
  0
LWPOLYLINE
  5
2B4
100
AcDbEntity
  8
RACCORDO
100
AcDbPolyline
 62
7
  6
CONTINUOUS
 90
3
 70
0
 10
153.1245561773
 20
84.3786560979
 10
153.1299275656
 20
84.4113222266
 10
153.1328040772
 20
84.4646713036
  0
LINE
  5
2B5
100
AcDbEntity
  8
0
100
AcDbLine
 62
7
  6
CONTINUOUS
 10
143.0553556132
 20
89.6232079199
 11
143.0482845454
 21
89.619672386
  0
LWPOLYLINE
  5
2B6
100
AcDbEntity
  8
0
100
AcDbPolyline
 62
7
  6
CONTINUOUS
 90
7
 70
0
 10
149.1872779734
 20
112.7860495606
 10
149.1250440236
 20
112.8983852498
 10
149.0619733294
 20
113.0101652284
 10
148.9980760543
 20
113.1213714851
 10
148.9333624949
 20
113.2319861013
 10
148.8678430796
 20
113.3419912535
 10
148.8015283664
 20
113.4513692168
  0
LINE
  5
2B7
100
AcDbEntity
  8
0
100
AcDbLine
 62
7
  6
CONTINUOUS
 10
145.2650643044
 20
88.5183535743
 11
145.2579932366
 21
88.5148180404
  0
LINE
  5
2B8
100
AcDbEntity
  8
DRAFT
100
AcDbLine
 62
7
  6
CONTINUOUS
 10
153.1296329756
 20
91.9693662616
 11
153.377120349
 21
92.0878191629
  0
LINE
  5
2B9
100
AcDbEntity
  8
0
100
AcDbLine
 62
7
  6
CONTINUOUS
 10
148.9462665401
 20
112.7284403679
 11
148.4740546826
 21
112.6138472883
  0
LINE
  5
2BA
100
AcDbEntity
  8
0
100
AcDbLine
 62
7
  6
CONTINUOUS
 10
149.1872779734
 20
112.7860495606
 11
148.9462665401
 21
112.7284403679
  0
LINE
  5
2BB
100
AcDbEntity
  8
0
100
AcDbLine
 62
7
  6
CONTINUOUS
 10
148.304885236
 20
112.9056214238
 11
138.8523440266
 21
117.6318920284
  0
LINE
  5
2BC
100
AcDbEntity
  8
0
100
AcDbLine
 62
7
  6
CONTINUOUS
 10
148.8015283664
 20
113.4513692168
 11
139.0626999816
 21
118.3207834092
  0
LWPOLYLINE
  5
2BD
100
AcDbEntity
  8
0
100
AcDbPolyline
 62
7
  6
CONTINUOUS
 90
10
 70
0
 10
151.9931853274
 20
114.1639367323
 10
151.9487487205
 20
114.2446660041
 10
151.9038892787
 20
114.3251026928
 10
151.858607002
 20
114.4052467983
 10
151.8128981169
 20
114.4851048289
 10
151.7667663969
 20
114.5646702764
 10
151.7202231621
 20
114.6439236164
 10
151.673272186
 20
114.7228583406
 10
151.6259096952
 20
114.8014809574
 10
151.5781356896
 20
114.8797914666
  0
LWPOLYLINE
  5
2BE
100
AcDbEntity
  8
DRAFT
100
AcDbPolyline
 62
7
  6
CONTINUOUS
 90
10
 70
0
 10
153.1245561773
 20
114.7296221572
 10
153.0801195704
 20
114.810351429
 10
153.0352601286
 20
114.8907881177
 10
152.9899778519
 20
114.9709322233
 10
152.9442689668
 20
115.0507902539
 10
152.8981372468
 20
115.1303557014
 10
152.851594012
 20
115.2096090413
 10
152.8046430359
 20
115.2885437656
 10
152.7572805451
 20
115.3671663823
 10
152.7095065395
 20
115.4454768915
  0
LINE
  5
2BF
100
AcDbEntity
  8
DRAFT
100
AcDbLine
 62
7
  6
CONTINUOUS
 10
153.1296329756
 20
88.1057253734
 11
153.377120349
 21
88.2347598455
  0
LINE
  5
2C0
100
AcDbEntity
  8
0
100
AcDbLine
 62
7
  6
CONTINUOUS
 10
151.5781356896
 20
114.8797914666
 11
141.8016332475
 21
119.7680426876
  0
LINE
  5
2C1
100
AcDbEntity
  8
RACCORDO
100
AcDbLine
 62
7
  6
CONTINUOUS
 10
146.4396772915
 20
118.2915021912
 11
148.6371479204
 21
117.1927668767
  0
LINE
  5
2C2
100
AcDbEntity
  8
RACCORDO
100
AcDbLine
 62
7
  6
CONTINUOUS
 10
152.7095065395
 20
115.4454768915
 11
149.2664007944
 21
117.167029764
  0
LINE
  5
2C3
100
AcDbEntity
  8
RACCORDO
100
AcDbLine
 62
7
  6
CONTINUOUS
 10
146.3761098424
 20
118.61217524
 11
142.9330040974
 21
120.3337281126
  0
LWPOLYLINE
  5
2C4
100
AcDbEntity
  8
0
100
AcDbPolyline
 62
7
  6
CONTINUOUS
 90
7
 70
0
 10
148.304885236
 20
81.4287196466
 10
148.3335578241
 20
81.4484881446
 10
148.36203934
 20
81.4685228893
 10
148.3903297838
 20
81.4888238808
 10
148.4184291555
 20
81.5093911189
 10
148.4463374551
 20
81.5302246038
 10
148.4740546826
 20
81.5513243354
  0
LWPOLYLINE
  5
2C5
100
AcDbEntity
  8
0
100
AcDbPolyline
 62
7
  6
CONTINUOUS
 90
9
 70
0
 10
151.6259096952
 20
82.4343753282
 10
151.673272186
 20
82.4656354541
 10
151.7202231621
 20
82.4976192023
 10
151.7667663969
 20
82.5303293075
 10
151.8128981169
 20
82.563763035
 10
151.858607002
 20
82.5979121805
 10
151.9038892787
 20
82.6327740093
 10
151.9487487205
 20
82.6683512562
 10
151.9931853274
 20
82.7046439211
  0
LWPOLYLINE
  5
2C6
100
AcDbEntity
  8
0
100
AcDbPolyline
 62
7
  6
CONTINUOUS
 90
7
 70
0
 10
148.8015283664
 20
81.0933278085
 10
148.8678430367
 20
81.1363910301
 10
148.9333624271
 20
81.1808767485
 10
148.9980759789
 20
81.2267777977
 10
149.0619732633
 20
81.2740867839
 10
149.1250439829
 20
81.3227960861
 10
149.1872779734
 20
81.3728978578
  0
LINE
  5
2C7
100
AcDbEntity
  8
0
100
AcDbLine
 62
7
  6
CONTINUOUS
 10
151.5781356896
 20
82.4038388246
 11
151.6259096952
 21
82.4343753282
  0
LWPOLYLINE
  5
2C8
100
AcDbEntity
  8
DRAFT
100
AcDbPolyline
 62
7
  6
CONTINUOUS
 90
10
 70
0
 10
152.7095065395
 20
82.9695242496
 10
152.7572805451
 20
83.0000607532
 10
152.8046430359
 20
83.0313208791
 10
152.851594012
 20
83.0633046272
 10
152.8981372468
 20
83.0960147324
 10
152.9442689668
 20
83.1294484599
 10
152.9899778519
 20
83.1635976054
 10
153.0352601286
 20
83.1984594342
 10
153.0801195704
 20
83.2340366811
 10
153.1245561773
 20
83.270329346
  0
LINE
  5
2C9
100
AcDbEntity
  8
DRAFT
100
AcDbLine
 62
7
  6
CONTINUOUS
 10
153.1245561773
 20
83.270329346
 11
151.9931853274
 21
82.73334498
  0
LINE
  5
2CA
100
AcDbEntity
  8
0
100
AcDbLine
 62
7
  6
CONTINUOUS
 10
151.9931853274
 20
82.7046439211
 11
149.1872779734
 21
81.3728978578
  0
LINE
  5
2CB
100
AcDbEntity
  8
DRAFT
100
AcDbLine
 62
7
  6
CONTINUOUS
 10
152.7095065395
 20
82.9695242496
 11
151.7417693361
 21
82.512761631
  0
LINE
  5
2CC
100
AcDbEntity
  8
0
100
AcDbLine
 62
7
  6
CONTINUOUS
 10
151.5781356896
 20
82.4038388246
 11
148.8015283664
 21
81.0933278085
  0
ELLIPSE
  5
2CD
100
AcDbEntity
  8
RACCORDO
100
AcDbEllipse
 62
7
  6
CONTINUOUS
 10
153.077120349
 20
92.5769583554
 30
0.0
 11
0.2999929097
 21
-0.0042158549
 31
0.0
 40
0.4892375088
 41
0.0068752354
 42
1.41874773
  0
ELLIPSE
  5
2CE
100
AcDbEntity
  8
RACCORDO
100
AcDbEllipse
 62
7
  6
CONTINUOUS
 10
148.990701311
 20
97.8915302517
 30
0.0
 11
0.4999863728
 21
0.0072295547
 31
0.0
 40
0.5106100819
 41
-2.3635775243
 42
-0.9941391183
  0
ELLIPSE
  5
2CF
100
AcDbEntity
  8
RACCORDO
100
AcDbEllipse
 62
7
  6
CONTINUOUS
 10
146.7932306821
 20
98.9902655662
 30
0.0
 11
0.4999863728
 21
0.0072295547
 31
0.0
 40
0.5106100819
 41
2.5501693769
 42
3.9196077829
  0
ELLIPSE
  5
2D0
100
AcDbEntity
  8
RACCORDO
100
AcDbEllipse
 62
7
  6
CONTINUOUS
 10
153.077120349
 20
112.0625299406
 30
0.0
 11
0.2999929097
 21
-0.0042158549
 31
0.0
 40
0.4892375088
 41
0.0068752354
 42
1.41874773
  0
ELLIPSE
  5
2D1
100
AcDbEntity
  8
RACCORDO
100
AcDbEllipse
 62
7
  6
CONTINUOUS
 10
148.990701311
 20
117.3771018368
 30
0.0
 11
0.4999863728
 21
0.0072295547
 31
0.0
 40
0.5106100819
 41
-2.3635775243
 42
-0.9941391183
  0
ELLIPSE
  5
2D2
100
AcDbEntity
  8
RACCORDO
100
AcDbEllipse
 62
7
  6
CONTINUOUS
 10
146.7932306821
 20
118.4758371513
 30
0.0
 11
0.4999863728
 21
0.0072295547
 31
0.0
 40
0.5106100819
 41
2.5501693769
 42
3.9196077829
  0
ENDSEC
  0
SECTION
  2
OBJECTS
  0
DICTIONARY
  5
C
100
AcDbDictionary
280
0
281
1
  3
ACAD_GROUP
350
D
  3
ACAD_MLINESTYLE
350
17
  3
ACAD_LAYOUT
350
1A
  3
ACAD_PLOTSETTINGS
350
19
  3
ACAD_PLOTSTYLENAME
350
E
  0
DICTIONARY
  5
D
102
{ACAD_REACTORS
330
C
102
}
100
AcDbDictionary
280
0
281
1
  0
ACDBDICTIONARYWDFLT
  5
E
102
{ACAD_REACTORS
330
C
102
}
100
AcDbDictionary
281
1
  3
Normal
350
F
100
AcDbDictionaryWithDefault
340
F
  0
DICTIONARY
  5
17
102
{ACAD_REACTORS
330
C
102
}
100
AcDbDictionary
280
0
281
1
  3
Standard
350
18
  0
DICTIONARY
  5
19
102
{ACAD_REACTORS
330
C
102
}
100
AcDbDictionary
281
1
  0
DICTIONARY
  5
1A
102
{ACAD_REACTORS
330
C
102
}
100
AcDbDictionary
281
1
  3
Model
350
2D3
  3
Layout1
350
2D4
  0
ACDBPLACEHOLDER
  5
F
102
{ACAD_REACTORS
330
E
102
}
  0
MLINESTYLE
  5
18
102
{ACAD_REACTORS
330
17
102
}
100
AcDbMlineStyle
  2
STANDARD
 70
0
  3

 62
256
 51
90.0
 52
90.0
 71
2
 49
0.5
 62
256
  6
BYLAYER
 49
-0.5
 62
256
  6
BYLAYER
  0
LAYOUT
  5
2D3
102
{ACAD_REACTORS
330
1A
102
}
100
AcDbPlotSettings
  1

  2
none_device
  4
ISO_A4_(297.00_x_210.00_MM)
  6

 40
0.0
 41
0.0
 42
0.0
 43
0.0
 44
297.0
 45
210.0
 46
0.0
 47
0.0
 48
0.0
 49
0.0
140
0.0
141
0.0
142
1.0
143
1.0
 70
1024
 72
1
 73
0
 74
0
  7

 75
0
147
1.0
148
0.0
149
0.0
100
AcDbLayout
  1
Model
 70
0
 71
0
 10
0.0
 20
0.0
 11
297.0
 21
210.0
 12
0.0
 22
0.0
 32
0.0
 14
0.0
 24
0.0
 34
0.0
 15
0.0
 25
0.0
 35
0.0
146
0.0
 13
0.0
 23
0.0
 33
0.0
 16
1.0
 26
0.0
 36
0.0
 17
0.0
 27
1.0
 37
0.0
 76
0
330
219
345
0
346
0
  0
LAYOUT
  5
2D4
102
{ACAD_REACTORS
330
1A
102
}
100
AcDbPlotSettings
  1

  2
none_device
  4
ISO_A4_(297.00_x_210.00_MM)
  6

 40
0.0
 41
0.0
 42
0.0
 43
0.0
 44
297.0
 45
210.0
 46
0.0
 47
0.0
 48
0.0
 49
0.0
140
0.0
141
0.0
142
1.0
143
1.0
 70
0
 72
1
 73
0
 74
0
  7

 75
0
147
1.0
148
0.0
149
0.0
100
AcDbLayout
  1
Layout1
 70
0
 71
1
 10
0.0
 20
0.0
 11
297.0
 21
210.0
 12
0.0
 22
0.0
 32
0.0
 14
0.0
 24
0.0
 34
0.0
 15
0.0
 25
0.0
 35
0.0
146
0.0
 13
0.0
 23
0.0
 33
0.0
 16
1.0
 26
0.0
 36
0.0
 17
0.0
 27
1.0
 37
0.0
 76
0
330
21A
345
0
346
0
  0
ENDSEC
  0
EOF
