999
DXF file: zdi_ea143210.dxf
999
Pro/ENGINEER 2004090 by Parametric Technology Corporation
0
SECTION
2
HEADER
9
$ACADVER
1
AC1014
9
$HANDSEED
5
       39B
9
$EXTMAX
10
297.0000000000
20
210.0000000000
9
$EXTMIN
10
0.0000000000
20
0.0000000000
9
$LIMMIN
10
0.0000000000
20
0.0000000000
9
$LIMMAX
10
297.0000000000
20
210.0000000000
9
$VIEWCTR
10
148.5000000000
20
105.0000000000
9
$VIEWSIZE
40
210.0000000000
9
$CLAYER
8
0
9
$LTSCALE
40
16.3350000000
9
$CELTYPE
6
BYLAYER
9
$DIMSCALE
40
1
9
$DIMASZ
40
3.0000000000
9
$DIMEXO
40
1.8562500000
9
$DIMDLI
40
11.2860000000
9
$DIMEXE
40
5.3460000000
9
$DIMCEN
40
2.6730000000
9
$DIMLFAC
40
1.0000000000
9
$DIMTXT
40
3.0000000000
9
$DIMTOL
70
1
9
$DIMLIM
70
0
9
$DIMTFAC
40
1.0000000000
9
$DIMTP
40
0.0100000000
9
$DIMTM
40
0.0100000000
9
$MEASUREMENT
70
1
0
ENDSEC
0
SECTION
2
CLASSES
0
ENDSEC
0
SECTION
2
TABLES
0
TABLE
2
VPORT
5
8
100
AcDbSymbolTable
70
2
0
VPORT
5
1F4
100
AcDbSymbolTableRecord
100
AcDbViewportTableRecord
2
*ACTIVE
70
0
10
0.0
20
0.0
11
1.0
21
1.0
12
148.5000000000
22
105.0000000000
13
0.0
23
0.0
14
1.0
24
1.0
15
0.0
25
0.0
16
0.0
26
0.0
36
1.0
17
0.0
27
0.0
37
0.0
40
210.0000000000
41
1.4142857143
42
50.0
43
0.0
44
0.0
50
0.0
51
0.0
71
0
72
100
73
1
74
1
75
0
76
0
77
0
78
0
0
ENDTAB
0
TABLE
2
LTYPE
5
5
100
AcDbSymbolTable
70
6
0
LTYPE
5
14
100
AcDbSymbolTableRecord
100
AcDbLinetypeTableRecord
2
BYBLOCK
70
0
3

72
65
73
0
40
0.0
0
LTYPE
5
15
100
AcDbSymbolTableRecord
100
AcDbLinetypeTableRecord
2
BYLAYER
70
0
3

72
65
73
0
40
0.0
0
LTYPE
5
16
100
AcDbSymbolTableRecord
100
AcDbLinetypeTableRecord
2
CONTINUOUS
70
64
3
Solid line
72
65
73
0
40
0
0
LTYPE
5
1F5
100
AcDbSymbolTableRecord
100
AcDbLinetypeTableRecord
2
CENTER
70
64
3
____ _ ____ _ ____ _ ____ _ ____ _ ____ _ ____
72
65
73
4
40
0.6
49
0.375
74
0
49
-0.075
74
0
49
0.075
74
0
49
-0.075
74
0
0
LTYPE
5
1F6
100
AcDbSymbolTableRecord
100
AcDbLinetypeTableRecord
2
HIDDEN
70
64
3
- - - - - - - - - - - - - - - - - - - -
72
65
73
2
40
0.2
49
0.1
74
0
49
-0.1
74
0
0
LTYPE
5
1F7
100
AcDbSymbolTableRecord
100
AcDbLinetypeTableRecord
2
PHANTOM
70
64
3
_____ _ _ _____ _ _ _____ _ _ _____
72
65
73
6
40
0.8
49
0.45
74
0
49
-0.05
74
0
49
0.1
74
0
49
-0.05
74
0
49
0.1
74
0
49
-0.05
74
0
0
LTYPE
5
1F8
100
AcDbSymbolTableRecord
100
AcDbLinetypeTableRecord
2
DOT
70
64
3
. . . . . . . . . . . . . . . . . . . .
72
65
73
2
40
0.2
49
0.1
74
0
49
-0.1
74
0
0
LTYPE
5
1F9
100
AcDbSymbolTableRecord
100
AcDbLinetypeTableRecord
2
DASHED
70
64
3
- - - - - - - - - - - - - - - - - - - -
72
65
73
2
40
0.2
49
0.1
74
0
49
-0.1
74
0
0
ENDTAB
0
TABLE
2
LAYER
5
2
100
AcDbSymbolTable
70
36
0
LAYER
5
10
100
AcDbSymbolTableRecord
100
AcDbLayerTableRecord
2
0
70
0
62
7
6
CONTINUOUS
0
LAYER
5
1FA
100
AcDbSymbolTableRecord
100
AcDbLayerTableRecord
2
DEFAULT_1
70
0
62
7
6
CENTER
0
LAYER
5
1FB
100
AcDbSymbolTableRecord
100
AcDbLayerTableRecord
2
DEFAULT_2
70
0
62
8
6
HIDDEN
0
LAYER
5
1FC
100
AcDbSymbolTableRecord
100
AcDbLayerTableRecord
2
DEFAULT_3
70
0
62
7
6
PHANTOM
0
LAYER
5
1FD
100
AcDbSymbolTableRecord
100
AcDbLayerTableRecord
2
ASSI
70
0
62
7
6
CONTINUOUS
0
LAYER
5
1FE
100
AcDbSymbolTableRecord
100
AcDbLayerTableRecord
2
COORDINATE
70
0
62
7
6
CONTINUOUS
0
LAYER
5
1FF
100
AcDbSymbolTableRecord
100
AcDbLayerTableRecord
2
COORD_ORIGINE
70
0
62
7
6
CONTINUOUS
0
LAYER
5
200
100
AcDbSymbolTableRecord
100
AcDbLayerTableRecord
2
CURVE
70
0
62
7
6
CONTINUOUS
0
LAYER
5
201
100
AcDbSymbolTableRecord
100
AcDbLayerTableRecord
2
DRAFT
70
0
62
7
6
CONTINUOUS
0
LAYER
5
202
100
AcDbSymbolTableRecord
100
AcDbLayerTableRecord
2
IMPORT
70
0
62
7
6
CONTINUOUS
0
LAYER
5
203
100
AcDbSymbolTableRecord
100
AcDbLayerTableRecord
2
NOTE
70
0
62
7
6
CONTINUOUS
0
LAYER
5
204
100
AcDbSymbolTableRecord
100
AcDbLayerTableRecord
2
PIANI
70
0
62
7
6
CONTINUOUS
0
LAYER
5
205
100
AcDbSymbolTableRecord
100
AcDbLayerTableRecord
2
PIANI_ORIGINE
70
0
62
7
6
CONTINUOUS
0
LAYER
5
206
100
AcDbSymbolTableRecord
100
AcDbLayerTableRecord
2
PIANI_RIFERIMENTO
70
0
62
7
6
CONTINUOUS
0
LAYER
5
207
100
AcDbSymbolTableRecord
100
AcDbLayerTableRecord
2
PIANI_SFORMO
70
0
62
7
6
CONTINUOUS
0
LAYER
5
208
100
AcDbSymbolTableRecord
100
AcDbLayerTableRecord
2
PUNTI
70
0
62
7
6
CONTINUOUS
0
LAYER
5
209
100
AcDbSymbolTableRecord
100
AcDbLayerTableRecord
2
RACCORDO
70
0
62
7
6
CONTINUOUS
0
LAYER
5
20A
100
AcDbSymbolTableRecord
100
AcDbLayerTableRecord
2
SMUSSO
70
0
62
7
6
CONTINUOUS
0
LAYER
5
20B
100
AcDbSymbolTableRecord
100
AcDbLayerTableRecord
2
SUPERFICI
70
0
62
7
6
CONTINUOUS
0
LAYER
5
20C
100
AcDbSymbolTableRecord
100
AcDbLayerTableRecord
2
TRASH
70
0
62
7
6
CONTINUOUS
0
LAYER
5
20D
100
AcDbSymbolTableRecord
100
AcDbLayerTableRecord
2
XSEC_DATUMS
70
0
62
7
6
CONTINUOUS
0
ENDTAB
0
TABLE
2
STYLE
5
3
100
AcDbSymbolTable
70
1
0
STYLE
5
11
100
AcDbSymbolTableRecord
100
AcDbTextStyleTableRecord
2
STANDARD
70
0
40
0.0
41
0.8000000000
50
0.0
71
0
42
0.2
3
txt
4

0
ENDTAB
0
TABLE
2
VIEW
5
6
100
AcDbSymbolTable
70
0
0
ENDTAB
0
TABLE
2
UCS
5
7
100
AcDbSymbolTable
70
0
0
ENDTAB
0
TABLE
2
APPID
5
9
100
AcDbSymbolTable
70
1
0
APPID
5
20E
100
AcDbSymbolTableRecord
100
AcDbRegAppTableRecord
2
ACAD
70
0
0
ENDTAB
0
TABLE
2
DIMSTYLE
5
A
100
AcDbSymbolTable
70
1
0
DIMSTYLE
105
20F
100
AcDbSymbolTableRecord
100
AcDbDimStyleTableRecord
2
STANDARD
70
0
3

4

5

6

7

40
1.0
41
3.0000000000
42
0.0625
43
0.38
44
0.18
45
0.0
46
0.0
47
0.0100000000
48
0.0100000000
140
3.0000000000
141
0.09
142
0.0
143
25.4
144
1.0000000000
145
0.0
146
1.0000000000
147
0.09
71
1
72
0
73
0
74
0
75
0
76
0
77
1
78
8
170
0
171
2
172
0
173
0
174
0
175
0
176
0
177
0
178
0
270
2
271
2
272
2
273
2
274
2
340
11
275
0
280
0
281
0
282
0
283
1
284
8
285
0
286
0
287
3
288
0
0
ENDTAB
0
TABLE
2
BLOCK_RECORD
5
1
100
AcDbSymbolTable
70
0
0
BLOCK_RECORD
5
1B
100
AcDbSymbolTableRecord
100
AcDbBlockTableRecord
2
*MODEL_SPACE
0
BLOCK_RECORD
5
1C
100
AcDbSymbolTableRecord
100
AcDbBlockTableRecord
2
*PAPER_SPACE
0
ENDTAB
0
ENDSEC
0
SECTION
2
BLOCKS
0
BLOCK
5
1E
100
AcDbEntity
8
0
100
AcDbBlockBegin
2
*MODEL_SPACE
70
0
10
0.0
20
0.0
30
0.0
3
*MODEL_SPACE
1

0
ENDBLK
5
1F
100
AcDbEntity
8
0
100
AcDbBlockEnd
0
BLOCK
5
20
100
AcDbEntity
8
0
100
AcDbBlockBegin
2
*PAPER_SPACE
70
0
10
0.0
20
0.0
30
0.0
3
*PAPER_SPACE
1

0
ENDBLK
5
21
100
AcDbEntity
8
0
100
AcDbBlockEnd
0
ENDSEC
0
SECTION
2
ENTITIES
0
LINE
5
210
100
AcDbEntity
8
0
100
AcDbLine
62
9
6
CONTINUOUS
10
-7.9140767878
20
23.8048623396
11
-7.9271753665
21
23.7917637609
0
LINE
5
211
100
AcDbEntity
8
0
100
AcDbLine
62
9
6
CONTINUOUS
10
-7.6640810186
20
23.5548665704
11
-7.6771795973
21
23.5417679916
0
LINE
5
212
100
AcDbEntity
8
0
100
AcDbLine
62
7
6
CONTINUOUS
10
-10.2977484682
20
21.6573649663
11
-10.3152463204
21
21.6486167065
0
LINE
5
213
100
AcDbEntity
8
0
100
AcDbLine
62
9
6
CONTINUOUS
10
-10.5466601787
20
21.2547595559
11
-10.5640810186
21
21.2460497993
0
LINE
5
214
100
AcDbEntity
8
0
100
AcDbLine
62
7
6
CONTINUOUS
10
10.9859232122
20
-25.1951376604
11
9.0859147506
21
-25.1951376604
0
LINE
5
215
100
AcDbEntity
8
0
100
AcDbLine
62
7
6
CONTINUOUS
10
-7.9140767878
20
-25.1951376604
11
-9.8140852494
21
-25.1951376604
0
LINE
5
216
100
AcDbEntity
8
0
100
AcDbLine
62
9
6
CONTINUOUS
10
-9.8009866706
20
-25.1820390817
11
-7.9271753665
21
-25.1820390817
0
LINE
5
217
100
AcDbEntity
8
0
100
AcDbLine
62
9
6
CONTINUOUS
10
9.0990133294
20
-25.1820390817
11
10.9728246335
21
-25.1820390817
0
LINE
5
218
100
AcDbEntity
8
0
100
AcDbLine
62
9
6
CONTINUOUS
10
-7.6771795973
20
-24.9320433125
11
-10.0509824398
21
-24.9320433125
0
LINE
5
219
100
AcDbEntity
8
0
100
AcDbLine
62
9
6
CONTINUOUS
10
8.8490175602
20
-24.9320433125
11
11.2228204027
21
-24.9320433125
0
LINE
5
21A
100
AcDbEntity
8
0
100
AcDbLine
62
7
6
CONTINUOUS
10
-10.3152463204
20
-23.0388920273
11
-10.2977487999
21
-23.0476401213
0
LINE
5
21B
100
AcDbEntity
8
0
100
AcDbLine
62
9
6
CONTINUOUS
10
-10.5640810186
20
-22.6363251202
11
-10.5466602999
21
-22.6450348161
0
LINE
5
21C
100
AcDbEntity
8
0
100
AcDbLine
62
9
6
CONTINUOUS
10
-7.9140767878
20
-25.1951376604
11
-7.9271753665
21
-25.1820390817
0
LINE
5
21D
100
AcDbEntity
8
0
100
AcDbLine
62
9
6
CONTINUOUS
10
-7.6640810186
20
-24.9451418912
11
-7.6771795973
21
-24.9320433125
0
LINE
5
21E
100
AcDbEntity
8
0
100
AcDbLine
62
9
6
CONTINUOUS
10
-7.6771795973
20
-24.5394752277
11
-10.0509824398
21
-24.5394752277
0
LINE
5
21F
100
AcDbEntity
8
0
100
AcDbLine
62
9
6
CONTINUOUS
10
8.8490175602
20
-24.5394752277
11
11.2228204027
21
-24.5394752277
0
LINE
5
220
100
AcDbEntity
8
0
100
AcDbLine
62
7
6
CONTINUOUS
10
4.9859189814
20
-24.4951376604
11
-3.8140810186
21
-24.4951376604
0
LINE
5
221
100
AcDbEntity
8
0
100
AcDbLine
62
9
6
CONTINUOUS
10
-3.7102883322
20
-24.4904766273
11
4.8821262951
21
-24.4904766273
0
LINE
5
222
100
AcDbEntity
8
0
100
AcDbLine
62
9
6
CONTINUOUS
10
10.9728246335
20
-24.3229688768
11
9.0990133294
21
-24.3229688768
0
LINE
5
223
100
AcDbEntity
8
0
100
AcDbLine
62
9
6
CONTINUOUS
10
-7.9271753665
20
-24.3229688768
11
-9.8009866706
21
-24.3229688768
0
LINE
5
224
100
AcDbEntity
8
0
100
AcDbLine
62
9
6
CONTINUOUS
10
-3.3111636419
20
-24.2904800119
11
4.4830016048
21
-24.2904800119
0
LINE
5
225
100
AcDbEntity
8
0
100
AcDbLine
62
7
6
CONTINUOUS
10
-9.8060772717
20
-23.8177873912
11
-7.9220847654
21
-23.8177873912
0
LINE
5
226
100
AcDbEntity
8
0
100
AcDbLine
62
7
6
CONTINUOUS
10
9.0939227283
20
-23.8177873912
11
10.9779152346
21
-23.8177873912
0
LINE
5
227
100
AcDbEntity
8
0
100
AcDbLine
62
7
6
CONTINUOUS
10
11.2688110045
20
-23.0951376604
11
11.2359189814
21
-23.0951376604
0
LINE
5
228
100
AcDbEntity
8
0
100
AcDbLine
62
7
6
CONTINUOUS
10
8.8359189814
20
-23.0951376604
11
4.9859189814
21
-23.0951376604
0
LINE
5
229
100
AcDbEntity
8
0
100
AcDbLine
62
7
6
CONTINUOUS
10
-3.8140810186
20
-23.0951376604
11
-7.6640810186
21
-23.0951376604
0
LINE
5
22A
100
AcDbEntity
8
0
100
AcDbLine
62
7
6
CONTINUOUS
10
-10.0640810186
20
-23.0951376604
11
-10.0969684934
21
-23.0951376604
0
LINE
5
22B
100
AcDbEntity
8
0
100
AcDbLine
62
7
6
CONTINUOUS
10
4.4830016048
20
-23.0427298811
11
-3.3111636419
21
-23.0427298811
0
LINE
5
22C
100
AcDbEntity
8
0
100
AcDbLine
62
7
6
CONTINUOUS
10
-9.8068045004
20
-23.0165259915
11
-7.9213575367
21
-23.0165259915
0
LINE
5
22D
100
AcDbEntity
8
0
100
AcDbLine
62
7
6
CONTINUOUS
10
9.0931954996
20
-23.0165259915
11
10.9786424633
21
-23.0165259915
0
LINE
5
22E
100
AcDbEntity
8
0
100
AcDbLine
62
9
6
CONTINUOUS
10
-9.9133569807
20
-22.6938628824
11
11.0851949436
21
-22.6938628824
0
LINE
5
22F
100
AcDbEntity
8
0
100
AcDbLine
62
9
6
CONTINUOUS
10
-9.8968302101
20
-21.2576059852
11
11.0686681730
21
-21.2576059852
0
LINE
5
230
100
AcDbEntity
8
0
100
AcDbLine
62
7
6
CONTINUOUS
10
4.9829931432
20
23.1019365014
11
4.9859189814
21
23.1048623396
0
LINE
5
231
100
AcDbEntity
8
0
100
AcDbLine
62
7
6
CONTINUOUS
10
4.9829931432
20
-24.4922118222
11
4.9859189814
21
-24.4951376604
0
LINE
5
232
100
AcDbEntity
8
0
100
AcDbLine
62
7
6
CONTINUOUS
10
-10.5640810186
20
21.2460497993
11
-10.5640810186
21
-22.6363251202
0
LINE
5
233
100
AcDbEntity
8
0
100
AcDbLine
62
9
6
CONTINUOUS
10
-10.0509824398
20
-24.5394752277
11
-10.0568002697
21
-23.9621249585
0
LINE
5
234
100
AcDbEntity
8
0
100
AcDbLine
62
9
6
CONTINUOUS
10
-9.8009866706
20
-24.3229688768
11
-9.8060772717
21
-23.8177873912
0
LINE
5
235
100
AcDbEntity
8
0
100
AcDbLine
62
7
6
CONTINUOUS
10
-10.0640810186
20
-23.0951376604
11
-10.0640810186
21
-24.9451418912
0
LINE
5
236
100
AcDbEntity
8
0
100
AcDbLine
62
7
6
CONTINUOUS
10
-10.0640810186
20
21.7048623396
11
-10.0640810186
21
23.5548665704
0
LINE
5
237
100
AcDbEntity
8
0
100
AcDbLine
62
9
6
CONTINUOUS
10
-10.0568002697
20
-23.9621249585
11
-10.0568002697
21
-23.0295517127
0
LINE
5
238
100
AcDbEntity
8
0
100
AcDbLine
62
9
6
CONTINUOUS
10
-10.0568002697
20
21.6392763919
11
-10.0568002697
21
22.5718496377
0
LINE
5
239
100
AcDbEntity
8
0
100
AcDbLine
62
9
6
CONTINUOUS
10
-10.0509824398
20
23.5417679916
11
-10.0509824398
21
23.1491999069
0
LINE
5
23A
100
AcDbEntity
8
0
100
AcDbLine
62
9
6
CONTINUOUS
10
-10.0509824398
20
-24.5394752277
11
-10.0509824398
21
-24.9320433125
0
LINE
5
23B
100
AcDbEntity
8
0
100
AcDbLine
62
9
6
CONTINUOUS
10
-9.8068045004
20
-23.8177873912
11
-9.8068045004
21
-23.0165259915
0
LINE
5
23C
100
AcDbEntity
8
0
100
AcDbLine
62
9
6
CONTINUOUS
10
-9.8068045004
20
21.6262506707
11
-9.8068045004
21
22.4275120704
0
LINE
5
23D
100
AcDbEntity
8
0
100
AcDbLine
62
9
6
CONTINUOUS
10
-9.8009866706
20
-24.3229688768
11
-9.8009866706
21
-25.1820390817
0
LINE
5
23E
100
AcDbEntity
8
0
100
AcDbLine
62
9
6
CONTINUOUS
10
-9.8009866706
20
22.9326935559
11
-9.8009866706
21
23.7917637609
0
LINE
5
23F
100
AcDbEntity
8
0
100
AcDbLine
62
9
6
CONTINUOUS
10
-10.0568002697
20
22.5718496377
11
-10.0509824398
21
23.1491999069
0
LINE
5
240
100
AcDbEntity
8
0
100
AcDbLine
62
9
6
CONTINUOUS
10
-9.8060772717
20
22.4275120704
11
-9.8009866706
21
22.9326935559
0
LINE
5
241
100
AcDbEntity
8
0
100
AcDbLine
62
7
6
CONTINUOUS
10
-7.6640810186
20
21.7048623396
11
-7.6713617675
21
21.6392763919
0
LINE
5
242
100
AcDbEntity
8
0
100
AcDbLine
62
9
6
CONTINUOUS
10
10.9859232122
20
23.8048623396
11
10.9728246335
21
23.7917637609
0
LINE
5
243
100
AcDbEntity
8
0
100
AcDbLine
62
9
6
CONTINUOUS
10
10.9859232122
20
-25.1951376604
11
10.9728246335
21
-25.1820390817
0
LINE
5
244
100
AcDbEntity
8
0
100
AcDbLine
62
7
6
CONTINUOUS
10
-7.6640810186
20
-23.0951376604
11
-7.6713617675
21
-23.0295517127
0
LINE
5
245
100
AcDbEntity
8
0
100
AcDbLine
62
9
6
CONTINUOUS
10
-7.9271753665
20
22.9326935559
11
-7.9220847654
21
22.4275120704
0
LINE
5
246
100
AcDbEntity
8
0
100
AcDbLine
62
9
6
CONTINUOUS
10
-7.6771795973
20
23.1491999069
11
-7.6713617675
21
22.5718496377
0
LINE
5
247
100
AcDbEntity
8
0
100
AcDbLine
62
9
6
CONTINUOUS
10
-7.9271753665
20
-24.3229688768
11
-7.9271753665
21
-25.1820390817
0
LINE
5
248
100
AcDbEntity
8
0
100
AcDbLine
62
9
6
CONTINUOUS
10
-7.9271753665
20
22.9326935559
11
-7.9271753665
21
23.7917637609
0
LINE
5
249
100
AcDbEntity
8
0
100
AcDbLine
62
9
6
CONTINUOUS
10
-7.9213575367
20
22.4275120704
11
-7.9213575367
21
21.6262506707
0
LINE
5
24A
100
AcDbEntity
8
0
100
AcDbLine
62
9
6
CONTINUOUS
10
-7.9213575367
20
-23.0165259915
11
-7.9213575367
21
-23.8177873912
0
LINE
5
24B
100
AcDbEntity
8
0
100
AcDbLine
62
9
6
CONTINUOUS
10
-7.6771795973
20
-24.9320433125
11
-7.6771795973
21
-24.5394752277
0
LINE
5
24C
100
AcDbEntity
8
0
100
AcDbLine
62
9
6
CONTINUOUS
10
-7.6771795973
20
23.1491999069
11
-7.6771795973
21
23.5417679916
0
LINE
5
24D
100
AcDbEntity
8
0
100
AcDbLine
62
9
6
CONTINUOUS
10
-7.6713617675
20
22.5718496377
11
-7.6713617675
21
21.6392763919
0
LINE
5
24E
100
AcDbEntity
8
0
100
AcDbLine
62
9
6
CONTINUOUS
10
-7.6713617675
20
-23.0295517127
11
-7.6713617675
21
-23.9621249585
0
LINE
5
24F
100
AcDbEntity
8
0
100
AcDbLine
62
7
6
CONTINUOUS
10
-7.6640810186
20
-23.0951376604
11
-7.6640810186
21
-24.9451418912
0
LINE
5
250
100
AcDbEntity
8
0
100
AcDbLine
62
7
6
CONTINUOUS
10
-7.6640810186
20
21.7048623396
11
-7.6640810186
21
23.5548665704
0
LINE
5
251
100
AcDbEntity
8
0
100
AcDbLine
62
9
6
CONTINUOUS
10
-7.9220847654
20
-23.8177873912
11
-7.9271753665
21
-24.3229688768
0
LINE
5
252
100
AcDbEntity
8
0
100
AcDbLine
62
9
6
CONTINUOUS
10
-7.6713617675
20
-23.9621249585
11
-7.6771795973
21
-24.5394752277
0
LINE
5
253
100
AcDbEntity
8
0
100
AcDbLine
62
7
6
CONTINUOUS
10
-10.0640810186
20
-23.0951376604
11
-10.0568002697
21
-23.0295517127
0
LINE
5
254
100
AcDbEntity
8
0
100
AcDbLine
62
9
6
CONTINUOUS
10
11.2359189814
20
23.5548665704
11
11.2228204027
21
23.5417679916
0
LINE
5
255
100
AcDbEntity
8
0
100
AcDbLine
62
9
6
CONTINUOUS
10
11.2359189814
20
-24.9451418912
11
11.2228204027
21
-24.9320433125
0
LINE
5
256
100
AcDbEntity
8
0
100
AcDbLine
62
7
6
CONTINUOUS
10
-10.0640810186
20
21.7048623396
11
-10.0568002697
21
21.6392763919
0
LINE
5
257
100
AcDbEntity
8
0
100
AcDbLine
62
9
6
CONTINUOUS
10
-6.0735728359
20
-4.5084427844
11
-6.0734625410
21
4.5194584592
0
LINE
5
258
100
AcDbEntity
8
0
100
AcDbLine
62
7
6
CONTINUOUS
10
-5.5640810186
20
-3.9951376604
11
-5.5640810186
21
4.0048623396
0
LINE
5
259
100
AcDbEntity
8
0
100
AcDbLine
62
7
6
CONTINUOUS
10
-5.1140810186
20
1.5548623396
11
-5.1140810186
21
-0.1451376604
0
LINE
5
25A
100
AcDbEntity
8
0
100
AcDbLine
62
7
6
CONTINUOUS
10
-4.3890810186
20
3.4548623396
11
-4.3890810186
21
1.5548623396
0
LINE
5
25B
100
AcDbEntity
8
0
100
AcDbLine
62
7
6
CONTINUOUS
10
-4.3890810186
20
-0.1451376604
11
-4.3890810186
21
-3.4951376604
0
LINE
5
25C
100
AcDbEntity
8
0
100
AcDbLine
62
7
6
CONTINUOUS
10
-4.1940810186
20
3.4548623396
11
-4.1940810186
21
-0.0451376604
0
LINE
5
25D
100
AcDbEntity
8
0
100
AcDbLine
62
7
6
CONTINUOUS
10
-3.8140810186
20
-24.4951376604
11
-3.8140810186
21
-23.0951376604
0
LINE
5
25E
100
AcDbEntity
8
0
100
AcDbLine
62
7
6
CONTINUOUS
10
-3.8140810186
20
21.7048623396
11
-3.8140810186
21
23.1048623396
0
LINE
5
25F
100
AcDbEntity
8
0
100
AcDbLine
62
9
6
CONTINUOUS
10
-3.8111551804
20
23.1019365014
11
-3.8111551804
21
21.6785060027
0
LINE
5
260
100
AcDbEntity
8
0
100
AcDbLine
62
9
6
CONTINUOUS
10
-3.8111551804
20
-23.0687813236
11
-3.8111551804
21
-24.4922118222
0
LINE
5
261
100
AcDbEntity
8
0
100
AcDbLine
62
7
6
CONTINUOUS
10
-3.6940810186
20
3.4548623396
11
-3.6940810186
21
-0.0451376604
0
LINE
5
262
100
AcDbEntity
8
0
100
AcDbLine
62
9
6
CONTINUOUS
10
-3.3111636419
20
22.9002046910
11
-3.3111636419
21
21.6524545603
0
LINE
5
263
100
AcDbEntity
8
0
100
AcDbLine
62
9
6
CONTINUOUS
10
-3.3111636419
20
-23.0427298811
11
-3.3111636419
21
-24.2904800119
0
LINE
5
264
100
AcDbEntity
8
0
100
AcDbLine
62
9
6
CONTINUOUS
10
-3.2734439847
20
-6.1099154101
11
-3.2735728377
21
-4.5084427844
0
LINE
5
265
100
AcDbEntity
8
0
100
AcDbLine
62
7
6
CONTINUOUS
10
-3.1740810186
20
3.4548623396
11
-3.1740810186
21
-0.0451376604
0
LINE
5
266
100
AcDbEntity
8
0
100
AcDbLine
62
9
6
CONTINUOUS
10
-10.4134325889
20
-22.1950037671
11
-10.4132808283
21
-22.1945481150
0
LINE
5
267
100
AcDbEntity
8
0
100
AcDbLine
62
9
6
CONTINUOUS
10
3.3951559671
20
-7.3109905016
11
-2.2233180014
21
-7.3109905016
0
LINE
5
268
100
AcDbEntity
8
0
100
AcDbLine
62
9
6
CONTINUOUS
10
2.8951750082
20
-6.8043936872
11
-1.7233370453
21
-6.8043936872
0
LINE
5
269
100
AcDbEntity
8
0
100
AcDbLine
62
7
6
CONTINUOUS
10
2.8859189814
20
-6.7951376604
11
-1.7140810186
21
-6.7951376604
0
LINE
5
26A
100
AcDbEntity
8
0
100
AcDbLine
62
9
6
CONTINUOUS
10
4.4452819520
20
-6.1099154101
11
3.3952819528
21
-6.1099154101
0
LINE
5
26B
100
AcDbEntity
8
0
100
AcDbLine
62
9
6
CONTINUOUS
10
-2.2234439892
20
-6.1099154101
11
-3.2734439847
21
-6.1099154101
0
LINE
5
26C
100
AcDbEntity
8
0
100
AcDbLine
62
9
6
CONTINUOUS
10
-10.4132808283
20
20.8042727942
11
-10.4134325889
21
20.8047284463
0
LINE
5
26D
100
AcDbEntity
8
0
100
AcDbLine
62
7
6
CONTINUOUS
10
-2.7640810186
20
-5.5951376604
11
-2.7640810186
21
-3.9951376604
0
LINE
5
26E
100
AcDbEntity
8
0
100
AcDbLine
62
7
6
CONTINUOUS
10
-2.7140810186
20
-3.4951376604
11
-2.7140810186
21
-5.0951376604
0
LINE
5
26F
100
AcDbEntity
8
0
100
AcDbLine
62
7
6
CONTINUOUS
10
-2.6740810186
20
3.4548623396
11
-2.6740810186
21
-0.0451376604
0
LINE
5
270
100
AcDbEntity
8
0
100
AcDbLine
62
9
6
CONTINUOUS
10
-2.2233180014
20
-7.3109905016
11
-2.2234439892
21
-6.1099154101
0
LINE
5
271
100
AcDbEntity
8
0
100
AcDbLine
62
7
6
CONTINUOUS
10
-2.1540810186
20
3.4548623396
11
-2.1540810186
21
-0.0451376604
0
LINE
5
272
100
AcDbEntity
8
0
100
AcDbLine
62
7
6
CONTINUOUS
10
-2.1290810186
20
3.4548623396
11
-2.1290810186
21
-0.0451376604
0
LINE
5
273
100
AcDbEntity
8
0
100
AcDbLine
62
7
6
CONTINUOUS
10
-1.7140810186
20
-6.7951376604
11
-1.7140810186
21
-5.5951376604
0
LINE
5
274
100
AcDbEntity
8
0
100
AcDbLine
62
7
6
CONTINUOUS
10
-1.6790810186
20
3.4548623396
11
-1.6790810186
21
-0.0451376604
0
LINE
5
275
100
AcDbEntity
8
0
100
AcDbLine
62
7
6
CONTINUOUS
10
-1.6540810186
20
3.4548623396
11
-1.6540810186
21
-0.0451376604
0
LINE
5
276
100
AcDbEntity
8
0
100
AcDbLine
62
7
6
CONTINUOUS
10
-1.4540810186
20
-5.0951376604
11
-1.4540810186
21
-5.9951376604
0
LINE
5
277
100
AcDbEntity
8
0
100
AcDbLine
62
7
6
CONTINUOUS
10
-1.1340810186
20
3.4548623396
11
-1.1340810186
21
-0.0451376604
0
LINE
5
278
100
AcDbEntity
8
0
100
AcDbLine
62
7
6
CONTINUOUS
10
-1.1290810186
20
3.4548623396
11
-1.1290810186
21
-0.0451376604
0
LINE
5
279
100
AcDbEntity
8
0
100
AcDbLine
62
7
6
CONTINUOUS
10
-3.8140810186
20
-23.0951376604
11
-3.8111551804
21
-23.0687813236
0
LINE
5
27A
100
AcDbEntity
8
0
100
AcDbLine
62
9
6
CONTINUOUS
10
-9.9135087413
20
-22.6943185345
11
-9.9133569807
21
-22.6938628824
0
LINE
5
27B
100
AcDbEntity
8
0
100
AcDbLine
62
7
6
CONTINUOUS
10
-5.5736229662
20
-4.0046923027
11
-5.5735918759
21
-4.0046485177
0
LINE
5
27C
100
AcDbEntity
8
0
100
AcDbLine
62
7
6
CONTINUOUS
10
-1.4540810186
20
-5.9951376604
11
2.6259189814
21
-5.9951376604
0
LINE
5
27D
100
AcDbEntity
8
0
100
AcDbLine
62
9
6
CONTINUOUS
10
3.9453009919
20
-5.6045196709
11
2.8953009919
21
-5.6045196709
0
LINE
5
27E
100
AcDbEntity
8
0
100
AcDbLine
62
9
6
CONTINUOUS
10
-1.7234630290
20
-5.6045196709
11
-2.7734630290
21
-5.6045196709
0
LINE
5
27F
100
AcDbEntity
8
0
100
AcDbLine
62
7
6
CONTINUOUS
10
3.9359189814
20
-5.5951376604
11
2.8859189814
21
-5.5951376604
0
LINE
5
280
100
AcDbEntity
8
0
100
AcDbLine
62
7
6
CONTINUOUS
10
-1.7140810186
20
-5.5951376604
11
-2.7640810186
21
-5.5951376604
0
LINE
5
281
100
AcDbEntity
8
0
100
AcDbLine
62
7
6
CONTINUOUS
10
-2.7140810186
20
-5.0951376604
11
-1.4540810186
21
-5.0951376604
0
LINE
5
282
100
AcDbEntity
8
0
100
AcDbLine
62
7
6
CONTINUOUS
10
2.6259189814
20
-5.0951376604
11
3.8859189814
21
-5.0951376604
0
LINE
5
283
100
AcDbEntity
8
0
100
AcDbLine
62
9
6
CONTINUOUS
10
7.2454107988
20
-4.5084427844
11
4.4454108001
21
-4.5084427844
0
LINE
5
284
100
AcDbEntity
8
0
100
AcDbLine
62
9
6
CONTINUOUS
10
-3.2735728377
20
-4.5084427844
11
-6.0735728359
21
-4.5084427844
0
LINE
5
285
100
AcDbEntity
8
0
100
AcDbLine
62
7
6
CONTINUOUS
10
2.8859189814
20
-6.7951376604
11
2.8951750082
21
-6.8043936872
0
LINE
5
286
100
AcDbEntity
8
0
100
AcDbLine
62
7
6
CONTINUOUS
10
-5.5735248973
20
4.0143308616
11
-5.5734815806
21
4.0142629016
0
LINE
5
287
100
AcDbEntity
8
0
100
AcDbLine
62
9
6
CONTINUOUS
10
-9.9133569807
20
21.3035875616
11
-9.9135087413
21
21.3040432137
0
LINE
5
288
100
AcDbEntity
8
0
100
AcDbLine
62
7
6
CONTINUOUS
10
-3.8140810186
20
21.7048623396
11
-3.8111551804
21
21.6785060027
0
LINE
5
289
100
AcDbEntity
8
0
100
AcDbLine
62
7
6
CONTINUOUS
10
-0.6790810186
20
3.4548623396
11
-0.6790810186
21
-0.0451376604
0
LINE
5
28A
100
AcDbEntity
8
0
100
AcDbLine
62
7
6
CONTINUOUS
10
-0.6340810186
20
3.4548623396
11
-0.6340810186
21
-0.0451376604
0
LINE
5
28B
100
AcDbEntity
8
0
100
AcDbLine
62
7
6
CONTINUOUS
10
-0.1290810186
20
3.4548623396
11
-0.1290810186
21
-0.0451376604
0
LINE
5
28C
100
AcDbEntity
8
0
100
AcDbLine
62
7
6
CONTINUOUS
10
0.3209189814
20
3.4548623396
11
0.3209189814
21
-0.0451376604
0
LINE
5
28D
100
AcDbEntity
8
0
100
AcDbLine
62
7
6
CONTINUOUS
10
0.3859189814
20
3.4548623396
11
0.3859189814
21
-0.0451376604
0
LINE
5
28E
100
AcDbEntity
8
0
100
AcDbLine
62
7
6
CONTINUOUS
10
0.8709189814
20
3.4548623396
11
0.8709189814
21
-0.0451376604
0
LINE
5
28F
100
AcDbEntity
8
0
100
AcDbLine
62
7
6
CONTINUOUS
10
-2.7735080913
20
-5.6045914028
11
-2.7734630290
21
-5.6045196709
0
LINE
5
290
100
AcDbEntity
8
0
100
AcDbLine
62
7
6
CONTINUOUS
10
-2.7736229672
20
-4.0046923045
11
-2.7735918759
21
-4.0046485177
0
LINE
5
291
100
AcDbEntity
8
0
100
AcDbLine
62
7
6
CONTINUOUS
10
-5.5640810186
20
-3.9951376604
11
-5.5735918759
21
-4.0046485177
0
LINE
5
292
100
AcDbEntity
8
0
100
AcDbLine
62
9
6
CONTINUOUS
10
6.7454298388
20
-4.0046485177
11
3.9454298388
21
-4.0046485177
0
LINE
5
293
100
AcDbEntity
8
0
100
AcDbLine
62
9
6
CONTINUOUS
10
-2.7735918759
20
-4.0046485177
11
-5.5735918759
21
-4.0046485177
0
LINE
5
294
100
AcDbEntity
8
0
100
AcDbLine
62
7
6
CONTINUOUS
10
6.7359189814
20
-3.9951376604
11
3.9359189814
21
-3.9951376604
0
LINE
5
295
100
AcDbEntity
8
0
100
AcDbLine
62
7
6
CONTINUOUS
10
-2.7640810186
20
-3.9951376604
11
-5.5640810186
21
-3.9951376604
0
LINE
5
296
100
AcDbEntity
8
0
100
AcDbLine
62
7
6
CONTINUOUS
10
-2.7140810186
20
-3.9451376604
11
3.8859189814
21
-3.9451376604
0
LINE
5
297
100
AcDbEntity
8
0
100
AcDbLine
62
7
6
CONTINUOUS
10
-4.3890810186
20
-3.4951376604
11
-2.7140810186
21
-3.4951376604
0
LINE
5
298
100
AcDbEntity
8
0
100
AcDbLine
62
7
6
CONTINUOUS
10
3.8859189814
20
-3.4951376604
11
5.5609189814
21
-3.4951376604
0
LINE
5
299
100
AcDbEntity
8
0
100
AcDbLine
62
7
6
CONTINUOUS
10
2.8859189814
20
-5.5951376604
11
2.8953009919
21
-5.6045196709
0
LINE
5
29A
100
AcDbEntity
8
0
100
AcDbLine
62
7
6
CONTINUOUS
10
3.9359189814
20
-5.5951376604
11
3.9453009919
21
-5.6045196709
0
LINE
5
29B
100
AcDbEntity
8
0
100
AcDbLine
62
7
6
CONTINUOUS
10
-5.5640810186
20
4.0048623396
11
-5.5734815806
21
4.0142629016
0
LINE
5
29C
100
AcDbEntity
8
0
100
AcDbLine
62
7
6
CONTINUOUS
10
2.8953460536
20
-5.6045914016
11
2.8953009919
21
-5.6045196709
0
LINE
5
29D
100
AcDbEntity
8
0
100
AcDbLine
62
7
6
CONTINUOUS
10
2.8952305503
20
-6.8044897471
11
2.8951750082
21
-6.8043936872
0
LINE
5
29E
100
AcDbEntity
8
0
100
AcDbLine
62
7
6
CONTINUOUS
10
1.3209189814
20
3.4548623396
11
1.3209189814
21
-0.0451376604
0
LINE
5
29F
100
AcDbEntity
8
0
100
AcDbLine
62
7
6
CONTINUOUS
10
1.4059189814
20
3.4548623396
11
1.4059189814
21
-0.0451376604
0
LINE
5
2A0
100
AcDbEntity
8
0
100
AcDbLine
62
7
6
CONTINUOUS
10
1.8709189814
20
3.4548623396
11
1.8709189814
21
-0.0451376604
0
LINE
5
2A1
100
AcDbEntity
8
0
100
AcDbLine
62
7
6
CONTINUOUS
10
2.3209189814
20
3.4548623396
11
2.3209189814
21
-0.0451376604
0
LINE
5
2A2
100
AcDbEntity
8
0
100
AcDbLine
62
7
6
CONTINUOUS
10
2.4259189814
20
3.4548623396
11
2.4259189814
21
-0.0451376604
0
LINE
5
2A3
100
AcDbEntity
8
0
100
AcDbLine
62
7
6
CONTINUOUS
10
2.6259189814
20
-5.9951376604
11
2.6259189814
21
-5.0951376604
0
LINE
5
2A4
100
AcDbEntity
8
0
100
AcDbLine
62
7
6
CONTINUOUS
10
4.9859189814
20
21.7048623396
11
4.9829931432
21
21.6785060027
0
LINE
5
2A5
100
AcDbEntity
8
0
100
AcDbLine
62
7
6
CONTINUOUS
10
-1.7233925867
20
-6.8044897456
11
-1.7233370453
21
-6.8043936872
0
LINE
5
2A6
100
AcDbEntity
8
0
100
AcDbLine
62
7
6
CONTINUOUS
10
-1.7235080922
20
-5.6045914046
11
-1.7234630290
21
-5.6045196709
0
LINE
5
2A7
100
AcDbEntity
8
0
100
AcDbLine
62
7
6
CONTINUOUS
10
-2.7640810186
20
-3.9951376604
11
-2.7735918759
21
-4.0046485177
0
LINE
5
2A8
100
AcDbEntity
8
0
100
AcDbLine
62
7
6
CONTINUOUS
10
6.7359189814
20
4.0048623396
11
6.7453195434
21
4.0142629016
0
LINE
5
2A9
100
AcDbEntity
8
0
100
AcDbLine
62
7
6
CONTINUOUS
10
-2.7640810186
20
-5.5951376604
11
-2.7734630290
21
-5.6045196709
0
LINE
5
2AA
100
AcDbEntity
8
0
100
AcDbLine
62
7
6
CONTINUOUS
10
3.9359189814
20
-3.9951376604
11
3.9454298388
21
-4.0046485177
0
LINE
5
2AB
100
AcDbEntity
8
0
100
AcDbLine
62
7
6
CONTINUOUS
10
3.9454609278
20
-4.0046923005
11
3.9454298388
21
-4.0046485177
0
LINE
5
2AC
100
AcDbEntity
8
0
100
AcDbLine
62
7
6
CONTINUOUS
10
3.9453460551
20
-5.6045914046
11
3.9453009919
21
-5.6045196709
0
LINE
5
2AD
100
AcDbEntity
8
0
100
AcDbLine
62
7
6
CONTINUOUS
10
4.9859189814
20
-23.0951376604
11
4.9829931432
21
-23.0687813236
0
LINE
5
2AE
100
AcDbEntity
8
0
100
AcDbLine
62
7
6
CONTINUOUS
10
2.8709189814
20
3.4548623396
11
2.8709189814
21
-0.0451376604
0
LINE
5
2AF
100
AcDbEntity
8
0
100
AcDbLine
62
7
6
CONTINUOUS
10
2.8859189814
20
-5.5951376604
11
2.8859189814
21
-6.7951376604
0
LINE
5
2B0
100
AcDbEntity
8
0
100
AcDbLine
62
7
6
CONTINUOUS
10
3.3209189814
20
3.4548623396
11
3.3209189814
21
-0.0451376604
0
LINE
5
2B1
100
AcDbEntity
8
0
100
AcDbLine
62
7
6
CONTINUOUS
10
3.4459189814
20
3.4548623396
11
3.4459189814
21
-0.0451376604
0
LINE
5
2B2
100
AcDbEntity
8
0
100
AcDbLine
62
7
6
CONTINUOUS
10
3.8859189814
20
-5.0951376604
11
3.8859189814
21
-3.4951376604
0
LINE
5
2B3
100
AcDbEntity
8
0
100
AcDbLine
62
7
6
CONTINUOUS
10
3.9359189814
20
-3.9951376604
11
3.9359189814
21
-5.5951376604
0
LINE
5
2B4
100
AcDbEntity
8
0
100
AcDbLine
62
7
6
CONTINUOUS
10
3.9659189814
20
3.4548623396
11
3.9659189814
21
-0.0451376604
0
LINE
5
2B5
100
AcDbEntity
8
0
100
AcDbLine
62
7
6
CONTINUOUS
10
4.4659189814
20
3.4548623396
11
4.4659189814
21
-0.0451376604
0
LINE
5
2B6
100
AcDbEntity
8
0
100
AcDbLine
62
9
6
CONTINUOUS
10
4.4830016048
20
-24.2904800119
11
4.4830016048
21
-23.0427298811
0
LINE
5
2B7
100
AcDbEntity
8
0
100
AcDbLine
62
9
6
CONTINUOUS
10
4.4830016048
20
21.6524545603
11
4.4830016048
21
22.9002046910
0
LINE
5
2B8
100
AcDbEntity
8
0
100
AcDbLine
62
9
6
CONTINUOUS
10
3.3952819528
20
-6.1099154101
11
3.3951559671
21
-7.3109905016
0
LINE
5
2B9
100
AcDbEntity
8
0
100
AcDbLine
62
9
6
CONTINUOUS
10
4.4454108001
20
-4.5084427844
11
4.4452819520
21
-6.1099154101
0
LINE
5
2BA
100
AcDbEntity
8
0
100
AcDbLine
62
7
6
CONTINUOUS
10
6.7453628602
20
4.0143308616
11
6.7453195434
21
4.0142629016
0
LINE
5
2BB
100
AcDbEntity
8
0
100
AcDbLine
62
7
6
CONTINUOUS
10
-1.7140810186
20
-5.5951376604
11
-1.7234630290
21
-5.6045196709
0
LINE
5
2BC
100
AcDbEntity
8
0
100
AcDbLine
62
7
6
CONTINUOUS
10
-1.7140810186
20
-6.7951376604
11
-1.7233370453
21
-6.8043936872
0
LINE
5
2BD
100
AcDbEntity
8
0
100
AcDbLine
62
7
6
CONTINUOUS
10
-5.1140810186
20
-0.1451376604
11
-4.3890810186
21
-0.1451376604
0
LINE
5
2BE
100
AcDbEntity
8
0
100
AcDbLine
62
7
6
CONTINUOUS
10
5.5609189814
20
-0.1451376604
11
6.2859189814
21
-0.1451376604
0
LINE
5
2BF
100
AcDbEntity
8
0
100
AcDbLine
62
7
6
CONTINUOUS
10
-4.1940810186
20
-0.0451376604
11
-3.6940810186
21
-0.0451376604
0
LINE
5
2C0
100
AcDbEntity
8
0
100
AcDbLine
62
7
6
CONTINUOUS
10
-3.1740810186
20
-0.0451376604
11
-2.6740810186
21
-0.0451376604
0
LINE
5
2C1
100
AcDbEntity
8
0
100
AcDbLine
62
7
6
CONTINUOUS
10
-2.1540810186
20
-0.0451376604
11
-1.6540810186
21
-0.0451376604
0
LINE
5
2C2
100
AcDbEntity
8
0
100
AcDbLine
62
7
6
CONTINUOUS
10
-1.1340810186
20
-0.0451376604
11
-0.6340810186
21
-0.0451376604
0
LINE
5
2C3
100
AcDbEntity
8
0
100
AcDbLine
62
7
6
CONTINUOUS
10
-0.1290810186
20
-0.0451376604
11
0.3859189814
21
-0.0451376604
0
LINE
5
2C4
100
AcDbEntity
8
0
100
AcDbLine
62
7
6
CONTINUOUS
10
0.8709189814
20
-0.0451376604
11
1.4059189814
21
-0.0451376604
0
LINE
5
2C5
100
AcDbEntity
8
0
100
AcDbLine
62
7
6
CONTINUOUS
10
1.8709189814
20
-0.0451376604
11
2.4259189814
21
-0.0451376604
0
LINE
5
2C6
100
AcDbEntity
8
0
100
AcDbLine
62
7
6
CONTINUOUS
10
2.8709189814
20
-0.0451376604
11
3.4459189814
21
-0.0451376604
0
LINE
5
2C7
100
AcDbEntity
8
0
100
AcDbLine
62
7
6
CONTINUOUS
10
3.9659189814
20
-0.0451376604
11
4.4659189814
21
-0.0451376604
0
LINE
5
2C8
100
AcDbEntity
8
0
100
AcDbLine
62
7
6
CONTINUOUS
10
4.9859189814
20
-0.0451376604
11
5.4859189814
21
-0.0451376604
0
LINE
5
2C9
100
AcDbEntity
8
0
100
AcDbLine
62
7
6
CONTINUOUS
10
6.7359189814
20
-3.9951376604
11
6.7454298388
21
-4.0046485177
0
LINE
5
2CA
100
AcDbEntity
8
0
100
AcDbLine
62
7
6
CONTINUOUS
10
6.7454609290
20
-4.0046923027
11
6.7454298388
21
-4.0046485177
0
LINE
5
2CB
100
AcDbEntity
8
0
100
AcDbLine
62
9
6
CONTINUOUS
10
4.9829931432
20
-24.4922118222
11
4.9829931432
21
-23.0687813236
0
LINE
5
2CC
100
AcDbEntity
8
0
100
AcDbLine
62
9
6
CONTINUOUS
10
4.9829931432
20
21.6785060027
11
4.9829931432
21
23.1019365014
0
LINE
5
2CD
100
AcDbEntity
8
0
100
AcDbLine
62
7
6
CONTINUOUS
10
4.9859189814
20
23.1048623396
11
4.9859189814
21
21.7048623396
0
LINE
5
2CE
100
AcDbEntity
8
0
100
AcDbLine
62
7
6
CONTINUOUS
10
4.9859189814
20
3.4548623396
11
4.9859189814
21
-0.0451376604
0
LINE
5
2CF
100
AcDbEntity
8
0
100
AcDbLine
62
7
6
CONTINUOUS
10
4.9859189814
20
-23.0951376604
11
4.9859189814
21
-24.4951376604
0
LINE
5
2D0
100
AcDbEntity
8
0
100
AcDbLine
62
7
6
CONTINUOUS
10
5.4859189814
20
3.4548623396
11
5.4859189814
21
-0.0451376604
0
LINE
5
2D1
100
AcDbEntity
8
0
100
AcDbLine
62
7
6
CONTINUOUS
10
5.5609189814
20
-3.4951376604
11
5.5609189814
21
-0.1451376604
0
LINE
5
2D2
100
AcDbEntity
8
0
100
AcDbLine
62
7
6
CONTINUOUS
10
5.5609189814
20
1.5548623396
11
5.5609189814
21
3.4548623396
0
LINE
5
2D3
100
AcDbEntity
8
0
100
AcDbLine
62
7
6
CONTINUOUS
10
6.2859189814
20
-0.1451376604
11
6.2859189814
21
1.5548623396
0
LINE
5
2D4
100
AcDbEntity
8
0
100
AcDbLine
62
7
6
CONTINUOUS
10
6.2859189814
20
1.5548623396
11
5.5609189814
21
1.5548623396
0
LINE
5
2D5
100
AcDbEntity
8
0
100
AcDbLine
62
7
6
CONTINUOUS
10
-4.3890810186
20
1.5548623396
11
-5.1140810186
21
1.5548623396
0
LINE
5
2D6
100
AcDbEntity
8
0
100
AcDbLine
62
9
6
CONTINUOUS
10
-2.1290810186
20
3.0318623261
11
-1.6790810186
21
3.0318623261
0
LINE
5
2D7
100
AcDbEntity
8
0
100
AcDbLine
62
9
6
CONTINUOUS
10
-1.1290810186
20
3.0318623261
11
-0.6790810186
21
3.0318623261
0
LINE
5
2D8
100
AcDbEntity
8
0
100
AcDbLine
62
9
6
CONTINUOUS
10
-0.1290810186
20
3.0318623261
11
0.3209189814
21
3.0318623261
0
LINE
5
2D9
100
AcDbEntity
8
0
100
AcDbLine
62
9
6
CONTINUOUS
10
0.8709189814
20
3.0318623261
11
1.3209189814
21
3.0318623261
0
LINE
5
2DA
100
AcDbEntity
8
0
100
AcDbLine
62
9
6
CONTINUOUS
10
1.8709189814
20
3.0318623261
11
2.3209189814
21
3.0318623261
0
LINE
5
2DB
100
AcDbEntity
8
0
100
AcDbLine
62
9
6
CONTINUOUS
10
2.8709189814
20
3.0318623261
11
3.3209189814
21
3.0318623261
0
LINE
5
2DC
100
AcDbEntity
8
0
100
AcDbLine
62
7
6
CONTINUOUS
10
6.7359189814
20
4.0048623396
11
6.7359189814
21
-3.9951376604
0
LINE
5
2DD
100
AcDbEntity
8
0
100
AcDbLine
62
9
6
CONTINUOUS
10
7.2453005039
20
4.5194584592
11
7.2454107988
21
-4.5084427844
0
LINE
5
2DE
100
AcDbEntity
8
0
100
AcDbLine
62
7
6
CONTINUOUS
10
5.5609189814
20
3.4548623396
11
-4.3890810186
21
3.4548623396
0
LINE
5
2DF
100
AcDbEntity
8
0
100
AcDbLine
62
7
6
CONTINUOUS
10
-5.5640810186
20
4.0048623396
11
6.7359189814
21
4.0048623396
0
LINE
5
2E0
100
AcDbEntity
8
0
100
AcDbLine
62
9
6
CONTINUOUS
10
-5.5734815806
20
4.0142629016
11
6.7453195434
21
4.0142629016
0
LINE
5
2E1
100
AcDbEntity
8
0
100
AcDbLine
62
9
6
CONTINUOUS
10
-6.0734625410
20
4.5194584592
11
7.2453005039
21
4.5194584592
0
LINE
5
2E2
100
AcDbEntity
8
0
100
AcDbLine
62
9
6
CONTINUOUS
10
8.8490175602
20
-24.5394752277
11
8.8431997303
21
-23.9621249585
0
LINE
5
2E3
100
AcDbEntity
8
0
100
AcDbLine
62
9
6
CONTINUOUS
10
9.0990133294
20
-24.3229688768
11
9.0939227283
21
-23.8177873912
0
LINE
5
2E4
100
AcDbEntity
8
0
100
AcDbLine
62
7
6
CONTINUOUS
10
8.8359189814
20
-23.0951376604
11
8.8359189814
21
-24.9451418912
0
LINE
5
2E5
100
AcDbEntity
8
0
100
AcDbLine
62
7
6
CONTINUOUS
10
8.8359189814
20
21.7048623396
11
8.8359189814
21
23.5548665704
0
LINE
5
2E6
100
AcDbEntity
8
0
100
AcDbLine
62
9
6
CONTINUOUS
10
8.8431997303
20
-23.9621249585
11
8.8431997303
21
-23.0295517127
0
LINE
5
2E7
100
AcDbEntity
8
0
100
AcDbLine
62
9
6
CONTINUOUS
10
8.8431997303
20
21.6392763919
11
8.8431997303
21
22.5718496377
0
LINE
5
2E8
100
AcDbEntity
8
0
100
AcDbLine
62
9
6
CONTINUOUS
10
8.8490175602
20
23.5417679916
11
8.8490175602
21
23.1491999069
0
LINE
5
2E9
100
AcDbEntity
8
0
100
AcDbLine
62
9
6
CONTINUOUS
10
8.8490175602
20
-24.5394752277
11
8.8490175602
21
-24.9320433125
0
LINE
5
2EA
100
AcDbEntity
8
0
100
AcDbLine
62
9
6
CONTINUOUS
10
9.0931954996
20
-23.8177873912
11
9.0931954996
21
-23.0165259915
0
LINE
5
2EB
100
AcDbEntity
8
0
100
AcDbLine
62
9
6
CONTINUOUS
10
9.0931954996
20
21.6262506707
11
9.0931954996
21
22.4275120704
0
LINE
5
2EC
100
AcDbEntity
8
0
100
AcDbLine
62
9
6
CONTINUOUS
10
9.0990133294
20
-24.3229688768
11
9.0990133294
21
-25.1820390817
0
LINE
5
2ED
100
AcDbEntity
8
0
100
AcDbLine
62
9
6
CONTINUOUS
10
9.0990133294
20
22.9326935559
11
9.0990133294
21
23.7917637609
0
LINE
5
2EE
100
AcDbEntity
8
0
100
AcDbLine
62
9
6
CONTINUOUS
10
8.8431997303
20
22.5718496377
11
8.8490175602
21
23.1491999069
0
LINE
5
2EF
100
AcDbEntity
8
0
100
AcDbLine
62
9
6
CONTINUOUS
10
9.0939227283
20
22.4275120704
11
9.0990133294
21
22.9326935559
0
LINE
5
2F0
100
AcDbEntity
8
0
100
AcDbLine
62
7
6
CONTINUOUS
10
11.2359189814
20
21.7048623396
11
11.2286382325
21
21.6392763919
0
LINE
5
2F1
100
AcDbEntity
8
0
100
AcDbLine
62
7
6
CONTINUOUS
10
11.2359189814
20
-23.0951376604
11
11.2286382325
21
-23.0295517127
0
LINE
5
2F2
100
AcDbEntity
8
0
100
AcDbLine
62
9
6
CONTINUOUS
10
10.9728246335
20
22.9326935559
11
10.9779152346
21
22.4275120704
0
LINE
5
2F3
100
AcDbEntity
8
0
100
AcDbLine
62
9
6
CONTINUOUS
10
11.2228204027
20
23.1491999069
11
11.2286382325
21
22.5718496377
0
LINE
5
2F4
100
AcDbEntity
8
0
100
AcDbLine
62
9
6
CONTINUOUS
10
10.9728246335
20
-24.3229688768
11
10.9728246335
21
-25.1820390817
0
LINE
5
2F5
100
AcDbEntity
8
0
100
AcDbLine
62
9
6
CONTINUOUS
10
10.9728246335
20
22.9326935559
11
10.9728246335
21
23.7917637609
0
LINE
5
2F6
100
AcDbEntity
8
0
100
AcDbLine
62
9
6
CONTINUOUS
10
10.9786424633
20
22.4275120704
11
10.9786424633
21
21.6262506707
0
LINE
5
2F7
100
AcDbEntity
8
0
100
AcDbLine
62
9
6
CONTINUOUS
10
10.9786424633
20
-23.0165259915
11
10.9786424633
21
-23.8177873912
0
LINE
5
2F8
100
AcDbEntity
8
0
100
AcDbLine
62
9
6
CONTINUOUS
10
11.2228204027
20
-24.9320433125
11
11.2228204027
21
-24.5394752277
0
LINE
5
2F9
100
AcDbEntity
8
0
100
AcDbLine
62
9
6
CONTINUOUS
10
11.2228204027
20
23.1491999069
11
11.2228204027
21
23.5417679916
0
LINE
5
2FA
100
AcDbEntity
8
0
100
AcDbLine
62
9
6
CONTINUOUS
10
11.2286382325
20
22.5718496377
11
11.2286382325
21
21.6392763919
0
LINE
5
2FB
100
AcDbEntity
8
0
100
AcDbLine
62
9
6
CONTINUOUS
10
11.2286382325
20
-23.0295517127
11
11.2286382325
21
-23.9621249585
0
LINE
5
2FC
100
AcDbEntity
8
0
100
AcDbLine
62
7
6
CONTINUOUS
10
11.2359189814
20
-23.0951376604
11
11.2359189814
21
-24.9451418912
0
LINE
5
2FD
100
AcDbEntity
8
0
100
AcDbLine
62
7
6
CONTINUOUS
10
11.2359189814
20
21.7048623396
11
11.2359189814
21
23.5548665704
0
LINE
5
2FE
100
AcDbEntity
8
0
100
AcDbLine
62
7
6
CONTINUOUS
10
11.7359189814
20
21.2460497993
11
11.7359189814
21
-22.6363251202
0
LINE
5
2FF
100
AcDbEntity
8
0
100
AcDbLine
62
9
6
CONTINUOUS
10
10.9779152346
20
-23.8177873912
11
10.9728246335
21
-24.3229688768
0
LINE
5
300
100
AcDbEntity
8
0
100
AcDbLine
62
9
6
CONTINUOUS
10
11.2286382325
20
-23.9621249585
11
11.2228204027
21
-24.5394752277
0
LINE
5
301
100
AcDbEntity
8
0
100
AcDbLine
62
7
6
CONTINUOUS
10
8.8359189814
20
-23.0951376604
11
8.8431997303
21
-23.0295517127
0
LINE
5
302
100
AcDbEntity
8
0
100
AcDbLine
62
9
6
CONTINUOUS
10
-10.0640810186
20
-24.9451418912
11
-10.0509824398
21
-24.9320433125
0
LINE
5
303
100
AcDbEntity
8
0
100
AcDbLine
62
9
6
CONTINUOUS
10
-9.8140852494
20
-25.1951376604
11
-9.8009866706
21
-25.1820390817
0
LINE
5
304
100
AcDbEntity
8
0
100
AcDbLine
62
9
6
CONTINUOUS
10
-10.0640810186
20
23.5548665704
11
-10.0509824398
21
23.5417679916
0
LINE
5
305
100
AcDbEntity
8
0
100
AcDbLine
62
9
6
CONTINUOUS
10
-9.8140852494
20
23.8048623396
11
-9.8009866706
21
23.7917637609
0
LINE
5
306
100
AcDbEntity
8
0
100
AcDbLine
62
7
6
CONTINUOUS
10
8.8359189814
20
21.7048623396
11
8.8431997303
21
21.6392763919
0
LINE
5
307
100
AcDbEntity
8
0
100
AcDbLine
62
7
6
CONTINUOUS
10
-3.8111551804
20
-24.4922118222
11
-3.8140810186
21
-24.4951376604
0
LINE
5
308
100
AcDbEntity
8
0
100
AcDbLine
62
7
6
CONTINUOUS
10
-3.8111551804
20
23.1019365014
11
-3.8140810186
21
23.1048623396
0
LINE
5
309
100
AcDbEntity
8
0
100
AcDbLine
62
9
6
CONTINUOUS
10
-9.8968302101
20
19.8673306644
11
11.0686681730
21
19.8673306644
0
LINE
5
30A
100
AcDbEntity
8
0
100
AcDbLine
62
9
6
CONTINUOUS
10
8.8359189814
20
-24.9451418912
11
8.8490175602
21
-24.9320433125
0
LINE
5
30B
100
AcDbEntity
8
0
100
AcDbLine
62
9
6
CONTINUOUS
10
9.0859147506
20
-25.1951376604
11
9.0990133294
21
-25.1820390817
0
LINE
5
30C
100
AcDbEntity
8
0
100
AcDbLine
62
9
6
CONTINUOUS
10
-9.9133569807
20
21.3035875616
11
11.0851949436
21
21.3035875616
0
LINE
5
30D
100
AcDbEntity
8
0
100
AcDbLine
62
7
6
CONTINUOUS
10
-9.8068045004
20
21.6262506707
11
-7.9213575367
21
21.6262506707
0
LINE
5
30E
100
AcDbEntity
8
0
100
AcDbLine
62
7
6
CONTINUOUS
10
9.0931954996
20
21.6262506707
11
10.9786424633
21
21.6262506707
0
LINE
5
30F
100
AcDbEntity
8
0
100
AcDbLine
62
7
6
CONTINUOUS
10
4.4830016048
20
21.6524545603
11
-3.3111636419
21
21.6524545603
0
LINE
5
310
100
AcDbEntity
8
0
100
AcDbLine
62
7
6
CONTINUOUS
10
11.2683268239
20
21.7048623396
11
11.2359189814
21
21.7048623396
0
LINE
5
311
100
AcDbEntity
8
0
100
AcDbLine
62
7
6
CONTINUOUS
10
8.8359189814
20
21.7048623396
11
4.9859189814
21
21.7048623396
0
LINE
5
312
100
AcDbEntity
8
0
100
AcDbLine
62
7
6
CONTINUOUS
10
-3.8140810186
20
21.7048623396
11
-7.6640810186
21
21.7048623396
0
LINE
5
313
100
AcDbEntity
8
0
100
AcDbLine
62
7
6
CONTINUOUS
10
-10.0640810186
20
21.7048623396
11
-10.0964888610
21
21.7048623396
0
LINE
5
314
100
AcDbEntity
8
0
100
AcDbLine
62
9
6
CONTINUOUS
10
8.8359189814
20
23.5548665704
11
8.8490175602
21
23.5417679916
0
LINE
5
315
100
AcDbEntity
8
0
100
AcDbLine
62
9
6
CONTINUOUS
10
9.0859147506
20
23.8048623396
11
9.0990133294
21
23.7917637609
0
LINE
5
316
100
AcDbEntity
8
0
100
AcDbLine
62
9
6
CONTINUOUS
10
11.7184970319
20
-22.6450354315
11
11.7359189814
21
-22.6363251202
0
LINE
5
317
100
AcDbEntity
8
0
100
AcDbLine
62
7
6
CONTINUOUS
10
11.4695859435
20
-23.0476405309
11
11.4870842834
21
-23.0388920273
0
LINE
5
318
100
AcDbEntity
8
0
100
AcDbLine
62
7
6
CONTINUOUS
10
-9.8068045004
20
22.4275120704
11
-7.9213575367
21
22.4275120704
0
LINE
5
319
100
AcDbEntity
8
0
100
AcDbLine
62
7
6
CONTINUOUS
10
9.0931954996
20
22.4275120704
11
10.9786424633
21
22.4275120704
0
LINE
5
31A
100
AcDbEntity
8
0
100
AcDbLine
62
9
6
CONTINUOUS
10
4.4830016048
20
22.9002046910
11
-3.3111636419
21
22.9002046910
0
LINE
5
31B
100
AcDbEntity
8
0
100
AcDbLine
62
9
6
CONTINUOUS
10
-9.8009866706
20
22.9326935559
11
-7.9271753665
21
22.9326935559
0
LINE
5
31C
100
AcDbEntity
8
0
100
AcDbLine
62
9
6
CONTINUOUS
10
9.0990133294
20
22.9326935559
11
10.9728246335
21
22.9326935559
0
LINE
5
31D
100
AcDbEntity
8
0
100
AcDbLine
62
9
6
CONTINUOUS
10
4.8821262951
20
23.1002013064
11
-3.7102883322
21
23.1002013064
0
LINE
5
31E
100
AcDbEntity
8
0
100
AcDbLine
62
7
6
CONTINUOUS
10
-3.8140810186
20
23.1048623396
11
4.9859189814
21
23.1048623396
0
LINE
5
31F
100
AcDbEntity
8
0
100
AcDbLine
62
9
6
CONTINUOUS
10
-7.6771795973
20
23.1491999069
11
-10.0509824398
21
23.1491999069
0
LINE
5
320
100
AcDbEntity
8
0
100
AcDbLine
62
9
6
CONTINUOUS
10
8.8490175602
20
23.1491999069
11
11.2228204027
21
23.1491999069
0
LINE
5
321
100
AcDbEntity
8
0
100
AcDbLine
62
9
6
CONTINUOUS
10
-7.6771795973
20
23.5417679916
11
-10.0509824398
21
23.5417679916
0
LINE
5
322
100
AcDbEntity
8
0
100
AcDbLine
62
9
6
CONTINUOUS
10
8.8490175602
20
23.5417679916
11
11.2228204027
21
23.5417679916
0
LINE
5
323
100
AcDbEntity
8
0
100
AcDbLine
62
9
6
CONTINUOUS
10
10.9728246335
20
23.7917637609
11
9.0990133294
21
23.7917637609
0
LINE
5
324
100
AcDbEntity
8
0
100
AcDbLine
62
9
6
CONTINUOUS
10
-7.9271753665
20
23.7917637609
11
-9.8009866706
21
23.7917637609
0
LINE
5
325
100
AcDbEntity
8
0
100
AcDbLine
62
7
6
CONTINUOUS
10
-9.8140852494
20
23.8048623396
11
-7.9140767878
21
23.8048623396
0
LINE
5
326
100
AcDbEntity
8
0
100
AcDbLine
62
7
6
CONTINUOUS
10
9.0859147506
20
23.8048623396
11
10.9859232122
21
23.8048623396
0
LINE
5
327
100
AcDbEntity
8
0
100
AcDbLine
62
9
6
CONTINUOUS
10
11.7359189814
20
21.2460497993
11
11.7184968911
21
21.2547601811
0
LINE
5
328
100
AcDbEntity
8
0
100
AcDbLine
62
7
6
CONTINUOUS
10
11.4870842834
20
21.6486167064
11
11.4695858400
21
21.6573652618
0
SPLINE
5
329
100
AcDbEntity
8
0
100
AcDbSpline
62
7
6
CONTINUOUS
70
0
71
3
72
11
73
7
74
5
42
0.0000001000
43
0.0000001000
44
0.0000000001
12
-0.1866259954
22
0.0933111920
32
0.0000000000
13
-0.2084756136
23
0.0000000003
33
0.0000000000
40
0.0000000000
40
0.0000000000
40
0.0000000000
40
0.0000000000
40
0.0747601706
40
0.3827092822
40
0.6907316443
40
1.0000000000
40
1.0000000000
40
1.0000000000
40
1.0000000000
10
11.4695865449
20
21.6573647242
30
0.0000000000
10
11.4649358144
20
21.6596900445
30
0.0000000000
10
11.4409216282
20
21.6711811889
30
0.0000000000
10
11.3958022005
20
21.6880381348
30
0.0000000000
10
11.3327793354
20
21.7017884150
30
0.0000000000
10
11.2898184606
20
21.7048623395
30
0.0000000000
10
11.2683268239
20
21.7048623396
30
0.0000000000
11
11.4695865449
21
21.6573647242
31
0.0000000000
11
11.4555161526
21
21.6640974158
31
0.0000000000
11
11.3953768385
21
21.6865671174
31
0.0000000000
11
11.3326366243
21
21.7002510912
31
0.0000000000
11
11.2683268239
21
21.7048623396
31
0.0000000000
0
SPLINE
5
32A
100
AcDbEntity
8
0
100
AcDbSpline
62
7
6
CONTINUOUS
70
0
71
3
72
15
73
11
74
9
42
0.0000001000
43
0.0000001000
44
0.0000000001
12
0.4457073323
22
-0.2228573874
32
0.0000000000
13
0.0000000000
23
-0.4978982073
33
0.0000000000
40
0.0000000000
40
0.0000000000
40
0.0000000000
40
0.0000000000
40
0.0964765027
40
0.2256966879
40
0.3556448788
40
0.4848709142
40
0.6130127965
40
0.7422716168
40
0.8717870463
40
1.0000000000
40
1.0000000000
40
1.0000000000
40
1.0000000000
10
11.4870914027
20
21.6486129503
30
0.0000000000
10
11.5014248309
20
21.6414461165
30
0.0000000000
10
11.5340606769
20
21.6228899236
30
0.0000000000
10
11.5814974027
20
21.5874274884
30
0.0000000000
10
11.6272351864
20
21.5416894542
30
0.0000000000
10
11.6658548777
20
21.4900276823
30
0.0000000000
10
11.6966910819
20
21.4335114653
30
0.0000000000
10
11.7192070400
20
21.3731358470
30
0.0000000000
10
11.7328746600
20
21.3101646955
30
0.0000000000
10
11.7359189814
20
21.2673287993
30
0.0000000000
10
11.7359189814
20
21.2460497993
30
0.0000000000
11
11.4870914027
21
21.6486129503
31
0.0000000000
11
11.5288632881
21
21.6248605041
31
0.0000000000
11
11.5803938538
21
21.5863372227
31
0.0000000000
11
11.6261441689
21
21.5405865468
31
0.0000000000
11
11.6646682606
21
21.4890529502
31
0.0000000000
11
11.6952263895
21
21.4330453915
31
0.0000000000
11
11.7177151517
21
21.3727446981
31
0.0000000000
11
11.7313907809
21
21.3097259954
31
0.0000000000
11
11.7359189814
21
21.2460497993
31
0.0000000000
0
SPLINE
5
32B
100
AcDbEntity
8
0
100
AcDbSpline
62
7
6
CONTINUOUS
70
0
71
3
72
11
73
7
74
5
42
0.0000001000
43
0.0000001000
44
0.0000000001
12
-0.1866260954
22
-0.0933112425
32
0.0000000000
13
-0.2084757254
23
-0.0000000001
33
0.0000000000
40
0.0000000000
40
0.0000000000
40
0.0000000000
40
0.0000000000
40
0.0747600286
40
0.3827091501
40
0.6907315570
40
1.0000000000
40
1.0000000000
40
1.0000000000
40
1.0000000000
10
11.4695866488
20
-23.0476399931
30
0.0000000000
10
11.4649359247
20
-23.0499653101
30
0.0000000000
10
11.4409217344
20
-23.0614564578
30
0.0000000000
10
11.3958022902
20
-23.0783134162
30
0.0000000000
10
11.3327793843
20
-23.0920637135
30
0.0000000000
10
11.2898184782
20
-23.0951376604
30
0.0000000000
10
11.2683268239
20
-23.0951376604
30
0.0000000000
11
11.4695866488
21
-23.0476399931
31
0.0000000000
11
11.4555162760
21
-23.0543726761
31
0.0000000000
11
11.3953769302
21
-23.0768423972
31
0.0000000000
11
11.3326366758
21
-23.0905263918
31
0.0000000000
11
11.2683268239
21
-23.0951376604
31
0.0000000000
0
SPLINE
5
32C
100
AcDbEntity
8
0
100
AcDbSpline
62
7
6
CONTINUOUS
70
0
71
3
72
11
73
7
74
5
42
0.0000001000
43
0.0000001000
44
0.0000000001
12
0.1866268865
22
-0.0933116412
32
0.0000000000
13
0.2084766108
23
-0.0000001645
33
0.0000000000
40
0.0000000000
40
0.0000000000
40
0.0000000000
40
0.0000000000
40
0.0747585204
40
0.3827078459
40
0.6907307298
40
1.0000000000
40
1.0000000000
40
1.0000000000
40
1.0000000000
10
-10.2977495087
20
-23.0476395814
30
0.0000000000
10
-10.2930988588
20
-23.0499648615
30
0.0000000000
10
-10.2690846534
20
-23.0614560291
30
0.0000000000
10
-10.2239650902
20
-23.0783130893
30
0.0000000000
10
-10.1609418360
20
-23.0920635434
30
0.0000000000
10
-10.1179806641
20
-23.0951376435
30
0.0000000000
10
-10.0964888610
20
-23.0951376604
30
0.0000000000
11
-10.2977495087
21
-23.0476395814
31
0.0000000000
11
-10.2836793629
21
-23.0543721633
31
0.0000000000
11
-10.2235397457
21
-23.0768420585
31
0.0000000000
11
-10.1607991487
21
-23.0905262290
31
0.0000000000
11
-10.0964888610
21
-23.0951376604
31
0.0000000000
0
SPLINE
5
32D
100
AcDbEntity
8
0
100
AcDbSpline
62
7
6
CONTINUOUS
70
0
71
3
72
15
73
11
74
9
42
0.0000001000
43
0.0000001000
44
0.0000000001
12
-0.4457630340
22
0.2228419816
32
0.0000000000
13
0.0000000000
23
0.4979340247
33
0.0000000000
40
0.0000000000
40
0.0000000000
40
0.0000000000
40
0.0000000000
40
0.0973271354
40
0.2260972216
40
0.3552949958
40
0.4840559134
40
0.6132095317
40
0.7420195137
40
0.8710792965
40
1.0000000000
40
1.0000000000
40
1.0000000000
40
1.0000000000
10
-10.3152213600
20
-23.0389042684
30
0.0000000000
10
-10.3296829731
20
-23.0316747445
30
0.0000000000
10
-10.3623733004
20
-23.0130705136
30
0.0000000000
10
-10.4097430084
20
-22.9776116862
30
0.0000000000
10
-10.4552874993
20
-22.9320695353
30
0.0000000000
10
-10.4939242871
20
-22.8804596844
30
0.0000000000
10
-10.5247939979
20
-22.8239330324
30
0.0000000000
10
-10.5473203655
20
-22.7635393515
30
0.0000000000
10
-10.5610162682
20
-22.7006050040
30
0.0000000000
10
-10.5640810186
20
-22.6577231218
30
0.0000000000
10
-10.5640810186
20
-22.6363251202
30
0.0000000000
11
-10.3152213600
21
-23.0389042684
31
0.0000000000
11
-10.3573553530
21
-23.0149238845
31
0.0000000000
11
-10.4086860449
21
-22.9764998404
31
0.0000000000
11
-10.4541767306
21
-22.9310113850
31
0.0000000000
11
-10.4926004608
21
-22.8796861610
31
0.0000000000
11
-10.5234234588
21
-22.8232440096
31
0.0000000000
11
-10.5458391332
21
-22.7631496460
31
0.0000000000
11
-10.5595020296
21
-22.7003556060
31
0.0000000000
11
-10.5640810186
21
-22.6363251202
31
0.0000000000
0
SPLINE
5
32E
100
AcDbEntity
8
0
100
AcDbSpline
62
7
6
CONTINUOUS
70
0
71
3
72
11
73
7
74
5
42
0.0000001000
43
0.0000001000
44
0.0000000001
12
0.1866265666
22
0.0933114806
32
0.0000000000
13
0.2084762528
23
-0.0000000204
33
0.0000000000
40
0.0000000000
40
0.0000000000
40
0.0000000000
40
0.0000000000
40
0.0747594302
40
0.3827085325
40
0.6907311312
40
1.0000000000
40
1.0000000000
40
1.0000000000
40
1.0000000000
10
-10.2977491765
20
21.6573644267
30
0.0000000000
10
-10.2930984779
20
21.6596897311
30
0.0000000000
10
-10.2690842677
20
21.6711808938
30
0.0000000000
10
-10.2239647460
20
21.6880379097
30
0.0000000000
10
-10.1609416524
20
21.7017882838
30
0.0000000000
10
-10.1179805993
20
21.7048623417
30
0.0000000000
10
-10.0964888610
20
21.7048623396
30
0.0000000000
11
-10.2977491765
21
21.6573644267
31
0.0000000000
11
-10.2836788819
21
21.6640970755
31
0.0000000000
11
-10.2235393990
21
21.6865668823
31
0.0000000000
11
-10.1607989585
21
21.7002509737
31
0.0000000000
11
-10.0964888610
21
21.7048623396
31
0.0000000000
0
SPLINE
5
32F
100
AcDbEntity
8
0
100
AcDbSpline
62
7
6
CONTINUOUS
70
0
71
3
72
15
73
11
74
9
42
0.0000001000
43
0.0000001000
44
0.0000000001
12
0.0000000000
22
-0.4978982073
32
0.0000000000
13
-0.4457073323
23
-0.2228573874
33
0.0000000000
40
0.0000000000
40
0.0000000000
40
0.0000000000
40
0.0000000000
40
0.1282129537
40
0.2577283832
40
0.3869872035
40
0.5151290858
40
0.6443551212
40
0.7743033121
40
0.9035234973
40
1.0000000000
40
1.0000000000
40
1.0000000000
40
1.0000000000
10
11.7359189814
20
-22.6363251202
30
0.0000000000
10
11.7359189814
20
-22.6576041201
30
0.0000000000
10
11.7328746600
20
-22.7004400163
30
0.0000000000
10
11.7192070400
20
-22.7634111679
30
0.0000000000
10
11.6966910819
20
-22.8237867862
30
0.0000000000
10
11.6658548777
20
-22.8803030031
30
0.0000000000
10
11.6272351864
20
-22.9319647750
30
0.0000000000
10
11.5814974027
20
-22.9777028093
30
0.0000000000
10
11.5340606769
20
-23.0131652444
30
0.0000000000
10
11.5014248309
20
-23.0317214373
30
0.0000000000
10
11.4870914027
20
-23.0388882711
30
0.0000000000
11
11.7359189814
21
-22.6363251202
31
0.0000000000
11
11.7313907809
21
-22.7000013162
31
0.0000000000
11
11.7177151517
21
-22.7630200190
31
0.0000000000
11
11.6952263895
21
-22.8233207123
31
0.0000000000
11
11.6646682606
21
-22.8793282711
31
0.0000000000
11
11.6261441689
21
-22.9308618677
31
0.0000000000
11
11.5803938538
21
-22.9766125436
31
0.0000000000
11
11.5288632881
21
-23.0151358249
31
0.0000000000
11
11.4870914027
21
-23.0388882711
31
0.0000000000
0
SPLINE
5
330
100
AcDbEntity
8
0
100
AcDbSpline
62
7
6
CONTINUOUS
70
0
71
3
72
18
73
14
74
12
42
0.0000001000
43
0.0000001000
44
0.0000000001
12
0.0000000000
22
-0.3923594660
32
0.0000000000
13
0.3923594660
23
0.0000000000
33
0.0000000000
40
0.0000000000
40
0.0000000000
40
0.0000000000
40
0.0000000000
40
0.0909090103
40
0.1818180598
40
0.2727271497
40
0.3636362742
40
0.4545454220
40
0.5454545780
40
0.6363637258
40
0.7272728503
40
0.8181819402
40
0.9090909897
40
1.0000000000
40
1.0000000000
40
1.0000000000
40
1.0000000000
10
8.8359189814
20
-24.9451418912
30
0.0000000000
10
8.8359189814
20
-24.9570315615
30
0.0000000000
10
8.8376210990
20
-24.9808458261
30
0.0000000000
10
8.8452287312
20
-25.0158124640
30
0.0000000000
10
8.8577360277
20
-25.0493479993
30
0.0000000000
10
8.8748884299
20
-25.0807602158
30
0.0000000000
10
8.8963368070
20
-25.1094121584
30
0.0000000000
10
8.9216444834
20
-25.1347198348
30
0.0000000000
10
8.9502964261
20
-25.1561682120
30
0.0000000000
10
8.9817086426
20
-25.1733206141
30
0.0000000000
10
9.0152441779
20
-25.1858279107
30
0.0000000000
10
9.0502108157
20
-25.1934355429
30
0.0000000000
10
9.0740250804
20
-25.1951376604
30
0.0000000000
10
9.0859147506
20
-25.1951376604
30
0.0000000000
11
8.8359189814
21
-24.9451418912
31
0.0000000000
11
8.8384635073
21
-24.9807200266
31
0.0000000000
11
8.8460453397
21
-25.0155739394
31
0.0000000000
11
8.8585102093
21
-25.0489941067
31
0.0000000000
11
8.8756044233
21
-25.0803001663
31
0.0000000000
11
8.8969800226
21
-25.1088547795
31
0.0000000000
11
8.9222018624
21
-25.1340766193
31
0.0000000000
11
8.9507564755
21
-25.1554522186
31
0.0000000000
11
8.9820625351
21
-25.1725464326
31
0.0000000000
11
9.0154827024
21
-25.1850113021
31
0.0000000000
11
9.0503366153
21
-25.1925931346
31
0.0000000000
11
9.0859147506
21
-25.1951376604
31
0.0000000000
0
SPLINE
5
331
100
AcDbEntity
8
0
100
AcDbSpline
62
7
6
CONTINUOUS
70
0
71
3
72
18
73
14
74
12
42
0.0000001000
43
0.0000001000
44
0.0000000001
12
0.3923594660
22
0.0000000000
32
0.0000000000
13
-0.0000000000
23
0.3923594660
33
0.0000000000
40
0.0000000000
40
0.0000000000
40
0.0000000000
40
0.0000000000
40
0.0909090103
40
0.1818180598
40
0.2727271497
40
0.3636362742
40
0.4545454220
40
0.5454545780
40
0.6363637258
40
0.7272728503
40
0.8181819402
40
0.9090909897
40
1.0000000000
40
1.0000000000
40
1.0000000000
40
1.0000000000
10
10.9859232122
20
-25.1951376604
30
0.0000000000
10
10.9978128825
20
-25.1951376604
30
0.0000000000
10
11.0216271471
20
-25.1934355429
30
0.0000000000
10
11.0565937850
20
-25.1858279107
30
0.0000000000
10
11.0901293203
20
-25.1733206141
30
0.0000000000
10
11.1215415368
20
-25.1561682120
30
0.0000000000
10
11.1501934794
20
-25.1347198348
30
0.0000000000
10
11.1755011558
20
-25.1094121584
30
0.0000000000
10
11.1969495330
20
-25.0807602158
30
0.0000000000
10
11.2141019351
20
-25.0493479993
30
0.0000000000
10
11.2266092317
20
-25.0158124640
30
0.0000000000
10
11.2342168639
20
-24.9808458261
30
0.0000000000
10
11.2359189814
20
-24.9570315615
30
0.0000000000
10
11.2359189814
20
-24.9451418912
30
0.0000000000
11
10.9859232122
21
-25.1951376604
31
0.0000000000
11
11.0215013476
21
-25.1925931346
31
0.0000000000
11
11.0563552604
21
-25.1850113021
31
0.0000000000
11
11.0897754277
21
-25.1725464326
31
0.0000000000
11
11.1210814873
21
-25.1554522186
31
0.0000000000
11
11.1496361005
21
-25.1340766193
31
0.0000000000
11
11.1748579403
21
-25.1088547795
31
0.0000000000
11
11.1962335396
21
-25.0803001663
31
0.0000000000
11
11.2133277536
21
-25.0489941067
31
0.0000000000
11
11.2257926231
21
-25.0155739394
31
0.0000000000
11
11.2333744556
21
-24.9807200266
31
0.0000000000
11
11.2359189814
21
-24.9451418912
31
0.0000000000
0
SPLINE
5
332
100
AcDbEntity
8
0
100
AcDbSpline
62
7
6
CONTINUOUS
70
0
71
3
72
18
73
14
74
12
42
0.0000001000
43
0.0000001000
44
0.0000000001
12
0.0000000000
22
-0.3923594660
32
0.0000000000
13
0.3923594660
23
-0.0000000000
33
0.0000000000
40
0.0000000000
40
0.0000000000
40
0.0000000000
40
0.0000000000
40
0.0909090103
40
0.1818180598
40
0.2727271497
40
0.3636362742
40
0.4545454220
40
0.5454545780
40
0.6363637258
40
0.7272728503
40
0.8181819402
40
0.9090909897
40
1.0000000000
40
1.0000000000
40
1.0000000000
40
1.0000000000
10
-10.0640810186
20
-24.9451418912
30
0.0000000000
10
-10.0640810186
20
-24.9570315615
30
0.0000000000
10
-10.0623789010
20
-24.9808458261
30
0.0000000000
10
-10.0547712688
20
-25.0158124640
30
0.0000000000
10
-10.0422639723
20
-25.0493479993
30
0.0000000000
10
-10.0251115701
20
-25.0807602158
30
0.0000000000
10
-10.0036631930
20
-25.1094121584
30
0.0000000000
10
-9.9783555166
20
-25.1347198348
30
0.0000000000
10
-9.9497035739
20
-25.1561682120
30
0.0000000000
10
-9.9182913574
20
-25.1733206141
30
0.0000000000
10
-9.8847558221
20
-25.1858279107
30
0.0000000000
10
-9.8497891843
20
-25.1934355429
30
0.0000000000
10
-9.8259749196
20
-25.1951376604
30
0.0000000000
10
-9.8140852494
20
-25.1951376604
30
0.0000000000
11
-10.0640810186
21
-24.9451418912
31
0.0000000000
11
-10.0615364927
21
-24.9807200266
31
0.0000000000
11
-10.0539546603
21
-25.0155739394
31
0.0000000000
11
-10.0414897907
21
-25.0489941067
31
0.0000000000
11
-10.0243955767
21
-25.0803001663
31
0.0000000000
11
-10.0030199774
21
-25.1088547795
31
0.0000000000
11
-9.9777981376
21
-25.1340766193
31
0.0000000000
11
-9.9492435245
21
-25.1554522186
31
0.0000000000
11
-9.9179374649
21
-25.1725464326
31
0.0000000000
11
-9.8845172976
21
-25.1850113021
31
0.0000000000
11
-9.8496633847
21
-25.1925931346
31
0.0000000000
11
-9.8140852494
21
-25.1951376604
31
0.0000000000
0
SPLINE
5
333
100
AcDbEntity
8
0
100
AcDbSpline
62
7
6
CONTINUOUS
70
0
71
3
72
18
73
14
74
12
42
0.0000001000
43
0.0000001000
44
0.0000000001
12
0.3923594660
22
0.0000000000
32
0.0000000000
13
0.0000000000
23
0.3923594660
33
0.0000000000
40
0.0000000000
40
0.0000000000
40
0.0000000000
40
0.0000000000
40
0.0909090103
40
0.1818180598
40
0.2727271497
40
0.3636362742
40
0.4545454220
40
0.5454545780
40
0.6363637258
40
0.7272728503
40
0.8181819402
40
0.9090909897
40
1.0000000000
40
1.0000000000
40
1.0000000000
40
1.0000000000
10
-7.9140767878
20
-25.1951376604
30
0.0000000000
10
-7.9021871175
20
-25.1951376604
30
0.0000000000
10
-7.8783728529
20
-25.1934355429
30
0.0000000000
10
-7.8434062150
20
-25.1858279107
30
0.0000000000
10
-7.8098706797
20
-25.1733206141
30
0.0000000000
10
-7.7784584632
20
-25.1561682120
30
0.0000000000
10
-7.7498065206
20
-25.1347198348
30
0.0000000000
10
-7.7244988442
20
-25.1094121584
30
0.0000000000
10
-7.7030504670
20
-25.0807602158
30
0.0000000000
10
-7.6858980649
20
-25.0493479993
30
0.0000000000
10
-7.6733907683
20
-25.0158124640
30
0.0000000000
10
-7.6657831361
20
-24.9808458261
30
0.0000000000
10
-7.6640810186
20
-24.9570315615
30
0.0000000000
10
-7.6640810186
20
-24.9451418912
30
0.0000000000
11
-7.9140767878
21
-25.1951376604
31
0.0000000000
11
-7.8784986524
21
-25.1925931346
31
0.0000000000
11
-7.8436447396
21
-25.1850113021
31
0.0000000000
11
-7.8102245723
21
-25.1725464326
31
0.0000000000
11
-7.7789185127
21
-25.1554522186
31
0.0000000000
11
-7.7503638995
21
-25.1340766193
31
0.0000000000
11
-7.7251420597
21
-25.1088547795
31
0.0000000000
11
-7.7037664604
21
-25.0803001663
31
0.0000000000
11
-7.6866722464
21
-25.0489941067
31
0.0000000000
11
-7.6742073769
21
-25.0155739394
31
0.0000000000
11
-7.6666255444
21
-24.9807200266
31
0.0000000000
11
-7.6640810186
21
-24.9451418912
31
0.0000000000
0
SPLINE
5
334
100
AcDbEntity
8
0
100
AcDbSpline
62
7
6
CONTINUOUS
70
0
71
3
72
18
73
14
74
12
42
0.0000001000
43
0.0000001000
44
0.0000000001
12
0.0000000000
22
0.3923594660
32
0.0000000000
13
-0.3923594660
23
0.0000000000
33
0.0000000000
40
0.0000000000
40
0.0000000000
40
0.0000000000
40
0.0000000000
40
0.0909090103
40
0.1818180598
40
0.2727271497
40
0.3636362742
40
0.4545454220
40
0.5454545780
40
0.6363637258
40
0.7272728503
40
0.8181819402
40
0.9090909897
40
1.0000000000
40
1.0000000000
40
1.0000000000
40
1.0000000000
10
11.2359189814
20
23.5548665704
30
0.0000000000
10
11.2359189814
20
23.5667562406
30
0.0000000000
10
11.2342168639
20
23.5905705053
30
0.0000000000
10
11.2266092317
20
23.6255371431
30
0.0000000000
10
11.2141019351
20
23.6590726784
30
0.0000000000
10
11.1969495330
20
23.6904848949
30
0.0000000000
10
11.1755011558
20
23.7191368376
30
0.0000000000
10
11.1501934794
20
23.7444445140
30
0.0000000000
10
11.1215415368
20
23.7658928912
30
0.0000000000
10
11.0901293203
20
23.7830452933
30
0.0000000000
10
11.0565937850
20
23.7955525898
30
0.0000000000
10
11.0216271471
20
23.8031602220
30
0.0000000000
10
10.9978128825
20
23.8048623396
30
0.0000000000
10
10.9859232122
20
23.8048623396
30
0.0000000000
11
11.2359189814
21
23.5548665704
31
0.0000000000
11
11.2333744556
21
23.5904447057
31
0.0000000000
11
11.2257926231
21
23.6252986186
31
0.0000000000
11
11.2133277536
21
23.6587187859
31
0.0000000000
11
11.1962335396
21
23.6900248455
31
0.0000000000
11
11.1748579403
21
23.7185794586
31
0.0000000000
11
11.1496361005
21
23.7438012984
31
0.0000000000
11
11.1210814873
21
23.7651768977
31
0.0000000000
11
11.0897754277
21
23.7822711118
31
0.0000000000
11
11.0563552604
21
23.7947359813
31
0.0000000000
11
11.0215013476
21
23.8023178137
31
0.0000000000
11
10.9859232122
21
23.8048623396
31
0.0000000000
0
SPLINE
5
335
100
AcDbEntity
8
0
100
AcDbSpline
62
7
6
CONTINUOUS
70
0
71
3
72
18
73
14
74
12
42
0.0000001000
43
0.0000001000
44
0.0000000001
12
-0.3923594660
22
0.0000000000
32
0.0000000000
13
0.0000000000
23
-0.3923594660
33
0.0000000000
40
0.0000000000
40
0.0000000000
40
0.0000000000
40
0.0000000000
40
0.0909090103
40
0.1818180598
40
0.2727271497
40
0.3636362742
40
0.4545454220
40
0.5454545780
40
0.6363637258
40
0.7272728503
40
0.8181819402
40
0.9090909897
40
1.0000000000
40
1.0000000000
40
1.0000000000
40
1.0000000000
10
9.0859147506
20
23.8048623396
30
0.0000000000
10
9.0740250804
20
23.8048623396
30
0.0000000000
10
9.0502108157
20
23.8031602220
30
0.0000000000
10
9.0152441779
20
23.7955525898
30
0.0000000000
10
8.9817086426
20
23.7830452933
30
0.0000000000
10
8.9502964261
20
23.7658928912
30
0.0000000000
10
8.9216444834
20
23.7444445140
30
0.0000000000
10
8.8963368070
20
23.7191368376
30
0.0000000000
10
8.8748884299
20
23.6904848949
30
0.0000000000
10
8.8577360277
20
23.6590726784
30
0.0000000000
10
8.8452287312
20
23.6255371431
30
0.0000000000
10
8.8376210990
20
23.5905705053
30
0.0000000000
10
8.8359189814
20
23.5667562406
30
0.0000000000
10
8.8359189814
20
23.5548665704
30
0.0000000000
11
9.0859147506
21
23.8048623396
31
0.0000000000
11
9.0503366153
21
23.8023178137
31
0.0000000000
11
9.0154827024
21
23.7947359813
31
0.0000000000
11
8.9820625351
21
23.7822711118
31
0.0000000000
11
8.9507564755
21
23.7651768977
31
0.0000000000
11
8.9222018624
21
23.7438012984
31
0.0000000000
11
8.8969800226
21
23.7185794586
31
0.0000000000
11
8.8756044233
21
23.6900248455
31
0.0000000000
11
8.8585102093
21
23.6587187859
31
0.0000000000
11
8.8460453397
21
23.6252986186
31
0.0000000000
11
8.8384635073
21
23.5904447057
31
0.0000000000
11
8.8359189814
21
23.5548665704
31
0.0000000000
0
SPLINE
5
336
100
AcDbEntity
8
0
100
AcDbSpline
62
7
6
CONTINUOUS
70
0
71
3
72
18
73
14
74
12
42
0.0000001000
43
0.0000001000
44
0.0000000001
12
-0.3923594660
22
0.0000000000
32
0.0000000000
13
0.0000000000
23
-0.3923594660
33
0.0000000000
40
0.0000000000
40
0.0000000000
40
0.0000000000
40
0.0000000000
40
0.0909090103
40
0.1818180598
40
0.2727271497
40
0.3636362742
40
0.4545454220
40
0.5454545780
40
0.6363637258
40
0.7272728503
40
0.8181819402
40
0.9090909897
40
1.0000000000
40
1.0000000000
40
1.0000000000
40
1.0000000000
10
-9.8140852494
20
23.8048623396
30
0.0000000000
10
-9.8259749196
20
23.8048623396
30
0.0000000000
10
-9.8497891843
20
23.8031602220
30
0.0000000000
10
-9.8847558221
20
23.7955525898
30
0.0000000000
10
-9.9182913574
20
23.7830452933
30
0.0000000000
10
-9.9497035739
20
23.7658928912
30
0.0000000000
10
-9.9783555166
20
23.7444445140
30
0.0000000000
10
-10.0036631930
20
23.7191368376
30
0.0000000000
10
-10.0251115701
20
23.6904848949
30
0.0000000000
10
-10.0422639723
20
23.6590726784
30
0.0000000000
10
-10.0547712688
20
23.6255371431
30
0.0000000000
10
-10.0623789010
20
23.5905705053
30
0.0000000000
10
-10.0640810186
20
23.5667562406
30
0.0000000000
10
-10.0640810186
20
23.5548665704
30
0.0000000000
11
-9.8140852494
21
23.8048623396
31
0.0000000000
11
-9.8496633847
21
23.8023178137
31
0.0000000000
11
-9.8845172976
21
23.7947359813
31
0.0000000000
11
-9.9179374649
21
23.7822711118
31
0.0000000000
11
-9.9492435245
21
23.7651768977
31
0.0000000000
11
-9.9777981376
21
23.7438012984
31
0.0000000000
11
-10.0030199774
21
23.7185794586
31
0.0000000000
11
-10.0243955767
21
23.6900248455
31
0.0000000000
11
-10.0414897907
21
23.6587187859
31
0.0000000000
11
-10.0539546603
21
23.6252986186
31
0.0000000000
11
-10.0615364927
21
23.5904447057
31
0.0000000000
11
-10.0640810186
21
23.5548665704
31
0.0000000000
0
SPLINE
5
337
100
AcDbEntity
8
0
100
AcDbSpline
62
7
6
CONTINUOUS
70
0
71
3
72
18
73
14
74
12
42
0.0000001000
43
0.0000001000
44
0.0000000001
12
0.0000000000
22
0.3923594660
32
0.0000000000
13
-0.3923594660
23
-0.0000000000
33
0.0000000000
40
0.0000000000
40
0.0000000000
40
0.0000000000
40
0.0000000000
40
0.0909090103
40
0.1818180598
40
0.2727271497
40
0.3636362742
40
0.4545454220
40
0.5454545780
40
0.6363637258
40
0.7272728503
40
0.8181819402
40
0.9090909897
40
1.0000000000
40
1.0000000000
40
1.0000000000
40
1.0000000000
10
-7.6640810186
20
23.5548665704
30
0.0000000000
10
-7.6640810186
20
23.5667562406
30
0.0000000000
10
-7.6657831361
20
23.5905705053
30
0.0000000000
10
-7.6733907683
20
23.6255371431
30
0.0000000000
10
-7.6858980649
20
23.6590726784
30
0.0000000000
10
-7.7030504670
20
23.6904848949
30
0.0000000000
10
-7.7244988442
20
23.7191368376
30
0.0000000000
10
-7.7498065206
20
23.7444445140
30
0.0000000000
10
-7.7784584632
20
23.7658928912
30
0.0000000000
10
-7.8098706797
20
23.7830452933
30
0.0000000000
10
-7.8434062150
20
23.7955525898
30
0.0000000000
10
-7.8783728529
20
23.8031602220
30
0.0000000000
10
-7.9021871175
20
23.8048623396
30
0.0000000000
10
-7.9140767878
20
23.8048623396
30
0.0000000000
11
-7.6640810186
21
23.5548665704
31
0.0000000000
11
-7.6666255444
21
23.5904447057
31
0.0000000000
11
-7.6742073769
21
23.6252986186
31
0.0000000000
11
-7.6866722464
21
23.6587187859
31
0.0000000000
11
-7.7037664604
21
23.6900248455
31
0.0000000000
11
-7.7251420597
21
23.7185794586
31
0.0000000000
11
-7.7503638995
21
23.7438012984
31
0.0000000000
11
-7.7789185127
21
23.7651768977
31
0.0000000000
11
-7.8102245723
21
23.7822711118
31
0.0000000000
11
-7.8436447396
21
23.7947359813
31
0.0000000000
11
-7.8784986524
21
23.8023178137
31
0.0000000000
11
-7.9140767878
21
23.8048623396
31
0.0000000000
0
SPLINE
5
338
100
AcDbEntity
8
0
100
AcDbSpline
62
7
6
CONTINUOUS
70
0
71
3
72
15
73
11
74
9
42
0.0000001000
43
0.0000001000
44
0.0000000001
12
0.0000000000
22
0.4979340247
32
0.0000000000
13
0.4457630340
23
0.2228419816
33
0.0000000000
40
0.0000000000
40
0.0000000000
40
0.0000000000
40
0.0000000000
40
0.1289207035
40
0.2579804863
40
0.3867904683
40
0.5159440866
40
0.6447050042
40
0.7739027784
40
0.9026728646
40
1.0000000000
40
1.0000000000
40
1.0000000000
40
1.0000000000
10
-10.5640810186
20
21.2460497993
30
0.0000000000
10
-10.5640810186
20
21.2674478009
30
0.0000000000
10
-10.5610162682
20
21.3103296832
30
0.0000000000
10
-10.5473203655
20
21.3732640307
30
0.0000000000
10
-10.5247939979
20
21.4336577115
30
0.0000000000
10
-10.4939242871
20
21.4901843635
30
0.0000000000
10
-10.4552874993
20
21.5417942144
30
0.0000000000
10
-10.4097430084
20
21.5873363653
30
0.0000000000
10
-10.3623733004
20
21.6227951928
30
0.0000000000
10
-10.3296829731
20
21.6413994237
30
0.0000000000
10
-10.3152213600
20
21.6486289476
30
0.0000000000
11
-10.5640810186
21
21.2460497993
31
0.0000000000
11
-10.5595020296
21
21.3100802851
31
0.0000000000
11
-10.5458391332
21
21.3728743252
31
0.0000000000
11
-10.5234234588
21
21.4329686888
31
0.0000000000
11
-10.4926004608
21
21.4894108402
31
0.0000000000
11
-10.4541767306
21
21.5407360642
31
0.0000000000
11
-10.4086860449
21
21.5862245196
31
0.0000000000
11
-10.3573553530
21
21.6246485637
31
0.0000000000
11
-10.3152213600
21
21.6486289476
31
0.0000000000
0
SPLINE
5
339
100
AcDbEntity
8
0
100
AcDbSpline
62
9
6
CONTINUOUS
70
0
71
3
72
29
73
25
74
23
42
0.0000001000
43
0.0000001000
44
0.0000000001
12
-0.0295165045
22
-41.0838046346
32
0.0000000000
13
0.0295165045
23
-41.0838046346
33
0.0000000000
40
0.0000000000
40
0.0000000000
40
0.0000000000
40
0.0000000000
40
0.0454322759
40
0.0908709486
40
0.1363153365
40
0.1817647980
40
0.2272187072
40
0.2726764332
40
0.3181373337
40
0.3636007767
40
0.4090661262
40
0.4545327467
40
0.5000000036
40
0.5454672613
40
0.5909338815
40
0.6363992310
40
0.6818626739
40
0.7273235751
40
0.7727812985
40
0.8182352093
40
0.8636846755
40
0.9091290218
40
0.9545672043
40
1.0000000000
40
1.0000000000
40
1.0000000000
40
1.0000000000
10
11.5685920205
20
19.8467681961
30
0.0000000000
10
11.5681450199
20
19.2245912802
30
0.0000000000
10
11.5672916436
20
17.9801498170
30
0.0000000000
10
11.5661335224
20
16.1133654748
30
0.0000000000
10
11.5650972650
20
14.2463457122
30
0.0000000000
10
11.5641828863
20
12.3791172282
30
0.0000000000
10
11.5633903990
20
10.5117060284
30
0.0000000000
10
11.5627198140
20
8.6441381274
30
0.0000000000
10
11.5621711408
20
6.7764396245
30
0.0000000000
10
11.5617443871
20
4.9086366886
30
0.0000000000
10
11.5614395587
20
3.0407553958
30
0.0000000000
10
11.5612566600
20
1.1728218576
30
0.0000000000
10
11.5611956934
20
-0.6951378195
30
0.0000000000
10
11.5612566600
20
-2.5630974927
30
0.0000000000
10
11.5614395587
20
-4.4310310366
30
0.0000000000
10
11.5617443871
20
-6.2989123239
30
0.0000000000
10
11.5621711409
20
-8.1667152674
30
0.0000000000
10
11.5627198141
20
-10.0344137434
30
0.0000000000
10
11.5633903991
20
-11.9019816394
30
0.0000000000
10
11.5641828865
20
-13.7693928905
30
0.0000000000
10
11.5650972650
20
-15.6366208915
30
0.0000000000
10
11.5661335183
20
-17.5036334367
30
0.0000000000
10
11.5672916387
20
-19.3704176144
30
0.0000000000
10
11.5681450148
20
-20.6148594826
30
0.0000000000
10
11.5685920205
20
-21.2370435169
30
0.0000000000
11
11.5685920205
21
19.8467681961
31
0.0000000000
11
11.5673120373
21
17.9802374055
31
0.0000000000
11
11.5661539022
21
16.1134437302
31
0.0000000000
11
11.5651176327
21
14.2464151812
31
0.0000000000
11
11.5642032434
21
12.3791781297
31
0.0000000000
11
11.5634107468
21
10.5117582901
31
0.0000000000
11
11.5627401540
21
8.6441815938
31
0.0000000000
11
11.5621914745
21
6.7764744385
31
0.0000000000
11
11.5617647157
21
4.9086627935
31
0.0000000000
11
11.5614598838
21
3.0407727980
31
0.0000000000
11
11.5612769829
21
1.1728305721
31
0.0000000000
11
11.5612160157
21
-0.6951378091
31
0.0000000000
11
11.5612769830
21
-2.5631062216
31
0.0000000000
11
11.5614598838
21
-4.4310484355
31
0.0000000000
11
11.5617647158
21
-6.2989384290
31
0.0000000000
11
11.5621914745
21
-8.1667500714
31
0.0000000000
11
11.5627401541
21
-10.0344572542
31
0.0000000000
11
11.5634107469
21
-11.9020338449
31
0.0000000000
11
11.5642032435
21
-13.7694537474
31
0.0000000000
11
11.5651176330
21
-15.6366909957
31
0.0000000000
11
11.5661539015
21
-17.5037178358
31
0.0000000000
11
11.5673120234
21
-19.3704913710
31
0.0000000000
11
11.5685920205
21
-21.2370435169
31
0.0000000000
0
SPLINE
5
33A
100
AcDbEntity
8
0
100
AcDbSpline
62
9
6
CONTINUOUS
70
0
71
3
72
16
73
12
74
10
42
0.0000001000
43
0.0000001000
44
0.0000000001
12
0.1450160963
22
-0.4182036756
32
0.0000000000
13
0.1402884982
23
-0.4198131963
33
0.0000000000
40
0.0000000000
40
0.0000000000
40
0.0000000000
40
0.0000000000
40
0.1129286119
40
0.2278668963
40
0.3514127092
40
0.4801593134
40
0.6010915509
40
0.7060019126
40
0.8003039892
40
0.8958621899
40
1.0000000000
40
1.0000000000
40
1.0000000000
40
1.0000000000
10
11.0851949436
20
-22.6938628824
30
0.0000000000
10
11.0906537657
20
-22.7096052692
30
0.0000000000
10
11.1030897275
20
-22.7409165896
30
0.0000000000
10
11.1270872682
20
-22.7869308081
30
0.0000000000
10
11.1540256572
20
-22.8339405361
30
0.0000000000
10
11.1818623868
20
-22.8814514170
30
0.0000000000
10
11.2071687764
20
-22.9272675324
30
0.0000000000
10
11.2268016268
20
-22.9703017505
30
0.0000000000
10
11.2413522700
20
-23.0113182056
30
0.0000000000
10
11.2544327556
20
-23.0526747845
30
0.0000000000
10
11.2639412255
20
-23.0805648514
30
0.0000000000
10
11.2688110045
20
-23.0951376604
30
0.0000000000
11
11.0851949436
21
-22.6938628824
31
0.0000000000
11
11.1037475266
21
-22.7402783433
31
0.0000000000
11
11.1267801416
21
-22.7856414671
31
0.0000000000
11
11.1537184977
21
-22.8332316340
31
0.0000000000
11
11.1822317000
21
-22.8825730174
31
0.0000000000
11
11.2076618700
21
-22.9296752203
31
0.0000000000
11
11.2267912782
21
-22.9719888250
31
0.0000000000
11
11.2410621180
21
-23.0112147338
31
0.0000000000
11
11.2541938366
21
-23.0514218511
31
0.0000000000
11
11.2688110045
21
-23.0951376604
31
0.0000000000
0
SPLINE
5
33B
100
AcDbEntity
8
0
100
AcDbSpline
62
9
6
CONTINUOUS
70
0
71
3
72
54
73
50
74
48
42
0.0000001000
43
0.0000001000
44
0.0000000001
12
-0.3026205294
22
-0.9088451969
32
0.0000000000
13
-0.0006881265
23
-0.9579030762
33
0.0000000000
40
0.0000000000
40
0.0000000000
40
0.0000000000
40
0.0000000000
40
0.0023037354
40
0.0056129994
40
0.0099347306
40
0.0152693943
40
0.0216139905
40
0.0289635819
40
0.0373117931
40
0.0466511552
40
0.0569728980
40
0.0682671068
40
0.0805228144
40
0.0937280565
40
0.1078698680
40
0.1229342581
40
0.1389065022
40
0.1557711777
40
0.1735120337
40
0.1921118639
40
0.2115520642
40
0.2318126049
40
0.2528726393
40
0.2747121124
40
0.2973109627
40
0.3206465991
40
0.3446943043
40
0.3694303690
40
0.3948322840
40
0.4208759384
40
0.4475346871
40
0.4747808578
40
0.5025866403
40
0.5309249258
40
0.5597686649
40
0.5890898958
40
0.6188594902
40
0.6490474613
40
0.6796245318
40
0.7105613908
40
0.7418275057
40
0.7733892237
40
0.8052136959
40
0.8372717206
40
0.8695359351
40
0.9019751698
40
0.9345553958
40
0.9672425647
40
1.0000000000
40
1.0000000000
40
1.0000000000
40
1.0000000000
10
11.5851187912
20
20.8042727942
30
0.0000000000
10
11.5848864053
20
20.8035748812
30
0.0000000000
10
11.5844803796
20
20.8018240866
30
0.0000000000
10
11.5839545152
20
20.7986964958
30
0.0000000000
10
11.5834257204
20
20.7945891045
30
0.0000000000
10
11.5828935642
20
20.7895077268
30
0.0000000000
10
11.5823622749
20
20.7834547621
30
0.0000000000
10
11.5818327107
20
20.7764364541
30
0.0000000000
10
11.5813061762
20
20.7684593153
30
0.0000000000
10
11.5807834584
20
20.7595311363
30
0.0000000000
10
11.5802653165
20
20.7496606104
30
0.0000000000
10
11.5797524054
20
20.7388574839
30
0.0000000000
10
11.5792453395
20
20.7271324507
30
0.0000000000
10
11.5787446952
20
20.7144971360
30
0.0000000000
10
11.5782510241
20
20.7009640970
30
0.0000000000
10
11.5777648555
20
20.6865467479
30
0.0000000000
10
11.5772866979
20
20.6712592691
30
0.0000000000
10
11.5768170417
20
20.6551165485
30
0.0000000000
10
11.5763563639
20
20.6381342549
30
0.0000000000
10
11.5759051349
20
20.6203290642
30
0.0000000000
10
11.5754638220
20
20.6017188515
30
0.0000000000
10
11.5750328862
20
20.5823226485
30
0.0000000000
10
11.5746127660
20
20.5621599457
30
0.0000000000
10
11.5742038720
20
20.5412502398
30
0.0000000000
10
11.5738066027
20
20.5196135813
30
0.0000000000
10
11.5734213598
20
20.4972715067
30
0.0000000000
10
11.5730485385
20
20.4742467146
30
0.0000000000
10
11.5726885074
20
20.4505618758
30
0.0000000000
10
11.5723416117
20
20.4262394659
30
0.0000000000
10
11.5720081907
20
20.4013028964
30
0.0000000000
10
11.5716885843
20
20.3757772261
30
0.0000000000
10
11.5713831236
20
20.3496886939
30
0.0000000000
10
11.5710921173
20
20.3230636860
30
0.0000000000
10
11.5708158511
20
20.2959283889
30
0.0000000000
10
11.5705545923
20
20.2683090369
30
0.0000000000
10
11.5703085964
20
20.2402325085
30
0.0000000000
10
11.5700781087
20
20.2117266196
30
0.0000000000
10
11.5698633585
20
20.1828196057
30
0.0000000000
10
11.5696645569
20
20.1535397603
30
0.0000000000
10
11.5694818988
20
20.1239155506
30
0.0000000000
10
11.5693155703
20
20.0939768408
30
0.0000000000
10
11.5691657431
20
20.0637546245
30
0.0000000000
10
11.5690325658
20
20.0332794702
30
0.0000000000
10
11.5689161611
20
20.0025799377
30
0.0000000000
10
11.5688166368
20
19.9716840506
30
0.0000000000
10
11.5687340930
20
19.9406213734
30
0.0000000000
10
11.5686686183
20
19.9094236054
30
0.0000000000
10
11.5686202843
20
19.8781242043
30
0.0000000000
10
11.5685995343
20
19.8572276788
30
0.0000000000
10
11.5685920205
20
19.8467681961
30
0.0000000000
11
11.5851187912
21
20.8042727942
31
0.0000000000
11
11.5845714638
21
20.8021349907
31
0.0000000000
11
11.5840255401
21
20.7990123985
31
0.0000000000
11
11.5834815899
21
20.7949084897
31
0.0000000000
11
11.5829401580
21
20.7898271618
31
0.0000000000
11
11.5824017851
21
20.7837735447
31
0.0000000000
11
11.5818670071
21
20.7767536871
31
0.0000000000
11
11.5813363500
21
20.7687745342
31
0.0000000000
11
11.5808103270
21
20.7598438062
31
0.0000000000
11
11.5802894583
21
20.7499703040
31
0.0000000000
11
11.5797742613
21
20.7391638178
31
0.0000000000
11
11.5792652476
21
20.7274350749
31
0.0000000000
11
11.5787629217
21
20.7147957076
31
0.0000000000
11
11.5782677818
21
20.7012582714
31
0.0000000000
11
11.5777803204
21
20.6868362777
31
0.0000000000
11
11.5773010160
21
20.6715439215
31
0.0000000000
11
11.5768303337
21
20.6553960511
31
0.0000000000
11
11.5763687307
21
20.6384082966
31
0.0000000000
11
11.5759166592
21
20.6205971936
31
0.0000000000
11
11.5754745750
21
20.6019806095
31
0.0000000000
11
11.5750429341
21
20.5825777707
31
0.0000000000
11
11.5746221777
21
20.5624086822
31
0.0000000000
11
11.5742127034
21
20.5414925860
31
0.0000000000
11
11.5738148886
21
20.5198487278
31
0.0000000000
11
11.5734291339
21
20.4974987730
31
0.0000000000
11
11.5730558475
21
20.4744664210
31
0.0000000000
11
11.5726953948
21
20.4507744042
31
0.0000000000
11
11.5723481037
21
20.4264443039
31
0.0000000000
11
11.5720143077
21
20.4014992340
31
0.0000000000
11
11.5716943517
21
20.3759647346
31
0.0000000000
11
11.5713885682
21
20.3498673284
31
0.0000000000
11
11.5710972673
21
20.3232336700
31
0.0000000000
11
11.5708207304
21
20.2960897407
31
0.0000000000
11
11.5705592202
21
20.2684614648
31
0.0000000000
11
11.5703129908
21
20.2403756396
31
0.0000000000
11
11.5700822875
21
20.2118601794
31
0.0000000000
11
11.5698673426
21
20.1829438204
31
0.0000000000
11
11.5696683644
21
20.1536546189
31
0.0000000000
11
11.5694855448
21
20.1240206627
31
0.0000000000
11
11.5693190661
21
20.0940712101
31
0.0000000000
11
11.5691691069
21
20.0638385074
31
0.0000000000
11
11.5690358190
21
20.0333540312
31
0.0000000000
11
11.5689193210
21
20.0026457637
31
0.0000000000
11
11.5688197138
21
19.9717399259
31
0.0000000000
11
11.5687370995
21
19.9406663851
31
0.0000000000
11
11.5686715692
21
19.9094577470
31
0.0000000000
11
11.5686231926
21
19.8781466367
31
0.0000000000
11
11.5685920205
21
19.8467681961
31
0.0000000000
0
SPLINE
5
33C
100
AcDbEntity
8
0
100
AcDbSpline
62
9
6
CONTINUOUS
70
0
71
3
72
29
73
25
74
23
42
0.0000001000
43
0.0000001000
44
0.0000000001
12
-0.0295165045
22
-41.1249295783
32
0.0000000000
13
0.0295165045
23
-41.1249295783
33
0.0000000000
40
0.0000000000
40
0.0000000000
40
0.0000000000
40
0.0000000000
40
0.0454322793
40
0.0908709517
40
0.1363153393
40
0.1817648004
40
0.2272187094
40
0.2726764351
40
0.3181373353
40
0.3636007781
40
0.4090661273
40
0.4545327475
40
0.5000000042
40
0.5454672616
40
0.5909338815
40
0.6363992307
40
0.6818626734
40
0.7273235742
40
0.7727812974
40
0.8182352079
40
0.8636846738
40
0.9091290198
40
0.9545672020
40
1.0000000000
40
1.0000000000
40
1.0000000000
40
1.0000000000
10
11.0686681730
20
19.8673306644
30
0.0000000000
10
11.0682211723
20
19.2445309028
30
0.0000000000
10
11.0673677960
20
17.9988437103
30
0.0000000000
10
11.0662096747
20
16.1301906768
30
0.0000000000
10
11.0651734174
20
14.2613020370
30
0.0000000000
10
11.0642590387
20
12.3922044669
30
0.0000000000
10
11.0634665514
20
10.5229239982
30
0.0000000000
10
11.0627959664
20
8.6534866714
30
0.0000000000
10
11.0622472932
20
6.7839186121
30
0.0000000000
10
11.0618205395
20
4.9142460152
30
0.0000000000
10
11.0615157111
20
3.0444949830
30
0.0000000000
10
11.0613328124
20
1.1746916532
30
0.0000000000
10
11.0612718459
20
-0.6951378418
30
0.0000000000
10
11.0613328124
20
-2.5649673328
30
0.0000000000
10
11.0615157111
20
-4.4347706684
30
0.0000000000
10
11.0618205395
20
-6.3045216950
30
0.0000000000
10
11.0622472933
20
-8.1741942994
30
0.0000000000
10
11.0627959665
20
-10.0437623317
30
0.0000000000
10
11.0634665515
20
-11.9131996534
30
0.0000000000
10
11.0642590389
20
-13.7824801735
30
0.0000000000
10
11.0651734174
20
-15.6515772599
30
0.0000000000
10
11.0662096707
20
-17.5204586750
30
0.0000000000
10
11.0673677911
20
-19.3891115292
30
0.0000000000
10
11.0682211672
20
-20.6347991126
30
0.0000000000
10
11.0686681730
20
-21.2576059852
30
0.0000000000
11
11.0686681730
21
19.8673306644
31
0.0000000000
11
11.0673881896
21
17.9989313368
31
0.0000000000
11
11.0662300545
21
16.1302690105
31
0.0000000000
11
11.0651937851
21
14.2613715756
31
0.0000000000
11
11.0642793958
21
12.3922654294
31
0.0000000000
11
11.0634868992
21
10.5229763123
31
0.0000000000
11
11.0628163064
21
8.6535301814
31
0.0000000000
11
11.0622676269
21
6.7839534609
31
0.0000000000
11
11.0618408681
21
4.9142721463
31
0.0000000000
11
11.0615360362
21
3.0445124026
31
0.0000000000
11
11.0613531354
21
1.1747003764
31
0.0000000000
11
11.0612921681
21
-0.6951378314
31
0.0000000000
11
11.0613531354
21
-2.5649760704
31
0.0000000000
11
11.0615360363
21
-4.4347880847
31
0.0000000000
11
11.0618408682
21
-6.3045478262
31
0.0000000000
11
11.0622676270
21
-8.1742291382
31
0.0000000000
11
11.0628163066
21
-10.0438058861
31
0.0000000000
11
11.0634868993
21
-11.9132519112
31
0.0000000000
11
11.0642793959
21
-13.7825410913
31
0.0000000000
11
11.0651937853
21
-15.6516474343
31
0.0000000000
11
11.0662300539
21
-17.5205431586
31
0.0000000000
11
11.0673881757
21
-19.3891853244
31
0.0000000000
11
11.0686681730
21
-21.2576059852
31
0.0000000000
0
SPLINE
5
33D
100
AcDbEntity
8
0
100
AcDbSpline
62
9
6
CONTINUOUS
70
0
71
3
72
16
73
12
74
10
42
0.0000001000
43
0.0000001000
44
0.0000000001
12
-0.1402679952
22
-0.4198205047
32
0.0000000000
13
-0.1450265414
23
-0.4182005128
33
0.0000000000
40
0.0000000000
40
0.0000000000
40
0.0000000000
40
0.0000000000
40
0.1045807303
40
0.2001038006
40
0.2945875809
40
0.3990050565
40
0.5188112005
40
0.6470866051
40
0.7713529512
40
0.8870824181
40
1.0000000000
40
1.0000000000
40
1.0000000000
40
1.0000000000
10
11.2688114955
20
21.7048623396
30
0.0000000000
10
11.2639217190
20
21.6902272946
30
0.0000000000
10
11.2543851020
20
21.6622830793
30
0.0000000000
10
11.2412922397
20
21.6208392254
30
0.0000000000
10
11.2267518056
20
21.5798722848
30
0.0000000000
10
11.2071731833
20
21.5370474608
30
0.0000000000
10
11.1820446718
20
21.4914866945
30
0.0000000000
10
11.1542740528
20
21.4440864106
30
0.0000000000
10
11.1272433680
20
21.3969527124
30
0.0000000000
10
11.1031394036
20
21.3507437078
30
0.0000000000
10
11.0906536257
20
21.3193282918
30
0.0000000000
10
11.0851949436
20
21.3035875616
30
0.0000000000
11
11.2688114955
21
21.7048623396
31
0.0000000000
11
11.2541290772
21
21.6609615800
31
0.0000000000
11
11.2410087556
21
21.6207670555
31
0.0000000000
11
11.2267017651
21
21.5814686708
31
0.0000000000
11
11.2076393043
21
21.5393641846
31
0.0000000000
11
11.1824577353
21
21.4926941582
31
0.0000000000
11
11.1540521658
21
21.4435314013
31
0.0000000000
11
11.1269448516
21
21.3956703312
31
0.0000000000
11
11.1037494222
21
21.3499970596
31
0.0000000000
11
11.0851949436
21
21.3035875616
31
0.0000000000
0
SPLINE
5
33E
100
AcDbEntity
8
0
100
AcDbSpline
62
7
6
CONTINUOUS
70
0
71
3
72
18
73
14
74
12
42
0.0000001000
43
0.0000001000
44
0.0000000001
12
-0.0554102302
22
-0.4991426714
32
0.0000000000
13
-0.5022088211
23
-0.0000000000
33
0.0000000000
40
0.0000000000
40
0.0000000000
40
0.0000000000
40
0.0000000000
40
0.0131680296
40
0.0448584541
40
0.0953952215
40
0.1641892112
40
0.2495168295
40
0.3502227931
40
0.4636240711
40
0.5881588180
40
0.7206279660
40
0.8589718320
40
1.0000000000
40
1.0000000000
40
1.0000000000
40
1.0000000000
10
4.9829931432
20
21.6785060027
30
0.0000000000
10
4.9827499287
20
21.6763150943
30
0.0000000000
10
4.9734292225
20
21.6735236645
30
0.0000000000
10
4.9596555100
20
21.6703928887
30
0.0000000000
10
4.9335604915
20
21.6671370599
30
0.0000000000
10
4.8998663520
20
21.6640295427
30
0.0000000000
10
4.8571425931
20
21.6611479453
30
0.0000000000
10
4.8071345623
20
21.6585927828
30
0.0000000000
10
4.7504678614
20
21.6564163131
30
0.0000000000
10
4.6884899233
20
21.6546743624
30
0.0000000000
10
4.6223173991
20
21.6534015788
30
0.0000000000
10
4.5533781346
20
21.6526272928
30
0.0000000000
10
4.5066101348
20
21.6524545603
30
0.0000000000
10
4.4830016048
20
21.6524545603
30
0.0000000000
11
4.9829931432
21
21.6785060027
31
0.0000000000
11
4.9775228597
21
21.6747899433
31
0.0000000000
11
4.9620297327
21
21.6711489340
31
0.0000000000
11
4.9368896898
21
21.6676670997
31
0.0000000000
11
4.9024956013
21
21.6643996052
31
0.0000000000
11
4.8597463069
21
21.6614304393
31
0.0000000000
11
4.8092392889
21
21.6588008821
31
0.0000000000
11
4.7523314450
21
21.6565810587
31
0.0000000000
11
4.6898143278
21
21.6548011936
31
0.0000000000
11
4.6232997373
21
21.6535072783
31
0.0000000000
11
4.5538267020
21
21.6527187800
31
0.0000000000
11
4.4830016048
21
21.6524545603
31
0.0000000000
0
SPLINE
5
33F
100
AcDbEntity
8
0
100
AcDbSpline
62
7
6
CONTINUOUS
70
0
71
3
72
15
73
11
74
9
42
0.0000001000
43
0.0000001000
44
0.0000000001
12
0.1008939615
22
0.0007779154
32
0.0000000000
13
0.0713449249
23
0.0713449249
33
0.0000000000
40
0.0000000000
40
0.0000000000
40
0.0000000000
40
0.0000000000
40
0.2260892411
40
0.4253808137
40
0.5965983414
40
0.7386457856
40
0.8506149034
40
0.9317923900
40
0.9816698927
40
1.0000000000
40
1.0000000000
40
1.0000000000
40
1.0000000000
10
4.8821262951
20
23.1002013064
30
0.0000000000
10
4.8897299748
20
23.1002599325
30
0.0000000000
10
4.9040350182
20
23.1003805009
30
0.0000000000
10
4.9241029559
20
23.1005722495
30
0.0000000000
10
4.9413287782
20
23.1007979043
30
0.0000000000
10
4.9556610221
20
23.1009548158
30
0.0000000000
10
4.9668483002
20
23.1013131023
30
0.0000000000
10
4.9752132773
20
23.1011943380
30
0.0000000000
10
4.9798814900
20
23.1019942307
30
0.0000000000
10
4.9825572232
20
23.1015005813
30
0.0000000000
10
4.9829931432
20
23.1019365014
30
0.0000000000
11
4.8821262951
21
23.1002013064
31
0.0000000000
11
4.9049372097
21
23.1003926586
31
0.0000000000
11
4.9250441155
21
23.1005940128
31
0.0000000000
11
4.9423181663
21
23.1008040786
31
0.0000000000
11
4.9566486723
21
23.1010215097
31
0.0000000000
11
4.9679438068
21
23.1012449128
31
0.0000000000
11
4.9761311960
21
23.1014728562
31
0.0000000000
11
4.9811583789
21
23.1017038792
31
0.0000000000
11
4.9829931432
21
23.1019365014
31
0.0000000000
0
SPLINE
5
340
100
AcDbEntity
8
0
100
AcDbSpline
62
7
6
CONTINUOUS
70
0
71
3
72
17
73
13
74
11
42
0.0000001000
43
0.0000001000
44
0.0000000001
12
-0.4499134171
22
-0.0034689349
32
0.0000000000
13
-0.3802575409
23
-0.2404959853
33
0.0000000000
40
0.0000000000
40
0.0000000000
40
0.0000000000
40
0.0000000000
40
0.0745161516
40
0.1578620335
40
0.2489784530
40
0.3464791953
40
0.4490687639
40
0.5555830270
40
0.6649556765
40
0.7761688910
40
0.8882083217
40
1.0000000000
40
1.0000000000
40
1.0000000000
40
1.0000000000
10
4.8821262951
20
23.1002013064
30
0.0000000000
10
4.8709510230
20
23.1001151425
30
0.0000000000
10
4.8473220912
20
23.0965793654
30
0.0000000000
10
4.8116132739
20
23.0854935719
30
0.0000000000
10
4.7738971296
20
23.0698482915
30
0.0000000000
10
4.7346155912
20
23.0507280501
30
0.0000000000
10
4.6941015417
20
23.0289590765
30
0.0000000000
10
4.6526634050
20
23.0051973739
30
0.0000000000
10
4.6105764924
20
22.9799886352
30
0.0000000000
10
4.5681098249
20
22.9538114879
30
0.0000000000
10
4.5255425778
20
22.9271101115
30
0.0000000000
10
4.4971714810
20
22.9091665077
30
0.0000000000
10
4.4830016048
20
22.9002046910
30
0.0000000000
11
4.8821262951
21
23.1002013064
31
0.0000000000
11
4.8488639086
21
23.0959988275
31
0.0000000000
11
4.8129164735
21
23.0853218528
31
0.0000000000
11
4.7749492859
21
23.0698576499
31
0.0000000000
11
4.7354329017
21
23.0508083978
31
0.0000000000
11
4.6947220211
21
23.0290560126
31
0.0000000000
11
4.6531113570
21
23.0052815297
31
0.0000000000
11
4.6108673015
21
22.9800420193
31
0.0000000000
11
4.5682497456
21
22.9538213059
31
0.0000000000
11
4.5255277768
21
22.9270639658
31
0.0000000000
11
4.4830016048
21
22.9002046910
31
0.0000000000
0
SPLINE
5
341
100
AcDbEntity
8
0
100
AcDbSpline
62
7
6
CONTINUOUS
70
0
71
3
72
17
73
13
74
11
42
0.0000001000
43
0.0000001000
44
0.0000000001
12
0.4499134171
22
-0.0034689349
32
0.0000000000
13
0.3802575409
23
-0.2404959853
33
0.0000000000
40
0.0000000000
40
0.0000000000
40
0.0000000000
40
0.0000000000
40
0.0745161516
40
0.1578620335
40
0.2489784530
40
0.3464791953
40
0.4490687639
40
0.5555830270
40
0.6649556765
40
0.7761688910
40
0.8882083217
40
1.0000000000
40
1.0000000000
40
1.0000000000
40
1.0000000000
10
-3.7102883322
20
23.1002013064
30
0.0000000000
10
-3.6991130601
20
23.1001151425
30
0.0000000000
10
-3.6754841283
20
23.0965793654
30
0.0000000000
10
-3.6397753110
20
23.0854935719
30
0.0000000000
10
-3.6020591667
20
23.0698482915
30
0.0000000000
10
-3.5627776283
20
23.0507280501
30
0.0000000000
10
-3.5222635788
20
23.0289590765
30
0.0000000000
10
-3.4808254421
20
23.0051973739
30
0.0000000000
10
-3.4387385296
20
22.9799886352
30
0.0000000000
10
-3.3962718621
20
22.9538114879
30
0.0000000000
10
-3.3537046149
20
22.9271101115
30
0.0000000000
10
-3.3253335182
20
22.9091665077
30
0.0000000000
10
-3.3111636419
20
22.9002046910
30
0.0000000000
11
-3.7102883322
21
23.1002013064
31
0.0000000000
11
-3.6770259458
21
23.0959988275
31
0.0000000000
11
-3.6410785106
21
23.0853218528
31
0.0000000000
11
-3.6031113230
21
23.0698576499
31
0.0000000000
11
-3.5635949389
21
23.0508083978
31
0.0000000000
11
-3.5228840582
21
23.0290560126
31
0.0000000000
11
-3.4812733942
21
23.0052815297
31
0.0000000000
11
-3.4390293387
21
22.9800420193
31
0.0000000000
11
-3.3964117827
21
22.9538213059
31
0.0000000000
11
-3.3536898139
21
22.9270639658
31
0.0000000000
11
-3.3111636419
21
22.9002046910
31
0.0000000000
0
SPLINE
5
342
100
AcDbEntity
8
0
100
AcDbSpline
62
7
6
CONTINUOUS
70
0
71
3
72
15
73
11
74
9
42
0.0000001000
43
0.0000001000
44
0.0000000001
12
-0.1008939615
22
0.0007779154
32
0.0000000000
13
-0.0713449249
23
0.0713449249
33
0.0000000000
40
0.0000000000
40
0.0000000000
40
0.0000000000
40
0.0000000000
40
0.2260892411
40
0.4253808137
40
0.5965983414
40
0.7386457856
40
0.8506149034
40
0.9317923900
40
0.9816698927
40
1.0000000000
40
1.0000000000
40
1.0000000000
40
1.0000000000
10
-3.7102883322
20
23.1002013064
30
0.0000000000
10
-3.7178920120
20
23.1002599325
30
0.0000000000
10
-3.7321970554
20
23.1003805009
30
0.0000000000
10
-3.7522649930
20
23.1005722495
30
0.0000000000
10
-3.7694908153
20
23.1007979043
30
0.0000000000
10
-3.7838230592
20
23.1009548158
30
0.0000000000
10
-3.7950103373
20
23.1013131023
30
0.0000000000
10
-3.8033753145
20
23.1011943380
30
0.0000000000
10
-3.8080435271
20
23.1019942307
30
0.0000000000
10
-3.8107192603
20
23.1015005813
30
0.0000000000
10
-3.8111551804
20
23.1019365014
30
0.0000000000
11
-3.7102883322
21
23.1002013064
31
0.0000000000
11
-3.7330992469
21
23.1003926586
31
0.0000000000
11
-3.7532061526
21
23.1005940128
31
0.0000000000
11
-3.7704802035
21
23.1008040786
31
0.0000000000
11
-3.7848107094
21
23.1010215097
31
0.0000000000
11
-3.7961058440
21
23.1012449128
31
0.0000000000
11
-3.8042932332
21
23.1014728562
31
0.0000000000
11
-3.8093204161
21
23.1017038792
31
0.0000000000
11
-3.8111551804
21
23.1019365014
31
0.0000000000
0
SPLINE
5
343
100
AcDbEntity
8
0
100
AcDbSpline
62
7
6
CONTINUOUS
70
0
71
3
72
18
73
14
74
12
42
0.0000001000
43
0.0000001000
44
0.0000000001
12
-0.5022088211
22
0.0000000000
32
0.0000000000
13
-0.0554102302
23
0.4991426714
33
0.0000000000
40
0.0000000000
40
0.0000000000
40
0.0000000000
40
0.0000000000
40
0.1410281680
40
0.2793720340
40
0.4118411820
40
0.5363759289
40
0.6497772069
40
0.7504831705
40
0.8358107888
40
0.9046047785
40
0.9551415459
40
0.9868319704
40
1.0000000000
40
1.0000000000
40
1.0000000000
40
1.0000000000
10
-3.3111636419
20
21.6524545603
30
0.0000000000
10
-3.3347721720
20
21.6524545603
30
0.0000000000
10
-3.3815401717
20
21.6526272928
30
0.0000000000
10
-3.4504794363
20
21.6534015788
30
0.0000000000
10
-3.5166519604
20
21.6546743624
30
0.0000000000
10
-3.5786298985
20
21.6564163131
30
0.0000000000
10
-3.6352965994
20
21.6585927828
30
0.0000000000
10
-3.6853046302
20
21.6611479453
30
0.0000000000
10
-3.7280283891
20
21.6640295427
30
0.0000000000
10
-3.7617225287
20
21.6671370599
30
0.0000000000
10
-3.7878175471
20
21.6703928887
30
0.0000000000
10
-3.8015912596
20
21.6735236645
30
0.0000000000
10
-3.8109119659
20
21.6763150943
30
0.0000000000
10
-3.8111551804
20
21.6785060027
30
0.0000000000
11
-3.3111636419
21
21.6524545603
31
0.0000000000
11
-3.3819887391
21
21.6527187800
31
0.0000000000
11
-3.4514617745
21
21.6535072783
31
0.0000000000
11
-3.5179763650
21
21.6548011936
31
0.0000000000
11
-3.5804934821
21
21.6565810587
31
0.0000000000
11
-3.6374013260
21
21.6588008821
31
0.0000000000
11
-3.6879083440
21
21.6614304393
31
0.0000000000
11
-3.7306576385
21
21.6643996052
31
0.0000000000
11
-3.7650517269
21
21.6676670997
31
0.0000000000
11
-3.7901917698
21
21.6711489340
31
0.0000000000
11
-3.8056848968
21
21.6747899433
31
0.0000000000
11
-3.8111551804
21
21.6785060027
31
0.0000000000
0
SPLINE
5
344
100
AcDbEntity
8
0
100
AcDbSpline
62
7
6
CONTINUOUS
70
0
71
3
72
15
73
11
74
9
42
0.0000001000
43
0.0000001000
44
0.0000000001
12
0.1008939615
22
-0.0007779154
32
0.0000000000
13
0.0713449249
23
-0.0713449249
33
0.0000000000
40
0.0000000000
40
0.0000000000
40
0.0000000000
40
0.0000000000
40
0.2260892411
40
0.4253808137
40
0.5965983414
40
0.7386457856
40
0.8506149034
40
0.9317923900
40
0.9816698927
40
1.0000000000
40
1.0000000000
40
1.0000000000
40
1.0000000000
10
4.8821262951
20
-24.4904766273
30
0.0000000000
10
4.8897299748
20
-24.4905352534
30
0.0000000000
10
4.9040350182
20
-24.4906558217
30
0.0000000000
10
4.9241029559
20
-24.4908475703
30
0.0000000000
10
4.9413287782
20
-24.4910732251
30
0.0000000000
10
4.9556610221
20
-24.4912301366
30
0.0000000000
10
4.9668483002
20
-24.4915884231
30
0.0000000000
10
4.9752132773
20
-24.4914696588
30
0.0000000000
10
4.9798814900
20
-24.4922695515
30
0.0000000000
10
4.9825572232
20
-24.4917759022
30
0.0000000000
10
4.9829931432
20
-24.4922118222
30
0.0000000000
11
4.8821262951
21
-24.4904766273
31
0.0000000000
11
4.9049372097
21
-24.4906679795
31
0.0000000000
11
4.9250441155
21
-24.4908693337
31
0.0000000000
11
4.9423181663
21
-24.4910793995
31
0.0000000000
11
4.9566486723
21
-24.4912968306
31
0.0000000000
11
4.9679438068
21
-24.4915202337
31
0.0000000000
11
4.9761311960
21
-24.4917481771
31
0.0000000000
11
4.9811583789
21
-24.4919792001
31
0.0000000000
11
4.9829931432
21
-24.4922118222
31
0.0000000000
0
SPLINE
5
345
100
AcDbEntity
8
0
100
AcDbSpline
62
7
6
CONTINUOUS
70
0
71
3
72
18
73
14
74
12
42
0.0000001000
43
0.0000001000
44
0.0000000001
12
0.5022088211
22
0.0000000000
32
0.0000000000
13
0.0554102302
23
-0.4991426714
33
0.0000000000
40
0.0000000000
40
0.0000000000
40
0.0000000000
40
0.0000000000
40
0.1410281680
40
0.2793720340
40
0.4118411820
40
0.5363759289
40
0.6497772069
40
0.7504831705
40
0.8358107888
40
0.9046047785
40
0.9551415459
40
0.9868319704
40
1.0000000000
40
1.0000000000
40
1.0000000000
40
1.0000000000
10
4.4830016048
20
-23.0427298811
30
0.0000000000
10
4.5066101348
20
-23.0427298811
30
0.0000000000
10
4.5533781346
20
-23.0429026137
30
0.0000000000
10
4.6223173991
20
-23.0436768996
30
0.0000000000
10
4.6884899233
20
-23.0449496832
30
0.0000000000
10
4.7504678614
20
-23.0466916339
30
0.0000000000
10
4.8071345623
20
-23.0488681037
30
0.0000000000
10
4.8571425931
20
-23.0514232661
30
0.0000000000
10
4.8998663520
20
-23.0543048635
30
0.0000000000
10
4.9335604915
20
-23.0574123808
30
0.0000000000
10
4.9596555100
20
-23.0606682096
30
0.0000000000
10
4.9734292225
20
-23.0637989854
30
0.0000000000
10
4.9827499287
20
-23.0665904151
30
0.0000000000
10
4.9829931432
20
-23.0687813236
30
0.0000000000
11
4.4830016048
21
-23.0427298811
31
0.0000000000
11
4.5538267020
21
-23.0429941008
31
0.0000000000
11
4.6232997373
21
-23.0437825991
31
0.0000000000
11
4.6898143278
21
-23.0450765145
31
0.0000000000
11
4.7523314450
21
-23.0468563795
31
0.0000000000
11
4.8092392889
21
-23.0490762029
31
0.0000000000
11
4.8597463069
21
-23.0517057602
31
0.0000000000
11
4.9024956013
21
-23.0546749260
31
0.0000000000
11
4.9368896898
21
-23.0579424205
31
0.0000000000
11
4.9620297327
21
-23.0614242549
31
0.0000000000
11
4.9775228597
21
-23.0650652642
31
0.0000000000
11
4.9829931432
21
-23.0687813236
31
0.0000000000
0
SPLINE
5
346
100
AcDbEntity
8
0
100
AcDbSpline
62
7
6
CONTINUOUS
70
0
71
3
72
17
73
13
74
11
42
0.0000001000
43
0.0000001000
44
0.0000000001
12
0.4499134171
22
0.0034689349
32
0.0000000000
13
0.3802575409
23
0.2404959853
33
0.0000000000
40
0.0000000000
40
0.0000000000
40
0.0000000000
40
0.0000000000
40
0.0745161516
40
0.1578620335
40
0.2489784530
40
0.3464791953
40
0.4490687639
40
0.5555830270
40
0.6649556765
40
0.7761688910
40
0.8882083217
40
1.0000000000
40
1.0000000000
40
1.0000000000
40
1.0000000000
10
-3.7102883322
20
-24.4904766273
30
0.0000000000
10
-3.6991130601
20
-24.4903904634
30
0.0000000000
10
-3.6754841283
20
-24.4868546862
30
0.0000000000
10
-3.6397753110
20
-24.4757688927
30
0.0000000000
10
-3.6020591667
20
-24.4601236123
30
0.0000000000
10
-3.5627776283
20
-24.4410033710
30
0.0000000000
10
-3.5222635788
20
-24.4192343973
30
0.0000000000
10
-3.4808254421
20
-24.3954726948
30
0.0000000000
10
-3.4387385296
20
-24.3702639560
30
0.0000000000
10
-3.3962718621
20
-24.3440868088
30
0.0000000000
10
-3.3537046149
20
-24.3173854324
30
0.0000000000
10
-3.3253335182
20
-24.2994418285
30
0.0000000000
10
-3.3111636419
20
-24.2904800119
30
0.0000000000
11
-3.7102883322
21
-24.4904766273
31
0.0000000000
11
-3.6770259458
21
-24.4862741484
31
0.0000000000
11
-3.6410785106
21
-24.4755971737
31
0.0000000000
11
-3.6031113230
21
-24.4601329708
31
0.0000000000
11
-3.5635949389
21
-24.4410837186
31
0.0000000000
11
-3.5228840582
21
-24.4193313334
31
0.0000000000
11
-3.4812733942
21
-24.3955568505
31
0.0000000000
11
-3.4390293387
21
-24.3703173402
31
0.0000000000
11
-3.3964117827
21
-24.3440966267
31
0.0000000000
11
-3.3536898139
21
-24.3173392867
31
0.0000000000
11
-3.3111636419
21
-24.2904800119
31
0.0000000000
0
SPLINE
5
347
100
AcDbEntity
8
0
100
AcDbSpline
62
7
6
CONTINUOUS
70
0
71
3
72
17
73
13
74
11
42
0.0000001000
43
0.0000001000
44
0.0000000001
12
-0.4499134171
22
0.0034689349
32
0.0000000000
13
-0.3802575409
23
0.2404959853
33
0.0000000000
40
0.0000000000
40
0.0000000000
40
0.0000000000
40
0.0000000000
40
0.0745161516
40
0.1578620335
40
0.2489784530
40
0.3464791953
40
0.4490687639
40
0.5555830270
40
0.6649556765
40
0.7761688910
40
0.8882083217
40
1.0000000000
40
1.0000000000
40
1.0000000000
40
1.0000000000
10
4.8821262951
20
-24.4904766273
30
0.0000000000
10
4.8709510230
20
-24.4903904634
30
0.0000000000
10
4.8473220912
20
-24.4868546862
30
0.0000000000
10
4.8116132739
20
-24.4757688927
30
0.0000000000
10
4.7738971296
20
-24.4601236123
30
0.0000000000
10
4.7346155912
20
-24.4410033710
30
0.0000000000
10
4.6941015417
20
-24.4192343973
30
0.0000000000
10
4.6526634050
20
-24.3954726948
30
0.0000000000
10
4.6105764924
20
-24.3702639560
30
0.0000000000
10
4.5681098249
20
-24.3440868088
30
0.0000000000
10
4.5255425778
20
-24.3173854324
30
0.0000000000
10
4.4971714810
20
-24.2994418285
30
0.0000000000
10
4.4830016048
20
-24.2904800119
30
0.0000000000
11
4.8821262951
21
-24.4904766273
31
0.0000000000
11
4.8488639086
21
-24.4862741484
31
0.0000000000
11
4.8129164735
21
-24.4755971737
31
0.0000000000
11
4.7749492859
21
-24.4601329708
31
0.0000000000
11
4.7354329017
21
-24.4410837186
31
0.0000000000
11
4.6947220211
21
-24.4193313334
31
0.0000000000
11
4.6531113570
21
-24.3955568505
31
0.0000000000
11
4.6108673015
21
-24.3703173402
31
0.0000000000
11
4.5682497456
21
-24.3440966267
31
0.0000000000
11
4.5255277768
21
-24.3173392867
31
0.0000000000
11
4.4830016048
21
-24.2904800119
31
0.0000000000
0
SPLINE
5
348
100
AcDbEntity
8
0
100
AcDbSpline
62
7
6
CONTINUOUS
70
0
71
3
72
18
73
14
74
12
42
0.0000001000
43
0.0000001000
44
0.0000000001
12
0.0554102302
22
0.4991426714
32
0.0000000000
13
0.5022088211
23
-0.0000000000
33
0.0000000000
40
0.0000000000
40
0.0000000000
40
0.0000000000
40
0.0000000000
40
0.0131680296
40
0.0448584541
40
0.0953952215
40
0.1641892112
40
0.2495168295
40
0.3502227931
40
0.4636240711
40
0.5881588180
40
0.7206279660
40
0.8589718320
40
1.0000000000
40
1.0000000000
40
1.0000000000
40
1.0000000000
10
-3.8111551804
20
-23.0687813236
30
0.0000000000
10
-3.8109119659
20
-23.0665904151
30
0.0000000000
10
-3.8015912596
20
-23.0637989854
30
0.0000000000
10
-3.7878175471
20
-23.0606682096
30
0.0000000000
10
-3.7617225287
20
-23.0574123808
30
0.0000000000
10
-3.7280283891
20
-23.0543048635
30
0.0000000000
10
-3.6853046302
20
-23.0514232661
30
0.0000000000
10
-3.6352965994
20
-23.0488681037
30
0.0000000000
10
-3.5786298985
20
-23.0466916339
30
0.0000000000
10
-3.5166519604
20
-23.0449496832
30
0.0000000000
10
-3.4504794363
20
-23.0436768996
30
0.0000000000
10
-3.3815401717
20
-23.0429026137
30
0.0000000000
10
-3.3347721720
20
-23.0427298811
30
0.0000000000
10
-3.3111636419
20
-23.0427298811
30
0.0000000000
11
-3.8111551804
21
-23.0687813236
31
0.0000000000
11
-3.8056848968
21
-23.0650652642
31
0.0000000000
11
-3.7901917698
21
-23.0614242549
31
0.0000000000
11
-3.7650517269
21
-23.0579424205
31
0.0000000000
11
-3.7306576385
21
-23.0546749260
31
0.0000000000
11
-3.6879083440
21
-23.0517057602
31
0.0000000000
11
-3.6374013260
21
-23.0490762029
31
0.0000000000
11
-3.5804934821
21
-23.0468563795
31
0.0000000000
11
-3.5179763650
21
-23.0450765145
31
0.0000000000
11
-3.4514617745
21
-23.0437825991
31
0.0000000000
11
-3.3819887391
21
-23.0429941008
31
0.0000000000
11
-3.3111636419
21
-23.0427298811
31
0.0000000000
0
SPLINE
5
349
100
AcDbEntity
8
0
100
AcDbSpline
62
7
6
CONTINUOUS
70
0
71
3
72
15
73
11
74
9
42
0.0000001000
43
0.0000001000
44
0.0000000001
12
-0.1008939615
22
-0.0007779154
32
0.0000000000
13
-0.0713449249
23
-0.0713449249
33
0.0000000000
40
0.0000000000
40
0.0000000000
40
0.0000000000
40
0.0000000000
40
0.2260892411
40
0.4253808137
40
0.5965983414
40
0.7386457856
40
0.8506149034
40
0.9317923900
40
0.9816698927
40
1.0000000000
40
1.0000000000
40
1.0000000000
40
1.0000000000
10
-3.7102883322
20
-24.4904766273
30
0.0000000000
10
-3.7178920120
20
-24.4905352534
30
0.0000000000
10
-3.7321970554
20
-24.4906558217
30
0.0000000000
10
-3.7522649930
20
-24.4908475703
30
0.0000000000
10
-3.7694908153
20
-24.4910732251
30
0.0000000000
10
-3.7838230592
20
-24.4912301366
30
0.0000000000
10
-3.7950103373
20
-24.4915884231
30
0.0000000000
10
-3.8033753145
20
-24.4914696588
30
0.0000000000
10
-3.8080435271
20
-24.4922695515
30
0.0000000000
10
-3.8107192603
20
-24.4917759022
30
0.0000000000
10
-3.8111551804
20
-24.4922118222
30
0.0000000000
11
-3.7102883322
21
-24.4904766273
31
0.0000000000
11
-3.7330992469
21
-24.4906679795
31
0.0000000000
11
-3.7532061526
21
-24.4908693337
31
0.0000000000
11
-3.7704802035
21
-24.4910793995
31
0.0000000000
11
-3.7848107094
21
-24.4912968306
31
0.0000000000
11
-3.7961058440
21
-24.4915202337
31
0.0000000000
11
-3.8042932332
21
-24.4917481771
31
0.0000000000
11
-3.8093204161
21
-24.4919792001
31
0.0000000000
11
-3.8111551804
21
-24.4922118222
31
0.0000000000
0
SPLINE
5
34A
100
AcDbEntity
8
0
100
AcDbSpline
62
7
6
CONTINUOUS
70
0
71
3
72
17
73
13
74
11
42
0.0000001000
43
0.0000001000
44
0.0000000001
12
0.2510857530
22
0.0000000000
32
0.0000000000
13
0.0277030565
23
-0.2495527920
33
0.0000000000
40
0.0000000000
40
0.0000000000
40
0.0000000000
40
0.0000000000
40
0.1549465915
40
0.3066077184
40
0.4500385161
40
0.5832916086
40
0.7019697891
40
0.8036101933
40
0.8859945116
40
0.9465396989
40
0.9846077217
40
1.0000000000
40
1.0000000000
40
1.0000000000
40
1.0000000000
10
10.9786424633
20
-23.0165259915
30
0.0000000000
10
10.9916107572
20
-23.0165259915
30
0.0000000000
10
11.0172722616
20
-23.0166300266
30
0.0000000000
10
11.0549369243
20
-23.0170957739
30
0.0000000000
10
11.0907763428
20
-23.0178595629
30
0.0000000000
10
11.1238619502
20
-23.0188979272
30
0.0000000000
10
11.1533914868
20
-23.0201893844
30
0.0000000000
10
11.1787881406
20
-23.0216811001
30
0.0000000000
10
11.1989082885
20
-23.0233604111
30
0.0000000000
10
11.2146324511
20
-23.0250654680
30
0.0000000000
10
11.2227683788
20
-23.0268704653
30
0.0000000000
10
11.2284960948
20
-23.0282713174
30
0.0000000000
10
11.2286382325
20
-23.0295517127
30
0.0000000000
11
10.9786424633
21
-23.0165259915
31
0.0000000000
11
11.0175470175
21
-23.0166856089
31
0.0000000000
11
11.0556239781
21
-23.0171626112
31
0.0000000000
11
11.0916290077
21
-23.0179404092
31
0.0000000000
11
11.1250699067
21
-23.0190085368
31
0.0000000000
11
11.1548388513
21
-23.0203331492
31
0.0000000000
11
11.1803120940
21
-23.0218848115
31
0.0000000000
11
11.2009237331
21
-23.0236316442
31
0.0000000000
11
11.2160085819
21
-23.0255155697
31
0.0000000000
11
11.2253563960
21
-23.0275106131
31
0.0000000000
11
11.2286382325
21
-23.0295517127
31
0.0000000000
0
SPLINE
5
34B
100
AcDbEntity
8
0
100
AcDbSpline
62
9
6
CONTINUOUS
70
0
71
3
72
16
73
12
74
10
42
0.0000001000
43
0.0000001000
44
0.0000000001
12
-0.1483475533
22
-0.4459131707
32
0.0000000000
13
-0.1466851140
23
-0.4464627977
33
0.0000000000
40
0.0000000000
40
0.0000000000
40
0.0000000000
40
0.0000000000
40
0.0982773526
40
0.1876482259
40
0.2781671500
40
0.3828273821
40
0.5070491167
40
0.6415944175
40
0.7714092991
40
0.8898449821
40
1.0000000000
40
1.0000000000
40
1.0000000000
40
1.0000000000
10
11.7184968911
20
21.2547601811
30
0.0000000000
10
11.7136371562
20
21.2401524591
30
0.0000000000
10
11.7044174538
20
21.2122409131
30
0.0000000000
10
11.6904292455
20
21.1709731404
30
0.0000000000
10
11.6766464674
20
21.1285801011
30
0.0000000000
10
11.6624749705
20
21.0805894908
30
0.0000000000
10
11.6474804757
20
21.0256681867
30
0.0000000000
10
11.6318467299
20
20.9668398224
30
0.0000000000
10
11.6162980062
20
20.9089270851
30
0.0000000000
10
11.6011695226
20
20.8548564824
30
0.0000000000
10
11.5905048250
20
20.8206661667
30
0.0000000000
10
11.5851187912
20
20.8042727942
30
0.0000000000
11
11.7184968911
21
21.2547601811
31
0.0000000000
11
11.7039204471
21
21.2109360968
31
0.0000000000
11
11.6905691164
21
21.1711156349
31
0.0000000000
11
11.6775022115
21
21.1306336289
31
0.0000000000
11
11.6634917518
21
21.0834870795
31
0.0000000000
11
11.6479675809
21
21.0272120715
31
0.0000000000
11
11.6316299785
21
20.9661307678
31
0.0000000000
11
11.6157277493
21
20.9072343584
31
0.0000000000
11
11.6005473185
21
20.8536866458
31
0.0000000000
11
11.5851187912
21
20.8042727942
31
0.0000000000
0
SPLINE
5
34C
100
AcDbEntity
8
0
100
AcDbSpline
62
7
6
CONTINUOUS
70
0
71
3
72
27
73
23
74
21
42
0.0000001000
43
0.0000001000
44
0.0000000001
12
0.3011232217
22
0.6437748794
32
0.0000000000
13
0.5024192106
23
0.5026889962
33
0.0000000000
40
0.0000000000
40
0.0000000000
40
0.0000000000
40
0.0000000000
40
0.0065057961
40
0.0224052617
40
0.0465315600
40
0.0777477153
40
0.1150239116
40
0.1574660949
40
0.2043107072
40
0.2549173207
40
0.3087371102
40
0.3652928233
40
0.4241616838
40
0.4849609859
40
0.5473354154
40
0.6109460878
40
0.6754609620
40
0.7405567414
40
0.8059032692
40
0.8711617394
40
0.9359815433
40
1.0000000000
40
1.0000000000
40
1.0000000000
40
1.0000000000
10
6.7453628614
20
4.0143308638
30
0.0000000000
10
6.7460158768
20
4.0157269532
30
0.0000000000
10
6.7501810163
20
4.0193098885
30
0.0000000000
10
6.7572730053
20
4.0275945644
30
0.0000000000
10
6.7692441796
20
4.0395934120
30
0.0000000000
10
6.7844535905
20
4.0553702231
30
0.0000000000
10
6.8028762568
20
4.0741272807
30
0.0000000000
10
6.8238829099
20
4.0955174452
30
0.0000000000
10
6.8471504031
20
4.1191195613
30
0.0000000000
10
6.8723320846
20
4.1446177073
30
0.0000000000
10
6.8991547058
20
4.1717292646
30
0.0000000000
10
6.9273736041
20
4.2002126837
30
0.0000000000
10
6.9567742562
20
4.2298529162
30
0.0000000000
10
6.9871619040
20
4.2604557249
30
0.0000000000
10
7.0183560582
20
4.2918407972
30
0.0000000000
10
7.0501846817
20
4.3238363225
30
0.0000000000
10
7.0824811287
20
4.3562758350
30
0.0000000000
10
7.1150802018
20
4.3889943443
30
0.0000000000
10
7.1478155967
20
4.4218257020
30
0.0000000000
10
7.1805162650
20
4.4545993542
30
0.0000000000
10
7.2130062147
20
4.4871387948
30
0.0000000000
10
7.2345791372
20
4.5087313346
30
0.0000000000
10
7.2453005047
20
4.5194584592
30
0.0000000000
11
6.7453628614
21
4.0143308638
31
0.0000000000
11
6.7483714717
21
4.0178419485
31
0.0000000000
11
6.7561178052
21
4.0260690651
31
0.0000000000
11
6.7680126527
21
4.0384194793
31
0.0000000000
11
6.7834847938
21
4.0543200282
31
0.0000000000
11
6.8020167823
21
4.0732525113
31
0.0000000000
11
6.8231591678
21
4.0947674870
31
0.0000000000
11
6.8465279454
21
4.1184813507
31
0.0000000000
11
6.8718009067
21
4.1440725185
31
0.0000000000
11
6.8987018942
21
4.1712654572
31
0.0000000000
11
6.9269907571
21
4.1998205841
31
0.0000000000
11
6.9564547673
21
4.2295256597
31
0.0000000000
11
6.9869013802
21
4.2601885438
31
0.0000000000
11
7.0181518587
21
4.2916308253
31
0.0000000000
11
7.0500357562
21
4.3236823192
31
0.0000000000
11
7.0823860880
21
4.3561762603
31
0.0000000000
11
7.1150402631
21
4.3889502799
31
0.0000000000
11
7.1478322397
21
4.4218385664
31
0.0000000000
11
7.1805916089
21
4.4546709829
31
0.0000000000
11
7.2131420285
21
4.4872714632
31
0.0000000000
11
7.2453005047
21
4.5194584592
31
0.0000000000
0
SPLINE
5
34D
100
AcDbEntity
8
0
100
AcDbSpline
62
7
6
CONTINUOUS
70
0
71
3
72
27
73
23
74
21
42
0.0000001000
43
0.0000001000
44
0.0000000001
12
-0.3011232217
22
0.6437748794
32
0.0000000000
13
-0.5024192106
23
0.5026889962
33
0.0000000000
40
0.0000000000
40
0.0000000000
40
0.0000000000
40
0.0000000000
40
0.0065057962
40
0.0224052621
40
0.0465315606
40
0.0777477161
40
0.1150239125
40
0.1574660958
40
0.2043107080
40
0.2549173213
40
0.3087371106
40
0.3652928234
40
0.4241616835
40
0.4849609852
40
0.5473354144
40
0.6109460865
40
0.6754609606
40
0.7405567399
40
0.8059032678
40
0.8711617383
40
0.9359815427
40
1.0000000000
40
1.0000000000
40
1.0000000000
40
1.0000000000
10
-5.5735248985
20
4.0143308638
30
0.0000000000
10
-5.5741779139
20
4.0157269532
30
0.0000000000
10
-5.5783430535
20
4.0193098886
30
0.0000000000
10
-5.5854350426
20
4.0275945646
30
0.0000000000
10
-5.5974062170
20
4.0395934122
30
0.0000000000
10
-5.6126156280
20
4.0553702235
30
0.0000000000
10
-5.6310382943
20
4.0741272811
30
0.0000000000
10
-5.6520449474
20
4.0955174457
30
0.0000000000
10
-5.6753124406
20
4.1191195617
30
0.0000000000
10
-5.7004941220
20
4.1446177076
30
0.0000000000
10
-5.7273167431
20
4.1717292648
30
0.0000000000
10
-5.7555356413
20
4.2002126837
30
0.0000000000
10
-5.7849362931
20
4.2298529160
30
0.0000000000
10
-5.8153239408
20
4.2604557246
30
0.0000000000
10
-5.8465180948
20
4.2918407967
30
0.0000000000
10
-5.8783467182
20
4.3238363219
30
0.0000000000
10
-5.9106431651
20
4.3562758343
30
0.0000000000
10
-5.9432422381
20
4.3889943436
30
0.0000000000
10
-5.9759776332
20
4.4218257013
30
0.0000000000
10
-6.0086783016
20
4.4545993537
30
0.0000000000
10
-6.0411682515
20
4.4871387945
30
0.0000000000
10
-6.0627411742
20
4.5087313345
30
0.0000000000
10
-6.0734625418
20
4.5194584592
30
0.0000000000
11
-5.5735248985
21
4.0143308638
31
0.0000000000
11
-5.5765335089
21
4.0178419486
31
0.0000000000
11
-5.5842798425
21
4.0260690653
31
0.0000000000
11
-5.5961746901
21
4.0384194796
31
0.0000000000
11
-5.6116468313
21
4.0543200286
31
0.0000000000
11
-5.6301788199
21
4.0732525118
31
0.0000000000
11
-5.6513212053
21
4.0947674875
31
0.0000000000
11
-5.6746899829
21
4.1184813511
31
0.0000000000
11
-5.6999629441
21
4.1440725188
31
0.0000000000
11
-5.7268639315
21
4.1712654574
31
0.0000000000
11
-5.7551527943
21
4.1998205841
31
0.0000000000
11
-5.7846168043
21
4.2295256595
31
0.0000000000
11
-5.8150634170
21
4.2601885435
31
0.0000000000
11
-5.8463138953
21
4.2916308247
31
0.0000000000
11
-5.8781977927
21
4.3236823186
31
0.0000000000
11
-5.9105481244
21
4.3561762596
31
0.0000000000
11
-5.9432022994
21
4.3889502791
31
0.0000000000
11
-5.9759942762
21
4.4218385657
31
0.0000000000
11
-6.0087536454
21
4.4546709823
31
0.0000000000
11
-6.0413040653
21
4.4872714628
31
0.0000000000
11
-6.0734625418
21
4.5194584592
31
0.0000000000
0
SPLINE
5
34E
100
AcDbEntity
8
0
100
AcDbSpline
62
7
6
CONTINUOUS
70
0
71
3
72
27
73
23
74
21
42
0.0000001000
43
0.0000001000
44
0.0000000001
12
-0.3422528144
22
-0.6217659851
32
0.0000000000
13
-0.5017265580
23
-0.5019964045
33
0.0000000000
40
0.0000000000
40
0.0000000000
40
0.0000000000
40
0.0000000000
40
0.0063647105
40
0.0221484490
40
0.0461795651
40
0.0773193091
40
0.1145363651
40
0.1569352801
40
0.2037512150
40
0.2543425905
40
0.3081595656
40
0.3647239906
40
0.4236122904
40
0.4844410386
40
0.5468542583
40
0.6105124400
40
0.6750829364
40
0.7402418533
40
0.8056584207
40
0.8709931886
40
0.9358948583
40
1.0000000000
40
1.0000000000
40
1.0000000000
40
1.0000000000
10
-5.5736229673
20
-4.0046923046
30
0.0000000000
10
-5.5743490807
20
-4.0060114248
30
0.0000000000
10
-5.5784103032
20
-4.0095224187
30
0.0000000000
10
-5.5855781716
20
-4.0176625665
30
0.0000000000
10
-5.5975026080
20
-4.0295468072
30
0.0000000000
10
-5.6127267112
20
-4.0452036943
30
0.0000000000
10
-5.6311426014
20
-4.0638527154
30
0.0000000000
10
-5.6521507760
20
-4.0851413387
30
0.0000000000
10
-5.6754176401
20
-4.1086504165
30
0.0000000000
10
-5.7005996693
20
-4.1340633293
30
0.0000000000
10
-5.7274225447
20
-4.1610974896
30
0.0000000000
10
-5.7556418552
20
-4.1895111191
30
0.0000000000
10
-5.7850429623
20
-4.2190890122
30
0.0000000000
10
-5.8154311139
20
-4.2496367636
30
0.0000000000
10
-5.8466258003
20
-4.2809739095
30
0.0000000000
10
-5.8784549772
20
-4.3129284958
30
0.0000000000
10
-5.9107519892
20
-4.3453339195
30
0.0000000000
10
-5.9433516374
20
-4.3780250443
30
0.0000000000
10
-5.9760875886
20
-4.4108355933
30
0.0000000000
10
-6.0087888594
20
-4.4435947713
30
0.0000000000
10
-6.0412791384
20
-4.4761261841
30
0.0000000000
10
-6.0628517533
20
-4.4977159342
30
0.0000000000
10
-6.0735728373
20
-4.5084427844
30
0.0000000000
11
-5.5736229673
21
-4.0046923046
31
0.0000000000
11
-5.5766317151
21
-4.0080617711
31
0.0000000000
11
-5.5843783769
21
-4.0161538447
31
0.0000000000
11
-5.5962736948
21
-4.0283768844
31
0.0000000000
11
-5.6117464045
21
-4.0441583270
31
0.0000000000
11
-5.6302790247
21
-4.0629802019
31
0.0000000000
11
-5.6514220795
21
-4.0843930580
31
0.0000000000
11
-5.6747915467
21
-4.1080131530
31
0.0000000000
11
-5.7000652067
21
-4.1335186907
31
0.0000000000
11
-5.7269668951
21
-4.1606339158
31
0.0000000000
11
-5.7552564571
21
-4.1891190314
31
0.0000000000
11
-5.7847211621
21
-4.2187615997
31
0.0000000000
11
-5.8151684641
21
-4.2493693005
31
0.0000000000
11
-5.8464196253
21
-4.2807635599
31
0.0000000000
11
-5.8783041983
21
-4.3127740439
31
0.0000000000
11
-5.9106551970
21
-4.3452338461
31
0.0000000000
11
-5.9433100285
21
-4.3779804537
31
0.0000000000
11
-5.9761026462
21
-4.4108479065
31
0.0000000000
11
-6.0088626298
21
-4.4436659065
31
0.0000000000
11
-6.0414135907
21
-4.4762582310
31
0.0000000000
11
-6.0735728373
21
-4.5084427844
31
0.0000000000
0
SPLINE
5
34F
100
AcDbEntity
8
0
100
AcDbSpline
62
7
6
CONTINUOUS
70
0
71
3
72
27
73
23
74
21
42
0.0000001000
43
0.0000001000
44
0.0000000001
12
-0.3422528144
22
-0.6217659851
32
0.0000000000
13
-0.5017265580
23
-0.5019964045
33
0.0000000000
40
0.0000000000
40
0.0000000000
40
0.0000000000
40
0.0000000000
40
0.0063647105
40
0.0221484491
40
0.0461795653
40
0.0773193093
40
0.1145363654
40
0.1569352804
40
0.2037512153
40
0.2543425907
40
0.3081595657
40
0.3647239906
40
0.4236122903
40
0.4844410384
40
0.5468542579
40
0.6105124396
40
0.6750829359
40
0.7402418528
40
0.8056584202
40
0.8709931882
40
0.9358948581
40
1.0000000000
40
1.0000000000
40
1.0000000000
40
1.0000000000
10
-2.7736229673
20
-4.0046923046
30
0.0000000000
10
-2.7743490807
20
-4.0060114248
30
0.0000000000
10
-2.7784103032
20
-4.0095224187
30
0.0000000000
10
-2.7855781717
20
-4.0176625665
30
0.0000000000
10
-2.7975026080
20
-4.0295468073
30
0.0000000000
10
-2.8127267113
20
-4.0452036945
30
0.0000000000
10
-2.8311426015
20
-4.0638527155
30
0.0000000000
10
-2.8521507762
20
-4.0851413388
30
0.0000000000
10
-2.8754176402
20
-4.1086504166
30
0.0000000000
10
-2.9005996694
20
-4.1340633294
30
0.0000000000
10
-2.9274225448
20
-4.1610974896
30
0.0000000000
10
-2.9556418552
20
-4.1895111191
30
0.0000000000
10
-2.9850429622
20
-4.2190890121
30
0.0000000000
10
-3.0154311137
20
-4.2496367635
30
0.0000000000
10
-3.0466258001
20
-4.2809739093
30
0.0000000000
10
-3.0784549770
20
-4.3129284956
30
0.0000000000
10
-3.1107519890
20
-4.3453339193
30
0.0000000000
10
-3.1433516372
20
-4.3780250440
30
0.0000000000
10
-3.1760875884
20
-4.4108355931
30
0.0000000000
10
-3.2087888592
20
-4.4435947711
30
0.0000000000
10
-3.2412791383
20
-4.4761261840
30
0.0000000000
10
-3.2628517533
20
-4.4977159342
30
0.0000000000
10
-3.2735728373
20
-4.5084427844
30
0.0000000000
11
-2.7736229673
21
-4.0046923046
31
0.0000000000
11
-2.7766317152
21
-4.0080617711
31
0.0000000000
11
-2.7843783770
21
-4.0161538448
31
0.0000000000
11
-2.7962736948
21
-4.0283768844
31
0.0000000000
11
-2.8117464046
21
-4.0441583271
31
0.0000000000
11
-2.8302790249
21
-4.0629802021
31
0.0000000000
11
-2.8514220797
21
-4.0843930581
31
0.0000000000
11
-2.8747915468
21
-4.1080131532
31
0.0000000000
11
-2.9000652068
21
-4.1335186908
31
0.0000000000
11
-2.9269668952
21
-4.1606339159
31
0.0000000000
11
-2.9552564571
21
-4.1891190314
31
0.0000000000
11
-2.9847211620
21
-4.2187615997
31
0.0000000000
11
-3.0151684640
21
-4.2493693004
31
0.0000000000
11
-3.0464196251
21
-4.2807635597
31
0.0000000000
11
-3.0783041981
21
-4.3127740437
31
0.0000000000
11
-3.1106551968
21
-4.3452338458
31
0.0000000000
11
-3.1433100282
21
-4.3779804535
31
0.0000000000
11
-3.1761026460
21
-4.4108479063
31
0.0000000000
11
-3.2088626296
21
-4.4436659063
31
0.0000000000
11
-3.2414135906
21
-4.4762582309
31
0.0000000000
11
-3.2735728373
21
-4.5084427844
31
0.0000000000
0
SPLINE
5
350
100
AcDbEntity
8
0
100
AcDbSpline
62
7
6
CONTINUOUS
70
0
71
3
72
27
73
23
74
21
42
0.0000001000
43
0.0000001000
44
0.0000000001
12
-0.2959601676
22
-0.6463187843
32
0.0000000000
13
-0.5025184113
23
-0.5027878659
33
0.0000000000
40
0.0000000000
40
0.0000000000
40
0.0000000000
40
0.0000000000
40
0.0065261309
40
0.0224421824
40
0.0465820970
40
0.0778091712
40
0.1150938102
40
0.1575421634
40
0.2043908577
40
0.2549996311
40
0.3088198043
40
0.3653742538
40
0.4242403177
40
0.4850353938
40
0.5474042627
40
0.6110081293
40
0.6755150396
40
0.7406017822
40
0.8059382883
40
0.8711858439
40
0.9359939391
40
1.0000000000
40
1.0000000000
40
1.0000000000
40
1.0000000000
10
-2.7735080935
20
-5.6045914072
30
0.0000000000
10
-2.7741519185
20
-5.6059973942
30
0.0000000000
10
-2.7783290621
20
-5.6095928097
30
0.0000000000
10
-2.7854127120
20
-5.6178963271
30
0.0000000000
10
-2.7973892689
20
-5.6299124932
30
0.0000000000
10
-2.8125971009
20
-5.6457060571
30
0.0000000000
10
-2.8310205509
20
-5.6644786711
30
0.0000000000
10
-2.8520270470
20
-5.6858832862
30
0.0000000000
10
-2.8752946112
20
-5.7094986928
30
0.0000000000
10
-2.9004762486
20
-5.7350089953
30
0.0000000000
10
-2.9272988318
20
-5.7621315937
30
0.0000000000
10
-2.9555176717
20
-5.7906249647
30
0.0000000000
10
-2.9849182585
20
-5.8202740843
30
0.0000000000
10
-3.0153058343
20
-5.8508847392
30
0.0000000000
10
-3.0464999123
20
-5.8822766385
30
0.0000000000
10
-3.0783284566
20
-5.9142779922
30
0.0000000000
10
-3.1106248226
20
-5.9467223543
30
0.0000000000
10
-3.1432238132
20
-5.9794447552
30
0.0000000000
10
-3.1759591272
20
-6.0122790663
30
0.0000000000
10
-3.2086597109
20
-6.0450547640
30
0.0000000000
10
-3.2411495989
20
-6.0775953454
30
0.0000000000
10
-3.2627225822
20
-6.0991882532
30
0.0000000000
10
-3.2734439902
20
-6.1099154101
30
0.0000000000
11
-2.7735080935
21
-5.6045914072
31
0.0000000000
11
-2.7765166840
21
-5.6081227205
31
0.0000000000
11
-2.7842629704
21
-5.6163691234
31
0.0000000000
11
-2.7961577504
21
-5.6287377258
31
0.0000000000
11
-2.8116298103
21
-5.6446552797
31
0.0000000000
11
-2.8301617084
21
-5.6636035518
31
0.0000000000
11
-2.8513039982
21
-5.6851331022
31
0.0000000000
11
-2.8746726772
21
-5.7088603464
31
0.0000000000
11
-2.8999455386
21
-5.7344637308
31
0.0000000000
11
-2.9268464260
21
-5.7616677542
31
0.0000000000
11
-2.9551351890
21
-5.7902328646
31
0.0000000000
11
-2.9845990999
21
-5.8199468511
31
0.0000000000
11
-3.0150456142
21
-5.8506175991
31
0.0000000000
11
-3.0462959950
21
-5.8820667210
31
0.0000000000
11
-3.0781797958
21
-5.9141240534
31
0.0000000000
11
-3.1105300320
21
-5.9466228512
31
0.0000000000
11
-3.1431841129
21
-5.9794007664
31
0.0000000000
11
-3.1759759972
21
-6.0122920091
31
0.0000000000
11
-3.2087352768
21
-6.0451264659
31
0.0000000000
11
-3.2412856139
21
-6.0777280959
31
0.0000000000
11
-3.2734439902
21
-6.1099154101
31
0.0000000000
0
SPLINE
5
351
100
AcDbEntity
8
0
100
AcDbSpline
62
7
6
CONTINUOUS
70
0
71
3
72
27
73
23
74
21
42
0.0000001000
43
0.0000001000
44
0.0000000001
12
-0.2959601676
22
-0.6463187843
32
0.0000000000
13
-0.5025184113
23
-0.5027878659
33
0.0000000000
40
0.0000000000
40
0.0000000000
40
0.0000000000
40
0.0000000000
40
0.0065261310
40
0.0224421828
40
0.0465820976
40
0.0778091720
40
0.1150938112
40
0.1575421643
40
0.2043908585
40
0.2549996318
40
0.3088198047
40
0.3653742538
40
0.4242403174
40
0.4850353930
40
0.5474042616
40
0.6110081279
40
0.6755150380
40
0.7406017806
40
0.8059382869
40
0.8711858427
40
0.9359939384
40
1.0000000000
40
1.0000000000
40
1.0000000000
40
1.0000000000
10
-1.7235080935
20
-5.6045914072
30
0.0000000000
10
-1.7241519185
20
-5.6059973942
30
0.0000000000
10
-1.7283290622
20
-5.6095928098
30
0.0000000000
10
-1.7354127122
20
-5.6178963273
30
0.0000000000
10
-1.7473892692
20
-5.6299124934
30
0.0000000000
10
-1.7625971013
20
-5.6457060575
30
0.0000000000
10
-1.7810205514
20
-5.6644786715
30
0.0000000000
10
-1.8020270475
20
-5.6858832867
30
0.0000000000
10
-1.8252946116
20
-5.7094986932
30
0.0000000000
10
-1.8504762489
20
-5.7350089956
30
0.0000000000
10
-1.8772988320
20
-5.7621315939
30
0.0000000000
10
-1.9055176717
20
-5.7906249647
30
0.0000000000
10
-1.9349182583
20
-5.8202740841
30
0.0000000000
10
-1.9653058340
20
-5.8508847388
30
0.0000000000
10
-1.9964999118
20
-5.8822766379
30
0.0000000000
10
-2.0283284559
20
-5.9142779915
30
0.0000000000
10
-2.0606248218
20
-5.9467223535
30
0.0000000000
10
-2.0932238124
20
-5.9794447545
30
0.0000000000
10
-2.1259591265
20
-6.0122790656
30
0.0000000000
10
-2.1586597103
20
-6.0450547634
30
0.0000000000
10
-2.1911495986
20
-6.0775953451
30
0.0000000000
10
-2.2127225821
20
-6.0991882531
30
0.0000000000
10
-2.2234439902
20
-6.1099154101
30
0.0000000000
11
-1.7235080935
21
-5.6045914072
31
0.0000000000
11
-1.7265166840
21
-5.6081227205
31
0.0000000000
11
-1.7342629706
21
-5.6163691235
31
0.0000000000
11
-1.7461577507
21
-5.6287377261
31
0.0000000000
11
-1.7616298106
21
-5.6446552801
31
0.0000000000
11
-1.7801617089
21
-5.6636035522
31
0.0000000000
11
-1.8013039986
21
-5.6851331027
31
0.0000000000
11
-1.8246726777
21
-5.7088603468
31
0.0000000000
11
-1.8499455390
21
-5.7344637311
31
0.0000000000
11
-1.8768464261
21
-5.7616677544
31
0.0000000000
11
-1.9051351890
21
-5.7902328646
31
0.0000000000
11
-1.9345990997
21
-5.8199468509
31
0.0000000000
11
-1.9650456138
21
-5.8506175988
31
0.0000000000
11
-1.9962959945
21
-5.8820667205
31
0.0000000000
11
-2.0281797951
21
-5.9141240527
31
0.0000000000
11
-2.0605300313
21
-5.9466228504
31
0.0000000000
11
-2.0931841121
21
-5.9794007656
31
0.0000000000
11
-2.1259759964
21
-6.0122920083
31
0.0000000000
11
-2.1587352762
21
-6.0451264653
31
0.0000000000
11
-2.1912856136
21
-6.0777280955
31
0.0000000000
11
-2.2234439902
21
-6.1099154101
31
0.0000000000
0
SPLINE
5
352
100
AcDbEntity
8
0
100
AcDbSpline
62
7
6
CONTINUOUS
70
0
71
3
72
27
73
23
74
21
42
0.0000001000
43
0.0000001000
44
0.0000000001
12
-0.2680891360
22
-0.6592760514
32
0.0000000000
13
-0.5031148966
23
-0.5033806687
33
0.0000000000
40
0.0000000000
40
0.0000000000
40
0.0000000000
40
0.0000000000
40
0.0066490296
40
0.0226648695
40
0.0468865794
40
0.0781791827
40
0.1155144486
40
0.1579997639
40
0.2048728756
40
0.2554945227
40
0.3093169056
40
0.3658636765
40
0.4247128633
40
0.4854824852
40
0.5478178941
40
0.6113808327
40
0.6758398694
40
0.7408723065
40
0.8061486027
40
0.8713305974
40
0.9360683735
40
1.0000000000
40
1.0000000000
40
1.0000000000
40
1.0000000000
10
-1.7233925890
20
-6.8044897508
30
0.0000000000
10
-1.7239867666
20
-6.8059509328
30
0.0000000000
10
-1.7282236070
20
-6.8096292663
30
0.0000000000
10
-1.7352679518
20
-6.8180394440
30
0.0000000000
10
-1.7472712766
20
-6.8301628812
30
0.0000000000
10
-1.7624718501
20
-6.8460556169
30
0.0000000000
10
-1.7808992186
20
-6.8649219844
30
0.0000000000
10
-1.8019050286
20
-6.8864130880
30
0.0000000000
10
-1.8251729372
20
-6.9101082112
30
0.0000000000
10
-1.8503543340
20
-6.9356913567
30
0.0000000000
10
-1.8771766810
20
-6.9628801183
30
0.0000000000
10
-1.9053951713
20
-6.9914331063
30
0.0000000000
10
-1.9347953654
20
-7.0211354524
30
0.0000000000
10
-1.9651825082
20
-7.0517930838
30
0.0000000000
10
-1.9963761276
20
-7.0832258424
30
0.0000000000
10
-2.0282041949
20
-7.1152620619
30
0.0000000000
10
-2.0605000715
20
-7.1477354172
30
0.0000000000
10
-2.0930985656
20
-7.1804810611
30
0.0000000000
10
-2.1258333805
20
-7.2133329964
30
0.0000000000
10
-2.1585334695
20
-7.2461208450
30
0.0000000000
10
-2.1910228663
20
-7.2786682836
30
0.0000000000
10
-2.2125963554
20
-7.3002631866
30
0.0000000000
10
-2.2233180066
20
-7.3109905016
30
0.0000000000
11
-1.7233925890
21
-6.8044897508
31
0.0000000000
11
-1.7264010587
21
-6.8081424221
31
0.0000000000
11
-1.7341470614
21
-6.8165045143
31
0.0000000000
11
-1.7460414362
21
-6.8289822044
31
0.0000000000
11
-1.7615130071
21
-6.8450017341
31
0.0000000000
11
-1.7800443625
21
-6.8640446770
31
0.0000000000
11
-1.8011860773
21
-6.8856616045
31
0.0000000000
11
-1.8245541643
21
-6.9094690523
31
0.0000000000
11
-1.8498264258
21
-6.9351456514
31
0.0000000000
11
-1.8767267113
21
-6.9624160929
31
0.0000000000
11
-1.9050148740
21
-6.9910410101
31
0.0000000000
11
-1.9344781881
21
-7.0208083632
31
0.0000000000
11
-1.9649241101
21
-7.0515261939
31
0.0000000000
11
-1.9961739035
21
-7.0830162552
31
0.0000000000
11
-2.0280571223
21
-7.1151085131
31
0.0000000000
11
-2.0604067824
21
-7.1476363450
31
0.0000000000
11
-2.0930602938
21
-7.1804375289
31
0.0000000000
11
-2.1258516167
21
-7.2133464058
31
0.0000000000
11
-2.1586103453
21
-7.2461930092
31
0.0000000000
11
-2.1911601439
21
-7.2788014710
31
0.0000000000
11
-2.2233180066
21
-7.3109905016
31
0.0000000000
0
SPLINE
5
353
100
AcDbEntity
8
0
100
AcDbSpline
62
7
6
CONTINUOUS
70
0
71
3
72
27
73
23
74
21
42
0.0000001000
43
0.0000001000
44
0.0000000001
12
0.2680891360
22
-0.6592760514
32
0.0000000000
13
0.5031148966
23
-0.5033806687
33
0.0000000000
40
0.0000000000
40
0.0000000000
40
0.0000000000
40
0.0000000000
40
0.0066490297
40
0.0226648698
40
0.0468865799
40
0.0781791835
40
0.1155144495
40
0.1579997648
40
0.2048728764
40
0.2554945233
40
0.3093169060
40
0.3658636766
40
0.4247128630
40
0.4854824845
40
0.5478178930
40
0.6113808314
40
0.6758398679
40
0.7408723050
40
0.8061486013
40
0.8713305962
40
0.9360683728
40
1.0000000000
40
1.0000000000
40
1.0000000000
40
1.0000000000
10
2.8952305519
20
-6.8044897508
30
0.0000000000
10
2.8958247294
20
-6.8059509328
30
0.0000000000
10
2.9000615700
20
-6.8096292664
30
0.0000000000
10
2.9071059148
20
-6.8180394442
30
0.0000000000
10
2.9191092397
20
-6.8301628815
30
0.0000000000
10
2.9343098134
20
-6.8460556172
30
0.0000000000
10
2.9527371819
20
-6.8649219848
30
0.0000000000
10
2.9737429919
20
-6.8864130884
30
0.0000000000
10
2.9970109004
20
-6.9101082116
30
0.0000000000
10
3.0221922972
20
-6.9356913570
30
0.0000000000
10
3.0490146440
20
-6.9628801185
30
0.0000000000
10
3.0772331342
20
-6.9914331063
30
0.0000000000
10
3.1066333281
20
-7.0211354522
30
0.0000000000
10
3.1370204707
20
-7.0517930834
30
0.0000000000
10
3.1682140900
20
-7.0832258419
30
0.0000000000
10
3.2000421571
20
-7.1152620613
30
0.0000000000
10
3.2323380336
20
-7.1477354165
30
0.0000000000
10
3.2649365277
20
-7.1804810603
30
0.0000000000
10
3.2976713426
20
-7.2133329957
30
0.0000000000
10
3.3303714318
20
-7.2461208445
30
0.0000000000
10
3.3628608288
20
-7.2786682833
30
0.0000000000
10
3.3844343181
20
-7.3002631865
30
0.0000000000
10
3.3951559695
20
-7.3109905016
30
0.0000000000
11
2.8952305519
21
-6.8044897508
31
0.0000000000
11
2.8982390216
21
-6.8081424222
31
0.0000000000
11
2.9059850244
21
-6.8165045144
31
0.0000000000
11
2.9178793994
21
-6.8289822047
31
0.0000000000
11
2.9333509703
21
-6.8450017345
31
0.0000000000
11
2.9518823258
21
-6.8640446775
31
0.0000000000
11
2.9730240406
21
-6.8856616049
31
0.0000000000
11
2.9963921276
21
-6.9094690527
31
0.0000000000
11
3.0216643890
21
-6.9351456517
31
0.0000000000
11
3.0485646744
21
-6.9624160931
31
0.0000000000
11
3.0768528369
21
-6.9910410101
31
0.0000000000
11
3.1063161508
21
-7.0208083631
31
0.0000000000
11
3.1367620726
21
-7.0515261936
31
0.0000000000
11
3.1680118658
21
-7.0830162547
31
0.0000000000
11
3.1998950845
21
-7.1151085124
31
0.0000000000
11
3.2322447445
21
-7.1476363443
31
0.0000000000
11
3.2648982559
21
-7.1804375281
31
0.0000000000
11
3.2976895788
21
-7.2133464051
31
0.0000000000
11
3.3304483076
21
-7.2461930086
31
0.0000000000
11
3.3629981064
21
-7.2788014706
31
0.0000000000
11
3.3951559695
21
-7.3109905016
31
0.0000000000
0
SPLINE
5
354
100
AcDbEntity
8
0
100
AcDbSpline
62
7
6
CONTINUOUS
70
0
71
3
72
18
73
14
74
12
42
0.0000001000
43
0.0000001000
44
0.0000000001
12
-0.0031690579
22
0.3144992085
32
0.0000000000
13
-0.3145151746
23
-0.0000000000
33
0.0000000000
40
0.0000000000
40
0.0000000000
40
0.0000000000
40
0.0000000000
40
0.0604021845
40
0.1237586934
40
0.1919755555
40
0.2665798587
40
0.3486348441
40
0.4387386932
40
0.5370514278
40
0.6433166315
40
0.7568684635
40
0.8766354133
40
1.0000000000
40
1.0000000000
40
1.0000000000
40
1.0000000000
10
11.2286382325
20
-23.9621249585
30
0.0000000000
10
11.2285744265
20
-23.9557928121
30
0.0000000000
10
11.2269389867
20
-23.9427901076
30
0.0000000000
10
11.2200282036
20
-23.9237318599
30
0.0000000000
10
11.2086426729
20
-23.9052015072
30
0.0000000000
10
11.1928554582
20
-23.8875475808
30
0.0000000000
10
11.1727791238
20
-23.8710909575
30
0.0000000000
10
11.1485795768
20
-23.8561697361
30
0.0000000000
10
11.1204984210
20
-23.8431369442
30
0.0000000000
10
11.0888749774
20
-23.8323616606
30
0.0000000000
10
11.0541639402
20
-23.8242035598
30
0.0000000000
10
11.0170764448
20
-23.8190767419
30
0.0000000000
10
10.9915758082
20
-23.8177873912
30
0.0000000000
10
10.9786424633
20
-23.8177873912
30
0.0000000000
11
11.2286382325
21
-23.9621249585
31
0.0000000000
11
11.2263063666
21
-23.9432712123
31
0.0000000000
11
11.2196166904
21
-23.9245011042
31
0.0000000000
11
11.2085072381
21
-23.9061460689
31
0.0000000000
11
11.1929822219
21
-23.8885522669
31
0.0000000000
11
11.1731166765
21
-23.8720783745
31
0.0000000000
11
11.1490631979
21
-23.8570940272
31
0.0000000000
11
11.1210620068
21
-23.8439779275
31
0.0000000000
11
11.0894548362
21
-23.8331143127
31
0.0000000000
11
11.0547018300
21
-23.8248861761
31
0.0000000000
11
11.0173971091
21
-23.8196635875
31
0.0000000000
11
10.9786424633
21
-23.8177873912
31
0.0000000000
0
SPLINE
5
355
100
AcDbEntity
8
0
100
AcDbSpline
62
9
6
CONTINUOUS
70
0
71
3
72
17
73
13
74
11
42
0.0000001000
43
0.0000001000
44
0.0000000001
12
-0.0012298291
22
0.3661500354
32
0.0000000000
13
-0.3661509389
23
0.0009224053
33
0.0000000000
40
0.0000000000
40
0.0000000000
40
0.0000000000
40
0.0000000000
40
0.0926637669
40
0.1861959939
40
0.2811621264
40
0.3780472439
40
0.4771141944
40
0.5784104998
40
0.6817687109
40
0.7868361684
40
0.8931123906
40
1.0000000000
40
1.0000000000
40
1.0000000000
40
1.0000000000
10
11.2228204027
20
-24.5394752277
30
0.0000000000
10
11.2227824159
20
-24.5281656139
30
0.0000000000
10
11.2206343480
20
-24.5053948505
30
0.0000000000
10
11.2112997701
20
-24.4721931774
30
0.0000000000
10
11.1960900220
20
-24.4406635201
30
0.0000000000
10
11.1754041361
20
-24.4116057791
30
0.0000000000
10
11.1497690317
20
-24.3857201998
30
0.0000000000
10
11.1198257677
20
-24.3636282487
30
0.0000000000
10
11.0863128686
20
-24.3458546110
30
0.0000000000
10
11.0500465668
20
-24.3328203441
30
0.0000000000
10
11.0119173836
20
-24.3248336887
30
0.0000000000
10
10.9858702997
20
-24.3230017413
30
0.0000000000
10
10.9728246335
20
-24.3229688768
30
0.0000000000
11
11.2228204027
21
-24.5394752277
31
0.0000000000
11
11.2196453430
21
-24.5056950816
31
0.0000000000
11
11.2104147203
21
-24.4727154806
31
0.0000000000
11
11.1953550963
21
-24.4413737655
31
0.0000000000
11
11.1748342209
21
-24.4124368124
31
0.0000000000
11
11.1493565316
21
-24.3866170646
31
0.0000000000
11
11.1195469579
21
-24.3645479309
31
0.0000000000
11
11.0861371305
21
-24.3467711400
31
0.0000000000
11
11.0499468577
21
-24.3337228975
31
0.0000000000
11
11.0118646987
21
-24.3257234522
31
0.0000000000
11
10.9728246335
21
-24.3229688768
31
0.0000000000
0
SPLINE
5
356
100
AcDbEntity
8
0
100
AcDbSpline
62
7
6
CONTINUOUS
70
0
71
3
72
27
73
23
74
21
42
0.0000001000
43
0.0000001000
44
0.0000000001
12
0.2959601676
22
-0.6463187843
32
0.0000000000
13
0.5025184113
23
-0.5027878659
33
0.0000000000
40
0.0000000000
40
0.0000000000
40
0.0000000000
40
0.0000000000
40
0.0065261309
40
0.0224421824
40
0.0465820970
40
0.0778091712
40
0.1150938102
40
0.1575421634
40
0.2043908577
40
0.2549996311
40
0.3088198043
40
0.3653742538
40
0.4242403177
40
0.4850353938
40
0.5474042627
40
0.6110081293
40
0.6755150396
40
0.7406017822
40
0.8059382883
40
0.8711858439
40
0.9359939391
40
1.0000000000
40
1.0000000000
40
1.0000000000
40
1.0000000000
10
2.8953460564
20
-5.6045914072
30
0.0000000000
10
2.8959898813
20
-5.6059973942
30
0.0000000000
10
2.9001670250
20
-5.6095928097
30
0.0000000000
10
2.9072506749
20
-5.6178963271
30
0.0000000000
10
2.9192272317
20
-5.6299124932
30
0.0000000000
10
2.9344350638
20
-5.6457060571
30
0.0000000000
10
2.9528585138
20
-5.6644786711
30
0.0000000000
10
2.9738650099
20
-5.6858832862
30
0.0000000000
10
2.9971325741
20
-5.7094986928
30
0.0000000000
10
3.0223142115
20
-5.7350089953
30
0.0000000000
10
3.0491367947
20
-5.7621315937
30
0.0000000000
10
3.0773556345
20
-5.7906249647
30
0.0000000000
10
3.1067562214
20
-5.8202740843
30
0.0000000000
10
3.1371437972
20
-5.8508847392
30
0.0000000000
10
3.1683378752
20
-5.8822766385
30
0.0000000000
10
3.2001664195
20
-5.9142779922
30
0.0000000000
10
3.2324627854
20
-5.9467223543
30
0.0000000000
10
3.2650617761
20
-5.9794447552
30
0.0000000000
10
3.2977970901
20
-6.0122790663
30
0.0000000000
10
3.3304976738
20
-6.0450547640
30
0.0000000000
10
3.3629875618
20
-6.0775953454
30
0.0000000000
10
3.3845605451
20
-6.0991882532
30
0.0000000000
10
3.3952819531
20
-6.1099154101
30
0.0000000000
11
2.8953460564
21
-5.6045914072
31
0.0000000000
11
2.8983546468
21
-5.6081227205
31
0.0000000000
11
2.9061009333
21
-5.6163691234
31
0.0000000000
11
2.9179957133
21
-5.6287377258
31
0.0000000000
11
2.9334677731
21
-5.6446552797
31
0.0000000000
11
2.9519996713
21
-5.6636035518
31
0.0000000000
11
2.9731419610
21
-5.6851331022
31
0.0000000000
11
2.9965106401
21
-5.7088603464
31
0.0000000000
11
3.0217835015
21
-5.7344637308
31
0.0000000000
11
3.0486843888
21
-5.7616677542
31
0.0000000000
11
3.0769731518
21
-5.7902328646
31
0.0000000000
11
3.1064370627
21
-5.8199468511
31
0.0000000000
11
3.1368835771
21
-5.8506175991
31
0.0000000000
11
3.1681339579
21
-5.8820667210
31
0.0000000000
11
3.2000177587
21
-5.9141240534
31
0.0000000000
11
3.2323679949
21
-5.9466228512
31
0.0000000000
11
3.2650220758
21
-5.9794007664
31
0.0000000000
11
3.2978139601
21
-6.0122920091
31
0.0000000000
11
3.3305732397
21
-6.0451264659
31
0.0000000000
11
3.3631235768
21
-6.0777280959
31
0.0000000000
11
3.3952819531
21
-6.1099154101
31
0.0000000000
0
SPLINE
5
357
100
AcDbEntity
8
0
100
AcDbSpline
62
9
6
CONTINUOUS
70
0
71
3
72
17
73
13
74
11
42
0.0000001000
43
0.0000001000
44
0.0000000001
12
0.0000132773
22
-0.3922846478
32
0.0000000000
13
0.3922846478
23
-0.0000132773
33
0.0000000000
40
0.0000000000
40
0.0000000000
40
0.0000000000
40
0.0000000000
40
0.0998239394
40
0.1998359985
40
0.2998483200
40
0.3998691378
40
0.4998893118
40
0.5999112671
40
0.6999336806
40
0.7999562942
40
0.8999787118
40
1.0000000000
40
1.0000000000
40
1.0000000000
40
1.0000000000
10
8.8490175602
20
-24.9320433125
30
0.0000000000
10
8.8490180019
20
-24.9450964455
30
0.0000000000
10
8.8510738479
20
-24.9712734345
30
0.0000000000
10
8.8602555047
20
-25.0095502505
30
0.0000000000
10
8.8753234993
20
-25.0459529768
30
0.0000000000
10
8.8959014821
20
-25.0795483090
30
0.0000000000
10
8.9214831234
20
-25.1095119966
30
0.0000000000
10
8.9514380983
20
-25.1351041761
30
0.0000000000
10
8.9850278679
20
-25.1556946667
30
0.0000000000
10
9.0214282981
20
-25.1707759880
30
0.0000000000
10
9.0597299598
20
-25.1799765402
30
0.0000000000
10
9.0859343908
20
-25.1820386390
30
0.0000000000
10
9.0990133294
20
-25.1820390817
30
0.0000000000
11
8.8490175602
21
-24.9320433125
31
0.0000000000
11
8.8520858342
21
-24.9710823214
31
0.0000000000
11
8.8612355175
21
-25.0092336899
31
0.0000000000
11
8.8762412471
21
-25.0454839282
31
0.0000000000
11
8.8967353606
21
-25.0789429263
31
0.0000000000
11
8.9222118216
21
-25.1087832237
31
0.0000000000
11
8.9520438074
21
-25.1342704925
31
0.0000000000
11
8.9854962795
21
-25.1547764544
31
0.0000000000
11
9.0217452185
21
-25.1697958732
31
0.0000000000
11
9.0598976195
21
-25.1789586666
31
0.0000000000
11
9.0990133294
21
-25.1820390817
31
0.0000000000
0
SPLINE
5
358
100
AcDbEntity
8
0
100
AcDbSpline
62
7
6
CONTINUOUS
70
0
71
3
72
27
73
23
74
21
42
0.0000001000
43
0.0000001000
44
0.0000000001
12
0.2959601676
22
-0.6463187843
32
0.0000000000
13
0.5025184113
23
-0.5027878659
33
0.0000000000
40
0.0000000000
40
0.0000000000
40
0.0000000000
40
0.0000000000
40
0.0065261310
40
0.0224421828
40
0.0465820976
40
0.0778091720
40
0.1150938112
40
0.1575421643
40
0.2043908585
40
0.2549996318
40
0.3088198047
40
0.3653742538
40
0.4242403174
40
0.4850353930
40
0.5474042616
40
0.6110081279
40
0.6755150380
40
0.7406017806
40
0.8059382869
40
0.8711858427
40
0.9359939384
40
1.0000000000
40
1.0000000000
40
1.0000000000
40
1.0000000000
10
3.9453460564
20
-5.6045914072
30
0.0000000000
10
3.9459898813
20
-5.6059973942
30
0.0000000000
10
3.9501670250
20
-5.6095928098
30
0.0000000000
10
3.9572506750
20
-5.6178963273
30
0.0000000000
10
3.9692272320
20
-5.6299124934
30
0.0000000000
10
3.9844350642
20
-5.6457060575
30
0.0000000000
10
4.0028585143
20
-5.6644786715
30
0.0000000000
10
4.0238650103
20
-5.6858832867
30
0.0000000000
10
4.0471325745
20
-5.7094986932
30
0.0000000000
10
4.0723142118
20
-5.7350089956
30
0.0000000000
10
4.0991367949
20
-5.7621315939
30
0.0000000000
10
4.1273556345
20
-5.7906249647
30
0.0000000000
10
4.1567562212
20
-5.8202740841
30
0.0000000000
10
4.1871437968
20
-5.8508847388
30
0.0000000000
10
4.2183378747
20
-5.8822766379
30
0.0000000000
10
4.2501664188
20
-5.9142779915
30
0.0000000000
10
4.2824627847
20
-5.9467223535
30
0.0000000000
10
4.3150617753
20
-5.9794447545
30
0.0000000000
10
4.3477970894
20
-6.0122790656
30
0.0000000000
10
4.3804976732
20
-6.0450547634
30
0.0000000000
10
4.4129875614
20
-6.0775953451
30
0.0000000000
10
4.4345605450
20
-6.0991882531
30
0.0000000000
10
4.4452819531
20
-6.1099154101
30
0.0000000000
11
3.9453460564
21
-5.6045914072
31
0.0000000000
11
3.9483546469
21
-5.6081227205
31
0.0000000000
11
3.9561009334
21
-5.6163691235
31
0.0000000000
11
3.9679957136
21
-5.6287377261
31
0.0000000000
11
3.9834677735
21
-5.6446552801
31
0.0000000000
11
4.0019996718
21
-5.6636035522
31
0.0000000000
11
4.0231419615
21
-5.6851331027
31
0.0000000000
11
4.0465106405
21
-5.7088603468
31
0.0000000000
11
4.0717835018
21
-5.7344637311
31
0.0000000000
11
4.0986843890
21
-5.7616677544
31
0.0000000000
11
4.1269731518
21
-5.7902328646
31
0.0000000000
11
4.1564370626
21
-5.8199468509
31
0.0000000000
11
4.1868835767
21
-5.8506175988
31
0.0000000000
11
4.2181339573
21
-5.8820667205
31
0.0000000000
11
4.2500177580
21
-5.9141240527
31
0.0000000000
11
4.2823679941
21
-5.9466228504
31
0.0000000000
11
4.3150220750
21
-5.9794007656
31
0.0000000000
11
4.3478139593
21
-6.0122920083
31
0.0000000000
11
4.3805732391
21
-6.0451264653
31
0.0000000000
11
4.4131235764
21
-6.0777280955
31
0.0000000000
11
4.4452819531
21
-6.1099154101
31
0.0000000000
0
SPLINE
5
359
100
AcDbEntity
8
0
100
AcDbSpline
62
9
6
CONTINUOUS
70
0
71
3
72
17
73
13
74
11
42
0.0000001000
43
0.0000001000
44
0.0000000001
12
0.3922846478
22
0.0000132773
32
0.0000000000
13
0.0000132773
23
0.3922846478
33
0.0000000000
40
0.0000000000
40
0.0000000000
40
0.0000000000
40
0.0000000000
40
0.1000212882
40
0.2000437058
40
0.3000663194
40
0.4000887329
40
0.5001106882
40
0.6001308622
40
0.7001516800
40
0.8001640015
40
0.9001760606
40
1.0000000000
40
1.0000000000
40
1.0000000000
40
1.0000000000
10
10.9728246335
20
-25.1820390817
30
0.0000000000
10
10.9859035721
20
-25.1820386390
30
0.0000000000
10
11.0121080031
20
-25.1799765402
30
0.0000000000
10
11.0504096647
20
-25.1707759880
30
0.0000000000
10
11.0868100950
20
-25.1556946667
30
0.0000000000
10
11.1203998646
20
-25.1351041761
30
0.0000000000
10
11.1503548395
20
-25.1095119966
30
0.0000000000
10
11.1759364807
20
-25.0795483090
30
0.0000000000
10
11.1965144635
20
-25.0459529768
30
0.0000000000
10
11.2115824581
20
-25.0095502505
30
0.0000000000
10
11.2207641150
20
-24.9712734345
30
0.0000000000
10
11.2228199609
20
-24.9450964455
30
0.0000000000
10
11.2228204027
20
-24.9320433125
30
0.0000000000
11
10.9728246335
21
-25.1820390817
31
0.0000000000
11
11.0119403434
21
-25.1789586666
31
0.0000000000
11
11.0500927444
21
-25.1697958732
31
0.0000000000
11
11.0863416834
21
-25.1547764544
31
0.0000000000
11
11.1197941555
21
-25.1342704925
31
0.0000000000
11
11.1496261413
21
-25.1087832237
31
0.0000000000
11
11.1751026023
21
-25.0789429263
31
0.0000000000
11
11.1955967158
21
-25.0454839282
31
0.0000000000
11
11.2106024454
21
-25.0092336899
31
0.0000000000
11
11.2197521287
21
-24.9710823214
31
0.0000000000
11
11.2228204027
21
-24.9320433125
31
0.0000000000
0
SPLINE
5
35A
100
AcDbEntity
8
0
100
AcDbSpline
62
7
6
CONTINUOUS
70
0
71
3
72
17
73
13
74
11
42
0.0000001000
43
0.0000001000
44
0.0000000001
12
0.0277030565
22
0.2495527920
32
0.0000000000
13
0.2510857530
23
0.0000000000
33
0.0000000000
40
0.0000000000
40
0.0000000000
40
0.0000000000
40
0.0000000000
40
0.0153922783
40
0.0534603011
40
0.1140054884
40
0.1963898067
40
0.2980302109
40
0.4167083914
40
0.5499614839
40
0.6933922816
40
0.8450534085
40
1.0000000000
40
1.0000000000
40
1.0000000000
40
1.0000000000
10
8.8431997303
20
-23.0295517127
30
0.0000000000
10
8.8433418681
20
-23.0282713174
30
0.0000000000
10
8.8490695840
20
-23.0268704653
30
0.0000000000
10
8.8572055117
20
-23.0250654680
30
0.0000000000
10
8.8729296744
20
-23.0233604111
30
0.0000000000
10
8.8930498222
20
-23.0216811001
30
0.0000000000
10
8.9184464761
20
-23.0201893844
30
0.0000000000
10
8.9479760126
20
-23.0188979272
30
0.0000000000
10
8.9810616201
20
-23.0178595629
30
0.0000000000
10
9.0169010386
20
-23.0170957739
30
0.0000000000
10
9.0545657012
20
-23.0166300266
30
0.0000000000
10
9.0802272057
20
-23.0165259915
30
0.0000000000
10
9.0931954996
20
-23.0165259915
30
0.0000000000
11
8.8431997303
21
-23.0295517127
31
0.0000000000
11
8.8464815668
21
-23.0275106131
31
0.0000000000
11
8.8558293810
21
-23.0255155697
31
0.0000000000
11
8.8709142297
21
-23.0236316442
31
0.0000000000
11
8.8915258689
21
-23.0218848115
31
0.0000000000
11
8.9169991116
21
-23.0203331492
31
0.0000000000
11
8.9467680562
21
-23.0190085368
31
0.0000000000
11
8.9802089552
21
-23.0179404092
31
0.0000000000
11
9.0162139848
21
-23.0171626112
31
0.0000000000
11
9.0542909454
21
-23.0166856089
31
0.0000000000
11
9.0931954996
21
-23.0165259915
31
0.0000000000
0
SPLINE
5
35B
100
AcDbEntity
8
0
100
AcDbSpline
62
9
6
CONTINUOUS
70
0
71
3
72
17
73
13
74
11
42
0.0000001000
43
0.0000001000
44
0.0000000001
12
0.0012298291
22
0.3661500354
32
0.0000000000
13
0.3661509389
23
0.0009224053
33
0.0000000000
40
0.0000000000
40
0.0000000000
40
0.0000000000
40
0.0000000000
40
0.0926637669
40
0.1861959939
40
0.2811621264
40
0.3780472439
40
0.4771141944
40
0.5784104998
40
0.6817687109
40
0.7868361684
40
0.8931123906
40
1.0000000000
40
1.0000000000
40
1.0000000000
40
1.0000000000
10
8.8490175602
20
-24.5394752277
30
0.0000000000
10
8.8490555470
20
-24.5281656139
30
0.0000000000
10
8.8512036149
20
-24.5053948505
30
0.0000000000
10
8.8605381928
20
-24.4721931774
30
0.0000000000
10
8.8757479409
20
-24.4406635201
30
0.0000000000
10
8.8964338268
20
-24.4116057791
30
0.0000000000
10
8.9220689312
20
-24.3857201998
30
0.0000000000
10
8.9520121952
20
-24.3636282487
30
0.0000000000
10
8.9855250943
20
-24.3458546110
30
0.0000000000
10
9.0217913960
20
-24.3328203441
30
0.0000000000
10
9.0599205793
20
-24.3248336887
30
0.0000000000
10
9.0859676632
20
-24.3230017413
30
0.0000000000
10
9.0990133294
20
-24.3229688768
30
0.0000000000
11
8.8490175602
21
-24.5394752277
31
0.0000000000
11
8.8521926199
21
-24.5056950816
31
0.0000000000
11
8.8614232425
21
-24.4727154806
31
0.0000000000
11
8.8764828665
21
-24.4413737655
31
0.0000000000
11
8.8970037420
21
-24.4124368124
31
0.0000000000
11
8.9224814313
21
-24.3866170646
31
0.0000000000
11
8.9522910049
21
-24.3645479309
31
0.0000000000
11
8.9857008324
21
-24.3467711400
31
0.0000000000
11
9.0218911052
21
-24.3337228975
31
0.0000000000
11
9.0599732642
21
-24.3257234522
31
0.0000000000
11
9.0990133294
21
-24.3229688768
31
0.0000000000
0
SPLINE
5
35C
100
AcDbEntity
8
0
100
AcDbSpline
62
7
6
CONTINUOUS
70
0
71
3
72
18
73
14
74
12
42
0.0000001000
43
0.0000001000
44
0.0000000001
12
0.0031763781
22
0.3152256661
32
0.0000000000
13
0.3152416691
23
0.0000000000
33
0.0000000000
40
0.0000000000
40
0.0000000000
40
0.0000000000
40
0.0000000000
40
0.0600923894
40
0.1232193774
40
0.1912702092
40
0.2657636629
40
0.3477531865
40
0.4378167491
40
0.5360799495
40
0.6422378908
40
0.7555663097
40
0.8749375201
40
1.0000000000
40
1.0000000000
40
1.0000000000
40
1.0000000000
10
8.8431997303
20
-23.9621249585
30
0.0000000000
10
8.8432633557
20
-23.9558107374
30
0.0000000000
10
8.8448910151
20
-23.9428349944
30
0.0000000000
10
8.8517782822
20
-23.9237980201
30
0.0000000000
10
8.8631487324
20
-23.9052620538
30
0.0000000000
10
8.8789395702
20
-23.8875859773
30
0.0000000000
10
8.8990410600
20
-23.8711009458
30
0.0000000000
10
8.9232831103
20
-23.8561541389
30
0.0000000000
10
8.9514132222
20
-23.8431060102
30
0.0000000000
10
8.9830753935
20
-23.8323281809
30
0.0000000000
10
9.0177951365
20
-23.8241843323
30
0.0000000000
10
9.0550817795
20
-23.8190275533
30
0.0000000000
10
9.0807810933
20
-23.8177873912
30
0.0000000000
10
9.0939227283
20
-23.8177873912
30
0.0000000000
11
8.8431997303
21
-23.9621249585
31
0.0000000000
11
8.8455190709
21
-23.9433238524
31
0.0000000000
11
8.8521865809
21
-23.9245737979
31
0.0000000000
11
8.8632812532
21
-23.9062130738
31
0.0000000000
11
8.8788097502
21
-23.8885966675
31
0.0000000000
11
8.8987011192
21
-23.8720928577
31
0.0000000000
11
8.9227994223
21
-23.8570806826
31
0.0000000000
11
8.9508537851
21
-23.8439465324
31
0.0000000000
11
8.9825054842
21
-23.8330789945
31
0.0000000000
11
9.0172731640
21
-23.8248604736
31
0.0000000000
11
9.0545420407
21
-23.8196540929
31
0.0000000000
11
9.0939227283
21
-23.8177873912
31
0.0000000000
0
SPLINE
5
35D
100
AcDbEntity
8
0
100
AcDbSpline
62
7
6
CONTINUOUS
70
0
71
3
72
27
73
23
74
21
42
0.0000001000
43
0.0000001000
44
0.0000000001
12
0.3422528144
22
-0.6217659851
32
0.0000000000
13
0.5017265580
23
-0.5019964045
33
0.0000000000
40
0.0000000000
40
0.0000000000
40
0.0000000000
40
0.0000000000
40
0.0063647105
40
0.0221484490
40
0.0461795651
40
0.0773193091
40
0.1145363651
40
0.1569352801
40
0.2037512150
40
0.2543425905
40
0.3081595656
40
0.3647239906
40
0.4236122904
40
0.4844410386
40
0.5468542583
40
0.6105124400
40
0.6750829364
40
0.7402418533
40
0.8056584207
40
0.8709931886
40
0.9358948583
40
1.0000000000
40
1.0000000000
40
1.0000000000
40
1.0000000000
10
3.9454609302
20
-4.0046923046
30
0.0000000000
10
3.9461870436
20
-4.0060114248
30
0.0000000000
10
3.9502482661
20
-4.0095224187
30
0.0000000000
10
3.9574161345
20
-4.0176625665
30
0.0000000000
10
3.9693405708
20
-4.0295468072
30
0.0000000000
10
3.9845646741
20
-4.0452036943
30
0.0000000000
10
4.0029805643
20
-4.0638527154
30
0.0000000000
10
4.0239887389
20
-4.0851413387
30
0.0000000000
10
4.0472556030
20
-4.1086504165
30
0.0000000000
10
4.0724376321
20
-4.1340633293
30
0.0000000000
10
4.0992605076
20
-4.1610974896
30
0.0000000000
10
4.1274798181
20
-4.1895111191
30
0.0000000000
10
4.1568809251
20
-4.2190890122
30
0.0000000000
10
4.1872690767
20
-4.2496367636
30
0.0000000000
10
4.2184637631
20
-4.2809739095
30
0.0000000000
10
4.2502929401
20
-4.3129284958
30
0.0000000000
10
4.2825899521
20
-4.3453339195
30
0.0000000000
10
4.3151896003
20
-4.3780250443
30
0.0000000000
10
4.3479255514
20
-4.4108355933
30
0.0000000000
10
4.3806268223
20
-4.4435947713
30
0.0000000000
10
4.4131171013
20
-4.4761261841
30
0.0000000000
10
4.4346897162
20
-4.4977159342
30
0.0000000000
10
4.4454108002
20
-4.5084427844
30
0.0000000000
11
3.9454609302
21
-4.0046923046
31
0.0000000000
11
3.9484696780
21
-4.0080617711
31
0.0000000000
11
3.9562163398
21
-4.0161538447
31
0.0000000000
11
3.9681116576
21
-4.0283768844
31
0.0000000000
11
3.9835843674
21
-4.0441583270
31
0.0000000000
11
4.0021169876
21
-4.0629802019
31
0.0000000000
11
4.0232600424
21
-4.0843930580
31
0.0000000000
11
4.0466295096
21
-4.1080131530
31
0.0000000000
11
4.0719031695
21
-4.1335186907
31
0.0000000000
11
4.0988048580
21
-4.1606339158
31
0.0000000000
11
4.1270944199
21
-4.1891190314
31
0.0000000000
11
4.1565591249
21
-4.2187615997
31
0.0000000000
11
4.1870064269
21
-4.2493693005
31
0.0000000000
11
4.2182575881
21
-4.2807635599
31
0.0000000000
11
4.2501421611
21
-4.3127740439
31
0.0000000000
11
4.2824931599
21
-4.3452338461
31
0.0000000000
11
4.3151479913
21
-4.3779804537
31
0.0000000000
11
4.3479406091
21
-4.4108479065
31
0.0000000000
11
4.3807005926
21
-4.4436659065
31
0.0000000000
11
4.4132515536
21
-4.4762582310
31
0.0000000000
11
4.4454108002
21
-4.5084427844
31
0.0000000000
0
SPLINE
5
35E
100
AcDbEntity
8
0
100
AcDbSpline
62
9
6
CONTINUOUS
70
0
71
3
72
17
73
13
74
11
42
0.0000001000
43
0.0000001000
44
0.0000000001
12
0.0000132773
22
-0.3922846482
32
0.0000000000
13
0.3922846482
23
-0.0000132773
33
0.0000000000
40
0.0000000000
40
0.0000000000
40
0.0000000000
40
0.0000000000
40
0.0999991830
40
0.1999988695
40
0.2999989843
40
0.3999994104
40
0.5000000000
40
0.6000005896
40
0.7000010157
40
0.8000011305
40
0.9000008170
40
1.0000000000
40
1.0000000000
40
1.0000000000
40
1.0000000000
10
-10.0509824398
20
-24.9320433125
30
0.0000000000
10
-10.0509819973
20
-24.9451193606
30
0.0000000000
10
-10.0489208198
20
-24.9713178980
30
0.0000000000
10
-10.0397243672
20
-25.0096113808
30
0.0000000000
10
-10.0246496647
20
-25.0460049197
30
0.0000000000
10
-10.0040678704
20
-25.0795897949
30
0.0000000000
10
-9.9784858190
20
-25.1095424609
30
0.0000000000
10
-9.9485331531
20
-25.1351245122
30
0.0000000000
10
-9.9149482778
20
-25.1557063066
30
0.0000000000
10
-9.8785547390
20
-25.1707810091
30
0.0000000000
10
-9.8402612562
20
-25.1799774616
30
0.0000000000
10
-9.8140627187
20
-25.1820386391
30
0.0000000000
10
-9.8009866706
20
-25.1820390817
30
0.0000000000
11
-10.0509824398
21
-24.9320433125
31
0.0000000000
11
-10.0479033858
21
-24.9711504312
31
0.0000000000
11
-10.0387446843
21
-25.0092946443
31
0.0000000000
11
-10.0237318431
21
-25.0455367550
31
0.0000000000
11
-10.0032345124
21
-25.0789844007
31
0.0000000000
11
-9.9777573828
21
-25.1088140247
31
0.0000000000
11
-9.9479277588
21
-25.1342911543
31
0.0000000000
11
-9.9144801132
21
-25.1547884850
31
0.0000000000
11
-9.8782380024
21
-25.1698013261
31
0.0000000000
11
-9.8400937894
21
-25.1789600277
31
0.0000000000
11
-9.8009866706
21
-25.1820390817
31
0.0000000000
0
SPLINE
5
35F
100
AcDbEntity
8
0
100
AcDbSpline
62
7
6
CONTINUOUS
70
0
71
3
72
27
73
23
74
21
42
0.0000001000
43
0.0000001000
44
0.0000000001
12
0.3422528144
22
-0.6217659851
32
0.0000000000
13
0.5017265580
23
-0.5019964045
33
0.0000000000
40
0.0000000000
40
0.0000000000
40
0.0000000000
40
0.0000000000
40
0.0063647105
40
0.0221484490
40
0.0461795651
40
0.0773193091
40
0.1145363651
40
0.1569352801
40
0.2037512150
40
0.2543425905
40
0.3081595656
40
0.3647239906
40
0.4236122904
40
0.4844410386
40
0.5468542583
40
0.6105124400
40
0.6750829364
40
0.7402418533
40
0.8056584207
40
0.8709931886
40
0.9358948583
40
1.0000000000
40
1.0000000000
40
1.0000000000
40
1.0000000000
10
6.7454609302
20
-4.0046923046
30
0.0000000000
10
6.7461870436
20
-4.0060114248
30
0.0000000000
10
6.7502482661
20
-4.0095224187
30
0.0000000000
10
6.7574161345
20
-4.0176625665
30
0.0000000000
10
6.7693405708
20
-4.0295468072
30
0.0000000000
10
6.7845646741
20
-4.0452036943
30
0.0000000000
10
6.8029805643
20
-4.0638527154
30
0.0000000000
10
6.8239887389
20
-4.0851413387
30
0.0000000000
10
6.8472556030
20
-4.1086504165
30
0.0000000000
10
6.8724376321
20
-4.1340633293
30
0.0000000000
10
6.8992605076
20
-4.1610974896
30
0.0000000000
10
6.9274798181
20
-4.1895111191
30
0.0000000000
10
6.9568809251
20
-4.2190890122
30
0.0000000000
10
6.9872690767
20
-4.2496367636
30
0.0000000000
10
7.0184637631
20
-4.2809739095
30
0.0000000000
10
7.0502929401
20
-4.3129284958
30
0.0000000000
10
7.0825899521
20
-4.3453339195
30
0.0000000000
10
7.1151896003
20
-4.3780250443
30
0.0000000000
10
7.1479255514
20
-4.4108355933
30
0.0000000000
10
7.1806268223
20
-4.4435947713
30
0.0000000000
10
7.2131171013
20
-4.4761261841
30
0.0000000000
10
7.2346897162
20
-4.4977159342
30
0.0000000000
10
7.2454108002
20
-4.5084427844
30
0.0000000000
11
6.7454609302
21
-4.0046923046
31
0.0000000000
11
6.7484696780
21
-4.0080617711
31
0.0000000000
11
6.7562163398
21
-4.0161538447
31
0.0000000000
11
6.7681116576
21
-4.0283768844
31
0.0000000000
11
6.7835843674
21
-4.0441583270
31
0.0000000000
11
6.8021169876
21
-4.0629802019
31
0.0000000000
11
6.8232600424
21
-4.0843930580
31
0.0000000000
11
6.8466295096
21
-4.1080131530
31
0.0000000000
11
6.8719031695
21
-4.1335186907
31
0.0000000000
11
6.8988048580
21
-4.1606339158
31
0.0000000000
11
6.9270944199
21
-4.1891190314
31
0.0000000000
11
6.9565591249
21
-4.2187615997
31
0.0000000000
11
6.9870064269
21
-4.2493693005
31
0.0000000000
11
7.0182575881
21
-4.2807635599
31
0.0000000000
11
7.0501421611
21
-4.3127740439
31
0.0000000000
11
7.0824931599
21
-4.3452338461
31
0.0000000000
11
7.1151479913
21
-4.3779804537
31
0.0000000000
11
7.1479406091
21
-4.4108479065
31
0.0000000000
11
7.1807005926
21
-4.4436659065
31
0.0000000000
11
7.2132515536
21
-4.4762582310
31
0.0000000000
11
7.2454108002
21
-4.5084427844
31
0.0000000000
0
SPLINE
5
360
100
AcDbEntity
8
0
100
AcDbSpline
62
9
6
CONTINUOUS
70
0
71
3
72
17
73
13
74
11
42
0.0000001000
43
0.0000001000
44
0.0000000001
12
0.3922846478
22
0.0000132773
32
0.0000000000
13
0.0000132773
23
0.3922846478
33
0.0000000000
40
0.0000000000
40
0.0000000000
40
0.0000000000
40
0.0000000000
40
0.0998239394
40
0.1998359985
40
0.2998483200
40
0.3998691378
40
0.4998893118
40
0.5999112671
40
0.6999336806
40
0.7999562942
40
0.8999787118
40
1.0000000000
40
1.0000000000
40
1.0000000000
40
1.0000000000
10
-7.9271753665
20
-25.1820390817
30
0.0000000000
10
-7.9141222335
20
-25.1820386399
30
0.0000000000
10
-7.8879452445
20
-25.1799827940
30
0.0000000000
10
-7.8496684285
20
-25.1708011371
30
0.0000000000
10
-7.8132657022
20
-25.1557331425
30
0.0000000000
10
-7.7796703700
20
-25.1351551597
30
0.0000000000
10
-7.7497066824
20
-25.1095735184
30
0.0000000000
10
-7.7241145029
20
-25.0796185436
30
0.0000000000
10
-7.7035240123
20
-25.0460287740
30
0.0000000000
10
-7.6884426910
20
-25.0096283437
30
0.0000000000
10
-7.6792421388
20
-24.9713266821
30
0.0000000000
10
-7.6771800400
20
-24.9451222511
30
0.0000000000
10
-7.6771795973
20
-24.9320433125
30
0.0000000000
11
-7.9271753665
21
-25.1820390817
31
0.0000000000
11
-7.8881363576
21
-25.1789708077
31
0.0000000000
11
-7.8499849891
21
-25.1698211244
31
0.0000000000
11
-7.8137347507
21
-25.1548153948
31
0.0000000000
11
-7.7802757527
21
-25.1343212813
31
0.0000000000
11
-7.7504354552
21
-25.1088448203
31
0.0000000000
11
-7.7249481864
21
-25.0790128344
31
0.0000000000
11
-7.7044422246
21
-25.0455603624
31
0.0000000000
11
-7.6894228058
21
-25.0093114234
31
0.0000000000
11
-7.6802600124
21
-24.9711590224
31
0.0000000000
11
-7.6771795973
21
-24.9320433125
31
0.0000000000
0
SPLINE
5
361
100
AcDbEntity
8
0
100
AcDbSpline
62
9
6
CONTINUOUS
70
0
71
3
72
9
73
5
74
3
42
0.0000001000
43
0.0000001000
44
0.0000000001
12
-0.0004636862
22
8.0190231563
32
0.0000000000
13
0.0006598364
23
8.0190231426
33
0.0000000000
40
0.0000000000
40
0.0000000000
40
0.0000000000
40
0.0000000000
40
0.5000007849
40
1.0000000000
40
1.0000000000
40
1.0000000000
40
1.0000000000
10
-5.5736229662
20
-4.0046923027
30
0.0000000000
10
-5.5737002473
20
-2.6681863453
30
0.0000000000
10
-5.5737611828
20
0.0048213797
30
0.0000000000
10
-5.5736348699
20
2.6778291024
30
0.0000000000
10
-5.5735248973
20
4.0143308616
30
0.0000000000
11
-5.5736229662
21
-4.0046923027
31
0.0000000000
11
-5.5737143707
21
0.0048255750
31
0.0000000000
11
-5.5735248973
21
4.0143308616
31
0.0000000000
0
SPLINE
5
362
100
AcDbEntity
8
0
100
AcDbSpline
62
7
6
CONTINUOUS
70
0
71
3
72
17
73
13
74
11
42
0.0000001000
43
0.0000001000
44
0.0000000001
12
0.2510857530
22
0.0000000000
32
0.0000000000
13
0.0277030565
23
-0.2495527920
33
0.0000000000
40
0.0000000000
40
0.0000000000
40
0.0000000000
40
0.0000000000
40
0.1549465915
40
0.3066077184
40
0.4500385161
40
0.5832916086
40
0.7019697891
40
0.8036101933
40
0.8859945116
40
0.9465396989
40
0.9846077217
40
1.0000000000
40
1.0000000000
40
1.0000000000
40
1.0000000000
10
-7.9213575367
20
-23.0165259915
30
0.0000000000
10
-7.9083892428
20
-23.0165259915
30
0.0000000000
10
-7.8827277384
20
-23.0166300266
30
0.0000000000
10
-7.8450630757
20
-23.0170957739
30
0.0000000000
10
-7.8092236572
20
-23.0178595629
30
0.0000000000
10
-7.7761380498
20
-23.0188979272
30
0.0000000000
10
-7.7466085132
20
-23.0201893844
30
0.0000000000
10
-7.7212118594
20
-23.0216811001
30
0.0000000000
10
-7.7010917115
20
-23.0233604111
30
0.0000000000
10
-7.6853675489
20
-23.0250654680
30
0.0000000000
10
-7.6772316212
20
-23.0268704653
30
0.0000000000
10
-7.6715039052
20
-23.0282713174
30
0.0000000000
10
-7.6713617675
20
-23.0295517127
30
0.0000000000
11
-7.9213575367
21
-23.0165259915
31
0.0000000000
11
-7.8824529825
21
-23.0166856089
31
0.0000000000
11
-7.8443760219
21
-23.0171626112
31
0.0000000000
11
-7.8083709923
21
-23.0179404092
31
0.0000000000
11
-7.7749300933
21
-23.0190085368
31
0.0000000000
11
-7.7451611487
21
-23.0203331492
31
0.0000000000
11
-7.7196879060
21
-23.0218848115
31
0.0000000000
11
-7.6990762669
21
-23.0236316442
31
0.0000000000
11
-7.6839914181
21
-23.0255155697
31
0.0000000000
11
-7.6746436040
21
-23.0275106131
31
0.0000000000
11
-7.6713617675
21
-23.0295517127
31
0.0000000000
0
SPLINE
5
363
100
AcDbEntity
8
0
100
AcDbSpline
62
7
6
CONTINUOUS
70
0
71
3
72
18
73
14
74
12
42
0.0000001000
43
0.0000001000
44
0.0000000001
12
-0.0031763781
22
0.3152256661
32
0.0000000000
13
-0.3152416691
23
-0.0000000000
33
0.0000000000
40
0.0000000000
40
0.0000000000
40
0.0000000000
40
0.0000000000
40
0.0600923894
40
0.1232193774
40
0.1912702092
40
0.2657636629
40
0.3477531865
40
0.4378167491
40
0.5360799495
40
0.6422378908
40
0.7555663097
40
0.8749375201
40
1.0000000000
40
1.0000000000
40
1.0000000000
40
1.0000000000
10
-7.6713617675
20
-23.9621249585
30
0.0000000000
10
-7.6714253929
20
-23.9558107374
30
0.0000000000
10
-7.6730530522
20
-23.9428349944
30
0.0000000000
10
-7.6799403193
20
-23.9237980201
30
0.0000000000
10
-7.6913107696
20
-23.9052620538
30
0.0000000000
10
-7.7071016073
20
-23.8875859773
30
0.0000000000
10
-7.7272030971
20
-23.8711009458
30
0.0000000000
10
-7.7514451474
20
-23.8561541389
30
0.0000000000
10
-7.7795752593
20
-23.8431060102
30
0.0000000000
10
-7.8112374307
20
-23.8323281809
30
0.0000000000
10
-7.8459571737
20
-23.8241843323
30
0.0000000000
10
-7.8832438166
20
-23.8190275533
30
0.0000000000
10
-7.9089431304
20
-23.8177873912
30
0.0000000000
10
-7.9220847654
20
-23.8177873912
30
0.0000000000
11
-7.6713617675
21
-23.9621249585
31
0.0000000000
11
-7.6736811080
21
-23.9433238524
31
0.0000000000
11
-7.6803486180
21
-23.9245737979
31
0.0000000000
11
-7.6914432904
21
-23.9062130738
31
0.0000000000
11
-7.7069717873
21
-23.8885966675
31
0.0000000000
11
-7.7268631563
21
-23.8720928577
31
0.0000000000
11
-7.7509614594
21
-23.8570806826
31
0.0000000000
11
-7.7790158223
21
-23.8439465324
31
0.0000000000
11
-7.8106675214
21
-23.8330789945
31
0.0000000000
11
-7.8454352011
21
-23.8248604736
31
0.0000000000
11
-7.8827040779
21
-23.8196540929
31
0.0000000000
11
-7.9220847654
21
-23.8177873912
31
0.0000000000
0
SPLINE
5
364
100
AcDbEntity
8
0
100
AcDbSpline
62
9
6
CONTINUOUS
70
0
71
3
72
17
73
13
74
11
42
0.0000001000
43
0.0000001000
44
0.0000000001
12
-0.0012298291
22
0.3661500354
32
0.0000000000
13
-0.3661509389
23
0.0009224053
33
0.0000000000
40
0.0000000000
40
0.0000000000
40
0.0000000000
40
0.0000000000
40
0.0926637669
40
0.1861959939
40
0.2811621264
40
0.3780472439
40
0.4771141944
40
0.5784104998
40
0.6817687109
40
0.7868361684
40
0.8931123906
40
1.0000000000
40
1.0000000000
40
1.0000000000
40
1.0000000000
10
-7.6771795973
20
-24.5394752277
30
0.0000000000
10
-7.6772175841
20
-24.5281656139
30
0.0000000000
10
-7.6793656520
20
-24.5053948505
30
0.0000000000
10
-7.6887002299
20
-24.4721931774
30
0.0000000000
10
-7.7039099780
20
-24.4406635201
30
0.0000000000
10
-7.7245958639
20
-24.4116057791
30
0.0000000000
10
-7.7502309683
20
-24.3857201998
30
0.0000000000
10
-7.7801742323
20
-24.3636282487
30
0.0000000000
10
-7.8136871314
20
-24.3458546110
30
0.0000000000
10
-7.8499534332
20
-24.3328203441
30
0.0000000000
10
-7.8880826164
20
-24.3248336887
30
0.0000000000
10
-7.9141297003
20
-24.3230017413
30
0.0000000000
10
-7.9271753665
20
-24.3229688768
30
0.0000000000
11
-7.6771795973
21
-24.5394752277
31
0.0000000000
11
-7.6803546570
21
-24.5056950816
31
0.0000000000
11
-7.6895852797
21
-24.4727154806
31
0.0000000000
11
-7.7046449037
21
-24.4413737655
31
0.0000000000
11
-7.7251657791
21
-24.4124368124
31
0.0000000000
11
-7.7506434684
21
-24.3866170646
31
0.0000000000
11
-7.7804530421
21
-24.3645479309
31
0.0000000000
11
-7.8138628695
21
-24.3467711400
31
0.0000000000
11
-7.8500531423
21
-24.3337228975
31
0.0000000000
11
-7.8881353013
21
-24.3257234522
31
0.0000000000
11
-7.9271753665
21
-24.3229688768
31
0.0000000000
0
SPLINE
5
365
100
AcDbEntity
8
0
100
AcDbSpline
62
9
6
CONTINUOUS
70
0
71
3
72
9
73
5
74
3
42
0.0000001000
43
0.0000001000
44
0.0000000001
12
-0.0001372367
22
1.5998990966
32
0.0000000000
13
-0.0000925114
23
1.5998990998
33
0.0000000000
40
0.0000000000
40
0.0000000000
40
0.0000000000
40
0.0000000000
40
0.4999927255
40
1.0000000000
40
1.0000000000
40
1.0000000000
40
1.0000000000
10
-2.7735080913
20
-5.6045914028
30
0.0000000000
10
-2.7735309637
20
-5.3379454329
30
0.0000000000
10
-2.7735729855
20
-4.8046457337
30
0.0000000000
10
-2.7736075485
20
-4.2713460339
30
0.0000000000
10
-2.7736229672
20
-4.0046923045
30
0.0000000000
11
-2.7735080913
21
-5.6045914028
31
0.0000000000
11
-2.7735711202
21
-4.8046534925
31
0.0000000000
11
-2.7736229672
21
-4.0046923045
31
0.0000000000
0
SPLINE
5
366
100
AcDbEntity
8
0
100
AcDbSpline
62
9
6
CONTINUOUS
70
0
71
3
72
17
73
13
74
11
42
0.0000001000
43
0.0000001000
44
0.0000000001
12
0.0012298291
22
0.3661500354
32
0.0000000000
13
0.3661509389
23
0.0009224053
33
0.0000000000
40
0.0000000000
40
0.0000000000
40
0.0000000000
40
0.0000000000
40
0.0926637669
40
0.1861959939
40
0.2811621264
40
0.3780472439
40
0.4771141944
40
0.5784104998
40
0.6817687109
40
0.7868361684
40
0.8931123906
40
1.0000000000
40
1.0000000000
40
1.0000000000
40
1.0000000000
10
-10.0509824398
20
-24.5394752277
30
0.0000000000
10
-10.0509444530
20
-24.5281656139
30
0.0000000000
10
-10.0487963851
20
-24.5053948505
30
0.0000000000
10
-10.0394618072
20
-24.4721931774
30
0.0000000000
10
-10.0242520591
20
-24.4406635201
30
0.0000000000
10
-10.0035661732
20
-24.4116057791
30
0.0000000000
10
-9.9779310688
20
-24.3857201998
30
0.0000000000
10
-9.9479878048
20
-24.3636282487
30
0.0000000000
10
-9.9144749057
20
-24.3458546110
30
0.0000000000
10
-9.8782086040
20
-24.3328203441
30
0.0000000000
10
-9.8400794207
20
-24.3248336887
30
0.0000000000
10
-9.8140323368
20
-24.3230017413
30
0.0000000000
10
-9.8009866706
20
-24.3229688768
30
0.0000000000
11
-10.0509824398
21
-24.5394752277
31
0.0000000000
11
-10.0478073801
21
-24.5056950816
31
0.0000000000
11
-10.0385767575
21
-24.4727154806
31
0.0000000000
11
-10.0235171335
21
-24.4413737655
31
0.0000000000
11
-10.0029962580
21
-24.4124368124
31
0.0000000000
11
-9.9775185687
21
-24.3866170646
31
0.0000000000
11
-9.9477089951
21
-24.3645479309
31
0.0000000000
11
-9.9142991676
21
-24.3467711400
31
0.0000000000
11
-9.8781088948
21
-24.3337228975
31
0.0000000000
11
-9.8400267358
21
-24.3257234522
31
0.0000000000
11
-9.8009866706
21
-24.3229688768
31
0.0000000000
0
SPLINE
5
367
100
AcDbEntity
8
0
100
AcDbSpline
62
7
6
CONTINUOUS
70
0
71
3
72
18
73
14
74
12
42
0.0000001000
43
0.0000001000
44
0.0000000001
12
0.0031690579
22
0.3144992085
32
0.0000000000
13
0.3145151746
23
0.0000000000
33
0.0000000000
40
0.0000000000
40
0.0000000000
40
0.0000000000
40
0.0000000000
40
0.0604021845
40
0.1237586934
40
0.1919755555
40
0.2665798587
40
0.3486348441
40
0.4387386932
40
0.5370514278
40
0.6433166315
40
0.7568684635
40
0.8766354133
40
1.0000000000
40
1.0000000000
40
1.0000000000
40
1.0000000000
10
-10.0568002697
20
-23.9621249585
30
0.0000000000
10
-10.0567364637
20
-23.9557928121
30
0.0000000000
10
-10.0551010238
20
-23.9427901076
30
0.0000000000
10
-10.0481902408
20
-23.9237318599
30
0.0000000000
10
-10.0368047101
20
-23.9052015072
30
0.0000000000
10
-10.0210174954
20
-23.8875475808
30
0.0000000000
10
-10.0009411609
20
-23.8710909575
30
0.0000000000
10
-9.9767416140
20
-23.8561697361
30
0.0000000000
10
-9.9486604581
20
-23.8431369442
30
0.0000000000
10
-9.9170370145
20
-23.8323616606
30
0.0000000000
10
-9.8823259773
20
-23.8242035598
30
0.0000000000
10
-9.8452384819
20
-23.8190767419
30
0.0000000000
10
-9.8197378453
20
-23.8177873912
30
0.0000000000
10
-9.8068045004
20
-23.8177873912
30
0.0000000000
11
-10.0568002697
21
-23.9621249585
31
0.0000000000
11
-10.0544684037
21
-23.9432712123
31
0.0000000000
11
-10.0477787275
21
-23.9245011042
31
0.0000000000
11
-10.0366692752
21
-23.9061460689
31
0.0000000000
11
-10.0211442590
21
-23.8885522669
31
0.0000000000
11
-10.0012787136
21
-23.8720783745
31
0.0000000000
11
-9.9772252350
21
-23.8570940272
31
0.0000000000
11
-9.9492240440
21
-23.8439779275
31
0.0000000000
11
-9.9176168734
21
-23.8331143127
31
0.0000000000
11
-9.8828638671
21
-23.8248861761
31
0.0000000000
11
-9.8455591462
21
-23.8196635875
31
0.0000000000
11
-9.8068045004
21
-23.8177873912
31
0.0000000000
0
SPLINE
5
368
100
AcDbEntity
8
0
100
AcDbSpline
62
7
6
CONTINUOUS
70
0
71
3
72
17
73
13
74
11
42
0.0000001000
43
0.0000001000
44
0.0000000001
12
0.0277030565
22
0.2495527920
32
0.0000000000
13
0.2510857530
23
-0.0000000000
33
0.0000000000
40
0.0000000000
40
0.0000000000
40
0.0000000000
40
0.0000000000
40
0.0153922783
40
0.0534603011
40
0.1140054884
40
0.1963898067
40
0.2980302109
40
0.4167083914
40
0.5499614839
40
0.6933922816
40
0.8450534085
40
1.0000000000
40
1.0000000000
40
1.0000000000
40
1.0000000000
10
-10.0568002697
20
-23.0295517127
30
0.0000000000
10
-10.0566581319
20
-23.0282713174
30
0.0000000000
10
-10.0509304160
20
-23.0268704653
30
0.0000000000
10
-10.0427944883
20
-23.0250654680
30
0.0000000000
10
-10.0270703256
20
-23.0233604111
30
0.0000000000
10
-10.0069501778
20
-23.0216811001
30
0.0000000000
10
-9.9815535239
20
-23.0201893844
30
0.0000000000
10
-9.9520239874
20
-23.0188979272
30
0.0000000000
10
-9.9189383799
20
-23.0178595629
30
0.0000000000
10
-9.8830989614
20
-23.0170957739
30
0.0000000000
10
-9.8454342988
20
-23.0166300266
30
0.0000000000
10
-9.8197727943
20
-23.0165259915
30
0.0000000000
10
-9.8068045004
20
-23.0165259915
30
0.0000000000
11
-10.0568002697
21
-23.0295517127
31
0.0000000000
11
-10.0535184332
21
-23.0275106131
31
0.0000000000
11
-10.0441706190
21
-23.0255155697
31
0.0000000000
11
-10.0290857703
21
-23.0236316442
31
0.0000000000
11
-10.0084741311
21
-23.0218848115
31
0.0000000000
11
-9.9830008884
21
-23.0203331492
31
0.0000000000
11
-9.9532319438
21
-23.0190085368
31
0.0000000000
11
-9.9197910448
21
-23.0179404092
31
0.0000000000
11
-9.8837860152
21
-23.0171626112
31
0.0000000000
11
-9.8457090546
21
-23.0166856089
31
0.0000000000
11
-9.8068045004
21
-23.0165259915
31
0.0000000000
0
SPLINE
5
369
100
AcDbEntity
8
0
100
AcDbSpline
62
7
6
CONTINUOUS
70
0
71
3
72
17
73
13
74
11
42
0.0000001000
43
0.0000001000
44
0.0000000001
12
-0.0277030565
22
-0.2495527920
32
0.0000000000
13
-0.2510857530
23
0.0000000000
33
0.0000000000
40
0.0000000000
40
0.0000000000
40
0.0000000000
40
0.0000000000
40
0.0153922783
40
0.0534603011
40
0.1140054884
40
0.1963898067
40
0.2980302109
40
0.4167083914
40
0.5499614839
40
0.6933922816
40
0.8450534085
40
1.0000000000
40
1.0000000000
40
1.0000000000
40
1.0000000000
10
11.2286382325
20
21.6392763919
30
0.0000000000
10
11.2284960948
20
21.6379959965
30
0.0000000000
10
11.2227683788
20
21.6365951445
30
0.0000000000
10
11.2146324511
20
21.6347901471
30
0.0000000000
10
11.1989082885
20
21.6330850902
30
0.0000000000
10
11.1787881406
20
21.6314057792
30
0.0000000000
10
11.1533914868
20
21.6299140635
30
0.0000000000
10
11.1238619502
20
21.6286226064
30
0.0000000000
10
11.0907763428
20
21.6275842421
30
0.0000000000
10
11.0549369243
20
21.6268204530
30
0.0000000000
10
11.0172722616
20
21.6263547057
30
0.0000000000
10
10.9916107572
20
21.6262506707
30
0.0000000000
10
10.9786424633
20
21.6262506707
30
0.0000000000
11
11.2286382325
21
21.6392763919
31
0.0000000000
11
11.2253563960
21
21.6372352923
31
0.0000000000
11
11.2160085819
21
21.6352402489
31
0.0000000000
11
11.2009237331
21
21.6333563233
31
0.0000000000
11
11.1803120940
21
21.6316094907
31
0.0000000000
11
11.1548388513
21
21.6300578283
31
0.0000000000
11
11.1250699067
21
21.6287332159
31
0.0000000000
11
11.0916290077
21
21.6276650884
31
0.0000000000
11
11.0556239781
21
21.6268872903
31
0.0000000000
11
11.0175470175
21
21.6264102880
31
0.0000000000
11
10.9786424633
21
21.6262506707
31
0.0000000000
0
SPLINE
5
36A
100
AcDbEntity
8
0
100
AcDbSpline
62
9
6
CONTINUOUS
70
0
71
3
72
17
73
13
74
11
42
0.0000001000
43
0.0000001000
44
0.0000000001
12
-0.0012298290
22
-0.3661500177
32
0.0000000000
13
-0.3661509212
23
-0.0009224053
33
0.0000000000
40
0.0000000000
40
0.0000000000
40
0.0000000000
40
0.0000000000
40
0.0927380474
40
0.1862683312
40
0.2812329042
40
0.3781093545
40
0.4771672798
40
0.5784533210
40
0.6818006960
40
0.7868568096
40
0.8931227640
40
1.0000000000
40
1.0000000000
40
1.0000000000
40
1.0000000000
10
11.2228204027
20
23.1491999069
30
0.0000000000
10
11.2227823854
20
23.1378812276
30
0.0000000000
10
11.2206317864
20
23.1151015190
30
0.0000000000
10
11.2112902176
20
23.0818928558
30
0.0000000000
10
11.1960770218
20
23.0503665304
30
0.0000000000
10
11.1753892335
20
23.0213131037
30
0.0000000000
10
11.1497541909
20
22.9954323422
30
0.0000000000
10
11.1198123507
20
22.9733447454
30
0.0000000000
10
11.0863020618
20
22.9555747417
30
0.0000000000
10
11.0500390730
20
22.9425431010
30
0.0000000000
10
11.0119135870
20
22.9345580152
30
0.0000000000
10
10.9858690330
20
22.9327264173
30
0.0000000000
10
10.9728246335
20
22.9326935559
30
0.0000000000
11
11.2228204027
21
23.1491999069
31
0.0000000000
11
11.2196403542
21
23.1153929136
31
0.0000000000
11
11.2104053254
21
23.0824152868
31
0.0000000000
11
11.1953418737
21
23.0510760465
31
0.0000000000
11
11.1748195417
21
23.0221440192
31
0.0000000000
11
11.1493417913
21
22.9963289770
31
0.0000000000
11
11.1195336525
21
22.9742642245
31
0.0000000000
11
11.0861263905
21
22.9564910628
31
0.0000000000
11
11.0499395653
21
22.9434455102
31
0.0000000000
11
11.0118609262
21
22.9354476054
31
0.0000000000
11
10.9728246335
21
22.9326935559
31
0.0000000000
0
SPLINE
5
36B
100
AcDbEntity
8
0
100
AcDbSpline
62
7
6
CONTINUOUS
70
0
71
3
72
18
73
14
74
12
42
0.0000001000
43
0.0000001000
44
0.0000000001
12
-0.0031763781
22
-0.3152256661
32
0.0000000000
13
-0.3152416691
23
0.0000000000
33
0.0000000000
40
0.0000000000
40
0.0000000000
40
0.0000000000
40
0.0000000000
40
0.0600923894
40
0.1232193774
40
0.1912702092
40
0.2657636629
40
0.3477531865
40
0.4378167491
40
0.5360799495
40
0.6422378908
40
0.7555663097
40
0.8749375201
40
1.0000000000
40
1.0000000000
40
1.0000000000
40
1.0000000000
10
11.2286382325
20
22.5718496377
30
0.0000000000
10
11.2285746071
20
22.5655354165
30
0.0000000000
10
11.2269469478
20
22.5525596735
30
0.0000000000
10
11.2200596807
20
22.5335226993
30
0.0000000000
10
11.2086892304
20
22.5149867330
30
0.0000000000
10
11.1928983927
20
22.4973106565
30
0.0000000000
10
11.1727969029
20
22.4808256250
30
0.0000000000
10
11.1485548526
20
22.4658788180
30
0.0000000000
10
11.1204247407
20
22.4528306893
30
0.0000000000
10
11.0887625693
20
22.4420528601
30
0.0000000000
10
11.0540428263
20
22.4339090115
30
0.0000000000
10
11.0167561834
20
22.4287522325
30
0.0000000000
10
10.9910568696
20
22.4275120704
30
0.0000000000
10
10.9779152346
20
22.4275120704
30
0.0000000000
11
11.2286382325
21
22.5718496377
31
0.0000000000
11
11.2263188920
21
22.5530485315
31
0.0000000000
11
11.2196513820
21
22.5342984771
31
0.0000000000
11
11.2085567096
21
22.5159377530
31
0.0000000000
11
11.1930282127
21
22.4983213467
31
0.0000000000
11
11.1731368437
21
22.4818175369
31
0.0000000000
11
11.1490385406
21
22.4668053618
31
0.0000000000
11
11.1209841777
21
22.4536712116
31
0.0000000000
11
11.0893324786
21
22.4428036736
31
0.0000000000
11
11.0545647989
21
22.4345851528
31
0.0000000000
11
11.0172959221
21
22.4293787721
31
0.0000000000
11
10.9779152346
21
22.4275120704
31
0.0000000000
0
SPLINE
5
36C
100
AcDbEntity
8
0
100
AcDbSpline
62
9
6
CONTINUOUS
70
0
71
3
72
17
73
13
74
11
42
0.0000001000
43
0.0000001000
44
0.0000000001
12
-0.0000132773
22
0.3922846482
32
0.0000000000
13
-0.3922846482
23
0.0000132773
33
0.0000000000
40
0.0000000000
40
0.0000000000
40
0.0000000000
40
0.0000000000
40
0.0999991830
40
0.1999988695
40
0.2999989843
40
0.3999994104
40
0.5000000000
40
0.6000005896
40
0.7000010157
40
0.8000011305
40
0.9000008170
40
1.0000000000
40
1.0000000000
40
1.0000000000
40
1.0000000000
10
11.2228204027
20
23.5417679916
30
0.0000000000
10
11.2228199601
20
23.5548440398
30
0.0000000000
10
11.2207587826
20
23.5810425772
30
0.0000000000
10
11.2115623301
20
23.6193360600
30
0.0000000000
10
11.1964876276
20
23.6557295988
30
0.0000000000
10
11.1759058332
20
23.6893144741
30
0.0000000000
10
11.1503237819
20
23.7192671400
30
0.0000000000
10
11.1203711159
20
23.7448491914
30
0.0000000000
10
11.0867862407
20
23.7654309858
30
0.0000000000
10
11.0503927018
20
23.7805056882
30
0.0000000000
10
11.0120992190
20
23.7897021408
30
0.0000000000
10
10.9859006816
20
23.7917633183
30
0.0000000000
10
10.9728246335
20
23.7917637609
30
0.0000000000
11
11.2228204027
21
23.5417679916
31
0.0000000000
11
11.2197413487
21
23.5808751104
31
0.0000000000
11
11.2105826471
21
23.6190193235
31
0.0000000000
11
11.1955698060
21
23.6552614342
31
0.0000000000
11
11.1750724753
21
23.6887090798
31
0.0000000000
11
11.1495953457
21
23.7185387039
31
0.0000000000
11
11.1197657217
21
23.7440158335
31
0.0000000000
11
11.0863180760
21
23.7645131641
31
0.0000000000
11
11.0500759653
21
23.7795260053
31
0.0000000000
11
11.0119317522
21
23.7886847068
31
0.0000000000
11
10.9728246335
21
23.7917637609
31
0.0000000000
0
SPLINE
5
36D
100
AcDbEntity
8
0
100
AcDbSpline
62
9
6
CONTINUOUS
70
0
71
3
72
17
73
13
74
11
42
0.0000001000
43
0.0000001000
44
0.0000000001
12
-0.3922846478
22
-0.0000132773
32
0.0000000000
13
-0.0000132773
23
-0.3922846478
33
0.0000000000
40
0.0000000000
40
0.0000000000
40
0.0000000000
40
0.0000000000
40
0.1000212882
40
0.2000437058
40
0.3000663194
40
0.4000887329
40
0.5001106882
40
0.6001308622
40
0.7001516800
40
0.8001640015
40
0.9001760606
40
1.0000000000
40
1.0000000000
40
1.0000000000
40
1.0000000000
10
9.0990133294
20
23.7917637609
30
0.0000000000
10
9.0859343908
20
23.7917633182
30
0.0000000000
10
9.0597299598
20
23.7897012193
30
0.0000000000
10
9.0214282981
20
23.7805006672
30
0.0000000000
10
8.9850278679
20
23.7654193459
30
0.0000000000
10
8.9514380983
20
23.7448288553
30
0.0000000000
10
8.9214831234
20
23.7192366757
30
0.0000000000
10
8.8959014821
20
23.6892729882
30
0.0000000000
10
8.8753234993
20
23.6556776559
30
0.0000000000
10
8.8602555047
20
23.6192749296
30
0.0000000000
10
8.8510738479
20
23.5809981137
30
0.0000000000
10
8.8490180019
20
23.5548211246
30
0.0000000000
10
8.8490175602
20
23.5417679916
30
0.0000000000
11
9.0990133294
21
23.7917637609
31
0.0000000000
11
9.0598976195
21
23.7886833457
31
0.0000000000
11
9.0217452185
21
23.7795205523
31
0.0000000000
11
8.9854962795
21
23.7645011335
31
0.0000000000
11
8.9520438074
21
23.7439951717
31
0.0000000000
11
8.9222118216
21
23.7185079029
31
0.0000000000
11
8.8967353606
21
23.6886676054
31
0.0000000000
11
8.8762412471
21
23.6552086074
31
0.0000000000
11
8.8612355175
21
23.6189583691
31
0.0000000000
11
8.8520858342
21
23.5808070006
31
0.0000000000
11
8.8490175602
21
23.5417679916
31
0.0000000000
0
SPLINE
5
36E
100
AcDbEntity
8
0
100
AcDbSpline
62
9
6
CONTINUOUS
70
0
71
3
72
9
73
5
74
3
42
0.0000001000
43
0.0000001000
44
0.0000000001
12
-0.0001280840
22
1.1998983398
32
0.0000000000
13
-0.0001029253
23
1.1998983422
33
0.0000000000
40
0.0000000000
40
0.0000000000
40
0.0000000000
40
0.0000000000
40
0.4999939061
40
1.0000000000
40
1.0000000000
40
1.0000000000
40
1.0000000000
10
-1.7233925867
20
-6.8044897456
30
0.0000000000
10
-1.7234139338
20
-6.6045091264
30
0.0000000000
10
-1.7234545360
20
-6.2045430129
30
0.0000000000
10
-1.7234909378
20
-5.8045768990
30
0.0000000000
10
-1.7235080922
20
-5.6045914046
30
0.0000000000
11
-1.7233925867
21
-6.8044897456
31
0.0000000000
11
-1.7234534854
21
-6.2045478875
31
0.0000000000
11
-1.7235080922
21
-5.6045914046
31
0.0000000000
0
SPLINE
5
36F
100
AcDbEntity
8
0
100
AcDbSpline
62
7
6
CONTINUOUS
70
0
71
3
72
18
73
14
74
12
42
0.0000001000
43
0.0000001000
44
0.0000000001
12
0.0031763781
22
-0.3152256661
32
0.0000000000
13
0.3152416691
23
-0.0000000000
33
0.0000000000
40
0.0000000000
40
0.0000000000
40
0.0000000000
40
0.0000000000
40
0.0600923894
40
0.1232193774
40
0.1912702092
40
0.2657636629
40
0.3477531865
40
0.4378167491
40
0.5360799495
40
0.6422378908
40
0.7555663097
40
0.8749375201
40
1.0000000000
40
1.0000000000
40
1.0000000000
40
1.0000000000
10
8.8431997303
20
22.5718496377
30
0.0000000000
10
8.8432633557
20
22.5655354165
30
0.0000000000
10
8.8448910151
20
22.5525596735
30
0.0000000000
10
8.8517782822
20
22.5335226993
30
0.0000000000
10
8.8631487324
20
22.5149867330
30
0.0000000000
10
8.8789395702
20
22.4973106565
30
0.0000000000
10
8.8990410600
20
22.4808256250
30
0.0000000000
10
8.9232831103
20
22.4658788180
30
0.0000000000
10
8.9514132222
20
22.4528306893
30
0.0000000000
10
8.9830753935
20
22.4420528601
30
0.0000000000
10
9.0177951365
20
22.4339090115
30
0.0000000000
10
9.0550817795
20
22.4287522325
30
0.0000000000
10
9.0807810933
20
22.4275120704
30
0.0000000000
10
9.0939227283
20
22.4275120704
30
0.0000000000
11
8.8431997303
21
22.5718496377
31
0.0000000000
11
8.8455190709
21
22.5530485315
31
0.0000000000
11
8.8521865809
21
22.5342984771
31
0.0000000000
11
8.8632812532
21
22.5159377530
31
0.0000000000
11
8.8788097502
21
22.4983213467
31
0.0000000000
11
8.8987011192
21
22.4818175369
31
0.0000000000
11
8.9227994223
21
22.4668053618
31
0.0000000000
11
8.9508537851
21
22.4536712116
31
0.0000000000
11
8.9825054842
21
22.4428036736
31
0.0000000000
11
9.0172731640
21
22.4345851528
31
0.0000000000
11
9.0545420407
21
22.4293787721
31
0.0000000000
11
9.0939227283
21
22.4275120704
31
0.0000000000
0
SPLINE
5
370
100
AcDbEntity
8
0
100
AcDbSpline
62
9
6
CONTINUOUS
70
0
71
3
72
17
73
13
74
11
42
0.0000001000
43
0.0000001000
44
0.0000000001
12
0.0012298290
22
-0.3661500177
32
0.0000000000
13
0.3661509212
23
-0.0009224053
33
0.0000000000
40
0.0000000000
40
0.0000000000
40
0.0000000000
40
0.0000000000
40
0.0927380474
40
0.1862683312
40
0.2812329042
40
0.3781093545
40
0.4771672798
40
0.5784533210
40
0.6818006960
40
0.7868568096
40
0.8931227640
40
1.0000000000
40
1.0000000000
40
1.0000000000
40
1.0000000000
10
8.8490175602
20
23.1491999069
30
0.0000000000
10
8.8490555775
20
23.1378812276
30
0.0000000000
10
8.8512061765
20
23.1151015190
30
0.0000000000
10
8.8605477453
20
23.0818928558
30
0.0000000000
10
8.8757609411
20
23.0503665304
30
0.0000000000
10
8.8964487294
20
23.0213131037
30
0.0000000000
10
8.9220837720
20
22.9954323422
30
0.0000000000
10
8.9520256122
20
22.9733447454
30
0.0000000000
10
8.9855359011
20
22.9555747417
30
0.0000000000
10
9.0217988899
20
22.9425431010
30
0.0000000000
10
9.0599243759
20
22.9345580152
30
0.0000000000
10
9.0859689299
20
22.9327264173
30
0.0000000000
10
9.0990133294
20
22.9326935559
30
0.0000000000
11
8.8490175602
21
23.1491999069
31
0.0000000000
11
8.8521976087
21
23.1153929136
31
0.0000000000
11
8.8614326375
21
23.0824152868
31
0.0000000000
11
8.8764960891
21
23.0510760465
31
0.0000000000
11
8.8970184211
21
23.0221440192
31
0.0000000000
11
8.9224961716
21
22.9963289770
31
0.0000000000
11
8.9523043103
21
22.9742642245
31
0.0000000000
11
8.9857115724
21
22.9564910628
31
0.0000000000
11
9.0218983976
21
22.9434455102
31
0.0000000000
11
9.0599770367
21
22.9354476054
31
0.0000000000
11
9.0990133294
21
22.9326935559
31
0.0000000000
0
SPLINE
5
371
100
AcDbEntity
8
0
100
AcDbSpline
62
7
6
CONTINUOUS
70
0
71
3
72
17
73
13
74
11
42
0.0000001000
43
0.0000001000
44
0.0000000001
12
-0.2510857530
22
0.0000000000
32
0.0000000000
13
-0.0277030565
23
0.2495527920
33
0.0000000000
40
0.0000000000
40
0.0000000000
40
0.0000000000
40
0.0000000000
40
0.1549465915
40
0.3066077184
40
0.4500385161
40
0.5832916086
40
0.7019697891
40
0.8036101933
40
0.8859945116
40
0.9465396989
40
0.9846077217
40
1.0000000000
40
1.0000000000
40
1.0000000000
40
1.0000000000
10
9.0931954996
20
21.6262506707
30
0.0000000000
10
9.0802272057
20
21.6262506707
30
0.0000000000
10
9.0545657012
20
21.6263547057
30
0.0000000000
10
9.0169010386
20
21.6268204530
30
0.0000000000
10
8.9810616201
20
21.6275842421
30
0.0000000000
10
8.9479760126
20
21.6286226064
30
0.0000000000
10
8.9184464761
20
21.6299140635
30
0.0000000000
10
8.8930498222
20
21.6314057792
30
0.0000000000
10
8.8729296744
20
21.6330850902
30
0.0000000000
10
8.8572055117
20
21.6347901471
30
0.0000000000
10
8.8490695840
20
21.6365951445
30
0.0000000000
10
8.8433418681
20
21.6379959965
30
0.0000000000
10
8.8431997303
20
21.6392763919
30
0.0000000000
11
9.0931954996
21
21.6262506707
31
0.0000000000
11
9.0542909454
21
21.6264102880
31
0.0000000000
11
9.0162139848
21
21.6268872903
31
0.0000000000
11
8.9802089552
21
21.6276650884
31
0.0000000000
11
8.9467680562
21
21.6287332159
31
0.0000000000
11
8.9169991116
21
21.6300578283
31
0.0000000000
11
8.8915258689
21
21.6316094907
31
0.0000000000
11
8.8709142297
21
21.6333563233
31
0.0000000000
11
8.8558293810
21
21.6352402489
31
0.0000000000
11
8.8464815668
21
21.6372352923
31
0.0000000000
11
8.8431997303
21
21.6392763919
31
0.0000000000
0
SPLINE
5
372
100
AcDbEntity
8
0
100
AcDbSpline
62
7
6
CONTINUOUS
70
0
71
3
72
17
73
13
74
11
42
0.0000001000
43
0.0000001000
44
0.0000000001
12
-0.0277030565
22
-0.2495527920
32
0.0000000000
13
-0.2510857530
23
-0.0000000000
33
0.0000000000
40
0.0000000000
40
0.0000000000
40
0.0000000000
40
0.0000000000
40
0.0153922783
40
0.0534603011
40
0.1140054884
40
0.1963898067
40
0.2980302109
40
0.4167083914
40
0.5499614839
40
0.6933922816
40
0.8450534085
40
1.0000000000
40
1.0000000000
40
1.0000000000
40
1.0000000000
10
-7.6713617675
20
21.6392763919
30
0.0000000000
10
-7.6715039052
20
21.6379959965
30
0.0000000000
10
-7.6772316212
20
21.6365951445
30
0.0000000000
10
-7.6853675489
20
21.6347901471
30
0.0000000000
10
-7.7010917115
20
21.6330850902
30
0.0000000000
10
-7.7212118594
20
21.6314057792
30
0.0000000000
10
-7.7466085132
20
21.6299140635
30
0.0000000000
10
-7.7761380498
20
21.6286226064
30
0.0000000000
10
-7.8092236572
20
21.6275842421
30
0.0000000000
10
-7.8450630757
20
21.6268204530
30
0.0000000000
10
-7.8827277384
20
21.6263547057
30
0.0000000000
10
-7.9083892428
20
21.6262506707
30
0.0000000000
10
-7.9213575367
20
21.6262506707
30
0.0000000000
11
-7.6713617675
21
21.6392763919
31
0.0000000000
11
-7.6746436040
21
21.6372352923
31
0.0000000000
11
-7.6839914181
21
21.6352402489
31
0.0000000000
11
-7.6990762669
21
21.6333563233
31
0.0000000000
11
-7.7196879060
21
21.6316094907
31
0.0000000000
11
-7.7451611487
21
21.6300578283
31
0.0000000000
11
-7.7749300933
21
21.6287332159
31
0.0000000000
11
-7.8083709923
21
21.6276650884
31
0.0000000000
11
-7.8443760219
21
21.6268872903
31
0.0000000000
11
-7.8824529825
21
21.6264102880
31
0.0000000000
11
-7.9213575367
21
21.6262506707
31
0.0000000000
0
SPLINE
5
373
100
AcDbEntity
8
0
100
AcDbSpline
62
9
6
CONTINUOUS
70
0
71
3
72
17
73
13
74
11
42
0.0000001000
43
0.0000001000
44
0.0000000001
12
-0.0012298290
22
-0.3661500177
32
0.0000000000
13
-0.3661509212
23
-0.0009224053
33
0.0000000000
40
0.0000000000
40
0.0000000000
40
0.0000000000
40
0.0000000000
40
0.0927380474
40
0.1862683312
40
0.2812329042
40
0.3781093545
40
0.4771672798
40
0.5784533210
40
0.6818006960
40
0.7868568096
40
0.8931227640
40
1.0000000000
40
1.0000000000
40
1.0000000000
40
1.0000000000
10
-7.6771795973
20
23.1491999069
30
0.0000000000
10
-7.6772176146
20
23.1378812276
30
0.0000000000
10
-7.6793682136
20
23.1151015190
30
0.0000000000
10
-7.6887097824
20
23.0818928558
30
0.0000000000
10
-7.7039229782
20
23.0503665304
30
0.0000000000
10
-7.7246107665
20
23.0213131037
30
0.0000000000
10
-7.7502458091
20
22.9954323422
30
0.0000000000
10
-7.7801876493
20
22.9733447454
30
0.0000000000
10
-7.8136979382
20
22.9555747417
30
0.0000000000
10
-7.8499609270
20
22.9425431010
30
0.0000000000
10
-7.8880864130
20
22.9345580152
30
0.0000000000
10
-7.9141309670
20
22.9327264173
30
0.0000000000
10
-7.9271753665
20
22.9326935559
30
0.0000000000
11
-7.6771795973
21
23.1491999069
31
0.0000000000
11
-7.6803596458
21
23.1153929136
31
0.0000000000
11
-7.6895946746
21
23.0824152868
31
0.0000000000
11
-7.7046581263
21
23.0510760465
31
0.0000000000
11
-7.7251804583
21
23.0221440192
31
0.0000000000
11
-7.7506582087
21
22.9963289770
31
0.0000000000
11
-7.7804663475
21
22.9742642245
31
0.0000000000
11
-7.8138736095
21
22.9564910628
31
0.0000000000
11
-7.8500604347
21
22.9434455102
31
0.0000000000
11
-7.8881390738
21
22.9354476054
31
0.0000000000
11
-7.9271753665
21
22.9326935559
31
0.0000000000
0
SPLINE
5
374
100
AcDbEntity
8
0
100
AcDbSpline
62
7
6
CONTINUOUS
70
0
71
3
72
18
73
14
74
12
42
0.0000001000
43
0.0000001000
44
0.0000000001
12
-0.0031763781
22
-0.3152256661
32
0.0000000000
13
-0.3152416691
23
0.0000000000
33
0.0000000000
40
0.0000000000
40
0.0000000000
40
0.0000000000
40
0.0000000000
40
0.0600923894
40
0.1232193774
40
0.1912702092
40
0.2657636629
40
0.3477531865
40
0.4378167491
40
0.5360799495
40
0.6422378908
40
0.7555663097
40
0.8749375201
40
1.0000000000
40
1.0000000000
40
1.0000000000
40
1.0000000000
10
-7.6713617675
20
22.5718496377
30
0.0000000000
10
-7.6714253929
20
22.5655354165
30
0.0000000000
10
-7.6730530522
20
22.5525596735
30
0.0000000000
10
-7.6799403193
20
22.5335226993
30
0.0000000000
10
-7.6913107696
20
22.5149867330
30
0.0000000000
10
-7.7071016073
20
22.4973106565
30
0.0000000000
10
-7.7272030971
20
22.4808256250
30
0.0000000000
10
-7.7514451474
20
22.4658788180
30
0.0000000000
10
-7.7795752593
20
22.4528306893
30
0.0000000000
10
-7.8112374307
20
22.4420528601
30
0.0000000000
10
-7.8459571737
20
22.4339090115
30
0.0000000000
10
-7.8832438166
20
22.4287522325
30
0.0000000000
10
-7.9089431304
20
22.4275120704
30
0.0000000000
10
-7.9220847654
20
22.4275120704
30
0.0000000000
11
-7.6713617675
21
22.5718496377
31
0.0000000000
11
-7.6736811080
21
22.5530485315
31
0.0000000000
11
-7.6803486180
21
22.5342984771
31
0.0000000000
11
-7.6914432904
21
22.5159377530
31
0.0000000000
11
-7.7069717873
21
22.4983213467
31
0.0000000000
11
-7.7268631563
21
22.4818175369
31
0.0000000000
11
-7.7509614594
21
22.4668053618
31
0.0000000000
11
-7.7790158223
21
22.4536712116
31
0.0000000000
11
-7.8106675214
21
22.4428036736
31
0.0000000000
11
-7.8454352011
21
22.4345851528
31
0.0000000000
11
-7.8827040779
21
22.4293787721
31
0.0000000000
11
-7.9220847654
21
22.4275120704
31
0.0000000000
0
SPLINE
5
375
100
AcDbEntity
8
0
100
AcDbSpline
62
7
6
CONTINUOUS
70
0
71
3
72
17
73
13
74
11
42
0.0000001000
43
0.0000001000
44
0.0000000001
12
-0.2510857530
22
0.0000000000
32
0.0000000000
13
-0.0277030565
23
0.2495527920
33
0.0000000000
40
0.0000000000
40
0.0000000000
40
0.0000000000
40
0.0000000000
40
0.1549465915
40
0.3066077184
40
0.4500385161
40
0.5832916086
40
0.7019697891
40
0.8036101933
40
0.8859945116
40
0.9465396989
40
0.9846077217
40
1.0000000000
40
1.0000000000
40
1.0000000000
40
1.0000000000
10
-9.8068045004
20
21.6262506707
30
0.0000000000
10
-9.8197727943
20
21.6262506707
30
0.0000000000
10
-9.8454342988
20
21.6263547057
30
0.0000000000
10
-9.8830989614
20
21.6268204530
30
0.0000000000
10
-9.9189383799
20
21.6275842421
30
0.0000000000
10
-9.9520239874
20
21.6286226064
30
0.0000000000
10
-9.9815535239
20
21.6299140635
30
0.0000000000
10
-10.0069501778
20
21.6314057792
30
0.0000000000
10
-10.0270703256
20
21.6330850902
30
0.0000000000
10
-10.0427944883
20
21.6347901471
30
0.0000000000
10
-10.0509304160
20
21.6365951445
30
0.0000000000
10
-10.0566581319
20
21.6379959965
30
0.0000000000
10
-10.0568002697
20
21.6392763919
30
0.0000000000
11
-9.8068045004
21
21.6262506707
31
0.0000000000
11
-9.8457090546
21
21.6264102880
31
0.0000000000
11
-9.8837860152
21
21.6268872903
31
0.0000000000
11
-9.9197910448
21
21.6276650884
31
0.0000000000
11
-9.9532319438
21
21.6287332159
31
0.0000000000
11
-9.9830008884
21
21.6300578283
31
0.0000000000
11
-10.0084741311
21
21.6316094907
31
0.0000000000
11
-10.0290857703
21
21.6333563233
31
0.0000000000
11
-10.0441706190
21
21.6352402489
31
0.0000000000
11
-10.0535184332
21
21.6372352923
31
0.0000000000
11
-10.0568002697
21
21.6392763919
31
0.0000000000
0
SPLINE
5
376
100
AcDbEntity
8
0
100
AcDbSpline
62
7
6
CONTINUOUS
70
0
71
3
72
18
73
14
74
12
42
0.0000001000
43
0.0000001000
44
0.0000000001
12
0.0031763781
22
-0.3152256661
32
0.0000000000
13
0.3152416691
23
0.0000000000
33
0.0000000000
40
0.0000000000
40
0.0000000000
40
0.0000000000
40
0.0000000000
40
0.0600923894
40
0.1232193774
40
0.1912702092
40
0.2657636629
40
0.3477531865
40
0.4378167491
40
0.5360799495
40
0.6422378908
40
0.7555663097
40
0.8749375201
40
1.0000000000
40
1.0000000000
40
1.0000000000
40
1.0000000000
10
-10.0568002697
20
22.5718496377
30
0.0000000000
10
-10.0567366443
20
22.5655354165
30
0.0000000000
10
-10.0551089849
20
22.5525596735
30
0.0000000000
10
-10.0482217178
20
22.5335226993
30
0.0000000000
10
-10.0368512676
20
22.5149867330
30
0.0000000000
10
-10.0210604298
20
22.4973106565
30
0.0000000000
10
-10.0009589400
20
22.4808256250
30
0.0000000000
10
-9.9767168897
20
22.4658788180
30
0.0000000000
10
-9.9485867778
20
22.4528306893
30
0.0000000000
10
-9.9169246065
20
22.4420528601
30
0.0000000000
10
-9.8822048635
20
22.4339090115
30
0.0000000000
10
-9.8449182205
20
22.4287522325
30
0.0000000000
10
-9.8192189067
20
22.4275120704
30
0.0000000000
10
-9.8060772717
20
22.4275120704
30
0.0000000000
11
-10.0568002697
21
22.5718496377
31
0.0000000000
11
-10.0544809291
21
22.5530485315
31
0.0000000000
11
-10.0478134191
21
22.5342984771
31
0.0000000000
11
-10.0367187468
21
22.5159377530
31
0.0000000000
11
-10.0211902498
21
22.4983213467
31
0.0000000000
11
-10.0012988808
21
22.4818175369
31
0.0000000000
11
-9.9772005777
21
22.4668053618
31
0.0000000000
11
-9.9491462149
21
22.4536712116
31
0.0000000000
11
-9.9174945158
21
22.4428036736
31
0.0000000000
11
-9.8827268360
21
22.4345851528
31
0.0000000000
11
-9.8454579593
21
22.4293787721
31
0.0000000000
11
-9.8060772717
21
22.4275120704
31
0.0000000000
0
SPLINE
5
377
100
AcDbEntity
8
0
100
AcDbSpline
62
9
6
CONTINUOUS
70
0
71
3
72
17
73
13
74
11
42
0.0000001000
43
0.0000001000
44
0.0000000001
12
0.0012298290
22
-0.3661500177
32
0.0000000000
13
0.3661509212
23
-0.0009224053
33
0.0000000000
40
0.0000000000
40
0.0000000000
40
0.0000000000
40
0.0000000000
40
0.0927380474
40
0.1862683312
40
0.2812329042
40
0.3781093545
40
0.4771672798
40
0.5784533210
40
0.6818006960
40
0.7868568096
40
0.8931227640
40
1.0000000000
40
1.0000000000
40
1.0000000000
40
1.0000000000
10
-10.0509824398
20
23.1491999069
30
0.0000000000
10
-10.0509444225
20
23.1378812276
30
0.0000000000
10
-10.0487938235
20
23.1151015190
30
0.0000000000
10
-10.0394522547
20
23.0818928558
30
0.0000000000
10
-10.0242390589
20
23.0503665304
30
0.0000000000
10
-10.0035512706
20
23.0213131037
30
0.0000000000
10
-9.9779162280
20
22.9954323422
30
0.0000000000
10
-9.9479743878
20
22.9733447454
30
0.0000000000
10
-9.9144640989
20
22.9555747417
30
0.0000000000
10
-9.8782011101
20
22.9425431010
30
0.0000000000
10
-9.8400756241
20
22.9345580152
30
0.0000000000
10
-9.8140310701
20
22.9327264173
30
0.0000000000
10
-9.8009866706
20
22.9326935559
30
0.0000000000
11
-10.0509824398
21
23.1491999069
31
0.0000000000
11
-10.0478023913
21
23.1153929136
31
0.0000000000
11
-10.0385673625
21
23.0824152868
31
0.0000000000
11
-10.0235039109
21
23.0510760465
31
0.0000000000
11
-10.0029815789
21
23.0221440192
31
0.0000000000
11
-9.9775038284
21
22.9963289770
31
0.0000000000
11
-9.9476956897
21
22.9742642245
31
0.0000000000
11
-9.9142884276
21
22.9564910628
31
0.0000000000
11
-9.8781016024
21
22.9434455102
31
0.0000000000
11
-9.8400229633
21
22.9354476054
31
0.0000000000
11
-9.8009866706
21
22.9326935559
31
0.0000000000
0
SPLINE
5
378
100
AcDbEntity
8
0
100
AcDbSpline
62
9
6
CONTINUOUS
70
0
71
3
72
17
73
13
74
11
42
0.0000001000
43
0.0000001000
44
0.0000000001
12
-0.3922846482
22
-0.0000132773
32
0.0000000000
13
-0.0000132773
23
-0.3922846482
33
0.0000000000
40
0.0000000000
40
0.0000000000
40
0.0000000000
40
0.0000000000
40
0.0999991830
40
0.1999988695
40
0.2999989843
40
0.3999994104
40
0.5000000000
40
0.6000005896
40
0.7000010157
40
0.8000011305
40
0.9000008170
40
1.0000000000
40
1.0000000000
40
1.0000000000
40
1.0000000000
10
-9.8009866706
20
23.7917637609
30
0.0000000000
10
-9.8140627187
20
23.7917633183
30
0.0000000000
10
-9.8402612562
20
23.7897021408
30
0.0000000000
10
-9.8785547390
20
23.7805056882
30
0.0000000000
10
-9.9149482778
20
23.7654309858
30
0.0000000000
10
-9.9485331531
20
23.7448491914
30
0.0000000000
10
-9.9784858190
20
23.7192671400
30
0.0000000000
10
-10.0040678704
20
23.6893144741
30
0.0000000000
10
-10.0246496647
20
23.6557295988
30
0.0000000000
10
-10.0397243672
20
23.6193360600
30
0.0000000000
10
-10.0489208198
20
23.5810425772
30
0.0000000000
10
-10.0509819973
20
23.5548440398
30
0.0000000000
10
-10.0509824398
20
23.5417679916
30
0.0000000000
11
-9.8009866706
21
23.7917637609
31
0.0000000000
11
-9.8400937894
21
23.7886847068
31
0.0000000000
11
-9.8782380024
21
23.7795260053
31
0.0000000000
11
-9.9144801132
21
23.7645131641
31
0.0000000000
11
-9.9479277588
21
23.7440158335
31
0.0000000000
11
-9.9777573828
21
23.7185387039
31
0.0000000000
11
-10.0032345124
21
23.6887090798
31
0.0000000000
11
-10.0237318431
21
23.6552614342
31
0.0000000000
11
-10.0387446843
21
23.6190193235
31
0.0000000000
11
-10.0479033858
21
23.5808751104
31
0.0000000000
11
-10.0509824398
21
23.5417679916
31
0.0000000000
0
SPLINE
5
379
100
AcDbEntity
8
0
100
AcDbSpline
62
9
6
CONTINUOUS
70
0
71
3
72
17
73
13
74
11
42
0.0000001000
43
0.0000001000
44
0.0000000001
12
-0.0000132773
22
0.3922846478
32
0.0000000000
13
-0.3922846478
23
0.0000132773
33
0.0000000000
40
0.0000000000
40
0.0000000000
40
0.0000000000
40
0.0000000000
40
0.1000212882
40
0.2000437058
40
0.3000663194
40
0.4000887329
40
0.5001106882
40
0.6001308622
40
0.7001516800
40
0.8001640015
40
0.9001760606
40
1.0000000000
40
1.0000000000
40
1.0000000000
40
1.0000000000
10
-7.6771795973
20
23.5417679916
30
0.0000000000
10
-7.6771800400
20
23.5548469303
30
0.0000000000
10
-7.6792421388
20
23.5810513612
30
0.0000000000
10
-7.6884426910
20
23.6193530229
30
0.0000000000
10
-7.7035240123
20
23.6557534532
30
0.0000000000
10
-7.7241145029
20
23.6893432227
30
0.0000000000
10
-7.7497066824
20
23.7192981976
30
0.0000000000
10
-7.7796703700
20
23.7448798389
30
0.0000000000
10
-7.8132657022
20
23.7654578217
30
0.0000000000
10
-7.8496684285
20
23.7805258163
30
0.0000000000
10
-7.8879452445
20
23.7897074731
30
0.0000000000
10
-7.9141222335
20
23.7917633191
30
0.0000000000
10
-7.9271753665
20
23.7917637609
30
0.0000000000
11
-7.6771795973
21
23.5417679916
31
0.0000000000
11
-7.6802600124
21
23.5808837015
31
0.0000000000
11
-7.6894228058
21
23.6190361025
31
0.0000000000
11
-7.7044422246
21
23.6552850415
31
0.0000000000
11
-7.7249481864
21
23.6887375136
31
0.0000000000
11
-7.7504354552
21
23.7185694995
31
0.0000000000
11
-7.7802757527
21
23.7440459604
31
0.0000000000
11
-7.8137347507
21
23.7645400739
31
0.0000000000
11
-7.8499849891
21
23.7795458035
31
0.0000000000
11
-7.8881363576
21
23.7886954868
31
0.0000000000
11
-7.9271753665
21
23.7917637609
31
0.0000000000
0
SPLINE
5
37A
100
AcDbEntity
8
0
100
AcDbSpline
62
7
6
CONTINUOUS
70
0
71
3
72
15
73
11
74
9
42
0.0000001000
43
0.0000001000
44
0.0000000001
12
-0.0001890611
22
0.4979620468
32
0.0000000000
13
-0.4457723749
23
0.2228818743
33
0.0000000000
40
0.0000000000
40
0.0000000000
40
0.0000000000
40
0.0000000000
40
0.1289716927
40
0.2579117367
40
0.3868276799
40
0.5157268484
40
0.6446163354
40
0.7735032081
40
0.9023947891
40
1.0000000000
40
1.0000000000
40
1.0000000000
40
1.0000000000
10
11.7184968263
20
21.2547602135
30
0.0000000000
10
11.7184886985
20
21.2761678828
30
0.0000000000
10
11.7154089401
20
21.3190396084
30
0.0000000000
10
11.7016971142
20
21.3819796482
30
0.0000000000
10
11.6791779248
20
21.4423325224
30
0.0000000000
10
11.6483119638
20
21.4988599675
30
0.0000000000
10
11.6097265120
20
21.5504226315
30
0.0000000000
10
11.5642035181
20
21.5959749641
30
0.0000000000
10
11.5168354397
20
21.6314672669
30
0.0000000000
10
11.4840897804
20
21.6501132468
30
0.0000000000
10
11.4695865449
20
21.6573647242
30
0.0000000000
11
11.7184968263
21
21.2547602135
31
0.0000000000
11
11.7138925896
21
21.3188179715
31
0.0000000000
11
11.7002275536
21
21.3815542299
31
0.0000000000
11
11.6777850827
21
21.4416987710
31
0.0000000000
11
11.6470241011
21
21.4980345494
31
0.0000000000
11
11.6085698547
21
21.5494214153
31
0.0000000000
11
11.5632016303
21
21.5948185096
31
0.0000000000
11
11.5118374671
21
21.6333048142
31
0.0000000000
11
11.4695865449
21
21.6573647242
31
0.0000000000
0
SPLINE
5
37B
100
AcDbEntity
8
0
100
AcDbSpline
62
9
6
CONTINUOUS
70
0
71
3
72
18
73
14
74
12
42
0.0000001000
43
0.0000001000
44
0.0000000001
12
-0.0007169620
22
0.7839070306
32
0.0000000000
13
-0.7839070329
23
0.0007144175
33
0.0000000000
40
0.0000000000
40
0.0000000000
40
0.0000000000
40
0.0000000000
40
0.0908337830
40
0.1816832349
40
0.2725511036
40
0.3634386171
40
0.4543453898
40
0.5452694599
40
0.6362074564
40
0.7271548798
40
0.8181064742
40
0.9090566614
40
1.0000000000
40
1.0000000000
40
1.0000000000
40
1.0000000000
10
11.5851187870
20
20.8042727942
30
0.0000000000
10
11.5850970789
20
20.8280078746
30
0.0000000000
10
11.5816528330
20
20.8755487602
30
0.0000000000
10
11.5663918332
20
20.9453491372
30
0.0000000000
10
11.5413463655
20
21.0122952486
30
0.0000000000
10
11.5070259879
20
21.0750069225
30
0.0000000000
10
11.4641287526
20
21.1322142776
30
0.0000000000
10
11.4135271525
20
21.1827529626
30
0.0000000000
10
11.3562497646
20
21.2255959823
30
0.0000000000
10
11.2934625154
20
21.2598723367
30
0.0000000000
10
11.2264368319
20
21.2848852797
30
0.0000000000
10
11.1565542556
20
21.3001262743
30
0.0000000000
10
11.1089586512
20
21.3035658970
30
0.0000000000
10
11.0851949436
20
21.3035875542
30
0.0000000000
11
11.5851187870
21
20.8042727942
31
0.0000000000
11
11.5799712267
21
20.8752917581
31
0.0000000000
11
11.5647631242
21
20.9448665638
31
0.0000000000
11
11.5398037285
21
21.0115825671
31
0.0000000000
11
11.5056005584
21
21.0740832377
31
0.0000000000
11
11.4628490863
21
21.1310977431
31
0.0000000000
11
11.4124185986
21
21.1814667899
31
0.0000000000
11
11.3553345217
21
21.2241661985
31
0.0000000000
11
11.2927575713
21
21.2583277302
31
0.0000000000
11
11.2259601496
21
21.2832567428
31
0.0000000000
11
11.1563004712
21
21.2984463153
31
0.0000000000
11
11.0851949436
21
21.3035875542
31
0.0000000000
0
SPLINE
5
37C
100
AcDbEntity
8
0
100
AcDbSpline
62
9
6
CONTINUOUS
70
0
71
3
72
18
73
14
74
12
42
0.0000001000
43
0.0000001000
44
0.0000000001
12
-0.1956359979
22
0.4614582414
32
0.0000000000
13
-0.5012155454
23
0.0003594874
33
0.0000000000
40
0.0000000000
40
0.0000000000
40
0.0000000000
40
0.0000000000
40
0.0136578490
40
0.0461422522
40
0.0973923221
40
0.1665011385
40
0.2521358041
40
0.3526133709
40
0.4659468461
40
0.5898891694
40
0.7219798677
40
0.8595950087
40
1.0000000000
40
1.0000000000
40
1.0000000000
40
1.0000000000
10
11.5685920205
20
19.8467681961
30
0.0000000000
10
11.5677013649
20
19.8488690384
30
0.0000000000
10
11.5583628549
20
19.8501832062
30
0.0000000000
10
11.5438432487
20
19.8533352367
30
0.0000000000
10
11.5176003182
20
19.8555130023
30
0.0000000000
10
11.4836158539
20
19.8581067626
30
0.0000000000
10
11.4409056272
20
19.8603130664
30
0.0000000000
10
11.3909602227
20
19.8623501106
30
0.0000000000
10
11.3345426974
20
19.8640696157
30
0.0000000000
10
11.2728514688
20
19.8654657539
30
0.0000000000
10
11.2070902790
20
19.8664977738
30
0.0000000000
10
11.1385753377
20
19.8671467947
30
0.0000000000
10
11.0921258944
20
19.8673138398
30
0.0000000000
10
11.0686681730
20
19.8673306644
30
0.0000000000
11
11.5685920205
21
19.8467681961
31
0.0000000000
11
11.5623885506
21
19.8496627106
31
0.0000000000
11
11.5463559103
21
19.8524996000
31
0.0000000000
11
11.5208132835
21
19.8552223864
31
0.0000000000
11
11.4862691823
21
19.8577768637
31
0.0000000000
11
11.4434113238
21
19.8601121763
31
0.0000000000
11
11.3930929381
21
19.8621818320
31
0.0000000000
11
11.3363157826
21
19.8639446272
31
0.0000000000
11
11.2742101982
21
19.8653654675
31
0.0000000000
11
11.2080126061
21
19.8664160665
31
0.0000000000
11
11.1390408928
21
19.8670755082
31
0.0000000000
11
11.0686681730
21
19.8673306644
31
0.0000000000
0
SPLINE
5
37D
100
AcDbEntity
8
0
100
AcDbSpline
62
9
6
CONTINUOUS
70
0
71
3
72
18
73
14
74
12
42
0.0000001000
43
0.0000001000
44
0.0000000001
12
-0.1956360878
22
-0.4614581987
32
0.0000000000
13
-0.5012155412
23
-0.0003594874
33
0.0000000000
40
0.0000000000
40
0.0000000000
40
0.0000000000
40
0.0000000000
40
0.0136578502
40
0.0461422544
40
0.0973923250
40
0.1665011418
40
0.2521358076
40
0.3526133742
40
0.4659468491
40
0.5898891718
40
0.7219798694
40
0.8595950096
40
1.0000000000
40
1.0000000000
40
1.0000000000
40
1.0000000000
10
11.5685920164
20
-21.2370435169
30
0.0000000000
10
11.5677013603
20
-21.2391443592
30
0.0000000000
10
11.5583628506
20
-21.2404585269
30
0.0000000000
10
11.5438432434
20
-21.2436105575
30
0.0000000000
10
11.5176003131
20
-21.2457883230
30
0.0000000000
10
11.4836158487
20
-21.2483820833
30
0.0000000000
10
11.4409056224
20
-21.2505883871
30
0.0000000000
10
11.3909602184
20
-21.2526254312
30
0.0000000000
10
11.3345426937
20
-21.2543449363
30
0.0000000000
10
11.2728514659
20
-21.2557410744
30
0.0000000000
10
11.2070902770
20
-21.2567730944
30
0.0000000000
10
11.1385753367
20
-21.2574221152
30
0.0000000000
10
11.0921258940
20
-21.2575891603
30
0.0000000000
10
11.0686681730
20
-21.2576059849
30
0.0000000000
11
11.5685920164
21
-21.2370435169
31
0.0000000000
11
11.5623885459
21
-21.2399380314
31
0.0000000000
11
11.5463559052
21
-21.2427749208
31
0.0000000000
11
11.5208132782
21
-21.2454977072
31
0.0000000000
11
11.4862691771
21
-21.2480521844
31
0.0000000000
11
11.4434113189
21
-21.2503874970
31
0.0000000000
11
11.3930929337
21
-21.2524571526
31
0.0000000000
11
11.3363157789
21
-21.2542199478
31
0.0000000000
11
11.2742101952
21
-21.2556407881
31
0.0000000000
11
11.2080126041
21
-21.2566913870
31
0.0000000000
11
11.1390408917
21
-21.2573508288
31
0.0000000000
11
11.0686681730
21
-21.2576059849
31
0.0000000000
0
SPLINE
5
37E
100
AcDbEntity
8
0
100
AcDbSpline
62
7
6
CONTINUOUS
70
0
71
3
72
15
73
11
74
9
42
0.0000001000
43
0.0000001000
44
0.0000000001
12
-0.0001892310
22
-0.4979622111
32
0.0000000000
13
-0.4457725216
23
-0.2228819489
33
0.0000000000
40
0.0000000000
40
0.0000000000
40
0.0000000000
40
0.0000000000
40
0.1289716892
40
0.2579116976
40
0.3868276191
40
0.5157267736
40
0.6446162538
40
0.7735031272
40
0.9023947172
40
1.0000000000
40
1.0000000000
40
1.0000000000
40
1.0000000000
10
11.7184971072
20
-22.6450353939
30
0.0000000000
10
11.7184889721
20
-22.6664430697
30
0.0000000000
10
11.7154092157
20
-22.7093148033
30
0.0000000000
10
11.7016973539
20
-22.7722548475
30
0.0000000000
10
11.6791781484
20
-22.8326077247
30
0.0000000000
10
11.6483121687
20
-22.8891351758
30
0.0000000000
10
11.6097266995
20
-22.9406978488
30
0.0000000000
10
11.5642036868
20
-22.9862501932
30
0.0000000000
10
11.5168355814
20
-23.0217425151
30
0.0000000000
10
11.4840898998
20
-23.0403885079
30
0.0000000000
10
11.4695866488
20
-23.0476399931
30
0.0000000000
11
11.7184971072
21
-22.6450353939
31
0.0000000000
11
11.7138928580
21
-22.7090931705
31
0.0000000000
11
11.7002277972
21
-22.7718294270
31
0.0000000000
11
11.6777853067
21
-22.8319739718
31
0.0000000000
11
11.6470243071
21
-22.8883097567
31
0.0000000000
11
11.6085700431
21
-22.9396966317
31
0.0000000000
11
11.5632018001
21
-22.9850937378
31
0.0000000000
11
11.5118376158
21
-23.0235800571
31
0.0000000000
11
11.4695866488
21
-23.0476399931
31
0.0000000000
0
SPLINE
5
37F
100
AcDbEntity
8
0
100
AcDbSpline
62
9
6
CONTINUOUS
70
0
71
3
72
18
73
14
74
12
42
0.0000001000
43
0.0000001000
44
0.0000000001
12
-0.0007564572
22
-0.7838889949
32
0.0000000000
13
-0.7838889625
23
-0.0007893086
33
0.0000000000
40
0.0000000000
40
0.0000000000
40
0.0000000000
40
0.0000000000
40
0.0908303462
40
0.1816773098
40
0.2725437099
40
0.3634307540
40
0.4543379432
40
0.5452631209
40
0.6362026589
40
0.7271517659
40
0.8181048910
40
0.9090561877
40
1.0000000000
40
1.0000000000
40
1.0000000000
40
1.0000000000
10
11.5851197983
20
-22.1945481150
30
0.0000000000
10
11.5850968952
20
-22.2182817513
30
0.0000000000
10
11.5816503427
20
-22.2658198182
30
0.0000000000
10
11.5663865188
20
-22.3356159016
30
0.0000000000
10
11.5413389905
20
-22.4025582210
30
0.0000000000
10
11.5070174139
20
-22.4652668636
30
0.0000000000
10
11.4641198627
20
-22.5224722057
30
0.0000000000
10
11.4135187738
20
-22.5730101245
30
0.0000000000
10
11.3562425943
20
-22.6158537981
30
0.0000000000
10
11.2934570600
20
-22.6501323230
30
0.0000000000
10
11.2264333672
20
-22.6751489580
30
0.0000000000
10
11.1565528085
20
-22.6903950731
30
0.0000000000
10
11.1089582271
20
-22.6938389546
30
0.0000000000
10
11.0851949436
20
-22.6938628822
30
0.0000000000
11
11.5851197983
21
-22.1945481150
31
0.0000000000
11
11.5799688921
21
-22.2655624960
31
0.0000000000
11
11.5647580494
21
-22.3351330323
31
0.0000000000
11
11.5397966584
21
-22.4018453137
31
0.0000000000
11
11.5055923171
21
-22.4643430590
31
0.0000000000
11
11.4628405089
21
-22.5213556756
31
0.0000000000
11
11.4124104623
21
-22.5717240769
31
0.0000000000
11
11.3553274815
21
-22.6144242354
31
0.0000000000
11
11.2927521075
21
-22.6485879928
31
0.0000000000
11
11.2259565327
21
-22.6735207037
31
0.0000000000
11
11.1562987475
21
-22.6887153561
31
0.0000000000
11
11.0851949436
21
-22.6938628822
31
0.0000000000
0
SPLINE
5
380
100
AcDbEntity
8
0
100
AcDbSpline
62
9
6
CONTINUOUS
70
0
71
3
72
14
73
10
74
8
42
0.0000001000
43
0.0000001000
44
0.0000000001
12
-0.1396855465
22
0.4194795365
32
0.0000000000
13
-0.1396336780
23
0.4194968050
33
0.0000000000
40
0.0000000000
40
0.0000000000
40
0.0000000000
40
0.0000000000
40
0.0978908738
40
0.2196783201
40
0.3619983352
40
0.5183284703
40
0.6797117679
40
0.8391540087
40
1.0000000000
40
1.0000000000
40
1.0000000000
40
1.0000000000
10
-9.9135087413
20
21.3040432137
30
0.0000000000
10
-9.9180667214
20
21.3177309531
30
0.0000000000
10
-9.9301695195
20
21.3478301455
30
0.0000000000
10
-9.9543695509
20
21.3954192444
30
0.0000000000
10
-9.9853891595
20
21.4490782367
30
0.0000000000
10
-10.0195551924
20
21.5075875191
30
0.0000000000
10
-10.0523692032
20
21.5700271980
30
0.0000000000
10
-10.0744969967
20
21.6376480229
30
0.0000000000
10
-10.0894819876
20
21.6823708798
30
0.0000000000
10
-10.0969684934
20
21.7048623396
30
0.0000000000
11
-9.9135087413
21
21.3040432137
31
0.0000000000
11
-9.9293658744
21
21.3443137473
31
0.0000000000
11
-9.9533860042
21
21.3925045776
31
0.0000000000
11
-9.9843886835
21
21.4472602176
31
0.0000000000
11
-10.0187569422
21
21.5072273861
31
0.0000000000
11
-10.0506493181
21
21.5710548247
31
0.0000000000
11
-10.0744996863
21
21.6373910530
31
0.0000000000
11
-10.0969684934
21
21.7048623396
31
0.0000000000
0
SPLINE
5
381
100
AcDbEntity
8
0
100
AcDbSpline
62
9
6
CONTINUOUS
70
0
71
3
72
9
73
5
74
3
42
0.0000001000
43
0.0000001000
44
0.0000000001
12
-0.0001029253
22
-1.1998983467
32
0.0000000000
13
-0.0001280840
23
-1.1998983442
33
0.0000000000
40
0.0000000000
40
0.0000000000
40
0.0000000000
40
0.0000000000
40
0.5000004749
40
1.0000000000
40
1.0000000000
40
1.0000000000
40
1.0000000000
10
2.8953460536
20
-5.6045914016
30
0.0000000000
10
2.8953288993
20
-5.8045746494
30
0.0000000000
10
2.8952924995
20
-6.2045407647
30
0.0000000000
10
2.8952518976
20
-6.6045068797
30
0.0000000000
10
2.8952305503
20
-6.8044897471
30
0.0000000000
11
2.8953460536
21
-5.6045914016
31
0.0000000000
11
2.8952914489
21
-6.2045411445
31
0.0000000000
11
2.8952305503
21
-6.8044897471
31
0.0000000000
0
SPLINE
5
382
100
AcDbEntity
8
0
100
AcDbSpline
62
7
6
CONTINUOUS
70
0
71
3
72
15
73
11
74
9
42
0.0000001000
43
0.0000001000
44
0.0000000001
12
0.0001895065
22
0.4979627493
32
0.0000000000
13
0.4457730014
23
0.2228821949
33
0.0000000000
40
0.0000000000
40
0.0000000000
40
0.0000000000
40
0.0000000000
40
0.1289717439
40
0.2579116009
40
0.3868274179
40
0.5157264920
40
0.6446159204
40
0.7735027811
40
0.9023944097
40
1.0000000000
40
1.0000000000
40
1.0000000000
40
1.0000000000
10
-10.5466601787
20
21.2547595559
30
0.0000000000
10
-10.5466520317
20
21.2761672640
30
0.0000000000
10
-10.5435723344
20
21.3190390343
30
0.0000000000
10
-10.5298603388
20
21.3819790912
30
0.0000000000
10
-10.5073410949
20
21.4423319640
30
0.0000000000
10
-10.4764750578
20
21.4988594196
30
0.0000000000
10
-10.4378895349
20
21.5504221079
30
0.0000000000
10
-10.3923664602
20
21.5959744818
30
0.0000000000
10
-10.3449982557
20
21.6314668698
30
0.0000000000
10
-10.3122524888
20
21.6501129106
30
0.0000000000
10
-10.2977491765
20
21.6573644267
30
0.0000000000
11
-10.5466601787
21
21.2547595559
31
0.0000000000
11
-10.5420559343
21
21.3188174298
31
0.0000000000
11
-10.5283907996
21
21.3815536641
31
0.0000000000
11
-10.5059482528
21
21.4416982065
31
0.0000000000
11
-10.4751872008
21
21.4980339962
31
0.0000000000
11
-10.4367328836
21
21.5494208858
31
0.0000000000
11
-10.3913645808
21
21.5948180213
31
0.0000000000
11
-10.3400003217
21
21.6333043886
31
0.0000000000
11
-10.2977491765
21
21.6573644267
31
0.0000000000
0
SPLINE
5
383
100
AcDbEntity
8
0
100
AcDbSpline
62
9
6
CONTINUOUS
70
0
71
3
72
14
73
10
74
8
42
0.0000001000
43
0.0000001000
44
0.0000000001
12
-0.1483550435
22
0.4454016633
32
0.0000000000
13
-0.1483645484
23
0.4453984973
33
0.0000000000
40
0.0000000000
40
0.0000000000
40
0.0000000000
40
0.0000000000
40
0.0951982350
40
0.2193539034
40
0.3680144785
40
0.5317130202
40
0.6964559592
40
0.8487803329
40
1.0000000000
40
1.0000000000
40
1.0000000000
40
1.0000000000
10
-10.4134325889
20
20.8047284463
30
0.0000000000
10
-10.4181403017
20
20.8188622637
30
0.0000000000
10
-10.4283228565
20
20.8516502481
30
0.0000000000
10
-10.4440061496
20
20.9070657106
30
0.0000000000
10
-10.4616486702
20
20.9730586133
30
0.0000000000
10
-10.4808721429
20
21.0451961736
30
0.0000000000
10
-10.5009976756
20
21.1177093687
30
0.0000000000
10
-10.5241753113
20
21.1872442321
30
0.0000000000
10
-10.5391816328
20
21.2323085517
30
0.0000000000
10
-10.5466601787
20
21.2547595559
30
0.0000000000
11
-10.4134325889
21
20.8047284463
31
0.0000000000
11
-10.4268214402
21
20.8473674525
31
0.0000000000
11
-10.4428375909
21
20.9034097749
31
0.0000000000
11
-10.4610320672
21
20.9707864310
31
0.0000000000
11
-10.4809580947
21
21.0450079977
31
0.0000000000
11
-10.5021709109
21
21.1193820760
31
0.0000000000
11
-10.5242255957
21
21.1874061921
31
0.0000000000
11
-10.5466601787
21
21.2547595559
31
0.0000000000
0
SPLINE
5
384
100
AcDbEntity
8
0
100
AcDbSpline
62
9
6
CONTINUOUS
70
0
71
3
72
18
73
14
74
12
42
0.0000001000
43
0.0000001000
44
0.0000000001
12
0.0007168851
22
0.7839071348
32
0.0000000000
13
0.7839071364
23
0.0007151395
33
0.0000000000
40
0.0000000000
40
0.0000000000
40
0.0000000000
40
0.0000000000
40
0.0908336763
40
0.1816831370
40
0.2725510590
40
0.3634386241
40
0.4543454244
40
0.5452694961
40
0.6362074795
40
0.7271548906
40
0.8181064842
40
0.9090566773
40
1.0000000000
40
1.0000000000
40
1.0000000000
40
1.0000000000
10
-10.4132808283
20
20.8042727942
30
0.0000000000
10
-10.4132591225
20
20.8280078498
30
0.0000000000
10
-10.4098148793
20
20.8755487155
30
0.0000000000
10
-10.3945539147
20
20.9453490966
30
0.0000000000
10
-10.3695084808
20
21.0122952623
30
0.0000000000
10
-10.3351881263
20
21.0750069998
30
0.0000000000
10
-10.2922908976
20
21.1322143998
30
0.0000000000
10
-10.2416892869
20
21.1827530960
30
0.0000000000
10
-10.1844118744
20
21.2255960909
30
0.0000000000
10
-10.1216245929
20
21.2598723931
30
0.0000000000
10
-10.0545988797
20
21.2848852777
30
0.0000000000
10
-9.9847162907
20
21.3001262331
30
0.0000000000
10
-9.9371206873
20
21.3035658825
30
0.0000000000
10
-9.9133569807
20
21.3035875616
30
0.0000000000
11
-10.4132808283
21
20.8042727942
31
0.0000000000
11
-10.4081332834
21
20.8752916847
31
0.0000000000
11
-10.3929252103
21
20.9448665136
31
0.0000000000
11
-10.3679658419
21
21.0115825819
31
0.0000000000
11
-10.3337626894
21
21.0740833190
31
0.0000000000
11
-10.2910112221
21
21.1310978670
31
0.0000000000
11
-10.2405807264
21
21.1814669210
31
0.0000000000
11
-10.1834966303
21
21.2241663025
31
0.0000000000
11
-10.1209196527
21
21.2583277840
31
0.0000000000
11
-10.0541222018
21
21.2832567435
31
0.0000000000
11
-9.9844625029
21
21.2984462881
31
0.0000000000
11
-9.9133569807
21
21.3035875616
31
0.0000000000
0
SPLINE
5
385
100
AcDbEntity
8
0
100
AcDbSpline
62
9
6
CONTINUOUS
70
0
71
3
72
18
73
14
74
12
42
0.0000001000
43
0.0000001000
44
0.0000000001
12
0.1956356151
22
0.4614584081
32
0.0000000000
13
0.5012155495
23
0.0003594346
33
0.0000000000
40
0.0000000000
40
0.0000000000
40
0.0000000000
40
0.0000000000
40
0.0136578542
40
0.0461422589
40
0.0973923293
40
0.1665011455
40
0.2521358106
40
0.3526133766
40
0.4659468508
40
0.5898891730
40
0.7219798701
40
0.8595950099
40
1.0000000000
40
1.0000000000
40
1.0000000000
40
1.0000000000
10
-10.3967540577
20
19.8467681961
30
0.0000000000
10
-10.3958634034
20
19.8488690400
30
0.0000000000
10
-10.3865248932
20
19.8501832167
30
0.0000000000
10
-10.3720052860
20
19.8533352479
30
0.0000000000
10
-10.3457623556
20
19.8555130192
30
0.0000000000
10
-10.3117778911
20
19.8581067813
30
0.0000000000
10
-10.2690676644
20
19.8603130868
30
0.0000000000
10
-10.2191222599
20
19.8623501309
30
0.0000000000
10
-10.1627047345
20
19.8640696348
30
0.0000000000
10
-10.1010135059
20
19.8654657703
30
0.0000000000
10
-10.0352523161
20
19.8664977862
30
0.0000000000
10
-9.9667373748
20
19.8671468016
30
0.0000000000
10
-9.9202879315
20
19.8673138423
30
0.0000000000
10
-9.8968302101
20
19.8673306644
30
0.0000000000
11
-10.3967540577
21
19.8467681961
31
0.0000000000
11
-10.3905505877
21
19.8496627168
31
0.0000000000
11
-10.3745179474
21
19.8524996115
31
0.0000000000
11
-10.3489753206
21
19.8552224021
31
0.0000000000
11
-10.3144312195
21
19.8577768822
31
0.0000000000
11
-10.2715733609
21
19.8601121963
31
0.0000000000
11
-10.2212549752
21
19.8621818521
31
0.0000000000
11
-10.1644778197
21
19.8639446461
31
0.0000000000
11
-10.1023722353
21
19.8653654838
31
0.0000000000
11
-10.0361746432
21
19.8664160787
31
0.0000000000
11
-9.9672029299
21
19.8670755150
31
0.0000000000
11
-9.8968302101
21
19.8673306644
31
0.0000000000
0
SPLINE
5
386
100
AcDbEntity
8
0
100
AcDbSpline
62
9
6
CONTINUOUS
70
0
71
3
72
15
73
11
74
9
42
0.0000001000
43
0.0000001000
44
0.0000000001
12
0.1466887022
22
-0.4464600165
32
0.0000000000
13
0.1483398422
23
-0.4459141318
33
0.0000000000
40
0.0000000000
40
0.0000000000
40
0.0000000000
40
0.0000000000
40
0.1246029124
40
0.2587831887
40
0.4070121086
40
0.5572278963
40
0.6855004456
40
0.7904967409
40
0.8904697973
40
1.0000000000
40
1.0000000000
40
1.0000000000
40
1.0000000000
10
11.5851187912
20
-22.1945481150
30
0.0000000000
10
11.5912114043
20
-22.2130915211
30
0.0000000000
10
11.6031752527
20
-22.2518332245
30
0.0000000000
10
11.6201404832
20
-22.3132956404
30
0.0000000000
10
11.6375932779
20
-22.3787786881
30
0.0000000000
10
11.6548345515
20
-22.4433604899
30
0.0000000000
10
11.6711888964
20
-22.5011700808
30
0.0000000000
10
11.6869376676
20
-22.5509462513
30
0.0000000000
10
11.7027829654
20
-22.5975945131
30
0.0000000000
10
11.7130811342
20
-22.6287550764
30
0.0000000000
10
11.7184970319
20
-22.6450354315
30
0.0000000000
11
11.5851187912
21
-22.1945481150
31
0.0000000000
11
11.6024595719
21
-22.2504775164
31
0.0000000000
11
11.6194694261
21
-22.3111966975
31
0.0000000000
11
11.6375177492
21
-22.3784767370
31
0.0000000000
11
11.6559028348
21
-22.4466330887
31
0.0000000000
11
11.6725069056
21
-22.5045816884
31
0.0000000000
11
11.6873430481
21
-22.5516404124
31
0.0000000000
11
11.7022428969
21
-22.5961965098
31
0.0000000000
11
11.7184970319
21
-22.6450354315
31
0.0000000000
0
SPLINE
5
387
100
AcDbEntity
8
0
100
AcDbSpline
62
9
6
CONTINUOUS
70
0
71
3
72
53
73
49
74
47
42
0.0000001000
43
0.0000001000
44
0.0000000001
12
-0.0006880335
22
1.4365231705
32
0.0000000000
13
-0.3113833671
23
1.4023693135
33
0.0000000000
40
0.0000000000
40
0.0000000000
40
0.0000000000
40
0.0000000000
40
0.0334766331
40
0.0668745891
40
0.1001593838
40
0.1332966504
40
0.1662521758
40
0.1989919358
40
0.2314822702
40
0.2636897751
40
0.2955812107
40
0.3271236607
40
0.3582845681
40
0.3890317732
40
0.4193335918
40
0.4491588416
40
0.4784768098
40
0.5072572626
40
0.5354704907
40
0.5630873730
40
0.5900794168
40
0.6164187846
40
0.6420783931
40
0.6670318129
40
0.6912532869
40
0.7147178151
40
0.7374011799
40
0.7592799723
40
0.7803316789
40
0.8005346475
40
0.8198680362
40
0.8383119025
40
0.8558472328
40
0.8724559597
40
0.8881209934
40
0.9028262378
40
0.9165565805
40
0.9292979179
40
0.9410371788
40
0.9517623532
40
0.9614625168
40
0.9701278578
40
0.9777497172
40
0.9843206374
40
0.9898344720
40
0.9942866230
40
0.9976746183
40
1.0000000000
40
1.0000000000
40
1.0000000000
40
1.0000000000
10
-9.8968302101
20
19.8673306644
30
0.0000000000
10
-9.8968378878
20
19.8833606508
30
0.0000000000
10
-9.8968592126
20
19.9153829472
30
0.0000000000
10
-9.8969091618
20
19.9633433529
30
0.0000000000
10
-9.8969769962
20
20.0111412340
30
0.0000000000
10
-9.8970626447
20
20.0587272321
30
0.0000000000
10
-9.8971660190
20
20.1060522095
30
0.0000000000
10
-9.8972870120
20
20.1530673664
30
0.0000000000
10
-9.8974254987
20
20.1997242905
30
0.0000000000
10
-9.8975813361
20
20.2459749450
30
0.0000000000
10
-9.8977543631
20
20.2917716492
30
0.0000000000
10
-9.8979444005
20
20.3370671277
30
0.0000000000
10
-9.8981512516
20
20.3818146223
30
0.0000000000
10
-9.8983747020
20
20.4259679642
30
0.0000000000
10
-9.8986145204
20
20.4694816430
30
0.0000000000
10
-9.8988704588
20
20.5123108407
30
0.0000000000
10
-9.8991422523
20
20.5544114333
30
0.0000000000
10
-9.8994296195
20
20.5957400020
30
0.0000000000
10
-9.8997322622
20
20.6362538897
30
0.0000000000
10
-9.9000498662
20
20.6759112723
30
0.0000000000
10
-9.9003821016
20
20.7146712216
30
0.0000000000
10
-9.9007286236
20
20.7524937844
30
0.0000000000
10
-9.9010890724
20
20.7893399948
30
0.0000000000
10
-9.9014630735
20
20.8251718821
30
0.0000000000
10
-9.9018502373
20
20.8599524718
30
0.0000000000
10
-9.9022501599
20
20.8936458477
30
0.0000000000
10
-9.9026624230
20
20.9262172160
30
0.0000000000
10
-9.9030865952
20
20.9576329720
30
0.0000000000
10
-9.9035222321
20
20.9878607374
30
0.0000000000
10
-9.9039688759
20
21.0168693601
30
0.0000000000
10
-9.9044260556
20
21.0446289162
30
0.0000000000
10
-9.9048932861
20
21.0711107412
30
0.0000000000
10
-9.9053700693
20
21.0962874945
30
0.0000000000
10
-9.9058558929
20
21.1201331956
30
0.0000000000
10
-9.9063502306
20
21.1426232533
30
0.0000000000
10
-9.9068525403
20
21.1637344817
30
0.0000000000
10
-9.9073622614
20
21.1834451124
30
0.0000000000
10
-9.9078788111
20
21.2017348090
30
0.0000000000
10
-9.9084015800
20
21.2185846980
30
0.0000000000
10
-9.9089299166
20
21.2339773998
30
0.0000000000
10
-9.9094631308
20
21.2478970451
30
0.0000000000
10
-9.9100004019
20
21.2603293311
30
0.0000000000
10
-9.9105409226
20
21.2712614441
30
0.0000000000
10
-9.9110831831
20
21.2806824119
30
0.0000000000
10
-9.9116265537
20
21.2885822743
30
0.0000000000
10
-9.9121655607
20
21.2949549902
30
0.0000000000
10
-9.9127023952
20
21.2997922705
30
0.0000000000
10
-9.9131156190
20
21.3025005469
30
0.0000000000
10
-9.9133569807
20
21.3035875616
30
0.0000000000
11
-9.8968302101
21
19.8673306644
31
0.0000000000
11
-9.8968622511
21
19.9154206184
31
0.0000000000
11
-9.8969122437
21
19.9633975355
31
0.0000000000
11
-9.8969801368
21
20.0112118716
31
0.0000000000
11
-9.8970658601
21
20.0588142511
31
0.0000000000
11
-9.8971693252
21
20.1061555192
31
0.0000000000
11
-9.8972904251
21
20.1531867926
31
0.0000000000
11
-9.8974290353
21
20.1998597104
31
0.0000000000
11
-9.8975850134
21
20.2461262798
31
0.0000000000
11
-9.8977581986
21
20.2919387439
31
0.0000000000
11
-9.8979484122
21
20.3372498101
31
0.0000000000
11
-9.8981554579
21
20.3820127019
31
0.0000000000
11
-9.8983791221
21
20.4261812133
31
0.0000000000
11
-9.8986191742
21
20.4697098208
31
0.0000000000
11
-9.8988753672
21
20.5125537221
31
0.0000000000
11
-9.8991474375
21
20.5546687888
31
0.0000000000
11
-9.8994351047
21
20.5960115801
31
0.0000000000
11
-9.8997380719
21
20.6365394082
31
0.0000000000
11
-9.9000560266
21
20.6762104299
31
0.0000000000
11
-9.9003886405
21
20.7149837040
31
0.0000000000
11
-9.9007355708
21
20.7528192300
31
0.0000000000
11
-9.9010964606
21
20.7896780897
31
0.0000000000
11
-9.9014709384
21
20.8255223034
31
0.0000000000
11
-9.9018586178
21
20.8603148563
31
0.0000000000
11
-9.9022590988
21
20.8940198194
31
0.0000000000
11
-9.9026719679
21
20.9266023866
31
0.0000000000
11
-9.9030967989
21
20.9580289110
31
0.0000000000
11
-9.9035331543
21
20.9882670305
31
0.0000000000
11
-9.9039805853
21
21.0172856172
31
0.0000000000
11
-9.9044386301
21
21.0450547037
31
0.0000000000
11
-9.9049068161
21
21.0715456112
31
0.0000000000
11
-9.9053846599
21
21.0967309896
31
0.0000000000
11
-9.9058716686
21
21.1205848424
31
0.0000000000
11
-9.9063673399
21
21.1430825693
31
0.0000000000
11
-9.9068711634
21
21.1642009869
31
0.0000000000
11
-9.9073826197
21
21.1839183123
31
0.0000000000
11
-9.9079011812
21
21.2022141935
31
0.0000000000
11
-9.9084263128
21
21.2190697375
31
0.0000000000
11
-9.9089574725
21
21.2344675421
31
0.0000000000
11
-9.9094941124
21
21.2483917162
31
0.0000000000
11
-9.9100356789
21
21.2608278943
31
0.0000000000
11
-9.9105816139
21
21.2717632542
31
0.0000000000
11
-9.9111313546
21
21.2811865123
31
0.0000000000
11
-9.9116843333
21
21.2890879381
31
0.0000000000
11
-9.9122399802
21
21.2954593741
31
0.0000000000
11
-9.9127977206
21
21.3002942449
31
0.0000000000
11
-9.9133569807
21
21.3035875616
31
0.0000000000
0
SPLINE
5
388
100
AcDbEntity
8
0
100
AcDbSpline
62
9
6
CONTINUOUS
70
0
71
3
72
53
73
49
74
47
42
0.0000001000
43
0.0000001000
44
0.0000000001
12
-0.0006883673
22
0.9579029892
32
0.0000000000
13
-0.3026859019
23
0.9088233356
33
0.0000000000
40
0.0000000000
40
0.0000000000
40
0.0000000000
40
0.0000000000
40
0.0334689841
40
0.0668593207
40
0.1001365404
40
0.1332662898
40
0.1662143694
40
0.1989467689
40
0.2314298417
40
0.2636301978
40
0.2955146113
40
0.3270501798
40
0.3582043604
40
0.3889450075
40
0.4192404512
40
0.4490595237
40
0.4783715267
40
0.5071462413
40
0.5353539733
40
0.5629656171
40
0.5899526958
40
0.6162873882
40
0.6419426279
40
0.6668920030
40
0.6911097747
40
0.7145709625
40
0.7372513691
40
0.7591276076
40
0.7801771882
40
0.8003784847
40
0.8197106836
40
0.8381538742
40
0.8556890788
40
0.8722982713
40
0.8879644096
40
0.9026714539
40
0.9164043596
40
0.9291491061
40
0.9408927256
40
0.9516233406
40
0.9613302013
40
0.9700037321
40
0.9776356081
40
0.9842188636
40
0.9897481321
40
0.9942201362
40
0.9976349777
40
1.0000000000
40
1.0000000000
40
1.0000000000
40
1.0000000000
10
-10.3967540577
20
19.8467681961
30
0.0000000000
10
-10.3967617373
20
19.8574548760
30
0.0000000000
10
-10.3967830592
20
19.8788031199
30
0.0000000000
10
-10.3968330099
20
19.9107767879
30
0.0000000000
10
-10.3969008441
20
19.9426421048
30
0.0000000000
10
-10.3969864930
20
19.9743661652
30
0.0000000000
10
-10.3970898677
20
20.0059162101
30
0.0000000000
10
-10.3972108611
20
20.0372597065
30
0.0000000000
10
-10.3973493483
20
20.0683643792
30
0.0000000000
10
-10.3975051862
20
20.0991982035
30
0.0000000000
10
-10.3976782138
20
20.1297293923
30
0.0000000000
10
-10.3978682519
20
20.1599264285
30
0.0000000000
10
-10.3980751036
20
20.1897581397
30
0.0000000000
10
-10.3982985548
20
20.2191937469
30
0.0000000000
10
-10.3985383740
20
20.2482029095
30
0.0000000000
10
-10.3987943133
20
20.2767557489
30
0.0000000000
10
-10.3990661078
20
20.3048228491
30
0.0000000000
10
-10.3993534759
20
20.3323752640
30
0.0000000000
10
-10.3996561196
20
20.3593845556
30
0.0000000000
10
-10.3999737247
20
20.3858228412
30
0.0000000000
10
-10.4003059613
20
20.4116628354
30
0.0000000000
10
-10.4006524845
20
20.4368779026
30
0.0000000000
10
-10.4010129345
20
20.4614420657
30
0.0000000000
10
-10.4013869369
20
20.4853300109
30
0.0000000000
10
-10.4017741021
20
20.5085170888
30
0.0000000000
10
-10.4021740261
20
20.5309793553
30
0.0000000000
10
-10.4025862907
20
20.5526936149
30
0.0000000000
10
-10.4030104646
20
20.5736374646
30
0.0000000000
10
-10.4034461031
20
20.5937893192
30
0.0000000000
10
-10.4038927488
20
20.6131284113
30
0.0000000000
10
-10.4043499306
20
20.6316347922
30
0.0000000000
10
-10.4048171634
20
20.6492893529
30
0.0000000000
10
-10.4052939491
20
20.6660738676
30
0.0000000000
10
-10.4057797758
20
20.6819710171
30
0.0000000000
10
-10.4062741171
20
20.6969644092
30
0.0000000000
10
-10.4067764311
20
20.7110385894
30
0.0000000000
10
-10.4072861576
20
20.7241790488
30
0.0000000000
10
-10.4078027145
20
20.7363722352
30
0.0000000000
10
-10.4083254928
20
20.7476055736
30
0.0000000000
10
-10.4088538433
20
20.7578674905
30
0.0000000000
10
-10.4093870757
20
20.7671474214
30
0.0000000000
10
-10.4099243826
20
20.7754358741
30
0.0000000000
10
-10.4104649382
20
20.7827243253
30
0.0000000000
10
-10.4110073358
20
20.7890056764
30
0.0000000000
10
-10.4115507504
20
20.7942731881
30
0.0000000000
10
-10.4120905164
20
20.7985242664
30
0.0000000000
10
-10.4126275621
20
20.8017525240
30
0.0000000000
10
-10.4130422087
20
20.8035563317
30
0.0000000000
10
-10.4132808283
20
20.8042727942
30
0.0000000000
11
-10.3967540577
21
19.8467681961
31
0.0000000000
11
-10.3967860987
21
19.8788282282
31
0.0000000000
11
-10.3968360915
21
19.9108129007
31
0.0000000000
11
-10.3969039848
21
19.9426891848
31
0.0000000000
11
-10.3969897083
21
19.9744241632
31
0.0000000000
11
-10.3970931738
21
20.0059850657
31
0.0000000000
11
-10.3972142741
21
20.0373393033
31
0.0000000000
11
-10.3973528847
21
20.0684546352
31
0.0000000000
11
-10.3975088633
21
20.0992990661
31
0.0000000000
11
-10.3976820491
21
20.1298407579
31
0.0000000000
11
-10.3978722633
21
20.1600481822
31
0.0000000000
11
-10.3980793097
21
20.1898901544
31
0.0000000000
11
-10.3983029746
21
20.2193358703
31
0.0000000000
11
-10.3985430275
21
20.2483549810
31
0.0000000000
11
-10.3987992213
21
20.2769176180
31
0.0000000000
11
-10.3990712924
21
20.3049943624
31
0.0000000000
11
-10.3993589605
21
20.3325562535
31
0.0000000000
11
-10.3996619286
21
20.3595748327
31
0.0000000000
11
-10.3999798842
21
20.3860222044
31
0.0000000000
11
-10.4003124991
21
20.4118710746
31
0.0000000000
11
-10.4006594303
21
20.4370947759
31
0.0000000000
11
-10.4010203212
21
20.4616673631
31
0.0000000000
11
-10.4013948001
21
20.4855635161
31
0.0000000000
11
-10.4017824806
21
20.5087585585
31
0.0000000000
11
-10.4021829626
21
20.5312285375
31
0.0000000000
11
-10.4025958328
21
20.5529502490
31
0.0000000000
11
-10.4030206648
21
20.5739012618
31
0.0000000000
11
-10.4034570213
21
20.5940600011
31
0.0000000000
11
-10.4039044534
21
20.6134057149
31
0.0000000000
11
-10.4043624994
21
20.6319184251
31
0.0000000000
11
-10.4048306864
21
20.6495790124
31
0.0000000000
11
-10.4053085314
21
20.6663692433
31
0.0000000000
11
-10.4057955411
21
20.6822717870
31
0.0000000000
11
-10.4062912136
21
20.6972702433
31
0.0000000000
11
-10.4067950382
21
20.7113491566
31
0.0000000000
11
-10.4073064955
21
20.7244940050
31
0.0000000000
11
-10.4078250581
21
20.7366912206
31
0.0000000000
11
-10.4083501907
21
20.7479282080
31
0.0000000000
11
-10.4088813514
21
20.7581933659
31
0.0000000000
11
-10.4094179922
21
20.7674761003
31
0.0000000000
11
-10.4099595597
21
20.7757668342
31
0.0000000000
11
-10.4105054956
21
20.7830570199
31
0.0000000000
11
-10.4110552370
21
20.7893391339
31
0.0000000000
11
-10.4116082168
21
20.7946066922
31
0.0000000000
11
-10.4121638642
21
20.7988542499
31
0.0000000000
11
-10.4127216060
21
20.8020774375
31
0.0000000000
11
-10.4132808283
21
20.8042727942
31
0.0000000000
0
SPLINE
5
389
100
AcDbEntity
8
0
100
AcDbSpline
62
9
6
CONTINUOUS
70
0
71
3
72
18
73
14
74
12
42
0.0000001000
43
0.0000001000
44
0.0000000001
12
0.1956359941
22
-0.4614582430
32
0.0000000000
13
0.5012155454
23
-0.0003594867
33
0.0000000000
40
0.0000000000
40
0.0000000000
40
0.0000000000
40
0.0000000000
40
0.0136578491
40
0.0461422523
40
0.0973923222
40
0.1665011385
40
0.2521358041
40
0.3526133710
40
0.4659468462
40
0.5898891695
40
0.7219798678
40
0.8595950088
40
1.0000000000
40
1.0000000000
40
1.0000000000
40
1.0000000000
10
-10.3967540577
20
-21.2370435169
30
0.0000000000
10
-10.3958634020
20
-21.2391443593
30
0.0000000000
10
-10.3865248920
20
-21.2404585271
30
0.0000000000
10
-10.3720052858
20
-21.2436105576
30
0.0000000000
10
-10.3457623553
20
-21.2457883231
30
0.0000000000
10
-10.3117778910
20
-21.2483820834
30
0.0000000000
10
-10.2690676643
20
-21.2505883872
30
0.0000000000
10
-10.2191222598
20
-21.2526254314
30
0.0000000000
10
-10.1627047345
20
-21.2543449365
30
0.0000000000
10
-10.1010135058
20
-21.2557410747
30
0.0000000000
10
-10.0352523161
20
-21.2567730947
30
0.0000000000
10
-9.9667373748
20
-21.2574221156
30
0.0000000000
10
-9.9202879315
20
-21.2575891607
30
0.0000000000
10
-9.8968302101
20
-21.2576059852
30
0.0000000000
11
-10.3967540577
21
-21.2370435169
31
0.0000000000
11
-10.3905505877
21
-21.2399380314
31
0.0000000000
11
-10.3745179474
21
-21.2427749209
31
0.0000000000
11
-10.3489753206
21
-21.2454977073
31
0.0000000000
11
-10.3144312194
21
-21.2480521846
31
0.0000000000
11
-10.2715733609
21
-21.2503874971
31
0.0000000000
11
-10.2212549752
21
-21.2524571528
31
0.0000000000
11
-10.1644778197
21
-21.2542199480
31
0.0000000000
11
-10.1023722353
21
-21.2556407884
31
0.0000000000
11
-10.0361746432
21
-21.2566913874
31
0.0000000000
11
-9.9672029299
21
-21.2573508291
31
0.0000000000
11
-9.8968302101
21
-21.2576059852
31
0.0000000000
0
SPLINE
5
38A
100
AcDbEntity
8
0
100
AcDbSpline
62
9
6
CONTINUOUS
70
0
71
3
72
29
73
25
74
23
42
0.0000001000
43
0.0000001000
44
0.0000000001
12
0.0295165046
22
41.1249295783
32
0.0000000000
13
-0.0295165046
23
41.1249295783
33
0.0000000000
40
0.0000000000
40
0.0000000000
40
0.0000000000
40
0.0000000000
40
0.0454323032
40
0.0908709610
40
0.1363153381
40
0.1817647990
40
0.2272187086
40
0.2726764311
40
0.3181373315
40
0.3636007742
40
0.4090661235
40
0.4545327440
40
0.5000000000
40
0.5454672560
40
0.5909338765
40
0.6363992258
40
0.6818626685
40
0.7273235688
40
0.7727812914
40
0.8182352009
40
0.8636846619
40
0.9091290390
40
0.9545676968
40
1.0000000000
40
1.0000000000
40
1.0000000000
40
1.0000000000
10
-9.8968302101
20
-21.2576059852
30
0.0000000000
10
-9.8963832092
20
-20.6348058950
30
0.0000000000
10
-9.8955298328
20
-19.3891185747
30
0.0000000000
10
-9.8943717116
20
-17.5204655584
30
0.0000000000
10
-9.8933354545
20
-15.6515772663
30
0.0000000000
10
-9.8924210759
20
-13.7824798351
30
0.0000000000
10
-9.8916285885
20
-11.9131994035
30
0.0000000000
10
-9.8909580036
20
-10.0437621095
30
0.0000000000
10
-9.8904093304
20
-8.1741940925
30
0.0000000000
10
-9.8899825766
20
-6.3045214937
30
0.0000000000
10
-9.8896777483
20
-4.4347704582
30
0.0000000000
10
-9.8894948495
20
-2.5649671322
30
0.0000000000
10
-9.8894338830
20
-0.6951376611
30
0.0000000000
10
-9.8894948495
20
1.1746918102
30
0.0000000000
10
-9.8896777483
20
3.0444951367
30
0.0000000000
10
-9.8899825766
20
4.9142461725
30
0.0000000000
10
-9.8904093304
20
6.7839187712
30
0.0000000000
10
-9.8909580036
20
8.6534867880
30
0.0000000000
10
-9.8916285885
20
10.5229240819
30
0.0000000000
10
-9.8924210759
20
12.3922045138
30
0.0000000000
10
-9.8933354545
20
14.2613019454
30
0.0000000000
10
-9.8943717116
20
16.1301902377
30
0.0000000000
10
-9.8955298328
20
17.9988432541
30
0.0000000000
10
-9.8963832092
20
19.2445305742
30
0.0000000000
10
-9.8968302101
20
19.8673306644
30
0.0000000000
11
-9.8968302101
21
-21.2576059852
31
0.0000000000
11
-9.8955502261
21
-19.3892056716
31
0.0000000000
11
-9.8943920914
21
-17.5205439481
31
0.0000000000
11
-9.8933558222
21
-15.6516469479
31
0.0000000000
11
-9.8924414329
21
-13.7825408075
31
0.0000000000
11
-9.8916489364
21
-11.9132516664
31
0.0000000000
11
-9.8909783436
21
-10.0438056650
31
0.0000000000
11
-9.8904296640
21
-8.1742289375
31
0.0000000000
11
-9.8900029053
21
-6.3045476273
31
0.0000000000
11
-9.8896980734
21
-4.4347878804
31
0.0000000000
11
-9.8895151725
21
-2.5649758429
31
0.0000000000
11
-9.8894542053
21
-0.6951376612
31
0.0000000000
11
-9.8895151725
21
1.1747005209
31
0.0000000000
11
-9.8896980734
21
3.0445125591
31
0.0000000000
11
-9.8900029053
21
4.9142723063
31
0.0000000000
11
-9.8904296640
21
6.7839536162
31
0.0000000000
11
-9.8909783436
21
8.6535303433
31
0.0000000000
11
-9.8916489364
21
10.5229763448
31
0.0000000000
11
-9.8924414329
21
12.3922654862
31
0.0000000000
11
-9.8933558222
21
14.2613716270
31
0.0000000000
11
-9.8943920914
21
16.1302686275
31
0.0000000000
11
-9.8955502261
21
17.9989303511
31
0.0000000000
11
-9.8968302101
21
19.8673306644
31
0.0000000000
0
SPLINE
5
38B
100
AcDbEntity
8
0
100
AcDbSpline
62
9
6
CONTINUOUS
70
0
71
3
72
29
73
25
74
23
42
0.0000001000
43
0.0000001000
44
0.0000000001
12
0.0295165047
22
41.0838046346
32
0.0000000000
13
-0.0295165047
23
41.0838046346
33
0.0000000000
40
0.0000000000
40
0.0000000000
40
0.0000000000
40
0.0000000000
40
0.0454323032
40
0.0908709610
40
0.1363153381
40
0.1817647991
40
0.2272187086
40
0.2726764312
40
0.3181373316
40
0.3636007742
40
0.4090661236
40
0.4545327440
40
0.5000000000
40
0.5454672560
40
0.5909338765
40
0.6363992258
40
0.6818626685
40
0.7273235688
40
0.7727812914
40
0.8182352010
40
0.8636846620
40
0.9091290390
40
0.9545676968
40
1.0000000000
40
1.0000000000
40
1.0000000000
40
1.0000000000
10
-10.3967540577
20
-21.2370435169
30
0.0000000000
10
-10.3963070567
20
-20.6148662267
30
0.0000000000
10
-10.3954536804
20
-19.3704245938
30
0.0000000000
10
-10.3942955592
20
-17.5036402303
30
0.0000000000
10
-10.3932593021
20
-15.6366208265
30
0.0000000000
10
-10.3923449234
20
-13.7693924926
30
0.0000000000
10
-10.3915524361
20
-11.9019813413
30
0.0000000000
10
-10.3908818512
20
-10.0344134844
30
0.0000000000
10
-10.3903331780
20
-8.1667150353
30
0.0000000000
10
-10.3899064242
20
-6.2989121090
30
0.0000000000
10
-10.3896015958
20
-4.4310308244
30
0.0000000000
10
-10.3894186971
20
-2.5630973016
30
0.0000000000
10
-10.3893577306
20
-0.6951376599
30
0.0000000000
10
-10.3894186971
20
1.1728219821
30
0.0000000000
10
-10.3896015958
20
3.0407555054
30
0.0000000000
10
-10.3899064242
20
4.9086367902
30
0.0000000000
10
-10.3903331780
20
6.7764397164
30
0.0000000000
10
-10.3908818512
20
8.6441381654
30
0.0000000000
10
-10.3915524361
20
10.5117060222
30
0.0000000000
10
-10.3923449234
20
12.3791171737
30
0.0000000000
10
-10.3932593021
20
14.2463455080
30
0.0000000000
10
-10.3942955592
20
16.1133649121
30
0.0000000000
10
-10.3954536804
20
17.9801492748
30
0.0000000000
10
-10.3963070567
20
19.2245909068
30
0.0000000000
10
-10.3967540577
20
19.8467681961
30
0.0000000000
11
-10.3967540577
21
-21.2370435169
31
0.0000000000
11
-10.3954740737
21
-19.3705116035
31
0.0000000000
11
-10.3943159390
21
-17.5037185416
31
0.0000000000
11
-10.3932796698
21
-15.6366904383
31
0.0000000000
11
-10.3923652805
21
-13.7694534039
31
0.0000000000
11
-10.3915727840
21
-11.9020335519
31
0.0000000000
11
-10.3909021912
21
-10.0344569963
31
0.0000000000
11
-10.3903535116
21
-8.1667498455
31
0.0000000000
11
-10.3899267529
21
-6.2989382165
31
0.0000000000
11
-10.3896219209
21
-4.4310482292
31
0.0000000000
11
-10.3894390201
21
-2.5631060036
31
0.0000000000
11
-10.3893780528
21
-0.6951376600
31
0.0000000000
11
-10.3894390201
21
1.1728306841
31
0.0000000000
11
-10.3896219209
21
3.0407729103
31
0.0000000000
11
-10.3899267529
21
4.9086628979
31
0.0000000000
11
-10.3903535116
21
6.7764745266
31
0.0000000000
11
-10.3909021912
21
8.6441816771
31
0.0000000000
11
-10.3915727840
21
10.5117582327
31
0.0000000000
11
-10.3923652805
21
12.3791780851
31
0.0000000000
11
-10.3932796698
21
14.2464151198
31
0.0000000000
11
-10.3943159390
21
16.1134432235
31
0.0000000000
11
-10.3954740737
21
17.9802362854
31
0.0000000000
11
-10.3967540577
21
19.8467681961
31
0.0000000000
0
SPLINE
5
38C
100
AcDbEntity
8
0
100
AcDbSpline
62
9
6
CONTINUOUS
70
0
71
3
72
18
73
14
74
12
42
0.0000001000
43
0.0000001000
44
0.0000000001
12
0.0007168864
22
-0.7839071338
32
0.0000000000
13
0.7839071354
23
-0.0007151436
33
0.0000000000
40
0.0000000000
40
0.0000000000
40
0.0000000000
40
0.0000000000
40
0.0908336765
40
0.1816831374
40
0.2725510595
40
0.3634386246
40
0.4543454249
40
0.5452694965
40
0.6362074798
40
0.7271548908
40
0.8181064843
40
0.9090566774
40
1.0000000000
40
1.0000000000
40
1.0000000000
40
1.0000000000
10
-10.4132808283
20
-22.1945481150
30
0.0000000000
10
-10.4132591225
20
-22.2182831707
30
0.0000000000
10
-10.4098148791
20
-22.2658240365
30
0.0000000000
10
-10.3945539143
20
-22.3356244175
30
0.0000000000
10
-10.3695084802
20
-22.4025705831
30
0.0000000000
10
-10.3351881255
20
-22.4652823205
30
0.0000000000
10
-10.2922908967
20
-22.5224897202
30
0.0000000000
10
-10.2416892860
20
-22.5730284162
30
0.0000000000
10
-10.1844118736
20
-22.6158714110
30
0.0000000000
10
-10.1216245923
20
-22.6501477132
30
0.0000000000
10
-10.0545988794
20
-22.6751605980
30
0.0000000000
10
-9.9847162906
20
-22.6904015536
30
0.0000000000
10
-9.9371206872
20
-22.6938412032
30
0.0000000000
10
-9.9133569807
20
-22.6938628824
30
0.0000000000
11
-10.4132808283
21
-22.1945481150
31
0.0000000000
11
-10.4081332833
21
-22.2655670057
31
0.0000000000
11
-10.3929252099
21
-22.3351418346
31
0.0000000000
11
-10.3679658413
21
-22.4018579027
31
0.0000000000
11
-10.3337626886
21
-22.4643586397
31
0.0000000000
11
-10.2910112212
21
-22.5213731874
31
0.0000000000
11
-10.2405807255
21
-22.5717422412
31
0.0000000000
11
-10.1834966296
21
-22.6144416226
31
0.0000000000
11
-10.1209196521
21
-22.6486031041
31
0.0000000000
11
-10.0541222014
21
-22.6735320637
31
0.0000000000
11
-9.9844625027
21
-22.6887216086
31
0.0000000000
11
-9.9133569807
21
-22.6938628824
31
0.0000000000
0
SPLINE
5
38D
100
AcDbEntity
8
0
100
AcDbSpline
62
9
6
CONTINUOUS
70
0
71
3
72
54
73
50
74
48
42
0.0000001000
43
0.0000001000
44
0.0000000001
12
0.3113775382
22
1.4023706684
32
0.0000000000
13
0.0006880320
23
1.4365232297
33
0.0000000000
40
0.0000000000
40
0.0000000000
40
0.0000000000
40
0.0000000000
40
0.0022648814
40
0.0055475510
40
0.0098496210
40
0.0151689040
40
0.0215012107
40
0.0288409038
40
0.0371811274
40
0.0465139217
40
0.0568302563
40
0.0681200732
40
0.0803723152
40
0.0935749453
40
0.1077149681
40
0.1227784833
40
0.1387506653
40
0.1556157691
40
0.1733571516
40
0.1919572896
40
0.2113977998
40
0.2316594895
40
0.2527223830
40
0.2745657108
40
0.2971679100
40
0.3205066421
40
0.3445588243
40
0.3693006769
40
0.3947077664
40
0.4207550366
40
0.4474168115
40
0.4746667633
40
0.5024779393
40
0.5308228331
40
0.5596734232
40
0.5890012125
40
0.6187772929
40
0.6489723442
40
0.6795565135
40
0.7104995553
40
0.7417708681
40
0.7733395241
40
0.8051743326
40
0.8372440140
40
0.8695169220
40
0.9019611321
40
0.9345445529
40
0.9672349543
40
1.0000000000
40
1.0000000000
40
1.0000000000
40
1.0000000000
10
-9.9133569807
20
-22.6938628824
30
0.0000000000
10
-9.9131219030
20
-22.6928041480
30
0.0000000000
10
-9.9127172799
20
-22.6901751056
30
0.0000000000
10
-9.9121915716
20
-22.6854886987
30
0.0000000000
10
-9.9116635495
20
-22.6793313466
30
0.0000000000
10
-9.9111314301
20
-22.6717106401
30
0.0000000000
10
-9.9106002775
20
-22.6626321434
30
0.0000000000
10
-9.9100707398
20
-22.6521050347
30
0.0000000000
10
-9.9095442326
20
-22.6401394280
30
0.0000000000
10
-9.9090215266
20
-22.6267471305
30
0.0000000000
10
-9.9085033964
20
-22.6119413203
30
0.0000000000
10
-9.9079904948
20
-22.5957366190
30
0.0000000000
10
-9.9074834367
20
-22.5781490385
30
0.0000000000
10
-9.9069827973
20
-22.5591959694
30
0.0000000000
10
-9.9064891265
20
-22.5388961408
30
0.0000000000
10
-9.9060029530
20
-22.5172696013
30
0.0000000000
10
-9.9055247883
20
-22.4943377032
30
0.0000000000
10
-9.9050551294
20
-22.4701231030
30
0.0000000000
10
-9.9045944601
20
-22.4446497413
30
0.0000000000
10
-9.9041432515
20
-22.4179428161
30
0.0000000000
10
-9.9037019624
20
-22.3900287416
30
0.0000000000
10
-9.9032710389
20
-22.3609351022
30
0.0000000000
10
-9.9028509148
20
-22.3306906221
30
0.0000000000
10
-9.9024420121
20
-22.2993251576
30
0.0000000000
10
-9.9020447404
20
-22.2668696944
30
0.0000000000
10
-9.9016594978
20
-22.2333563240
30
0.0000000000
10
-9.9012866696
20
-22.1988181978
30
0.0000000000
10
-9.9009266278
20
-22.1632894694
30
0.0000000000
10
-9.9005797311
20
-22.1268052357
30
0.0000000000
10
-9.9002463245
20
-22.0894015012
30
0.0000000000
10
-9.8999267395
20
-22.0511151765
30
0.0000000000
10
-9.8996212936
20
-22.0119840796
30
0.0000000000
10
-9.8993302908
20
-21.9720469043
30
0.0000000000
10
-9.8990540203
20
-21.9313431550
30
0.0000000000
10
-9.8987927567
20
-21.8899130752
30
0.0000000000
10
-9.8985467589
20
-21.8477975791
30
0.0000000000
10
-9.8983162705
20
-21.8050382025
30
0.0000000000
10
-9.8981015200
20
-21.7616771302
30
0.0000000000
10
-9.8979027202
20
-21.7177571869
30
0.0000000000
10
-9.8977200685
20
-21.6733218109
30
0.0000000000
10
-9.8975537462
20
-21.6284149547
30
0.0000000000
10
-9.8974039182
20
-21.5830810236
30
0.0000000000
10
-9.8972707326
20
-21.5373647473
30
0.0000000000
10
-9.8971543212
20
-21.4913111993
30
0.0000000000
10
-9.8970547991
20
-21.4449658045
30
0.0000000000
10
-9.8969722653
20
-21.3983743763
30
0.0000000000
10
-9.8969068010
20
-21.3515830079
30
0.0000000000
10
-9.8968584724
20
-21.3046379893
30
0.0000000000
10
-9.8968377246
20
-21.2732952350
30
0.0000000000
10
-9.8968302101
20
-21.2576059852
30
0.0000000000
11
-9.9133569807
21
-22.6938628824
31
0.0000000000
11
-9.9128096048
21
-22.6906557029
31
0.0000000000
11
-9.9122636747
21
-22.6859717790
31
0.0000000000
11
-9.9117197254
21
-22.6798157399
31
0.0000000000
11
-9.9111782975
21
-22.6721936712
31
0.0000000000
11
-9.9106399248
21
-22.6631131101
31
0.0000000000
11
-9.9101051400
21
-22.6525830404
31
0.0000000000
11
-9.9095744713
21
-22.6406138722
31
0.0000000000
11
-9.9090484422
21
-22.6272174185
31
0.0000000000
11
-9.9085275726
21
-22.6124069190
31
0.0000000000
11
-9.9080123773
21
-22.5961970179
31
0.0000000000
11
-9.9075033657
21
-22.5786037476
31
0.0000000000
11
-9.9070010410
21
-22.5596445138
31
0.0000000000
11
-9.9065058998
21
-22.5393380761
31
0.0000000000
11
-9.9060184306
21
-22.5177044755
31
0.0000000000
11
-9.9055391143
21
-22.4947650695
31
0.0000000000
11
-9.9050684245
21
-22.4705425261
31
0.0000000000
11
-9.9046068264
21
-22.4450607956
31
0.0000000000
11
-9.9041547765
21
-22.4183450864
31
0.0000000000
11
-9.9037127219
21
-22.3904218376
31
0.0000000000
11
-9.9032810990
21
-22.3613186468
31
0.0000000000
11
-9.9028603336
21
-22.3310642333
31
0.0000000000
11
-9.9024508408
21
-22.2996884540
31
0.0000000000
11
-9.9020530249
21
-22.2672223032
31
0.0000000000
11
-9.9016672793
21
-22.2336978878
31
0.0000000000
11
-9.9012939855
21
-22.1991483820
31
0.0000000000
11
-9.9009335124
21
-22.1636079599
31
0.0000000000
11
-9.9005862159
21
-22.1271117339
31
0.0000000000
11
-9.9002524385
21
-22.0896957096
31
0.0000000000
11
-9.8999325091
21
-22.0513967824
31
0.0000000000
11
-9.8996267437
21
-22.0122527833
31
0.0000000000
11
-9.8993354448
21
-21.9723024404
31
0.0000000000
11
-9.8990589004
21
-21.9315852765
31
0.0000000000
11
-9.8987973838
21
-21.8901415540
31
0.0000000000
11
-9.8985511530
21
-21.8480122180
31
0.0000000000
11
-9.8983204507
21
-21.8052388041
31
0.0000000000
11
-9.8981055040
21
-21.7618634391
31
0.0000000000
11
-9.8979065257
21
-21.7179290150
31
0.0000000000
11
-9.8977237123
21
-21.6734789875
31
0.0000000000
11
-9.8975572447
21
-21.6285573235
31
0.0000000000
11
-9.8974072873
21
-21.5832084585
31
0.0000000000
11
-9.8972739882
21
-21.5374772057
31
0.0000000000
11
-9.8971574783
21
-21.4914085055
31
0.0000000000
11
-9.8970578725
21
-21.4450478251
31
0.0000000000
11
-9.8969752697
21
-21.3984410315
31
0.0000000000
11
-9.8969097512
21
-21.3516342311
31
0.0000000000
11
-9.8968613823
21
-21.3046737296
31
0.0000000000
11
-9.8968302101
21
-21.2576059852
31
0.0000000000
0
SPLINE
5
38E
100
AcDbEntity
8
0
100
AcDbSpline
62
9
6
CONTINUOUS
70
0
71
3
72
54
73
50
74
48
42
0.0000001000
43
0.0000001000
44
0.0000000001
12
0.3026893232
22
0.9088222860
32
0.0000000000
13
0.0006883601
23
0.9579030745
33
0.0000000000
40
0.0000000000
40
0.0000000000
40
0.0000000000
40
0.0000000000
40
0.0023040781
40
0.0056133809
40
0.0099352530
40
0.0152699903
40
0.0216147038
40
0.0289645157
40
0.0373130557
40
0.0466526912
40
0.0569746248
40
0.0682689696
40
0.0805247988
40
0.0937301772
40
0.1078721906
40
0.1229370054
40
0.1389098513
40
0.1557750303
40
0.1735159395
40
0.1921150911
40
0.2115541329
40
0.2318139005
40
0.2528744435
40
0.2747150160
40
0.2973140768
40
0.3206493077
40
0.3446976453
40
0.3694353283
40
0.3948379406
40
0.4208804432
40
0.4475371763
40
0.4747818281
40
0.5025874617
40
0.5309265860
40
0.5597711946
40
0.5890928053
40
0.6188625246
40
0.6490510469
40
0.6796285337
40
0.7105647538
40
0.7418291199
40
0.7733907184
40
0.8052183722
40
0.8372808160
40
0.8695464170
40
0.9019832648
40
0.9345592811
40
0.9672422352
40
1.0000000000
40
1.0000000000
40
1.0000000000
40
1.0000000000
10
-10.4132808283
20
-22.1945481150
30
0.0000000000
10
-10.4130483550
20
-22.1938501158
30
0.0000000000
10
-10.4126424430
20
-22.1920991592
30
0.0000000000
10
-10.4121164585
20
-22.1889714301
30
0.0000000000
10
-10.4115877170
20
-22.1848639445
30
0.0000000000
10
-10.4110555399
20
-22.1797824652
30
0.0000000000
10
-10.4105242556
20
-22.1737293671
30
0.0000000000
10
-10.4099946813
20
-22.1667108468
30
0.0000000000
10
-10.4094681393
20
-22.1587334452
30
0.0000000000
10
-10.4089454154
20
-22.1498050130
30
0.0000000000
10
-10.4084272721
20
-22.1399342952
30
0.0000000000
10
-10.4079143620
20
-22.1291310254
30
0.0000000000
10
-10.4074072979
20
-22.1174058662
30
0.0000000000
10
-10.4069066543
20
-22.1047704046
30
0.0000000000
10
-10.4064129807
20
-22.0912371219
30
0.0000000000
10
-10.4059268051
20
-22.0768193806
30
0.0000000000
10
-10.4054486390
20
-22.0615314134
30
0.0000000000
10
-10.4049789792
20
-22.0453883228
30
0.0000000000
10
-10.4045183094
20
-22.0284060680
30
0.0000000000
10
-10.4040671006
20
-22.0106014466
30
0.0000000000
10
-10.4036258114
20
-21.9919920671
30
0.0000000000
10
-10.4031948880
20
-21.9725963183
30
0.0000000000
10
-10.4027747641
20
-21.9524333489
30
0.0000000000
10
-10.4023658616
20
-21.9315230624
30
0.0000000000
10
-10.4019685903
20
-21.9098861152
30
0.0000000000
10
-10.4015833481
20
-21.8875439009
30
0.0000000000
10
-10.4012105202
20
-21.8645185197
30
0.0000000000
10
-10.4008504787
20
-21.8408327397
30
0.0000000000
10
-10.4005035823
20
-21.8165099582
30
0.0000000000
10
-10.4001701760
20
-21.7915741774
30
0.0000000000
10
-10.3998505912
20
-21.7660500033
30
0.0000000000
10
-10.3995451454
20
-21.7399626472
30
0.0000000000
10
-10.3992541427
20
-21.7133379040
30
0.0000000000
10
-10.3989778723
20
-21.6862021090
30
0.0000000000
10
-10.3987166086
20
-21.6585820904
30
0.0000000000
10
-10.3984706107
20
-21.6305051232
30
0.0000000000
10
-10.3982401222
20
-21.6019988972
30
0.0000000000
10
-10.3980253714
20
-21.5730915345
30
0.0000000000
10
-10.3978265714
20
-21.5438115842
30
0.0000000000
10
-10.3976439194
20
-21.5141880039
30
0.0000000000
10
-10.3974775967
20
-21.4842500947
30
0.0000000000
10
-10.3973277683
20
-21.4540274592
30
0.0000000000
10
-10.3971945823
20
-21.4235499162
30
0.0000000000
10
-10.3970781705
20
-21.3928475142
30
0.0000000000
10
-10.3969786480
20
-21.3619505355
30
0.0000000000
10
-10.3968961136
20
-21.3308895219
30
0.0000000000
10
-10.3968306496
20
-21.2996952060
30
0.0000000000
10
-10.3967823192
20
-21.2683983897
30
0.0000000000
10
-10.3967615740
20
-21.2475031048
30
0.0000000000
10
-10.3967540577
20
-21.2370435169
30
0.0000000000
11
-10.4132808283
21
-22.1945481150
31
0.0000000000
11
-10.4127334515
21
-22.1924099853
31
0.0000000000
11
-10.4121875186
21
-22.1892873570
31
0.0000000000
11
-10.4116435688
21
-22.1851833120
31
0.0000000000
11
-10.4111021396
21
-22.1801019129
31
0.0000000000
11
-10.4105637661
21
-22.1740481831
31
0.0000000000
11
-10.4100289807
21
-22.1670281142
31
0.0000000000
11
-10.4094983116
21
-22.1590486465
31
0.0000000000
11
-10.4089722823
21
-22.1501176566
31
0.0000000000
11
-10.4084514126
21
-22.1402439714
31
0.0000000000
11
-10.4079362173
21
-22.1294373547
31
0.0000000000
11
-10.4074272059
21
-22.1177084951
31
0.0000000000
11
-10.4069248815
21
-22.1050689971
31
0.0000000000
11
-10.4064297407
21
-22.0915313674
31
0.0000000000
11
-10.4059422720
21
-22.0771089670
31
0.0000000000
11
-10.4054629563
21
-22.0618160344
31
0.0000000000
11
-10.4049922671
21
-22.0456676818
31
0.0000000000
11
-10.4045306697
21
-22.0286798761
31
0.0000000000
11
-10.4040786206
21
-22.0108694228
31
0.0000000000
11
-10.4036365667
21
-21.9922539480
31
0.0000000000
11
-10.4032049446
21
-21.9728518497
31
0.0000000000
11
-10.4027841799
21
-21.9526822740
31
0.0000000000
11
-10.4023746878
21
-21.9317651249
31
0.0000000000
11
-10.4019768726
21
-21.9101210651
31
0.0000000000
11
-10.4015911277
21
-21.8877714985
31
0.0000000000
11
-10.4012178345
21
-21.8647385408
31
0.0000000000
11
-10.4008573619
21
-21.8410449740
31
0.0000000000
11
-10.4005100660
21
-21.8167142059
31
0.0000000000
11
-10.4001762890
21
-21.7917702392
31
0.0000000000
11
-10.3998563599
21
-21.7662376704
31
0.0000000000
11
-10.3995505948
21
-21.7401417191
31
0.0000000000
11
-10.3992592961
21
-21.7135082033
31
0.0000000000
11
-10.3989827519
21
-21.6863634706
31
0.0000000000
11
-10.3987212353
21
-21.6587343619
31
0.0000000000
11
-10.3984750045
21
-21.6306481729
31
0.0000000000
11
-10.3982443021
21
-21.6021325931
31
0.0000000000
11
-10.3980293553
21
-21.5732157062
31
0.0000000000
11
-10.3978303767
21
-21.5439261058
31
0.0000000000
11
-10.3976475630
21
-21.5142927618
31
0.0000000000
11
-10.3974810951
21
-21.4843449843
31
0.0000000000
11
-10.3973311374
21
-21.4541123962
31
0.0000000000
11
-10.3971978379
21
-21.4236248723
31
0.0000000000
11
-10.3970813275
21
-21.3929123719
31
0.0000000000
11
-10.3969817214
21
-21.3620052060
31
0.0000000000
11
-10.3968991181
21
-21.3309339515
31
0.0000000000
11
-10.3968335994
21
-21.2997293460
31
0.0000000000
11
-10.3967852301
21
-21.2684222732
31
0.0000000000
11
-10.3967540577
21
-21.2370435169
31
0.0000000000
0
SPLINE
5
38F
100
AcDbEntity
8
0
100
AcDbSpline
62
9
6
CONTINUOUS
70
0
71
3
72
9
73
5
74
3
42
0.0000001000
43
0.0000001000
44
0.0000000001
12
-0.0000925114
22
-1.5998991056
32
0.0000000000
13
-0.0001372367
23
-1.5998991024
33
0.0000000000
40
0.0000000000
40
0.0000000000
40
0.0000000000
40
0.0000000000
40
0.4999998405
40
1.0000000000
40
1.0000000000
40
1.0000000000
40
1.0000000000
10
3.9454609278
20
-4.0046923005
30
0.0000000000
10
3.9454455092
20
-4.2713420664
30
0.0000000000
10
3.9454109494
20
-4.8046417680
30
0.0000000000
10
3.9453689279
20
-5.3379414692
30
0.0000000000
10
3.9453460551
20
-5.6045914046
30
0.0000000000
11
3.9454609278
21
-4.0046923005
31
0.0000000000
11
3.9454090840
21
-4.8046415978
31
0.0000000000
11
3.9453460551
21
-5.6045914046
31
0.0000000000
0
SPLINE
5
390
100
AcDbEntity
8
0
100
AcDbSpline
62
7
6
CONTINUOUS
70
0
71
3
72
15
73
11
74
9
42
0.0000001000
43
0.0000001000
44
0.0000000001
12
0.0001934113
22
-0.4979636991
32
0.0000000000
13
0.4457738515
23
-0.2228826213
33
0.0000000000
40
0.0000000000
40
0.0000000000
40
0.0000000000
40
0.0000000000
40
0.1289716523
40
0.2579112661
40
0.3868269640
40
0.5157259874
40
0.6446154110
40
0.7735022966
40
0.9023939680
40
1.0000000000
40
1.0000000000
40
1.0000000000
40
1.0000000000
10
-10.5466615854
20
-22.6450341735
30
0.0000000000
10
-10.5466532705
20
-22.6664419071
30
0.0000000000
10
-10.5435737159
20
-22.7093137036
30
0.0000000000
10
-10.5298614244
20
-22.7722537620
30
0.0000000000
10
-10.5073421014
20
-22.8326066500
30
0.0000000000
10
-10.4764759555
20
-22.8891341558
30
0.0000000000
10
-10.4378903401
20
-22.9406969188
30
0.0000000000
10
-10.3923671664
20
-22.9862493817
30
0.0000000000
10
-10.3449988110
20
-23.0217418970
30
0.0000000000
10
-10.3122529143
20
-23.0403880187
30
0.0000000000
10
-10.2977495087
20
-23.0476395814
30
0.0000000000
11
-10.5466615854
21
-22.6450341735
31
0.0000000000
11
-10.5420572276
21
-22.7090921165
31
0.0000000000
11
-10.5283919279
21
-22.7718283164
31
0.0000000000
11
-10.5059492617
21
-22.8319728819
31
0.0000000000
11
-10.4751881074
21
-22.8883087266
31
0.0000000000
11
-10.4367336926
21
-22.9396956933
31
0.0000000000
11
-10.3913652892
21
-22.9850929191
31
0.0000000000
11
-10.3400009220
21
-23.0235793821
31
0.0000000000
11
-10.2977495087
21
-23.0476395814
31
0.0000000000
0
SPLINE
5
391
100
AcDbEntity
8
0
100
AcDbSpline
62
9
6
CONTINUOUS
70
0
71
3
72
12
73
8
74
6
42
0.0000001000
43
0.0000001000
44
0.0000000001
12
0.1407766366
22
0.4189746508
32
0.0000000000
13
0.1394154082
23
0.4194295690
33
0.0000000000
40
0.0000000000
40
0.0000000000
40
0.0000000000
40
0.0000000000
40
0.1864134559
40
0.3727233184
40
0.5726570014
40
0.7840445530
40
1.0000000000
40
1.0000000000
40
1.0000000000
40
1.0000000000
10
-10.0969684934
20
-23.0951376604
30
0.0000000000
10
-10.0882209403
20
-23.0691034896
30
0.0000000000
10
-10.0714806395
20
-23.0168486065
30
0.0000000000
10
-10.0423932055
20
-22.9373835778
30
0.0000000000
10
-9.9981421543
20
-22.8609592010
30
0.0000000000
10
-9.9512569855
20
-22.7815045550
30
0.0000000000
10
-9.9235445803
20
-22.7245112345
30
0.0000000000
10
-9.9135087413
20
-22.6943185345
30
0.0000000000
11
-10.0969684934
21
-23.0951376604
31
0.0000000000
11
-10.0709277475
21
-23.0169675946
31
0.0000000000
11
-10.0409957297
21
-22.9402524666
31
0.0000000000
11
-9.9989222261
21
-22.8625417742
31
0.0000000000
11
-9.9526331575
21
-22.7813825043
31
0.0000000000
11
-9.9135087413
21
-22.6943185345
31
0.0000000000
0
SPLINE
5
392
100
AcDbEntity
8
0
100
AcDbSpline
62
9
6
CONTINUOUS
70
0
71
3
72
12
73
8
74
6
42
0.0000001000
43
0.0000001000
44
0.0000000001
12
0.1479908893
22
0.4455095564
32
0.0000000000
13
0.1484255655
23
0.4453649286
33
0.0000000000
40
0.0000000000
40
0.0000000000
40
0.0000000000
40
0.0000000000
40
0.1751812475
40
0.3560805679
40
0.5632741433
40
0.7843737001
40
1.0000000000
40
1.0000000000
40
1.0000000000
40
1.0000000000
10
-10.5466602999
20
-22.6450348161
30
0.0000000000
10
-10.5380185570
20
-22.6190198429
30
0.0000000000
10
-10.5201934406
20
-22.5662308385
30
0.0000000000
10
-10.4932816264
20
-22.4822736608
30
0.0000000000
10
-10.4687824984
20
-22.3901224405
30
0.0000000000
10
-10.4429210296
20
-22.2927549725
30
0.0000000000
10
-10.4241007408
20
-22.2270145644
30
0.0000000000
10
-10.4134325889
20
-22.1950037671
30
0.0000000000
11
-10.5466602999
21
-22.6450348161
31
0.0000000000
11
-10.5206763335
21
-22.5670094326
31
0.0000000000
11
-10.4951755153
21
-22.4860060379
31
0.0000000000
11
-10.4693470662
21
-22.3922317007
31
0.0000000000
11
-10.4423730744
21
-22.2920035286
31
0.0000000000
11
-10.4134325889
21
-22.1950037671
31
0.0000000000
0
SPLINE
5
393
100
AcDbEntity
8
0
100
AcDbSpline
62
9
6
CONTINUOUS
70
0
71
3
72
54
73
50
74
48
42
0.0000001000
43
0.0000001000
44
0.0000000001
12
-0.3116313958
22
-1.4023142744
32
0.0000000000
13
-0.0006880541
23
-1.4365232255
33
0.0000000000
40
0.0000000000
40
0.0000000000
40
0.0000000000
40
0.0000000000
40
0.0022648374
40
0.0055474421
40
0.0098494836
40
0.0151687640
40
0.0215010313
40
0.0288405728
40
0.0371805301
40
0.0465131042
40
0.0568292908
40
0.0681190027
40
0.0803711415
40
0.0935736396
40
0.1077134498
40
0.1227765137
40
0.1387480503
40
0.1556125896
40
0.1733538396
40
0.1919545582
40
0.2113961096
40
0.2316584376
40
0.2527206788
40
0.2745627571
40
0.2971645905
40
0.3205035686
40
0.3445549561
40
0.3692950263
40
0.3947012540
40
0.4207495128
40
0.4474131424
40
0.4746644556
40
0.5024756273
40
0.5308195346
40
0.5596691144
40
0.5889963915
40
0.6187722238
40
0.6489666109
40
0.6795502621
40
0.7104938537
40
0.7417668400
40
0.7733355545
40
0.8051671339
40
0.8372323638
40
0.8695038697
40
0.9019504698
40
0.9345381210
40
0.9672327619
40
1.0000000000
40
1.0000000000
40
1.0000000000
40
1.0000000000
10
11.0851949436
20
21.3035875616
30
0.0000000000
10
11.0849596788
20
21.3025288903
30
0.0000000000
10
11.0845555580
20
21.2998998003
30
0.0000000000
10
11.0840293825
20
21.2952135375
30
0.0000000000
10
11.0835016002
20
21.2890561957
30
0.0000000000
10
11.0829693794
20
21.2814355371
30
0.0000000000
10
11.0824382689
20
21.2723571281
30
0.0000000000
10
11.0819087257
20
21.2618302401
30
0.0000000000
10
11.0813822329
20
21.2498649382
30
0.0000000000
10
11.0808595326
20
21.2364729448
30
0.0000000000
10
11.0803414061
20
21.2216673611
30
0.0000000000
10
11.0798285053
20
21.2054628304
30
0.0000000000
10
11.0793214477
20
21.1878754130
30
0.0000000000
10
11.0788208099
20
21.1689225584
30
0.0000000000
10
11.0783271443
20
21.1486231110
30
0.0000000000
10
11.0778409804
20
21.1269971983
30
0.0000000000
10
11.0773628271
20
21.1040660957
30
0.0000000000
10
11.0768931747
20
21.0798521383
30
0.0000000000
10
11.0764325005
20
21.0543788326
30
0.0000000000
10
11.0759812749
20
21.0276711946
30
0.0000000000
10
11.0755399652
20
20.9997560381
30
0.0000000000
10
11.0751090324
20
20.9706619070
30
0.0000000000
10
11.0746889148
20
20.9404180320
30
0.0000000000
10
11.0742800233
20
20.9090536533
30
0.0000000000
10
11.0738827561
20
20.8765988459
30
0.0000000000
10
11.0734975151
20
20.8430859135
30
0.0000000000
10
11.0731246954
20
20.8085489036
30
0.0000000000
10
11.0727646658
20
20.7730218219
30
0.0000000000
10
11.0724177713
20
20.7365383811
30
0.0000000000
10
11.0720843512
20
20.6991336980
30
0.0000000000
10
11.0717647456
20
20.6608453601
30
0.0000000000
10
11.0714592855
20
20.6217127254
30
0.0000000000
10
11.0711682797
20
20.5817753728
30
0.0000000000
10
11.0708920138
20
20.5410725818
30
0.0000000000
10
11.0706307551
20
20.4996437036
30
0.0000000000
10
11.0703847593
20
20.4575290555
30
0.0000000000
10
11.0701542715
20
20.4147703612
30
0.0000000000
10
11.0699395211
20
20.3714099739
30
0.0000000000
10
11.0697407191
20
20.3274903336
30
0.0000000000
10
11.0695580606
20
20.2830541411
30
0.0000000000
10
11.0693917315
20
20.2381461925
30
0.0000000000
10
11.0692419037
20
20.1928129785
30
0.0000000000
10
11.0691087257
20
20.1471003520
30
0.0000000000
10
11.0689923201
20
20.1010511533
30
0.0000000000
10
11.0688927950
20
20.0547074171
30
0.0000000000
10
11.0688102502
20
20.0081134904
30
0.0000000000
10
11.0687447746
20
19.9613169219
30
0.0000000000
10
11.0686964378
20
19.9143667980
30
0.0000000000
10
11.0686756882
20
19.8830209639
30
0.0000000000
10
11.0686681730
20
19.8673306644
30
0.0000000000
11
11.0851949436
21
21.3035875616
31
0.0000000000
11
11.0846476633
21
21.3003804299
31
0.0000000000
11
11.0841016306
21
21.2956966118
31
0.0000000000
11
11.0835577107
21
21.2895406112
31
0.0000000000
11
11.0830162727
21
21.2819185470
31
0.0000000000
11
11.0824779033
21
21.2728380425
31
0.0000000000
11
11.0819431264
21
21.2623081905
31
0.0000000000
11
11.0814124711
21
21.2503394046
31
0.0000000000
11
11.0808864499
21
21.2369432673
31
0.0000000000
11
11.0803655831
21
21.2221329804
31
0.0000000000
11
11.0798503880
21
21.2059232302
31
0.0000000000
11
11.0793413764
21
21.1883301082
31
0.0000000000
11
11.0788390527
21
21.1693710643
31
0.0000000000
11
11.0783439149
21
21.1490649320
31
0.0000000000
11
11.0778564558
21
21.1274319797
31
0.0000000000
11
11.0773771537
21
21.1044935007
31
0.0000000000
11
11.0769064737
21
21.0802717682
31
0.0000000000
11
11.0764448731
21
21.0547902282
31
0.0000000000
11
11.0759928040
21
21.0280736854
31
0.0000000000
11
11.0755507222
21
21.0001489413
31
0.0000000000
11
11.0751190837
21
20.9710448337
31
0.0000000000
11
11.0746983294
21
20.9407913572
31
0.0000000000
11
11.0742888571
21
20.9094173728
31
0.0000000000
11
11.0738910441
21
20.8769517477
31
0.0000000000
11
11.0735052910
21
20.8434269789
31
0.0000000000
11
11.0731320060
21
20.8088786149
31
0.0000000000
11
11.0727715544
21
20.7733407533
31
0.0000000000
11
11.0724242644
21
20.7368457653
31
0.0000000000
11
11.0720904692
21
20.6994283211
31
0.0000000000
11
11.0717705138
21
20.6611267298
31
0.0000000000
11
11.0714647309
21
20.6219807753
31
0.0000000000
11
11.0711734303
21
20.5820304386
31
0.0000000000
11
11.0708968936
21
20.5413146919
31
0.0000000000
11
11.0706353836
21
20.4998724208
31
0.0000000000
11
11.0703891541
21
20.4577438209
31
0.0000000000
11
11.0701584506
21
20.4149707635
31
0.0000000000
11
11.0699435054
21
20.3715963528
31
0.0000000000
11
11.0697445268
21
20.3276626730
31
0.0000000000
11
11.0695617067
21
20.2832118558
31
0.0000000000
11
11.0693952275
21
20.2382877880
31
0.0000000000
11
11.0692452676
21
20.1929388391
31
0.0000000000
11
11.0691119790
21
20.1472122251
31
0.0000000000
11
11.0689954801
21
20.1011499196
31
0.0000000000
11
11.0688958720
21
20.0547912535
31
0.0000000000
11
11.0688132567
21
20.0081810268
31
0.0000000000
11
11.0687477254
21
19.9613681495
31
0.0000000000
11
11.0686993477
21
19.9144015580
31
0.0000000000
11
11.0686681730
21
19.8673306644
31
0.0000000000
0
SPLINE
5
394
100
AcDbEntity
8
0
100
AcDbSpline
62
9
6
CONTINUOUS
70
0
71
3
72
54
73
50
74
48
42
0.0000001000
43
0.0000001000
44
0.0000000001
12
0.0006880547
22
-1.4365232231
32
0.0000000000
13
0.3115261321
23
-1.4023376601
33
0.0000000000
40
0.0000000000
40
0.0000000000
40
0.0000000000
40
0.0000000000
40
0.0327561440
40
0.0654504808
40
0.0980421320
40
0.1304921563
40
0.1627649660
40
0.1948300427
40
0.2266608874
40
0.2582284862
40
0.2895004200
40
0.3204432096
40
0.3510267757
40
0.3812214576
40
0.4109975578
40
0.4403245807
40
0.4691734846
40
0.4975168537
40
0.5253281928
40
0.5525805836
40
0.5792454365
40
0.6052942269
40
0.6306997286
40
0.6554396033
40
0.6794922803
40
0.7028326396
40
0.7254348573
40
0.7472765148
40
0.7683380729
40
0.7886000055
40
0.8080415346
40
0.8266424577
40
0.8443839767
40
0.8612487149
40
0.8772203300
40
0.8922833299
40
0.9064230140
40
0.9196254991
40
0.9318778688
40
0.9431680901
40
0.9534848309
40
0.9628177198
40
0.9711575693
40
0.9784967826
40
0.9848289958
40
0.9901488132
40
0.9944517337
40
0.9977350025
40
1.0000000000
40
1.0000000000
40
1.0000000000
40
1.0000000000
10
11.0686681730
20
-21.2576059852
30
0.0000000000
10
11.0686756856
20
-21.2732909724
30
0.0000000000
10
11.0686964297
20
-21.3046313485
30
0.0000000000
10
11.0687447568
20
-21.3515779299
30
0.0000000000
10
11.0688102323
20
-21.3983779077
30
0.0000000000
10
11.0688927813
20
-21.4449760136
30
0.0000000000
10
11.0689923094
20
-21.4913219403
30
0.0000000000
10
11.0691087139
20
-21.5373713381
30
0.0000000000
10
11.0692418874
20
-21.5830830051
30
0.0000000000
10
11.0693917083
20
-21.6284148291
30
0.0000000000
10
11.0695580291
20
-21.6733213554
30
0.0000000000
10
11.0697406801
20
-21.7177566190
30
0.0000000000
10
11.0699394769
20
-21.7616759756
30
0.0000000000
10
11.0701542245
20
-21.8050365915
30
0.0000000000
10
11.0703847092
20
-21.8477954335
30
0.0000000000
10
11.0706306991
20
-21.8899097645
30
0.0000000000
10
11.0708919489
20
-21.9313379397
30
0.0000000000
10
11.0711682063
20
-21.9720402294
30
0.0000000000
10
11.0714592092
20
-22.0119779204
30
0.0000000000
10
11.0717646735
20
-22.0511117370
30
0.0000000000
10
11.0720842859
20
-22.0894014311
30
0.0000000000
10
11.0724177064
20
-22.1268066068
30
0.0000000000
10
11.0727645950
20
-22.1632898609
30
0.0000000000
10
11.0731246215
20
-22.1988171188
30
0.0000000000
10
11.0734974493
20
-22.2333553138
30
0.0000000000
10
11.0738827035
20
-22.2668697090
30
0.0000000000
10
11.0742799757
20
-22.2993251603
30
0.0000000000
10
11.0746888597
20
-22.3306891943
30
0.0000000000
10
11.0751089633
20
-22.3609323515
30
0.0000000000
10
11.0755398832
20
-22.3900259555
30
0.0000000000
10
11.0759811854
20
-22.4179410100
30
0.0000000000
10
11.0764324084
20
-22.4446488641
30
0.0000000000
10
11.0768930820
20
-22.4701224919
30
0.0000000000
10
11.0773627328
20
-22.4943367109
30
0.0000000000
10
11.0778408811
20
-22.5172679158
30
0.0000000000
10
11.0783270359
20
-22.5388937751
30
0.0000000000
10
11.0788206899
20
-22.5591931255
30
0.0000000000
10
11.0793213180
20
-22.5781460242
30
0.0000000000
10
11.0798283734
20
-22.5957337902
30
0.0000000000
10
11.0803412812
20
-22.6119389407
30
0.0000000000
10
11.0808594181
20
-22.6267451845
30
0.0000000000
10
11.0813821210
20
-22.6401375425
30
0.0000000000
10
11.0819085952
20
-22.6521027871
30
0.0000000000
10
11.0824381118
20
-22.6626294414
30
0.0000000000
10
11.0829691833
20
-22.6717079270
30
0.0000000000
10
11.0835014449
20
-22.6793292364
30
0.0000000000
10
11.0840292078
20
-22.6854875786
30
0.0000000000
10
11.0845555348
20
-22.6901746502
30
0.0000000000
10
11.0849597416
20
-22.6928041186
30
0.0000000000
10
11.0851949436
20
-22.6938628824
30
0.0000000000
11
11.0686681730
21
-21.2576059852
31
0.0000000000
11
11.0686993342
21
-21.3046609419
31
0.0000000000
11
11.0687477054
21
-21.3516270964
31
0.0000000000
11
11.0688132398
21
-21.3984457198
31
0.0000000000
11
11.0688958608
21
-21.4450608654
31
0.0000000000
11
11.0689954710
21
-21.4914214043
31
0.0000000000
11
11.0691119679
21
-21.5374834896
31
0.0000000000
11
11.0692452517
21
-21.5832090482
31
0.0000000000
11
11.0693952039
21
-21.6285563943
31
0.0000000000
11
11.0695616745
21
-21.6734789501
31
0.0000000000
11
11.0697444863
21
-21.7179286152
31
0.0000000000
11
11.0699434603
21
-21.7618621726
31
0.0000000000
11
11.0701584037
21
-21.8052370067
31
0.0000000000
11
11.0703891053
21
-21.8480104489
31
0.0000000000
11
11.0706353286
21
-21.8901386837
31
0.0000000000
11
11.0708968281
21
-21.9315799838
31
0.0000000000
11
11.0711733545
21
-21.9722949573
31
0.0000000000
11
11.0714646514
21
-22.0122455344
31
0.0000000000
11
11.0717704413
21
-22.0513930369
31
0.0000000000
11
11.0720904069
21
-22.0896963853
31
0.0000000000
11
11.0724242050
21
-22.1271145932
31
0.0000000000
11
11.0727714809
21
-22.1636085383
31
0.0000000000
11
11.0731319247
21
-22.1991461190
31
0.0000000000
11
11.0735052251
21
-22.2336963354
31
0.0000000000
11
11.0738909974
21
-22.2672230881
31
0.0000000000
11
11.0742888144
21
-22.2996892652
31
0.0000000000
11
11.0746982757
21
-22.3310626452
31
0.0000000000
11
11.0751190123
21
-22.3613151404
31
0.0000000000
11
11.0755506372
21
-22.3904186801
31
0.0000000000
11
11.0759927126
21
-22.4183433922
31
0.0000000000
11
11.0764447804
21
-22.4450602290
31
0.0000000000
11
11.0769063815
21
-22.4705421553
31
0.0000000000
11
11.0773770603
21
-22.4947641736
31
0.0000000000
11
11.0778563576
21
-22.5177027653
31
0.0000000000
11
11.0783438066
21
-22.5393356259
31
0.0000000000
11
11.0788389306
21
-22.5596415772
31
0.0000000000
11
11.0793412429
21
-22.5786006027
31
0.0000000000
11
11.0798502518
21
-22.5961940567
31
0.0000000000
11
11.0803654573
21
-22.6124045386
31
0.0000000000
11
11.0808863397
21
-22.6272156215
31
0.0000000000
11
11.0814123663
21
-22.6406122112
31
0.0000000000
11
11.0819429998
21
-22.6525808430
31
0.0000000000
11
11.0824777316
21
-22.6631102252
31
0.0000000000
11
11.0830160635
21
-22.6721906541
31
0.0000000000
11
11.0835575220
21
-22.6798134902
31
0.0000000000
11
11.0841014975
21
-22.6859707535
31
0.0000000000
11
11.0846476801
21
-22.6906555144
31
0.0000000000
11
11.0851949436
21
-22.6938628824
31
0.0000000000
0
SPLINE
5
395
100
AcDbEntity
8
0
100
AcDbSpline
62
9
6
CONTINUOUS
70
0
71
3
72
9
73
5
74
3
42
0.0000001000
43
0.0000001000
44
0.0000000001
12
0.0006598364
22
-8.0190231426
32
0.0000000000
13
-0.0004636862
23
-8.0190231563
33
0.0000000000
40
0.0000000000
40
0.0000000000
40
0.0000000000
40
0.0000000000
40
0.4999992151
40
1.0000000000
40
1.0000000000
40
1.0000000000
40
1.0000000000
10
6.7453628602
20
4.0143308616
30
0.0000000000
10
6.7454728328
20
2.6778291024
30
0.0000000000
10
6.7455991457
20
0.0048213797
30
0.0000000000
10
6.7455382102
20
-2.6681863453
30
0.0000000000
10
6.7454609290
20
-4.0046923027
30
0.0000000000
11
6.7453628602
21
4.0143308616
31
0.0000000000
11
6.7455523335
21
0.0048255750
31
0.0000000000
11
6.7454609290
21
-4.0046923027
31
0.0000000000
0
SPLINE
5
396
100
AcDbEntity
8
0
100
AcDbSpline
62
9
6
CONTINUOUS
70
0
71
3
72
54
73
50
74
48
42
0.0000001000
43
0.0000001000
44
0.0000000001
12
0.0006880049
22
-0.9579030767
32
0.0000000000
13
0.3026526604
23
-0.9088344980
33
0.0000000000
40
0.0000000000
40
0.0000000000
40
0.0000000000
40
0.0000000000
40
0.0327461426
40
0.0654330272
40
0.0980172754
40
0.1304599597
40
0.1627255063
40
0.1947834083
40
0.2266071784
40
0.2581678156
40
0.2894329145
40
0.3203690094
40
0.3509460338
40
0.3811343398
40
0.4109042433
40
0.4402252621
40
0.4690683678
40
0.4974061578
40
0.5252121502
40
0.5524594408
40
0.5791194542
40
0.6051636785
40
0.6305648920
40
0.6553007713
40
0.6793497625
40
0.7026867639
40
0.7252859710
40
0.7471249859
40
0.7681842907
40
0.7884443828
40
0.8078845098
40
0.8264844979
40
0.8442255805
40
0.8610904168
40
0.8770627052
40
0.8921270012
40
0.9062686603
40
0.9194738666
40
0.9317297861
40
0.9430244885
40
0.9533467728
40
0.9626864403
40
0.9710345362
40
0.9783837944
40
0.9847283318
40
0.9900635371
40
0.9943861334
40
0.9976961285
40
1.0000000000
40
1.0000000000
40
1.0000000000
40
1.0000000000
10
11.5685920205
20
-21.2370435169
30
0.0000000000
10
11.5685995304
20
-21.2474993938
30
0.0000000000
10
11.5686202766
20
-21.2683922228
30
0.0000000000
10
11.5686686001
20
-21.2996892117
30
0.0000000000
10
11.5687340748
20
-21.3308892747
30
0.0000000000
10
11.5688166228
20
-21.3619547630
30
0.0000000000
10
11.5689161500
20
-21.3928521378
30
0.0000000000
10
11.5690325538
20
-21.4235518323
30
0.0000000000
10
11.5691657266
20
-21.4540263781
30
0.0000000000
10
11.5693155471
20
-21.4842477007
30
0.0000000000
10
11.5694818675
20
-21.5141854971
30
0.0000000000
10
11.5696645184
20
-21.5438091237
30
0.0000000000
10
11.5698633150
20
-21.5730888175
30
0.0000000000
10
11.5700780628
20
-21.6019960223
30
0.0000000000
10
11.5703085477
20
-21.6305020492
30
0.0000000000
10
11.5705545381
20
-21.6585784064
30
0.0000000000
10
11.5708157886
20
-21.6861973302
30
0.0000000000
10
11.5710920469
20
-21.7133323339
30
0.0000000000
10
11.5713830509
20
-21.7399576083
30
0.0000000000
10
11.5716885165
20
-21.7660469689
30
0.0000000000
10
11.5720081305
20
-21.7915735826
30
0.0000000000
10
11.5723415528
20
-21.8165105139
30
0.0000000000
10
11.5726884432
20
-21.8408328227
30
0.0000000000
10
11.5730484717
20
-21.8645177889
30
0.0000000000
10
11.5734213016
20
-21.8875433683
30
0.0000000000
10
11.5738065579
20
-21.9098864033
30
0.0000000000
10
11.5742038323
20
-21.9315234652
30
0.0000000000
10
11.5746127186
20
-21.9524329058
30
0.0000000000
10
11.5750328245
20
-21.9725950863
30
0.0000000000
10
11.5754637469
20
-21.9919908899
30
0.0000000000
10
11.5759050516
20
-22.0106009866
30
0.0000000000
10
11.5763562774
20
-22.0284062768
30
0.0000000000
10
11.5768169539
20
-22.0453887445
30
0.0000000000
10
11.5772866079
20
-22.0615316031
30
0.0000000000
10
11.5777647598
20
-22.0768191175
30
0.0000000000
10
11.5782509187
20
-22.0912364024
30
0.0000000000
10
11.5787445776
20
-22.1047693517
30
0.0000000000
10
11.5792452116
20
-22.1174046743
30
0.0000000000
10
11.5797522748
20
-22.1291299217
30
0.0000000000
10
11.5802651922
20
-22.1399334465
30
0.0000000000
10
11.5807833442
20
-22.1498044005
30
0.0000000000
10
11.5813060633
20
-22.1587328134
30
0.0000000000
10
11.5818325807
20
-22.1667099076
30
0.0000000000
10
11.5823621120
20
-22.1737280556
30
0.0000000000
10
11.5828933774
20
-22.1797810704
30
0.0000000000
10
11.5834255368
20
-22.1848628800
30
0.0000000000
10
11.5839543881
20
-22.1889709535
30
0.0000000000
10
11.5844803076
20
-22.1920990930
30
0.0000000000
10
11.5848863669
20
-22.1938501690
30
0.0000000000
10
11.5851187912
20
-22.1945481150
30
0.0000000000
11
11.5685920205
21
-21.2370435169
31
0.0000000000
11
11.5686231788
21
-21.2684111403
31
0.0000000000
11
11.5686715489
21
-21.2997219783
31
0.0000000000
11
11.5687370822
21
-21.3309344691
31
0.0000000000
11
11.5688197022
21
-21.3620113145
31
0.0000000000
11
11.5689193116
21
-21.3929184283
31
0.0000000000
11
11.5690358077
21
-21.4236265782
31
0.0000000000
11
11.5691690908
21
-21.4541103820
31
0.0000000000
11
11.5693190425
21
-21.4843420494
31
0.0000000000
11
11.5694855128
21
-21.5142905289
31
0.0000000000
11
11.5696683243
21
-21.5439237531
31
0.0000000000
11
11.5698672982
21
-21.5732129105
31
0.0000000000
11
11.5700822416
21
-21.6021295904
31
0.0000000000
11
11.5703129435
21
-21.6306453466
31
0.0000000000
11
11.5705591672
21
-21.6587309688
31
0.0000000000
11
11.5708206672
21
-21.6863586380
31
0.0000000000
11
11.5710971945
21
-21.7135020926
31
0.0000000000
11
11.5713884924
21
-21.7401359523
31
0.0000000000
11
11.5716942835
21
-21.7662344311
31
0.0000000000
11
11.5720142505
21
-21.7917701420
31
0.0000000000
11
11.5723480502
21
-21.8167157578
31
0.0000000000
11
11.5726953279
21
-21.8410451863
31
0.0000000000
11
11.5730557735
21
-21.8647370256
31
0.0000000000
11
11.5734290756
21
-21.8877706093
31
0.0000000000
11
11.5738148498
21
-21.9101218716
31
0.0000000000
11
11.5742126686
21
-21.9317660716
31
0.0000000000
11
11.5746221317
21
-21.9526817289
31
0.0000000000
11
11.5750428701
21
-21.9728501189
31
0.0000000000
11
11.5754744968
21
-21.9922525281
31
0.0000000000
11
11.5759165740
21
-22.0108690422
31
0.0000000000
11
11.5763686436
21
-22.0286802965
31
0.0000000000
11
11.5768302464
21
-22.0456682682
31
0.0000000000
11
11.5773009269
21
-22.0618162928
31
0.0000000000
11
11.5777802259
21
-22.0771086916
31
0.0000000000
11
11.5782676765
21
-22.0915305955
31
0.0000000000
11
11.5787628020
21
-22.1050678861
31
0.0000000000
11
11.5792651158
21
-22.1177072195
31
0.0000000000
11
11.5797741262
21
-22.1294361658
31
0.0000000000
11
11.5802893331
21
-22.1402431248
31
0.0000000000
11
11.5808102168
21
-22.1501171458
31
0.0000000000
11
11.5813362445
21
-22.1590481664
31
0.0000000000
11
11.5818668795
21
-22.1670272102
31
0.0000000000
11
11.5824016116
21
-22.1740467512
31
0.0000000000
11
11.5829399480
21
-22.1801003150
31
0.0000000000
11
11.5834813949
21
-22.1851821630
31
0.0000000000
11
11.5840254185
21
-22.1892868980
31
0.0000000000
11
11.5845714275
21
-22.1924101862
31
0.0000000000
11
11.5851187912
21
-22.1945481150
31
0.0000000000
0
ENDSEC
0
SECTION
2
OBJECTS
0
DICTIONARY
5
397
100
AcDbDictionary
3
ACAD_GROUP
350
398
3
ACAD_MLINESTYLE
350
399
0
DICTIONARY
5
398
102
{ACAD_REACTORS
330
397
102
}
100
AcDbDictionary
0
DICTIONARY
5
399
102
{ACAD_REACTORS
330
397
102
}
100
AcDbDictionary
3
STANDARD
350
39A
0
MLINESTYLE
5
39A
102
{ACAD_REACTORS
330
399
102
}
100
AcDbMlineStyle
2
STANDARD
70
0
3

62
256
51
90.0
52
90.0
71
2
49
0.5
62
256
6
BYLAYER
49
-0.5
62
256
6
BYLAYER
0
ENDSEC
0
EOF
