999
DXF file: zdi_ea145310220.dxf
999
Pro/ENGINEER 2004090 by Parametric Technology Corporation
0
SECTION
2
HEADER
9
$ACADVER
1
AC1014
9
$HANDSEED
5
       294
9
$EXTMAX
10
297.0000000000
20
210.0000000000
9
$EXTMIN
10
0.0000000000
20
0.0000000000
9
$LIMMIN
10
0.0000000000
20
0.0000000000
9
$LIMMAX
10
297.0000000000
20
210.0000000000
9
$VIEWCTR
10
148.5000000000
20
105.0000000000
9
$VIEWSIZE
40
210.0000000000
9
$CLAYER
8
0
9
$LTSCALE
40
16.3350000000
9
$CELTYPE
6
BYLAYER
9
$DIMSCALE
40
1
9
$DIMASZ
40
3.0000000000
9
$DIMEXO
40
1.8562500000
9
$DIMDLI
40
11.2860000000
9
$DIMEXE
40
5.3460000000
9
$DIMCEN
40
2.6730000000
9
$DIMLFAC
40
1.0000000000
9
$DIMTXT
40
3.0000000000
9
$DIMTOL
70
1
9
$DIMLIM
70
0
9
$DIMTFAC
40
1.0000000000
9
$DIMTP
40
0.0100000000
9
$DIMTM
40
0.0100000000
9
$MEASUREMENT
70
1
0
ENDSEC
0
SECTION
2
CLASSES
0
ENDSEC
0
SECTION
2
TABLES
0
TABLE
2
VPORT
5
8
100
AcDbSymbolTable
70
2
0
VPORT
5
1F4
100
AcDbSymbolTableRecord
100
AcDbViewportTableRecord
2
*ACTIVE
70
0
10
0.0
20
0.0
11
1.0
21
1.0
12
148.5000000000
22
105.0000000000
13
0.0
23
0.0
14
1.0
24
1.0
15
0.0
25
0.0
16
0.0
26
0.0
36
1.0
17
0.0
27
0.0
37
0.0
40
210.0000000000
41
1.4142857143
42
50.0
43
0.0
44
0.0
50
0.0
51
0.0
71
0
72
100
73
1
74
1
75
0
76
0
77
0
78
0
0
ENDTAB
0
TABLE
2
LTYPE
5
5
100
AcDbSymbolTable
70
6
0
LTYPE
5
14
100
AcDbSymbolTableRecord
100
AcDbLinetypeTableRecord
2
BYBLOCK
70
0
3

72
65
73
0
40
0.0
0
LTYPE
5
15
100
AcDbSymbolTableRecord
100
AcDbLinetypeTableRecord
2
BYLAYER
70
0
3

72
65
73
0
40
0.0
0
LTYPE
5
16
100
AcDbSymbolTableRecord
100
AcDbLinetypeTableRecord
2
CONTINUOUS
70
64
3
Solid line
72
65
73
0
40
0
0
LTYPE
5
1F5
100
AcDbSymbolTableRecord
100
AcDbLinetypeTableRecord
2
CENTER
70
64
3
____ _ ____ _ ____ _ ____ _ ____ _ ____ _ ____
72
65
73
4
40
0.6
49
0.375
74
0
49
-0.075
74
0
49
0.075
74
0
49
-0.075
74
0
0
LTYPE
5
1F6
100
AcDbSymbolTableRecord
100
AcDbLinetypeTableRecord
2
HIDDEN
70
64
3
- - - - - - - - - - - - - - - - - - - -
72
65
73
2
40
0.2
49
0.1
74
0
49
-0.1
74
0
0
LTYPE
5
1F7
100
AcDbSymbolTableRecord
100
AcDbLinetypeTableRecord
2
PHANTOM
70
64
3
_____ _ _ _____ _ _ _____ _ _ _____
72
65
73
6
40
0.8
49
0.45
74
0
49
-0.05
74
0
49
0.1
74
0
49
-0.05
74
0
49
0.1
74
0
49
-0.05
74
0
0
LTYPE
5
1F8
100
AcDbSymbolTableRecord
100
AcDbLinetypeTableRecord
2
DOT
70
64
3
. . . . . . . . . . . . . . . . . . . .
72
65
73
2
40
0.2
49
0.1
74
0
49
-0.1
74
0
0
LTYPE
5
1F9
100
AcDbSymbolTableRecord
100
AcDbLinetypeTableRecord
2
DASHED
70
64
3
- - - - - - - - - - - - - - - - - - - -
72
65
73
2
40
0.2
49
0.1
74
0
49
-0.1
74
0
0
ENDTAB
0
TABLE
2
LAYER
5
2
100
AcDbSymbolTable
70
36
0
LAYER
5
10
100
AcDbSymbolTableRecord
100
AcDbLayerTableRecord
2
0
70
0
62
7
6
CONTINUOUS
0
LAYER
5
1FA
100
AcDbSymbolTableRecord
100
AcDbLayerTableRecord
2
DEFAULT_1
70
0
62
7
6
CENTER
0
LAYER
5
1FB
100
AcDbSymbolTableRecord
100
AcDbLayerTableRecord
2
DEFAULT_2
70
0
62
8
6
HIDDEN
0
LAYER
5
1FC
100
AcDbSymbolTableRecord
100
AcDbLayerTableRecord
2
DEFAULT_3
70
0
62
7
6
PHANTOM
0
LAYER
5
1FD
100
AcDbSymbolTableRecord
100
AcDbLayerTableRecord
2
ASSI
70
0
62
7
6
CONTINUOUS
0
LAYER
5
1FE
100
AcDbSymbolTableRecord
100
AcDbLayerTableRecord
2
COORDINATE
70
0
62
7
6
CONTINUOUS
0
LAYER
5
1FF
100
AcDbSymbolTableRecord
100
AcDbLayerTableRecord
2
COORD_ORIGINE
70
0
62
7
6
CONTINUOUS
0
LAYER
5
200
100
AcDbSymbolTableRecord
100
AcDbLayerTableRecord
2
CURVE
70
0
62
7
6
CONTINUOUS
0
LAYER
5
201
100
AcDbSymbolTableRecord
100
AcDbLayerTableRecord
2
CURVE_LED_TASTO
70
0
62
7
6
CONTINUOUS
0
LAYER
5
202
100
AcDbSymbolTableRecord
100
AcDbLayerTableRecord
2
DRAFT
70
0
62
7
6
CONTINUOUS
0
LAYER
5
203
100
AcDbSymbolTableRecord
100
AcDbLayerTableRecord
2
IGES_SCRITTE
70
0
62
7
6
CONTINUOUS
0
LAYER
5
204
100
AcDbSymbolTableRecord
100
AcDbLayerTableRecord
2
PIANI
70
0
62
7
6
CONTINUOUS
0
LAYER
5
205
100
AcDbSymbolTableRecord
100
AcDbLayerTableRecord
2
PIANI_ORIGINE
70
0
62
7
6
CONTINUOUS
0
LAYER
5
206
100
AcDbSymbolTableRecord
100
AcDbLayerTableRecord
2
PIANI_RIFERIMENTO
70
0
62
7
6
CONTINUOUS
0
LAYER
5
207
100
AcDbSymbolTableRecord
100
AcDbLayerTableRecord
2
PUNTI
70
0
62
7
6
CONTINUOUS
0
LAYER
5
208
100
AcDbSymbolTableRecord
100
AcDbLayerTableRecord
2
RACCORDO
70
0
62
7
6
CONTINUOUS
0
LAYER
5
209
100
AcDbSymbolTableRecord
100
AcDbLayerTableRecord
2
SMUSSO
70
0
62
7
6
CONTINUOUS
0
LAYER
5
20A
100
AcDbSymbolTableRecord
100
AcDbLayerTableRecord
2
SUPERFICI
70
0
62
7
6
CONTINUOUS
0
LAYER
5
20B
100
AcDbSymbolTableRecord
100
AcDbLayerTableRecord
2
TRASH
70
0
62
7
6
CONTINUOUS
0
ENDTAB
0
TABLE
2
STYLE
5
3
100
AcDbSymbolTable
70
1
0
STYLE
5
11
100
AcDbSymbolTableRecord
100
AcDbTextStyleTableRecord
2
STANDARD
70
0
40
0.0
41
0.8000000000
50
0.0
71
0
42
0.2
3
txt
4

0
ENDTAB
0
TABLE
2
VIEW
5
6
100
AcDbSymbolTable
70
0
0
ENDTAB
0
TABLE
2
UCS
5
7
100
AcDbSymbolTable
70
0
0
ENDTAB
0
TABLE
2
APPID
5
9
100
AcDbSymbolTable
70
1
0
APPID
5
20C
100
AcDbSymbolTableRecord
100
AcDbRegAppTableRecord
2
ACAD
70
0
0
ENDTAB
0
TABLE
2
DIMSTYLE
5
A
100
AcDbSymbolTable
70
1
0
DIMSTYLE
105
20D
100
AcDbSymbolTableRecord
100
AcDbDimStyleTableRecord
2
STANDARD
70
0
3

4

5

6

7

40
1.0
41
3.0000000000
42
0.0625
43
0.38
44
0.18
45
0.0
46
0.0
47
0.0100000000
48
0.0100000000
140
3.0000000000
141
0.09
142
0.0
143
25.4
144
1.0000000000
145
0.0
146
1.0000000000
147
0.09
71
1
72
0
73
0
74
0
75
0
76
0
77
1
78
8
170
0
171
2
172
0
173
0
174
0
175
0
176
0
177
0
178
0
270
2
271
2
272
2
273
2
274
2
340
11
275
0
280
0
281
0
282
0
283
1
284
8
285
0
286
0
287
3
288
0
0
ENDTAB
0
TABLE
2
BLOCK_RECORD
5
1
100
AcDbSymbolTable
70
0
0
BLOCK_RECORD
5
1B
100
AcDbSymbolTableRecord
100
AcDbBlockTableRecord
2
*MODEL_SPACE
0
BLOCK_RECORD
5
1C
100
AcDbSymbolTableRecord
100
AcDbBlockTableRecord
2
*PAPER_SPACE
0
ENDTAB
0
ENDSEC
0
SECTION
2
BLOCKS
0
BLOCK
5
1E
100
AcDbEntity
8
0
100
AcDbBlockBegin
2
*MODEL_SPACE
70
0
10
0.0
20
0.0
30
0.0
3
*MODEL_SPACE
1

0
ENDBLK
5
1F
100
AcDbEntity
8
0
100
AcDbBlockEnd
0
BLOCK
5
20
100
AcDbEntity
8
0
100
AcDbBlockBegin
2
*PAPER_SPACE
70
0
10
0.0
20
0.0
30
0.0
3
*PAPER_SPACE
1

0
ENDBLK
5
21
100
AcDbEntity
8
0
100
AcDbBlockEnd
0
ENDSEC
0
SECTION
2
ENTITIES
0
LINE
5
20E
100
AcDbEntity
8
0
100
AcDbLine
62
7
6
CONTINUOUS
10
-10.3001218439
20
-21.8500000000
11
10.3001218439
21
-21.8500000000
0
LINE
5
20F
100
AcDbEntity
8
0
100
AcDbLine
62
9
6
CONTINUOUS
10
10.2235481273
20
-21.7734262834
11
-10.2235481273
21
-21.7734262834
0
LINE
5
210
100
AcDbEntity
8
0
100
AcDbLine
62
9
6
CONTINUOUS
10
10.2115710390
20
-20.3755324027
11
-10.2115710390
21
-20.3755324027
0
LINE
5
211
100
AcDbEntity
8
0
100
AcDbLine
62
7
6
CONTINUOUS
10
-11.1000000000
20
-21.0501218439
11
-11.1000000000
21
-0.3500000000
0
LINE
5
212
100
AcDbEntity
8
0
100
AcDbLine
62
7
6
CONTINUOUS
10
-11.1000000000
20
0.3500000000
11
-11.1000000000
21
21.0501218439
0
LINE
5
213
100
AcDbEntity
8
0
100
AcDbLine
62
7
6
CONTINUOUS
10
-10.6999390688
20
0.1500000000
11
-10.6999390688
21
-0.1500000000
0
LINE
5
214
100
AcDbEntity
8
0
100
AcDbLine
62
9
6
CONTINUOUS
10
-10.5994505925
20
0.1500000000
11
-10.5994505925
21
-0.1500000000
0
LINE
5
215
100
AcDbEntity
8
0
100
AcDbLine
62
9
6
CONTINUOUS
10
-10.1995150734
20
0.3502334887
11
-10.1995150734
21
-0.3502334887
0
LINE
5
216
100
AcDbEntity
8
0
100
AcDbLine
6
CONTINUOUS
10
-4.5000000000
20
-9.8000000000
11
4.5000000000
21
-9.8000000000
0
LINE
5
217
100
AcDbEntity
8
0
100
AcDbLine
62
9
6
CONTINUOUS
10
10.3001218439
20
21.8500000000
11
10.2235481273
21
21.7734262834
0
LINE
5
218
100
AcDbEntity
8
0
100
AcDbLine
62
9
6
CONTINUOUS
10
10.2235481273
20
-21.7734262834
11
10.3001218439
21
-21.8500000000
0
LINE
5
219
100
AcDbEntity
8
0
100
AcDbLine
62
9
6
CONTINUOUS
10
11.1000000000
20
21.0501218439
11
11.0234262834
21
20.9735481273
0
LINE
5
21A
100
AcDbEntity
8
0
100
AcDbLine
62
9
6
CONTINUOUS
10
11.0234262834
20
-20.9735481273
11
11.1000000000
21
-21.0501218439
0
LINE
5
21B
100
AcDbEntity
8
0
100
AcDbLine
62
9
6
CONTINUOUS
10
-1.5612494996
20
0.3502334888
11
-1.5612494996
21
0.1500000000
0
LINE
5
21C
100
AcDbEntity
8
0
100
AcDbLine
62
9
6
CONTINUOUS
10
-1.5612494996
20
-0.3502334888
11
-1.5612494996
21
-0.1500000000
0
LINE
5
21D
100
AcDbEntity
8
0
100
AcDbLine
62
9
6
CONTINUOUS
10
1.5612494996
20
0.3502334890
11
1.3660933121
21
0.3062500000
0
LINE
5
21E
100
AcDbEntity
8
0
100
AcDbLine
62
9
6
CONTINUOUS
10
-1.5612494996
20
-0.3502334890
11
-1.3660933121
21
-0.3062500000
0
LINE
5
21F
100
AcDbEntity
8
0
100
AcDbLine
62
9
6
CONTINUOUS
10
10.1995150734
20
-0.3502334887
11
1.5612494996
21
-0.3502334888
0
LINE
5
220
100
AcDbEntity
8
0
100
AcDbLine
62
9
6
CONTINUOUS
10
-1.5612494996
20
-0.3502334888
11
-10.1995150734
21
-0.3502334887
0
LINE
5
221
100
AcDbEntity
8
0
100
AcDbLine
62
9
6
CONTINUOUS
10
11.1000000000
20
-0.3500000000
11
10.9993932438
21
-0.3500000000
0
LINE
5
222
100
AcDbEntity
8
0
100
AcDbLine
62
9
6
CONTINUOUS
10
-10.9993932438
20
-0.3500000000
11
-11.1000000000
21
-0.3500000000
0
LINE
5
223
100
AcDbEntity
8
0
100
AcDbLine
62
7
6
CONTINUOUS
10
10.8999695344
20
-0.1500000000
11
1.5612494996
21
-0.1500000000
0
LINE
5
224
100
AcDbEntity
8
0
100
AcDbLine
62
7
6
CONTINUOUS
10
-1.5612494996
20
-0.1500000000
11
-10.8999695344
21
-0.1500000000
0
LINE
5
225
100
AcDbEntity
8
0
100
AcDbLine
62
7
6
CONTINUOUS
10
-10.8999695344
20
0.1500000000
11
-1.5612494996
21
0.1500000000
0
LINE
5
226
100
AcDbEntity
8
0
100
AcDbLine
62
7
6
CONTINUOUS
10
1.5612494996
20
0.1500000000
11
10.8999695344
21
0.1500000000
0
LINE
5
227
100
AcDbEntity
8
0
100
AcDbLine
62
9
6
CONTINUOUS
10
-1.5612494996
20
0.3502334890
11
-1.3660933121
21
0.3062500000
0
LINE
5
228
100
AcDbEntity
8
0
100
AcDbLine
62
9
6
CONTINUOUS
10
1.5612494996
20
-0.3502334890
11
1.3660933121
21
-0.3062500000
0
LINE
5
229
100
AcDbEntity
8
0
100
AcDbLine
62
9
6
CONTINUOUS
10
1.5612494996
20
0.3502334888
11
1.5612494996
21
0.1500000000
0
LINE
5
22A
100
AcDbEntity
8
0
100
AcDbLine
62
9
6
CONTINUOUS
10
1.5612494996
20
-0.3502334888
11
1.5612494996
21
-0.1500000000
0
LINE
5
22B
100
AcDbEntity
8
0
100
AcDbLine
62
9
6
CONTINUOUS
10
-11.1000000000
20
0.3500000000
11
-10.9993932438
21
0.3500000000
0
LINE
5
22C
100
AcDbEntity
8
0
100
AcDbLine
62
9
6
CONTINUOUS
10
10.9993932438
20
0.3500000000
11
11.1000000000
21
0.3500000000
0
LINE
5
22D
100
AcDbEntity
8
0
100
AcDbLine
62
9
6
CONTINUOUS
10
-10.1995150734
20
0.3502334887
11
-1.5612494996
21
0.3502334888
0
LINE
5
22E
100
AcDbEntity
8
0
100
AcDbLine
62
9
6
CONTINUOUS
10
1.5612494996
20
0.3502334888
11
10.1995150734
21
0.3502334887
0
LINE
5
22F
100
AcDbEntity
8
0
100
AcDbLine
62
9
6
CONTINUOUS
10
-11.1000000000
20
-21.0501218439
11
-11.0234262834
21
-20.9735481273
0
LINE
5
230
100
AcDbEntity
8
0
100
AcDbLine
62
9
6
CONTINUOUS
10
-10.3001218439
20
-21.8500000000
11
-10.2235481273
21
-21.7734262834
0
LINE
5
231
100
AcDbEntity
8
0
100
AcDbLine
62
9
6
CONTINUOUS
10
-11.0234262834
20
20.9735481273
11
-11.1000000000
21
21.0501218439
0
LINE
5
232
100
AcDbEntity
8
0
100
AcDbLine
62
9
6
CONTINUOUS
10
-10.2235481273
20
21.7734262834
11
-10.3001218439
21
21.8500000000
0
LINE
5
233
100
AcDbEntity
8
0
100
AcDbLine
6
CONTINUOUS
10
4.5000000000
20
9.8000000000
11
-4.5000000000
21
9.8000000000
0
LINE
5
234
100
AcDbEntity
8
0
100
AcDbLine
62
9
6
CONTINUOUS
10
10.1995150734
20
-0.3502334887
11
10.1995150734
21
0.3502334887
0
LINE
5
235
100
AcDbEntity
8
0
100
AcDbLine
62
9
6
CONTINUOUS
10
10.5994505925
20
0.1500000000
11
10.5994505925
21
-0.1500000000
0
LINE
5
236
100
AcDbEntity
8
0
100
AcDbLine
62
7
6
CONTINUOUS
10
10.6999390688
20
0.1500000000
11
10.6999390688
21
-0.1500000000
0
LINE
5
237
100
AcDbEntity
8
0
100
AcDbLine
62
7
6
CONTINUOUS
10
11.1000000000
20
-21.0501218439
11
11.1000000000
21
-0.3500000000
0
LINE
5
238
100
AcDbEntity
8
0
100
AcDbLine
62
7
6
CONTINUOUS
10
11.1000000000
20
0.3500000000
11
11.1000000000
21
21.0501218439
0
LINE
5
239
100
AcDbEntity
8
0
100
AcDbLine
62
9
6
CONTINUOUS
10
10.2115710390
20
20.3755324027
11
-10.2115710390
21
20.3755324027
0
LINE
5
23A
100
AcDbEntity
8
0
100
AcDbLine
62
9
6
CONTINUOUS
10
10.2235481273
20
21.7734262834
11
-10.2235481273
21
21.7734262834
0
LINE
5
23B
100
AcDbEntity
8
0
100
AcDbLine
62
7
6
CONTINUOUS
10
-10.3001218439
20
21.8500000000
11
10.3001218439
21
21.8500000000
0
CIRCLE
5
23C
100
AcDbEntity
8
0
100
AcDbCircle
62
7
6
CONTINUOUS
10
-0.0000000000
20
0.0000000000
40
1.2500000000
0
CIRCLE
5
23D
100
AcDbEntity
8
0
100
AcDbCircle
62
9
6
CONTINUOUS
10
-0.0000000000
20
0.0000000000
40
1.1616160628
0
ARC
5
23E
100
AcDbEntity
8
0
100
AcDbCircle
62
7
6
CONTINUOUS
10
-1.5612494996
20
-0.3500000000
40
0.2000000000
100
AcDbArc
50
12.6356250930
51
90.0000000000
0
ARC
5
23F
100
AcDbEntity
8
0
100
AcDbCircle
62
7
6
CONTINUOUS
10
1.5612494996
20
-0.3500000000
40
0.2000000000
100
AcDbArc
50
90.0000000000
51
167.3643749070
0
ARC
5
240
100
AcDbEntity
8
0
100
AcDbCircle
62
7
6
CONTINUOUS
10
-0.0000000000
20
-0.0000000000
40
1.4000000000
100
AcDbArc
50
192.6356250930
51
347.3643749070
0
ARC
5
241
100
AcDbEntity
8
0
100
AcDbCircle
62
7
6
CONTINUOUS
10
1.5612494996
20
0.3500000000
40
0.2000000000
100
AcDbArc
50
192.6356250930
51
270.0000000000
0
ARC
5
242
100
AcDbEntity
8
0
100
AcDbCircle
62
7
6
CONTINUOUS
10
-1.5612494996
20
0.3500000000
40
0.2000000000
100
AcDbArc
50
270.0000000000
51
347.3643749070
0
ARC
5
243
100
AcDbEntity
8
0
100
AcDbCircle
62
7
6
CONTINUOUS
10
-0.0000000000
20
-0.0000000000
40
1.4000000000
100
AcDbArc
50
12.6356250930
51
167.3643749070
0
SPLINE
5
244
100
AcDbEntity
8
0
100
AcDbSpline
62
9
6
CONTINUOUS
70
0
71
3
72
45
73
41
74
39
42
0.0000001000
43
0.0000001000
44
0.0000000001
12
-0.9446380137
22
-4.2166284796
32
0.0000000000
13
-0.9446379949
23
4.2166284838
33
0.0000000000
40
0.0000000000
40
0.0000000000
40
0.0000000000
40
0.0000000000
40
0.0263361000
40
0.0526706590
40
0.0790034287
40
0.1053340861
40
0.1316623926
40
0.1579881975
40
0.1843112788
40
0.2106316435
40
0.2369491466
40
0.2632639103
40
0.2895759243
40
0.3158853819
40
0.3421924383
40
0.3684973294
40
0.3948003659
40
0.4211018217
40
0.4474021132
40
0.4737015618
40
0.5000006213
40
0.5262996627
40
0.5525991146
40
0.5788993788
40
0.6052008177
40
0.6315038218
40
0.6578086731
40
0.6841156926
40
0.7104250885
40
0.7367370580
40
0.7630517424
40
0.7893691876
40
0.8156894611
40
0.8420124656
40
0.8683381720
40
0.8946663790
40
0.9209969325
40
0.9473295802
40
0.9736640285
40
1.0000000000
40
1.0000000000
40
1.0000000000
40
1.0000000000
10
1.5612490537
20
-0.3502334888
30
0.0000000000
10
1.5529563600
20
-0.3872500052
30
0.0000000000
10
1.5337338509
20
-0.4607183064
30
0.0000000000
10
1.4971554124
20
-0.5685704910
30
0.0000000000
10
1.4530136089
20
-0.6735520736
30
0.0000000000
10
1.4015339823
20
-0.7751250688
30
0.0000000000
10
1.3429774532
20
-0.8727783646
30
0.0000000000
10
1.2776412012
20
-0.9660183643
30
0.0000000000
10
1.2058564012
20
-1.0543748401
30
0.0000000000
10
1.1279868577
20
-1.1374021477
30
0.0000000000
10
1.0444267673
20
-1.2146820490
30
0.0000000000
10
0.9555990438
20
-1.2858253461
30
0.0000000000
10
0.8619527644
20
-1.3504741598
30
0.0000000000
10
0.7639612042
20
-1.4083034065
30
0.0000000000
10
0.6621191696
20
-1.4590225566
30
0.0000000000
10
0.5569406363
20
-1.5023769480
30
0.0000000000
10
0.4489561452
20
-1.5381490153
30
0.0000000000
10
0.3387100408
20
-1.5661593662
30
0.0000000000
10
0.2267579629
20
-1.5862675623
30
0.0000000000
10
0.1136638256
20
-1.5983728457
30
0.0000000000
10
-0.0000026895
20
-1.6024145604
30
0.0000000000
10
-0.1136691954
20
-1.5983724622
30
0.0000000000
10
-0.2267632318
20
-1.5862668061
30
0.0000000000
10
-0.3387151847
20
-1.5661582489
30
0.0000000000
10
-0.4489610907
20
-1.5381475657
30
0.0000000000
10
-0.5569453456
20
-1.5023751940
30
0.0000000000
10
-0.6621235989
20
-1.4590205371
30
0.0000000000
10
-0.7639653031
20
-1.4083011714
30
0.0000000000
10
-0.8619565198
20
-1.3504717499
30
0.0000000000
10
-0.9556024035
20
-1.2858228341
30
0.0000000000
10
-1.0444297409
20
-1.2146794750
30
0.0000000000
10
-1.1279894070
20
-1.1373996003
30
0.0000000000
10
-1.2058585480
20
-1.0543723626
30
0.0000000000
10
-1.2776429349
20
-0.9660160469
30
0.0000000000
10
-1.3429788006
20
-0.8727762612
30
0.0000000000
10
-1.4015349686
20
-0.7751232565
30
0.0000000000
10
-1.4530142567
20
-0.6735506187
30
0.0000000000
10
-1.4971558170
20
-0.5685694560
30
0.0000000000
10
-1.5337339027
20
-0.4607177122
30
0.0000000000
10
-1.5529566273
20
-0.3872498247
30
0.0000000000
10
-1.5612492804
20
-0.3502334888
30
0.0000000000
11
1.5612490537
21
-0.3502334888
31
0.0000000000
11
1.5324422363
21
-0.4603293042
31
0.0000000000
11
1.4958934695
21
-0.5680956877
31
0.0000000000
11
1.4517887249
21
-0.6729880978
31
0.0000000000
11
1.4003520495
21
-0.7744762128
31
0.0000000000
11
1.3418445444
21
-0.8720473624
31
0.0000000000
11
1.2765629280
21
-0.9652090959
31
0.0000000000
11
1.2048383911
21
-1.0534910940
31
0.0000000000
11
1.1270340905
21
-1.1364485589
31
0.0000000000
11
1.0435443188
21
-1.2136631656
31
0.0000000000
11
0.9547912243
21
-1.2847464517
31
0.0000000000
11
0.8612238897
21
-1.3493405478
31
0.0000000000
11
0.7633149175
21
-1.4071208608
31
0.0000000000
11
0.6615588447
21
-1.4577970294
31
0.0000000000
11
0.5564692129
21
-1.5011146297
31
0.0000000000
11
0.4485759653
21
-1.5368563503
31
0.0000000000
11
0.3384232318
21
-1.5648428840
31
0.0000000000
11
0.2265658490
21
-1.5849340037
31
0.0000000000
11
0.1135675710
21
-1.5970289858
31
0.0000000000
11
-0.0000027132
21
-1.6010672651
31
0.0000000000
11
-0.1135729060
21
-1.5970286055
31
0.0000000000
11
-0.2265711570
21
-1.5849332431
31
0.0000000000
11
-0.3384283573
21
-1.5648417729
31
0.0000000000
11
-0.4485809288
21
-1.5368548981
31
0.0000000000
11
-0.5564739293
21
-1.5011128771
31
0.0000000000
11
-0.6615632682
21
-1.4577950170
31
0.0000000000
11
-0.7633190465
21
-1.4071186152
31
0.0000000000
11
-0.8612276243
21
-1.3493381577
31
0.0000000000
11
-0.9547946249
21
-1.2847439172
31
0.0000000000
11
-1.0435472712
21
-1.2136606192
31
0.0000000000
11
-1.1270366771
21
-1.1364459852
31
0.0000000000
11
-1.2048405289
21
-1.0534886399
31
0.0000000000
11
-1.2765646861
21
-0.9652067608
31
0.0000000000
11
-1.3418459004
21
-0.8720452654
31
0.0000000000
11
-1.4003530454
21
-0.7744744008
31
0.0000000000
11
-1.4517894008
21
-0.6729866271
31
0.0000000000
11
-1.4958938522
21
-0.5680946658
31
0.0000000000
11
-1.5324424079
21
-0.4603287161
31
0.0000000000
11
-1.5612492804
21
-0.3502334888
31
0.0000000000
0
SPLINE
5
245
100
AcDbEntity
8
0
100
AcDbSpline
62
9
6
CONTINUOUS
70
0
71
3
72
26
73
22
74
20
42
0.0000001000
43
0.0000001000
44
0.0000000001
12
-0.7998782513
22
0.0000039891
32
0.0000000000
13
-0.7997659699
23
0.0134018756
33
0.0000000000
40
0.0000000000
40
0.0000000000
40
0.0000000000
40
0.0000000000
40
0.0816788662
40
0.1628077147
40
0.2428510113
40
0.3212715576
40
0.3975457005
40
0.4711648504
40
0.5416363808
40
0.6084897106
40
0.6712780538
40
0.7295824491
40
0.7830129038
40
0.8312129114
40
0.8738603086
40
0.9106702857
40
0.9413965928
40
0.9658344118
40
0.9838204277
40
0.9952342192
40
1.0000000000
40
1.0000000000
40
1.0000000000
40
1.0000000000
10
-10.1995150734
20
-0.3502334883
30
0.0000000000
10
-10.2212927896
20
-0.3502333797
30
0.0000000000
10
-10.2647015730
20
-0.3502326400
30
0.0000000000
10
-10.3294519870
20
-0.3502299953
30
0.0000000000
10
-10.3933336479
20
-0.3502258263
30
0.0000000000
10
-10.4559209175
20
-0.3502201629
30
0.0000000000
10
-10.5167953419
20
-0.3502130431
30
0.0000000000
10
-10.5755503511
20
-0.3502045150
30
0.0000000000
10
-10.6317935255
20
-0.3501946368
30
0.0000000000
10
-10.6851489241
20
-0.3501834755
30
0.0000000000
10
-10.7352602467
20
-0.3501711108
30
0.0000000000
10
-10.7817926803
20
-0.3501576201
30
0.0000000000
10
-10.8244354828
20
-0.3501431295
30
0.0000000000
10
-10.8629037196
20
-0.3501276483
30
0.0000000000
10
-10.8969405061
20
-0.3501116010
30
0.0000000000
10
-10.9263183373
20
-0.3500941922
30
0.0000000000
10
-10.9508410474
20
-0.3500783007
30
0.0000000000
10
-10.9703447192
20
-0.3500566907
30
0.0000000000
10
-10.9846993573
20
-0.3500484512
30
0.0000000000
10
-10.9938085274
20
-0.3500141358
30
0.0000000000
10
-10.9981227050
20
-0.3500212901
30
0.0000000000
10
-10.9993932081
20
-0.3500000000
30
0.0000000000
11
-10.1995150734
21
-0.3502334883
31
0.0000000000
11
-10.2648482221
21
-0.3502323774
31
0.0000000000
11
-10.3297414234
21
-0.3502297177
31
0.0000000000
11
-10.3937663154
21
-0.3502255261
31
0.0000000000
11
-10.4564932046
21
-0.3502198306
31
0.0000000000
11
-10.5175032322
21
-0.3502126686
31
0.0000000000
11
-10.5763895885
21
-0.3502040874
31
0.0000000000
11
-10.6327582321
21
-0.3501941438
31
0.0000000000
11
-10.6862327554
21
-0.3501829036
31
0.0000000000
11
-10.7364557841
21
-0.3501704410
31
0.0000000000
11
-10.7830921998
21
-0.3501568386
31
0.0000000000
11
-10.8258300560
21
-0.3501421866
31
0.0000000000
11
-10.8643841907
21
-0.3501265818
31
0.0000000000
11
-10.8984969122
21
-0.3501101280
31
0.0000000000
11
-10.9279404072
21
-0.3500929344
31
0.0000000000
11
-10.9525177056
21
-0.3500751153
31
0.0000000000
11
-10.9720649769
21
-0.3500567890
31
0.0000000000
11
-10.9864515877
21
-0.3500380778
31
0.0000000000
11
-10.9955812116
21
-0.3500191061
31
0.0000000000
11
-10.9993932081
21
-0.3500000000
31
0.0000000000
0
SPLINE
5
246
100
AcDbEntity
8
0
100
AcDbSpline
62
9
6
CONTINUOUS
70
0
71
3
72
26
73
22
74
20
42
0.0000001000
43
0.0000001000
44
0.0000000001
12
0.7997659699
22
0.0134018751
32
0.0000000000
13
0.7998782513
23
0.0000039886
33
0.0000000000
40
0.0000000000
40
0.0000000000
40
0.0000000000
40
0.0000000000
40
0.0047657808
40
0.0161795723
40
0.0341655882
40
0.0586034072
40
0.0893297143
40
0.1261396914
40
0.1687870886
40
0.2169870962
40
0.2704175509
40
0.3287219462
40
0.3915102894
40
0.4583636192
40
0.5288351496
40
0.6024542995
40
0.6787284423
40
0.7571489887
40
0.8371922853
40
0.9183211337
40
1.0000000000
40
1.0000000000
40
1.0000000000
40
1.0000000000
10
-10.9993932081
20
0.3500000000
30
0.0000000000
10
-10.9981227050
20
0.3500212901
30
0.0000000000
10
-10.9938085274
20
0.3500141358
30
0.0000000000
10
-10.9846993573
20
0.3500484512
30
0.0000000000
10
-10.9703447192
20
0.3500566907
30
0.0000000000
10
-10.9508410474
20
0.3500783007
30
0.0000000000
10
-10.9263183373
20
0.3500941922
30
0.0000000000
10
-10.8969405061
20
0.3501116010
30
0.0000000000
10
-10.8629037196
20
0.3501276483
30
0.0000000000
10
-10.8244354828
20
0.3501431295
30
0.0000000000
10
-10.7817926803
20
0.3501576201
30
0.0000000000
10
-10.7352602467
20
0.3501711108
30
0.0000000000
10
-10.6851489241
20
0.3501834755
30
0.0000000000
10
-10.6317935255
20
0.3501946368
30
0.0000000000
10
-10.5755503511
20
0.3502045149
30
0.0000000000
10
-10.5167953419
20
0.3502130431
30
0.0000000000
10
-10.4559209175
20
0.3502201629
30
0.0000000000
10
-10.3933336479
20
0.3502258263
30
0.0000000000
10
-10.3294519870
20
0.3502299953
30
0.0000000000
10
-10.2647015730
20
0.3502326400
30
0.0000000000
10
-10.2212927896
20
0.3502333797
30
0.0000000000
10
-10.1995150734
20
0.3502334883
30
0.0000000000
11
-10.9993932081
21
0.3500000000
31
0.0000000000
11
-10.9955812116
21
0.3500191061
31
0.0000000000
11
-10.9864515877
21
0.3500380778
31
0.0000000000
11
-10.9720649769
21
0.3500567890
31
0.0000000000
11
-10.9525177056
21
0.3500751153
31
0.0000000000
11
-10.9279404072
21
0.3500929344
31
0.0000000000
11
-10.8984969122
21
0.3501101280
31
0.0000000000
11
-10.8643841907
21
0.3501265818
31
0.0000000000
11
-10.8258300560
21
0.3501421865
31
0.0000000000
11
-10.7830921998
21
0.3501568386
31
0.0000000000
11
-10.7364557841
21
0.3501704410
31
0.0000000000
11
-10.6862327554
21
0.3501829036
31
0.0000000000
11
-10.6327582321
21
0.3501941438
31
0.0000000000
11
-10.5763895885
21
0.3502040874
31
0.0000000000
11
-10.5175032322
21
0.3502126686
31
0.0000000000
11
-10.4564932046
21
0.3502198306
31
0.0000000000
11
-10.3937663154
21
0.3502255261
31
0.0000000000
11
-10.3297414234
21
0.3502297176
31
0.0000000000
11
-10.2648482221
21
0.3502323774
31
0.0000000000
11
-10.1995150734
21
0.3502334883
31
0.0000000000
0
SPLINE
5
247
100
AcDbEntity
8
0
100
AcDbSpline
62
9
6
CONTINUOUS
70
0
71
3
72
45
73
41
74
39
42
0.0000001000
43
0.0000001000
44
0.0000000001
12
0.9446380137
22
4.2166284796
32
0.0000000000
13
0.9446379949
23
-4.2166284838
33
0.0000000000
40
0.0000000000
40
0.0000000000
40
0.0000000000
40
0.0000000000
40
0.0263361000
40
0.0526706590
40
0.0790034287
40
0.1053340861
40
0.1316623926
40
0.1579881975
40
0.1843112788
40
0.2106316435
40
0.2369491466
40
0.2632639103
40
0.2895759243
40
0.3158853819
40
0.3421924383
40
0.3684973294
40
0.3948003659
40
0.4211018217
40
0.4474021132
40
0.4737015618
40
0.5000006213
40
0.5262996627
40
0.5525991146
40
0.5788993788
40
0.6052008177
40
0.6315038218
40
0.6578086731
40
0.6841156926
40
0.7104250885
40
0.7367370580
40
0.7630517424
40
0.7893691876
40
0.8156894611
40
0.8420124656
40
0.8683381720
40
0.8946663790
40
0.9209969325
40
0.9473295802
40
0.9736640285
40
1.0000000000
40
1.0000000000
40
1.0000000000
40
1.0000000000
10
-1.5612490537
20
0.3502334888
30
0.0000000000
10
-1.5529563600
20
0.3872500052
30
0.0000000000
10
-1.5337338509
20
0.4607183064
30
0.0000000000
10
-1.4971554124
20
0.5685704910
30
0.0000000000
10
-1.4530136089
20
0.6735520736
30
0.0000000000
10
-1.4015339823
20
0.7751250688
30
0.0000000000
10
-1.3429774532
20
0.8727783646
30
0.0000000000
10
-1.2776412012
20
0.9660183643
30
0.0000000000
10
-1.2058564012
20
1.0543748401
30
0.0000000000
10
-1.1279868577
20
1.1374021477
30
0.0000000000
10
-1.0444267673
20
1.2146820490
30
0.0000000000
10
-0.9555990438
20
1.2858253461
30
0.0000000000
10
-0.8619527644
20
1.3504741598
30
0.0000000000
10
-0.7639612042
20
1.4083034065
30
0.0000000000
10
-0.6621191696
20
1.4590225566
30
0.0000000000
10
-0.5569406363
20
1.5023769480
30
0.0000000000
10
-0.4489561452
20
1.5381490153
30
0.0000000000
10
-0.3387100408
20
1.5661593662
30
0.0000000000
10
-0.2267579629
20
1.5862675623
30
0.0000000000
10
-0.1136638256
20
1.5983728457
30
0.0000000000
10
0.0000026895
20
1.6024145604
30
0.0000000000
10
0.1136691954
20
1.5983724622
30
0.0000000000
10
0.2267632318
20
1.5862668061
30
0.0000000000
10
0.3387151847
20
1.5661582489
30
0.0000000000
10
0.4489610907
20
1.5381475657
30
0.0000000000
10
0.5569453456
20
1.5023751940
30
0.0000000000
10
0.6621235989
20
1.4590205371
30
0.0000000000
10
0.7639653031
20
1.4083011714
30
0.0000000000
10
0.8619565198
20
1.3504717499
30
0.0000000000
10
0.9556024035
20
1.2858228341
30
0.0000000000
10
1.0444297409
20
1.2146794750
30
0.0000000000
10
1.1279894070
20
1.1373996003
30
0.0000000000
10
1.2058585480
20
1.0543723626
30
0.0000000000
10
1.2776429349
20
0.9660160469
30
0.0000000000
10
1.3429788006
20
0.8727762612
30
0.0000000000
10
1.4015349686
20
0.7751232565
30
0.0000000000
10
1.4530142567
20
0.6735506187
30
0.0000000000
10
1.4971558170
20
0.5685694560
30
0.0000000000
10
1.5337339027
20
0.4607177122
30
0.0000000000
10
1.5529566273
20
0.3872498247
30
0.0000000000
10
1.5612492804
20
0.3502334888
30
0.0000000000
11
-1.5612490537
21
0.3502334888
31
0.0000000000
11
-1.5324422363
21
0.4603293042
31
0.0000000000
11
-1.4958934695
21
0.5680956877
31
0.0000000000
11
-1.4517887249
21
0.6729880978
31
0.0000000000
11
-1.4003520495
21
0.7744762128
31
0.0000000000
11
-1.3418445444
21
0.8720473624
31
0.0000000000
11
-1.2765629280
21
0.9652090959
31
0.0000000000
11
-1.2048383911
21
1.0534910940
31
0.0000000000
11
-1.1270340905
21
1.1364485589
31
0.0000000000
11
-1.0435443188
21
1.2136631656
31
0.0000000000
11
-0.9547912243
21
1.2847464517
31
0.0000000000
11
-0.8612238897
21
1.3493405478
31
0.0000000000
11
-0.7633149175
21
1.4071208608
31
0.0000000000
11
-0.6615588447
21
1.4577970294
31
0.0000000000
11
-0.5564692129
21
1.5011146297
31
0.0000000000
11
-0.4485759653
21
1.5368563503
31
0.0000000000
11
-0.3384232318
21
1.5648428839
31
0.0000000000
11
-0.2265658490
21
1.5849340037
31
0.0000000000
11
-0.1135675710
21
1.5970289858
31
0.0000000000
11
0.0000027132
21
1.6010672651
31
0.0000000000
11
0.1135729060
21
1.5970286055
31
0.0000000000
11
0.2265711570
21
1.5849332431
31
0.0000000000
11
0.3384283573
21
1.5648417729
31
0.0000000000
11
0.4485809288
21
1.5368548981
31
0.0000000000
11
0.5564739293
21
1.5011128771
31
0.0000000000
11
0.6615632682
21
1.4577950170
31
0.0000000000
11
0.7633190465
21
1.4071186152
31
0.0000000000
11
0.8612276243
21
1.3493381577
31
0.0000000000
11
0.9547946249
21
1.2847439172
31
0.0000000000
11
1.0435472712
21
1.2136606192
31
0.0000000000
11
1.1270366771
21
1.1364459852
31
0.0000000000
11
1.2048405289
21
1.0534886399
31
0.0000000000
11
1.2765646861
21
0.9652067608
31
0.0000000000
11
1.3418459004
21
0.8720452654
31
0.0000000000
11
1.4003530454
21
0.7744744008
31
0.0000000000
11
1.4517894008
21
0.6729866271
31
0.0000000000
11
1.4958938522
21
0.5680946658
31
0.0000000000
11
1.5324424079
21
0.4603287161
31
0.0000000000
11
1.5612492804
21
0.3502334888
31
0.0000000000
0
SPLINE
5
248
100
AcDbEntity
8
0
100
AcDbSpline
62
9
6
CONTINUOUS
70
0
71
3
72
26
73
22
74
20
42
0.0000001000
43
0.0000001000
44
0.0000000001
12
0.7998782513
22
-0.0000039886
32
0.0000000000
13
0.7997659699
23
-0.0134018752
33
0.0000000000
40
0.0000000000
40
0.0000000000
40
0.0000000000
40
0.0000000000
40
0.0816788662
40
0.1628077147
40
0.2428510113
40
0.3212715576
40
0.3975457005
40
0.4711648504
40
0.5416363808
40
0.6084897106
40
0.6712780538
40
0.7295824491
40
0.7830129038
40
0.8312129114
40
0.8738603086
40
0.9106702857
40
0.9413965928
40
0.9658344118
40
0.9838204277
40
0.9952342192
40
1.0000000000
40
1.0000000000
40
1.0000000000
40
1.0000000000
10
10.1995150734
20
0.3502334883
30
0.0000000000
10
10.2212927896
20
0.3502333797
30
0.0000000000
10
10.2647015730
20
0.3502326400
30
0.0000000000
10
10.3294519870
20
0.3502299953
30
0.0000000000
10
10.3933336479
20
0.3502258263
30
0.0000000000
10
10.4559209175
20
0.3502201629
30
0.0000000000
10
10.5167953419
20
0.3502130431
30
0.0000000000
10
10.5755503511
20
0.3502045149
30
0.0000000000
10
10.6317935255
20
0.3501946368
30
0.0000000000
10
10.6851489241
20
0.3501834755
30
0.0000000000
10
10.7352602467
20
0.3501711108
30
0.0000000000
10
10.7817926803
20
0.3501576201
30
0.0000000000
10
10.8244354828
20
0.3501431295
30
0.0000000000
10
10.8629037196
20
0.3501276483
30
0.0000000000
10
10.8969405061
20
0.3501116010
30
0.0000000000
10
10.9263183373
20
0.3500941922
30
0.0000000000
10
10.9508410474
20
0.3500783007
30
0.0000000000
10
10.9703447192
20
0.3500566907
30
0.0000000000
10
10.9846993573
20
0.3500484512
30
0.0000000000
10
10.9938085274
20
0.3500141358
30
0.0000000000
10
10.9981227050
20
0.3500212901
30
0.0000000000
10
10.9993932081
20
0.3500000000
30
0.0000000000
11
10.1995150734
21
0.3502334883
31
0.0000000000
11
10.2648482220
21
0.3502323774
31
0.0000000000
11
10.3297414234
21
0.3502297176
31
0.0000000000
11
10.3937663154
21
0.3502255261
31
0.0000000000
11
10.4564932046
21
0.3502198306
31
0.0000000000
11
10.5175032322
21
0.3502126686
31
0.0000000000
11
10.5763895885
21
0.3502040874
31
0.0000000000
11
10.6327582321
21
0.3501941438
31
0.0000000000
11
10.6862327554
21
0.3501829036
31
0.0000000000
11
10.7364557841
21
0.3501704410
31
0.0000000000
11
10.7830921998
21
0.3501568386
31
0.0000000000
11
10.8258300560
21
0.3501421865
31
0.0000000000
11
10.8643841907
21
0.3501265818
31
0.0000000000
11
10.8984969122
21
0.3501101280
31
0.0000000000
11
10.9279404072
21
0.3500929344
31
0.0000000000
11
10.9525177056
21
0.3500751153
31
0.0000000000
11
10.9720649769
21
0.3500567890
31
0.0000000000
11
10.9864515877
21
0.3500380778
31
0.0000000000
11
10.9955812116
21
0.3500191061
31
0.0000000000
11
10.9993932081
21
0.3500000000
31
0.0000000000
0
SPLINE
5
249
100
AcDbEntity
8
0
100
AcDbSpline
62
9
6
CONTINUOUS
70
0
71
3
72
25
73
21
74
19
42
0.0000001000
43
0.0000001000
44
0.0000000001
12
-0.0003825380
22
1.2559255494
32
0.0000000000
13
-1.2559255494
23
0.0003825380
33
0.0000000000
40
0.0000000000
40
0.0000000000
40
0.0000000000
40
0.0000000000
40
0.0555509011
40
0.1111032543
40
0.1666569928
40
0.2222120080
40
0.2777681525
40
0.3333252446
40
0.3888830737
40
0.4444414071
40
0.4999999964
40
0.5555585859
40
0.6111169195
40
0.6666747491
40
0.7222318418
40
0.7777879871
40
0.8333430033
40
0.8888967430
40
0.9444490974
40
1.0000000000
40
1.0000000000
40
1.0000000000
40
1.0000000000
10
11.0234262834
20
20.9735481273
30
0.0000000000
10
11.0234192000
20
20.9968040593
30
0.0000000000
10
11.0213739711
20
21.0433414411
30
0.0000000000
10
11.0122365985
20
21.1125951032
30
0.0000000000
10
10.9970991691
20
21.1807964124
30
0.0000000000
10
10.9760768511
20
21.2474195568
30
0.0000000000
10
10.9493295790
20
21.3119595624
30
0.0000000000
10
10.9170608396
20
21.3739249379
30
0.0000000000
10
10.8795161232
20
21.4328444134
30
0.0000000000
10
10.8369810561
20
21.4882697214
30
0.0000000000
10
10.7897792278
20
21.5397792215
30
0.0000000000
10
10.7382697281
20
21.5869810505
30
0.0000000000
10
10.6828444204
20
21.6295161184
30
0.0000000000
10
10.6239249447
20
21.6670608357
30
0.0000000000
10
10.5619595688
20
21.6993295760
30
0.0000000000
10
10.4974195625
20
21.7260768491
30
0.0000000000
10
10.4307964171
20
21.7470991679
30
0.0000000000
10
10.3625951065
20
21.7622365980
30
0.0000000000
10
10.2933414428
20
21.7713739710
30
0.0000000000
10
10.2468040599
20
21.7734192000
30
0.0000000000
10
10.2235481273
20
21.7734262834
30
0.0000000000
11
11.0234262834
21
20.9735481273
31
0.0000000000
11
11.0203624553
21
21.0432486206
31
0.0000000000
11
11.0112367393
21
21.1124188569
31
0.0000000000
11
10.9961185606
21
21.1805326128
31
0.0000000000
11
10.9751229331
21
21.2470717024
31
0.0000000000
11
10.9484095841
21
21.3115299193
31
0.0000000000
11
10.9161817397
21
21.3734168876
31
0.0000000000
11
10.8786845780
21
21.4322617928
31
0.0000000000
11
10.8362033645
21
21.4876169630
31
0.0000000000
11
10.7890612815
21
21.5390612751
31
0.0000000000
11
10.7376169697
21
21.5862033588
31
0.0000000000
11
10.6822617997
21
21.6286845731
31
0.0000000000
11
10.6234168945
21
21.6661817357
31
0.0000000000
11
10.5615299257
21
21.6984095811
31
0.0000000000
11
10.4970717081
21
21.7251229310
31
0.0000000000
11
10.4305326175
21
21.7461185594
31
0.0000000000
11
10.3624188603
21
21.7612367387
31
0.0000000000
11
10.2932486224
21
21.7703624552
31
0.0000000000
11
10.2235481273
21
21.7734262834
31
0.0000000000
0
SPLINE
5
24A
100
AcDbEntity
8
0
100
AcDbSpline
62
9
6
CONTINUOUS
70
0
71
3
72
28
73
24
74
22
42
0.0000001000
43
0.0000001000
44
0.0000000001
12
-0.5910541300
22
-1.2669803033
32
0.0000000000
13
-0.0007751169
23
-1.3980641876
33
0.0000000000
40
0.0000000000
40
0.0000000000
40
0.0000000000
40
0.0000000000
40
0.0040531425
40
0.0134239590
40
0.0280854129
40
0.0479680948
40
0.0729740315
40
0.1029789728
40
0.1378331548
40
0.1773625083
40
0.2213694381
40
0.2696340694
40
0.3219149864
40
0.3779508653
40
0.4374613796
40
0.5001491055
40
0.5657005217
40
0.6337878888
40
0.7040705197
40
0.7761972566
40
0.8498074732
40
0.9245325642
40
1.0000000000
40
1.0000000000
40
1.0000000000
40
1.0000000000
10
10.2235481273
20
21.7734262834
30
0.0000000000
10
10.2227495851
20
21.7717145328
30
0.0000000000
10
10.2227312025
20
21.7652219505
30
0.0000000000
10
10.2214708732
20
21.7523711872
30
0.0000000000
10
10.2209363489
20
21.7318078568
30
0.0000000000
10
10.2200205750
20
21.7041153774
30
0.0000000000
10
10.2192658329
20
21.6692042982
30
0.0000000000
10
10.2184709251
20
21.6273387799
30
0.0000000000
10
10.2177184689
20
21.5786952189
30
0.0000000000
10
10.2169871773
20
21.5235281962
30
0.0000000000
10
10.2162900922
20
21.4621098560
30
0.0000000000
10
10.2156283821
20
21.3947485912
30
0.0000000000
10
10.2150065160
20
21.3217808973
30
0.0000000000
10
10.2144275449
20
21.2435719026
30
0.0000000000
10
10.2138945865
20
21.1605126730
30
0.0000000000
10
10.2134103876
20
21.0730186326
30
0.0000000000
10
10.2129774521
20
20.9815272799
30
0.0000000000
10
10.2125980034
20
20.8864962727
30
0.0000000000
10
10.2122739770
20
20.7884008032
30
0.0000000000
10
10.2120070375
20
20.6877313867
30
0.0000000000
10
10.2117985214
20
20.5849915463
30
0.0000000000
10
10.2116495247
20
20.4806947640
30
0.0000000000
10
10.2115905377
20
20.4107018425
30
0.0000000000
10
10.2115710390
20
20.3755324027
30
0.0000000000
11
10.2235481273
21
21.7734262834
31
0.0000000000
11
10.2226852433
21
21.7678258131
31
0.0000000000
11
10.2218277845
21
21.7547528985
31
0.0000000000
11
10.2209799481
21
21.7342727835
31
0.0000000000
11
10.2201460431
21
21.7064880250
31
0.0000000000
11
10.2193302139
21
21.6715376354
31
0.0000000000
11
10.2185365470
21
21.6295963038
31
0.0000000000
11
10.2177690113
21
21.5808739579
31
0.0000000000
11
10.2170314458
21
21.5256142980
31
0.0000000000
11
10.2163275393
21
21.4640938028
31
0.0000000000
11
10.2156608102
21
21.3966200338
31
0.0000000000
11
10.2150345941
21
21.3235306274
31
0.0000000000
11
10.2144520212
21
21.2451910261
31
0.0000000000
11
10.2139160059
21
21.1619932211
31
0.0000000000
11
10.2134292270
21
21.0743530948
31
0.0000000000
11
10.2129941188
21
20.9827090263
31
0.0000000000
11
10.2126128569
21
20.8875192655
31
0.0000000000
11
10.2122873473
21
20.7892601604
31
0.0000000000
11
10.2120192192
21
20.6884226935
31
0.0000000000
11
10.2118098062
21
20.5855110831
31
0.0000000000
11
10.2116601688
21
20.4810407006
31
0.0000000000
11
10.2115710390
21
20.3755324027
31
0.0000000000
0
SPLINE
5
24B
100
AcDbEntity
8
0
100
AcDbSpline
62
9
6
CONTINUOUS
70
0
71
3
72
28
73
24
74
22
42
0.0000001000
43
0.0000001000
44
0.0000000001
12
-0.4614703308
22
-0.4616048229
32
0.0000000000
13
-0.0007756460
23
-0.6527122468
33
0.0000000000
40
0.0000000000
40
0.0000000000
40
0.0000000000
40
0.0000000000
40
0.0042155890
40
0.0136534542
40
0.0283529467
40
0.0482587206
40
0.0732780271
40
0.1032891817
40
0.1381438870
40
0.1776690194
40
0.2216676500
40
0.2699204100
40
0.3221862924
40
0.3782043212
40
0.4376944720
40
0.5003595809
40
0.5658863869
40
0.6339474026
40
0.7042021863
40
0.7762998203
40
0.8498799210
40
0.9245741143
40
1.0000000000
40
1.0000000000
40
1.0000000000
40
1.0000000000
10
11.0234262834
20
20.9735481273
30
0.0000000000
10
11.0227778270
20
20.9728994819
30
0.0000000000
10
11.0224567558
20
20.9696526489
30
0.0000000000
10
11.0214412144
20
20.9637987078
30
0.0000000000
10
11.0207752051
20
20.9541086304
30
0.0000000000
10
11.0199144496
20
20.9412193624
30
0.0000000000
10
11.0191386879
20
20.9249123880
30
0.0000000000
10
11.0183510811
20
20.9053791938
30
0.0000000000
10
11.0175961144
20
20.8826766418
30
0.0000000000
10
11.0168655958
20
20.8569320355
30
0.0000000000
10
11.0161682379
20
20.8282694575
30
0.0000000000
10
11.0155065888
20
20.7968336996
30
0.0000000000
10
11.0148846856
20
20.7627814913
30
0.0000000000
10
11.0143057101
20
20.7262833058
30
0.0000000000
10
11.0137727405
20
20.6875216188
30
0.0000000000
10
11.0132885347
20
20.6466903119
30
0.0000000000
10
11.0128555941
20
20.6039935602
30
0.0000000000
10
11.0124761409
20
20.5596449467
30
0.0000000000
10
11.0121521157
20
20.5138662370
30
0.0000000000
10
11.0118851709
20
20.4668863480
30
0.0000000000
10
11.0116766667
20
20.4189402683
30
0.0000000000
10
11.0115276666
20
20.3702698339
30
0.0000000000
10
11.0114686964
20
20.3376081161
30
0.0000000000
10
11.0114491951
20
20.3211976496
30
0.0000000000
11
11.0234262834
21
20.9735481273
31
0.0000000000
11
11.0225635492
21
20.9709353090
31
0.0000000000
11
11.0217060486
21
20.9648350684
31
0.0000000000
11
11.0208582134
21
20.9552780563
31
0.0000000000
11
11.0200242905
21
20.9423120945
31
0.0000000000
11
11.0192084502
21
20.9260020670
31
0.0000000000
11
11.0184147699
21
20.9064294905
31
0.0000000000
11
11.0176472218
21
20.8836923330
31
0.0000000000
11
11.0169096441
21
20.8579043226
31
0.0000000000
11
11.0162057261
21
20.8291944854
31
0.0000000000
11
11.0155389863
21
20.7977063538
31
0.0000000000
11
11.0149127603
21
20.7635974964
31
0.0000000000
11
11.0143301788
21
20.7270384587
31
0.0000000000
11
11.0137941560
21
20.6882121811
31
0.0000000000
11
11.0133073711
21
20.6473127650
31
0.0000000000
11
11.0128722586
21
20.6045447993
31
0.0000000000
11
11.0124909937
21
20.5601221456
31
0.0000000000
11
11.0121654838
21
20.5142671108
31
0.0000000000
11
11.0118973547
21
20.4672088328
31
0.0000000000
11
11.0116879474
21
20.4191826225
31
0.0000000000
11
11.0115383093
21
20.3704290031
31
0.0000000000
11
11.0114491951
21
20.3211976496
31
0.0000000000
0
SPLINE
5
24C
100
AcDbEntity
8
0
100
AcDbSpline
62
9
6
CONTINUOUS
70
0
71
3
72
25
73
21
74
19
42
0.0000001000
43
0.0000001000
44
0.0000000001
12
-0.2000154144
22
0.7803079050
32
0.0000000000
13
-0.8055344094
23
0.0009527726
33
0.0000000000
40
0.0000000000
40
0.0000000000
40
0.0000000000
40
0.0000000000
40
0.0077912118
40
0.0215936197
40
0.0421903447
40
0.0696660356
40
0.1039114029
40
0.1447195327
40
0.1918146647
40
0.2448643258
40
0.3034862371
40
0.3672533602
40
0.4356982739
40
0.5083173545
40
0.5845749592
40
0.6639076977
40
0.7457288209
40
0.8294327281
40
0.9143995806
40
1.0000000000
40
1.0000000000
40
1.0000000000
40
1.0000000000
10
11.0114491951
20
20.3211976496
30
0.0000000000
10
11.0109297409
20
20.3232241643
30
0.0000000000
10
11.0059047676
20
20.3272604085
30
0.0000000000
10
10.9956102487
20
20.3313160910
30
0.0000000000
10
10.9794414411
20
20.3357857000
30
0.0000000000
10
10.9578032740
20
20.3400666356
30
0.0000000000
10
10.9305783358
20
20.3443234057
30
0.0000000000
10
10.8980396259
20
20.3484141348
30
0.0000000000
10
10.8603908297
20
20.3523306175
30
0.0000000000
10
10.8179197474
20
20.3560265413
30
0.0000000000
10
10.7709373471
20
20.3594743668
30
0.0000000000
10
10.7197935232
20
20.3626449281
30
0.0000000000
10
10.6648680555
20
20.3655134125
30
0.0000000000
10
10.6065695157
20
20.3680572831
30
0.0000000000
10
10.5453315619
20
20.3702568783
30
0.0000000000
10
10.4816098377
20
20.3720952768
30
0.0000000000
10
10.4158785067
20
20.3735584138
30
0.0000000000
10
10.3486267097
20
20.3746351306
30
0.0000000000
10
10.2803549589
20
20.3753172368
30
0.0000000000
10
10.2345557334
20
20.3755052168
30
0.0000000000
10
10.2115710390
20
20.3755324027
30
0.0000000000
11
11.0114491951
21
20.3211976496
31
0.0000000000
11
11.0072718583
21
20.3258815805
31
0.0000000000
11
10.9971721925
21
20.3305306493
31
0.0000000000
11
10.9812253686
21
20.3351102534
31
0.0000000000
11
10.9595500774
21
20.3395863073
31
0.0000000000
11
10.9323076461
21
20.3439254960
31
0.0000000000
11
10.8997008376
21
20.3480955235
31
0.0000000000
11
10.8619723414
21
20.3520653526
31
0.0000000000
11
10.8194029674
21
20.3558054361
31
0.0000000000
11
10.7723095555
21
20.3592879370
31
0.0000000000
11
10.7210426177
21
20.3624869353
31
0.0000000000
11
10.6659837292
21
20.3653786213
31
0.0000000000
11
10.6075426882
21
20.3679414723
31
0.0000000000
11
10.5461544662
21
20.3701564132
31
0.0000000000
11
10.4822759702
21
20.3720069586
31
0.0000000000
11
10.4163826418
21
20.3734793348
31
0.0000000000
11
10.3489649193
21
20.3745625832
31
0.0000000000
11
10.2805245867
21
20.3752486413
31
0.0000000000
11
10.2115710390
21
20.3755324027
31
0.0000000000
0
SPLINE
5
24D
100
AcDbEntity
8
0
100
AcDbSpline
62
9
6
CONTINUOUS
70
0
71
3
72
25
73
21
74
19
42
0.0000001000
43
0.0000001000
44
0.0000000001
12
-0.2000156316
22
-0.7803078485
32
0.0000000000
13
-0.8055344086
23
-0.0009527724
33
0.0000000000
40
0.0000000000
40
0.0000000000
40
0.0000000000
40
0.0000000000
40
0.0077912128
40
0.0215936220
40
0.0421903481
40
0.0696660399
40
0.1039114080
40
0.1447195384
40
0.1918146708
40
0.2448643321
40
0.3034862433
40
0.3672533662
40
0.4356982796
40
0.5083173596
40
0.5845749637
40
0.6639077015
40
0.7457288238
40
0.8294327301
40
0.9143995816
40
1.0000000000
40
1.0000000000
40
1.0000000000
40
1.0000000000
10
11.0114491951
20
-20.3211976496
30
0.0000000000
10
11.0109297403
20
-20.3232241644
30
0.0000000000
10
11.0059047661
20
-20.3272604081
30
0.0000000000
10
10.9956102463
20
-20.3313160909
30
0.0000000000
10
10.9794414378
20
-20.3357856997
30
0.0000000000
10
10.9578032699
20
-20.3400666352
30
0.0000000000
10
10.9305783310
20
-20.3443234052
30
0.0000000000
10
10.8980396207
20
-20.3484141342
30
0.0000000000
10
10.8603908242
20
-20.3523306168
30
0.0000000000
10
10.8179197418
20
-20.3560265405
30
0.0000000000
10
10.7709373416
20
-20.3594743659
30
0.0000000000
10
10.7197935179
20
-20.3626449271
30
0.0000000000
10
10.6648680505
20
-20.3655134114
30
0.0000000000
10
10.6065695112
20
-20.3680572819
30
0.0000000000
10
10.5453315580
20
-20.3702568770
30
0.0000000000
10
10.4816098344
20
-20.3720952755
30
0.0000000000
10
10.4158785042
20
-20.3735584125
30
0.0000000000
10
10.3486267080
20
-20.3746351292
30
0.0000000000
10
10.2803549580
20
-20.3753172353
30
0.0000000000
10
10.2345557331
20
-20.3755052153
30
0.0000000000
10
10.2115710390
20
-20.3755324012
30
0.0000000000
11
11.0114491951
21
-20.3211976496
31
0.0000000000
11
11.0072718570
21
-20.3258815804
31
0.0000000000
11
10.9971721901
21
-20.3305306491
31
0.0000000000
11
10.9812253652
21
-20.3351102531
31
0.0000000000
11
10.9595500732
21
-20.3395863069
31
0.0000000000
11
10.9323076413
21
-20.3439254956
31
0.0000000000
11
10.8997008323
21
-20.3480955229
31
0.0000000000
11
10.8619723359
21
-20.3520653519
31
0.0000000000
11
10.8194029618
21
-20.3558054353
31
0.0000000000
11
10.7723095500
21
-20.3592879361
31
0.0000000000
11
10.7210426124
21
-20.3624869344
31
0.0000000000
11
10.6659837242
21
-20.3653786202
31
0.0000000000
11
10.6075426837
21
-20.3679414711
31
0.0000000000
11
10.5461544623
21
-20.3701564120
31
0.0000000000
11
10.4822759669
21
-20.3720069572
31
0.0000000000
11
10.4163826393
21
-20.3734793334
31
0.0000000000
11
10.3489649176
21
-20.3745625818
31
0.0000000000
11
10.2805245858
21
-20.3752486398
31
0.0000000000
11
10.2115710390
21
-20.3755324012
31
0.0000000000
0
SPLINE
5
24E
100
AcDbEntity
8
0
100
AcDbSpline
62
9
6
CONTINUOUS
70
0
71
3
72
28
73
24
74
22
42
0.0000001000
43
0.0000001000
44
0.0000000001
12
0.0007751838
22
-1.3980641882
32
0.0000000000
13
0.5910385239
23
-1.2669875842
33
0.0000000000
40
0.0000000000
40
0.0000000000
40
0.0000000000
40
0.0000000000
40
0.0754674171
40
0.1501925090
40
0.2238027285
40
0.2959294630
40
0.3662120962
40
0.4342994649
40
0.4998508810
40
0.5625386064
40
0.6220491218
40
0.6780850016
40
0.7303659194
40
0.7786305512
40
0.8226374816
40
0.8621668367
40
0.8970210200
40
0.9270259617
40
0.9520318990
40
0.9719145828
40
0.9865760375
40
0.9959468552
40
1.0000000000
40
1.0000000000
40
1.0000000000
40
1.0000000000
10
10.2115710390
20
-20.3755324027
30
0.0000000000
10
10.2115905393
20
-20.4107018337
30
0.0000000000
10
10.2116495227
20
-20.4806947470
30
0.0000000000
10
10.2117985216
20
-20.5849915224
30
0.0000000000
10
10.2120070359
20
-20.6877313635
30
0.0000000000
10
10.2122739758
20
-20.7884007814
30
0.0000000000
10
10.2125980015
20
-20.8864962517
30
0.0000000000
10
10.2129774499
20
-20.9815272606
30
0.0000000000
10
10.2134103850
20
-21.0730186139
30
0.0000000000
10
10.2138945835
20
-21.1605126545
30
0.0000000000
10
10.2144275414
20
-21.2435718848
30
0.0000000000
10
10.2150065122
20
-21.3217808809
30
0.0000000000
10
10.2156283779
20
-21.3947485759
30
0.0000000000
10
10.2162900878
20
-21.4621098416
30
0.0000000000
10
10.2169871730
20
-21.5235281831
30
0.0000000000
10
10.2177184644
20
-21.5786952075
30
0.0000000000
10
10.2184709212
20
-21.6273387700
30
0.0000000000
10
10.2192658273
20
-21.6692042898
30
0.0000000000
10
10.2200205742
20
-21.7041153688
30
0.0000000000
10
10.2209363364
20
-21.7318078537
30
0.0000000000
10
10.2214708872
20
-21.7523711764
30
0.0000000000
10
10.2227311695
20
-21.7652219600
30
0.0000000000
10
10.2227496057
20
-21.7717145220
30
0.0000000000
10
10.2235481273
20
-21.7734262834
30
0.0000000000
11
10.2115710390
21
-20.3755324027
31
0.0000000000
11
10.2116601680
21
-20.4810406744
31
0.0000000000
11
10.2118098057
21
-20.5855110583
31
0.0000000000
11
10.2120192180
21
-20.6884226729
31
0.0000000000
11
10.2122873459
21
-20.7892601364
31
0.0000000000
11
10.2126128551
21
-20.8875192448
31
0.0000000000
11
10.2129941166
21
-20.9827090079
31
0.0000000000
11
10.2134292244
21
-21.0743530763
31
0.0000000000
11
10.2139160028
21
-21.1619932019
31
0.0000000000
11
10.2144520177
21
-21.2451910083
31
0.0000000000
11
10.2150345902
21
-21.3235306112
31
0.0000000000
11
10.2156608060
21
-21.3966200186
31
0.0000000000
11
10.2163275349
21
-21.4640937884
31
0.0000000000
11
10.2170314414
21
-21.5256142844
31
0.0000000000
11
10.2177690069
21
-21.5808739466
31
0.0000000000
11
10.2185365427
21
-21.6295962943
31
0.0000000000
11
10.2193302096
21
-21.6715376266
31
0.0000000000
11
10.2201460390
21
-21.7064880168
31
0.0000000000
11
10.2209799438
21
-21.7342727781
31
0.0000000000
11
10.2218277813
21
-21.7547528941
31
0.0000000000
11
10.2226852385
21
-21.7678258106
31
0.0000000000
11
10.2235481273
21
-21.7734262834
31
0.0000000000
0
SPLINE
5
24F
100
AcDbEntity
8
0
100
AcDbSpline
62
9
6
CONTINUOUS
70
0
71
3
72
28
73
24
74
22
42
0.0000001000
43
0.0000001000
44
0.0000000001
12
0.0007756531
22
-0.6527122453
32
0.0000000000
13
0.4614786015
23
-0.4615965524
33
0.0000000000
40
0.0000000000
40
0.0000000000
40
0.0000000000
40
0.0000000000
40
0.0754223315
40
0.1501165116
40
0.2236966219
40
0.2957942783
40
0.3660491092
40
0.4341101913
40
0.4996370827
40
0.5623022969
40
0.6217925769
40
0.6778107753
40
0.7300768684
40
0.7783298738
40
0.8223287732
40
0.8618541795
40
0.8967091598
40
0.9267205884
40
0.9517401679
40
0.9716462114
40
0.9863459729
40
0.9957840884
40
1.0000000000
40
1.0000000000
40
1.0000000000
40
1.0000000000
10
11.0114491951
20
-20.3211976496
30
0.0000000000
10
11.0114686956
20
-20.3376073427
30
0.0000000000
10
11.0115276631
20
-20.3702682843
30
0.0000000000
10
11.0116766582
20
-20.4189379445
30
0.0000000000
10
11.0118851593
20
-20.4668840283
30
0.0000000000
10
11.0121521011
20
-20.5138639344
30
0.0000000000
10
11.0124761232
20
-20.5596426736
30
0.0000000000
10
11.0128555734
20
-20.6039913303
30
0.0000000000
10
11.0132885109
20
-20.6466881380
30
0.0000000000
10
11.0137727136
20
-20.6875195144
30
0.0000000000
10
11.0143056803
20
-20.7262812893
30
0.0000000000
10
11.0148846532
20
-20.7627795856
30
0.0000000000
10
11.0155065541
20
-20.7968319300
30
0.0000000000
10
11.0161682014
20
-20.8282678456
30
0.0000000000
10
11.0168655579
20
-20.8569305951
30
0.0000000000
10
11.0175960757
20
-20.8826753793
30
0.0000000000
10
11.0183510413
20
-20.9053781106
30
0.0000000000
10
11.0191386489
20
-20.9249114830
30
0.0000000000
10
11.0199144070
20
-20.9412186376
30
0.0000000000
10
11.0207751724
20
-20.9541080761
30
0.0000000000
10
11.0214411602
20
-20.9637983413
30
0.0000000000
10
11.0224567548
20
-20.9696524316
30
0.0000000000
10
11.0227777657
20
-20.9728994439
30
0.0000000000
10
11.0234262834
20
-20.9735481273
30
0.0000000000
11
11.0114491951
21
-20.3211976496
31
0.0000000000
11
11.0115383036
21
-20.3704266831
31
0.0000000000
11
11.0116879388
21
-20.4191802938
31
0.0000000000
11
11.0118973431
21
-20.4672065103
31
0.0000000000
11
11.0121654691
21
-20.5142648028
31
0.0000000000
11
11.0124909759
21
-20.5601198683
31
0.0000000000
11
11.0128722377
21
-20.6045425653
31
0.0000000000
11
11.0133073471
21
-20.6473105867
31
0.0000000000
11
11.0137941290
21
-20.6882100715
31
0.0000000000
11
11.0143301487
21
-20.7270364333
31
0.0000000000
11
11.0149127276
21
-20.7635955817
31
0.0000000000
11
11.0155389512
21
-20.7977045767
31
0.0000000000
11
11.0162056893
21
-20.8291928684
31
0.0000000000
11
11.0169096060
21
-20.8579028810
31
0.0000000000
11
11.0176471826
21
-20.8836910703
31
0.0000000000
11
11.0184147299
21
-20.9064284074
31
0.0000000000
11
11.0192084096
21
-20.9260011628
31
0.0000000000
11
11.0200242495
21
-20.9423113688
31
0.0000000000
11
11.0208581723
21
-20.9552775069
31
0.0000000000
11
11.0217060076
21
-20.9648346952
31
0.0000000000
11
11.0225635085
21
-20.9709351008
31
0.0000000000
11
11.0234262834
21
-20.9735481273
31
0.0000000000
0
SPLINE
5
250
100
AcDbEntity
8
0
100
AcDbSpline
62
9
6
CONTINUOUS
70
0
71
3
72
25
73
21
74
19
42
0.0000001000
43
0.0000001000
44
0.0000000001
12
-0.0003825380
22
-1.2559255494
32
0.0000000000
13
-1.2559255494
23
-0.0003825380
33
0.0000000000
40
0.0000000000
40
0.0000000000
40
0.0000000000
40
0.0000000000
40
0.0555509020
40
0.1111032559
40
0.1666569950
40
0.2222120107
40
0.2777681556
40
0.3333252480
40
0.3888830773
40
0.4444414107
40
0.5000000000
40
0.5555585893
40
0.6111169227
40
0.6666747520
40
0.7222318444
40
0.7777879893
40
0.8333430050
40
0.8888967441
40
0.9444490980
40
1.0000000000
40
1.0000000000
40
1.0000000000
40
1.0000000000
10
11.0234262834
20
-20.9735481273
30
0.0000000000
10
11.0234192000
20
-20.9968040596
30
0.0000000000
10
11.0213739710
20
-21.0433414421
30
0.0000000000
10
11.0122365982
20
-21.1125951051
30
0.0000000000
10
10.9970991684
20
-21.1807964151
30
0.0000000000
10
10.9760768500
20
-21.2474195599
30
0.0000000000
10
10.9493295774
20
-21.3119595659
30
0.0000000000
10
10.9170608375
20
-21.3739249415
30
0.0000000000
10
10.8795161207
20
-21.4328444170
30
0.0000000000
10
10.8369810533
20
-21.4882697248
30
0.0000000000
10
10.7897792246
20
-21.5397792246
30
0.0000000000
10
10.7382697248
20
-21.5869810533
30
0.0000000000
10
10.6828444170
20
-21.6295161207
30
0.0000000000
10
10.6239249415
20
-21.6670608375
30
0.0000000000
10
10.5619595659
20
-21.6993295774
30
0.0000000000
10
10.4974195599
20
-21.7260768500
30
0.0000000000
10
10.4307964151
20
-21.7470991684
30
0.0000000000
10
10.3625951051
20
-21.7622365982
30
0.0000000000
10
10.2933414421
20
-21.7713739710
30
0.0000000000
10
10.2468040596
20
-21.7734192000
30
0.0000000000
10
10.2235481273
20
-21.7734262834
30
0.0000000000
11
11.0234262834
21
-20.9735481273
31
0.0000000000
11
11.0203624552
21
-21.0432486217
31
0.0000000000
11
11.0112367390
21
-21.1124188588
31
0.0000000000
11
10.9961185599
21
-21.1805326154
31
0.0000000000
11
10.9751229319
21
-21.2470717055
31
0.0000000000
11
10.9484095825
21
-21.3115299228
31
0.0000000000
11
10.9161817376
21
-21.3734168913
31
0.0000000000
11
10.8786845754
21
-21.4322617964
31
0.0000000000
11
10.8362033615
21
-21.4876169664
31
0.0000000000
11
10.7890612783
21
-21.5390612783
31
0.0000000000
11
10.7376169664
21
-21.5862033615
31
0.0000000000
11
10.6822617964
21
-21.6286845754
31
0.0000000000
11
10.6234168913
21
-21.6661817376
31
0.0000000000
11
10.5615299228
21
-21.6984095825
31
0.0000000000
11
10.4970717055
21
-21.7251229319
31
0.0000000000
11
10.4305326154
21
-21.7461185599
31
0.0000000000
11
10.3624188588
21
-21.7612367390
31
0.0000000000
11
10.2932486217
21
-21.7703624552
31
0.0000000000
11
10.2235481273
21
-21.7734262834
31
0.0000000000
0
SPLINE
5
251
100
AcDbEntity
8
0
100
AcDbSpline
62
9
6
CONTINUOUS
70
0
71
3
72
26
73
22
74
20
42
0.0000001000
43
0.0000001000
44
0.0000000001
12
-0.7997659699
22
-0.0134018755
32
0.0000000000
13
-0.7998782513
23
-0.0000039891
33
0.0000000000
40
0.0000000000
40
0.0000000000
40
0.0000000000
40
0.0000000000
40
0.0047657808
40
0.0161795723
40
0.0341655882
40
0.0586034072
40
0.0893297143
40
0.1261396914
40
0.1687870886
40
0.2169870962
40
0.2704175509
40
0.3287219462
40
0.3915102894
40
0.4583636192
40
0.5288351496
40
0.6024542995
40
0.6787284423
40
0.7571489887
40
0.8371922853
40
0.9183211337
40
1.0000000000
40
1.0000000000
40
1.0000000000
40
1.0000000000
10
10.9993932081
20
-0.3500000000
30
0.0000000000
10
10.9981227050
20
-0.3500212901
30
0.0000000000
10
10.9938085274
20
-0.3500141358
30
0.0000000000
10
10.9846993573
20
-0.3500484512
30
0.0000000000
10
10.9703447192
20
-0.3500566907
30
0.0000000000
10
10.9508410474
20
-0.3500783007
30
0.0000000000
10
10.9263183373
20
-0.3500941922
30
0.0000000000
10
10.8969405061
20
-0.3501116010
30
0.0000000000
10
10.8629037196
20
-0.3501276483
30
0.0000000000
10
10.8244354828
20
-0.3501431295
30
0.0000000000
10
10.7817926803
20
-0.3501576201
30
0.0000000000
10
10.7352602467
20
-0.3501711108
30
0.0000000000
10
10.6851489241
20
-0.3501834755
30
0.0000000000
10
10.6317935255
20
-0.3501946368
30
0.0000000000
10
10.5755503511
20
-0.3502045150
30
0.0000000000
10
10.5167953419
20
-0.3502130431
30
0.0000000000
10
10.4559209175
20
-0.3502201629
30
0.0000000000
10
10.3933336479
20
-0.3502258263
30
0.0000000000
10
10.3294519870
20
-0.3502299953
30
0.0000000000
10
10.2647015730
20
-0.3502326400
30
0.0000000000
10
10.2212927896
20
-0.3502333797
30
0.0000000000
10
10.1995150734
20
-0.3502334883
30
0.0000000000
11
10.9993932081
21
-0.3500000000
31
0.0000000000
11
10.9955812116
21
-0.3500191061
31
0.0000000000
11
10.9864515877
21
-0.3500380778
31
0.0000000000
11
10.9720649769
21
-0.3500567890
31
0.0000000000
11
10.9525177056
21
-0.3500751153
31
0.0000000000
11
10.9279404072
21
-0.3500929344
31
0.0000000000
11
10.8984969122
21
-0.3501101280
31
0.0000000000
11
10.8643841907
21
-0.3501265818
31
0.0000000000
11
10.8258300560
21
-0.3501421866
31
0.0000000000
11
10.7830921998
21
-0.3501568386
31
0.0000000000
11
10.7364557841
21
-0.3501704410
31
0.0000000000
11
10.6862327554
21
-0.3501829036
31
0.0000000000
11
10.6327582321
21
-0.3501941438
31
0.0000000000
11
10.5763895885
21
-0.3502040874
31
0.0000000000
11
10.5175032322
21
-0.3502126686
31
0.0000000000
11
10.4564932046
21
-0.3502198306
31
0.0000000000
11
10.3937663154
21
-0.3502255261
31
0.0000000000
11
10.3297414234
21
-0.3502297177
31
0.0000000000
11
10.2648482221
21
-0.3502323774
31
0.0000000000
11
10.1995150734
21
-0.3502334883
31
0.0000000000
0
SPLINE
5
252
100
AcDbEntity
8
0
100
AcDbSpline
62
9
6
CONTINUOUS
70
0
71
3
72
25
73
21
74
19
42
0.0000001000
43
0.0000001000
44
0.0000000001
12
0.0003825380
22
-1.2559255494
32
0.0000000000
13
1.2559255494
23
-0.0003825380
33
0.0000000000
40
0.0000000000
40
0.0000000000
40
0.0000000000
40
0.0000000000
40
0.0555509015
40
0.1111032549
40
0.1666569937
40
0.2222120092
40
0.2777681538
40
0.3333252460
40
0.3888830752
40
0.4444414086
40
0.4999999980
40
0.5555585874
40
0.6111169209
40
0.6666747504
40
0.7222318429
40
0.7777879881
40
0.8333430041
40
0.8888967435
40
0.9444490977
40
1.0000000000
40
1.0000000000
40
1.0000000000
40
1.0000000000
10
-11.0234262834
20
-20.9735481273
30
0.0000000000
10
-11.0234192000
20
-20.9968040594
30
0.0000000000
10
-11.0213739711
20
-21.0433414415
30
0.0000000000
10
-11.0122365984
20
-21.1125951040
30
0.0000000000
10
-10.9970991688
20
-21.1807964136
30
0.0000000000
10
-10.9760768507
20
-21.2474195581
30
0.0000000000
10
-10.9493295783
20
-21.3119595639
30
0.0000000000
10
-10.9170608387
20
-21.3739249394
30
0.0000000000
10
-10.8795161221
20
-21.4328444150
30
0.0000000000
10
-10.8369810549
20
-21.4882697228
30
0.0000000000
10
-10.7897792264
20
-21.5397792228
30
0.0000000000
10
-10.7382697267
20
-21.5869810517
30
0.0000000000
10
-10.6828444189
20
-21.6295161194
30
0.0000000000
10
-10.6239249433
20
-21.6670608364
30
0.0000000000
10
-10.5619595675
20
-21.6993295766
30
0.0000000000
10
-10.4974195614
20
-21.7260768495
30
0.0000000000
10
-10.4307964162
20
-21.7470991681
30
0.0000000000
10
-10.3625951059
20
-21.7622365981
30
0.0000000000
10
-10.2933414425
20
-21.7713739710
30
0.0000000000
10
-10.2468040598
20
-21.7734192000
30
0.0000000000
10
-10.2235481273
20
-21.7734262834
30
0.0000000000
11
-11.0234262834
21
-20.9735481273
31
0.0000000000
11
-11.0203624553
21
-21.0432486211
31
0.0000000000
11
-11.0112367392
21
-21.1124188577
31
0.0000000000
11
-10.9961185603
21
-21.1805326139
31
0.0000000000
11
-10.9751229326
21
-21.2470717037
31
0.0000000000
11
-10.9484095834
21
-21.3115299208
31
0.0000000000
11
-10.9161817388
21
-21.3734168892
31
0.0000000000
11
-10.8786845769
21
-21.4322617943
31
0.0000000000
11
-10.8362033632
21
-21.4876169644
31
0.0000000000
11
-10.7890612801
21
-21.5390612765
31
0.0000000000
11
-10.7376169683
21
-21.5862033600
31
0.0000000000
11
-10.6822617983
21
-21.6286845741
31
0.0000000000
11
-10.6234168931
21
-21.6661817365
31
0.0000000000
11
-10.5615299244
21
-21.6984095817
31
0.0000000000
11
-10.4970717070
21
-21.7251229314
31
0.0000000000
11
-10.4305326166
21
-21.7461185596
31
0.0000000000
11
-10.3624188596
21
-21.7612367388
31
0.0000000000
11
-10.2932486221
21
-21.7703624552
31
0.0000000000
11
-10.2235481273
21
-21.7734262834
31
0.0000000000
0
SPLINE
5
253
100
AcDbEntity
8
0
100
AcDbSpline
62
9
6
CONTINUOUS
70
0
71
3
72
28
73
24
74
22
42
0.0000001000
43
0.0000001000
44
0.0000000001
12
0.5910385244
22
1.2669875840
32
0.0000000000
13
0.0007751838
23
1.3980641882
33
0.0000000000
40
0.0000000000
40
0.0000000000
40
0.0000000000
40
0.0000000000
40
0.0040531448
40
0.0134239625
40
0.0280854172
40
0.0479681010
40
0.0729740383
40
0.1029789800
40
0.1378331633
40
0.1773625184
40
0.2213694488
40
0.2696340806
40
0.3219149984
40
0.3779508782
40
0.4374613936
40
0.5001491190
40
0.5657005351
40
0.6337879038
40
0.7040705370
40
0.7761972715
40
0.8498074910
40
0.9245325829
40
1.0000000000
40
1.0000000000
40
1.0000000000
40
1.0000000000
10
-10.2235481273
20
-21.7734262834
30
0.0000000000
10
-10.2227496057
20
-21.7717145220
30
0.0000000000
10
-10.2227311695
20
-21.7652219600
30
0.0000000000
10
-10.2214708872
20
-21.7523711764
30
0.0000000000
10
-10.2209363364
20
-21.7318078537
30
0.0000000000
10
-10.2200205742
20
-21.7041153688
30
0.0000000000
10
-10.2192658273
20
-21.6692042898
30
0.0000000000
10
-10.2184709212
20
-21.6273387700
30
0.0000000000
10
-10.2177184644
20
-21.5786952075
30
0.0000000000
10
-10.2169871730
20
-21.5235281831
30
0.0000000000
10
-10.2162900878
20
-21.4621098416
30
0.0000000000
10
-10.2156283779
20
-21.3947485759
30
0.0000000000
10
-10.2150065122
20
-21.3217808809
30
0.0000000000
10
-10.2144275414
20
-21.2435718848
30
0.0000000000
10
-10.2138945835
20
-21.1605126545
30
0.0000000000
10
-10.2134103850
20
-21.0730186139
30
0.0000000000
10
-10.2129774499
20
-20.9815272606
30
0.0000000000
10
-10.2125980015
20
-20.8864962517
30
0.0000000000
10
-10.2122739758
20
-20.7884007814
30
0.0000000000
10
-10.2120070359
20
-20.6877313635
30
0.0000000000
10
-10.2117985216
20
-20.5849915224
30
0.0000000000
10
-10.2116495227
20
-20.4806947470
30
0.0000000000
10
-10.2115905393
20
-20.4107018337
30
0.0000000000
10
-10.2115710390
20
-20.3755324027
30
0.0000000000
11
-10.2235481273
21
-21.7734262834
31
0.0000000000
11
-10.2226852385
21
-21.7678258106
31
0.0000000000
11
-10.2218277813
21
-21.7547528941
31
0.0000000000
11
-10.2209799438
21
-21.7342727781
31
0.0000000000
11
-10.2201460390
21
-21.7064880168
31
0.0000000000
11
-10.2193302096
21
-21.6715376266
31
0.0000000000
11
-10.2185365427
21
-21.6295962943
31
0.0000000000
11
-10.2177690069
21
-21.5808739466
31
0.0000000000
11
-10.2170314414
21
-21.5256142844
31
0.0000000000
11
-10.2163275349
21
-21.4640937884
31
0.0000000000
11
-10.2156608060
21
-21.3966200186
31
0.0000000000
11
-10.2150345902
21
-21.3235306112
31
0.0000000000
11
-10.2144520177
21
-21.2451910083
31
0.0000000000
11
-10.2139160028
21
-21.1619932019
31
0.0000000000
11
-10.2134292244
21
-21.0743530763
31
0.0000000000
11
-10.2129941166
21
-20.9827090079
31
0.0000000000
11
-10.2126128551
21
-20.8875192448
31
0.0000000000
11
-10.2122873459
21
-20.7892601364
31
0.0000000000
11
-10.2120192180
21
-20.6884226729
31
0.0000000000
11
-10.2118098057
21
-20.5855110583
31
0.0000000000
11
-10.2116601680
21
-20.4810406744
31
0.0000000000
11
-10.2115710390
21
-20.3755324027
31
0.0000000000
0
SPLINE
5
254
100
AcDbEntity
8
0
100
AcDbSpline
62
9
6
CONTINUOUS
70
0
71
3
72
28
73
24
74
22
42
0.0000001000
43
0.0000001000
44
0.0000000001
12
0.4614786011
22
0.4615965528
32
0.0000000000
13
0.0007756531
23
0.6527122453
33
0.0000000000
40
0.0000000000
40
0.0000000000
40
0.0000000000
40
0.0000000000
40
0.0042159116
40
0.0136540271
40
0.0283537886
40
0.0482598321
40
0.0732794116
40
0.1032908402
40
0.1381458205
40
0.1776712268
40
0.2216701262
40
0.2699231316
40
0.3221892247
40
0.3782074231
40
0.4376977031
40
0.5003629173
40
0.5658898087
40
0.6339508908
40
0.7042057217
40
0.7763033781
40
0.8498834884
40
0.9245776685
40
1.0000000000
40
1.0000000000
40
1.0000000000
40
1.0000000000
10
-11.0234262834
20
-20.9735481273
30
0.0000000000
10
-11.0227777657
20
-20.9728994438
30
0.0000000000
10
-11.0224567548
20
-20.9696524316
30
0.0000000000
10
-11.0214411602
20
-20.9637983413
30
0.0000000000
10
-11.0207751724
20
-20.9541080761
30
0.0000000000
10
-11.0199144070
20
-20.9412186376
30
0.0000000000
10
-11.0191386489
20
-20.9249114830
30
0.0000000000
10
-11.0183510413
20
-20.9053781106
30
0.0000000000
10
-11.0175960757
20
-20.8826753793
30
0.0000000000
10
-11.0168655579
20
-20.8569305951
30
0.0000000000
10
-11.0161682014
20
-20.8282678456
30
0.0000000000
10
-11.0155065541
20
-20.7968319300
30
0.0000000000
10
-11.0148846532
20
-20.7627795856
30
0.0000000000
10
-11.0143056803
20
-20.7262812893
30
0.0000000000
10
-11.0137727136
20
-20.6875195144
30
0.0000000000
10
-11.0132885109
20
-20.6466881380
30
0.0000000000
10
-11.0128555734
20
-20.6039913303
30
0.0000000000
10
-11.0124761232
20
-20.5596426736
30
0.0000000000
10
-11.0121521011
20
-20.5138639344
30
0.0000000000
10
-11.0118851593
20
-20.4668840283
30
0.0000000000
10
-11.0116766582
20
-20.4189379445
30
0.0000000000
10
-11.0115276631
20
-20.3702682843
30
0.0000000000
10
-11.0114686956
20
-20.3376073427
30
0.0000000000
10
-11.0114491951
20
-20.3211976496
30
0.0000000000
11
-11.0234262834
21
-20.9735481273
31
0.0000000000
11
-11.0225635085
21
-20.9709351008
31
0.0000000000
11
-11.0217060076
21
-20.9648346952
31
0.0000000000
11
-11.0208581723
21
-20.9552775069
31
0.0000000000
11
-11.0200242495
21
-20.9423113688
31
0.0000000000
11
-11.0192084096
21
-20.9260011628
31
0.0000000000
11
-11.0184147299
21
-20.9064284074
31
0.0000000000
11
-11.0176471826
21
-20.8836910703
31
0.0000000000
11
-11.0169096060
21
-20.8579028810
31
0.0000000000
11
-11.0162056893
21
-20.8291928684
31
0.0000000000
11
-11.0155389512
21
-20.7977045767
31
0.0000000000
11
-11.0149127276
21
-20.7635955817
31
0.0000000000
11
-11.0143301487
21
-20.7270364333
31
0.0000000000
11
-11.0137941290
21
-20.6882100715
31
0.0000000000
11
-11.0133073471
21
-20.6473105867
31
0.0000000000
11
-11.0128722377
21
-20.6045425653
31
0.0000000000
11
-11.0124909759
21
-20.5601198683
31
0.0000000000
11
-11.0121654691
21
-20.5142648028
31
0.0000000000
11
-11.0118973431
21
-20.4672065103
31
0.0000000000
11
-11.0116879388
21
-20.4191802938
31
0.0000000000
11
-11.0115383036
21
-20.3704266831
31
0.0000000000
11
-11.0114491951
21
-20.3211976496
31
0.0000000000
0
SPLINE
5
255
100
AcDbEntity
8
0
100
AcDbSpline
62
9
6
CONTINUOUS
70
0
71
3
72
25
73
21
74
19
42
0.0000001000
43
0.0000001000
44
0.0000000001
12
0.2000154147
22
-0.7803079049
32
0.0000000000
13
0.8055344094
23
-0.0009527726
33
0.0000000000
40
0.0000000000
40
0.0000000000
40
0.0000000000
40
0.0000000000
40
0.0077912118
40
0.0215936197
40
0.0421903447
40
0.0696660356
40
0.1039114029
40
0.1447195327
40
0.1918146647
40
0.2448643259
40
0.3034862371
40
0.3672533602
40
0.4356982739
40
0.5083173545
40
0.5845749592
40
0.6639076977
40
0.7457288209
40
0.8294327281
40
0.9143995806
40
1.0000000000
40
1.0000000000
40
1.0000000000
40
1.0000000000
10
-11.0114491951
20
-20.3211976496
30
0.0000000000
10
-11.0109297409
20
-20.3232241643
30
0.0000000000
10
-11.0059047676
20
-20.3272604085
30
0.0000000000
10
-10.9956102487
20
-20.3313160910
30
0.0000000000
10
-10.9794414411
20
-20.3357857000
30
0.0000000000
10
-10.9578032740
20
-20.3400666356
30
0.0000000000
10
-10.9305783358
20
-20.3443234057
30
0.0000000000
10
-10.8980396259
20
-20.3484141348
30
0.0000000000
10
-10.8603908297
20
-20.3523306175
30
0.0000000000
10
-10.8179197474
20
-20.3560265413
30
0.0000000000
10
-10.7709373471
20
-20.3594743668
30
0.0000000000
10
-10.7197935232
20
-20.3626449281
30
0.0000000000
10
-10.6648680555
20
-20.3655134125
30
0.0000000000
10
-10.6065695157
20
-20.3680572831
30
0.0000000000
10
-10.5453315619
20
-20.3702568782
30
0.0000000000
10
-10.4816098377
20
-20.3720952768
30
0.0000000000
10
-10.4158785067
20
-20.3735584138
30
0.0000000000
10
-10.3486267097
20
-20.3746351306
30
0.0000000000
10
-10.2803549589
20
-20.3753172368
30
0.0000000000
10
-10.2345557334
20
-20.3755052168
30
0.0000000000
10
-10.2115710390
20
-20.3755324027
30
0.0000000000
11
-11.0114491951
21
-20.3211976496
31
0.0000000000
11
-11.0072718583
21
-20.3258815805
31
0.0000000000
11
-10.9971721925
21
-20.3305306493
31
0.0000000000
11
-10.9812253686
21
-20.3351102534
31
0.0000000000
11
-10.9595500774
21
-20.3395863073
31
0.0000000000
11
-10.9323076461
21
-20.3439254960
31
0.0000000000
11
-10.8997008376
21
-20.3480955235
31
0.0000000000
11
-10.8619723414
21
-20.3520653525
31
0.0000000000
11
-10.8194029674
21
-20.3558054361
31
0.0000000000
11
-10.7723095555
21
-20.3592879370
31
0.0000000000
11
-10.7210426177
21
-20.3624869353
31
0.0000000000
11
-10.6659837292
21
-20.3653786213
31
0.0000000000
11
-10.6075426882
21
-20.3679414723
31
0.0000000000
11
-10.5461544662
21
-20.3701564132
31
0.0000000000
11
-10.4822759702
21
-20.3720069586
31
0.0000000000
11
-10.4163826418
21
-20.3734793348
31
0.0000000000
11
-10.3489649193
21
-20.3745625832
31
0.0000000000
11
-10.2805245867
21
-20.3752486413
31
0.0000000000
11
-10.2115710390
21
-20.3755324027
31
0.0000000000
0
SPLINE
5
256
100
AcDbEntity
8
0
100
AcDbSpline
62
9
6
CONTINUOUS
70
0
71
3
72
25
73
21
74
19
42
0.0000001000
43
0.0000001000
44
0.0000000001
12
0.2000155516
22
0.7803078693
32
0.0000000000
13
0.8055344089
23
0.0009527725
33
0.0000000000
40
0.0000000000
40
0.0000000000
40
0.0000000000
40
0.0000000000
40
0.0077912125
40
0.0215936212
40
0.0421903468
40
0.0696660384
40
0.1039114061
40
0.1447195364
40
0.1918146686
40
0.2448643298
40
0.3034862411
40
0.3672533640
40
0.4356982775
40
0.5083173578
40
0.5845749620
40
0.6639077001
40
0.7457288228
40
0.8294327294
40
0.9143995812
40
1.0000000000
40
1.0000000000
40
1.0000000000
40
1.0000000000
10
-11.0114491951
20
20.3211976496
30
0.0000000000
10
-11.0109297405
20
20.3232241644
30
0.0000000000
10
-11.0059047667
20
20.3272604083
30
0.0000000000
10
-10.9956102472
20
20.3313160910
30
0.0000000000
10
-10.9794414390
20
20.3357856998
30
0.0000000000
10
-10.9578032714
20
20.3400666353
30
0.0000000000
10
-10.9305783328
20
20.3443234054
30
0.0000000000
10
-10.8980396226
20
20.3484141345
30
0.0000000000
10
-10.8603908262
20
20.3523306171
30
0.0000000000
10
-10.8179197439
20
20.3560265409
30
0.0000000000
10
-10.7709373436
20
20.3594743663
30
0.0000000000
10
-10.7197935198
20
20.3626449276
30
0.0000000000
10
-10.6648680524
20
20.3655134119
30
0.0000000000
10
-10.6065695129
20
20.3680572824
30
0.0000000000
10
-10.5453315594
20
20.3702568776
30
0.0000000000
10
-10.4816098356
20
20.3720952761
30
0.0000000000
10
-10.4158785051
20
20.3735584131
30
0.0000000000
10
-10.3486267086
20
20.3746351298
30
0.0000000000
10
-10.2803549583
20
20.3753172359
30
0.0000000000
10
-10.2345557332
20
20.3755052159
30
0.0000000000
10
-10.2115710390
20
20.3755324018
30
0.0000000000
11
-11.0114491951
21
20.3211976496
31
0.0000000000
11
-11.0072718575
21
20.3258815804
31
0.0000000000
11
-10.9971721910
21
20.3305306492
31
0.0000000000
11
-10.9812253665
21
20.3351102533
31
0.0000000000
11
-10.9595500748
21
20.3395863071
31
0.0000000000
11
-10.9323076430
21
20.3439254958
31
0.0000000000
11
-10.8997008343
21
20.3480955232
31
0.0000000000
11
-10.8619723379
21
20.3520653522
31
0.0000000000
11
-10.8194029639
21
20.3558054356
31
0.0000000000
11
-10.7723095520
21
20.3592879365
31
0.0000000000
11
-10.7210426143
21
20.3624869348
31
0.0000000000
11
-10.6659837260
21
20.3653786207
31
0.0000000000
11
-10.6075426854
21
20.3679414716
31
0.0000000000
11
-10.5461544637
21
20.3701564125
31
0.0000000000
11
-10.4822759681
21
20.3720069578
31
0.0000000000
11
-10.4163826402
21
20.3734793340
31
0.0000000000
11
-10.3489649182
21
20.3745625824
31
0.0000000000
11
-10.2805245861
21
20.3752486404
31
0.0000000000
11
-10.2115710390
21
20.3755324018
31
0.0000000000
0
SPLINE
5
257
100
AcDbEntity
8
0
100
AcDbSpline
62
9
6
CONTINUOUS
70
0
71
3
72
25
73
21
74
19
42
0.0000001000
43
0.0000001000
44
0.0000000001
12
0.0003825380
22
1.2559255494
32
0.0000000000
13
1.2559255494
23
0.0003825380
33
0.0000000000
40
0.0000000000
40
0.0000000000
40
0.0000000000
40
0.0000000000
40
0.0555509020
40
0.1111032559
40
0.1666569950
40
0.2222120107
40
0.2777681556
40
0.3333252480
40
0.3888830773
40
0.4444414107
40
0.5000000000
40
0.5555585893
40
0.6111169227
40
0.6666747520
40
0.7222318444
40
0.7777879893
40
0.8333430050
40
0.8888967441
40
0.9444490980
40
1.0000000000
40
1.0000000000
40
1.0000000000
40
1.0000000000
10
-11.0234262834
20
20.9735481273
30
0.0000000000
10
-11.0234192000
20
20.9968040596
30
0.0000000000
10
-11.0213739710
20
21.0433414421
30
0.0000000000
10
-11.0122365982
20
21.1125951051
30
0.0000000000
10
-10.9970991684
20
21.1807964151
30
0.0000000000
10
-10.9760768500
20
21.2474195599
30
0.0000000000
10
-10.9493295774
20
21.3119595659
30
0.0000000000
10
-10.9170608375
20
21.3739249415
30
0.0000000000
10
-10.8795161207
20
21.4328444171
30
0.0000000000
10
-10.8369810533
20
21.4882697248
30
0.0000000000
10
-10.7897792246
20
21.5397792246
30
0.0000000000
10
-10.7382697248
20
21.5869810533
30
0.0000000000
10
-10.6828444171
20
21.6295161207
30
0.0000000000
10
-10.6239249415
20
21.6670608375
30
0.0000000000
10
-10.5619595659
20
21.6993295774
30
0.0000000000
10
-10.4974195599
20
21.7260768500
30
0.0000000000
10
-10.4307964151
20
21.7470991684
30
0.0000000000
10
-10.3625951051
20
21.7622365982
30
0.0000000000
10
-10.2933414421
20
21.7713739710
30
0.0000000000
10
-10.2468040596
20
21.7734192000
30
0.0000000000
10
-10.2235481273
20
21.7734262834
30
0.0000000000
11
-11.0234262834
21
20.9735481273
31
0.0000000000
11
-11.0203624552
21
21.0432486217
31
0.0000000000
11
-11.0112367390
21
21.1124188588
31
0.0000000000
11
-10.9961185599
21
21.1805326154
31
0.0000000000
11
-10.9751229319
21
21.2470717055
31
0.0000000000
11
-10.9484095825
21
21.3115299228
31
0.0000000000
11
-10.9161817376
21
21.3734168913
31
0.0000000000
11
-10.8786845754
21
21.4322617964
31
0.0000000000
11
-10.8362033615
21
21.4876169664
31
0.0000000000
11
-10.7890612783
21
21.5390612783
31
0.0000000000
11
-10.7376169664
21
21.5862033615
31
0.0000000000
11
-10.6822617964
21
21.6286845754
31
0.0000000000
11
-10.6234168913
21
21.6661817376
31
0.0000000000
11
-10.5615299228
21
21.6984095825
31
0.0000000000
11
-10.4970717055
21
21.7251229319
31
0.0000000000
11
-10.4305326154
21
21.7461185599
31
0.0000000000
11
-10.3624188588
21
21.7612367390
31
0.0000000000
11
-10.2932486217
21
21.7703624552
31
0.0000000000
11
-10.2235481273
21
21.7734262834
31
0.0000000000
0
SPLINE
5
258
100
AcDbEntity
8
0
100
AcDbSpline
62
9
6
CONTINUOUS
70
0
71
3
72
28
73
24
74
22
42
0.0000001000
43
0.0000001000
44
0.0000000001
12
-0.0007756460
22
0.6527122468
32
0.0000000000
13
-0.4614703312
23
0.4616048226
33
0.0000000000
40
0.0000000000
40
0.0000000000
40
0.0000000000
40
0.0000000000
40
0.0754258857
40
0.1501200790
40
0.2237001797
40
0.2957978137
40
0.3660525974
40
0.4341136131
40
0.4996404191
40
0.5623055280
40
0.6217956789
40
0.6778137076
40
0.7300795900
40
0.7783323500
40
0.8223309806
40
0.8618561130
40
0.8967108183
40
0.9267219729
40
0.9517412794
40
0.9716470533
40
0.9863465458
40
0.9957844110
40
1.0000000000
40
1.0000000000
40
1.0000000000
40
1.0000000000
10
-11.0114491951
20
20.3211976496
30
0.0000000000
10
-11.0114686964
20
20.3376081161
30
0.0000000000
10
-11.0115276666
20
20.3702698339
30
0.0000000000
10
-11.0116766667
20
20.4189402683
30
0.0000000000
10
-11.0118851709
20
20.4668863480
30
0.0000000000
10
-11.0121521157
20
20.5138662370
30
0.0000000000
10
-11.0124761409
20
20.5596449467
30
0.0000000000
10
-11.0128555941
20
20.6039935602
30
0.0000000000
10
-11.0132885347
20
20.6466903119
30
0.0000000000
10
-11.0137727405
20
20.6875216188
30
0.0000000000
10
-11.0143057101
20
20.7262833058
30
0.0000000000
10
-11.0148846856
20
20.7627814913
30
0.0000000000
10
-11.0155065888
20
20.7968336996
30
0.0000000000
10
-11.0161682379
20
20.8282694575
30
0.0000000000
10
-11.0168655958
20
20.8569320355
30
0.0000000000
10
-11.0175961144
20
20.8826766418
30
0.0000000000
10
-11.0183510811
20
20.9053791938
30
0.0000000000
10
-11.0191386879
20
20.9249123880
30
0.0000000000
10
-11.0199144496
20
20.9412193624
30
0.0000000000
10
-11.0207752051
20
20.9541086304
30
0.0000000000
10
-11.0214412144
20
20.9637987078
30
0.0000000000
10
-11.0224567558
20
20.9696526489
30
0.0000000000
10
-11.0227778270
20
20.9728994819
30
0.0000000000
10
-11.0234262834
20
20.9735481273
30
0.0000000000
11
-11.0114491951
21
20.3211976496
31
0.0000000000
11
-11.0115383093
21
20.3704290031
31
0.0000000000
11
-11.0116879474
21
20.4191826225
31
0.0000000000
11
-11.0118973547
21
20.4672088328
31
0.0000000000
11
-11.0121654838
21
20.5142671108
31
0.0000000000
11
-11.0124909937
21
20.5601221456
31
0.0000000000
11
-11.0128722586
21
20.6045447993
31
0.0000000000
11
-11.0133073711
21
20.6473127650
31
0.0000000000
11
-11.0137941560
21
20.6882121811
31
0.0000000000
11
-11.0143301788
21
20.7270384587
31
0.0000000000
11
-11.0149127603
21
20.7635974964
31
0.0000000000
11
-11.0155389863
21
20.7977063538
31
0.0000000000
11
-11.0162057261
21
20.8291944854
31
0.0000000000
11
-11.0169096441
21
20.8579043226
31
0.0000000000
11
-11.0176472218
21
20.8836923330
31
0.0000000000
11
-11.0184147699
21
20.9064294905
31
0.0000000000
11
-11.0192084502
21
20.9260020670
31
0.0000000000
11
-11.0200242905
21
20.9423120945
31
0.0000000000
11
-11.0208582134
21
20.9552780563
31
0.0000000000
11
-11.0217060486
21
20.9648350684
31
0.0000000000
11
-11.0225635492
21
20.9709353090
31
0.0000000000
11
-11.0234262834
21
20.9735481273
31
0.0000000000
0
SPLINE
5
259
100
AcDbEntity
8
0
100
AcDbSpline
62
9
6
CONTINUOUS
70
0
71
3
72
28
73
24
74
22
42
0.0000001000
43
0.0000001000
44
0.0000000001
12
-0.0007751169
22
1.3980641876
32
0.0000000000
13
-0.5910541296
23
1.2669803035
33
0.0000000000
40
0.0000000000
40
0.0000000000
40
0.0000000000
40
0.0000000000
40
0.0754674358
40
0.1501925268
40
0.2238027434
40
0.2959294803
40
0.3662121112
40
0.4342994783
40
0.4998508945
40
0.5625386204
40
0.6220491347
40
0.6780850136
40
0.7303659306
40
0.7786305619
40
0.8226374917
40
0.8621668452
40
0.8970210272
40
0.9270259685
40
0.9520319052
40
0.9719145871
40
0.9865760410
40
0.9959468575
40
1.0000000000
40
1.0000000000
40
1.0000000000
40
1.0000000000
10
-10.2115710390
20
20.3755324027
30
0.0000000000
10
-10.2115905377
20
20.4107018425
30
0.0000000000
10
-10.2116495247
20
20.4806947640
30
0.0000000000
10
-10.2117985214
20
20.5849915463
30
0.0000000000
10
-10.2120070375
20
20.6877313867
30
0.0000000000
10
-10.2122739770
20
20.7884008032
30
0.0000000000
10
-10.2125980034
20
20.8864962727
30
0.0000000000
10
-10.2129774521
20
20.9815272799
30
0.0000000000
10
-10.2134103876
20
21.0730186326
30
0.0000000000
10
-10.2138945865
20
21.1605126730
30
0.0000000000
10
-10.2144275449
20
21.2435719026
30
0.0000000000
10
-10.2150065160
20
21.3217808973
30
0.0000000000
10
-10.2156283821
20
21.3947485912
30
0.0000000000
10
-10.2162900922
20
21.4621098560
30
0.0000000000
10
-10.2169871773
20
21.5235281962
30
0.0000000000
10
-10.2177184689
20
21.5786952189
30
0.0000000000
10
-10.2184709251
20
21.6273387799
30
0.0000000000
10
-10.2192658329
20
21.6692042982
30
0.0000000000
10
-10.2200205750
20
21.7041153774
30
0.0000000000
10
-10.2209363489
20
21.7318078568
30
0.0000000000
10
-10.2214708732
20
21.7523711872
30
0.0000000000
10
-10.2227312025
20
21.7652219505
30
0.0000000000
10
-10.2227495851
20
21.7717145328
30
0.0000000000
10
-10.2235481273
20
21.7734262834
30
0.0000000000
11
-10.2115710390
21
20.3755324027
31
0.0000000000
11
-10.2116601688
21
20.4810407006
31
0.0000000000
11
-10.2118098062
21
20.5855110831
31
0.0000000000
11
-10.2120192192
21
20.6884226935
31
0.0000000000
11
-10.2122873473
21
20.7892601604
31
0.0000000000
11
-10.2126128569
21
20.8875192655
31
0.0000000000
11
-10.2129941188
21
20.9827090263
31
0.0000000000
11
-10.2134292270
21
21.0743530948
31
0.0000000000
11
-10.2139160059
21
21.1619932211
31
0.0000000000
11
-10.2144520212
21
21.2451910261
31
0.0000000000
11
-10.2150345941
21
21.3235306274
31
0.0000000000
11
-10.2156608102
21
21.3966200338
31
0.0000000000
11
-10.2163275393
21
21.4640938028
31
0.0000000000
11
-10.2170314458
21
21.5256142980
31
0.0000000000
11
-10.2177690113
21
21.5808739579
31
0.0000000000
11
-10.2185365470
21
21.6295963038
31
0.0000000000
11
-10.2193302139
21
21.6715376354
31
0.0000000000
11
-10.2201460431
21
21.7064880250
31
0.0000000000
11
-10.2209799481
21
21.7342727835
31
0.0000000000
11
-10.2218277845
21
21.7547528985
31
0.0000000000
11
-10.2226852433
21
21.7678258131
31
0.0000000000
11
-10.2235481273
21
21.7734262834
31
0.0000000000
0
SPLINE
5
25A
100
AcDbEntity
8
0
100
AcDbSpline
62
7
6
CONTINUOUS
70
0
71
3
72
21
73
17
74
15
42
0.0000001000
43
0.0000001000
44
0.0000000001
12
0.3140184166
22
0.0000000000
32
0.0000000000
13
0.0000000000
23
-0.3140184166
33
0.0000000000
40
0.0000000000
40
0.0000000000
40
0.0000000000
40
0.0000000000
40
0.0712039527
40
0.1427994015
40
0.2142674331
40
0.2854485174
40
0.3570466667
40
0.4287425335
40
0.5000646282
40
0.5713802304
40
0.6430630890
40
0.7146537371
40
0.7858238858
40
0.8572585822
40
0.9288219823
40
1.0000000000
40
1.0000000000
40
1.0000000000
40
1.0000000000
10
10.8999695344
20
-0.1500000000
30
0.0000000000
10
10.9074226519
20
-0.1500000000
30
0.0000000000
10
10.9223832918
20
-0.1508370028
30
0.0000000000
10
10.9445397557
20
-0.1545959914
30
0.0000000000
10
10.9661355556
20
-0.1608146447
30
0.0000000000
10
10.9868999425
20
-0.1694081892
30
0.0000000000
10
11.0065941474
20
-0.1802829295
30
0.0000000000
10
11.0249547161
20
-0.1933090954
30
0.0000000000
10
11.0417170573
20
-0.2082909906
30
0.0000000000
10
11.0566985526
20
-0.2250518537
30
0.0000000000
10
11.0697237098
20
-0.2434096605
30
0.0000000000
10
11.0805974162
20
-0.2631006842
30
0.0000000000
10
11.0891891075
20
-0.2838599806
30
0.0000000000
10
11.0954056509
20
-0.3054480471
30
0.0000000000
10
11.0991632575
20
-0.3275950292
30
0.0000000000
10
11.1000000000
20
-0.3425495972
30
0.0000000000
10
11.1000000000
20
-0.3500000000
30
0.0000000000
11
10.8999695344
21
-0.1500000000
31
0.0000000000
11
10.9222939484
21
-0.1512494721
31
0.0000000000
11
10.9444595631
21
-0.1550096407
31
0.0000000000
11
10.9660254852
21
-0.1612198623
31
0.0000000000
11
10.9866787980
21
-0.1697673902
31
0.0000000000
11
11.0063607104
21
-0.1806354072
31
0.0000000000
11
11.0247227390
21
-0.1936626138
31
0.0000000000
11
11.0414214038
21
-0.2085876137
31
0.0000000000
11
11.0563455237
21
-0.2252843307
31
0.0000000000
11
11.0693709653
21
-0.2436426031
31
0.0000000000
11
11.0802383646
21
-0.2633221658
31
0.0000000000
11
11.0887847673
21
-0.2839722279
31
0.0000000000
11
11.0949921784
21
-0.3055280661
31
0.0000000000
11
11.0987508696
21
-0.3276837236
31
0.0000000000
11
11.1000000000
21
-0.3500000000
31
0.0000000000
0
SPLINE
5
25B
100
AcDbEntity
8
0
100
AcDbSpline
62
7
6
CONTINUOUS
70
0
71
3
72
21
73
17
74
15
42
0.0000001000
43
0.0000001000
44
0.0000000001
12
0.0000000000
22
0.3140184166
32
0.0000000000
13
0.3140184166
23
0.0000000000
33
0.0000000000
40
0.0000000000
40
0.0000000000
40
0.0000000000
40
0.0000000000
40
0.0711780177
40
0.1427414178
40
0.2141761142
40
0.2853462629
40
0.3569369110
40
0.4286197696
40
0.4999353718
40
0.5712574665
40
0.6429533333
40
0.7145514826
40
0.7857325669
40
0.8572005985
40
0.9287960473
40
1.0000000000
40
1.0000000000
40
1.0000000000
40
1.0000000000
10
-11.1000000000
20
-0.3500000000
30
0.0000000000
10
-11.1000000000
20
-0.3425495972
30
0.0000000000
10
-11.0991632575
20
-0.3275950292
30
0.0000000000
10
-11.0954056509
20
-0.3054480471
30
0.0000000000
10
-11.0891891075
20
-0.2838599806
30
0.0000000000
10
-11.0805974162
20
-0.2631006842
30
0.0000000000
10
-11.0697237098
20
-0.2434096605
30
0.0000000000
10
-11.0566985526
20
-0.2250518537
30
0.0000000000
10
-11.0417170573
20
-0.2082909906
30
0.0000000000
10
-11.0249547161
20
-0.1933090954
30
0.0000000000
10
-11.0065941474
20
-0.1802829295
30
0.0000000000
10
-10.9868999425
20
-0.1694081892
30
0.0000000000
10
-10.9661355556
20
-0.1608146447
30
0.0000000000
10
-10.9445397557
20
-0.1545959914
30
0.0000000000
10
-10.9223832918
20
-0.1508370028
30
0.0000000000
10
-10.9074226519
20
-0.1500000000
30
0.0000000000
10
-10.8999695344
20
-0.1500000000
30
0.0000000000
11
-11.1000000000
21
-0.3500000000
31
0.0000000000
11
-11.0987508696
21
-0.3276837236
31
0.0000000000
11
-11.0949921784
21
-0.3055280661
31
0.0000000000
11
-11.0887847673
21
-0.2839722279
31
0.0000000000
11
-11.0802383646
21
-0.2633221658
31
0.0000000000
11
-11.0693709653
21
-0.2436426031
31
0.0000000000
11
-11.0563455237
21
-0.2252843307
31
0.0000000000
11
-11.0414214038
21
-0.2085876137
31
0.0000000000
11
-11.0247227391
21
-0.1936626138
31
0.0000000000
11
-11.0063607104
21
-0.1806354072
31
0.0000000000
11
-10.9866787980
21
-0.1697673902
31
0.0000000000
11
-10.9660254852
21
-0.1612198623
31
0.0000000000
11
-10.9444595631
21
-0.1550096407
31
0.0000000000
11
-10.9222939484
21
-0.1512494721
31
0.0000000000
11
-10.8999695344
21
-0.1500000000
31
0.0000000000
0
SPLINE
5
25C
100
AcDbEntity
8
0
100
AcDbSpline
62
7
6
CONTINUOUS
70
0
71
3
72
21
73
17
74
15
42
0.0000001000
43
0.0000001000
44
0.0000000001
12
-0.3140184166
22
0.0000000000
32
0.0000000000
13
0.0000000000
23
0.3140184166
33
0.0000000000
40
0.0000000000
40
0.0000000000
40
0.0000000000
40
0.0000000000
40
0.0712039527
40
0.1427994015
40
0.2142674331
40
0.2854485174
40
0.3570466667
40
0.4287425335
40
0.5000646282
40
0.5713802304
40
0.6430630890
40
0.7146537371
40
0.7858238858
40
0.8572585822
40
0.9288219823
40
1.0000000000
40
1.0000000000
40
1.0000000000
40
1.0000000000
10
-10.8999695344
20
0.1500000000
30
0.0000000000
10
-10.9074226519
20
0.1500000000
30
0.0000000000
10
-10.9223832918
20
0.1508370028
30
0.0000000000
10
-10.9445397557
20
0.1545959914
30
0.0000000000
10
-10.9661355556
20
0.1608146447
30
0.0000000000
10
-10.9868999425
20
0.1694081892
30
0.0000000000
10
-11.0065941474
20
0.1802829295
30
0.0000000000
10
-11.0249547161
20
0.1933090954
30
0.0000000000
10
-11.0417170573
20
0.2082909906
30
0.0000000000
10
-11.0566985526
20
0.2250518537
30
0.0000000000
10
-11.0697237098
20
0.2434096605
30
0.0000000000
10
-11.0805974162
20
0.2631006842
30
0.0000000000
10
-11.0891891075
20
0.2838599806
30
0.0000000000
10
-11.0954056509
20
0.3054480471
30
0.0000000000
10
-11.0991632575
20
0.3275950292
30
0.0000000000
10
-11.1000000000
20
0.3425495972
30
0.0000000000
10
-11.1000000000
20
0.3500000000
30
0.0000000000
11
-10.8999695344
21
0.1500000000
31
0.0000000000
11
-10.9222939484
21
0.1512494721
31
0.0000000000
11
-10.9444595631
21
0.1550096407
31
0.0000000000
11
-10.9660254852
21
0.1612198623
31
0.0000000000
11
-10.9866787980
21
0.1697673902
31
0.0000000000
11
-11.0063607104
21
0.1806354072
31
0.0000000000
11
-11.0247227391
21
0.1936626138
31
0.0000000000
11
-11.0414214038
21
0.2085876137
31
0.0000000000
11
-11.0563455237
21
0.2252843307
31
0.0000000000
11
-11.0693709653
21
0.2436426031
31
0.0000000000
11
-11.0802383646
21
0.2633221658
31
0.0000000000
11
-11.0887847673
21
0.2839722279
31
0.0000000000
11
-11.0949921784
21
0.3055280661
31
0.0000000000
11
-11.0987508696
21
0.3276837236
31
0.0000000000
11
-11.1000000000
21
0.3500000000
31
0.0000000000
0
SPLINE
5
25D
100
AcDbEntity
8
0
100
AcDbSpline
62
7
6
CONTINUOUS
70
0
71
3
72
21
73
17
74
15
42
0.0000001000
43
0.0000001000
44
0.0000000001
12
0.0000000000
22
-0.3140184166
32
0.0000000000
13
-0.3140184166
23
0.0000000000
33
0.0000000000
40
0.0000000000
40
0.0000000000
40
0.0000000000
40
0.0000000000
40
0.0711780177
40
0.1427414178
40
0.2141761142
40
0.2853462629
40
0.3569369110
40
0.4286197696
40
0.4999353718
40
0.5712574665
40
0.6429533333
40
0.7145514826
40
0.7857325669
40
0.8572005985
40
0.9287960473
40
1.0000000000
40
1.0000000000
40
1.0000000000
40
1.0000000000
10
11.1000000000
20
0.3500000000
30
0.0000000000
10
11.1000000000
20
0.3425495972
30
0.0000000000
10
11.0991632575
20
0.3275950292
30
0.0000000000
10
11.0954056509
20
0.3054480471
30
0.0000000000
10
11.0891891075
20
0.2838599806
30
0.0000000000
10
11.0805974162
20
0.2631006842
30
0.0000000000
10
11.0697237098
20
0.2434096605
30
0.0000000000
10
11.0566985526
20
0.2250518537
30
0.0000000000
10
11.0417170573
20
0.2082909906
30
0.0000000000
10
11.0249547161
20
0.1933090954
30
0.0000000000
10
11.0065941474
20
0.1802829295
30
0.0000000000
10
10.9868999425
20
0.1694081892
30
0.0000000000
10
10.9661355556
20
0.1608146447
30
0.0000000000
10
10.9445397557
20
0.1545959914
30
0.0000000000
10
10.9223832918
20
0.1508370028
30
0.0000000000
10
10.9074226519
20
0.1500000000
30
0.0000000000
10
10.8999695344
20
0.1500000000
30
0.0000000000
11
11.1000000000
21
0.3500000000
31
0.0000000000
11
11.0987508696
21
0.3276837236
31
0.0000000000
11
11.0949921784
21
0.3055280661
31
0.0000000000
11
11.0887847673
21
0.2839722279
31
0.0000000000
11
11.0802383646
21
0.2633221658
31
0.0000000000
11
11.0693709653
21
0.2436426031
31
0.0000000000
11
11.0563455237
21
0.2252843307
31
0.0000000000
11
11.0414214038
21
0.2085876137
31
0.0000000000
11
11.0247227390
21
0.1936626138
31
0.0000000000
11
11.0063607104
21
0.1806354072
31
0.0000000000
11
10.9866787980
21
0.1697673902
31
0.0000000000
11
10.9660254852
21
0.1612198623
31
0.0000000000
11
10.9444595631
21
0.1550096407
31
0.0000000000
11
10.9222939484
21
0.1512494721
31
0.0000000000
11
10.8999695344
21
0.1500000000
31
0.0000000000
0
SPLINE
5
25E
100
AcDbEntity
8
0
100
AcDbSpline
62
7
6
CONTINUOUS
70
0
71
3
72
26
73
22
74
20
42
0.0000001000
43
0.0000001000
44
0.0000000001
12
1.2561051181
22
0.0000000000
32
0.0000000000
13
0.0000000000
23
-1.2561051181
33
0.0000000000
40
0.0000000000
40
0.0000000000
40
0.0000000000
40
0.0000000000
40
0.0525450404
40
0.1052647597
40
0.1579586631
40
0.2104744299
40
0.2630868223
40
0.3158235528
40
0.3684983813
40
0.4209907473
40
0.4736342401
40
0.5263700634
40
0.5790145015
40
0.6315068362
40
0.6841805350
40
0.7369174459
40
0.7895308007
40
0.8420462340
40
0.8947380829
40
0.9474566023
40
1.0000000000
40
1.0000000000
40
1.0000000000
40
1.0000000000
10
10.3001218439
20
21.8500000000
30
0.0000000000
10
10.3221225419
20
21.8500000000
30
0.0000000000
10
10.3662186795
20
21.8481800866
30
0.0000000000
10
10.4319205218
20
21.8399963544
30
0.0000000000
10
10.4967132773
20
21.8264102699
30
0.0000000000
10
10.5601187815
20
21.8075361865
30
0.0000000000
10
10.6217690701
20
21.7834905116
30
0.0000000000
10
10.6812811991
20
21.7544022333
30
0.0000000000
10
10.7381404160
20
21.7205175862
30
0.0000000000
10
10.7919774323
20
21.6820798478
30
0.0000000000
10
10.8424800691
20
21.6393151229
30
0.0000000000
10
10.8893190712
20
21.5924758039
30
0.0000000000
10
10.9320836666
20
21.5419725514
30
0.0000000000
10
10.9705209095
20
21.4881352924
30
0.0000000000
10
11.0044049284
20
21.4312761839
30
0.0000000000
10
11.0334928187
20
21.3717638585
30
0.0000000000
10
11.0575381577
20
21.3101130715
30
0.0000000000
10
11.0764115657
20
21.2467079906
30
0.0000000000
10
11.0899969462
20
21.1819166309
30
0.0000000000
10
11.0981801928
20
21.1162167994
30
0.0000000000
10
11.1000000000
20
21.0721218541
30
0.0000000000
10
11.1000000000
20
21.0501218439
30
0.0000000000
11
10.3001218439
21
21.8500000000
31
0.0000000000
11
10.3660677715
21
21.8472776733
31
0.0000000000
11
10.4317815205
21
21.8390928409
31
0.0000000000
11
10.4965617425
21
21.8255091237
31
0.0000000000
11
10.5597854235
21
21.8066891858
31
0.0000000000
11
10.6213546658
21
21.7826750291
31
0.0000000000
11
10.6808687944
21
21.7535857314
31
0.0000000000
11
10.7377064738
21
21.7197138916
31
0.0000000000
11
10.7913688770
21
21.6814007960
31
0.0000000000
11
10.8418327262
21
21.6386688856
31
0.0000000000
11
10.8886725496
21
21.5918287454
31
0.0000000000
11
10.9314048483
21
21.5413636692
31
0.0000000000
11
10.9697174797
21
21.4877009828
31
0.0000000000
11
11.0035881774
21
21.4308642748
31
0.0000000000
11
11.0326771838
21
21.3713497514
31
0.0000000000
11
11.0566913202
21
21.3097792038
31
0.0000000000
11
11.0755106353
21
21.2465557745
31
0.0000000000
11
11.0890934289
21
21.1817779956
31
0.0000000000
11
11.0972778435
21
21.1160657134
31
0.0000000000
11
11.1000000000
21
21.0501218439
31
0.0000000000
0
SPLINE
5
25F
100
AcDbEntity
8
0
100
AcDbSpline
62
7
6
CONTINUOUS
70
0
71
3
72
26
73
22
74
20
42
0.0000001000
43
0.0000001000
44
0.0000000001
12
0.0000000000
22
-1.2561051181
32
0.0000000000
13
-1.2561051181
23
0.0000000000
33
0.0000000000
40
0.0000000000
40
0.0000000000
40
0.0000000000
40
0.0000000000
40
0.0525433977
40
0.1052619171
40
0.1579537660
40
0.2104691993
40
0.2630825541
40
0.3158194650
40
0.3684931638
40
0.4209854985
40
0.4736299366
40
0.5263657599
40
0.5790092527
40
0.6315016187
40
0.6841764472
40
0.7369131777
40
0.7895255701
40
0.8420413369
40
0.8947352403
40
0.9474549596
40
1.0000000000
40
1.0000000000
40
1.0000000000
40
1.0000000000
10
11.1000000000
20
-21.0501218439
30
0.0000000000
10
11.1000000000
20
-21.0721218541
30
0.0000000000
10
11.0981801928
20
-21.1162167994
30
0.0000000000
10
11.0899969462
20
-21.1819166309
30
0.0000000000
10
11.0764115657
20
-21.2467079906
30
0.0000000000
10
11.0575381577
20
-21.3101130715
30
0.0000000000
10
11.0334928187
20
-21.3717638585
30
0.0000000000
10
11.0044049284
20
-21.4312761839
30
0.0000000000
10
10.9705209095
20
-21.4881352924
30
0.0000000000
10
10.9320836666
20
-21.5419725514
30
0.0000000000
10
10.8893190712
20
-21.5924758039
30
0.0000000000
10
10.8424800691
20
-21.6393151229
30
0.0000000000
10
10.7919774323
20
-21.6820798478
30
0.0000000000
10
10.7381404160
20
-21.7205175862
30
0.0000000000
10
10.6812811991
20
-21.7544022333
30
0.0000000000
10
10.6217690701
20
-21.7834905116
30
0.0000000000
10
10.5601187815
20
-21.8075361865
30
0.0000000000
10
10.4967132773
20
-21.8264102699
30
0.0000000000
10
10.4319205218
20
-21.8399963544
30
0.0000000000
10
10.3662186795
20
-21.8481800866
30
0.0000000000
10
10.3221225419
20
-21.8500000000
30
0.0000000000
10
10.3001218439
20
-21.8500000000
30
0.0000000000
11
11.1000000000
21
-21.0501218439
31
0.0000000000
11
11.0972778435
21
-21.1160657134
31
0.0000000000
11
11.0890934289
21
-21.1817779956
31
0.0000000000
11
11.0755106353
21
-21.2465557745
31
0.0000000000
11
11.0566913202
21
-21.3097792038
31
0.0000000000
11
11.0326771838
21
-21.3713497514
31
0.0000000000
11
11.0035881774
21
-21.4308642748
31
0.0000000000
11
10.9697174797
21
-21.4877009828
31
0.0000000000
11
10.9314048483
21
-21.5413636692
31
0.0000000000
11
10.8886725496
21
-21.5918287454
31
0.0000000000
11
10.8418327262
21
-21.6386688856
31
0.0000000000
11
10.7913688770
21
-21.6814007960
31
0.0000000000
11
10.7377064738
21
-21.7197138916
31
0.0000000000
11
10.6808687944
21
-21.7535857314
31
0.0000000000
11
10.6213546658
21
-21.7826750291
31
0.0000000000
11
10.5597854235
21
-21.8066891858
31
0.0000000000
11
10.4965617425
21
-21.8255091237
31
0.0000000000
11
10.4317815205
21
-21.8390928409
31
0.0000000000
11
10.3660677715
21
-21.8472776733
31
0.0000000000
11
10.3001218439
21
-21.8500000000
31
0.0000000000
0
SPLINE
5
260
100
AcDbEntity
8
0
100
AcDbSpline
62
7
6
CONTINUOUS
70
0
71
3
72
26
73
22
74
20
42
0.0000001000
43
0.0000001000
44
0.0000000001
12
-1.2561051181
22
0.0000000000
32
0.0000000000
13
0.0000000000
23
1.2561051181
33
0.0000000000
40
0.0000000000
40
0.0000000000
40
0.0000000000
40
0.0000000000
40
0.0525450404
40
0.1052647597
40
0.1579586631
40
0.2104744299
40
0.2630868223
40
0.3158235528
40
0.3684983813
40
0.4209907473
40
0.4736342401
40
0.5263700634
40
0.5790145015
40
0.6315068362
40
0.6841805350
40
0.7369174459
40
0.7895308007
40
0.8420462340
40
0.8947380829
40
0.9474566023
40
1.0000000000
40
1.0000000000
40
1.0000000000
40
1.0000000000
10
-10.3001218439
20
-21.8500000000
30
0.0000000000
10
-10.3221225419
20
-21.8500000000
30
0.0000000000
10
-10.3662186795
20
-21.8481800866
30
0.0000000000
10
-10.4319205218
20
-21.8399963544
30
0.0000000000
10
-10.4967132773
20
-21.8264102699
30
0.0000000000
10
-10.5601187815
20
-21.8075361865
30
0.0000000000
10
-10.6217690701
20
-21.7834905116
30
0.0000000000
10
-10.6812811991
20
-21.7544022333
30
0.0000000000
10
-10.7381404160
20
-21.7205175862
30
0.0000000000
10
-10.7919774323
20
-21.6820798478
30
0.0000000000
10
-10.8424800691
20
-21.6393151229
30
0.0000000000
10
-10.8893190712
20
-21.5924758039
30
0.0000000000
10
-10.9320836666
20
-21.5419725514
30
0.0000000000
10
-10.9705209095
20
-21.4881352924
30
0.0000000000
10
-11.0044049284
20
-21.4312761839
30
0.0000000000
10
-11.0334928187
20
-21.3717638585
30
0.0000000000
10
-11.0575381577
20
-21.3101130715
30
0.0000000000
10
-11.0764115657
20
-21.2467079906
30
0.0000000000
10
-11.0899969462
20
-21.1819166309
30
0.0000000000
10
-11.0981801928
20
-21.1162167994
30
0.0000000000
10
-11.1000000000
20
-21.0721218541
30
0.0000000000
10
-11.1000000000
20
-21.0501218439
30
0.0000000000
11
-10.3001218439
21
-21.8500000000
31
0.0000000000
11
-10.3660677715
21
-21.8472776733
31
0.0000000000
11
-10.4317815205
21
-21.8390928409
31
0.0000000000
11
-10.4965617425
21
-21.8255091237
31
0.0000000000
11
-10.5597854235
21
-21.8066891858
31
0.0000000000
11
-10.6213546658
21
-21.7826750291
31
0.0000000000
11
-10.6808687944
21
-21.7535857314
31
0.0000000000
11
-10.7377064738
21
-21.7197138916
31
0.0000000000
11
-10.7913688770
21
-21.6814007960
31
0.0000000000
11
-10.8418327262
21
-21.6386688856
31
0.0000000000
11
-10.8886725496
21
-21.5918287454
31
0.0000000000
11
-10.9314048483
21
-21.5413636692
31
0.0000000000
11
-10.9697174797
21
-21.4877009828
31
0.0000000000
11
-11.0035881774
21
-21.4308642748
31
0.0000000000
11
-11.0326771838
21
-21.3713497514
31
0.0000000000
11
-11.0566913202
21
-21.3097792038
31
0.0000000000
11
-11.0755106353
21
-21.2465557745
31
0.0000000000
11
-11.0890934289
21
-21.1817779956
31
0.0000000000
11
-11.0972778435
21
-21.1160657134
31
0.0000000000
11
-11.1000000000
21
-21.0501218439
31
0.0000000000
0
SPLINE
5
261
100
AcDbEntity
8
0
100
AcDbSpline
62
7
6
CONTINUOUS
70
0
71
3
72
26
73
22
74
20
42
0.0000001000
43
0.0000001000
44
0.0000000001
12
0.0000000000
22
1.2561051181
32
0.0000000000
13
1.2561051181
23
0.0000000000
33
0.0000000000
40
0.0000000000
40
0.0000000000
40
0.0000000000
40
0.0000000000
40
0.0525433977
40
0.1052619171
40
0.1579537660
40
0.2104691993
40
0.2630825541
40
0.3158194650
40
0.3684931638
40
0.4209854985
40
0.4736299366
40
0.5263657599
40
0.5790092527
40
0.6315016187
40
0.6841764472
40
0.7369131777
40
0.7895255701
40
0.8420413369
40
0.8947352403
40
0.9474549596
40
1.0000000000
40
1.0000000000
40
1.0000000000
40
1.0000000000
10
-11.1000000000
20
21.0501218439
30
0.0000000000
10
-11.1000000000
20
21.0721218541
30
0.0000000000
10
-11.0981801928
20
21.1162167994
30
0.0000000000
10
-11.0899969462
20
21.1819166309
30
0.0000000000
10
-11.0764115657
20
21.2467079906
30
0.0000000000
10
-11.0575381577
20
21.3101130715
30
0.0000000000
10
-11.0334928187
20
21.3717638585
30
0.0000000000
10
-11.0044049284
20
21.4312761839
30
0.0000000000
10
-10.9705209095
20
21.4881352924
30
0.0000000000
10
-10.9320836666
20
21.5419725514
30
0.0000000000
10
-10.8893190712
20
21.5924758039
30
0.0000000000
10
-10.8424800691
20
21.6393151229
30
0.0000000000
10
-10.7919774323
20
21.6820798478
30
0.0000000000
10
-10.7381404160
20
21.7205175862
30
0.0000000000
10
-10.6812811991
20
21.7544022333
30
0.0000000000
10
-10.6217690701
20
21.7834905116
30
0.0000000000
10
-10.5601187815
20
21.8075361865
30
0.0000000000
10
-10.4967132773
20
21.8264102699
30
0.0000000000
10
-10.4319205218
20
21.8399963544
30
0.0000000000
10
-10.3662186795
20
21.8481800866
30
0.0000000000
10
-10.3221225419
20
21.8500000000
30
0.0000000000
10
-10.3001218439
20
21.8500000000
30
0.0000000000
11
-11.1000000000
21
21.0501218439
31
0.0000000000
11
-11.0972778435
21
21.1160657134
31
0.0000000000
11
-11.0890934289
21
21.1817779956
31
0.0000000000
11
-11.0755106353
21
21.2465557745
31
0.0000000000
11
-11.0566913202
21
21.3097792038
31
0.0000000000
11
-11.0326771838
21
21.3713497514
31
0.0000000000
11
-11.0035881774
21
21.4308642748
31
0.0000000000
11
-10.9697174797
21
21.4877009828
31
0.0000000000
11
-10.9314048483
21
21.5413636692
31
0.0000000000
11
-10.8886725496
21
21.5918287454
31
0.0000000000
11
-10.8418327262
21
21.6386688856
31
0.0000000000
11
-10.7913688770
21
21.6814007960
31
0.0000000000
11
-10.7377064738
21
21.7197138916
31
0.0000000000
11
-10.6808687944
21
21.7535857314
31
0.0000000000
11
-10.6213546658
21
21.7826750291
31
0.0000000000
11
-10.5597854235
21
21.8066891858
31
0.0000000000
11
-10.4965617425
21
21.8255091237
31
0.0000000000
11
-10.4317815205
21
21.8390928409
31
0.0000000000
11
-10.3660677715
21
21.8472776733
31
0.0000000000
11
-10.3001218439
21
21.8500000000
31
0.0000000000
0
SPLINE
5
262
100
AcDbEntity
8
0
100
AcDbSpline
62
9
6
CONTINUOUS
70
0
71
3
72
26
73
22
74
20
42
0.0000001000
43
0.0000001000
44
0.0000000001
12
-0.7998782513
22
0.0000039891
32
0.0000000000
13
-0.7997659699
23
0.0134018756
33
0.0000000000
40
0.0000000000
40
0.0000000000
40
0.0000000000
40
0.0000000000
40
0.0816788662
40
0.1628077147
40
0.2428510113
40
0.3212715576
40
0.3975457005
40
0.4711648504
40
0.5416363808
40
0.6084897106
40
0.6712780538
40
0.7295824491
40
0.7830129038
40
0.8312129114
40
0.8738603086
40
0.9106702857
40
0.9413965928
40
0.9658344118
40
0.9838204277
40
0.9952342192
40
1.0000000000
40
1.0000000000
40
1.0000000000
40
1.0000000000
10
-10.1995150734
20
-0.3502334883
30
0.0000000000
10
-10.2212927896
20
-0.3502333797
30
0.0000000000
10
-10.2647015730
20
-0.3502326400
30
0.0000000000
10
-10.3294519870
20
-0.3502299953
30
0.0000000000
10
-10.3933336479
20
-0.3502258263
30
0.0000000000
10
-10.4559209175
20
-0.3502201629
30
0.0000000000
10
-10.5167953419
20
-0.3502130431
30
0.0000000000
10
-10.5755503511
20
-0.3502045150
30
0.0000000000
10
-10.6317935255
20
-0.3501946368
30
0.0000000000
10
-10.6851489241
20
-0.3501834755
30
0.0000000000
10
-10.7352602467
20
-0.3501711108
30
0.0000000000
10
-10.7817926803
20
-0.3501576201
30
0.0000000000
10
-10.8244354828
20
-0.3501431295
30
0.0000000000
10
-10.8629037196
20
-0.3501276483
30
0.0000000000
10
-10.8969405061
20
-0.3501116010
30
0.0000000000
10
-10.9263183373
20
-0.3500941922
30
0.0000000000
10
-10.9508410474
20
-0.3500783007
30
0.0000000000
10
-10.9703447192
20
-0.3500566907
30
0.0000000000
10
-10.9846993573
20
-0.3500484512
30
0.0000000000
10
-10.9938085274
20
-0.3500141358
30
0.0000000000
10
-10.9981227050
20
-0.3500212901
30
0.0000000000
10
-10.9993932081
20
-0.3500000000
30
0.0000000000
11
-10.1995150734
21
-0.3502334883
31
0.0000000000
11
-10.2648482221
21
-0.3502323774
31
0.0000000000
11
-10.3297414234
21
-0.3502297177
31
0.0000000000
11
-10.3937663154
21
-0.3502255261
31
0.0000000000
11
-10.4564932046
21
-0.3502198306
31
0.0000000000
11
-10.5175032322
21
-0.3502126686
31
0.0000000000
11
-10.5763895885
21
-0.3502040874
31
0.0000000000
11
-10.6327582321
21
-0.3501941438
31
0.0000000000
11
-10.6862327554
21
-0.3501829036
31
0.0000000000
11
-10.7364557841
21
-0.3501704410
31
0.0000000000
11
-10.7830921998
21
-0.3501568386
31
0.0000000000
11
-10.8258300560
21
-0.3501421866
31
0.0000000000
11
-10.8643841907
21
-0.3501265818
31
0.0000000000
11
-10.8984969122
21
-0.3501101280
31
0.0000000000
11
-10.9279404072
21
-0.3500929344
31
0.0000000000
11
-10.9525177056
21
-0.3500751153
31
0.0000000000
11
-10.9720649769
21
-0.3500567890
31
0.0000000000
11
-10.9864515877
21
-0.3500380778
31
0.0000000000
11
-10.9955812116
21
-0.3500191061
31
0.0000000000
11
-10.9993932081
21
-0.3500000000
31
0.0000000000
0
SPLINE
5
263
100
AcDbEntity
8
0
100
AcDbSpline
62
9
6
CONTINUOUS
70
0
71
3
72
19
73
15
74
13
42
0.0000001000
43
0.0000001000
44
0.0000000001
12
-0.0000000000
22
0.2736984432
32
0.0000000000
13
0.2683146953
23
0.0547845415
33
0.0000000000
40
0.0000000000
40
0.0000000000
40
0.0000000000
40
0.0000000000
40
0.0882408584
40
0.1764813291
40
0.2647210470
40
0.3529596908
40
0.4411970014
40
0.5294327974
40
0.6176669853
40
0.7058995650
40
0.7941306300
40
0.8823603617
40
0.9705890191
40
1.0000000000
40
1.0000000000
40
1.0000000000
40
1.0000000000
10
-10.9993932438
20
-0.3500000000
30
0.0000000000
10
-10.9993932438
20
-0.3419495381
30
0.0000000000
10
-10.9984188787
20
-0.3258317158
30
0.0000000000
10
-10.9940555443
20
-0.3020209672
30
0.0000000000
10
-10.9868540492
20
-0.2789062139
30
0.0000000000
10
-10.9769194036
20
-0.2568291315
30
0.0000000000
10
-10.9643964723
20
-0.2361104161
30
0.0000000000
10
-10.9494678648
20
-0.2170525247
30
0.0000000000
10
-10.9323512632
20
-0.1999332775
30
0.0000000000
10
-10.9132962866
20
-0.1850023386
30
0.0000000000
10
-10.8925807087
20
-0.1724774328
30
0.0000000000
10
-10.8705069404
20
-0.1625412076
30
0.0000000000
10
-10.8525312813
20
-0.1569390868
30
0.0000000000
10
-10.8420532169
20
-0.1545789573
30
0.0000000000
10
-10.8394227508
20
-0.1540418683
30
0.0000000000
11
-10.9993932438
21
-0.3500000000
31
0.0000000000
11
-10.9979352407
21
-0.3258926639
31
0.0000000000
11
-10.9935824924
21
-0.3021368671
31
0.0000000000
11
-10.9863984718
21
-0.2790790226
31
0.0000000000
11
-10.9764879380
21
-0.2570553656
31
0.0000000000
11
-10.9639954090
21
-0.2363870507
31
0.0000000000
11
-10.9491030540
21
-0.2173754684
31
0.0000000000
11
-10.9320280370
21
-0.2002978504
31
0.0000000000
11
-10.9130193503
21
-0.1854032268
31
0.0000000000
11
-10.8923541832
21
-0.1729087949
31
0.0000000000
11
-10.8703338805
21
-0.1629967515
31
0.0000000000
11
-10.8472795478
21
-0.1558116365
31
0.0000000000
11
-10.8394227508
21
-0.1540418683
31
0.0000000000
0
SPLINE
5
264
100
AcDbEntity
8
0
100
AcDbSpline
62
9
6
CONTINUOUS
70
0
71
3
72
9
73
5
74
3
42
0.0000001000
43
0.0000001000
44
0.0000000001
12
0.0394541843
22
0.0080557623
32
0.0000000000
13
0.0402458344
23
0.0000000000
33
0.0000000000
40
0.0000000000
40
0.0000000000
40
0.0000000000
40
0.0000000000
40
0.3999942022
40
1.0000000000
40
1.0000000000
40
1.0000000000
40
1.0000000000
10
-10.8394227508
20
-0.1540418683
30
0.0000000000
10
-10.8341622691
20
-0.1529677822
30
0.0000000000
10
-10.8209023454
20
-0.1508120934
30
0.0000000000
10
-10.8074729494
20
-0.1500000000
30
0.0000000000
10
-10.7994237047
20
-0.1500000000
30
0.0000000000
11
-10.8394227508
21
-0.1540418683
31
0.0000000000
11
-10.8235273691
21
-0.1514582252
31
0.0000000000
11
-10.7994237047
21
-0.1500000000
31
0.0000000000
0
SPLINE
5
265
100
AcDbEntity
8
0
100
AcDbSpline
62
9
6
CONTINUOUS
70
0
71
3
72
26
73
22
74
20
42
0.0000001000
43
0.0000001000
44
0.0000000001
12
-0.7997659699
22
-0.0134018755
32
0.0000000000
13
-0.7998782513
23
-0.0000039891
33
0.0000000000
40
0.0000000000
40
0.0000000000
40
0.0000000000
40
0.0000000000
40
0.0047657808
40
0.0161795723
40
0.0341655882
40
0.0586034072
40
0.0893297143
40
0.1261396914
40
0.1687870886
40
0.2169870962
40
0.2704175509
40
0.3287219462
40
0.3915102894
40
0.4583636192
40
0.5288351496
40
0.6024542995
40
0.6787284423
40
0.7571489887
40
0.8371922853
40
0.9183211337
40
1.0000000000
40
1.0000000000
40
1.0000000000
40
1.0000000000
10
10.9993932081
20
-0.3500000000
30
0.0000000000
10
10.9981227050
20
-0.3500212901
30
0.0000000000
10
10.9938085274
20
-0.3500141358
30
0.0000000000
10
10.9846993573
20
-0.3500484512
30
0.0000000000
10
10.9703447192
20
-0.3500566907
30
0.0000000000
10
10.9508410474
20
-0.3500783007
30
0.0000000000
10
10.9263183373
20
-0.3500941922
30
0.0000000000
10
10.8969405061
20
-0.3501116010
30
0.0000000000
10
10.8629037196
20
-0.3501276483
30
0.0000000000
10
10.8244354828
20
-0.3501431295
30
0.0000000000
10
10.7817926803
20
-0.3501576201
30
0.0000000000
10
10.7352602467
20
-0.3501711108
30
0.0000000000
10
10.6851489241
20
-0.3501834755
30
0.0000000000
10
10.6317935255
20
-0.3501946368
30
0.0000000000
10
10.5755503511
20
-0.3502045150
30
0.0000000000
10
10.5167953419
20
-0.3502130431
30
0.0000000000
10
10.4559209175
20
-0.3502201629
30
0.0000000000
10
10.3933336479
20
-0.3502258263
30
0.0000000000
10
10.3294519870
20
-0.3502299953
30
0.0000000000
10
10.2647015730
20
-0.3502326400
30
0.0000000000
10
10.2212927896
20
-0.3502333797
30
0.0000000000
10
10.1995150734
20
-0.3502334883
30
0.0000000000
11
10.9993932081
21
-0.3500000000
31
0.0000000000
11
10.9955812116
21
-0.3500191061
31
0.0000000000
11
10.9864515877
21
-0.3500380778
31
0.0000000000
11
10.9720649769
21
-0.3500567890
31
0.0000000000
11
10.9525177056
21
-0.3500751153
31
0.0000000000
11
10.9279404072
21
-0.3500929344
31
0.0000000000
11
10.8984969122
21
-0.3501101280
31
0.0000000000
11
10.8643841907
21
-0.3501265818
31
0.0000000000
11
10.8258300560
21
-0.3501421866
31
0.0000000000
11
10.7830921998
21
-0.3501568386
31
0.0000000000
11
10.7364557841
21
-0.3501704410
31
0.0000000000
11
10.6862327554
21
-0.3501829036
31
0.0000000000
11
10.6327582321
21
-0.3501941438
31
0.0000000000
11
10.5763895885
21
-0.3502040874
31
0.0000000000
11
10.5175032322
21
-0.3502126686
31
0.0000000000
11
10.4564932046
21
-0.3502198306
31
0.0000000000
11
10.3937663154
21
-0.3502255261
31
0.0000000000
11
10.3297414234
21
-0.3502297177
31
0.0000000000
11
10.2648482221
21
-0.3502323774
31
0.0000000000
11
10.1995150734
21
-0.3502334883
31
0.0000000000
0
SPLINE
5
266
100
AcDbEntity
8
0
100
AcDbSpline
62
9
6
CONTINUOUS
70
0
71
3
72
19
73
15
74
13
42
0.0000001000
43
0.0000001000
44
0.0000000001
12
-0.0000000000
22
0.2736984469
32
0.0000000000
13
-0.2683147000
23
0.0547845372
33
0.0000000000
40
0.0000000000
40
0.0000000000
40
0.0000000000
40
0.0000000000
40
0.0882408630
40
0.1764813380
40
0.2647210598
40
0.3529597066
40
0.4411970194
40
0.5294328164
40
0.6176670040
40
0.7058995821
40
0.7941306439
40
0.8823603708
40
0.9705890217
40
1.0000000000
40
1.0000000000
40
1.0000000000
40
1.0000000000
10
10.9993932438
20
-0.3500000000
30
0.0000000000
10
10.9993932438
20
-0.3419495376
30
0.0000000000
10
10.9984188785
20
-0.3258317142
30
0.0000000000
10
10.9940555436
20
-0.3020209642
30
0.0000000000
10
10.9868540476
20
-0.2789062097
30
0.0000000000
10
10.9769194011
20
-0.2568291265
30
0.0000000000
10
10.9643964687
20
-0.2361104107
30
0.0000000000
10
10.9494678601
20
-0.2170525194
30
0.0000000000
10
10.9323512577
20
-0.1999332726
30
0.0000000000
10
10.9132962806
20
-0.1850023345
30
0.0000000000
10
10.8925807028
20
-0.1724774297
30
0.0000000000
10
10.8705069351
20
-0.1625412056
30
0.0000000000
10
10.8525312768
20
-0.1569390856
30
0.0000000000
10
10.8420532130
20
-0.1545789565
30
0.0000000000
10
10.8394227471
20
-0.1540418675
30
0.0000000000
11
10.9993932438
21
-0.3500000000
31
0.0000000000
11
10.9979352405
21
-0.3258926624
31
0.0000000000
11
10.9935824917
21
-0.3021368641
31
0.0000000000
11
10.9863984702
21
-0.2790790184
31
0.0000000000
11
10.9764879354
21
-0.2570553606
31
0.0000000000
11
10.9639954053
21
-0.2363870452
31
0.0000000000
11
10.9491030492
21
-0.2173754630
31
0.0000000000
11
10.9320280314
21
-0.2002978454
31
0.0000000000
11
10.9130193442
21
-0.1854032226
31
0.0000000000
11
10.8923541772
21
-0.1729087917
31
0.0000000000
11
10.8703338751
21
-0.1629967494
31
0.0000000000
11
10.8472795436
21
-0.1558116355
31
0.0000000000
11
10.8394227471
21
-0.1540418675
31
0.0000000000
0
SPLINE
5
267
100
AcDbEntity
8
0
100
AcDbSpline
62
9
6
CONTINUOUS
70
0
71
3
72
9
73
5
74
3
42
0.0000001000
43
0.0000001000
44
0.0000000001
12
-0.0394541807
22
0.0080557607
32
0.0000000000
13
-0.0402458307
23
0.0000000000
33
0.0000000000
40
0.0000000000
40
0.0000000000
40
0.0000000000
40
0.0000000000
40
0.3999942063
40
1.0000000000
40
1.0000000000
40
1.0000000000
40
1.0000000000
10
10.8394227471
20
-0.1540418675
30
0.0000000000
10
10.8341622659
20
-0.1529677816
30
0.0000000000
10
10.8209023433
20
-0.1508120932
30
0.0000000000
10
10.8074729486
20
-0.1500000000
30
0.0000000000
10
10.7994237047
20
-0.1500000000
30
0.0000000000
11
10.8394227471
21
-0.1540418675
31
0.0000000000
11
10.8235273667
21
-0.1514582249
31
0.0000000000
11
10.7994237047
21
-0.1500000000
31
0.0000000000
0
SPLINE
5
268
100
AcDbEntity
8
0
100
AcDbSpline
62
9
6
CONTINUOUS
70
0
71
3
72
19
73
15
74
13
42
0.0000001000
43
0.0000001000
44
0.0000000001
12
0.0000000000
22
-0.2736984469
32
0.0000000000
13
0.2683147000
23
-0.0547845372
33
0.0000000000
40
0.0000000000
40
0.0000000000
40
0.0000000000
40
0.0000000000
40
0.0882408630
40
0.1764813380
40
0.2647210598
40
0.3529597066
40
0.4411970194
40
0.5294328164
40
0.6176670040
40
0.7058995821
40
0.7941306439
40
0.8823603708
40
0.9705890217
40
1.0000000000
40
1.0000000000
40
1.0000000000
40
1.0000000000
10
-10.9993932438
20
0.3500000000
30
0.0000000000
10
-10.9993932438
20
0.3419495376
30
0.0000000000
10
-10.9984188785
20
0.3258317142
30
0.0000000000
10
-10.9940555436
20
0.3020209642
30
0.0000000000
10
-10.9868540476
20
0.2789062097
30
0.0000000000
10
-10.9769194011
20
0.2568291265
30
0.0000000000
10
-10.9643964687
20
0.2361104107
30
0.0000000000
10
-10.9494678601
20
0.2170525194
30
0.0000000000
10
-10.9323512577
20
0.1999332726
30
0.0000000000
10
-10.9132962806
20
0.1850023345
30
0.0000000000
10
-10.8925807028
20
0.1724774297
30
0.0000000000
10
-10.8705069351
20
0.1625412056
30
0.0000000000
10
-10.8525312768
20
0.1569390856
30
0.0000000000
10
-10.8420532130
20
0.1545789565
30
0.0000000000
10
-10.8394227471
20
0.1540418675
30
0.0000000000
11
-10.9993932438
21
0.3500000000
31
0.0000000000
11
-10.9979352405
21
0.3258926624
31
0.0000000000
11
-10.9935824917
21
0.3021368641
31
0.0000000000
11
-10.9863984702
21
0.2790790184
31
0.0000000000
11
-10.9764879354
21
0.2570553606
31
0.0000000000
11
-10.9639954053
21
0.2363870452
31
0.0000000000
11
-10.9491030492
21
0.2173754630
31
0.0000000000
11
-10.9320280314
21
0.2002978454
31
0.0000000000
11
-10.9130193442
21
0.1854032226
31
0.0000000000
11
-10.8923541772
21
0.1729087917
31
0.0000000000
11
-10.8703338751
21
0.1629967494
31
0.0000000000
11
-10.8472795436
21
0.1558116355
31
0.0000000000
11
-10.8394227471
21
0.1540418675
31
0.0000000000
0
SPLINE
5
269
100
AcDbEntity
8
0
100
AcDbSpline
62
9
6
CONTINUOUS
70
0
71
3
72
9
73
5
74
3
42
0.0000001000
43
0.0000001000
44
0.0000000001
12
0.0394541807
22
-0.0080557607
32
0.0000000000
13
0.0402458307
23
0.0000000000
33
0.0000000000
40
0.0000000000
40
0.0000000000
40
0.0000000000
40
0.0000000000
40
0.3999942063
40
1.0000000000
40
1.0000000000
40
1.0000000000
40
1.0000000000
10
-10.8394227471
20
0.1540418675
30
0.0000000000
10
-10.8341622659
20
0.1529677816
30
0.0000000000
10
-10.8209023433
20
0.1508120932
30
0.0000000000
10
-10.8074729486
20
0.1500000000
30
0.0000000000
10
-10.7994237047
20
0.1500000000
30
0.0000000000
11
-10.8394227471
21
0.1540418675
31
0.0000000000
11
-10.8235273667
21
0.1514582249
31
0.0000000000
11
-10.7994237047
21
0.1500000000
31
0.0000000000
0
SPLINE
5
26A
100
AcDbEntity
8
0
100
AcDbSpline
62
9
6
CONTINUOUS
70
0
71
3
72
26
73
22
74
20
42
0.0000001000
43
0.0000001000
44
0.0000000001
12
0.7997659699
22
0.0134018751
32
0.0000000000
13
0.7998782513
23
0.0000039886
33
0.0000000000
40
0.0000000000
40
0.0000000000
40
0.0000000000
40
0.0000000000
40
0.0047657808
40
0.0161795723
40
0.0341655882
40
0.0586034072
40
0.0893297143
40
0.1261396914
40
0.1687870886
40
0.2169870962
40
0.2704175509
40
0.3287219462
40
0.3915102894
40
0.4583636192
40
0.5288351496
40
0.6024542995
40
0.6787284423
40
0.7571489887
40
0.8371922853
40
0.9183211337
40
1.0000000000
40
1.0000000000
40
1.0000000000
40
1.0000000000
10
-10.9993932081
20
0.3500000000
30
0.0000000000
10
-10.9981227050
20
0.3500212901
30
0.0000000000
10
-10.9938085274
20
0.3500141358
30
0.0000000000
10
-10.9846993573
20
0.3500484512
30
0.0000000000
10
-10.9703447192
20
0.3500566907
30
0.0000000000
10
-10.9508410474
20
0.3500783007
30
0.0000000000
10
-10.9263183373
20
0.3500941922
30
0.0000000000
10
-10.8969405061
20
0.3501116010
30
0.0000000000
10
-10.8629037196
20
0.3501276483
30
0.0000000000
10
-10.8244354828
20
0.3501431295
30
0.0000000000
10
-10.7817926803
20
0.3501576201
30
0.0000000000
10
-10.7352602467
20
0.3501711108
30
0.0000000000
10
-10.6851489241
20
0.3501834755
30
0.0000000000
10
-10.6317935255
20
0.3501946368
30
0.0000000000
10
-10.5755503511
20
0.3502045149
30
0.0000000000
10
-10.5167953419
20
0.3502130431
30
0.0000000000
10
-10.4559209175
20
0.3502201629
30
0.0000000000
10
-10.3933336479
20
0.3502258263
30
0.0000000000
10
-10.3294519870
20
0.3502299953
30
0.0000000000
10
-10.2647015730
20
0.3502326400
30
0.0000000000
10
-10.2212927896
20
0.3502333797
30
0.0000000000
10
-10.1995150734
20
0.3502334883
30
0.0000000000
11
-10.9993932081
21
0.3500000000
31
0.0000000000
11
-10.9955812116
21
0.3500191061
31
0.0000000000
11
-10.9864515877
21
0.3500380778
31
0.0000000000
11
-10.9720649769
21
0.3500567890
31
0.0000000000
11
-10.9525177056
21
0.3500751153
31
0.0000000000
11
-10.9279404072
21
0.3500929344
31
0.0000000000
11
-10.8984969122
21
0.3501101280
31
0.0000000000
11
-10.8643841907
21
0.3501265818
31
0.0000000000
11
-10.8258300560
21
0.3501421865
31
0.0000000000
11
-10.7830921998
21
0.3501568386
31
0.0000000000
11
-10.7364557841
21
0.3501704410
31
0.0000000000
11
-10.6862327554
21
0.3501829036
31
0.0000000000
11
-10.6327582321
21
0.3501941438
31
0.0000000000
11
-10.5763895885
21
0.3502040874
31
0.0000000000
11
-10.5175032322
21
0.3502126686
31
0.0000000000
11
-10.4564932046
21
0.3502198306
31
0.0000000000
11
-10.3937663154
21
0.3502255261
31
0.0000000000
11
-10.3297414234
21
0.3502297176
31
0.0000000000
11
-10.2648482221
21
0.3502323774
31
0.0000000000
11
-10.1995150734
21
0.3502334883
31
0.0000000000
0
SPLINE
5
26B
100
AcDbEntity
8
0
100
AcDbSpline
62
9
6
CONTINUOUS
70
0
71
3
72
45
73
41
74
39
42
0.0000001000
43
0.0000001000
44
0.0000000001
12
0.9446380137
22
4.2166284796
32
0.0000000000
13
0.9446379949
23
-4.2166284838
33
0.0000000000
40
0.0000000000
40
0.0000000000
40
0.0000000000
40
0.0000000000
40
0.0263361000
40
0.0526706590
40
0.0790034287
40
0.1053340861
40
0.1316623926
40
0.1579881975
40
0.1843112788
40
0.2106316435
40
0.2369491466
40
0.2632639103
40
0.2895759243
40
0.3158853819
40
0.3421924383
40
0.3684973294
40
0.3948003659
40
0.4211018217
40
0.4474021132
40
0.4737015618
40
0.5000006213
40
0.5262996627
40
0.5525991146
40
0.5788993788
40
0.6052008177
40
0.6315038218
40
0.6578086731
40
0.6841156926
40
0.7104250885
40
0.7367370580
40
0.7630517424
40
0.7893691876
40
0.8156894611
40
0.8420124656
40
0.8683381720
40
0.8946663790
40
0.9209969325
40
0.9473295802
40
0.9736640285
40
1.0000000000
40
1.0000000000
40
1.0000000000
40
1.0000000000
10
-1.5612490537
20
0.3502334888
30
0.0000000000
10
-1.5529563600
20
0.3872500052
30
0.0000000000
10
-1.5337338509
20
0.4607183064
30
0.0000000000
10
-1.4971554124
20
0.5685704910
30
0.0000000000
10
-1.4530136089
20
0.6735520736
30
0.0000000000
10
-1.4015339823
20
0.7751250688
30
0.0000000000
10
-1.3429774532
20
0.8727783646
30
0.0000000000
10
-1.2776412012
20
0.9660183643
30
0.0000000000
10
-1.2058564012
20
1.0543748401
30
0.0000000000
10
-1.1279868577
20
1.1374021477
30
0.0000000000
10
-1.0444267673
20
1.2146820490
30
0.0000000000
10
-0.9555990438
20
1.2858253461
30
0.0000000000
10
-0.8619527644
20
1.3504741598
30
0.0000000000
10
-0.7639612042
20
1.4083034065
30
0.0000000000
10
-0.6621191696
20
1.4590225566
30
0.0000000000
10
-0.5569406363
20
1.5023769480
30
0.0000000000
10
-0.4489561452
20
1.5381490153
30
0.0000000000
10
-0.3387100408
20
1.5661593662
30
0.0000000000
10
-0.2267579629
20
1.5862675623
30
0.0000000000
10
-0.1136638256
20
1.5983728457
30
0.0000000000
10
0.0000026895
20
1.6024145604
30
0.0000000000
10
0.1136691954
20
1.5983724622
30
0.0000000000
10
0.2267632318
20
1.5862668061
30
0.0000000000
10
0.3387151847
20
1.5661582489
30
0.0000000000
10
0.4489610907
20
1.5381475657
30
0.0000000000
10
0.5569453456
20
1.5023751940
30
0.0000000000
10
0.6621235989
20
1.4590205371
30
0.0000000000
10
0.7639653031
20
1.4083011714
30
0.0000000000
10
0.8619565198
20
1.3504717499
30
0.0000000000
10
0.9556024035
20
1.2858228341
30
0.0000000000
10
1.0444297409
20
1.2146794750
30
0.0000000000
10
1.1279894070
20
1.1373996003
30
0.0000000000
10
1.2058585480
20
1.0543723626
30
0.0000000000
10
1.2776429349
20
0.9660160469
30
0.0000000000
10
1.3429788006
20
0.8727762612
30
0.0000000000
10
1.4015349686
20
0.7751232565
30
0.0000000000
10
1.4530142567
20
0.6735506187
30
0.0000000000
10
1.4971558170
20
0.5685694560
30
0.0000000000
10
1.5337339027
20
0.4607177122
30
0.0000000000
10
1.5529566273
20
0.3872498247
30
0.0000000000
10
1.5612492804
20
0.3502334888
30
0.0000000000
11
-1.5612490537
21
0.3502334888
31
0.0000000000
11
-1.5324422363
21
0.4603293042
31
0.0000000000
11
-1.4958934695
21
0.5680956877
31
0.0000000000
11
-1.4517887249
21
0.6729880978
31
0.0000000000
11
-1.4003520495
21
0.7744762128
31
0.0000000000
11
-1.3418445444
21
0.8720473624
31
0.0000000000
11
-1.2765629280
21
0.9652090959
31
0.0000000000
11
-1.2048383911
21
1.0534910940
31
0.0000000000
11
-1.1270340905
21
1.1364485589
31
0.0000000000
11
-1.0435443188
21
1.2136631656
31
0.0000000000
11
-0.9547912243
21
1.2847464517
31
0.0000000000
11
-0.8612238897
21
1.3493405478
31
0.0000000000
11
-0.7633149175
21
1.4071208608
31
0.0000000000
11
-0.6615588447
21
1.4577970294
31
0.0000000000
11
-0.5564692129
21
1.5011146297
31
0.0000000000
11
-0.4485759653
21
1.5368563503
31
0.0000000000
11
-0.3384232318
21
1.5648428839
31
0.0000000000
11
-0.2265658490
21
1.5849340037
31
0.0000000000
11
-0.1135675710
21
1.5970289858
31
0.0000000000
11
0.0000027132
21
1.6010672651
31
0.0000000000
11
0.1135729060
21
1.5970286055
31
0.0000000000
11
0.2265711570
21
1.5849332431
31
0.0000000000
11
0.3384283573
21
1.5648417729
31
0.0000000000
11
0.4485809288
21
1.5368548981
31
0.0000000000
11
0.5564739293
21
1.5011128771
31
0.0000000000
11
0.6615632682
21
1.4577950170
31
0.0000000000
11
0.7633190465
21
1.4071186152
31
0.0000000000
11
0.8612276243
21
1.3493381577
31
0.0000000000
11
0.9547946249
21
1.2847439172
31
0.0000000000
11
1.0435472712
21
1.2136606192
31
0.0000000000
11
1.1270366771
21
1.1364459852
31
0.0000000000
11
1.2048405289
21
1.0534886399
31
0.0000000000
11
1.2765646861
21
0.9652067608
31
0.0000000000
11
1.3418459004
21
0.8720452654
31
0.0000000000
11
1.4003530454
21
0.7744744008
31
0.0000000000
11
1.4517894008
21
0.6729866271
31
0.0000000000
11
1.4958938522
21
0.5680946658
31
0.0000000000
11
1.5324424079
21
0.4603287161
31
0.0000000000
11
1.5612492804
21
0.3502334888
31
0.0000000000
0
SPLINE
5
26C
100
AcDbEntity
8
0
100
AcDbSpline
62
9
6
CONTINUOUS
70
0
71
3
72
26
73
22
74
20
42
0.0000001000
43
0.0000001000
44
0.0000000001
12
0.7998782513
22
-0.0000039886
32
0.0000000000
13
0.7997659699
23
-0.0134018752
33
0.0000000000
40
0.0000000000
40
0.0000000000
40
0.0000000000
40
0.0000000000
40
0.0816788662
40
0.1628077147
40
0.2428510113
40
0.3212715576
40
0.3975457005
40
0.4711648504
40
0.5416363808
40
0.6084897106
40
0.6712780538
40
0.7295824491
40
0.7830129038
40
0.8312129114
40
0.8738603086
40
0.9106702857
40
0.9413965928
40
0.9658344118
40
0.9838204277
40
0.9952342192
40
1.0000000000
40
1.0000000000
40
1.0000000000
40
1.0000000000
10
10.1995150734
20
0.3502334883
30
0.0000000000
10
10.2212927896
20
0.3502333797
30
0.0000000000
10
10.2647015730
20
0.3502326400
30
0.0000000000
10
10.3294519870
20
0.3502299953
30
0.0000000000
10
10.3933336479
20
0.3502258263
30
0.0000000000
10
10.4559209175
20
0.3502201629
30
0.0000000000
10
10.5167953419
20
0.3502130431
30
0.0000000000
10
10.5755503511
20
0.3502045149
30
0.0000000000
10
10.6317935255
20
0.3501946368
30
0.0000000000
10
10.6851489241
20
0.3501834755
30
0.0000000000
10
10.7352602467
20
0.3501711108
30
0.0000000000
10
10.7817926803
20
0.3501576201
30
0.0000000000
10
10.8244354828
20
0.3501431295
30
0.0000000000
10
10.8629037196
20
0.3501276483
30
0.0000000000
10
10.8969405061
20
0.3501116010
30
0.0000000000
10
10.9263183373
20
0.3500941922
30
0.0000000000
10
10.9508410474
20
0.3500783007
30
0.0000000000
10
10.9703447192
20
0.3500566907
30
0.0000000000
10
10.9846993573
20
0.3500484512
30
0.0000000000
10
10.9938085274
20
0.3500141358
30
0.0000000000
10
10.9981227050
20
0.3500212901
30
0.0000000000
10
10.9993932081
20
0.3500000000
30
0.0000000000
11
10.1995150734
21
0.3502334883
31
0.0000000000
11
10.2648482220
21
0.3502323774
31
0.0000000000
11
10.3297414234
21
0.3502297176
31
0.0000000000
11
10.3937663154
21
0.3502255261
31
0.0000000000
11
10.4564932046
21
0.3502198306
31
0.0000000000
11
10.5175032322
21
0.3502126686
31
0.0000000000
11
10.5763895885
21
0.3502040874
31
0.0000000000
11
10.6327582321
21
0.3501941438
31
0.0000000000
11
10.6862327554
21
0.3501829036
31
0.0000000000
11
10.7364557841
21
0.3501704410
31
0.0000000000
11
10.7830921998
21
0.3501568386
31
0.0000000000
11
10.8258300560
21
0.3501421865
31
0.0000000000
11
10.8643841907
21
0.3501265818
31
0.0000000000
11
10.8984969122
21
0.3501101280
31
0.0000000000
11
10.9279404072
21
0.3500929344
31
0.0000000000
11
10.9525177056
21
0.3500751153
31
0.0000000000
11
10.9720649769
21
0.3500567890
31
0.0000000000
11
10.9864515877
21
0.3500380778
31
0.0000000000
11
10.9955812116
21
0.3500191061
31
0.0000000000
11
10.9993932081
21
0.3500000000
31
0.0000000000
0
SPLINE
5
26D
100
AcDbEntity
8
0
100
AcDbSpline
62
9
6
CONTINUOUS
70
0
71
3
72
19
73
15
74
13
42
0.0000001000
43
0.0000001000
44
0.0000000001
12
0.0000000000
22
-0.2736984432
32
0.0000000000
13
-0.2683146953
23
-0.0547845415
33
0.0000000000
40
0.0000000000
40
0.0000000000
40
0.0000000000
40
0.0000000000
40
0.0882408584
40
0.1764813291
40
0.2647210470
40
0.3529596908
40
0.4411970014
40
0.5294327974
40
0.6176669853
40
0.7058995650
40
0.7941306300
40
0.8823603617
40
0.9705890191
40
1.0000000000
40
1.0000000000
40
1.0000000000
40
1.0000000000
10
10.9993932438
20
0.3500000000
30
0.0000000000
10
10.9993932438
20
0.3419495381
30
0.0000000000
10
10.9984188787
20
0.3258317158
30
0.0000000000
10
10.9940555443
20
0.3020209672
30
0.0000000000
10
10.9868540492
20
0.2789062139
30
0.0000000000
10
10.9769194036
20
0.2568291315
30
0.0000000000
10
10.9643964723
20
0.2361104161
30
0.0000000000
10
10.9494678648
20
0.2170525247
30
0.0000000000
10
10.9323512632
20
0.1999332775
30
0.0000000000
10
10.9132962866
20
0.1850023386
30
0.0000000000
10
10.8925807087
20
0.1724774328
30
0.0000000000
10
10.8705069404
20
0.1625412076
30
0.0000000000
10
10.8525312813
20
0.1569390868
30
0.0000000000
10
10.8420532169
20
0.1545789573
30
0.0000000000
10
10.8394227508
20
0.1540418683
30
0.0000000000
11
10.9993932438
21
0.3500000000
31
0.0000000000
11
10.9979352407
21
0.3258926639
31
0.0000000000
11
10.9935824924
21
0.3021368671
31
0.0000000000
11
10.9863984718
21
0.2790790226
31
0.0000000000
11
10.9764879380
21
0.2570553656
31
0.0000000000
11
10.9639954090
21
0.2363870507
31
0.0000000000
11
10.9491030540
21
0.2173754684
31
0.0000000000
11
10.9320280370
21
0.2002978504
31
0.0000000000
11
10.9130193503
21
0.1854032268
31
0.0000000000
11
10.8923541832
21
0.1729087949
31
0.0000000000
11
10.8703338805
21
0.1629967515
31
0.0000000000
11
10.8472795478
21
0.1558116365
31
0.0000000000
11
10.8394227508
21
0.1540418683
31
0.0000000000
0
SPLINE
5
26E
100
AcDbEntity
8
0
100
AcDbSpline
62
9
6
CONTINUOUS
70
0
71
3
72
9
73
5
74
3
42
0.0000001000
43
0.0000001000
44
0.0000000001
12
-0.0394541843
22
-0.0080557623
32
0.0000000000
13
-0.0402458344
23
0.0000000000
33
0.0000000000
40
0.0000000000
40
0.0000000000
40
0.0000000000
40
0.0000000000
40
0.3999942022
40
1.0000000000
40
1.0000000000
40
1.0000000000
40
1.0000000000
10
10.8394227508
20
0.1540418683
30
0.0000000000
10
10.8341622691
20
0.1529677822
30
0.0000000000
10
10.8209023454
20
0.1508120934
30
0.0000000000
10
10.8074729494
20
0.1500000000
30
0.0000000000
10
10.7994237047
20
0.1500000000
30
0.0000000000
11
10.8394227508
21
0.1540418683
31
0.0000000000
11
10.8235273691
21
0.1514582252
31
0.0000000000
11
10.7994237047
21
0.1500000000
31
0.0000000000
0
SPLINE
5
26F
100
AcDbEntity
8
0
100
AcDbSpline
62
9
6
CONTINUOUS
70
0
71
3
72
25
73
21
74
19
42
0.0000001000
43
0.0000001000
44
0.0000000001
12
-0.0003825380
22
1.2559255494
32
0.0000000000
13
-1.2559255494
23
0.0003825380
33
0.0000000000
40
0.0000000000
40
0.0000000000
40
0.0000000000
40
0.0000000000
40
0.0555509011
40
0.1111032543
40
0.1666569928
40
0.2222120080
40
0.2777681525
40
0.3333252446
40
0.3888830737
40
0.4444414071
40
0.4999999964
40
0.5555585859
40
0.6111169195
40
0.6666747491
40
0.7222318418
40
0.7777879871
40
0.8333430033
40
0.8888967430
40
0.9444490974
40
1.0000000000
40
1.0000000000
40
1.0000000000
40
1.0000000000
10
11.0234262834
20
20.9735481273
30
0.0000000000
10
11.0234192000
20
20.9968040593
30
0.0000000000
10
11.0213739711
20
21.0433414411
30
0.0000000000
10
11.0122365985
20
21.1125951032
30
0.0000000000
10
10.9970991691
20
21.1807964124
30
0.0000000000
10
10.9760768511
20
21.2474195568
30
0.0000000000
10
10.9493295790
20
21.3119595624
30
0.0000000000
10
10.9170608396
20
21.3739249379
30
0.0000000000
10
10.8795161232
20
21.4328444134
30
0.0000000000
10
10.8369810561
20
21.4882697214
30
0.0000000000
10
10.7897792278
20
21.5397792215
30
0.0000000000
10
10.7382697281
20
21.5869810505
30
0.0000000000
10
10.6828444204
20
21.6295161184
30
0.0000000000
10
10.6239249447
20
21.6670608357
30
0.0000000000
10
10.5619595688
20
21.6993295760
30
0.0000000000
10
10.4974195625
20
21.7260768491
30
0.0000000000
10
10.4307964171
20
21.7470991679
30
0.0000000000
10
10.3625951065
20
21.7622365980
30
0.0000000000
10
10.2933414428
20
21.7713739710
30
0.0000000000
10
10.2468040599
20
21.7734192000
30
0.0000000000
10
10.2235481273
20
21.7734262834
30
0.0000000000
11
11.0234262834
21
20.9735481273
31
0.0000000000
11
11.0203624553
21
21.0432486206
31
0.0000000000
11
11.0112367393
21
21.1124188569
31
0.0000000000
11
10.9961185606
21
21.1805326128
31
0.0000000000
11
10.9751229331
21
21.2470717024
31
0.0000000000
11
10.9484095841
21
21.3115299193
31
0.0000000000
11
10.9161817397
21
21.3734168876
31
0.0000000000
11
10.8786845780
21
21.4322617928
31
0.0000000000
11
10.8362033645
21
21.4876169630
31
0.0000000000
11
10.7890612815
21
21.5390612751
31
0.0000000000
11
10.7376169697
21
21.5862033588
31
0.0000000000
11
10.6822617997
21
21.6286845731
31
0.0000000000
11
10.6234168945
21
21.6661817357
31
0.0000000000
11
10.5615299257
21
21.6984095811
31
0.0000000000
11
10.4970717081
21
21.7251229310
31
0.0000000000
11
10.4305326175
21
21.7461185594
31
0.0000000000
11
10.3624188603
21
21.7612367387
31
0.0000000000
11
10.2932486224
21
21.7703624552
31
0.0000000000
11
10.2235481273
21
21.7734262834
31
0.0000000000
0
SPLINE
5
270
100
AcDbEntity
8
0
100
AcDbSpline
62
9
6
CONTINUOUS
70
0
71
3
72
28
73
24
74
22
42
0.0000001000
43
0.0000001000
44
0.0000000001
12
-0.5910541300
22
-1.2669803033
32
0.0000000000
13
-0.0007751169
23
-1.3980641876
33
0.0000000000
40
0.0000000000
40
0.0000000000
40
0.0000000000
40
0.0000000000
40
0.0040531425
40
0.0134239590
40
0.0280854129
40
0.0479680948
40
0.0729740315
40
0.1029789728
40
0.1378331548
40
0.1773625083
40
0.2213694381
40
0.2696340694
40
0.3219149864
40
0.3779508653
40
0.4374613796
40
0.5001491055
40
0.5657005217
40
0.6337878888
40
0.7040705197
40
0.7761972566
40
0.8498074732
40
0.9245325642
40
1.0000000000
40
1.0000000000
40
1.0000000000
40
1.0000000000
10
10.2235481273
20
21.7734262834
30
0.0000000000
10
10.2227495851
20
21.7717145328
30
0.0000000000
10
10.2227312025
20
21.7652219505
30
0.0000000000
10
10.2214708732
20
21.7523711872
30
0.0000000000
10
10.2209363489
20
21.7318078568
30
0.0000000000
10
10.2200205750
20
21.7041153774
30
0.0000000000
10
10.2192658329
20
21.6692042982
30
0.0000000000
10
10.2184709251
20
21.6273387799
30
0.0000000000
10
10.2177184689
20
21.5786952189
30
0.0000000000
10
10.2169871773
20
21.5235281962
30
0.0000000000
10
10.2162900922
20
21.4621098560
30
0.0000000000
10
10.2156283821
20
21.3947485912
30
0.0000000000
10
10.2150065160
20
21.3217808973
30
0.0000000000
10
10.2144275449
20
21.2435719026
30
0.0000000000
10
10.2138945865
20
21.1605126730
30
0.0000000000
10
10.2134103876
20
21.0730186326
30
0.0000000000
10
10.2129774521
20
20.9815272799
30
0.0000000000
10
10.2125980034
20
20.8864962727
30
0.0000000000
10
10.2122739770
20
20.7884008032
30
0.0000000000
10
10.2120070375
20
20.6877313867
30
0.0000000000
10
10.2117985214
20
20.5849915463
30
0.0000000000
10
10.2116495247
20
20.4806947640
30
0.0000000000
10
10.2115905377
20
20.4107018425
30
0.0000000000
10
10.2115710390
20
20.3755324027
30
0.0000000000
11
10.2235481273
21
21.7734262834
31
0.0000000000
11
10.2226852433
21
21.7678258131
31
0.0000000000
11
10.2218277845
21
21.7547528985
31
0.0000000000
11
10.2209799481
21
21.7342727835
31
0.0000000000
11
10.2201460431
21
21.7064880250
31
0.0000000000
11
10.2193302139
21
21.6715376354
31
0.0000000000
11
10.2185365470
21
21.6295963038
31
0.0000000000
11
10.2177690113
21
21.5808739579
31
0.0000000000
11
10.2170314458
21
21.5256142980
31
0.0000000000
11
10.2163275393
21
21.4640938028
31
0.0000000000
11
10.2156608102
21
21.3966200338
31
0.0000000000
11
10.2150345941
21
21.3235306274
31
0.0000000000
11
10.2144520212
21
21.2451910261
31
0.0000000000
11
10.2139160059
21
21.1619932211
31
0.0000000000
11
10.2134292270
21
21.0743530948
31
0.0000000000
11
10.2129941188
21
20.9827090263
31
0.0000000000
11
10.2126128569
21
20.8875192655
31
0.0000000000
11
10.2122873473
21
20.7892601604
31
0.0000000000
11
10.2120192192
21
20.6884226935
31
0.0000000000
11
10.2118098062
21
20.5855110831
31
0.0000000000
11
10.2116601688
21
20.4810407006
31
0.0000000000
11
10.2115710390
21
20.3755324027
31
0.0000000000
0
SPLINE
5
271
100
AcDbEntity
8
0
100
AcDbSpline
62
9
6
CONTINUOUS
70
0
71
3
72
28
73
24
74
22
42
0.0000001000
43
0.0000001000
44
0.0000000001
12
-0.4614703308
22
-0.4616048229
32
0.0000000000
13
-0.0007756460
23
-0.6527122468
33
0.0000000000
40
0.0000000000
40
0.0000000000
40
0.0000000000
40
0.0000000000
40
0.0042155890
40
0.0136534542
40
0.0283529467
40
0.0482587206
40
0.0732780271
40
0.1032891817
40
0.1381438870
40
0.1776690194
40
0.2216676500
40
0.2699204100
40
0.3221862924
40
0.3782043212
40
0.4376944720
40
0.5003595809
40
0.5658863869
40
0.6339474026
40
0.7042021863
40
0.7762998203
40
0.8498799210
40
0.9245741143
40
1.0000000000
40
1.0000000000
40
1.0000000000
40
1.0000000000
10
11.0234262834
20
20.9735481273
30
0.0000000000
10
11.0227778270
20
20.9728994819
30
0.0000000000
10
11.0224567558
20
20.9696526489
30
0.0000000000
10
11.0214412144
20
20.9637987078
30
0.0000000000
10
11.0207752051
20
20.9541086304
30
0.0000000000
10
11.0199144496
20
20.9412193624
30
0.0000000000
10
11.0191386879
20
20.9249123880
30
0.0000000000
10
11.0183510811
20
20.9053791938
30
0.0000000000
10
11.0175961144
20
20.8826766418
30
0.0000000000
10
11.0168655958
20
20.8569320355
30
0.0000000000
10
11.0161682379
20
20.8282694575
30
0.0000000000
10
11.0155065888
20
20.7968336996
30
0.0000000000
10
11.0148846856
20
20.7627814913
30
0.0000000000
10
11.0143057101
20
20.7262833058
30
0.0000000000
10
11.0137727405
20
20.6875216188
30
0.0000000000
10
11.0132885347
20
20.6466903119
30
0.0000000000
10
11.0128555941
20
20.6039935602
30
0.0000000000
10
11.0124761409
20
20.5596449467
30
0.0000000000
10
11.0121521157
20
20.5138662370
30
0.0000000000
10
11.0118851709
20
20.4668863480
30
0.0000000000
10
11.0116766667
20
20.4189402683
30
0.0000000000
10
11.0115276666
20
20.3702698339
30
0.0000000000
10
11.0114686964
20
20.3376081161
30
0.0000000000
10
11.0114491951
20
20.3211976496
30
0.0000000000
11
11.0234262834
21
20.9735481273
31
0.0000000000
11
11.0225635492
21
20.9709353090
31
0.0000000000
11
11.0217060486
21
20.9648350684
31
0.0000000000
11
11.0208582134
21
20.9552780563
31
0.0000000000
11
11.0200242905
21
20.9423120945
31
0.0000000000
11
11.0192084502
21
20.9260020670
31
0.0000000000
11
11.0184147699
21
20.9064294905
31
0.0000000000
11
11.0176472218
21
20.8836923330
31
0.0000000000
11
11.0169096441
21
20.8579043226
31
0.0000000000
11
11.0162057261
21
20.8291944854
31
0.0000000000
11
11.0155389863
21
20.7977063538
31
0.0000000000
11
11.0149127603
21
20.7635974964
31
0.0000000000
11
11.0143301788
21
20.7270384587
31
0.0000000000
11
11.0137941560
21
20.6882121811
31
0.0000000000
11
11.0133073711
21
20.6473127650
31
0.0000000000
11
11.0128722586
21
20.6045447993
31
0.0000000000
11
11.0124909937
21
20.5601221456
31
0.0000000000
11
11.0121654838
21
20.5142671108
31
0.0000000000
11
11.0118973547
21
20.4672088328
31
0.0000000000
11
11.0116879474
21
20.4191826225
31
0.0000000000
11
11.0115383093
21
20.3704290031
31
0.0000000000
11
11.0114491951
21
20.3211976496
31
0.0000000000
0
SPLINE
5
272
100
AcDbEntity
8
0
100
AcDbSpline
62
9
6
CONTINUOUS
70
0
71
3
72
14
73
10
74
8
42
0.0000001000
43
0.0000001000
44
0.0000000001
12
0.0004069825
22
-20.0253036597
32
0.0000000000
13
0.0237318868
23
-20.0252896016
33
0.0000000000
40
0.0000000000
40
0.0000000000
40
0.0000000000
40
0.0000000000
40
0.1429660145
40
0.2859174215
40
0.4288412086
40
0.5717243652
40
0.7145538839
40
0.8573167609
40
1.0000000000
40
1.0000000000
40
1.0000000000
40
1.0000000000
10
10.1994130672
20
-0.3502334887
30
0.0000000000
10
10.1994324621
20
-1.3045461067
30
0.0000000000
10
10.1997791231
20
-3.2130738184
30
0.0000000000
10
10.2004906673
20
-6.0756322093
30
0.0000000000
10
10.2017538137
20
-8.9376373393
30
0.0000000000
10
10.2034719710
20
-11.7988286082
30
0.0000000000
10
10.2056708266
20
-14.6589454596
30
0.0000000000
10
10.2083432506
20
-17.5177274356
30
0.0000000000
10
10.2104423248
20
-19.4231080079
30
0.0000000000
10
10.2115710390
20
-20.3755324027
30
0.0000000000
11
10.1994130672
21
-0.3502334887
31
0.0000000000
11
10.1998110792
21
-3.2131713158
31
0.0000000000
11
10.2005826992
21
-6.0758165458
31
0.0000000000
11
10.2018298631
21
-8.9379085106
31
0.0000000000
11
10.2035524575
21
-11.7991865922
31
0.0000000000
11
10.2057503254
21
-14.6593902322
31
0.0000000000
11
10.2084232671
21
-17.5182589458
31
0.0000000000
11
10.2115710390
21
-20.3755324027
31
0.0000000000
0
SPLINE
5
273
100
AcDbEntity
8
0
100
AcDbSpline
62
9
6
CONTINUOUS
70
0
71
3
72
14
73
10
74
8
42
0.0000001000
43
0.0000001000
44
0.0000000001
12
0.0004077843
22
-19.9712023956
32
0.0000000000
13
0.0237310544
23
-19.9711883004
33
0.0000000000
40
0.0000000000
40
0.0000000000
40
0.0000000000
40
0.0000000000
40
0.1429655697
40
0.2859169409
40
0.4288407154
40
0.5717238994
40
0.7145535021
40
0.8573164870
40
1.0000000000
40
1.0000000000
40
1.0000000000
40
1.0000000000
10
10.9993932438
20
-0.3500000000
30
0.0000000000
10
10.9994126768
20
-1.3017314426
30
0.0000000000
10
10.9996100596
20
-3.2050998085
30
0.0000000000
10
11.0003816832
20
-6.0599212914
30
0.0000000000
10
11.0016287820
20
-8.9141941601
30
0.0000000000
10
11.0033512425
20
-11.7676561594
30
0.0000000000
10
11.0055489077
20
-14.6200474458
30
0.0000000000
10
11.0082215796
20
-17.4711091017
30
0.0000000000
10
11.0103205184
20
-19.3713445479
30
0.0000000000
10
11.0114491951
20
-20.3211976496
30
0.0000000000
11
10.9993932438
21
-0.3500000000
31
0.0000000000
11
10.9996893459
21
-3.2051943131
31
0.0000000000
11
11.0004610288
21
-6.0601049774
31
0.0000000000
11
11.0017082223
21
-8.9144643318
31
0.0000000000
11
11.0034308134
21
-11.7680127998
31
0.0000000000
11
11.0056286458
21
-14.6204908562
31
0.0000000000
11
11.0083015197
21
-17.4716380712
31
0.0000000000
11
11.0114491951
21
-20.3211976496
31
0.0000000000
0
SPLINE
5
274
100
AcDbEntity
8
0
100
AcDbSpline
62
9
6
CONTINUOUS
70
0
71
3
72
14
73
10
74
8
42
0.0000001000
43
0.0000001000
44
0.0000000001
12
-0.0237310545
22
-19.9711883004
32
0.0000000000
13
-0.0004077843
23
-19.9712023956
33
0.0000000000
40
0.0000000000
40
0.0000000000
40
0.0000000000
40
0.0000000000
40
0.1426835188
40
0.2854465032
40
0.4282761047
40
0.5711592877
40
0.7140830611
40
0.8570344313
40
1.0000000000
40
1.0000000000
40
1.0000000000
40
1.0000000000
10
11.0114491951
20
20.3211976496
30
0.0000000000
10
11.0103205183
20
19.3713445091
30
0.0000000000
10
11.0082215795
20
17.4711090282
30
0.0000000000
10
11.0055489077
20
14.6200473449
30
0.0000000000
10
11.0033512425
20
11.7676560767
30
0.0000000000
10
11.0016287820
20
8.9141940984
30
0.0000000000
10
11.0003816832
20
6.0599212502
30
0.0000000000
10
10.9996100596
20
3.2050997879
30
0.0000000000
10
10.9994126768
20
1.3017314358
30
0.0000000000
10
10.9993932438
20
0.3500000000
30
0.0000000000
11
11.0114491951
21
20.3211976496
31
0.0000000000
11
11.0083015196
21
17.4716379549
31
0.0000000000
11
11.0056286457
21
14.6204907520
31
0.0000000000
11
11.0034308133
21
11.7680127175
31
0.0000000000
11
11.0017082222
21
8.9144642701
31
0.0000000000
11
11.0004610288
21
6.0601049362
31
0.0000000000
11
10.9996893459
21
3.2051942925
31
0.0000000000
11
10.9993932438
21
0.3500000000
31
0.0000000000
0
SPLINE
5
275
100
AcDbEntity
8
0
100
AcDbSpline
62
9
6
CONTINUOUS
70
0
71
3
72
25
73
21
74
19
42
0.0000001000
43
0.0000001000
44
0.0000000001
12
-0.2000154144
22
0.7803079050
32
0.0000000000
13
-0.8055344094
23
0.0009527726
33
0.0000000000
40
0.0000000000
40
0.0000000000
40
0.0000000000
40
0.0000000000
40
0.0077912118
40
0.0215936197
40
0.0421903447
40
0.0696660356
40
0.1039114029
40
0.1447195327
40
0.1918146647
40
0.2448643258
40
0.3034862371
40
0.3672533602
40
0.4356982739
40
0.5083173545
40
0.5845749592
40
0.6639076977
40
0.7457288209
40
0.8294327281
40
0.9143995806
40
1.0000000000
40
1.0000000000
40
1.0000000000
40
1.0000000000
10
11.0114491951
20
20.3211976496
30
0.0000000000
10
11.0109297409
20
20.3232241643
30
0.0000000000
10
11.0059047676
20
20.3272604085
30
0.0000000000
10
10.9956102487
20
20.3313160910
30
0.0000000000
10
10.9794414411
20
20.3357857000
30
0.0000000000
10
10.9578032740
20
20.3400666356
30
0.0000000000
10
10.9305783358
20
20.3443234057
30
0.0000000000
10
10.8980396259
20
20.3484141348
30
0.0000000000
10
10.8603908297
20
20.3523306175
30
0.0000000000
10
10.8179197474
20
20.3560265413
30
0.0000000000
10
10.7709373471
20
20.3594743668
30
0.0000000000
10
10.7197935232
20
20.3626449281
30
0.0000000000
10
10.6648680555
20
20.3655134125
30
0.0000000000
10
10.6065695157
20
20.3680572831
30
0.0000000000
10
10.5453315619
20
20.3702568783
30
0.0000000000
10
10.4816098377
20
20.3720952768
30
0.0000000000
10
10.4158785067
20
20.3735584138
30
0.0000000000
10
10.3486267097
20
20.3746351306
30
0.0000000000
10
10.2803549589
20
20.3753172368
30
0.0000000000
10
10.2345557334
20
20.3755052168
30
0.0000000000
10
10.2115710390
20
20.3755324027
30
0.0000000000
11
11.0114491951
21
20.3211976496
31
0.0000000000
11
11.0072718583
21
20.3258815805
31
0.0000000000
11
10.9971721925
21
20.3305306493
31
0.0000000000
11
10.9812253686
21
20.3351102534
31
0.0000000000
11
10.9595500774
21
20.3395863073
31
0.0000000000
11
10.9323076461
21
20.3439254960
31
0.0000000000
11
10.8997008376
21
20.3480955235
31
0.0000000000
11
10.8619723414
21
20.3520653526
31
0.0000000000
11
10.8194029674
21
20.3558054361
31
0.0000000000
11
10.7723095555
21
20.3592879370
31
0.0000000000
11
10.7210426177
21
20.3624869353
31
0.0000000000
11
10.6659837292
21
20.3653786213
31
0.0000000000
11
10.6075426882
21
20.3679414723
31
0.0000000000
11
10.5461544662
21
20.3701564132
31
0.0000000000
11
10.4822759702
21
20.3720069586
31
0.0000000000
11
10.4163826418
21
20.3734793348
31
0.0000000000
11
10.3489649193
21
20.3745625832
31
0.0000000000
11
10.2805245867
21
20.3752486413
31
0.0000000000
11
10.2115710390
21
20.3755324027
31
0.0000000000
0
SPLINE
5
276
100
AcDbEntity
8
0
100
AcDbSpline
62
9
6
CONTINUOUS
70
0
71
3
72
14
73
10
74
8
42
0.0000001000
43
0.0000001000
44
0.0000000001
12
-0.0237318869
22
-20.0252896017
32
0.0000000000
13
-0.0004069825
23
-20.0253036598
33
0.0000000000
40
0.0000000000
40
0.0000000000
40
0.0000000000
40
0.0000000000
40
0.1426832391
40
0.2854461161
40
0.4282756348
40
0.5711587914
40
0.7140825785
40
0.8570339855
40
1.0000000000
40
1.0000000000
40
1.0000000000
40
1.0000000000
10
10.2115710390
20
20.3755324027
30
0.0000000000
10
10.2104423248
20
19.4231080079
30
0.0000000000
10
10.2083432501
20
17.5177274357
30
0.0000000000
10
10.2056708283
20
14.6589454597
30
0.0000000000
10
10.2034719647
20
11.7988286082
30
0.0000000000
10
10.2017538371
20
8.9376373393
30
0.0000000000
10
10.2004905800
20
6.0756322094
30
0.0000000000
10
10.1997794489
20
3.2130738183
30
0.0000000000
10
10.1994317600
20
1.3045461067
30
0.0000000000
10
10.1994123651
20
0.3502334887
30
0.0000000000
11
10.2115710390
21
20.3755324027
31
0.0000000000
11
10.2084232671
21
17.5182589458
31
0.0000000000
11
10.2057503254
21
14.6593902323
31
0.0000000000
11
10.2035524575
21
11.7991865923
31
0.0000000000
11
10.2018298631
21
8.9379085106
31
0.0000000000
11
10.2005826992
21
6.0758165458
31
0.0000000000
11
10.1998110792
21
3.2131713158
31
0.0000000000
11
10.1994123651
21
0.3502334887
31
0.0000000000
0
SPLINE
5
277
100
AcDbEntity
8
0
100
AcDbSpline
62
9
6
CONTINUOUS
70
0
71
3
72
25
73
21
74
19
42
0.0000001000
43
0.0000001000
44
0.0000000001
12
-0.2000156316
22
-0.7803078485
32
0.0000000000
13
-0.8055344086
23
-0.0009527724
33
0.0000000000
40
0.0000000000
40
0.0000000000
40
0.0000000000
40
0.0000000000
40
0.0077912128
40
0.0215936220
40
0.0421903481
40
0.0696660399
40
0.1039114080
40
0.1447195384
40
0.1918146708
40
0.2448643321
40
0.3034862433
40
0.3672533662
40
0.4356982796
40
0.5083173596
40
0.5845749637
40
0.6639077015
40
0.7457288238
40
0.8294327301
40
0.9143995816
40
1.0000000000
40
1.0000000000
40
1.0000000000
40
1.0000000000
10
11.0114491951
20
-20.3211976496
30
0.0000000000
10
11.0109297403
20
-20.3232241644
30
0.0000000000
10
11.0059047661
20
-20.3272604081
30
0.0000000000
10
10.9956102463
20
-20.3313160909
30
0.0000000000
10
10.9794414378
20
-20.3357856997
30
0.0000000000
10
10.9578032699
20
-20.3400666352
30
0.0000000000
10
10.9305783310
20
-20.3443234052
30
0.0000000000
10
10.8980396207
20
-20.3484141342
30
0.0000000000
10
10.8603908242
20
-20.3523306168
30
0.0000000000
10
10.8179197418
20
-20.3560265405
30
0.0000000000
10
10.7709373416
20
-20.3594743659
30
0.0000000000
10
10.7197935179
20
-20.3626449271
30
0.0000000000
10
10.6648680505
20
-20.3655134114
30
0.0000000000
10
10.6065695112
20
-20.3680572819
30
0.0000000000
10
10.5453315580
20
-20.3702568770
30
0.0000000000
10
10.4816098344
20
-20.3720952755
30
0.0000000000
10
10.4158785042
20
-20.3735584125
30
0.0000000000
10
10.3486267080
20
-20.3746351292
30
0.0000000000
10
10.2803549580
20
-20.3753172353
30
0.0000000000
10
10.2345557331
20
-20.3755052153
30
0.0000000000
10
10.2115710390
20
-20.3755324012
30
0.0000000000
11
11.0114491951
21
-20.3211976496
31
0.0000000000
11
11.0072718570
21
-20.3258815804
31
0.0000000000
11
10.9971721901
21
-20.3305306491
31
0.0000000000
11
10.9812253652
21
-20.3351102531
31
0.0000000000
11
10.9595500732
21
-20.3395863069
31
0.0000000000
11
10.9323076413
21
-20.3439254956
31
0.0000000000
11
10.8997008323
21
-20.3480955229
31
0.0000000000
11
10.8619723359
21
-20.3520653519
31
0.0000000000
11
10.8194029618
21
-20.3558054353
31
0.0000000000
11
10.7723095500
21
-20.3592879361
31
0.0000000000
11
10.7210426124
21
-20.3624869344
31
0.0000000000
11
10.6659837242
21
-20.3653786202
31
0.0000000000
11
10.6075426837
21
-20.3679414711
31
0.0000000000
11
10.5461544623
21
-20.3701564120
31
0.0000000000
11
10.4822759669
21
-20.3720069572
31
0.0000000000
11
10.4163826393
21
-20.3734793334
31
0.0000000000
11
10.3489649176
21
-20.3745625818
31
0.0000000000
11
10.2805245858
21
-20.3752486398
31
0.0000000000
11
10.2115710390
21
-20.3755324012
31
0.0000000000
0
SPLINE
5
278
100
AcDbEntity
8
0
100
AcDbSpline
62
9
6
CONTINUOUS
70
0
71
3
72
28
73
24
74
22
42
0.0000001000
43
0.0000001000
44
0.0000000001
12
0.0007751838
22
-1.3980641882
32
0.0000000000
13
0.5910385239
23
-1.2669875842
33
0.0000000000
40
0.0000000000
40
0.0000000000
40
0.0000000000
40
0.0000000000
40
0.0754674171
40
0.1501925090
40
0.2238027285
40
0.2959294630
40
0.3662120962
40
0.4342994649
40
0.4998508810
40
0.5625386064
40
0.6220491218
40
0.6780850016
40
0.7303659194
40
0.7786305512
40
0.8226374816
40
0.8621668367
40
0.8970210200
40
0.9270259617
40
0.9520318990
40
0.9719145828
40
0.9865760375
40
0.9959468552
40
1.0000000000
40
1.0000000000
40
1.0000000000
40
1.0000000000
10
10.2115710390
20
-20.3755324027
30
0.0000000000
10
10.2115905393
20
-20.4107018337
30
0.0000000000
10
10.2116495227
20
-20.4806947470
30
0.0000000000
10
10.2117985216
20
-20.5849915224
30
0.0000000000
10
10.2120070359
20
-20.6877313635
30
0.0000000000
10
10.2122739758
20
-20.7884007814
30
0.0000000000
10
10.2125980015
20
-20.8864962517
30
0.0000000000
10
10.2129774499
20
-20.9815272606
30
0.0000000000
10
10.2134103850
20
-21.0730186139
30
0.0000000000
10
10.2138945835
20
-21.1605126545
30
0.0000000000
10
10.2144275414
20
-21.2435718848
30
0.0000000000
10
10.2150065122
20
-21.3217808809
30
0.0000000000
10
10.2156283779
20
-21.3947485759
30
0.0000000000
10
10.2162900878
20
-21.4621098416
30
0.0000000000
10
10.2169871730
20
-21.5235281831
30
0.0000000000
10
10.2177184644
20
-21.5786952075
30
0.0000000000
10
10.2184709212
20
-21.6273387700
30
0.0000000000
10
10.2192658273
20
-21.6692042898
30
0.0000000000
10
10.2200205742
20
-21.7041153688
30
0.0000000000
10
10.2209363364
20
-21.7318078537
30
0.0000000000
10
10.2214708872
20
-21.7523711764
30
0.0000000000
10
10.2227311695
20
-21.7652219600
30
0.0000000000
10
10.2227496057
20
-21.7717145220
30
0.0000000000
10
10.2235481273
20
-21.7734262834
30
0.0000000000
11
10.2115710390
21
-20.3755324027
31
0.0000000000
11
10.2116601680
21
-20.4810406744
31
0.0000000000
11
10.2118098057
21
-20.5855110583
31
0.0000000000
11
10.2120192180
21
-20.6884226729
31
0.0000000000
11
10.2122873459
21
-20.7892601364
31
0.0000000000
11
10.2126128551
21
-20.8875192448
31
0.0000000000
11
10.2129941166
21
-20.9827090079
31
0.0000000000
11
10.2134292244
21
-21.0743530763
31
0.0000000000
11
10.2139160028
21
-21.1619932019
31
0.0000000000
11
10.2144520177
21
-21.2451910083
31
0.0000000000
11
10.2150345902
21
-21.3235306112
31
0.0000000000
11
10.2156608060
21
-21.3966200186
31
0.0000000000
11
10.2163275349
21
-21.4640937884
31
0.0000000000
11
10.2170314414
21
-21.5256142844
31
0.0000000000
11
10.2177690069
21
-21.5808739466
31
0.0000000000
11
10.2185365427
21
-21.6295962943
31
0.0000000000
11
10.2193302096
21
-21.6715376266
31
0.0000000000
11
10.2201460390
21
-21.7064880168
31
0.0000000000
11
10.2209799438
21
-21.7342727781
31
0.0000000000
11
10.2218277813
21
-21.7547528941
31
0.0000000000
11
10.2226852385
21
-21.7678258106
31
0.0000000000
11
10.2235481273
21
-21.7734262834
31
0.0000000000
0
SPLINE
5
279
100
AcDbEntity
8
0
100
AcDbSpline
62
9
6
CONTINUOUS
70
0
71
3
72
28
73
24
74
22
42
0.0000001000
43
0.0000001000
44
0.0000000001
12
0.0007756531
22
-0.6527122453
32
0.0000000000
13
0.4614786015
23
-0.4615965524
33
0.0000000000
40
0.0000000000
40
0.0000000000
40
0.0000000000
40
0.0000000000
40
0.0754223315
40
0.1501165116
40
0.2236966219
40
0.2957942783
40
0.3660491092
40
0.4341101913
40
0.4996370827
40
0.5623022969
40
0.6217925769
40
0.6778107753
40
0.7300768684
40
0.7783298738
40
0.8223287732
40
0.8618541795
40
0.8967091598
40
0.9267205884
40
0.9517401679
40
0.9716462114
40
0.9863459729
40
0.9957840884
40
1.0000000000
40
1.0000000000
40
1.0000000000
40
1.0000000000
10
11.0114491951
20
-20.3211976496
30
0.0000000000
10
11.0114686956
20
-20.3376073427
30
0.0000000000
10
11.0115276631
20
-20.3702682843
30
0.0000000000
10
11.0116766582
20
-20.4189379445
30
0.0000000000
10
11.0118851593
20
-20.4668840283
30
0.0000000000
10
11.0121521011
20
-20.5138639344
30
0.0000000000
10
11.0124761232
20
-20.5596426736
30
0.0000000000
10
11.0128555734
20
-20.6039913303
30
0.0000000000
10
11.0132885109
20
-20.6466881380
30
0.0000000000
10
11.0137727136
20
-20.6875195144
30
0.0000000000
10
11.0143056803
20
-20.7262812893
30
0.0000000000
10
11.0148846532
20
-20.7627795856
30
0.0000000000
10
11.0155065541
20
-20.7968319300
30
0.0000000000
10
11.0161682014
20
-20.8282678456
30
0.0000000000
10
11.0168655579
20
-20.8569305951
30
0.0000000000
10
11.0175960757
20
-20.8826753793
30
0.0000000000
10
11.0183510413
20
-20.9053781106
30
0.0000000000
10
11.0191386489
20
-20.9249114830
30
0.0000000000
10
11.0199144070
20
-20.9412186376
30
0.0000000000
10
11.0207751724
20
-20.9541080761
30
0.0000000000
10
11.0214411602
20
-20.9637983413
30
0.0000000000
10
11.0224567548
20
-20.9696524316
30
0.0000000000
10
11.0227777657
20
-20.9728994439
30
0.0000000000
10
11.0234262834
20
-20.9735481273
30
0.0000000000
11
11.0114491951
21
-20.3211976496
31
0.0000000000
11
11.0115383036
21
-20.3704266831
31
0.0000000000
11
11.0116879388
21
-20.4191802938
31
0.0000000000
11
11.0118973431
21
-20.4672065103
31
0.0000000000
11
11.0121654691
21
-20.5142648028
31
0.0000000000
11
11.0124909759
21
-20.5601198683
31
0.0000000000
11
11.0128722377
21
-20.6045425653
31
0.0000000000
11
11.0133073471
21
-20.6473105867
31
0.0000000000
11
11.0137941290
21
-20.6882100715
31
0.0000000000
11
11.0143301487
21
-20.7270364333
31
0.0000000000
11
11.0149127276
21
-20.7635955817
31
0.0000000000
11
11.0155389512
21
-20.7977045767
31
0.0000000000
11
11.0162056893
21
-20.8291928684
31
0.0000000000
11
11.0169096060
21
-20.8579028810
31
0.0000000000
11
11.0176471826
21
-20.8836910703
31
0.0000000000
11
11.0184147299
21
-20.9064284074
31
0.0000000000
11
11.0192084096
21
-20.9260011628
31
0.0000000000
11
11.0200242495
21
-20.9423113688
31
0.0000000000
11
11.0208581723
21
-20.9552775069
31
0.0000000000
11
11.0217060076
21
-20.9648346952
31
0.0000000000
11
11.0225635085
21
-20.9709351008
31
0.0000000000
11
11.0234262834
21
-20.9735481273
31
0.0000000000
0
SPLINE
5
27A
100
AcDbEntity
8
0
100
AcDbSpline
62
9
6
CONTINUOUS
70
0
71
3
72
25
73
21
74
19
42
0.0000001000
43
0.0000001000
44
0.0000000001
12
-0.0003825380
22
-1.2559255494
32
0.0000000000
13
-1.2559255494
23
-0.0003825380
33
0.0000000000
40
0.0000000000
40
0.0000000000
40
0.0000000000
40
0.0000000000
40
0.0555509020
40
0.1111032559
40
0.1666569950
40
0.2222120107
40
0.2777681556
40
0.3333252480
40
0.3888830773
40
0.4444414107
40
0.5000000000
40
0.5555585893
40
0.6111169227
40
0.6666747520
40
0.7222318444
40
0.7777879893
40
0.8333430050
40
0.8888967441
40
0.9444490980
40
1.0000000000
40
1.0000000000
40
1.0000000000
40
1.0000000000
10
11.0234262834
20
-20.9735481273
30
0.0000000000
10
11.0234192000
20
-20.9968040596
30
0.0000000000
10
11.0213739710
20
-21.0433414421
30
0.0000000000
10
11.0122365982
20
-21.1125951051
30
0.0000000000
10
10.9970991684
20
-21.1807964151
30
0.0000000000
10
10.9760768500
20
-21.2474195599
30
0.0000000000
10
10.9493295774
20
-21.3119595659
30
0.0000000000
10
10.9170608375
20
-21.3739249415
30
0.0000000000
10
10.8795161207
20
-21.4328444170
30
0.0000000000
10
10.8369810533
20
-21.4882697248
30
0.0000000000
10
10.7897792246
20
-21.5397792246
30
0.0000000000
10
10.7382697248
20
-21.5869810533
30
0.0000000000
10
10.6828444170
20
-21.6295161207
30
0.0000000000
10
10.6239249415
20
-21.6670608375
30
0.0000000000
10
10.5619595659
20
-21.6993295774
30
0.0000000000
10
10.4974195599
20
-21.7260768500
30
0.0000000000
10
10.4307964151
20
-21.7470991684
30
0.0000000000
10
10.3625951051
20
-21.7622365982
30
0.0000000000
10
10.2933414421
20
-21.7713739710
30
0.0000000000
10
10.2468040596
20
-21.7734192000
30
0.0000000000
10
10.2235481273
20
-21.7734262834
30
0.0000000000
11
11.0234262834
21
-20.9735481273
31
0.0000000000
11
11.0203624552
21
-21.0432486217
31
0.0000000000
11
11.0112367390
21
-21.1124188588
31
0.0000000000
11
10.9961185599
21
-21.1805326154
31
0.0000000000
11
10.9751229319
21
-21.2470717055
31
0.0000000000
11
10.9484095825
21
-21.3115299228
31
0.0000000000
11
10.9161817376
21
-21.3734168913
31
0.0000000000
11
10.8786845754
21
-21.4322617964
31
0.0000000000
11
10.8362033615
21
-21.4876169664
31
0.0000000000
11
10.7890612783
21
-21.5390612783
31
0.0000000000
11
10.7376169664
21
-21.5862033615
31
0.0000000000
11
10.6822617964
21
-21.6286845754
31
0.0000000000
11
10.6234168913
21
-21.6661817376
31
0.0000000000
11
10.5615299228
21
-21.6984095825
31
0.0000000000
11
10.4970717055
21
-21.7251229319
31
0.0000000000
11
10.4305326154
21
-21.7461185599
31
0.0000000000
11
10.3624188588
21
-21.7612367390
31
0.0000000000
11
10.2932486217
21
-21.7703624552
31
0.0000000000
11
10.2235481273
21
-21.7734262834
31
0.0000000000
0
SPLINE
5
27B
100
AcDbEntity
8
0
100
AcDbSpline
62
9
6
CONTINUOUS
70
0
71
3
72
45
73
41
74
39
42
0.0000001000
43
0.0000001000
44
0.0000000001
12
-0.9446380137
22
-4.2166284796
32
0.0000000000
13
-0.9446379949
23
4.2166284838
33
0.0000000000
40
0.0000000000
40
0.0000000000
40
0.0000000000
40
0.0000000000
40
0.0263361000
40
0.0526706590
40
0.0790034287
40
0.1053340861
40
0.1316623926
40
0.1579881975
40
0.1843112788
40
0.2106316435
40
0.2369491466
40
0.2632639103
40
0.2895759243
40
0.3158853819
40
0.3421924383
40
0.3684973294
40
0.3948003659
40
0.4211018217
40
0.4474021132
40
0.4737015618
40
0.5000006213
40
0.5262996627
40
0.5525991146
40
0.5788993788
40
0.6052008177
40
0.6315038218
40
0.6578086731
40
0.6841156926
40
0.7104250885
40
0.7367370580
40
0.7630517424
40
0.7893691876
40
0.8156894611
40
0.8420124656
40
0.8683381720
40
0.8946663790
40
0.9209969325
40
0.9473295802
40
0.9736640285
40
1.0000000000
40
1.0000000000
40
1.0000000000
40
1.0000000000
10
1.5612490537
20
-0.3502334888
30
0.0000000000
10
1.5529563600
20
-0.3872500052
30
0.0000000000
10
1.5337338509
20
-0.4607183064
30
0.0000000000
10
1.4971554124
20
-0.5685704910
30
0.0000000000
10
1.4530136089
20
-0.6735520736
30
0.0000000000
10
1.4015339823
20
-0.7751250688
30
0.0000000000
10
1.3429774532
20
-0.8727783646
30
0.0000000000
10
1.2776412012
20
-0.9660183643
30
0.0000000000
10
1.2058564012
20
-1.0543748401
30
0.0000000000
10
1.1279868577
20
-1.1374021477
30
0.0000000000
10
1.0444267673
20
-1.2146820490
30
0.0000000000
10
0.9555990438
20
-1.2858253461
30
0.0000000000
10
0.8619527644
20
-1.3504741598
30
0.0000000000
10
0.7639612042
20
-1.4083034065
30
0.0000000000
10
0.6621191696
20
-1.4590225566
30
0.0000000000
10
0.5569406363
20
-1.5023769480
30
0.0000000000
10
0.4489561452
20
-1.5381490153
30
0.0000000000
10
0.3387100408
20
-1.5661593662
30
0.0000000000
10
0.2267579629
20
-1.5862675623
30
0.0000000000
10
0.1136638256
20
-1.5983728457
30
0.0000000000
10
-0.0000026895
20
-1.6024145604
30
0.0000000000
10
-0.1136691954
20
-1.5983724622
30
0.0000000000
10
-0.2267632318
20
-1.5862668061
30
0.0000000000
10
-0.3387151847
20
-1.5661582489
30
0.0000000000
10
-0.4489610907
20
-1.5381475657
30
0.0000000000
10
-0.5569453456
20
-1.5023751940
30
0.0000000000
10
-0.6621235989
20
-1.4590205371
30
0.0000000000
10
-0.7639653031
20
-1.4083011714
30
0.0000000000
10
-0.8619565198
20
-1.3504717499
30
0.0000000000
10
-0.9556024035
20
-1.2858228341
30
0.0000000000
10
-1.0444297409
20
-1.2146794750
30
0.0000000000
10
-1.1279894070
20
-1.1373996003
30
0.0000000000
10
-1.2058585480
20
-1.0543723626
30
0.0000000000
10
-1.2776429349
20
-0.9660160469
30
0.0000000000
10
-1.3429788006
20
-0.8727762612
30
0.0000000000
10
-1.4015349686
20
-0.7751232565
30
0.0000000000
10
-1.4530142567
20
-0.6735506187
30
0.0000000000
10
-1.4971558170
20
-0.5685694560
30
0.0000000000
10
-1.5337339027
20
-0.4607177122
30
0.0000000000
10
-1.5529566273
20
-0.3872498247
30
0.0000000000
10
-1.5612492804
20
-0.3502334888
30
0.0000000000
11
1.5612490537
21
-0.3502334888
31
0.0000000000
11
1.5324422363
21
-0.4603293042
31
0.0000000000
11
1.4958934695
21
-0.5680956877
31
0.0000000000
11
1.4517887249
21
-0.6729880978
31
0.0000000000
11
1.4003520495
21
-0.7744762128
31
0.0000000000
11
1.3418445444
21
-0.8720473624
31
0.0000000000
11
1.2765629280
21
-0.9652090959
31
0.0000000000
11
1.2048383911
21
-1.0534910940
31
0.0000000000
11
1.1270340905
21
-1.1364485589
31
0.0000000000
11
1.0435443188
21
-1.2136631656
31
0.0000000000
11
0.9547912243
21
-1.2847464517
31
0.0000000000
11
0.8612238897
21
-1.3493405478
31
0.0000000000
11
0.7633149175
21
-1.4071208608
31
0.0000000000
11
0.6615588447
21
-1.4577970294
31
0.0000000000
11
0.5564692129
21
-1.5011146297
31
0.0000000000
11
0.4485759653
21
-1.5368563503
31
0.0000000000
11
0.3384232318
21
-1.5648428840
31
0.0000000000
11
0.2265658490
21
-1.5849340037
31
0.0000000000
11
0.1135675710
21
-1.5970289858
31
0.0000000000
11
-0.0000027132
21
-1.6010672651
31
0.0000000000
11
-0.1135729060
21
-1.5970286055
31
0.0000000000
11
-0.2265711570
21
-1.5849332431
31
0.0000000000
11
-0.3384283573
21
-1.5648417729
31
0.0000000000
11
-0.4485809288
21
-1.5368548981
31
0.0000000000
11
-0.5564739293
21
-1.5011128771
31
0.0000000000
11
-0.6615632682
21
-1.4577950170
31
0.0000000000
11
-0.7633190465
21
-1.4071186152
31
0.0000000000
11
-0.8612276243
21
-1.3493381577
31
0.0000000000
11
-0.9547946249
21
-1.2847439172
31
0.0000000000
11
-1.0435472712
21
-1.2136606192
31
0.0000000000
11
-1.1270366771
21
-1.1364459852
31
0.0000000000
11
-1.2048405289
21
-1.0534886399
31
0.0000000000
11
-1.2765646861
21
-0.9652067608
31
0.0000000000
11
-1.3418459004
21
-0.8720452654
31
0.0000000000
11
-1.4003530454
21
-0.7744744008
31
0.0000000000
11
-1.4517894008
21
-0.6729866271
31
0.0000000000
11
-1.4958938522
21
-0.5680946658
31
0.0000000000
11
-1.5324424079
21
-0.4603287161
31
0.0000000000
11
-1.5612492804
21
-0.3502334888
31
0.0000000000
0
SPLINE
5
27C
100
AcDbEntity
8
0
100
AcDbSpline
62
9
6
CONTINUOUS
70
0
71
3
72
25
73
21
74
19
42
0.0000001000
43
0.0000001000
44
0.0000000001
12
0.0003825380
22
1.2559255494
32
0.0000000000
13
1.2559255494
23
0.0003825380
33
0.0000000000
40
0.0000000000
40
0.0000000000
40
0.0000000000
40
0.0000000000
40
0.0555509020
40
0.1111032559
40
0.1666569950
40
0.2222120107
40
0.2777681556
40
0.3333252480
40
0.3888830773
40
0.4444414107
40
0.5000000000
40
0.5555585893
40
0.6111169227
40
0.6666747520
40
0.7222318444
40
0.7777879893
40
0.8333430050
40
0.8888967441
40
0.9444490980
40
1.0000000000
40
1.0000000000
40
1.0000000000
40
1.0000000000
10
-11.0234262834
20
20.9735481273
30
0.0000000000
10
-11.0234192000
20
20.9968040596
30
0.0000000000
10
-11.0213739710
20
21.0433414421
30
0.0000000000
10
-11.0122365982
20
21.1125951051
30
0.0000000000
10
-10.9970991684
20
21.1807964151
30
0.0000000000
10
-10.9760768500
20
21.2474195599
30
0.0000000000
10
-10.9493295774
20
21.3119595659
30
0.0000000000
10
-10.9170608375
20
21.3739249415
30
0.0000000000
10
-10.8795161207
20
21.4328444171
30
0.0000000000
10
-10.8369810533
20
21.4882697248
30
0.0000000000
10
-10.7897792246
20
21.5397792246
30
0.0000000000
10
-10.7382697248
20
21.5869810533
30
0.0000000000
10
-10.6828444171
20
21.6295161207
30
0.0000000000
10
-10.6239249415
20
21.6670608375
30
0.0000000000
10
-10.5619595659
20
21.6993295774
30
0.0000000000
10
-10.4974195599
20
21.7260768500
30
0.0000000000
10
-10.4307964151
20
21.7470991684
30
0.0000000000
10
-10.3625951051
20
21.7622365982
30
0.0000000000
10
-10.2933414421
20
21.7713739710
30
0.0000000000
10
-10.2468040596
20
21.7734192000
30
0.0000000000
10
-10.2235481273
20
21.7734262834
30
0.0000000000
11
-11.0234262834
21
20.9735481273
31
0.0000000000
11
-11.0203624552
21
21.0432486217
31
0.0000000000
11
-11.0112367390
21
21.1124188588
31
0.0000000000
11
-10.9961185599
21
21.1805326154
31
0.0000000000
11
-10.9751229319
21
21.2470717055
31
0.0000000000
11
-10.9484095825
21
21.3115299228
31
0.0000000000
11
-10.9161817376
21
21.3734168913
31
0.0000000000
11
-10.8786845754
21
21.4322617964
31
0.0000000000
11
-10.8362033615
21
21.4876169664
31
0.0000000000
11
-10.7890612783
21
21.5390612783
31
0.0000000000
11
-10.7376169664
21
21.5862033615
31
0.0000000000
11
-10.6822617964
21
21.6286845754
31
0.0000000000
11
-10.6234168913
21
21.6661817376
31
0.0000000000
11
-10.5615299228
21
21.6984095825
31
0.0000000000
11
-10.4970717055
21
21.7251229319
31
0.0000000000
11
-10.4305326154
21
21.7461185599
31
0.0000000000
11
-10.3624188588
21
21.7612367390
31
0.0000000000
11
-10.2932486217
21
21.7703624552
31
0.0000000000
11
-10.2235481273
21
21.7734262834
31
0.0000000000
0
SPLINE
5
27D
100
AcDbEntity
8
0
100
AcDbSpline
62
9
6
CONTINUOUS
70
0
71
3
72
28
73
24
74
22
42
0.0000001000
43
0.0000001000
44
0.0000000001
12
-0.0007756460
22
0.6527122468
32
0.0000000000
13
-0.4614703312
23
0.4616048226
33
0.0000000000
40
0.0000000000
40
0.0000000000
40
0.0000000000
40
0.0000000000
40
0.0754258857
40
0.1501200790
40
0.2237001797
40
0.2957978137
40
0.3660525974
40
0.4341136131
40
0.4996404191
40
0.5623055280
40
0.6217956789
40
0.6778137076
40
0.7300795900
40
0.7783323500
40
0.8223309806
40
0.8618561130
40
0.8967108183
40
0.9267219729
40
0.9517412794
40
0.9716470533
40
0.9863465458
40
0.9957844110
40
1.0000000000
40
1.0000000000
40
1.0000000000
40
1.0000000000
10
-11.0114491951
20
20.3211976496
30
0.0000000000
10
-11.0114686964
20
20.3376081161
30
0.0000000000
10
-11.0115276666
20
20.3702698339
30
0.0000000000
10
-11.0116766667
20
20.4189402683
30
0.0000000000
10
-11.0118851709
20
20.4668863480
30
0.0000000000
10
-11.0121521157
20
20.5138662370
30
0.0000000000
10
-11.0124761409
20
20.5596449467
30
0.0000000000
10
-11.0128555941
20
20.6039935602
30
0.0000000000
10
-11.0132885347
20
20.6466903119
30
0.0000000000
10
-11.0137727405
20
20.6875216188
30
0.0000000000
10
-11.0143057101
20
20.7262833058
30
0.0000000000
10
-11.0148846856
20
20.7627814913
30
0.0000000000
10
-11.0155065888
20
20.7968336996
30
0.0000000000
10
-11.0161682379
20
20.8282694575
30
0.0000000000
10
-11.0168655958
20
20.8569320355
30
0.0000000000
10
-11.0175961144
20
20.8826766418
30
0.0000000000
10
-11.0183510811
20
20.9053791938
30
0.0000000000
10
-11.0191386879
20
20.9249123880
30
0.0000000000
10
-11.0199144496
20
20.9412193624
30
0.0000000000
10
-11.0207752051
20
20.9541086304
30
0.0000000000
10
-11.0214412144
20
20.9637987078
30
0.0000000000
10
-11.0224567558
20
20.9696526489
30
0.0000000000
10
-11.0227778270
20
20.9728994819
30
0.0000000000
10
-11.0234262834
20
20.9735481273
30
0.0000000000
11
-11.0114491951
21
20.3211976496
31
0.0000000000
11
-11.0115383093
21
20.3704290031
31
0.0000000000
11
-11.0116879474
21
20.4191826225
31
0.0000000000
11
-11.0118973547
21
20.4672088328
31
0.0000000000
11
-11.0121654838
21
20.5142671108
31
0.0000000000
11
-11.0124909937
21
20.5601221456
31
0.0000000000
11
-11.0128722586
21
20.6045447993
31
0.0000000000
11
-11.0133073711
21
20.6473127650
31
0.0000000000
11
-11.0137941560
21
20.6882121811
31
0.0000000000
11
-11.0143301788
21
20.7270384587
31
0.0000000000
11
-11.0149127603
21
20.7635974964
31
0.0000000000
11
-11.0155389863
21
20.7977063538
31
0.0000000000
11
-11.0162057261
21
20.8291944854
31
0.0000000000
11
-11.0169096441
21
20.8579043226
31
0.0000000000
11
-11.0176472218
21
20.8836923330
31
0.0000000000
11
-11.0184147699
21
20.9064294905
31
0.0000000000
11
-11.0192084502
21
20.9260020670
31
0.0000000000
11
-11.0200242905
21
20.9423120945
31
0.0000000000
11
-11.0208582134
21
20.9552780563
31
0.0000000000
11
-11.0217060486
21
20.9648350684
31
0.0000000000
11
-11.0225635492
21
20.9709353090
31
0.0000000000
11
-11.0234262834
21
20.9735481273
31
0.0000000000
0
SPLINE
5
27E
100
AcDbEntity
8
0
100
AcDbSpline
62
9
6
CONTINUOUS
70
0
71
3
72
28
73
24
74
22
42
0.0000001000
43
0.0000001000
44
0.0000000001
12
-0.0007751169
22
1.3980641876
32
0.0000000000
13
-0.5910541296
23
1.2669803035
33
0.0000000000
40
0.0000000000
40
0.0000000000
40
0.0000000000
40
0.0000000000
40
0.0754674358
40
0.1501925268
40
0.2238027434
40
0.2959294803
40
0.3662121112
40
0.4342994783
40
0.4998508945
40
0.5625386204
40
0.6220491347
40
0.6780850136
40
0.7303659306
40
0.7786305619
40
0.8226374917
40
0.8621668452
40
0.8970210272
40
0.9270259685
40
0.9520319052
40
0.9719145871
40
0.9865760410
40
0.9959468575
40
1.0000000000
40
1.0000000000
40
1.0000000000
40
1.0000000000
10
-10.2115710390
20
20.3755324027
30
0.0000000000
10
-10.2115905377
20
20.4107018425
30
0.0000000000
10
-10.2116495247
20
20.4806947640
30
0.0000000000
10
-10.2117985214
20
20.5849915463
30
0.0000000000
10
-10.2120070375
20
20.6877313867
30
0.0000000000
10
-10.2122739770
20
20.7884008032
30
0.0000000000
10
-10.2125980034
20
20.8864962727
30
0.0000000000
10
-10.2129774521
20
20.9815272799
30
0.0000000000
10
-10.2134103876
20
21.0730186326
30
0.0000000000
10
-10.2138945865
20
21.1605126730
30
0.0000000000
10
-10.2144275449
20
21.2435719026
30
0.0000000000
10
-10.2150065160
20
21.3217808973
30
0.0000000000
10
-10.2156283821
20
21.3947485912
30
0.0000000000
10
-10.2162900922
20
21.4621098560
30
0.0000000000
10
-10.2169871773
20
21.5235281962
30
0.0000000000
10
-10.2177184689
20
21.5786952189
30
0.0000000000
10
-10.2184709251
20
21.6273387799
30
0.0000000000
10
-10.2192658329
20
21.6692042982
30
0.0000000000
10
-10.2200205750
20
21.7041153774
30
0.0000000000
10
-10.2209363489
20
21.7318078568
30
0.0000000000
10
-10.2214708732
20
21.7523711872
30
0.0000000000
10
-10.2227312025
20
21.7652219505
30
0.0000000000
10
-10.2227495851
20
21.7717145328
30
0.0000000000
10
-10.2235481273
20
21.7734262834
30
0.0000000000
11
-10.2115710390
21
20.3755324027
31
0.0000000000
11
-10.2116601688
21
20.4810407006
31
0.0000000000
11
-10.2118098062
21
20.5855110831
31
0.0000000000
11
-10.2120192192
21
20.6884226935
31
0.0000000000
11
-10.2122873473
21
20.7892601604
31
0.0000000000
11
-10.2126128569
21
20.8875192655
31
0.0000000000
11
-10.2129941188
21
20.9827090263
31
0.0000000000
11
-10.2134292270
21
21.0743530948
31
0.0000000000
11
-10.2139160059
21
21.1619932211
31
0.0000000000
11
-10.2144520212
21
21.2451910261
31
0.0000000000
11
-10.2150345941
21
21.3235306274
31
0.0000000000
11
-10.2156608102
21
21.3966200338
31
0.0000000000
11
-10.2163275393
21
21.4640938028
31
0.0000000000
11
-10.2170314458
21
21.5256142980
31
0.0000000000
11
-10.2177690113
21
21.5808739579
31
0.0000000000
11
-10.2185365470
21
21.6295963038
31
0.0000000000
11
-10.2193302139
21
21.6715376354
31
0.0000000000
11
-10.2201460431
21
21.7064880250
31
0.0000000000
11
-10.2209799481
21
21.7342727835
31
0.0000000000
11
-10.2218277845
21
21.7547528985
31
0.0000000000
11
-10.2226852433
21
21.7678258131
31
0.0000000000
11
-10.2235481273
21
21.7734262834
31
0.0000000000
0
SPLINE
5
27F
100
AcDbEntity
8
0
100
AcDbSpline
62
9
6
CONTINUOUS
70
0
71
3
72
25
73
21
74
19
42
0.0000001000
43
0.0000001000
44
0.0000000001
12
0.2000155516
22
0.7803078693
32
0.0000000000
13
0.8055344089
23
0.0009527725
33
0.0000000000
40
0.0000000000
40
0.0000000000
40
0.0000000000
40
0.0000000000
40
0.0077912125
40
0.0215936212
40
0.0421903468
40
0.0696660384
40
0.1039114061
40
0.1447195364
40
0.1918146686
40
0.2448643298
40
0.3034862411
40
0.3672533640
40
0.4356982775
40
0.5083173578
40
0.5845749620
40
0.6639077001
40
0.7457288228
40
0.8294327294
40
0.9143995812
40
1.0000000000
40
1.0000000000
40
1.0000000000
40
1.0000000000
10
-11.0114491951
20
20.3211976496
30
0.0000000000
10
-11.0109297405
20
20.3232241644
30
0.0000000000
10
-11.0059047667
20
20.3272604083
30
0.0000000000
10
-10.9956102472
20
20.3313160910
30
0.0000000000
10
-10.9794414390
20
20.3357856998
30
0.0000000000
10
-10.9578032714
20
20.3400666353
30
0.0000000000
10
-10.9305783328
20
20.3443234054
30
0.0000000000
10
-10.8980396226
20
20.3484141345
30
0.0000000000
10
-10.8603908262
20
20.3523306171
30
0.0000000000
10
-10.8179197439
20
20.3560265409
30
0.0000000000
10
-10.7709373436
20
20.3594743663
30
0.0000000000
10
-10.7197935198
20
20.3626449276
30
0.0000000000
10
-10.6648680524
20
20.3655134119
30
0.0000000000
10
-10.6065695129
20
20.3680572824
30
0.0000000000
10
-10.5453315594
20
20.3702568776
30
0.0000000000
10
-10.4816098356
20
20.3720952761
30
0.0000000000
10
-10.4158785051
20
20.3735584131
30
0.0000000000
10
-10.3486267086
20
20.3746351298
30
0.0000000000
10
-10.2803549583
20
20.3753172359
30
0.0000000000
10
-10.2345557332
20
20.3755052159
30
0.0000000000
10
-10.2115710390
20
20.3755324018
30
0.0000000000
11
-11.0114491951
21
20.3211976496
31
0.0000000000
11
-11.0072718575
21
20.3258815804
31
0.0000000000
11
-10.9971721910
21
20.3305306492
31
0.0000000000
11
-10.9812253665
21
20.3351102533
31
0.0000000000
11
-10.9595500748
21
20.3395863071
31
0.0000000000
11
-10.9323076430
21
20.3439254958
31
0.0000000000
11
-10.8997008343
21
20.3480955232
31
0.0000000000
11
-10.8619723379
21
20.3520653522
31
0.0000000000
11
-10.8194029639
21
20.3558054356
31
0.0000000000
11
-10.7723095520
21
20.3592879365
31
0.0000000000
11
-10.7210426143
21
20.3624869348
31
0.0000000000
11
-10.6659837260
21
20.3653786207
31
0.0000000000
11
-10.6075426854
21
20.3679414716
31
0.0000000000
11
-10.5461544637
21
20.3701564125
31
0.0000000000
11
-10.4822759681
21
20.3720069578
31
0.0000000000
11
-10.4163826402
21
20.3734793340
31
0.0000000000
11
-10.3489649182
21
20.3745625824
31
0.0000000000
11
-10.2805245861
21
20.3752486404
31
0.0000000000
11
-10.2115710390
21
20.3755324018
31
0.0000000000
0
SPLINE
5
280
100
AcDbEntity
8
0
100
AcDbSpline
62
9
6
CONTINUOUS
70
0
71
3
72
14
73
10
74
8
42
0.0000001000
43
0.0000001000
44
0.0000000001
12
-0.0004077843
22
19.9712023956
32
0.0000000000
13
-0.0237310545
23
19.9711883004
33
0.0000000000
40
0.0000000000
40
0.0000000000
40
0.0000000000
40
0.0000000000
40
0.1429655687
40
0.2859169389
40
0.4288407123
40
0.5717238953
40
0.7145534968
40
0.8573164812
40
1.0000000000
40
1.0000000000
40
1.0000000000
40
1.0000000000
10
-10.9993932438
20
0.3500000000
30
0.0000000000
10
-10.9994126768
20
1.3017314358
30
0.0000000000
10
-10.9996100596
20
3.2050997879
30
0.0000000000
10
-11.0003816832
20
6.0599212502
30
0.0000000000
10
-11.0016287820
20
8.9141940984
30
0.0000000000
10
-11.0033512425
20
11.7676560767
30
0.0000000000
10
-11.0055489077
20
14.6200473449
30
0.0000000000
10
-11.0082215795
20
17.4711090282
30
0.0000000000
10
-11.0103205183
20
19.3713445091
30
0.0000000000
10
-11.0114491951
20
20.3211976496
30
0.0000000000
11
-10.9993932438
21
0.3500000000
31
0.0000000000
11
-10.9996893459
21
3.2051942925
31
0.0000000000
11
-11.0004610288
21
6.0601049362
31
0.0000000000
11
-11.0017082222
21
8.9144642701
31
0.0000000000
11
-11.0034308133
21
11.7680127175
31
0.0000000000
11
-11.0056286457
21
14.6204907520
31
0.0000000000
11
-11.0083015196
21
17.4716379549
31
0.0000000000
11
-11.0114491951
21
20.3211976496
31
0.0000000000
0
SPLINE
5
281
100
AcDbEntity
8
0
100
AcDbSpline
62
9
6
CONTINUOUS
70
0
71
3
72
14
73
10
74
8
42
0.0000001000
43
0.0000001000
44
0.0000000001
12
-0.0004069825
22
20.0253036598
32
0.0000000000
13
-0.0237318869
23
20.0252896017
33
0.0000000000
40
0.0000000000
40
0.0000000000
40
0.0000000000
40
0.0000000000
40
0.1429660145
40
0.2859174215
40
0.4288412086
40
0.5717243652
40
0.7145538839
40
0.8573167609
40
1.0000000000
40
1.0000000000
40
1.0000000000
40
1.0000000000
10
-10.1994123651
20
0.3502334887
30
0.0000000000
10
-10.1994317600
20
1.3045461067
30
0.0000000000
10
-10.1997794489
20
3.2130738183
30
0.0000000000
10
-10.2004905800
20
6.0756322094
30
0.0000000000
10
-10.2017538371
20
8.9376373393
30
0.0000000000
10
-10.2034719647
20
11.7988286082
30
0.0000000000
10
-10.2056708283
20
14.6589454597
30
0.0000000000
10
-10.2083432501
20
17.5177274357
30
0.0000000000
10
-10.2104423248
20
19.4231080079
30
0.0000000000
10
-10.2115710390
20
20.3755324027
30
0.0000000000
11
-10.1994123651
21
0.3502334887
31
0.0000000000
11
-10.1998110792
21
3.2131713158
31
0.0000000000
11
-10.2005826992
21
6.0758165458
31
0.0000000000
11
-10.2018298631
21
8.9379085106
31
0.0000000000
11
-10.2035524575
21
11.7991865923
31
0.0000000000
11
-10.2057503254
21
14.6593902323
31
0.0000000000
11
-10.2084232671
21
17.5182589458
31
0.0000000000
11
-10.2115710390
21
20.3755324027
31
0.0000000000
0
SPLINE
5
282
100
AcDbEntity
8
0
100
AcDbSpline
62
9
6
CONTINUOUS
70
0
71
3
72
14
73
10
74
8
42
0.0000001000
43
0.0000001000
44
0.0000000001
12
0.0237318868
22
20.0252896016
32
0.0000000000
13
0.0004069825
23
20.0253036597
33
0.0000000000
40
0.0000000000
40
0.0000000000
40
0.0000000000
40
0.0000000000
40
0.1426832391
40
0.2854461161
40
0.4282756348
40
0.5711587914
40
0.7140825785
40
0.8570339855
40
1.0000000000
40
1.0000000000
40
1.0000000000
40
1.0000000000
10
-10.2115710390
20
-20.3755324027
30
0.0000000000
10
-10.2104423248
20
-19.4231080079
30
0.0000000000
10
-10.2083432506
20
-17.5177274356
30
0.0000000000
10
-10.2056708266
20
-14.6589454596
30
0.0000000000
10
-10.2034719710
20
-11.7988286082
30
0.0000000000
10
-10.2017538137
20
-8.9376373393
30
0.0000000000
10
-10.2004906673
20
-6.0756322093
30
0.0000000000
10
-10.1997791231
20
-3.2130738184
30
0.0000000000
10
-10.1994324621
20
-1.3045461067
30
0.0000000000
10
-10.1994130672
20
-0.3502334887
30
0.0000000000
11
-10.2115710390
21
-20.3755324027
31
0.0000000000
11
-10.2084232671
21
-17.5182589458
31
0.0000000000
11
-10.2057503254
21
-14.6593902322
31
0.0000000000
11
-10.2035524575
21
-11.7991865922
31
0.0000000000
11
-10.2018298631
21
-8.9379085106
31
0.0000000000
11
-10.2005826992
21
-6.0758165458
31
0.0000000000
11
-10.1998110792
21
-3.2131713158
31
0.0000000000
11
-10.1994130672
21
-0.3502334887
31
0.0000000000
0
SPLINE
5
283
100
AcDbEntity
8
0
100
AcDbSpline
62
9
6
CONTINUOUS
70
0
71
3
72
25
73
21
74
19
42
0.0000001000
43
0.0000001000
44
0.0000000001
12
0.2000154147
22
-0.7803079049
32
0.0000000000
13
0.8055344094
23
-0.0009527726
33
0.0000000000
40
0.0000000000
40
0.0000000000
40
0.0000000000
40
0.0000000000
40
0.0077912118
40
0.0215936197
40
0.0421903447
40
0.0696660356
40
0.1039114029
40
0.1447195327
40
0.1918146647
40
0.2448643259
40
0.3034862371
40
0.3672533602
40
0.4356982739
40
0.5083173545
40
0.5845749592
40
0.6639076977
40
0.7457288209
40
0.8294327281
40
0.9143995806
40
1.0000000000
40
1.0000000000
40
1.0000000000
40
1.0000000000
10
-11.0114491951
20
-20.3211976496
30
0.0000000000
10
-11.0109297409
20
-20.3232241643
30
0.0000000000
10
-11.0059047676
20
-20.3272604085
30
0.0000000000
10
-10.9956102487
20
-20.3313160910
30
0.0000000000
10
-10.9794414411
20
-20.3357857000
30
0.0000000000
10
-10.9578032740
20
-20.3400666356
30
0.0000000000
10
-10.9305783358
20
-20.3443234057
30
0.0000000000
10
-10.8980396259
20
-20.3484141348
30
0.0000000000
10
-10.8603908297
20
-20.3523306175
30
0.0000000000
10
-10.8179197474
20
-20.3560265413
30
0.0000000000
10
-10.7709373471
20
-20.3594743668
30
0.0000000000
10
-10.7197935232
20
-20.3626449281
30
0.0000000000
10
-10.6648680555
20
-20.3655134125
30
0.0000000000
10
-10.6065695157
20
-20.3680572831
30
0.0000000000
10
-10.5453315619
20
-20.3702568782
30
0.0000000000
10
-10.4816098377
20
-20.3720952768
30
0.0000000000
10
-10.4158785067
20
-20.3735584138
30
0.0000000000
10
-10.3486267097
20
-20.3746351306
30
0.0000000000
10
-10.2803549589
20
-20.3753172368
30
0.0000000000
10
-10.2345557334
20
-20.3755052168
30
0.0000000000
10
-10.2115710390
20
-20.3755324027
30
0.0000000000
11
-11.0114491951
21
-20.3211976496
31
0.0000000000
11
-11.0072718583
21
-20.3258815805
31
0.0000000000
11
-10.9971721925
21
-20.3305306493
31
0.0000000000
11
-10.9812253686
21
-20.3351102534
31
0.0000000000
11
-10.9595500774
21
-20.3395863073
31
0.0000000000
11
-10.9323076461
21
-20.3439254960
31
0.0000000000
11
-10.8997008376
21
-20.3480955235
31
0.0000000000
11
-10.8619723414
21
-20.3520653525
31
0.0000000000
11
-10.8194029674
21
-20.3558054361
31
0.0000000000
11
-10.7723095555
21
-20.3592879370
31
0.0000000000
11
-10.7210426177
21
-20.3624869353
31
0.0000000000
11
-10.6659837292
21
-20.3653786213
31
0.0000000000
11
-10.6075426882
21
-20.3679414723
31
0.0000000000
11
-10.5461544662
21
-20.3701564132
31
0.0000000000
11
-10.4822759702
21
-20.3720069586
31
0.0000000000
11
-10.4163826418
21
-20.3734793348
31
0.0000000000
11
-10.3489649193
21
-20.3745625832
31
0.0000000000
11
-10.2805245867
21
-20.3752486413
31
0.0000000000
11
-10.2115710390
21
-20.3755324027
31
0.0000000000
0
SPLINE
5
284
100
AcDbEntity
8
0
100
AcDbSpline
62
9
6
CONTINUOUS
70
0
71
3
72
14
73
10
74
8
42
0.0000001000
43
0.0000001000
44
0.0000000001
12
0.0237310544
22
19.9711883004
32
0.0000000000
13
0.0004077843
23
19.9712023956
33
0.0000000000
40
0.0000000000
40
0.0000000000
40
0.0000000000
40
0.0000000000
40
0.1426835130
40
0.2854464979
40
0.4282761006
40
0.5711592846
40
0.7140830591
40
0.8570344303
40
1.0000000000
40
1.0000000000
40
1.0000000000
40
1.0000000000
10
-11.0114491951
20
-20.3211976496
30
0.0000000000
10
-11.0103205184
20
-19.3713445479
30
0.0000000000
10
-11.0082215796
20
-17.4711091017
30
0.0000000000
10
-11.0055489077
20
-14.6200474458
30
0.0000000000
10
-11.0033512425
20
-11.7676561594
30
0.0000000000
10
-11.0016287820
20
-8.9141941601
30
0.0000000000
10
-11.0003816832
20
-6.0599212914
30
0.0000000000
10
-10.9996100596
20
-3.2050998085
30
0.0000000000
10
-10.9994126768
20
-1.3017314426
30
0.0000000000
10
-10.9993932438
20
-0.3500000000
30
0.0000000000
11
-11.0114491951
21
-20.3211976496
31
0.0000000000
11
-11.0083015197
21
-17.4716380712
31
0.0000000000
11
-11.0056286458
21
-14.6204908562
31
0.0000000000
11
-11.0034308134
21
-11.7680127998
31
0.0000000000
11
-11.0017082223
21
-8.9144643318
31
0.0000000000
11
-11.0004610288
21
-6.0601049774
31
0.0000000000
11
-10.9996893459
21
-3.2051943131
31
0.0000000000
11
-10.9993932438
21
-0.3500000000
31
0.0000000000
0
SPLINE
5
285
100
AcDbEntity
8
0
100
AcDbSpline
62
9
6
CONTINUOUS
70
0
71
3
72
28
73
24
74
22
42
0.0000001000
43
0.0000001000
44
0.0000000001
12
0.4614786011
22
0.4615965528
32
0.0000000000
13
0.0007756531
23
0.6527122453
33
0.0000000000
40
0.0000000000
40
0.0000000000
40
0.0000000000
40
0.0000000000
40
0.0042159116
40
0.0136540271
40
0.0283537886
40
0.0482598321
40
0.0732794116
40
0.1032908402
40
0.1381458205
40
0.1776712268
40
0.2216701262
40
0.2699231316
40
0.3221892247
40
0.3782074231
40
0.4376977031
40
0.5003629173
40
0.5658898087
40
0.6339508908
40
0.7042057217
40
0.7763033781
40
0.8498834884
40
0.9245776685
40
1.0000000000
40
1.0000000000
40
1.0000000000
40
1.0000000000
10
-11.0234262834
20
-20.9735481273
30
0.0000000000
10
-11.0227777657
20
-20.9728994438
30
0.0000000000
10
-11.0224567548
20
-20.9696524316
30
0.0000000000
10
-11.0214411602
20
-20.9637983413
30
0.0000000000
10
-11.0207751724
20
-20.9541080761
30
0.0000000000
10
-11.0199144070
20
-20.9412186376
30
0.0000000000
10
-11.0191386489
20
-20.9249114830
30
0.0000000000
10
-11.0183510413
20
-20.9053781106
30
0.0000000000
10
-11.0175960757
20
-20.8826753793
30
0.0000000000
10
-11.0168655579
20
-20.8569305951
30
0.0000000000
10
-11.0161682014
20
-20.8282678456
30
0.0000000000
10
-11.0155065541
20
-20.7968319300
30
0.0000000000
10
-11.0148846532
20
-20.7627795856
30
0.0000000000
10
-11.0143056803
20
-20.7262812893
30
0.0000000000
10
-11.0137727136
20
-20.6875195144
30
0.0000000000
10
-11.0132885109
20
-20.6466881380
30
0.0000000000
10
-11.0128555734
20
-20.6039913303
30
0.0000000000
10
-11.0124761232
20
-20.5596426736
30
0.0000000000
10
-11.0121521011
20
-20.5138639344
30
0.0000000000
10
-11.0118851593
20
-20.4668840283
30
0.0000000000
10
-11.0116766582
20
-20.4189379445
30
0.0000000000
10
-11.0115276631
20
-20.3702682843
30
0.0000000000
10
-11.0114686956
20
-20.3376073427
30
0.0000000000
10
-11.0114491951
20
-20.3211976496
30
0.0000000000
11
-11.0234262834
21
-20.9735481273
31
0.0000000000
11
-11.0225635085
21
-20.9709351008
31
0.0000000000
11
-11.0217060076
21
-20.9648346952
31
0.0000000000
11
-11.0208581723
21
-20.9552775069
31
0.0000000000
11
-11.0200242495
21
-20.9423113688
31
0.0000000000
11
-11.0192084096
21
-20.9260011628
31
0.0000000000
11
-11.0184147299
21
-20.9064284074
31
0.0000000000
11
-11.0176471826
21
-20.8836910703
31
0.0000000000
11
-11.0169096060
21
-20.8579028810
31
0.0000000000
11
-11.0162056893
21
-20.8291928684
31
0.0000000000
11
-11.0155389512
21
-20.7977045767
31
0.0000000000
11
-11.0149127276
21
-20.7635955817
31
0.0000000000
11
-11.0143301487
21
-20.7270364333
31
0.0000000000
11
-11.0137941290
21
-20.6882100715
31
0.0000000000
11
-11.0133073471
21
-20.6473105867
31
0.0000000000
11
-11.0128722377
21
-20.6045425653
31
0.0000000000
11
-11.0124909759
21
-20.5601198683
31
0.0000000000
11
-11.0121654691
21
-20.5142648028
31
0.0000000000
11
-11.0118973431
21
-20.4672065103
31
0.0000000000
11
-11.0116879388
21
-20.4191802938
31
0.0000000000
11
-11.0115383036
21
-20.3704266831
31
0.0000000000
11
-11.0114491951
21
-20.3211976496
31
0.0000000000
0
SPLINE
5
286
100
AcDbEntity
8
0
100
AcDbSpline
62
9
6
CONTINUOUS
70
0
71
3
72
28
73
24
74
22
42
0.0000001000
43
0.0000001000
44
0.0000000001
12
0.5910385244
22
1.2669875840
32
0.0000000000
13
0.0007751838
23
1.3980641882
33
0.0000000000
40
0.0000000000
40
0.0000000000
40
0.0000000000
40
0.0000000000
40
0.0040531448
40
0.0134239625
40
0.0280854172
40
0.0479681010
40
0.0729740383
40
0.1029789800
40
0.1378331633
40
0.1773625184
40
0.2213694488
40
0.2696340806
40
0.3219149984
40
0.3779508782
40
0.4374613936
40
0.5001491190
40
0.5657005351
40
0.6337879038
40
0.7040705370
40
0.7761972715
40
0.8498074910
40
0.9245325829
40
1.0000000000
40
1.0000000000
40
1.0000000000
40
1.0000000000
10
-10.2235481273
20
-21.7734262834
30
0.0000000000
10
-10.2227496057
20
-21.7717145220
30
0.0000000000
10
-10.2227311695
20
-21.7652219600
30
0.0000000000
10
-10.2214708872
20
-21.7523711764
30
0.0000000000
10
-10.2209363364
20
-21.7318078537
30
0.0000000000
10
-10.2200205742
20
-21.7041153688
30
0.0000000000
10
-10.2192658273
20
-21.6692042898
30
0.0000000000
10
-10.2184709212
20
-21.6273387700
30
0.0000000000
10
-10.2177184644
20
-21.5786952075
30
0.0000000000
10
-10.2169871730
20
-21.5235281831
30
0.0000000000
10
-10.2162900878
20
-21.4621098416
30
0.0000000000
10
-10.2156283779
20
-21.3947485759
30
0.0000000000
10
-10.2150065122
20
-21.3217808809
30
0.0000000000
10
-10.2144275414
20
-21.2435718848
30
0.0000000000
10
-10.2138945835
20
-21.1605126545
30
0.0000000000
10
-10.2134103850
20
-21.0730186139
30
0.0000000000
10
-10.2129774499
20
-20.9815272606
30
0.0000000000
10
-10.2125980015
20
-20.8864962517
30
0.0000000000
10
-10.2122739758
20
-20.7884007814
30
0.0000000000
10
-10.2120070359
20
-20.6877313635
30
0.0000000000
10
-10.2117985216
20
-20.5849915224
30
0.0000000000
10
-10.2116495227
20
-20.4806947470
30
0.0000000000
10
-10.2115905393
20
-20.4107018337
30
0.0000000000
10
-10.2115710390
20
-20.3755324027
30
0.0000000000
11
-10.2235481273
21
-21.7734262834
31
0.0000000000
11
-10.2226852385
21
-21.7678258106
31
0.0000000000
11
-10.2218277813
21
-21.7547528941
31
0.0000000000
11
-10.2209799438
21
-21.7342727781
31
0.0000000000
11
-10.2201460390
21
-21.7064880168
31
0.0000000000
11
-10.2193302096
21
-21.6715376266
31
0.0000000000
11
-10.2185365427
21
-21.6295962943
31
0.0000000000
11
-10.2177690069
21
-21.5808739466
31
0.0000000000
11
-10.2170314414
21
-21.5256142844
31
0.0000000000
11
-10.2163275349
21
-21.4640937884
31
0.0000000000
11
-10.2156608060
21
-21.3966200186
31
0.0000000000
11
-10.2150345902
21
-21.3235306112
31
0.0000000000
11
-10.2144520177
21
-21.2451910083
31
0.0000000000
11
-10.2139160028
21
-21.1619932019
31
0.0000000000
11
-10.2134292244
21
-21.0743530763
31
0.0000000000
11
-10.2129941166
21
-20.9827090079
31
0.0000000000
11
-10.2126128551
21
-20.8875192448
31
0.0000000000
11
-10.2122873459
21
-20.7892601364
31
0.0000000000
11
-10.2120192180
21
-20.6884226729
31
0.0000000000
11
-10.2118098057
21
-20.5855110583
31
0.0000000000
11
-10.2116601680
21
-20.4810406744
31
0.0000000000
11
-10.2115710390
21
-20.3755324027
31
0.0000000000
0
SPLINE
5
287
100
AcDbEntity
8
0
100
AcDbSpline
62
9
6
CONTINUOUS
70
0
71
3
72
25
73
21
74
19
42
0.0000001000
43
0.0000001000
44
0.0000000001
12
0.0003825380
22
-1.2559255494
32
0.0000000000
13
1.2559255494
23
-0.0003825380
33
0.0000000000
40
0.0000000000
40
0.0000000000
40
0.0000000000
40
0.0000000000
40
0.0555509015
40
0.1111032549
40
0.1666569937
40
0.2222120092
40
0.2777681538
40
0.3333252460
40
0.3888830752
40
0.4444414086
40
0.4999999980
40
0.5555585874
40
0.6111169209
40
0.6666747504
40
0.7222318429
40
0.7777879881
40
0.8333430041
40
0.8888967435
40
0.9444490977
40
1.0000000000
40
1.0000000000
40
1.0000000000
40
1.0000000000
10
-11.0234262834
20
-20.9735481273
30
0.0000000000
10
-11.0234192000
20
-20.9968040594
30
0.0000000000
10
-11.0213739711
20
-21.0433414415
30
0.0000000000
10
-11.0122365984
20
-21.1125951040
30
0.0000000000
10
-10.9970991688
20
-21.1807964136
30
0.0000000000
10
-10.9760768507
20
-21.2474195581
30
0.0000000000
10
-10.9493295783
20
-21.3119595639
30
0.0000000000
10
-10.9170608387
20
-21.3739249394
30
0.0000000000
10
-10.8795161221
20
-21.4328444150
30
0.0000000000
10
-10.8369810549
20
-21.4882697228
30
0.0000000000
10
-10.7897792264
20
-21.5397792228
30
0.0000000000
10
-10.7382697267
20
-21.5869810517
30
0.0000000000
10
-10.6828444189
20
-21.6295161194
30
0.0000000000
10
-10.6239249433
20
-21.6670608364
30
0.0000000000
10
-10.5619595675
20
-21.6993295766
30
0.0000000000
10
-10.4974195614
20
-21.7260768495
30
0.0000000000
10
-10.4307964162
20
-21.7470991681
30
0.0000000000
10
-10.3625951059
20
-21.7622365981
30
0.0000000000
10
-10.2933414425
20
-21.7713739710
30
0.0000000000
10
-10.2468040598
20
-21.7734192000
30
0.0000000000
10
-10.2235481273
20
-21.7734262834
30
0.0000000000
11
-11.0234262834
21
-20.9735481273
31
0.0000000000
11
-11.0203624553
21
-21.0432486211
31
0.0000000000
11
-11.0112367392
21
-21.1124188577
31
0.0000000000
11
-10.9961185603
21
-21.1805326139
31
0.0000000000
11
-10.9751229326
21
-21.2470717037
31
0.0000000000
11
-10.9484095834
21
-21.3115299208
31
0.0000000000
11
-10.9161817388
21
-21.3734168892
31
0.0000000000
11
-10.8786845769
21
-21.4322617943
31
0.0000000000
11
-10.8362033632
21
-21.4876169644
31
0.0000000000
11
-10.7890612801
21
-21.5390612765
31
0.0000000000
11
-10.7376169683
21
-21.5862033600
31
0.0000000000
11
-10.6822617983
21
-21.6286845741
31
0.0000000000
11
-10.6234168931
21
-21.6661817365
31
0.0000000000
11
-10.5615299244
21
-21.6984095817
31
0.0000000000
11
-10.4970717070
21
-21.7251229314
31
0.0000000000
11
-10.4305326166
21
-21.7461185596
31
0.0000000000
11
-10.3624188596
21
-21.7612367388
31
0.0000000000
11
-10.2932486221
21
-21.7703624552
31
0.0000000000
11
-10.2235481273
21
-21.7734262834
31
0.0000000000
0
SPLINE
5
288
100
AcDbEntity
8
0
100
AcDbSpline
6
CONTINUOUS
70
0
71
3
72
8
73
4
74
2
42
0.0000001000
43
0.0000001000
44
0.0000000001
12
4.5015133336
22
4.5015133336
32
-0.1790213426
13
4.4983175352
23
4.4983175352
33
-0.2465974180
40
0.0000000000
40
0.0000000000
40
0.0000000000
40
0.0000000000
40
1.0000000000
40
1.0000000000
40
1.0000000000
40
1.0000000000
10
-4.5000000000
20
11.9213203436
30
5.5130432880
10
-2.9994955555
20
13.4218247881
30
5.4533695071
10
-1.4994391784
20
14.9218811652
30
5.3824290477
10
-0.0000000000
20
16.4213203436
30
5.3002299084
11
-4.5000000000
21
11.9213203436
31
5.5130432880
11
-0.0000000000
21
16.4213203436
31
5.3002299084
0
SPLINE
5
289
100
AcDbEntity
8
0
100
AcDbSpline
6
CONTINUOUS
70
0
71
3
72
8
73
4
74
2
42
0.0000001000
43
0.0000001000
44
0.0000000001
12
-4.4985576200
22
4.4985576200
32
0.2146752683
13
-4.5012733535
23
4.5012733535
33
0.1471201139
40
0.0000000000
40
0.0000000000
40
0.0000000000
40
0.0000000000
40
1.0000000000
40
1.0000000000
40
1.0000000000
40
1.0000000000
10
-0.0000000000
20
-14.3000000000
30
5.4089895198
10
-1.4995192067
20
-12.8004807933
30
5.4805479425
10
-2.9995755488
20
-11.3004244512
30
5.5408505703
10
-4.5000000000
20
-9.8000000000
30
5.5898906083
11
-0.0000000000
21
-14.3000000000
31
5.4089895198
11
-4.5000000000
21
-9.8000000000
31
5.5898906083
0
SPLINE
5
28A
100
AcDbEntity
8
0
100
AcDbSpline
6
CONTINUOUS
70
0
71
3
72
8
73
4
74
2
42
0.0000001000
43
0.0000001000
44
0.0000000001
12
-4.5012733535
22
-4.5012733535
32
-0.1471201139
13
-4.4985576200
23
-4.4985576200
33
-0.2146752683
40
0.0000000000
40
0.0000000000
40
0.0000000000
40
0.0000000000
40
1.0000000000
40
1.0000000000
40
1.0000000000
40
1.0000000000
10
4.5000000000
20
-9.8000000000
30
5.5898906083
10
2.9995755488
20
-11.3004244512
30
5.5408505703
10
1.4995192067
20
-12.8004807933
30
5.4805479425
10
-0.0000000000
20
-14.3000000000
30
5.4089895198
11
4.5000000000
21
-9.8000000000
31
5.5898906083
11
-0.0000000000
21
-14.3000000000
31
5.4089895198
0
SPLINE
5
28B
100
AcDbEntity
8
0
100
AcDbSpline
6
CONTINUOUS
70
0
71
3
72
8
73
4
74
2
42
0.0000001000
43
0.0000001000
44
0.0000000001
12
4.5012733535
22
4.5012733535
32
-0.1471201139
13
4.4985576200
23
4.4985576200
33
-0.2146752683
40
0.0000000000
40
0.0000000000
40
0.0000000000
40
0.0000000000
40
1.0000000000
40
1.0000000000
40
1.0000000000
40
1.0000000000
10
-4.5000000000
20
9.8000000000
30
5.5898906083
10
-2.9995755488
20
11.3004244512
30
5.5408505703
10
-1.4995192067
20
12.8004807933
30
5.4805479425
10
-0.0000000000
20
14.3000000000
30
5.4089895198
11
-4.5000000000
21
9.8000000000
31
5.5898906083
11
-0.0000000000
21
14.3000000000
31
5.4089895198
0
SPLINE
5
28C
100
AcDbEntity
8
0
100
AcDbSpline
6
CONTINUOUS
70
0
71
3
72
8
73
4
74
2
42
0.0000001000
43
0.0000001000
44
0.0000000001
12
4.4985576200
22
-4.4985576200
32
0.2146752683
13
4.5012733535
23
-4.5012733535
33
0.1471201139
40
0.0000000000
40
0.0000000000
40
0.0000000000
40
0.0000000000
40
1.0000000000
40
1.0000000000
40
1.0000000000
40
1.0000000000
10
-0.0000000000
20
14.3000000000
30
5.4089895198
10
1.4995192067
20
12.8004807933
30
5.4805479425
10
2.9995755488
20
11.3004244512
30
5.5408505703
10
4.5000000000
20
9.8000000000
30
5.5898906083
11
-0.0000000000
21
14.3000000000
31
5.4089895198
11
4.5000000000
21
9.8000000000
31
5.5898906083
0
SPLINE
5
28D
100
AcDbEntity
8
0
100
AcDbSpline
6
CONTINUOUS
70
0
71
3
72
8
73
4
74
2
42
0.0000001000
43
0.0000001000
44
0.0000000001
12
-4.4983175352
22
4.4983175352
32
0.2465974180
13
-4.5015133336
23
4.5015133336
33
0.1790213426
40
0.0000000000
40
0.0000000000
40
0.0000000000
40
0.0000000000
40
1.0000000000
40
1.0000000000
40
1.0000000000
40
1.0000000000
10
-0.0000000000
20
-16.4213203436
30
5.3002299084
10
-1.4994391784
20
-14.9218811652
30
5.3824290477
10
-2.9994955555
20
-13.4218247881
30
5.4533695071
10
-4.5000000000
20
-11.9213203436
30
5.5130432880
11
-0.0000000000
21
-16.4213203436
31
5.3002299084
11
-4.5000000000
21
-11.9213203436
31
5.5130432880
0
SPLINE
5
28E
100
AcDbEntity
8
0
100
AcDbSpline
6
CONTINUOUS
70
0
71
3
72
8
73
4
74
2
42
0.0000001000
43
0.0000001000
44
0.0000000001
12
-4.5015133336
22
-4.5015133336
32
-0.1790213426
13
-4.4983175352
23
-4.4983175352
33
-0.2465974180
40
0.0000000000
40
0.0000000000
40
0.0000000000
40
0.0000000000
40
1.0000000000
40
1.0000000000
40
1.0000000000
40
1.0000000000
10
4.5000000000
20
-11.9213203436
30
5.5130432880
10
2.9994955555
20
-13.4218247881
30
5.4533695071
10
1.4994391784
20
-14.9218811652
30
5.3824290477
10
-0.0000000000
20
-16.4213203436
30
5.3002299084
11
4.5000000000
21
-11.9213203436
31
5.5130432880
11
-0.0000000000
21
-16.4213203436
31
5.3002299084
0
SPLINE
5
28F
100
AcDbEntity
8
0
100
AcDbSpline
6
CONTINUOUS
70
0
71
3
72
8
73
4
74
2
42
0.0000001000
43
0.0000001000
44
0.0000000001
12
4.4983175352
22
-4.4983175352
32
0.2465974180
13
4.5015133336
23
-4.5015133336
33
0.1790213426
40
0.0000000000
40
0.0000000000
40
0.0000000000
40
0.0000000000
40
1.0000000000
40
1.0000000000
40
1.0000000000
40
1.0000000000
10
-0.0000000000
20
16.4213203436
30
5.3002299084
10
1.4994391784
20
14.9218811652
30
5.3824290477
10
2.9994955555
20
13.4218247881
30
5.4533695071
10
4.5000000000
20
11.9213203436
30
5.5130432880
11
-0.0000000000
21
16.4213203436
31
5.3002299084
11
4.5000000000
21
11.9213203436
31
5.5130432880
0
ENDSEC
0
SECTION
2
OBJECTS
0
DICTIONARY
5
290
100
AcDbDictionary
3
ACAD_GROUP
350
291
3
ACAD_MLINESTYLE
350
292
0
DICTIONARY
5
291
102
{ACAD_REACTORS
330
290
102
}
100
AcDbDictionary
0
DICTIONARY
5
292
102
{ACAD_REACTORS
330
290
102
}
100
AcDbDictionary
3
STANDARD
350
293
0
MLINESTYLE
5
293
102
{ACAD_REACTORS
330
292
102
}
100
AcDbMlineStyle
2
STANDARD
70
0
3

62
256
51
90.0
52
90.0
71
2
49
0.5
62
256
6
BYLAYER
49
-0.5
62
256
6
BYLAYER
0
ENDSEC
0
EOF
