999
DXF file: zdi_ea145320100.dxf
999
Pro/ENGINEER 2004090 by Parametric Technology Corporation
0
SECTION
2
HEADER
9
$ACADVER
1
AC1014
9
$HANDSEED
5
       250
9
$EXTMAX
10
297.0000000000
20
210.0000000000
9
$EXTMIN
10
0.0000000000
20
0.0000000000
9
$LIMMIN
10
0.0000000000
20
0.0000000000
9
$LIMMAX
10
297.0000000000
20
210.0000000000
9
$VIEWCTR
10
148.5000000000
20
105.0000000000
9
$VIEWSIZE
40
210.0000000000
9
$CLAYER
8
0
9
$LTSCALE
40
16.3350000000
9
$CELTYPE
6
BYLAYER
9
$DIMSCALE
40
1
9
$DIMASZ
40
3.0000000000
9
$DIMEXO
40
1.8562500000
9
$DIMDLI
40
11.2860000000
9
$DIMEXE
40
5.3460000000
9
$DIMCEN
40
2.6730000000
9
$DIMLFAC
40
1.0000000000
9
$DIMTXT
40
3.0000000000
9
$DIMTOL
70
1
9
$DIMLIM
70
0
9
$DIMTFAC
40
1.0000000000
9
$DIMTP
40
0.0100000000
9
$DIMTM
40
0.0100000000
9
$MEASUREMENT
70
1
0
ENDSEC
0
SECTION
2
CLASSES
0
ENDSEC
0
SECTION
2
TABLES
0
TABLE
2
VPORT
5
8
100
AcDbSymbolTable
70
2
0
VPORT
5
1F4
100
AcDbSymbolTableRecord
100
AcDbViewportTableRecord
2
*ACTIVE
70
0
10
0.0
20
0.0
11
1.0
21
1.0
12
148.5000000000
22
105.0000000000
13
0.0
23
0.0
14
1.0
24
1.0
15
0.0
25
0.0
16
0.0
26
0.0
36
1.0
17
0.0
27
0.0
37
0.0
40
210.0000000000
41
1.4142857143
42
50.0
43
0.0
44
0.0
50
0.0
51
0.0
71
0
72
100
73
1
74
1
75
0
76
0
77
0
78
0
0
ENDTAB
0
TABLE
2
LTYPE
5
5
100
AcDbSymbolTable
70
6
0
LTYPE
5
14
100
AcDbSymbolTableRecord
100
AcDbLinetypeTableRecord
2
BYBLOCK
70
0
3

72
65
73
0
40
0.0
0
LTYPE
5
15
100
AcDbSymbolTableRecord
100
AcDbLinetypeTableRecord
2
BYLAYER
70
0
3

72
65
73
0
40
0.0
0
LTYPE
5
16
100
AcDbSymbolTableRecord
100
AcDbLinetypeTableRecord
2
CONTINUOUS
70
64
3
Solid line
72
65
73
0
40
0
0
LTYPE
5
1F5
100
AcDbSymbolTableRecord
100
AcDbLinetypeTableRecord
2
CENTER
70
64
3
____ _ ____ _ ____ _ ____ _ ____ _ ____ _ ____
72
65
73
4
40
0.6
49
0.375
74
0
49
-0.075
74
0
49
0.075
74
0
49
-0.075
74
0
0
LTYPE
5
1F6
100
AcDbSymbolTableRecord
100
AcDbLinetypeTableRecord
2
HIDDEN
70
64
3
- - - - - - - - - - - - - - - - - - - -
72
65
73
2
40
0.2
49
0.1
74
0
49
-0.1
74
0
0
LTYPE
5
1F7
100
AcDbSymbolTableRecord
100
AcDbLinetypeTableRecord
2
PHANTOM
70
64
3
_____ _ _ _____ _ _ _____ _ _ _____
72
65
73
6
40
0.8
49
0.45
74
0
49
-0.05
74
0
49
0.1
74
0
49
-0.05
74
0
49
0.1
74
0
49
-0.05
74
0
0
LTYPE
5
1F8
100
AcDbSymbolTableRecord
100
AcDbLinetypeTableRecord
2
DOT
70
64
3
. . . . . . . . . . . . . . . . . . . .
72
65
73
2
40
0.2
49
0.1
74
0
49
-0.1
74
0
0
LTYPE
5
1F9
100
AcDbSymbolTableRecord
100
AcDbLinetypeTableRecord
2
DASHED
70
64
3
- - - - - - - - - - - - - - - - - - - -
72
65
73
2
40
0.2
49
0.1
74
0
49
-0.1
74
0
0
ENDTAB
0
TABLE
2
LAYER
5
2
100
AcDbSymbolTable
70
36
0
LAYER
5
10
100
AcDbSymbolTableRecord
100
AcDbLayerTableRecord
2
0
70
0
62
7
6
CONTINUOUS
0
LAYER
5
1FA
100
AcDbSymbolTableRecord
100
AcDbLayerTableRecord
2
DEFAULT_1
70
0
62
7
6
CENTER
0
LAYER
5
1FB
100
AcDbSymbolTableRecord
100
AcDbLayerTableRecord
2
DEFAULT_2
70
0
62
8
6
HIDDEN
0
LAYER
5
1FC
100
AcDbSymbolTableRecord
100
AcDbLayerTableRecord
2
DEFAULT_3
70
0
62
7
6
PHANTOM
0
LAYER
5
1FD
100
AcDbSymbolTableRecord
100
AcDbLayerTableRecord
2
ASSI
70
0
62
7
6
CONTINUOUS
0
LAYER
5
1FE
100
AcDbSymbolTableRecord
100
AcDbLayerTableRecord
2
COORDINATE
70
0
62
7
6
CONTINUOUS
0
LAYER
5
1FF
100
AcDbSymbolTableRecord
100
AcDbLayerTableRecord
2
COORD_ORIGINE
70
0
62
7
6
CONTINUOUS
0
LAYER
5
200
100
AcDbSymbolTableRecord
100
AcDbLayerTableRecord
2
CURVE
70
0
62
7
6
CONTINUOUS
0
LAYER
5
201
100
AcDbSymbolTableRecord
100
AcDbLayerTableRecord
2
CURVE_LED_TASTO
70
0
62
7
6
CONTINUOUS
0
LAYER
5
202
100
AcDbSymbolTableRecord
100
AcDbLayerTableRecord
2
DRAFT
70
0
62
7
6
CONTINUOUS
0
LAYER
5
203
100
AcDbSymbolTableRecord
100
AcDbLayerTableRecord
2
IGES_SCRITTE
70
0
62
7
6
CONTINUOUS
0
LAYER
5
204
100
AcDbSymbolTableRecord
100
AcDbLayerTableRecord
2
PIANI
70
0
62
7
6
CONTINUOUS
0
LAYER
5
205
100
AcDbSymbolTableRecord
100
AcDbLayerTableRecord
2
PIANI_ORIGINE
70
0
62
7
6
CONTINUOUS
0
LAYER
5
206
100
AcDbSymbolTableRecord
100
AcDbLayerTableRecord
2
PIANI_RIFERIMENTO
70
0
62
7
6
CONTINUOUS
0
LAYER
5
207
100
AcDbSymbolTableRecord
100
AcDbLayerTableRecord
2
PUNTI
70
0
62
7
6
CONTINUOUS
0
LAYER
5
208
100
AcDbSymbolTableRecord
100
AcDbLayerTableRecord
2
RACCORDO
70
0
62
7
6
CONTINUOUS
0
LAYER
5
209
100
AcDbSymbolTableRecord
100
AcDbLayerTableRecord
2
SMUSSO
70
0
62
7
6
CONTINUOUS
0
LAYER
5
20A
100
AcDbSymbolTableRecord
100
AcDbLayerTableRecord
2
SUPERFICI
70
0
62
7
6
CONTINUOUS
0
LAYER
5
20B
100
AcDbSymbolTableRecord
100
AcDbLayerTableRecord
2
TRASH
70
0
62
7
6
CONTINUOUS
0
ENDTAB
0
TABLE
2
STYLE
5
3
100
AcDbSymbolTable
70
1
0
STYLE
5
11
100
AcDbSymbolTableRecord
100
AcDbTextStyleTableRecord
2
STANDARD
70
0
40
0.0
41
0.8000000000
50
0.0
71
0
42
0.2
3
txt
4

0
ENDTAB
0
TABLE
2
VIEW
5
6
100
AcDbSymbolTable
70
0
0
ENDTAB
0
TABLE
2
UCS
5
7
100
AcDbSymbolTable
70
0
0
ENDTAB
0
TABLE
2
APPID
5
9
100
AcDbSymbolTable
70
1
0
APPID
5
20C
100
AcDbSymbolTableRecord
100
AcDbRegAppTableRecord
2
ACAD
70
0
0
ENDTAB
0
TABLE
2
DIMSTYLE
5
A
100
AcDbSymbolTable
70
1
0
DIMSTYLE
105
20D
100
AcDbSymbolTableRecord
100
AcDbDimStyleTableRecord
2
STANDARD
70
0
3

4

5

6

7

40
1.0
41
3.0000000000
42
0.0625
43
0.38
44
0.18
45
0.0
46
0.0
47
0.0100000000
48
0.0100000000
140
3.0000000000
141
0.09
142
0.0
143
25.4
144
1.0000000000
145
0.0
146
1.0000000000
147
0.09
71
1
72
0
73
0
74
0
75
0
76
0
77
1
78
8
170
0
171
2
172
0
173
0
174
0
175
0
176
0
177
0
178
0
270
2
271
2
272
2
273
2
274
2
340
11
275
0
280
0
281
0
282
0
283
1
284
8
285
0
286
0
287
3
288
0
0
ENDTAB
0
TABLE
2
BLOCK_RECORD
5
1
100
AcDbSymbolTable
70
0
0
BLOCK_RECORD
5
1B
100
AcDbSymbolTableRecord
100
AcDbBlockTableRecord
2
*MODEL_SPACE
0
BLOCK_RECORD
5
1C
100
AcDbSymbolTableRecord
100
AcDbBlockTableRecord
2
*PAPER_SPACE
0
ENDTAB
0
ENDSEC
0
SECTION
2
BLOCKS
0
BLOCK
5
1E
100
AcDbEntity
8
0
100
AcDbBlockBegin
2
*MODEL_SPACE
70
0
10
0.0
20
0.0
30
0.0
3
*MODEL_SPACE
1

0
ENDBLK
5
1F
100
AcDbEntity
8
0
100
AcDbBlockEnd
0
BLOCK
5
20
100
AcDbEntity
8
0
100
AcDbBlockBegin
2
*PAPER_SPACE
70
0
10
0.0
20
0.0
30
0.0
3
*PAPER_SPACE
1

0
ENDBLK
5
21
100
AcDbEntity
8
0
100
AcDbBlockEnd
0
ENDSEC
0
SECTION
2
ENTITIES
0
LINE
5
20E
100
AcDbEntity
8
0
100
AcDbLine
62
7
6
CONTINUOUS
10
-22.4000000000
20
21.0501218439
11
-22.4000000000
21
-21.0501218439
0
LINE
5
20F
100
AcDbEntity
8
0
100
AcDbLine
62
7
6
CONTINUOUS
10
21.6001218439
20
-21.8500000000
11
-21.6001218439
21
-21.8500000000
0
LINE
5
210
100
AcDbEntity
8
0
100
AcDbLine
62
9
6
CONTINUOUS
10
-21.5235481273
20
-21.7734262834
11
21.5235481273
21
-21.7734262834
0
LINE
5
211
100
AcDbEntity
8
0
100
AcDbLine
62
9
6
CONTINUOUS
10
-21.5115710390
20
-20.3755324027
11
21.5115710390
21
-20.3755324027
0
LINE
5
212
100
AcDbEntity
8
0
100
AcDbLine
62
9
6
CONTINUOUS
10
-22.4000000000
20
-21.0501218439
11
-22.3234262834
21
-20.9735481273
0
LINE
5
213
100
AcDbEntity
8
0
100
AcDbLine
62
9
6
CONTINUOUS
10
21.6001218439
20
21.8500000000
11
21.5235481273
21
21.7734262834
0
LINE
5
214
100
AcDbEntity
8
0
100
AcDbLine
62
9
6
CONTINUOUS
10
-21.6001218439
20
-21.8500000000
11
-21.5235481273
21
-21.7734262834
0
LINE
5
215
100
AcDbEntity
8
0
100
AcDbLine
62
9
6
CONTINUOUS
10
-22.3234262834
20
20.9735481273
11
-22.4000000000
21
21.0501218439
0
LINE
5
216
100
AcDbEntity
8
0
100
AcDbLine
62
9
6
CONTINUOUS
10
21.5235481273
20
-21.7734262834
11
21.6001218439
21
-21.8500000000
0
LINE
5
217
100
AcDbEntity
8
0
100
AcDbLine
62
9
6
CONTINUOUS
10
-21.5235481273
20
21.7734262834
11
-21.6001218439
21
21.8500000000
0
LINE
5
218
100
AcDbEntity
8
0
100
AcDbLine
62
9
6
CONTINUOUS
10
22.4000000000
20
21.0501218439
11
22.3234262834
21
20.9735481273
0
LINE
5
219
100
AcDbEntity
8
0
100
AcDbLine
62
9
6
CONTINUOUS
10
22.3234262834
20
-20.9735481273
11
22.4000000000
21
-21.0501218439
0
LINE
5
21A
100
AcDbEntity
8
0
100
AcDbLine
62
9
6
CONTINUOUS
10
-21.5115710390
20
20.3755324027
11
21.5115710390
21
20.3755324027
0
LINE
5
21B
100
AcDbEntity
8
0
100
AcDbLine
62
7
6
CONTINUOUS
10
22.4000000000
20
21.0501218439
11
22.4000000000
21
-21.0501218439
0
LINE
5
21C
100
AcDbEntity
8
0
100
AcDbLine
62
9
6
CONTINUOUS
10
-21.5235481273
20
21.7734262834
11
21.5235481273
21
21.7734262834
0
LINE
5
21D
100
AcDbEntity
8
0
100
AcDbLine
62
7
6
CONTINUOUS
10
21.6001218439
20
21.8500000000
11
-21.6001218439
21
21.8500000000
0
CIRCLE
5
21E
100
AcDbEntity
8
0
100
AcDbCircle
62
9
6
CONTINUOUS
10
-0.0000000000
20
0.0000000000
40
1.1616160628
0
CIRCLE
5
21F
100
AcDbEntity
8
0
100
AcDbCircle
62
7
6
CONTINUOUS
10
-0.0000000000
20
-0.0000000000
40
1.2500000000
0
SPLINE
5
220
100
AcDbEntity
8
0
100
AcDbSpline
62
9
6
CONTINUOUS
70
0
71
3
72
24
73
20
74
18
42
0.0000001000
43
0.0000001000
44
0.0000000001
12
0.0003825233
22
-1.2558773180
32
0.0000000000
13
1.2558773180
23
-0.0003825233
33
0.0000000000
40
0.0000000000
40
0.0000000000
40
0.0000000000
40
0.0000000000
40
0.0588186455
40
0.1176389157
40
0.1764607269
40
0.2352839432
40
0.2941083808
40
0.3529338142
40
0.4117599843
40
0.4705866066
40
0.5294133816
40
0.5882400043
40
0.6470661750
40
0.7058916095
40
0.7647160484
40
0.8235392663
40
0.8823610795
40
0.9411813519
40
1.0000000000
40
1.0000000000
40
1.0000000000
40
1.0000000000
10
-22.3234262834
20
-20.9735481273
30
0.0000000000
10
-22.3234187836
20
-20.9981711282
30
0.0000000000
10
-22.3211265650
20
-21.0474474160
30
0.0000000000
10
-22.3108862811
20
-21.1207062172
30
0.0000000000
10
-22.2939313256
20
-21.1927164925
30
0.0000000000
10
-22.2704063061
20
-21.2628558550
30
0.0000000000
10
-22.2405118566
20
-21.3305283550
30
0.0000000000
10
-22.2045029306
20
-21.3951562741
30
0.0000000000
10
-22.1626866247
20
-21.4561886121
30
0.0000000000
10
-22.1154195605
20
-21.5131048313
30
0.0000000000
10
-22.0631048422
20
-21.5654195506
30
0.0000000000
10
-22.0061886235
20
-21.6126866161
30
0.0000000000
10
-21.9451562855
20
-21.6545029236
30
0.0000000000
10
-21.8805283659
20
-21.6905118513
30
0.0000000000
10
-21.8128558648
20
-21.7204063024
30
0.0000000000
10
-21.7427165006
20
-21.7439313234
30
0.0000000000
10
-21.6707062230
20
-21.7608862801
30
0.0000000000
10
-21.5974474190
20
-21.7711265648
30
0.0000000000
10
-21.5481711293
20
-21.7734187836
30
0.0000000000
10
-21.5235481273
20
-21.7734262834
30
0.0000000000
11
-22.3234262834
21
-20.9735481273
31
0.0000000000
11
-22.3199929914
21
-21.0473373039
31
0.0000000000
11
-22.3097673459
21
-21.1204971816
31
0.0000000000
11
-22.2928365548
21
-21.1924038278
31
0.0000000000
11
-22.2693450094
21
-21.2624439982
31
0.0000000000
11
-22.2394930537
21
-21.3300203663
31
0.0000000000
11
-22.2035352752
21
-21.3945566178
31
0.0000000000
11
-22.1617783341
21
-21.4555023653
31
0.0000000000
11
-22.1145783477
21
-21.5123378428
31
0.0000000000
11
-22.0623378537
21
-21.5645783377
31
0.0000000000
11
-22.0055023768
21
-21.6117783254
31
0.0000000000
11
-21.9445566293
21
-21.6535352681
31
0.0000000000
11
-21.8800203773
21
-21.6894930482
31
0.0000000000
11
-21.8124440081
21
-21.7193450056
31
0.0000000000
11
-21.7424038359
21
-21.7428365525
31
0.0000000000
11
-21.6704971874
21
-21.7597673448
31
0.0000000000
11
-21.5973373071
21
-21.7699929911
31
0.0000000000
11
-21.5235481273
21
-21.7734262834
31
0.0000000000
0
SPLINE
5
221
100
AcDbEntity
8
0
100
AcDbSpline
62
9
6
CONTINUOUS
70
0
71
3
72
27
73
23
74
21
42
0.0000001000
43
0.0000001000
44
0.0000000001
12
0.5910451946
22
1.2669834841
32
0.0000000000
13
0.0007751445
23
1.3980632926
33
0.0000000000
40
0.0000000000
40
0.0000000000
40
0.0000000000
40
0.0000000000
40
0.0043947853
40
0.0146523204
40
0.0307364443
40
0.0525624218
40
0.0800114490
40
0.1129329475
40
0.1511457168
40
0.1944392747
40
0.2425751054
40
0.2952879183
40
0.3522871313
40
0.4132585111
40
0.4778659509
40
0.5457533612
40
0.6165464862
40
0.6898549025
40
0.7652746065
40
0.8423900586
40
0.9207755280
40
1.0000000000
40
1.0000000000
40
1.0000000000
40
1.0000000000
10
-21.5235481273
20
-21.7734262834
30
0.0000000000
10
-21.5226822884
20
-21.7715702433
30
0.0000000000
10
-21.5227189020
20
-21.7644748449
30
0.0000000000
10
-21.5213489739
20
-21.7504152310
30
0.0000000000
10
-21.5208160723
20
-21.7278558387
30
0.0000000000
10
-21.5198466134
20
-21.6974622538
30
0.0000000000
10
-21.5190634383
20
-21.6591455099
30
0.0000000000
10
-21.5182345967
20
-21.6132178441
30
0.0000000000
10
-21.5174549251
20
-21.5598953845
30
0.0000000000
10
-21.5166998201
20
-21.4994848251
30
0.0000000000
10
-21.5159841555
20
-21.4323150533
30
0.0000000000
10
-21.5153091816
20
-21.3587577578
30
0.0000000000
10
-21.5146799221
20
-21.2792181264
30
0.0000000000
10
-21.5140997609
20
-21.1941348679
30
0.0000000000
10
-21.5135721391
20
-21.1039770386
30
0.0000000000
10
-21.5131000475
20
-21.0092417047
30
0.0000000000
10
-21.5126861802
20
-20.9104512228
30
0.0000000000
10
-21.5123328698
20
-20.8081502770
30
0.0000000000
10
-21.5120421225
20
-20.7029027850
30
0.0000000000
10
-21.5118155481
20
-20.5952891161
30
0.0000000000
10
-21.5116544586
20
-20.4859022257
30
0.0000000000
10
-21.5115915091
20
-20.4124526781
30
0.0000000000
10
-21.5115710390
20
-20.3755324027
30
0.0000000000
11
-21.5235481273
21
-21.7734262834
31
0.0000000000
11
-21.5226422074
21
-21.7673492473
31
0.0000000000
11
-21.5217425023
21
-21.7530368126
31
0.0000000000
11
-21.5208538753
21
-21.7305677510
31
0.0000000000
11
-21.5199813031
21
-21.7000661269
31
0.0000000000
11
-21.5191295655
21
-21.6617000969
31
0.0000000000
11
-21.5183033680
21
-21.6156811671
31
0.0000000000
11
-21.5175072643
21
-21.5622632209
31
0.0000000000
11
-21.5167456450
21
-21.5017408694
31
0.0000000000
11
-21.5160227077
21
-21.4344478042
31
0.0000000000
11
-21.5153424382
21
-21.3607550839
31
0.0000000000
11
-21.5147085869
21
-21.2810690853
31
0.0000000000
11
-21.5141246482
21
-21.1958292243
31
0.0000000000
11
-21.5135938410
21
-21.1055054800
31
0.0000000000
11
-21.5131190905
21
-21.0105957564
31
0.0000000000
11
-21.5127030146
21
-20.9116233464
31
0.0000000000
11
-21.5123479057
21
-20.8091341399
31
0.0000000000
11
-21.5120557242
21
-20.7036930088
31
0.0000000000
11
-21.5118280716
21
-20.5958809498
31
0.0000000000
11
-21.5116662185
21
-20.4862932050
31
0.0000000000
11
-21.5115710390
21
-20.3755324027
31
0.0000000000
0
SPLINE
5
222
100
AcDbEntity
8
0
100
AcDbSpline
62
9
6
CONTINUOUS
70
0
71
3
72
27
73
23
74
21
42
0.0000001000
43
0.0000001000
44
0.0000000001
12
0.4614526202
22
0.4616200402
32
0.0000000000
13
0.0007756567
23
0.6527104875
33
0.0000000000
40
0.0000000000
40
0.0000000000
40
0.0000000000
40
0.0000000000
40
0.0045595798
40
0.0148839614
40
0.0310053889
40
0.0528534475
40
0.0803146189
40
0.1132409295
40
0.1514526709
40
0.1947403311
40
0.2428660837
40
0.2955651679
40
0.3525474345
40
0.4134990213
40
0.4780841160
40
0.5459469160
40
0.6167134509
40
0.6899935750
40
0.7653835541
40
0.8424681220
40
0.9208218054
40
1.0000000000
40
1.0000000000
40
1.0000000000
40
1.0000000000
10
-22.3234262834
20
-20.9735481273
30
0.0000000000
10
-22.3227249401
20
-20.9728465295
30
0.0000000000
10
-22.3224261914
20
-20.9692900459
30
0.0000000000
10
-22.3213301563
20
-20.9628953339
30
0.0000000000
10
-22.3206501142
20
-20.9522611210
30
0.0000000000
10
-22.3197423716
20
-20.9381167846
30
0.0000000000
10
-22.3189356472
20
-20.9202184870
30
0.0000000000
10
-22.3181149896
20
-20.8987903110
30
0.0000000000
10
-22.3173325094
20
-20.8739039577
30
0.0000000000
10
-22.3165782672
20
-20.8457123125
30
0.0000000000
10
-22.3158622969
20
-20.8143655267
30
0.0000000000
10
-22.3151873890
20
-20.7800380619
30
0.0000000000
10
-22.3145580865
20
-20.7429186674
30
0.0000000000
10
-22.3139779192
20
-20.7032121768
30
0.0000000000
10
-22.3134502838
20
-20.6611374695
30
0.0000000000
10
-22.3129781853
20
-20.6169265398
30
0.0000000000
10
-22.3125643110
20
-20.5708231687
30
0.0000000000
10
-22.3122110013
20
-20.5230815589
30
0.0000000000
10
-22.3119202477
20
-20.4739648873
30
0.0000000000
10
-22.3116936872
20
-20.4237440112
30
0.0000000000
10
-22.3115325973
20
-20.3726986765
30
0.0000000000
10
-22.3114696668
20
-20.3384244623
30
0.0000000000
10
-22.3114491951
20
-20.3211976496
30
0.0000000000
11
-22.3234262834
21
-20.9735481273
31
0.0000000000
11
-22.3225205615
21
-20.9707132083
31
0.0000000000
11
-22.3216208060
21
-20.9640347082
31
0.0000000000
11
-22.3207321765
21
-20.9535496653
31
0.0000000000
11
-22.3198595803
21
-20.9393159203
31
0.0000000000
11
-22.3190078264
21
-20.9214119620
31
0.0000000000
11
-22.3181816100
21
-20.8999364861
31
0.0000000000
11
-22.3173854888
21
-20.8750079734
31
0.0000000000
11
-22.3166238523
21
-20.8467639111
31
0.0000000000
11
-22.3159008990
21
-20.8153600259
31
0.0000000000
11
-22.3152206146
21
-20.7809694844
31
0.0000000000
11
-22.3145867499
21
-20.7437819369
31
0.0000000000
11
-22.3140027995
21
-20.7040024547
31
0.0000000000
11
-22.3134719828
21
-20.6618503984
31
0.0000000000
11
-22.3129972255
21
-20.6175581502
31
0.0000000000
11
-22.3125811447
21
-20.5713699321
31
0.0000000000
11
-22.3122260347
21
-20.5235405111
31
0.0000000000
11
-22.3119338518
21
-20.4743335138
31
0.0000000000
11
-22.3117062062
21
-20.4240200874
31
0.0000000000
11
-22.3115443534
21
-20.3728780365
31
0.0000000000
11
-22.3114491951
21
-20.3211976496
31
0.0000000000
0
SPLINE
5
223
100
AcDbEntity
8
0
100
AcDbSpline
62
9
6
CONTINUOUS
70
0
71
3
72
24
73
20
74
18
42
0.0000001000
43
0.0000001000
44
0.0000000001
12
0.2000106169
22
-0.7802891869
32
0.0000000000
13
0.8055150864
23
-0.0009527498
33
0.0000000000
40
0.0000000000
40
0.0000000000
40
0.0000000000
40
0.0000000000
40
0.0084036160
40
0.0236382935
40
0.0465188378
40
0.0770996583
40
0.1152229665
40
0.1606196706
40
0.2129396186
40
0.2717648161
40
0.3366174257
40
0.4069659923
40
0.4822310950
40
0.5617908967
40
0.6449867765
40
0.7311291188
40
0.8195032705
40
0.9093756531
40
1.0000000000
40
1.0000000000
40
1.0000000000
40
1.0000000000
10
-22.3114491951
20
-20.3211976496
30
0.0000000000
10
-22.3108889243
20
-20.3233833998
30
0.0000000000
10
-22.3052151891
20
-20.3276595044
30
0.0000000000
10
-22.2938374075
20
-20.3319106244
30
0.0000000000
10
-22.2757968670
20
-20.3366291894
30
0.0000000000
10
-22.2516842520
20
-20.3411275433
30
0.0000000000
10
-22.2213421372
20
-20.3455896306
30
0.0000000000
10
-22.1851241420
20
-20.3498539410
30
0.0000000000
10
-22.1432827925
20
-20.3539104561
30
0.0000000000
10
-22.0961784509
20
-20.3577061917
30
0.0000000000
10
-22.0441977628
20
-20.3612096089
30
0.0000000000
10
-21.9877750078
20
-20.3643876455
30
0.0000000000
10
-21.9273799546
20
-20.3672124982
30
0.0000000000
10
-21.8635163124
20
-20.3696593267
30
0.0000000000
10
-21.7967166684
20
-20.3717069496
30
0.0000000000
10
-21.7275382311
20
-20.3733377126
30
0.0000000000
10
-21.6565580718
20
-20.3745376273
30
0.0000000000
10
-21.5843683706
20
-20.3752964301
30
0.0000000000
10
-21.5359041319
20
-20.3755036219
30
0.0000000000
10
-21.5115710390
20
-20.3755324027
30
0.0000000000
11
-22.3114491951
21
-20.3211976496
31
0.0000000000
11
-22.3068411740
21
-20.3261563600
31
0.0000000000
11
-22.2955976794
21
-20.3310736964
31
0.0000000000
11
-22.2778125234
21
-20.3359086304
31
0.0000000000
11
-22.2536340994
21
-20.3406208208
31
0.0000000000
11
-22.2232641444
21
-20.3451709506
31
0.0000000000
11
-22.1869560552
21
-20.3495210551
31
0.0000000000
11
-22.1450127747
21
-20.3536348383
31
0.0000000000
11
-22.0977842639
21
-20.3574779762
31
0.0000000000
11
-22.0456645819
21
-20.3610184030
31
0.0000000000
11
-21.9890885984
21
-20.3642265785
31
0.0000000000
11
-21.9285283648
21
-20.3670757347
31
0.0000000000
11
-21.8644891759
21
-20.3695420991
31
0.0000000000
11
-21.7975053536
21
-20.3716050933
31
0.0000000000
11
-21.7281357891
21
-20.3732475044
31
0.0000000000
11
-21.6569592793
21
-20.3744556284
31
0.0000000000
11
-21.5845696976
21
-20.3752193854
31
0.0000000000
11
-21.5115710390
21
-20.3755324027
31
0.0000000000
0
SPLINE
5
224
100
AcDbEntity
8
0
100
AcDbSpline
62
9
6
CONTINUOUS
70
0
71
3
72
24
73
20
74
18
42
0.0000001000
43
0.0000001000
44
0.0000000001
12
0.2000109589
22
0.7802890979
32
0.0000000000
13
0.8055150851
23
0.0009527495
33
0.0000000000
40
0.0000000000
40
0.0000000000
40
0.0000000000
40
0.0000000000
40
0.0084036177
40
0.0236382973
40
0.0465188434
40
0.0770996655
40
0.1152229749
40
0.1606196798
40
0.2129396283
40
0.2717648259
40
0.3366174354
40
0.4069660014
40
0.4822311034
40
0.5617909041
40
0.6449867827
40
0.7311291236
40
0.8195032738
40
0.9093756548
40
1.0000000000
40
1.0000000000
40
1.0000000000
40
1.0000000000
10
-22.3114491951
20
20.3211976496
30
0.0000000000
10
-22.3108889232
20
20.3233834000
30
0.0000000000
10
-22.3052151867
20
20.3276595038
30
0.0000000000
10
-22.2938374035
20
20.3319106241
30
0.0000000000
10
-22.2757968615
20
20.3366291888
30
0.0000000000
10
-22.2516842452
20
20.3411275426
30
0.0000000000
10
-22.2213421295
20
20.3455896297
30
0.0000000000
10
-22.1851241337
20
20.3498539399
30
0.0000000000
10
-22.1432827838
20
20.3539104549
30
0.0000000000
10
-22.0961784422
20
20.3577061903
30
0.0000000000
10
-22.0441977542
20
20.3612096073
30
0.0000000000
10
-21.9877749997
20
20.3643876438
30
0.0000000000
10
-21.9273799473
20
20.3672124963
30
0.0000000000
10
-21.8635163060
20
20.3696593246
30
0.0000000000
10
-21.7967166630
20
20.3717069475
30
0.0000000000
10
-21.7275382269
20
20.3733377103
30
0.0000000000
10
-21.6565580689
20
20.3745376249
30
0.0000000000
10
-21.5843683691
20
20.3752964277
30
0.0000000000
10
-21.5359041314
20
20.3755036195
30
0.0000000000
10
-21.5115710390
20
20.3755324002
30
0.0000000000
11
-22.3114491951
21
20.3211976496
31
0.0000000000
11
-22.3068411719
21
20.3261563598
31
0.0000000000
11
-22.2955976754
21
20.3310736961
31
0.0000000000
11
-22.2778125178
21
20.3359086300
31
0.0000000000
11
-22.2536340926
21
20.3406208202
31
0.0000000000
11
-22.2232641366
21
20.3451709498
31
0.0000000000
11
-22.1869560468
21
20.3495210540
31
0.0000000000
11
-22.1450127660
21
20.3536348371
31
0.0000000000
11
-22.0977842551
21
20.3574779748
31
0.0000000000
11
-22.0456645733
21
20.3610184014
31
0.0000000000
11
-21.9890885903
21
20.3642265767
31
0.0000000000
11
-21.9285283574
21
20.3670757328
31
0.0000000000
11
-21.8644891694
21
20.3695420971
31
0.0000000000
11
-21.7975053482
21
20.3716050912
31
0.0000000000
11
-21.7281357849
21
20.3732475021
31
0.0000000000
11
-21.6569592764
21
20.3744556261
31
0.0000000000
11
-21.5845696961
21
20.3752193830
31
0.0000000000
11
-21.5115710390
21
20.3755324002
31
0.0000000000
0
SPLINE
5
225
100
AcDbEntity
8
0
100
AcDbSpline
62
9
6
CONTINUOUS
70
0
71
3
72
27
73
23
74
21
42
0.0000001000
43
0.0000001000
44
0.0000000001
12
-0.0007752298
22
1.3980632934
32
0.0000000000
13
-0.5910243725
23
1.2669931982
33
0.0000000000
40
0.0000000000
40
0.0000000000
40
0.0000000000
40
0.0000000000
40
0.0792244501
40
0.1576099224
40
0.2347253758
40
0.3101450781
40
0.3834534976
40
0.4542466241
40
0.5221340334
40
0.5867414734
40
0.6477128546
40
0.7047120687
40
0.7574248822
40
0.8055607134
40
0.8488542728
40
0.8870670440
40
0.9199885433
40
0.9474375708
40
0.9692635502
40
0.9853476755
40
0.9956052118
40
1.0000000000
40
1.0000000000
40
1.0000000000
40
1.0000000000
10
-21.5115710390
20
20.3755324027
30
0.0000000000
10
-21.5115915114
20
20.4124526679
30
0.0000000000
10
-21.5116544559
20
20.4859022066
30
0.0000000000
10
-21.5118155485
20
20.5952890889
30
0.0000000000
10
-21.5120421205
20
20.7029027590
30
0.0000000000
10
-21.5123328682
20
20.8081502524
30
0.0000000000
10
-21.5126861776
20
20.9104511997
30
0.0000000000
10
-21.5131000445
20
21.0092416834
30
0.0000000000
10
-21.5135721353
20
21.1039770177
30
0.0000000000
10
-21.5140997565
20
21.1941348473
30
0.0000000000
10
-21.5146799170
20
21.2792181071
30
0.0000000000
10
-21.5153091760
20
21.3587577399
30
0.0000000000
10
-21.5159841495
20
21.4323150365
30
0.0000000000
10
-21.5166998141
20
21.4994848096
30
0.0000000000
10
-21.5174549189
20
21.5598953709
30
0.0000000000
10
-21.5182345915
20
21.6132178322
30
0.0000000000
10
-21.5190634307
20
21.6591455002
30
0.0000000000
10
-21.5198466128
20
21.6974622433
30
0.0000000000
10
-21.5208160548
20
21.7278558359
30
0.0000000000
10
-21.5213489947
20
21.7504152164
30
0.0000000000
10
-21.5227188553
20
21.7644748593
30
0.0000000000
10
-21.5226823183
20
21.7715702278
30
0.0000000000
10
-21.5235481273
20
21.7734262834
30
0.0000000000
11
-21.5115710390
21
20.3755324027
31
0.0000000000
11
-21.5116662175
21
20.4862931744
31
0.0000000000
11
-21.5118280711
21
20.5958809233
31
0.0000000000
11
-21.5120557226
21
20.7036929843
31
0.0000000000
11
-21.5123479038
21
20.8091341131
31
0.0000000000
11
-21.5127030121
21
20.9116233240
31
0.0000000000
11
-21.5131190875
21
21.0105957362
31
0.0000000000
11
-21.5135938372
21
21.1055054586
31
0.0000000000
11
-21.5141246437
21
21.1958292031
31
0.0000000000
11
-21.5147085818
21
21.2810690660
31
0.0000000000
11
-21.5153424326
21
21.3607550663
31
0.0000000000
11
-21.5160227018
21
21.4344477875
31
0.0000000000
11
-21.5167456390
21
21.5017408535
31
0.0000000000
11
-21.5175072583
21
21.5622632070
31
0.0000000000
11
-21.5183033621
21
21.6156811560
31
0.0000000000
11
-21.5191295597
21
21.6617000868
31
0.0000000000
11
-21.5199812977
21
21.7000661172
31
0.0000000000
11
-21.5208538695
21
21.7305677442
31
0.0000000000
11
-21.5217424983
21
21.7530368076
31
0.0000000000
11
-21.5226422011
21
21.7673492443
31
0.0000000000
11
-21.5235481273
21
21.7734262834
31
0.0000000000
0
SPLINE
5
226
100
AcDbEntity
8
0
100
AcDbSpline
62
9
6
CONTINUOUS
70
0
71
3
72
27
73
23
74
21
42
0.0000001000
43
0.0000001000
44
0.0000000001
12
-0.0007756653
22
0.6527104856
32
0.0000000000
13
-0.4614625855
23
0.4616100755
33
0.0000000000
40
0.0000000000
40
0.0000000000
40
0.0000000000
40
0.0000000000
40
0.0791735339
40
0.1575271822
40
0.2346117440
40
0.3100017402
40
0.3832819166
40
0.4540485324
40
0.5219114422
40
0.5864966798
40
0.6474484567
40
0.7044309892
40
0.7571304049
40
0.8052565410
40
0.8485445994
40
0.8867567393
40
0.9196834441
40
0.9471450053
40
0.9689934453
40
0.9851152513
40
0.9954399811
40
1.0000000000
40
1.0000000000
40
1.0000000000
40
1.0000000000
10
-22.3114491951
20
20.3211976496
30
0.0000000000
10
-22.3114696658
20
20.3384234482
30
0.0000000000
10
-22.3115325927
20
20.3726966407
30
0.0000000000
10
-22.3116936757
20
20.4237409522
30
0.0000000000
10
-22.3119202317
20
20.4739618229
30
0.0000000000
10
-22.3122109811
20
20.5230785082
30
0.0000000000
10
-22.3125642864
20
20.5708201506
30
0.0000000000
10
-22.3129781563
20
20.6169235745
30
0.0000000000
10
-22.3134502504
20
20.6611345766
30
0.0000000000
10
-22.3139778814
20
20.7032093802
30
0.0000000000
10
-22.3145580445
20
20.7429160011
30
0.0000000000
10
-22.3151873435
20
20.7800355669
30
0.0000000000
10
-22.3158622485
20
20.8143632451
30
0.0000000000
10
-22.3165782168
20
20.8457102732
30
0.0000000000
10
-22.3173324577
20
20.8739021751
30
0.0000000000
10
-22.3181149365
20
20.8987887879
30
0.0000000000
10
-22.3189355953
20
20.9202172203
30
0.0000000000
10
-22.3197423150
20
20.9381157746
30
0.0000000000
10
-22.3206500712
20
20.9522603532
30
0.0000000000
10
-22.3213300841
20
20.9628948287
30
0.0000000000
10
-22.3224261918
20
20.9692897488
30
0.0000000000
10
-22.3227248574
20
20.9728464771
30
0.0000000000
10
-22.3234262834
20
20.9735481273
30
0.0000000000
11
-22.3114491951
21
20.3211976496
31
0.0000000000
11
-22.3115443458
21
20.3728749943
31
0.0000000000
11
-22.3117061946
21
20.4240170221
31
0.0000000000
11
-22.3119338358
21
20.4743304444
31
0.0000000000
11
-22.3122260143
21
20.5235374527
31
0.0000000000
11
-22.3125811199
21
20.5713669079
31
0.0000000000
11
-22.3129971963
21
20.6175551786
31
0.0000000000
11
-22.3134719491
21
20.6618474984
31
0.0000000000
11
-22.3140027613
21
20.7039996479
31
0.0000000000
11
-22.3145867074
21
20.7437792541
31
0.0000000000
11
-22.3152205685
21
20.7809669752
31
0.0000000000
11
-22.3159008500
21
20.8153577330
31
0.0000000000
11
-22.3166238014
21
20.8467618685
31
0.0000000000
11
-22.3173854365
21
20.8750061908
31
0.0000000000
11
-22.3181815567
21
20.8999349637
31
0.0000000000
11
-22.3190077724
21
20.9214106971
31
0.0000000000
11
-22.3198595259
21
20.9393149100
31
0.0000000000
11
-22.3207321221
21
20.9535489043
31
0.0000000000
11
-22.3216207519
21
20.9640341953
31
0.0000000000
11
-22.3225205081
21
20.9707129245
31
0.0000000000
11
-22.3234262834
21
20.9735481273
31
0.0000000000
0
SPLINE
5
227
100
AcDbEntity
8
0
100
AcDbSpline
62
9
6
CONTINUOUS
70
0
71
3
72
24
73
20
74
18
42
0.0000001000
43
0.0000001000
44
0.0000000001
12
0.0003825233
22
1.2558773180
32
0.0000000000
13
1.2558773180
23
0.0003825233
33
0.0000000000
40
0.0000000000
40
0.0000000000
40
0.0000000000
40
0.0000000000
40
0.0588186470
40
0.1176389184
40
0.1764607307
40
0.2352839479
40
0.2941083860
40
0.3529338199
40
0.4117599902
40
0.4705866126
40
0.5294133874
40
0.5882400098
40
0.6470661801
40
0.7058916140
40
0.7647160521
40
0.8235392693
40
0.8823610816
40
0.9411813530
40
1.0000000000
40
1.0000000000
40
1.0000000000
40
1.0000000000
10
-22.3234262834
20
20.9735481273
30
0.0000000000
10
-22.3234187836
20
20.9981711288
30
0.0000000000
10
-22.3211265649
20
21.0474474177
30
0.0000000000
10
-22.3108862805
20
21.1207062205
30
0.0000000000
10
-22.2939313244
20
21.1927164970
30
0.0000000000
10
-22.2704063040
20
21.2628558604
30
0.0000000000
10
-22.2405118537
20
21.3305283609
30
0.0000000000
10
-22.2045029269
20
21.3951562801
30
0.0000000000
10
-22.1626866202
20
21.4561886180
30
0.0000000000
10
-22.1154195555
20
21.5131048368
30
0.0000000000
10
-22.0631048368
20
21.5654195555
30
0.0000000000
10
-22.0061886180
20
21.6126866202
30
0.0000000000
10
-21.9451562801
20
21.6545029269
30
0.0000000000
10
-21.8805283609
20
21.6905118537
30
0.0000000000
10
-21.8128558604
20
21.7204063040
30
0.0000000000
10
-21.7427164970
20
21.7439313244
30
0.0000000000
10
-21.6707062205
20
21.7608862805
30
0.0000000000
10
-21.5974474177
20
21.7711265649
30
0.0000000000
10
-21.5481711288
20
21.7734187836
30
0.0000000000
10
-21.5235481273
20
21.7734262834
30
0.0000000000
11
-22.3234262834
21
20.9735481273
31
0.0000000000
11
-22.3199929912
21
21.0473373058
31
0.0000000000
11
-22.3097673453
21
21.1204971849
31
0.0000000000
11
-22.2928365535
21
21.1924038324
31
0.0000000000
11
-22.2693450073
21
21.2624440036
31
0.0000000000
11
-22.2394930507
21
21.3300203722
31
0.0000000000
11
-22.2035352714
21
21.3945566238
31
0.0000000000
11
-22.1617783296
21
21.4555023712
31
0.0000000000
11
-22.1145783427
21
21.5123378483
31
0.0000000000
11
-22.0623378483
21
21.5645783427
31
0.0000000000
11
-22.0055023712
21
21.6117783296
31
0.0000000000
11
-21.9445566238
21
21.6535352714
31
0.0000000000
11
-21.8800203722
21
21.6894930507
31
0.0000000000
11
-21.8124440036
21
21.7193450073
31
0.0000000000
11
-21.7424038324
21
21.7428365535
31
0.0000000000
11
-21.6704971849
21
21.7597673453
31
0.0000000000
11
-21.5973373058
21
21.7699929912
31
0.0000000000
11
-21.5235481273
21
21.7734262834
31
0.0000000000
0
SPLINE
5
228
100
AcDbEntity
8
0
100
AcDbSpline
62
9
6
CONTINUOUS
70
0
71
3
72
24
73
20
74
18
42
0.0000001000
43
0.0000001000
44
0.0000000001
12
-0.0003825233
22
1.2558773180
32
0.0000000000
13
-1.2558773180
23
0.0003825233
33
0.0000000000
40
0.0000000000
40
0.0000000000
40
0.0000000000
40
0.0000000000
40
0.0588186462
40
0.1176389169
40
0.1764607286
40
0.2352839452
40
0.2941083830
40
0.3529338166
40
0.4117599868
40
0.4705866092
40
0.5294133841
40
0.5882400067
40
0.6470661772
40
0.7058916114
40
0.7647160500
40
0.8235392676
40
0.8823610804
40
0.9411813524
40
1.0000000000
40
1.0000000000
40
1.0000000000
40
1.0000000000
10
22.3234262834
20
20.9735481273
30
0.0000000000
10
22.3234187836
20
20.9981711285
30
0.0000000000
10
22.3211265649
20
21.0474474167
30
0.0000000000
10
22.3108862809
20
21.1207062186
30
0.0000000000
10
22.2939313251
20
21.1927164945
30
0.0000000000
10
22.2704063052
20
21.2628558573
30
0.0000000000
10
22.2405118554
20
21.3305283575
30
0.0000000000
10
22.2045029290
20
21.3951562767
30
0.0000000000
10
22.1626866228
20
21.4561886146
30
0.0000000000
10
22.1154195584
20
21.5131048336
30
0.0000000000
10
22.0631048398
20
21.5654195527
30
0.0000000000
10
22.0061886211
20
21.6126866179
30
0.0000000000
10
21.9451562832
20
21.6545029250
30
0.0000000000
10
21.8805283637
20
21.6905118523
30
0.0000000000
10
21.8128558629
20
21.7204063031
30
0.0000000000
10
21.7427164990
20
21.7439313239
30
0.0000000000
10
21.6707062219
20
21.7608862803
30
0.0000000000
10
21.5974474185
20
21.7711265648
30
0.0000000000
10
21.5481711291
20
21.7734187836
30
0.0000000000
10
21.5235481273
20
21.7734262834
30
0.0000000000
11
22.3234262834
21
20.9735481273
31
0.0000000000
11
22.3199929913
21
21.0473373047
31
0.0000000000
11
22.3097673457
21
21.1204971830
31
0.0000000000
11
22.2928365542
21
21.1924038297
31
0.0000000000
11
22.2693450085
21
21.2624440005
31
0.0000000000
11
22.2394930524
21
21.3300203689
31
0.0000000000
11
22.2035352736
21
21.3945566204
31
0.0000000000
11
22.1617783321
21
21.4555023678
31
0.0000000000
11
22.1145783455
21
21.5123378451
31
0.0000000000
11
22.0623378514
21
21.5645783399
31
0.0000000000
11
22.0055023744
21
21.6117783272
31
0.0000000000
11
21.9445566269
21
21.6535352695
31
0.0000000000
11
21.8800203751
21
21.6894930493
31
0.0000000000
11
21.8124440061
21
21.7193450064
31
0.0000000000
11
21.7424038344
21
21.7428365529
31
0.0000000000
11
21.6704971863
21
21.7597673450
31
0.0000000000
11
21.5973373065
21
21.7699929911
31
0.0000000000
11
21.5235481273
21
21.7734262834
31
0.0000000000
0
SPLINE
5
229
100
AcDbEntity
8
0
100
AcDbSpline
62
9
6
CONTINUOUS
70
0
71
3
72
27
73
23
74
21
42
0.0000001000
43
0.0000001000
44
0.0000000001
12
-0.5910243729
22
-1.2669931980
32
0.0000000000
13
-0.0007752298
23
-1.3980632934
33
0.0000000000
40
0.0000000000
40
0.0000000000
40
0.0000000000
40
0.0000000000
40
0.0043947882
40
0.0146523245
40
0.0307364498
40
0.0525624292
40
0.0800114567
40
0.1129329560
40
0.1511457272
40
0.1944392866
40
0.2425751178
40
0.2952879313
40
0.3522871454
40
0.4132585266
40
0.4778659666
40
0.5457533759
40
0.6165465024
40
0.6898549219
40
0.7652746242
40
0.8423900776
40
0.9207755499
40
1.0000000000
40
1.0000000000
40
1.0000000000
40
1.0000000000
10
21.5235481273
20
21.7734262834
30
0.0000000000
10
21.5226823183
20
21.7715702278
30
0.0000000000
10
21.5227188553
20
21.7644748593
30
0.0000000000
10
21.5213489947
20
21.7504152164
30
0.0000000000
10
21.5208160548
20
21.7278558359
30
0.0000000000
10
21.5198466128
20
21.6974622433
30
0.0000000000
10
21.5190634307
20
21.6591455002
30
0.0000000000
10
21.5182345915
20
21.6132178322
30
0.0000000000
10
21.5174549189
20
21.5598953709
30
0.0000000000
10
21.5166998141
20
21.4994848096
30
0.0000000000
10
21.5159841495
20
21.4323150365
30
0.0000000000
10
21.5153091760
20
21.3587577399
30
0.0000000000
10
21.5146799170
20
21.2792181071
30
0.0000000000
10
21.5140997565
20
21.1941348473
30
0.0000000000
10
21.5135721353
20
21.1039770177
30
0.0000000000
10
21.5131000445
20
21.0092416834
30
0.0000000000
10
21.5126861776
20
20.9104511997
30
0.0000000000
10
21.5123328682
20
20.8081502524
30
0.0000000000
10
21.5120421205
20
20.7029027590
30
0.0000000000
10
21.5118155485
20
20.5952890889
30
0.0000000000
10
21.5116544559
20
20.4859022066
30
0.0000000000
10
21.5115915114
20
20.4124526679
30
0.0000000000
10
21.5115710390
20
20.3755324027
30
0.0000000000
11
21.5235481273
21
21.7734262834
31
0.0000000000
11
21.5226422011
21
21.7673492443
31
0.0000000000
11
21.5217424983
21
21.7530368076
31
0.0000000000
11
21.5208538695
21
21.7305677442
31
0.0000000000
11
21.5199812977
21
21.7000661172
31
0.0000000000
11
21.5191295597
21
21.6617000868
31
0.0000000000
11
21.5183033621
21
21.6156811560
31
0.0000000000
11
21.5175072583
21
21.5622632070
31
0.0000000000
11
21.5167456390
21
21.5017408535
31
0.0000000000
11
21.5160227018
21
21.4344477875
31
0.0000000000
11
21.5153424326
21
21.3607550663
31
0.0000000000
11
21.5147085818
21
21.2810690660
31
0.0000000000
11
21.5141246437
21
21.1958292031
31
0.0000000000
11
21.5135938372
21
21.1055054586
31
0.0000000000
11
21.5131190875
21
21.0105957362
31
0.0000000000
11
21.5127030121
21
20.9116233240
31
0.0000000000
11
21.5123479038
21
20.8091341131
31
0.0000000000
11
21.5120557226
21
20.7036929843
31
0.0000000000
11
21.5118280711
21
20.5958809233
31
0.0000000000
11
21.5116662175
21
20.4862931744
31
0.0000000000
11
21.5115710390
21
20.3755324027
31
0.0000000000
0
SPLINE
5
22A
100
AcDbEntity
8
0
100
AcDbSpline
62
9
6
CONTINUOUS
70
0
71
3
72
27
73
23
74
21
42
0.0000001000
43
0.0000001000
44
0.0000000001
12
-0.4614625851
22
-0.4616100760
32
0.0000000000
13
-0.0007756653
23
-0.6527104856
33
0.0000000000
40
0.0000000000
40
0.0000000000
40
0.0000000000
40
0.0000000000
40
0.0045600189
40
0.0148847487
40
0.0310065547
40
0.0528549947
40
0.0803165559
40
0.1132432607
40
0.1514554006
40
0.1947434590
40
0.2428695951
40
0.2955690108
40
0.3525515433
40
0.4135033202
40
0.4780885578
40
0.5459514676
40
0.6167180834
40
0.6899982598
40
0.7653882560
40
0.8424728178
40
0.9208264661
40
1.0000000000
40
1.0000000000
40
1.0000000000
40
1.0000000000
10
22.3234262834
20
20.9735481273
30
0.0000000000
10
22.3227248574
20
20.9728464771
30
0.0000000000
10
22.3224261918
20
20.9692897488
30
0.0000000000
10
22.3213300841
20
20.9628948287
30
0.0000000000
10
22.3206500712
20
20.9522603532
30
0.0000000000
10
22.3197423150
20
20.9381157746
30
0.0000000000
10
22.3189355953
20
20.9202172203
30
0.0000000000
10
22.3181149365
20
20.8987887879
30
0.0000000000
10
22.3173324577
20
20.8739021751
30
0.0000000000
10
22.3165782168
20
20.8457102732
30
0.0000000000
10
22.3158622485
20
20.8143632451
30
0.0000000000
10
22.3151873435
20
20.7800355669
30
0.0000000000
10
22.3145580445
20
20.7429160011
30
0.0000000000
10
22.3139778814
20
20.7032093802
30
0.0000000000
10
22.3134502504
20
20.6611345766
30
0.0000000000
10
22.3129781563
20
20.6169235745
30
0.0000000000
10
22.3125642864
20
20.5708201506
30
0.0000000000
10
22.3122109811
20
20.5230785082
30
0.0000000000
10
22.3119202317
20
20.4739618229
30
0.0000000000
10
22.3116936757
20
20.4237409522
30
0.0000000000
10
22.3115325927
20
20.3726966407
30
0.0000000000
10
22.3114696658
20
20.3384234482
30
0.0000000000
10
22.3114491951
20
20.3211976496
30
0.0000000000
11
22.3234262834
21
20.9735481273
31
0.0000000000
11
22.3225205081
21
20.9707129245
31
0.0000000000
11
22.3216207519
21
20.9640341953
31
0.0000000000
11
22.3207321221
21
20.9535489043
31
0.0000000000
11
22.3198595259
21
20.9393149100
31
0.0000000000
11
22.3190077724
21
20.9214106971
31
0.0000000000
11
22.3181815567
21
20.8999349637
31
0.0000000000
11
22.3173854365
21
20.8750061908
31
0.0000000000
11
22.3166238014
21
20.8467618685
31
0.0000000000
11
22.3159008500
21
20.8153577330
31
0.0000000000
11
22.3152205685
21
20.7809669752
31
0.0000000000
11
22.3145867074
21
20.7437792541
31
0.0000000000
11
22.3140027613
21
20.7039996479
31
0.0000000000
11
22.3134719491
21
20.6618474984
31
0.0000000000
11
22.3129971963
21
20.6175551786
31
0.0000000000
11
22.3125811199
21
20.5713669079
31
0.0000000000
11
22.3122260143
21
20.5235374527
31
0.0000000000
11
22.3119338358
21
20.4743304444
31
0.0000000000
11
22.3117061946
21
20.4240170221
31
0.0000000000
11
22.3115443458
21
20.3728749943
31
0.0000000000
11
22.3114491951
21
20.3211976496
31
0.0000000000
0
SPLINE
5
22B
100
AcDbEntity
8
0
100
AcDbSpline
62
9
6
CONTINUOUS
70
0
71
3
72
24
73
20
74
18
42
0.0000001000
43
0.0000001000
44
0.0000000001
12
-0.2000106173
22
0.7802891868
32
0.0000000000
13
-0.8055150864
23
0.0009527498
33
0.0000000000
40
0.0000000000
40
0.0000000000
40
0.0000000000
40
0.0000000000
40
0.0084036160
40
0.0236382935
40
0.0465188378
40
0.0770996584
40
0.1152229665
40
0.1606196706
40
0.2129396186
40
0.2717648161
40
0.3366174257
40
0.4069659923
40
0.4822310951
40
0.5617908967
40
0.6449867765
40
0.7311291188
40
0.8195032705
40
0.9093756531
40
1.0000000000
40
1.0000000000
40
1.0000000000
40
1.0000000000
10
22.3114491951
20
20.3211976496
30
0.0000000000
10
22.3108889243
20
20.3233833998
30
0.0000000000
10
22.3052151891
20
20.3276595044
30
0.0000000000
10
22.2938374075
20
20.3319106244
30
0.0000000000
10
22.2757968670
20
20.3366291894
30
0.0000000000
10
22.2516842520
20
20.3411275433
30
0.0000000000
10
22.2213421372
20
20.3455896306
30
0.0000000000
10
22.1851241420
20
20.3498539410
30
0.0000000000
10
22.1432827925
20
20.3539104561
30
0.0000000000
10
22.0961784509
20
20.3577061917
30
0.0000000000
10
22.0441977627
20
20.3612096089
30
0.0000000000
10
21.9877750078
20
20.3643876455
30
0.0000000000
10
21.9273799546
20
20.3672124982
30
0.0000000000
10
21.8635163124
20
20.3696593267
30
0.0000000000
10
21.7967166684
20
20.3717069496
30
0.0000000000
10
21.7275382311
20
20.3733377126
30
0.0000000000
10
21.6565580718
20
20.3745376273
30
0.0000000000
10
21.5843683706
20
20.3752964301
30
0.0000000000
10
21.5359041319
20
20.3755036219
30
0.0000000000
10
21.5115710390
20
20.3755324027
30
0.0000000000
11
22.3114491951
21
20.3211976496
31
0.0000000000
11
22.3068411740
21
20.3261563600
31
0.0000000000
11
22.2955976794
21
20.3310736964
31
0.0000000000
11
22.2778125234
21
20.3359086304
31
0.0000000000
11
22.2536340994
21
20.3406208208
31
0.0000000000
11
22.2232641444
21
20.3451709506
31
0.0000000000
11
22.1869560552
21
20.3495210551
31
0.0000000000
11
22.1450127747
21
20.3536348383
31
0.0000000000
11
22.0977842639
21
20.3574779762
31
0.0000000000
11
22.0456645819
21
20.3610184030
31
0.0000000000
11
21.9890885984
21
20.3642265785
31
0.0000000000
11
21.9285283648
21
20.3670757347
31
0.0000000000
11
21.8644891759
21
20.3695420991
31
0.0000000000
11
21.7975053536
21
20.3716050933
31
0.0000000000
11
21.7281357891
21
20.3732475044
31
0.0000000000
11
21.6569592793
21
20.3744556284
31
0.0000000000
11
21.5845696976
21
20.3752193854
31
0.0000000000
11
21.5115710390
21
20.3755324027
31
0.0000000000
0
SPLINE
5
22C
100
AcDbEntity
8
0
100
AcDbSpline
62
9
6
CONTINUOUS
70
0
71
3
72
24
73
20
74
18
42
0.0000001000
43
0.0000001000
44
0.0000000001
12
-0.2000108317
22
-0.7802891311
32
0.0000000000
13
-0.8055150856
23
-0.0009527496
33
0.0000000000
40
0.0000000000
40
0.0000000000
40
0.0000000000
40
0.0000000000
40
0.0084036170
40
0.0236382959
40
0.0465188414
40
0.0770996629
40
0.1152229718
40
0.1606196764
40
0.2129396247
40
0.2717648223
40
0.3366174318
40
0.4069659980
40
0.4822311004
40
0.5617909014
40
0.6449867804
40
0.7311291219
40
0.8195032726
40
0.9093756541
40
1.0000000000
40
1.0000000000
40
1.0000000000
40
1.0000000000
10
22.3114491951
20
-20.3211976496
30
0.0000000000
10
22.3108889236
20
-20.3233834000
30
0.0000000000
10
22.3052151876
20
-20.3276595040
30
0.0000000000
10
22.2938374050
20
-20.3319106243
30
0.0000000000
10
22.2757968635
20
-20.3366291891
30
0.0000000000
10
22.2516842477
20
-20.3411275429
30
0.0000000000
10
22.2213421324
20
-20.3455896301
30
0.0000000000
10
22.1851241367
20
-20.3498539404
30
0.0000000000
10
22.1432827870
20
-20.3539104554
30
0.0000000000
10
22.0961784454
20
-20.3577061909
30
0.0000000000
10
22.0441977574
20
-20.3612096080
30
0.0000000000
10
21.9877750027
20
-20.3643876446
30
0.0000000000
10
21.9273799500
20
-20.3672124971
30
0.0000000000
10
21.8635163083
20
-20.3696593255
30
0.0000000000
10
21.7967166650
20
-20.3717069484
30
0.0000000000
10
21.7275382285
20
-20.3733377113
30
0.0000000000
10
21.6565580700
20
-20.3745376260
30
0.0000000000
10
21.5843683697
20
-20.3752964288
30
0.0000000000
10
21.5359041315
20
-20.3755036205
30
0.0000000000
10
21.5115710390
20
-20.3755324013
30
0.0000000000
11
22.3114491951
21
-20.3211976496
31
0.0000000000
11
22.3068411727
21
-20.3261563599
31
0.0000000000
11
22.2955976769
21
-20.3310736963
31
0.0000000000
11
22.2778125199
21
-20.3359086302
31
0.0000000000
11
22.2536340951
21
-20.3406208205
31
0.0000000000
11
22.2232641395
21
-20.3451709502
31
0.0000000000
11
22.1869560499
21
-20.3495210545
31
0.0000000000
11
22.1450127692
21
-20.3536348376
31
0.0000000000
11
22.0977842583
21
-20.3574779755
31
0.0000000000
11
22.0456645765
21
-20.3610184022
31
0.0000000000
11
21.9890885933
21
-20.3642265775
31
0.0000000000
11
21.9285283601
21
-20.3670757336
31
0.0000000000
11
21.8644891718
21
-20.3695420980
31
0.0000000000
11
21.7975053502
21
-20.3716050921
31
0.0000000000
11
21.7281357864
21
-20.3732475031
31
0.0000000000
11
21.6569592774
21
-20.3744556271
31
0.0000000000
11
21.5845696966
21
-20.3752193840
31
0.0000000000
11
21.5115710390
21
-20.3755324013
31
0.0000000000
0
SPLINE
5
22D
100
AcDbEntity
8
0
100
AcDbSpline
62
9
6
CONTINUOUS
70
0
71
3
72
27
73
23
74
21
42
0.0000001000
43
0.0000001000
44
0.0000000001
12
0.0007751445
22
-1.3980632926
32
0.0000000000
13
0.5910451942
23
-1.2669834843
33
0.0000000000
40
0.0000000000
40
0.0000000000
40
0.0000000000
40
0.0000000000
40
0.0792244720
40
0.1576099414
40
0.2347253935
40
0.3101450975
40
0.3834535138
40
0.4542466388
40
0.5221340491
40
0.5867414889
40
0.6477128687
40
0.7047120817
40
0.7574248946
40
0.8055607253
40
0.8488542832
40
0.8870670525
40
0.9199885510
40
0.9474375782
40
0.9692635557
40
0.9853476796
40
0.9956052147
40
1.0000000000
40
1.0000000000
40
1.0000000000
40
1.0000000000
10
21.5115710390
20
-20.3755324027
30
0.0000000000
10
21.5115915091
20
-20.4124526781
30
0.0000000000
10
21.5116544586
20
-20.4859022257
30
0.0000000000
10
21.5118155481
20
-20.5952891161
30
0.0000000000
10
21.5120421225
20
-20.7029027850
30
0.0000000000
10
21.5123328698
20
-20.8081502770
30
0.0000000000
10
21.5126861802
20
-20.9104512228
30
0.0000000000
10
21.5131000475
20
-21.0092417047
30
0.0000000000
10
21.5135721391
20
-21.1039770386
30
0.0000000000
10
21.5140997609
20
-21.1941348679
30
0.0000000000
10
21.5146799221
20
-21.2792181264
30
0.0000000000
10
21.5153091816
20
-21.3587577578
30
0.0000000000
10
21.5159841555
20
-21.4323150533
30
0.0000000000
10
21.5166998201
20
-21.4994848251
30
0.0000000000
10
21.5174549251
20
-21.5598953845
30
0.0000000000
10
21.5182345967
20
-21.6132178441
30
0.0000000000
10
21.5190634383
20
-21.6591455099
30
0.0000000000
10
21.5198466134
20
-21.6974622538
30
0.0000000000
10
21.5208160723
20
-21.7278558387
30
0.0000000000
10
21.5213489739
20
-21.7504152310
30
0.0000000000
10
21.5227189020
20
-21.7644748449
30
0.0000000000
10
21.5226822884
20
-21.7715702433
30
0.0000000000
10
21.5235481273
20
-21.7734262834
30
0.0000000000
11
21.5115710390
21
-20.3755324027
31
0.0000000000
11
21.5116662185
21
-20.4862932050
31
0.0000000000
11
21.5118280716
21
-20.5958809498
31
0.0000000000
11
21.5120557242
21
-20.7036930088
31
0.0000000000
11
21.5123479057
21
-20.8091341399
31
0.0000000000
11
21.5127030146
21
-20.9116233464
31
0.0000000000
11
21.5131190905
21
-21.0105957564
31
0.0000000000
11
21.5135938410
21
-21.1055054800
31
0.0000000000
11
21.5141246482
21
-21.1958292243
31
0.0000000000
11
21.5147085869
21
-21.2810690853
31
0.0000000000
11
21.5153424382
21
-21.3607550839
31
0.0000000000
11
21.5160227077
21
-21.4344478042
31
0.0000000000
11
21.5167456450
21
-21.5017408694
31
0.0000000000
11
21.5175072643
21
-21.5622632209
31
0.0000000000
11
21.5183033680
21
-21.6156811671
31
0.0000000000
11
21.5191295655
21
-21.6617000969
31
0.0000000000
11
21.5199813031
21
-21.7000661269
31
0.0000000000
11
21.5208538753
21
-21.7305677510
31
0.0000000000
11
21.5217425023
21
-21.7530368126
31
0.0000000000
11
21.5226422074
21
-21.7673492473
31
0.0000000000
11
21.5235481273
21
-21.7734262834
31
0.0000000000
0
SPLINE
5
22E
100
AcDbEntity
8
0
100
AcDbSpline
62
9
6
CONTINUOUS
70
0
71
3
72
27
73
23
74
21
42
0.0000001000
43
0.0000001000
44
0.0000000001
12
0.0007756567
22
-0.6527104875
32
0.0000000000
13
0.4614526205
23
-0.4616200399
33
0.0000000000
40
0.0000000000
40
0.0000000000
40
0.0000000000
40
0.0000000000
40
0.0791781946
40
0.1575318780
40
0.2346164459
40
0.3100064250
40
0.3832865491
40
0.4540530840
40
0.5219158840
40
0.5865009787
40
0.6474525655
40
0.7044348321
40
0.7571339163
40
0.8052596689
40
0.8485473291
40
0.8867590705
40
0.9196853811
40
0.9471465525
40
0.9689946111
40
0.9851160386
40
0.9954404202
40
1.0000000000
40
1.0000000000
40
1.0000000000
40
1.0000000000
10
22.3114491951
20
-20.3211976496
30
0.0000000000
10
22.3114696668
20
-20.3384244623
30
0.0000000000
10
22.3115325973
20
-20.3726986765
30
0.0000000000
10
22.3116936872
20
-20.4237440112
30
0.0000000000
10
22.3119202477
20
-20.4739648873
30
0.0000000000
10
22.3122110013
20
-20.5230815589
30
0.0000000000
10
22.3125643110
20
-20.5708231687
30
0.0000000000
10
22.3129781853
20
-20.6169265398
30
0.0000000000
10
22.3134502838
20
-20.6611374695
30
0.0000000000
10
22.3139779192
20
-20.7032121768
30
0.0000000000
10
22.3145580865
20
-20.7429186674
30
0.0000000000
10
22.3151873890
20
-20.7800380619
30
0.0000000000
10
22.3158622969
20
-20.8143655267
30
0.0000000000
10
22.3165782672
20
-20.8457123125
30
0.0000000000
10
22.3173325094
20
-20.8739039577
30
0.0000000000
10
22.3181149896
20
-20.8987903110
30
0.0000000000
10
22.3189356472
20
-20.9202184870
30
0.0000000000
10
22.3197423716
20
-20.9381167846
30
0.0000000000
10
22.3206501142
20
-20.9522611210
30
0.0000000000
10
22.3213301563
20
-20.9628953339
30
0.0000000000
10
22.3224261914
20
-20.9692900459
30
0.0000000000
10
22.3227249401
20
-20.9728465295
30
0.0000000000
10
22.3234262834
20
-20.9735481273
30
0.0000000000
11
22.3114491951
21
-20.3211976496
31
0.0000000000
11
22.3115443534
21
-20.3728780365
31
0.0000000000
11
22.3117062062
21
-20.4240200874
31
0.0000000000
11
22.3119338518
21
-20.4743335138
31
0.0000000000
11
22.3122260347
21
-20.5235405111
31
0.0000000000
11
22.3125811447
21
-20.5713699321
31
0.0000000000
11
22.3129972255
21
-20.6175581502
31
0.0000000000
11
22.3134719828
21
-20.6618503984
31
0.0000000000
11
22.3140027995
21
-20.7040024547
31
0.0000000000
11
22.3145867499
21
-20.7437819369
31
0.0000000000
11
22.3152206146
21
-20.7809694844
31
0.0000000000
11
22.3159008990
21
-20.8153600259
31
0.0000000000
11
22.3166238523
21
-20.8467639111
31
0.0000000000
11
22.3173854888
21
-20.8750079734
31
0.0000000000
11
22.3181816100
21
-20.8999364861
31
0.0000000000
11
22.3190078264
21
-20.9214119620
31
0.0000000000
11
22.3198595803
21
-20.9393159203
31
0.0000000000
11
22.3207321765
21
-20.9535496653
31
0.0000000000
11
22.3216208060
21
-20.9640347082
31
0.0000000000
11
22.3225205615
21
-20.9707132083
31
0.0000000000
11
22.3234262834
21
-20.9735481273
31
0.0000000000
0
SPLINE
5
22F
100
AcDbEntity
8
0
100
AcDbSpline
62
9
6
CONTINUOUS
70
0
71
3
72
24
73
20
74
18
42
0.0000001000
43
0.0000001000
44
0.0000000001
12
-0.0003825233
22
-1.2558773180
32
0.0000000000
13
-1.2558773180
23
-0.0003825233
33
0.0000000000
40
0.0000000000
40
0.0000000000
40
0.0000000000
40
0.0000000000
40
0.0588186470
40
0.1176389184
40
0.1764607307
40
0.2352839479
40
0.2941083860
40
0.3529338199
40
0.4117599902
40
0.4705866126
40
0.5294133874
40
0.5882400098
40
0.6470661801
40
0.7058916140
40
0.7647160521
40
0.8235392693
40
0.8823610816
40
0.9411813530
40
1.0000000000
40
1.0000000000
40
1.0000000000
40
1.0000000000
10
22.3234262834
20
-20.9735481273
30
0.0000000000
10
22.3234187836
20
-20.9981711288
30
0.0000000000
10
22.3211265649
20
-21.0474474177
30
0.0000000000
10
22.3108862805
20
-21.1207062205
30
0.0000000000
10
22.2939313244
20
-21.1927164970
30
0.0000000000
10
22.2704063040
20
-21.2628558604
30
0.0000000000
10
22.2405118537
20
-21.3305283609
30
0.0000000000
10
22.2045029269
20
-21.3951562801
30
0.0000000000
10
22.1626866202
20
-21.4561886180
30
0.0000000000
10
22.1154195555
20
-21.5131048368
30
0.0000000000
10
22.0631048368
20
-21.5654195555
30
0.0000000000
10
22.0061886180
20
-21.6126866202
30
0.0000000000
10
21.9451562801
20
-21.6545029269
30
0.0000000000
10
21.8805283609
20
-21.6905118537
30
0.0000000000
10
21.8128558604
20
-21.7204063040
30
0.0000000000
10
21.7427164970
20
-21.7439313244
30
0.0000000000
10
21.6707062205
20
-21.7608862805
30
0.0000000000
10
21.5974474177
20
-21.7711265649
30
0.0000000000
10
21.5481711288
20
-21.7734187836
30
0.0000000000
10
21.5235481273
20
-21.7734262834
30
0.0000000000
11
22.3234262834
21
-20.9735481273
31
0.0000000000
11
22.3199929912
21
-21.0473373058
31
0.0000000000
11
22.3097673453
21
-21.1204971849
31
0.0000000000
11
22.2928365535
21
-21.1924038324
31
0.0000000000
11
22.2693450073
21
-21.2624440036
31
0.0000000000
11
22.2394930507
21
-21.3300203722
31
0.0000000000
11
22.2035352714
21
-21.3945566238
31
0.0000000000
11
22.1617783296
21
-21.4555023712
31
0.0000000000
11
22.1145783427
21
-21.5123378483
31
0.0000000000
11
22.0623378483
21
-21.5645783427
31
0.0000000000
11
22.0055023712
21
-21.6117783296
31
0.0000000000
11
21.9445566238
21
-21.6535352714
31
0.0000000000
11
21.8800203722
21
-21.6894930507
31
0.0000000000
11
21.8124440036
21
-21.7193450073
31
0.0000000000
11
21.7424038324
21
-21.7428365535
31
0.0000000000
11
21.6704971849
21
-21.7597673453
31
0.0000000000
11
21.5973373058
21
-21.7699929912
31
0.0000000000
11
21.5235481273
21
-21.7734262834
31
0.0000000000
0
SPLINE
5
230
100
AcDbEntity
8
0
100
AcDbSpline
62
7
6
CONTINUOUS
70
0
71
3
72
25
73
21
74
19
42
0.0000001000
43
0.0000001000
44
0.0000000001
12
-1.2560642624
22
0.0000000000
32
0.0000000000
13
-0.0000000000
23
1.2560642624
33
0.0000000000
40
0.0000000000
40
0.0000000000
40
0.0000000000
40
0.0000000000
40
0.0554644434
40
0.1111153863
40
0.1667154711
40
0.2221349795
40
0.2777245832
40
0.3333928194
40
0.3889253048
40
0.4443625581
40
0.5000026464
40
0.5556436435
40
0.6110814993
40
0.6666127820
40
0.7222805417
40
0.7778713438
40
0.8332910856
40
0.8888884773
40
0.9445376644
40
1.0000000000
40
1.0000000000
40
1.0000000000
40
1.0000000000
10
-21.6001218439
20
-21.8500000000
30
0.0000000000
10
-21.6233441456
20
-21.8500000000
30
0.0000000000
10
-21.6698922379
20
-21.8479720715
30
0.0000000000
10
-21.7391816522
20
-21.8388563924
30
0.0000000000
10
-21.8073983406
20
-21.8237334405
30
0.0000000000
10
-21.8740123789
20
-21.8027357635
30
0.0000000000
10
-21.9385724102
20
-21.7760061475
30
0.0000000000
10
-22.0005953763
20
-21.7437219969
30
0.0000000000
10
-22.0595113530
20
-21.7061848979
30
0.0000000000
10
-22.1149261177
20
-21.6636686799
30
0.0000000000
10
-22.1664591867
20
-21.6164539373
30
0.0000000000
10
-22.2136736367
20
-21.5649202530
30
0.0000000000
10
-22.2561893682
20
-21.5095049493
30
0.0000000000
10
-22.2937256477
20
-21.4505889909
30
0.0000000000
10
-22.3260091818
20
-21.3885659330
30
0.0000000000
10
-22.3527383718
20
-21.3240052872
30
0.0000000000
10
-22.3737352157
20
-21.2573915394
30
0.0000000000
10
-22.3888572244
20
-21.1891764620
30
0.0000000000
10
-22.3979722193
20
-21.1198897347
30
0.0000000000
10
-22.4000000000
20
-21.0733432631
30
0.0000000000
10
-22.4000000000
20
-21.0501218439
30
0.0000000000
11
-21.6001218439
21
-21.8500000000
31
0.0000000000
11
-21.6697226940
21
-21.8469669578
31
0.0000000000
11
-21.7390267365
21
-21.8378498348
31
0.0000000000
11
-21.8072085951
21
-21.8227342875
31
0.0000000000
11
-21.8735988970
21
-21.8018071637
31
0.0000000000
11
-21.9381121750
21
-21.7750967926
31
0.0000000000
11
-22.0001357267
21
-21.7428122998
31
0.0000000000
11
-22.0589626901
21
-21.7053318845
31
0.0000000000
11
-22.1142084717
21
-21.6629452844
31
0.0000000000
11
-22.1657382416
21
-21.6157335362
31
0.0000000000
11
-22.2129502954
21
-21.5642024981
31
0.0000000000
11
-22.2553367914
21
-21.5089556828
31
0.0000000000
11
-22.2928158213
21
-21.4501296280
31
0.0000000000
11
-22.3250995149
21
-21.3881063350
31
0.0000000000
11
-22.3518098814
21
-21.3235914258
31
0.0000000000
11
-22.3727364213
21
-21.2572006325
31
0.0000000000
11
-22.3878506781
21
-21.1890219528
31
0.0000000000
11
-22.3969671883
21
-21.1197200539
31
0.0000000000
11
-22.4000000000
21
-21.0501218439
31
0.0000000000
0
SPLINE
5
231
100
AcDbEntity
8
0
100
AcDbSpline
62
7
6
CONTINUOUS
70
0
71
3
72
25
73
21
74
19
42
0.0000001000
43
0.0000001000
44
0.0000000001
12
0.0000000000
22
1.2560642624
32
0.0000000000
13
1.2560642624
23
0.0000000000
33
0.0000000000
40
0.0000000000
40
0.0000000000
40
0.0000000000
40
0.0000000000
40
0.0554623356
40
0.1111115227
40
0.1667089144
40
0.2221286562
40
0.2777194583
40
0.3333872180
40
0.3889185007
40
0.4443563565
40
0.4999973536
40
0.5556374419
40
0.6110746952
40
0.6666071806
40
0.7222754168
40
0.7778650205
40
0.8332845289
40
0.8888846137
40
0.9445355566
40
1.0000000000
40
1.0000000000
40
1.0000000000
40
1.0000000000
10
-22.4000000000
20
21.0501218439
30
0.0000000000
10
-22.4000000000
20
21.0733432631
30
0.0000000000
10
-22.3979722193
20
21.1198897347
30
0.0000000000
10
-22.3888572244
20
21.1891764620
30
0.0000000000
10
-22.3737352157
20
21.2573915394
30
0.0000000000
10
-22.3527383718
20
21.3240052872
30
0.0000000000
10
-22.3260091818
20
21.3885659330
30
0.0000000000
10
-22.2937256477
20
21.4505889909
30
0.0000000000
10
-22.2561893682
20
21.5095049493
30
0.0000000000
10
-22.2136736367
20
21.5649202530
30
0.0000000000
10
-22.1664591867
20
21.6164539373
30
0.0000000000
10
-22.1149261177
20
21.6636686799
30
0.0000000000
10
-22.0595113530
20
21.7061848979
30
0.0000000000
10
-22.0005953763
20
21.7437219969
30
0.0000000000
10
-21.9385724102
20
21.7760061475
30
0.0000000000
10
-21.8740123789
20
21.8027357635
30
0.0000000000
10
-21.8073983406
20
21.8237334405
30
0.0000000000
10
-21.7391816522
20
21.8388563924
30
0.0000000000
10
-21.6698922379
20
21.8479720715
30
0.0000000000
10
-21.6233441456
20
21.8500000000
30
0.0000000000
10
-21.6001218439
20
21.8500000000
30
0.0000000000
11
-22.4000000000
21
21.0501218439
31
0.0000000000
11
-22.3969671883
21
21.1197200539
31
0.0000000000
11
-22.3878506781
21
21.1890219528
31
0.0000000000
11
-22.3727364213
21
21.2572006325
31
0.0000000000
11
-22.3518098814
21
21.3235914258
31
0.0000000000
11
-22.3250995149
21
21.3881063350
31
0.0000000000
11
-22.2928158213
21
21.4501296280
31
0.0000000000
11
-22.2553367914
21
21.5089556828
31
0.0000000000
11
-22.2129502954
21
21.5642024981
31
0.0000000000
11
-22.1657382416
21
21.6157335362
31
0.0000000000
11
-22.1142084717
21
21.6629452844
31
0.0000000000
11
-22.0589626901
21
21.7053318845
31
0.0000000000
11
-22.0001357267
21
21.7428122998
31
0.0000000000
11
-21.9381121750
21
21.7750967926
31
0.0000000000
11
-21.8735988970
21
21.8018071637
31
0.0000000000
11
-21.8072085951
21
21.8227342875
31
0.0000000000
11
-21.7390267365
21
21.8378498348
31
0.0000000000
11
-21.6697226940
21
21.8469669578
31
0.0000000000
11
-21.6001218439
21
21.8500000000
31
0.0000000000
0
SPLINE
5
232
100
AcDbEntity
8
0
100
AcDbSpline
62
7
6
CONTINUOUS
70
0
71
3
72
25
73
21
74
19
42
0.0000001000
43
0.0000001000
44
0.0000000001
12
1.2560642624
22
0.0000000000
32
0.0000000000
13
-0.0000000000
23
-1.2560642624
33
0.0000000000
40
0.0000000000
40
0.0000000000
40
0.0000000000
40
0.0000000000
40
0.0554644434
40
0.1111153863
40
0.1667154711
40
0.2221349795
40
0.2777245832
40
0.3333928194
40
0.3889253048
40
0.4443625581
40
0.5000026464
40
0.5556436435
40
0.6110814993
40
0.6666127820
40
0.7222805417
40
0.7778713438
40
0.8332910856
40
0.8888884773
40
0.9445376644
40
1.0000000000
40
1.0000000000
40
1.0000000000
40
1.0000000000
10
21.6001218439
20
21.8500000000
30
0.0000000000
10
21.6233441456
20
21.8500000000
30
0.0000000000
10
21.6698922379
20
21.8479720715
30
0.0000000000
10
21.7391816522
20
21.8388563924
30
0.0000000000
10
21.8073983406
20
21.8237334405
30
0.0000000000
10
21.8740123789
20
21.8027357635
30
0.0000000000
10
21.9385724102
20
21.7760061475
30
0.0000000000
10
22.0005953763
20
21.7437219969
30
0.0000000000
10
22.0595113530
20
21.7061848979
30
0.0000000000
10
22.1149261177
20
21.6636686799
30
0.0000000000
10
22.1664591867
20
21.6164539373
30
0.0000000000
10
22.2136736367
20
21.5649202530
30
0.0000000000
10
22.2561893682
20
21.5095049493
30
0.0000000000
10
22.2937256477
20
21.4505889909
30
0.0000000000
10
22.3260091818
20
21.3885659330
30
0.0000000000
10
22.3527383718
20
21.3240052872
30
0.0000000000
10
22.3737352157
20
21.2573915394
30
0.0000000000
10
22.3888572244
20
21.1891764620
30
0.0000000000
10
22.3979722193
20
21.1198897347
30
0.0000000000
10
22.4000000000
20
21.0733432631
30
0.0000000000
10
22.4000000000
20
21.0501218439
30
0.0000000000
11
21.6001218439
21
21.8500000000
31
0.0000000000
11
21.6697226940
21
21.8469669578
31
0.0000000000
11
21.7390267365
21
21.8378498348
31
0.0000000000
11
21.8072085951
21
21.8227342875
31
0.0000000000
11
21.8735988970
21
21.8018071637
31
0.0000000000
11
21.9381121750
21
21.7750967926
31
0.0000000000
11
22.0001357267
21
21.7428122998
31
0.0000000000
11
22.0589626901
21
21.7053318845
31
0.0000000000
11
22.1142084717
21
21.6629452844
31
0.0000000000
11
22.1657382416
21
21.6157335362
31
0.0000000000
11
22.2129502954
21
21.5642024981
31
0.0000000000
11
22.2553367914
21
21.5089556828
31
0.0000000000
11
22.2928158213
21
21.4501296280
31
0.0000000000
11
22.3250995149
21
21.3881063350
31
0.0000000000
11
22.3518098814
21
21.3235914258
31
0.0000000000
11
22.3727364213
21
21.2572006325
31
0.0000000000
11
22.3878506781
21
21.1890219528
31
0.0000000000
11
22.3969671883
21
21.1197200539
31
0.0000000000
11
22.4000000000
21
21.0501218439
31
0.0000000000
0
SPLINE
5
233
100
AcDbEntity
8
0
100
AcDbSpline
62
7
6
CONTINUOUS
70
0
71
3
72
25
73
21
74
19
42
0.0000001000
43
0.0000001000
44
0.0000000001
12
0.0000000000
22
-1.2560642624
32
0.0000000000
13
-1.2560642624
23
0.0000000000
33
0.0000000000
40
0.0000000000
40
0.0000000000
40
0.0000000000
40
0.0000000000
40
0.0554623356
40
0.1111115227
40
0.1667089144
40
0.2221286562
40
0.2777194583
40
0.3333872180
40
0.3889185007
40
0.4443563565
40
0.4999973536
40
0.5556374419
40
0.6110746952
40
0.6666071806
40
0.7222754168
40
0.7778650205
40
0.8332845289
40
0.8888846137
40
0.9445355566
40
1.0000000000
40
1.0000000000
40
1.0000000000
40
1.0000000000
10
22.4000000000
20
-21.0501218439
30
0.0000000000
10
22.4000000000
20
-21.0733432631
30
0.0000000000
10
22.3979722193
20
-21.1198897347
30
0.0000000000
10
22.3888572244
20
-21.1891764620
30
0.0000000000
10
22.3737352157
20
-21.2573915394
30
0.0000000000
10
22.3527383718
20
-21.3240052872
30
0.0000000000
10
22.3260091818
20
-21.3885659330
30
0.0000000000
10
22.2937256477
20
-21.4505889909
30
0.0000000000
10
22.2561893682
20
-21.5095049493
30
0.0000000000
10
22.2136736367
20
-21.5649202530
30
0.0000000000
10
22.1664591867
20
-21.6164539373
30
0.0000000000
10
22.1149261177
20
-21.6636686799
30
0.0000000000
10
22.0595113530
20
-21.7061848979
30
0.0000000000
10
22.0005953763
20
-21.7437219969
30
0.0000000000
10
21.9385724102
20
-21.7760061475
30
0.0000000000
10
21.8740123789
20
-21.8027357635
30
0.0000000000
10
21.8073983406
20
-21.8237334405
30
0.0000000000
10
21.7391816522
20
-21.8388563924
30
0.0000000000
10
21.6698922379
20
-21.8479720715
30
0.0000000000
10
21.6233441456
20
-21.8500000000
30
0.0000000000
10
21.6001218439
20
-21.8500000000
30
0.0000000000
11
22.4000000000
21
-21.0501218439
31
0.0000000000
11
22.3969671883
21
-21.1197200539
31
0.0000000000
11
22.3878506781
21
-21.1890219528
31
0.0000000000
11
22.3727364213
21
-21.2572006325
31
0.0000000000
11
22.3518098814
21
-21.3235914258
31
0.0000000000
11
22.3250995149
21
-21.3881063350
31
0.0000000000
11
22.2928158213
21
-21.4501296280
31
0.0000000000
11
22.2553367914
21
-21.5089556828
31
0.0000000000
11
22.2129502954
21
-21.5642024981
31
0.0000000000
11
22.1657382416
21
-21.6157335362
31
0.0000000000
11
22.1142084717
21
-21.6629452844
31
0.0000000000
11
22.0589626901
21
-21.7053318845
31
0.0000000000
11
22.0001357267
21
-21.7428122998
31
0.0000000000
11
21.9381121750
21
-21.7750967926
31
0.0000000000
11
21.8735988970
21
-21.8018071637
31
0.0000000000
11
21.8072085951
21
-21.8227342875
31
0.0000000000
11
21.7390267365
21
-21.8378498348
31
0.0000000000
11
21.6697226940
21
-21.8469669578
31
0.0000000000
11
21.6001218439
21
-21.8500000000
31
0.0000000000
0
SPLINE
5
234
100
AcDbEntity
8
0
100
AcDbSpline
62
9
6
CONTINUOUS
70
0
71
3
72
24
73
20
74
18
42
0.0000001000
43
0.0000001000
44
0.0000000001
12
0.0003825233
22
-1.2558773180
32
0.0000000000
13
1.2558773180
23
-0.0003825233
33
0.0000000000
40
0.0000000000
40
0.0000000000
40
0.0000000000
40
0.0000000000
40
0.0588186455
40
0.1176389157
40
0.1764607269
40
0.2352839432
40
0.2941083808
40
0.3529338142
40
0.4117599843
40
0.4705866066
40
0.5294133816
40
0.5882400043
40
0.6470661750
40
0.7058916095
40
0.7647160484
40
0.8235392663
40
0.8823610795
40
0.9411813519
40
1.0000000000
40
1.0000000000
40
1.0000000000
40
1.0000000000
10
-22.3234262834
20
-20.9735481273
30
0.0000000000
10
-22.3234187836
20
-20.9981711282
30
0.0000000000
10
-22.3211265650
20
-21.0474474160
30
0.0000000000
10
-22.3108862811
20
-21.1207062172
30
0.0000000000
10
-22.2939313256
20
-21.1927164925
30
0.0000000000
10
-22.2704063061
20
-21.2628558550
30
0.0000000000
10
-22.2405118566
20
-21.3305283550
30
0.0000000000
10
-22.2045029306
20
-21.3951562741
30
0.0000000000
10
-22.1626866247
20
-21.4561886121
30
0.0000000000
10
-22.1154195605
20
-21.5131048313
30
0.0000000000
10
-22.0631048422
20
-21.5654195506
30
0.0000000000
10
-22.0061886235
20
-21.6126866161
30
0.0000000000
10
-21.9451562855
20
-21.6545029236
30
0.0000000000
10
-21.8805283659
20
-21.6905118513
30
0.0000000000
10
-21.8128558648
20
-21.7204063024
30
0.0000000000
10
-21.7427165006
20
-21.7439313234
30
0.0000000000
10
-21.6707062230
20
-21.7608862801
30
0.0000000000
10
-21.5974474190
20
-21.7711265648
30
0.0000000000
10
-21.5481711293
20
-21.7734187836
30
0.0000000000
10
-21.5235481273
20
-21.7734262834
30
0.0000000000
11
-22.3234262834
21
-20.9735481273
31
0.0000000000
11
-22.3199929914
21
-21.0473373039
31
0.0000000000
11
-22.3097673459
21
-21.1204971816
31
0.0000000000
11
-22.2928365548
21
-21.1924038278
31
0.0000000000
11
-22.2693450094
21
-21.2624439982
31
0.0000000000
11
-22.2394930537
21
-21.3300203663
31
0.0000000000
11
-22.2035352752
21
-21.3945566178
31
0.0000000000
11
-22.1617783341
21
-21.4555023653
31
0.0000000000
11
-22.1145783477
21
-21.5123378428
31
0.0000000000
11
-22.0623378537
21
-21.5645783377
31
0.0000000000
11
-22.0055023768
21
-21.6117783254
31
0.0000000000
11
-21.9445566293
21
-21.6535352681
31
0.0000000000
11
-21.8800203773
21
-21.6894930482
31
0.0000000000
11
-21.8124440081
21
-21.7193450056
31
0.0000000000
11
-21.7424038359
21
-21.7428365525
31
0.0000000000
11
-21.6704971874
21
-21.7597673448
31
0.0000000000
11
-21.5973373071
21
-21.7699929911
31
0.0000000000
11
-21.5235481273
21
-21.7734262834
31
0.0000000000
0
SPLINE
5
235
100
AcDbEntity
8
0
100
AcDbSpline
62
9
6
CONTINUOUS
70
0
71
3
72
27
73
23
74
21
42
0.0000001000
43
0.0000001000
44
0.0000000001
12
0.5910451946
22
1.2669834841
32
0.0000000000
13
0.0007751445
23
1.3980632926
33
0.0000000000
40
0.0000000000
40
0.0000000000
40
0.0000000000
40
0.0000000000
40
0.0043947853
40
0.0146523204
40
0.0307364443
40
0.0525624218
40
0.0800114490
40
0.1129329475
40
0.1511457168
40
0.1944392747
40
0.2425751054
40
0.2952879183
40
0.3522871313
40
0.4132585111
40
0.4778659509
40
0.5457533612
40
0.6165464862
40
0.6898549025
40
0.7652746065
40
0.8423900586
40
0.9207755280
40
1.0000000000
40
1.0000000000
40
1.0000000000
40
1.0000000000
10
-21.5235481273
20
-21.7734262834
30
0.0000000000
10
-21.5226822884
20
-21.7715702433
30
0.0000000000
10
-21.5227189020
20
-21.7644748449
30
0.0000000000
10
-21.5213489739
20
-21.7504152310
30
0.0000000000
10
-21.5208160723
20
-21.7278558387
30
0.0000000000
10
-21.5198466134
20
-21.6974622538
30
0.0000000000
10
-21.5190634383
20
-21.6591455099
30
0.0000000000
10
-21.5182345967
20
-21.6132178441
30
0.0000000000
10
-21.5174549251
20
-21.5598953845
30
0.0000000000
10
-21.5166998201
20
-21.4994848251
30
0.0000000000
10
-21.5159841555
20
-21.4323150533
30
0.0000000000
10
-21.5153091816
20
-21.3587577578
30
0.0000000000
10
-21.5146799221
20
-21.2792181264
30
0.0000000000
10
-21.5140997609
20
-21.1941348679
30
0.0000000000
10
-21.5135721391
20
-21.1039770386
30
0.0000000000
10
-21.5131000475
20
-21.0092417047
30
0.0000000000
10
-21.5126861802
20
-20.9104512228
30
0.0000000000
10
-21.5123328698
20
-20.8081502770
30
0.0000000000
10
-21.5120421225
20
-20.7029027850
30
0.0000000000
10
-21.5118155481
20
-20.5952891161
30
0.0000000000
10
-21.5116544586
20
-20.4859022257
30
0.0000000000
10
-21.5115915091
20
-20.4124526781
30
0.0000000000
10
-21.5115710390
20
-20.3755324027
30
0.0000000000
11
-21.5235481273
21
-21.7734262834
31
0.0000000000
11
-21.5226422074
21
-21.7673492473
31
0.0000000000
11
-21.5217425023
21
-21.7530368126
31
0.0000000000
11
-21.5208538753
21
-21.7305677510
31
0.0000000000
11
-21.5199813031
21
-21.7000661269
31
0.0000000000
11
-21.5191295655
21
-21.6617000969
31
0.0000000000
11
-21.5183033680
21
-21.6156811671
31
0.0000000000
11
-21.5175072643
21
-21.5622632209
31
0.0000000000
11
-21.5167456450
21
-21.5017408694
31
0.0000000000
11
-21.5160227077
21
-21.4344478042
31
0.0000000000
11
-21.5153424382
21
-21.3607550839
31
0.0000000000
11
-21.5147085869
21
-21.2810690853
31
0.0000000000
11
-21.5141246482
21
-21.1958292243
31
0.0000000000
11
-21.5135938410
21
-21.1055054800
31
0.0000000000
11
-21.5131190905
21
-21.0105957564
31
0.0000000000
11
-21.5127030146
21
-20.9116233464
31
0.0000000000
11
-21.5123479057
21
-20.8091341399
31
0.0000000000
11
-21.5120557242
21
-20.7036930088
31
0.0000000000
11
-21.5118280716
21
-20.5958809498
31
0.0000000000
11
-21.5116662185
21
-20.4862932050
31
0.0000000000
11
-21.5115710390
21
-20.3755324027
31
0.0000000000
0
SPLINE
5
236
100
AcDbEntity
8
0
100
AcDbSpline
62
9
6
CONTINUOUS
70
0
71
3
72
27
73
23
74
21
42
0.0000001000
43
0.0000001000
44
0.0000000001
12
0.4614526202
22
0.4616200402
32
0.0000000000
13
0.0007756567
23
0.6527104875
33
0.0000000000
40
0.0000000000
40
0.0000000000
40
0.0000000000
40
0.0000000000
40
0.0045595798
40
0.0148839614
40
0.0310053889
40
0.0528534475
40
0.0803146189
40
0.1132409295
40
0.1514526709
40
0.1947403311
40
0.2428660837
40
0.2955651679
40
0.3525474345
40
0.4134990213
40
0.4780841160
40
0.5459469160
40
0.6167134509
40
0.6899935750
40
0.7653835541
40
0.8424681220
40
0.9208218054
40
1.0000000000
40
1.0000000000
40
1.0000000000
40
1.0000000000
10
-22.3234262834
20
-20.9735481273
30
0.0000000000
10
-22.3227249401
20
-20.9728465295
30
0.0000000000
10
-22.3224261914
20
-20.9692900459
30
0.0000000000
10
-22.3213301563
20
-20.9628953339
30
0.0000000000
10
-22.3206501142
20
-20.9522611210
30
0.0000000000
10
-22.3197423716
20
-20.9381167846
30
0.0000000000
10
-22.3189356472
20
-20.9202184870
30
0.0000000000
10
-22.3181149896
20
-20.8987903110
30
0.0000000000
10
-22.3173325094
20
-20.8739039577
30
0.0000000000
10
-22.3165782672
20
-20.8457123125
30
0.0000000000
10
-22.3158622969
20
-20.8143655267
30
0.0000000000
10
-22.3151873890
20
-20.7800380619
30
0.0000000000
10
-22.3145580865
20
-20.7429186674
30
0.0000000000
10
-22.3139779192
20
-20.7032121768
30
0.0000000000
10
-22.3134502838
20
-20.6611374695
30
0.0000000000
10
-22.3129781853
20
-20.6169265398
30
0.0000000000
10
-22.3125643110
20
-20.5708231687
30
0.0000000000
10
-22.3122110013
20
-20.5230815589
30
0.0000000000
10
-22.3119202477
20
-20.4739648873
30
0.0000000000
10
-22.3116936872
20
-20.4237440112
30
0.0000000000
10
-22.3115325973
20
-20.3726986765
30
0.0000000000
10
-22.3114696668
20
-20.3384244623
30
0.0000000000
10
-22.3114491951
20
-20.3211976496
30
0.0000000000
11
-22.3234262834
21
-20.9735481273
31
0.0000000000
11
-22.3225205615
21
-20.9707132083
31
0.0000000000
11
-22.3216208060
21
-20.9640347082
31
0.0000000000
11
-22.3207321765
21
-20.9535496653
31
0.0000000000
11
-22.3198595803
21
-20.9393159203
31
0.0000000000
11
-22.3190078264
21
-20.9214119620
31
0.0000000000
11
-22.3181816100
21
-20.8999364861
31
0.0000000000
11
-22.3173854888
21
-20.8750079734
31
0.0000000000
11
-22.3166238523
21
-20.8467639111
31
0.0000000000
11
-22.3159008990
21
-20.8153600259
31
0.0000000000
11
-22.3152206146
21
-20.7809694844
31
0.0000000000
11
-22.3145867499
21
-20.7437819369
31
0.0000000000
11
-22.3140027995
21
-20.7040024547
31
0.0000000000
11
-22.3134719828
21
-20.6618503984
31
0.0000000000
11
-22.3129972255
21
-20.6175581502
31
0.0000000000
11
-22.3125811447
21
-20.5713699321
31
0.0000000000
11
-22.3122260347
21
-20.5235405111
31
0.0000000000
11
-22.3119338518
21
-20.4743335138
31
0.0000000000
11
-22.3117062062
21
-20.4240200874
31
0.0000000000
11
-22.3115443534
21
-20.3728780365
31
0.0000000000
11
-22.3114491951
21
-20.3211976496
31
0.0000000000
0
SPLINE
5
237
100
AcDbEntity
8
0
100
AcDbSpline
62
9
6
CONTINUOUS
70
0
71
3
72
24
73
20
74
18
42
0.0000001000
43
0.0000001000
44
0.0000000001
12
0.2000106169
22
-0.7802891869
32
0.0000000000
13
0.8055150864
23
-0.0009527498
33
0.0000000000
40
0.0000000000
40
0.0000000000
40
0.0000000000
40
0.0000000000
40
0.0084036160
40
0.0236382935
40
0.0465188378
40
0.0770996583
40
0.1152229665
40
0.1606196706
40
0.2129396186
40
0.2717648161
40
0.3366174257
40
0.4069659923
40
0.4822310950
40
0.5617908967
40
0.6449867765
40
0.7311291188
40
0.8195032705
40
0.9093756531
40
1.0000000000
40
1.0000000000
40
1.0000000000
40
1.0000000000
10
-22.3114491951
20
-20.3211976496
30
0.0000000000
10
-22.3108889243
20
-20.3233833998
30
0.0000000000
10
-22.3052151891
20
-20.3276595044
30
0.0000000000
10
-22.2938374075
20
-20.3319106244
30
0.0000000000
10
-22.2757968670
20
-20.3366291894
30
0.0000000000
10
-22.2516842520
20
-20.3411275433
30
0.0000000000
10
-22.2213421372
20
-20.3455896306
30
0.0000000000
10
-22.1851241420
20
-20.3498539410
30
0.0000000000
10
-22.1432827925
20
-20.3539104561
30
0.0000000000
10
-22.0961784509
20
-20.3577061917
30
0.0000000000
10
-22.0441977628
20
-20.3612096089
30
0.0000000000
10
-21.9877750078
20
-20.3643876455
30
0.0000000000
10
-21.9273799546
20
-20.3672124982
30
0.0000000000
10
-21.8635163124
20
-20.3696593267
30
0.0000000000
10
-21.7967166684
20
-20.3717069496
30
0.0000000000
10
-21.7275382311
20
-20.3733377126
30
0.0000000000
10
-21.6565580718
20
-20.3745376273
30
0.0000000000
10
-21.5843683706
20
-20.3752964301
30
0.0000000000
10
-21.5359041319
20
-20.3755036219
30
0.0000000000
10
-21.5115710390
20
-20.3755324027
30
0.0000000000
11
-22.3114491951
21
-20.3211976496
31
0.0000000000
11
-22.3068411740
21
-20.3261563600
31
0.0000000000
11
-22.2955976794
21
-20.3310736964
31
0.0000000000
11
-22.2778125234
21
-20.3359086304
31
0.0000000000
11
-22.2536340994
21
-20.3406208208
31
0.0000000000
11
-22.2232641444
21
-20.3451709506
31
0.0000000000
11
-22.1869560552
21
-20.3495210551
31
0.0000000000
11
-22.1450127747
21
-20.3536348383
31
0.0000000000
11
-22.0977842639
21
-20.3574779762
31
0.0000000000
11
-22.0456645819
21
-20.3610184030
31
0.0000000000
11
-21.9890885984
21
-20.3642265785
31
0.0000000000
11
-21.9285283648
21
-20.3670757347
31
0.0000000000
11
-21.8644891759
21
-20.3695420991
31
0.0000000000
11
-21.7975053536
21
-20.3716050933
31
0.0000000000
11
-21.7281357891
21
-20.3732475044
31
0.0000000000
11
-21.6569592793
21
-20.3744556284
31
0.0000000000
11
-21.5845696976
21
-20.3752193854
31
0.0000000000
11
-21.5115710390
21
-20.3755324027
31
0.0000000000
0
SPLINE
5
238
100
AcDbEntity
8
0
100
AcDbSpline
62
9
6
CONTINUOUS
70
0
71
3
72
19
73
15
74
13
42
0.0000001000
43
0.0000001000
44
0.0000000001
12
0.0482938921
22
40.7510456439
32
0.0000000000
13
-0.0482938920
23
40.7510456439
33
0.0000000000
40
0.0000000000
40
0.0000000000
40
0.0000000000
40
0.0000000000
40
0.0832353063
40
0.1665240738
40
0.2498556191
40
0.3332192513
40
0.4166042769
40
0.5000000000
40
0.5833957231
40
0.6667807486
40
0.7501443809
40
0.8334759262
40
0.9167646937
40
1.0000000000
40
1.0000000000
40
1.0000000000
40
1.0000000000
10
-21.5115710390
20
-20.3755324027
30
0.0000000000
10
-21.5102311200
20
-19.2448904801
30
0.0000000000
10
-21.5077745759
20
-16.9828801644
30
0.0000000000
10
-21.5047601787
20
-13.5889198532
30
0.0000000000
10
-21.5024152463
20
-10.1932158714
30
0.0000000000
10
-21.5007400796
20
-6.7962039526
30
0.0000000000
10
-21.4997348937
20
-3.3983199981
30
0.0000000000
10
-21.4993998173
20
-0.0000000001
30
0.0000000000
10
-21.4997348937
20
3.3983199979
30
0.0000000000
10
-21.5007400796
20
6.7962039525
30
0.0000000000
10
-21.5024152463
20
10.1932158713
30
0.0000000000
10
-21.5047601787
20
13.5889198531
30
0.0000000000
10
-21.5077745759
20
16.9828801643
30
0.0000000000
10
-21.5102311200
20
19.2448904801
30
0.0000000000
10
-21.5115710390
20
20.3755324027
30
0.0000000000
11
-21.5115710390
21
-20.3755324027
31
0.0000000000
11
-21.5078871690
21
-16.9836062536
31
0.0000000000
11
-21.5048724490
21
-13.5895008456
31
0.0000000000
11
-21.5025272656
21
-10.1936516653
31
0.0000000000
11
-21.5008519198
21
-6.7964945083
31
0.0000000000
11
-21.4998466264
21
-3.3984652876
31
0.0000000000
11
-21.4995115142
21
-0.0000000001
31
0.0000000000
11
-21.4998466264
21
3.3984652875
31
0.0000000000
11
-21.5008519198
21
6.7964945081
31
0.0000000000
11
-21.5025272656
21
10.1936516652
31
0.0000000000
11
-21.5048724490
21
13.5895008454
31
0.0000000000
11
-21.5078871690
21
16.9836062535
31
0.0000000000
11
-21.5115710390
21
20.3755324027
31
0.0000000000
0
SPLINE
5
239
100
AcDbEntity
8
0
100
AcDbSpline
62
9
6
CONTINUOUS
70
0
71
3
72
19
73
15
74
13
42
0.0000001000
43
0.0000001000
44
0.0000000001
12
0.0482938919
22
40.6423760865
32
0.0000000000
13
-0.0482938918
23
40.6423760865
33
0.0000000000
40
0.0000000000
40
0.0000000000
40
0.0000000000
40
0.0000000000
40
0.0832352964
40
0.1665240665
40
0.2498556143
40
0.3332192491
40
0.4166042771
40
0.5000000027
40
0.5833957282
40
0.6667807562
40
0.7501443910
40
0.8334759388
40
0.9167647089
40
1.0000000000
40
1.0000000000
40
1.0000000000
40
1.0000000000
10
-22.3114491951
20
-20.3211976496
30
0.0000000000
10
-22.3101092763
20
-19.1935709095
30
0.0000000000
10
-22.3076527322
20
-16.9375927246
30
0.0000000000
10
-22.3046383351
20
-13.5526830416
30
0.0000000000
10
-22.3022934025
20
-10.1660341667
30
0.0000000000
10
-22.3006182358
20
-6.7780808424
30
0.0000000000
10
-22.2996130498
20
-3.3892578076
30
0.0000000000
10
-22.2992779735
20
0.0000001078
30
0.0000000000
10
-22.2996130498
20
3.3892580232
30
0.0000000000
10
-22.3006182359
20
6.7780810578
30
0.0000000000
10
-22.3022934027
20
10.1660343818
30
0.0000000000
10
-22.3046383353
20
13.5526832564
30
0.0000000000
10
-22.3076527324
20
16.9375928677
30
0.0000000000
10
-22.3101092764
20
19.1935709810
30
0.0000000000
10
-22.3114491951
20
20.3211976496
30
0.0000000000
11
-22.3114491951
21
-20.3211976496
31
0.0000000000
11
-22.3077653255
21
-16.9383170468
31
0.0000000000
11
-22.3047506053
21
-13.5532624834
31
0.0000000000
11
-22.3024054219
21
-10.1664687975
31
0.0000000000
11
-22.3007300760
21
-6.7783706226
31
0.0000000000
11
-22.2997247825
21
-3.3894027094
31
0.0000000000
11
-22.2993896704
21
0.0000001079
31
0.0000000000
11
-22.2997247825
21
3.3894029250
31
0.0000000000
11
-22.3007300761
21
6.7783708379
31
0.0000000000
11
-22.3024054220
21
10.1664690126
31
0.0000000000
11
-22.3047506055
21
13.5532626982
31
0.0000000000
11
-22.3077653257
21
16.9383172613
31
0.0000000000
11
-22.3114491951
21
20.3211976496
31
0.0000000000
0
SPLINE
5
23A
100
AcDbEntity
8
0
100
AcDbSpline
62
9
6
CONTINUOUS
70
0
71
3
72
24
73
20
74
18
42
0.0000001000
43
0.0000001000
44
0.0000000001
12
0.2000109589
22
0.7802890979
32
0.0000000000
13
0.8055150851
23
0.0009527495
33
0.0000000000
40
0.0000000000
40
0.0000000000
40
0.0000000000
40
0.0000000000
40
0.0084036177
40
0.0236382973
40
0.0465188434
40
0.0770996655
40
0.1152229749
40
0.1606196798
40
0.2129396283
40
0.2717648259
40
0.3366174354
40
0.4069660014
40
0.4822311034
40
0.5617909041
40
0.6449867827
40
0.7311291236
40
0.8195032738
40
0.9093756548
40
1.0000000000
40
1.0000000000
40
1.0000000000
40
1.0000000000
10
-22.3114491951
20
20.3211976496
30
0.0000000000
10
-22.3108889232
20
20.3233834000
30
0.0000000000
10
-22.3052151867
20
20.3276595038
30
0.0000000000
10
-22.2938374035
20
20.3319106241
30
0.0000000000
10
-22.2757968615
20
20.3366291888
30
0.0000000000
10
-22.2516842452
20
20.3411275426
30
0.0000000000
10
-22.2213421295
20
20.3455896297
30
0.0000000000
10
-22.1851241337
20
20.3498539399
30
0.0000000000
10
-22.1432827838
20
20.3539104549
30
0.0000000000
10
-22.0961784422
20
20.3577061903
30
0.0000000000
10
-22.0441977542
20
20.3612096073
30
0.0000000000
10
-21.9877749997
20
20.3643876438
30
0.0000000000
10
-21.9273799473
20
20.3672124963
30
0.0000000000
10
-21.8635163060
20
20.3696593246
30
0.0000000000
10
-21.7967166630
20
20.3717069475
30
0.0000000000
10
-21.7275382269
20
20.3733377103
30
0.0000000000
10
-21.6565580689
20
20.3745376249
30
0.0000000000
10
-21.5843683691
20
20.3752964277
30
0.0000000000
10
-21.5359041314
20
20.3755036195
30
0.0000000000
10
-21.5115710390
20
20.3755324002
30
0.0000000000
11
-22.3114491951
21
20.3211976496
31
0.0000000000
11
-22.3068411719
21
20.3261563598
31
0.0000000000
11
-22.2955976754
21
20.3310736961
31
0.0000000000
11
-22.2778125178
21
20.3359086300
31
0.0000000000
11
-22.2536340926
21
20.3406208202
31
0.0000000000
11
-22.2232641366
21
20.3451709498
31
0.0000000000
11
-22.1869560468
21
20.3495210540
31
0.0000000000
11
-22.1450127660
21
20.3536348371
31
0.0000000000
11
-22.0977842551
21
20.3574779748
31
0.0000000000
11
-22.0456645733
21
20.3610184014
31
0.0000000000
11
-21.9890885903
21
20.3642265767
31
0.0000000000
11
-21.9285283574
21
20.3670757328
31
0.0000000000
11
-21.8644891694
21
20.3695420971
31
0.0000000000
11
-21.7975053482
21
20.3716050912
31
0.0000000000
11
-21.7281357849
21
20.3732475021
31
0.0000000000
11
-21.6569592764
21
20.3744556261
31
0.0000000000
11
-21.5845696961
21
20.3752193830
31
0.0000000000
11
-21.5115710390
21
20.3755324002
31
0.0000000000
0
SPLINE
5
23B
100
AcDbEntity
8
0
100
AcDbSpline
62
9
6
CONTINUOUS
70
0
71
3
72
27
73
23
74
21
42
0.0000001000
43
0.0000001000
44
0.0000000001
12
-0.0007752298
22
1.3980632934
32
0.0000000000
13
-0.5910243725
23
1.2669931982
33
0.0000000000
40
0.0000000000
40
0.0000000000
40
0.0000000000
40
0.0000000000
40
0.0792244501
40
0.1576099224
40
0.2347253758
40
0.3101450781
40
0.3834534976
40
0.4542466241
40
0.5221340334
40
0.5867414734
40
0.6477128546
40
0.7047120687
40
0.7574248822
40
0.8055607134
40
0.8488542728
40
0.8870670440
40
0.9199885433
40
0.9474375708
40
0.9692635502
40
0.9853476755
40
0.9956052118
40
1.0000000000
40
1.0000000000
40
1.0000000000
40
1.0000000000
10
-21.5115710390
20
20.3755324027
30
0.0000000000
10
-21.5115915114
20
20.4124526679
30
0.0000000000
10
-21.5116544559
20
20.4859022066
30
0.0000000000
10
-21.5118155485
20
20.5952890889
30
0.0000000000
10
-21.5120421205
20
20.7029027590
30
0.0000000000
10
-21.5123328682
20
20.8081502524
30
0.0000000000
10
-21.5126861776
20
20.9104511997
30
0.0000000000
10
-21.5131000445
20
21.0092416834
30
0.0000000000
10
-21.5135721353
20
21.1039770177
30
0.0000000000
10
-21.5140997565
20
21.1941348473
30
0.0000000000
10
-21.5146799170
20
21.2792181071
30
0.0000000000
10
-21.5153091760
20
21.3587577399
30
0.0000000000
10
-21.5159841495
20
21.4323150365
30
0.0000000000
10
-21.5166998141
20
21.4994848096
30
0.0000000000
10
-21.5174549189
20
21.5598953709
30
0.0000000000
10
-21.5182345915
20
21.6132178322
30
0.0000000000
10
-21.5190634307
20
21.6591455002
30
0.0000000000
10
-21.5198466128
20
21.6974622433
30
0.0000000000
10
-21.5208160548
20
21.7278558359
30
0.0000000000
10
-21.5213489947
20
21.7504152164
30
0.0000000000
10
-21.5227188553
20
21.7644748593
30
0.0000000000
10
-21.5226823183
20
21.7715702278
30
0.0000000000
10
-21.5235481273
20
21.7734262834
30
0.0000000000
11
-21.5115710390
21
20.3755324027
31
0.0000000000
11
-21.5116662175
21
20.4862931744
31
0.0000000000
11
-21.5118280711
21
20.5958809233
31
0.0000000000
11
-21.5120557226
21
20.7036929843
31
0.0000000000
11
-21.5123479038
21
20.8091341131
31
0.0000000000
11
-21.5127030121
21
20.9116233240
31
0.0000000000
11
-21.5131190875
21
21.0105957362
31
0.0000000000
11
-21.5135938372
21
21.1055054586
31
0.0000000000
11
-21.5141246437
21
21.1958292031
31
0.0000000000
11
-21.5147085818
21
21.2810690660
31
0.0000000000
11
-21.5153424326
21
21.3607550663
31
0.0000000000
11
-21.5160227018
21
21.4344477875
31
0.0000000000
11
-21.5167456390
21
21.5017408535
31
0.0000000000
11
-21.5175072583
21
21.5622632070
31
0.0000000000
11
-21.5183033621
21
21.6156811560
31
0.0000000000
11
-21.5191295597
21
21.6617000868
31
0.0000000000
11
-21.5199812977
21
21.7000661172
31
0.0000000000
11
-21.5208538695
21
21.7305677442
31
0.0000000000
11
-21.5217424983
21
21.7530368076
31
0.0000000000
11
-21.5226422011
21
21.7673492443
31
0.0000000000
11
-21.5235481273
21
21.7734262834
31
0.0000000000
0
SPLINE
5
23C
100
AcDbEntity
8
0
100
AcDbSpline
62
9
6
CONTINUOUS
70
0
71
3
72
27
73
23
74
21
42
0.0000001000
43
0.0000001000
44
0.0000000001
12
-0.0007756653
22
0.6527104856
32
0.0000000000
13
-0.4614625855
23
0.4616100755
33
0.0000000000
40
0.0000000000
40
0.0000000000
40
0.0000000000
40
0.0000000000
40
0.0791735339
40
0.1575271822
40
0.2346117440
40
0.3100017402
40
0.3832819166
40
0.4540485324
40
0.5219114422
40
0.5864966798
40
0.6474484567
40
0.7044309892
40
0.7571304049
40
0.8052565410
40
0.8485445994
40
0.8867567393
40
0.9196834441
40
0.9471450053
40
0.9689934453
40
0.9851152513
40
0.9954399811
40
1.0000000000
40
1.0000000000
40
1.0000000000
40
1.0000000000
10
-22.3114491951
20
20.3211976496
30
0.0000000000
10
-22.3114696658
20
20.3384234482
30
0.0000000000
10
-22.3115325927
20
20.3726966407
30
0.0000000000
10
-22.3116936757
20
20.4237409522
30
0.0000000000
10
-22.3119202317
20
20.4739618229
30
0.0000000000
10
-22.3122109811
20
20.5230785082
30
0.0000000000
10
-22.3125642864
20
20.5708201506
30
0.0000000000
10
-22.3129781563
20
20.6169235745
30
0.0000000000
10
-22.3134502504
20
20.6611345766
30
0.0000000000
10
-22.3139778814
20
20.7032093802
30
0.0000000000
10
-22.3145580445
20
20.7429160011
30
0.0000000000
10
-22.3151873435
20
20.7800355669
30
0.0000000000
10
-22.3158622485
20
20.8143632451
30
0.0000000000
10
-22.3165782168
20
20.8457102732
30
0.0000000000
10
-22.3173324577
20
20.8739021751
30
0.0000000000
10
-22.3181149365
20
20.8987887879
30
0.0000000000
10
-22.3189355953
20
20.9202172203
30
0.0000000000
10
-22.3197423150
20
20.9381157746
30
0.0000000000
10
-22.3206500712
20
20.9522603532
30
0.0000000000
10
-22.3213300841
20
20.9628948287
30
0.0000000000
10
-22.3224261918
20
20.9692897488
30
0.0000000000
10
-22.3227248574
20
20.9728464771
30
0.0000000000
10
-22.3234262834
20
20.9735481273
30
0.0000000000
11
-22.3114491951
21
20.3211976496
31
0.0000000000
11
-22.3115443458
21
20.3728749943
31
0.0000000000
11
-22.3117061946
21
20.4240170221
31
0.0000000000
11
-22.3119338358
21
20.4743304444
31
0.0000000000
11
-22.3122260143
21
20.5235374527
31
0.0000000000
11
-22.3125811199
21
20.5713669079
31
0.0000000000
11
-22.3129971963
21
20.6175551786
31
0.0000000000
11
-22.3134719491
21
20.6618474984
31
0.0000000000
11
-22.3140027613
21
20.7039996479
31
0.0000000000
11
-22.3145867074
21
20.7437792541
31
0.0000000000
11
-22.3152205685
21
20.7809669752
31
0.0000000000
11
-22.3159008500
21
20.8153577330
31
0.0000000000
11
-22.3166238014
21
20.8467618685
31
0.0000000000
11
-22.3173854365
21
20.8750061908
31
0.0000000000
11
-22.3181815567
21
20.8999349637
31
0.0000000000
11
-22.3190077724
21
20.9214106971
31
0.0000000000
11
-22.3198595259
21
20.9393149100
31
0.0000000000
11
-22.3207321221
21
20.9535489043
31
0.0000000000
11
-22.3216207519
21
20.9640341953
31
0.0000000000
11
-22.3225205081
21
20.9707129245
31
0.0000000000
11
-22.3234262834
21
20.9735481273
31
0.0000000000
0
SPLINE
5
23D
100
AcDbEntity
8
0
100
AcDbSpline
62
9
6
CONTINUOUS
70
0
71
3
72
24
73
20
74
18
42
0.0000001000
43
0.0000001000
44
0.0000000001
12
0.0003825233
22
1.2558773180
32
0.0000000000
13
1.2558773180
23
0.0003825233
33
0.0000000000
40
0.0000000000
40
0.0000000000
40
0.0000000000
40
0.0000000000
40
0.0588186470
40
0.1176389184
40
0.1764607307
40
0.2352839479
40
0.2941083860
40
0.3529338199
40
0.4117599902
40
0.4705866126
40
0.5294133874
40
0.5882400098
40
0.6470661801
40
0.7058916140
40
0.7647160521
40
0.8235392693
40
0.8823610816
40
0.9411813530
40
1.0000000000
40
1.0000000000
40
1.0000000000
40
1.0000000000
10
-22.3234262834
20
20.9735481273
30
0.0000000000
10
-22.3234187836
20
20.9981711288
30
0.0000000000
10
-22.3211265649
20
21.0474474177
30
0.0000000000
10
-22.3108862805
20
21.1207062205
30
0.0000000000
10
-22.2939313244
20
21.1927164970
30
0.0000000000
10
-22.2704063040
20
21.2628558604
30
0.0000000000
10
-22.2405118537
20
21.3305283609
30
0.0000000000
10
-22.2045029269
20
21.3951562801
30
0.0000000000
10
-22.1626866202
20
21.4561886180
30
0.0000000000
10
-22.1154195555
20
21.5131048368
30
0.0000000000
10
-22.0631048368
20
21.5654195555
30
0.0000000000
10
-22.0061886180
20
21.6126866202
30
0.0000000000
10
-21.9451562801
20
21.6545029269
30
0.0000000000
10
-21.8805283609
20
21.6905118537
30
0.0000000000
10
-21.8128558604
20
21.7204063040
30
0.0000000000
10
-21.7427164970
20
21.7439313244
30
0.0000000000
10
-21.6707062205
20
21.7608862805
30
0.0000000000
10
-21.5974474177
20
21.7711265649
30
0.0000000000
10
-21.5481711288
20
21.7734187836
30
0.0000000000
10
-21.5235481273
20
21.7734262834
30
0.0000000000
11
-22.3234262834
21
20.9735481273
31
0.0000000000
11
-22.3199929912
21
21.0473373058
31
0.0000000000
11
-22.3097673453
21
21.1204971849
31
0.0000000000
11
-22.2928365535
21
21.1924038324
31
0.0000000000
11
-22.2693450073
21
21.2624440036
31
0.0000000000
11
-22.2394930507
21
21.3300203722
31
0.0000000000
11
-22.2035352714
21
21.3945566238
31
0.0000000000
11
-22.1617783296
21
21.4555023712
31
0.0000000000
11
-22.1145783427
21
21.5123378483
31
0.0000000000
11
-22.0623378483
21
21.5645783427
31
0.0000000000
11
-22.0055023712
21
21.6117783296
31
0.0000000000
11
-21.9445566238
21
21.6535352714
31
0.0000000000
11
-21.8800203722
21
21.6894930507
31
0.0000000000
11
-21.8124440036
21
21.7193450073
31
0.0000000000
11
-21.7424038324
21
21.7428365535
31
0.0000000000
11
-21.6704971849
21
21.7597673453
31
0.0000000000
11
-21.5973373058
21
21.7699929912
31
0.0000000000
11
-21.5235481273
21
21.7734262834
31
0.0000000000
0
SPLINE
5
23E
100
AcDbEntity
8
0
100
AcDbSpline
62
9
6
CONTINUOUS
70
0
71
3
72
24
73
20
74
18
42
0.0000001000
43
0.0000001000
44
0.0000000001
12
-0.0003825233
22
1.2558773180
32
0.0000000000
13
-1.2558773180
23
0.0003825233
33
0.0000000000
40
0.0000000000
40
0.0000000000
40
0.0000000000
40
0.0000000000
40
0.0588186462
40
0.1176389169
40
0.1764607286
40
0.2352839452
40
0.2941083830
40
0.3529338166
40
0.4117599868
40
0.4705866092
40
0.5294133841
40
0.5882400067
40
0.6470661772
40
0.7058916114
40
0.7647160500
40
0.8235392676
40
0.8823610804
40
0.9411813524
40
1.0000000000
40
1.0000000000
40
1.0000000000
40
1.0000000000
10
22.3234262834
20
20.9735481273
30
0.0000000000
10
22.3234187836
20
20.9981711285
30
0.0000000000
10
22.3211265649
20
21.0474474167
30
0.0000000000
10
22.3108862809
20
21.1207062186
30
0.0000000000
10
22.2939313251
20
21.1927164945
30
0.0000000000
10
22.2704063052
20
21.2628558573
30
0.0000000000
10
22.2405118554
20
21.3305283575
30
0.0000000000
10
22.2045029290
20
21.3951562767
30
0.0000000000
10
22.1626866228
20
21.4561886146
30
0.0000000000
10
22.1154195584
20
21.5131048336
30
0.0000000000
10
22.0631048398
20
21.5654195527
30
0.0000000000
10
22.0061886211
20
21.6126866179
30
0.0000000000
10
21.9451562832
20
21.6545029250
30
0.0000000000
10
21.8805283637
20
21.6905118523
30
0.0000000000
10
21.8128558629
20
21.7204063031
30
0.0000000000
10
21.7427164990
20
21.7439313239
30
0.0000000000
10
21.6707062219
20
21.7608862803
30
0.0000000000
10
21.5974474185
20
21.7711265648
30
0.0000000000
10
21.5481711291
20
21.7734187836
30
0.0000000000
10
21.5235481273
20
21.7734262834
30
0.0000000000
11
22.3234262834
21
20.9735481273
31
0.0000000000
11
22.3199929913
21
21.0473373047
31
0.0000000000
11
22.3097673457
21
21.1204971830
31
0.0000000000
11
22.2928365542
21
21.1924038297
31
0.0000000000
11
22.2693450085
21
21.2624440005
31
0.0000000000
11
22.2394930524
21
21.3300203689
31
0.0000000000
11
22.2035352736
21
21.3945566204
31
0.0000000000
11
22.1617783321
21
21.4555023678
31
0.0000000000
11
22.1145783455
21
21.5123378451
31
0.0000000000
11
22.0623378514
21
21.5645783399
31
0.0000000000
11
22.0055023744
21
21.6117783272
31
0.0000000000
11
21.9445566269
21
21.6535352695
31
0.0000000000
11
21.8800203751
21
21.6894930493
31
0.0000000000
11
21.8124440061
21
21.7193450064
31
0.0000000000
11
21.7424038344
21
21.7428365529
31
0.0000000000
11
21.6704971863
21
21.7597673450
31
0.0000000000
11
21.5973373065
21
21.7699929911
31
0.0000000000
11
21.5235481273
21
21.7734262834
31
0.0000000000
0
SPLINE
5
23F
100
AcDbEntity
8
0
100
AcDbSpline
62
9
6
CONTINUOUS
70
0
71
3
72
27
73
23
74
21
42
0.0000001000
43
0.0000001000
44
0.0000000001
12
-0.5910243729
22
-1.2669931980
32
0.0000000000
13
-0.0007752298
23
-1.3980632934
33
0.0000000000
40
0.0000000000
40
0.0000000000
40
0.0000000000
40
0.0000000000
40
0.0043947882
40
0.0146523245
40
0.0307364498
40
0.0525624292
40
0.0800114567
40
0.1129329560
40
0.1511457272
40
0.1944392866
40
0.2425751178
40
0.2952879313
40
0.3522871454
40
0.4132585266
40
0.4778659666
40
0.5457533759
40
0.6165465024
40
0.6898549219
40
0.7652746242
40
0.8423900776
40
0.9207755499
40
1.0000000000
40
1.0000000000
40
1.0000000000
40
1.0000000000
10
21.5235481273
20
21.7734262834
30
0.0000000000
10
21.5226823183
20
21.7715702278
30
0.0000000000
10
21.5227188553
20
21.7644748593
30
0.0000000000
10
21.5213489947
20
21.7504152164
30
0.0000000000
10
21.5208160548
20
21.7278558359
30
0.0000000000
10
21.5198466128
20
21.6974622433
30
0.0000000000
10
21.5190634307
20
21.6591455002
30
0.0000000000
10
21.5182345915
20
21.6132178322
30
0.0000000000
10
21.5174549189
20
21.5598953709
30
0.0000000000
10
21.5166998141
20
21.4994848096
30
0.0000000000
10
21.5159841495
20
21.4323150365
30
0.0000000000
10
21.5153091760
20
21.3587577399
30
0.0000000000
10
21.5146799170
20
21.2792181071
30
0.0000000000
10
21.5140997565
20
21.1941348473
30
0.0000000000
10
21.5135721353
20
21.1039770177
30
0.0000000000
10
21.5131000445
20
21.0092416834
30
0.0000000000
10
21.5126861776
20
20.9104511997
30
0.0000000000
10
21.5123328682
20
20.8081502524
30
0.0000000000
10
21.5120421205
20
20.7029027590
30
0.0000000000
10
21.5118155485
20
20.5952890889
30
0.0000000000
10
21.5116544559
20
20.4859022066
30
0.0000000000
10
21.5115915114
20
20.4124526679
30
0.0000000000
10
21.5115710390
20
20.3755324027
30
0.0000000000
11
21.5235481273
21
21.7734262834
31
0.0000000000
11
21.5226422011
21
21.7673492443
31
0.0000000000
11
21.5217424983
21
21.7530368076
31
0.0000000000
11
21.5208538695
21
21.7305677442
31
0.0000000000
11
21.5199812977
21
21.7000661172
31
0.0000000000
11
21.5191295597
21
21.6617000868
31
0.0000000000
11
21.5183033621
21
21.6156811560
31
0.0000000000
11
21.5175072583
21
21.5622632070
31
0.0000000000
11
21.5167456390
21
21.5017408535
31
0.0000000000
11
21.5160227018
21
21.4344477875
31
0.0000000000
11
21.5153424326
21
21.3607550663
31
0.0000000000
11
21.5147085818
21
21.2810690660
31
0.0000000000
11
21.5141246437
21
21.1958292031
31
0.0000000000
11
21.5135938372
21
21.1055054586
31
0.0000000000
11
21.5131190875
21
21.0105957362
31
0.0000000000
11
21.5127030121
21
20.9116233240
31
0.0000000000
11
21.5123479038
21
20.8091341131
31
0.0000000000
11
21.5120557226
21
20.7036929843
31
0.0000000000
11
21.5118280711
21
20.5958809233
31
0.0000000000
11
21.5116662175
21
20.4862931744
31
0.0000000000
11
21.5115710390
21
20.3755324027
31
0.0000000000
0
SPLINE
5
240
100
AcDbEntity
8
0
100
AcDbSpline
62
9
6
CONTINUOUS
70
0
71
3
72
27
73
23
74
21
42
0.0000001000
43
0.0000001000
44
0.0000000001
12
-0.4614625851
22
-0.4616100760
32
0.0000000000
13
-0.0007756653
23
-0.6527104856
33
0.0000000000
40
0.0000000000
40
0.0000000000
40
0.0000000000
40
0.0000000000
40
0.0045600189
40
0.0148847487
40
0.0310065547
40
0.0528549947
40
0.0803165559
40
0.1132432607
40
0.1514554006
40
0.1947434590
40
0.2428695951
40
0.2955690108
40
0.3525515433
40
0.4135033202
40
0.4780885578
40
0.5459514676
40
0.6167180834
40
0.6899982598
40
0.7653882560
40
0.8424728178
40
0.9208264661
40
1.0000000000
40
1.0000000000
40
1.0000000000
40
1.0000000000
10
22.3234262834
20
20.9735481273
30
0.0000000000
10
22.3227248574
20
20.9728464771
30
0.0000000000
10
22.3224261918
20
20.9692897488
30
0.0000000000
10
22.3213300841
20
20.9628948287
30
0.0000000000
10
22.3206500712
20
20.9522603532
30
0.0000000000
10
22.3197423150
20
20.9381157746
30
0.0000000000
10
22.3189355953
20
20.9202172203
30
0.0000000000
10
22.3181149365
20
20.8987887879
30
0.0000000000
10
22.3173324577
20
20.8739021751
30
0.0000000000
10
22.3165782168
20
20.8457102732
30
0.0000000000
10
22.3158622485
20
20.8143632451
30
0.0000000000
10
22.3151873435
20
20.7800355669
30
0.0000000000
10
22.3145580445
20
20.7429160011
30
0.0000000000
10
22.3139778814
20
20.7032093802
30
0.0000000000
10
22.3134502504
20
20.6611345766
30
0.0000000000
10
22.3129781563
20
20.6169235745
30
0.0000000000
10
22.3125642864
20
20.5708201506
30
0.0000000000
10
22.3122109811
20
20.5230785082
30
0.0000000000
10
22.3119202317
20
20.4739618229
30
0.0000000000
10
22.3116936757
20
20.4237409522
30
0.0000000000
10
22.3115325927
20
20.3726966407
30
0.0000000000
10
22.3114696658
20
20.3384234482
30
0.0000000000
10
22.3114491951
20
20.3211976496
30
0.0000000000
11
22.3234262834
21
20.9735481273
31
0.0000000000
11
22.3225205081
21
20.9707129245
31
0.0000000000
11
22.3216207519
21
20.9640341953
31
0.0000000000
11
22.3207321221
21
20.9535489043
31
0.0000000000
11
22.3198595259
21
20.9393149100
31
0.0000000000
11
22.3190077724
21
20.9214106971
31
0.0000000000
11
22.3181815567
21
20.8999349637
31
0.0000000000
11
22.3173854365
21
20.8750061908
31
0.0000000000
11
22.3166238014
21
20.8467618685
31
0.0000000000
11
22.3159008500
21
20.8153577330
31
0.0000000000
11
22.3152205685
21
20.7809669752
31
0.0000000000
11
22.3145867074
21
20.7437792541
31
0.0000000000
11
22.3140027613
21
20.7039996479
31
0.0000000000
11
22.3134719491
21
20.6618474984
31
0.0000000000
11
22.3129971963
21
20.6175551786
31
0.0000000000
11
22.3125811199
21
20.5713669079
31
0.0000000000
11
22.3122260143
21
20.5235374527
31
0.0000000000
11
22.3119338358
21
20.4743304444
31
0.0000000000
11
22.3117061946
21
20.4240170221
31
0.0000000000
11
22.3115443458
21
20.3728749943
31
0.0000000000
11
22.3114491951
21
20.3211976496
31
0.0000000000
0
SPLINE
5
241
100
AcDbEntity
8
0
100
AcDbSpline
62
9
6
CONTINUOUS
70
0
71
3
72
24
73
20
74
18
42
0.0000001000
43
0.0000001000
44
0.0000000001
12
-0.2000106173
22
0.7802891868
32
0.0000000000
13
-0.8055150864
23
0.0009527498
33
0.0000000000
40
0.0000000000
40
0.0000000000
40
0.0000000000
40
0.0000000000
40
0.0084036160
40
0.0236382935
40
0.0465188378
40
0.0770996584
40
0.1152229665
40
0.1606196706
40
0.2129396186
40
0.2717648161
40
0.3366174257
40
0.4069659923
40
0.4822310951
40
0.5617908967
40
0.6449867765
40
0.7311291188
40
0.8195032705
40
0.9093756531
40
1.0000000000
40
1.0000000000
40
1.0000000000
40
1.0000000000
10
22.3114491951
20
20.3211976496
30
0.0000000000
10
22.3108889243
20
20.3233833998
30
0.0000000000
10
22.3052151891
20
20.3276595044
30
0.0000000000
10
22.2938374075
20
20.3319106244
30
0.0000000000
10
22.2757968670
20
20.3366291894
30
0.0000000000
10
22.2516842520
20
20.3411275433
30
0.0000000000
10
22.2213421372
20
20.3455896306
30
0.0000000000
10
22.1851241420
20
20.3498539410
30
0.0000000000
10
22.1432827925
20
20.3539104561
30
0.0000000000
10
22.0961784509
20
20.3577061917
30
0.0000000000
10
22.0441977627
20
20.3612096089
30
0.0000000000
10
21.9877750078
20
20.3643876455
30
0.0000000000
10
21.9273799546
20
20.3672124982
30
0.0000000000
10
21.8635163124
20
20.3696593267
30
0.0000000000
10
21.7967166684
20
20.3717069496
30
0.0000000000
10
21.7275382311
20
20.3733377126
30
0.0000000000
10
21.6565580718
20
20.3745376273
30
0.0000000000
10
21.5843683706
20
20.3752964301
30
0.0000000000
10
21.5359041319
20
20.3755036219
30
0.0000000000
10
21.5115710390
20
20.3755324027
30
0.0000000000
11
22.3114491951
21
20.3211976496
31
0.0000000000
11
22.3068411740
21
20.3261563600
31
0.0000000000
11
22.2955976794
21
20.3310736964
31
0.0000000000
11
22.2778125234
21
20.3359086304
31
0.0000000000
11
22.2536340994
21
20.3406208208
31
0.0000000000
11
22.2232641444
21
20.3451709506
31
0.0000000000
11
22.1869560552
21
20.3495210551
31
0.0000000000
11
22.1450127747
21
20.3536348383
31
0.0000000000
11
22.0977842639
21
20.3574779762
31
0.0000000000
11
22.0456645819
21
20.3610184030
31
0.0000000000
11
21.9890885984
21
20.3642265785
31
0.0000000000
11
21.9285283648
21
20.3670757347
31
0.0000000000
11
21.8644891759
21
20.3695420991
31
0.0000000000
11
21.7975053536
21
20.3716050933
31
0.0000000000
11
21.7281357891
21
20.3732475044
31
0.0000000000
11
21.6569592793
21
20.3744556284
31
0.0000000000
11
21.5845696976
21
20.3752193854
31
0.0000000000
11
21.5115710390
21
20.3755324027
31
0.0000000000
0
SPLINE
5
242
100
AcDbEntity
8
0
100
AcDbSpline
62
9
6
CONTINUOUS
70
0
71
3
72
19
73
15
74
13
42
0.0000001000
43
0.0000001000
44
0.0000000001
12
-0.0482938920
22
-40.7510456439
32
0.0000000000
13
0.0482938921
23
-40.7510456439
33
0.0000000000
40
0.0000000000
40
0.0000000000
40
0.0000000000
40
0.0000000000
40
0.0832353063
40
0.1665240738
40
0.2498556191
40
0.3332192514
40
0.4166042769
40
0.5000000000
40
0.5833957231
40
0.6667807487
40
0.7501443809
40
0.8334759262
40
0.9167646937
40
1.0000000000
40
1.0000000000
40
1.0000000000
40
1.0000000000
10
21.5115710390
20
20.3755324027
30
0.0000000000
10
21.5102311200
20
19.2448904801
30
0.0000000000
10
21.5077745759
20
16.9828801643
30
0.0000000000
10
21.5047601787
20
13.5889198531
30
0.0000000000
10
21.5024152463
20
10.1932158713
30
0.0000000000
10
21.5007400796
20
6.7962039525
30
0.0000000000
10
21.4997348937
20
3.3983199979
30
0.0000000000
10
21.4993998173
20
-0.0000000001
30
0.0000000000
10
21.4997348937
20
-3.3983199981
30
0.0000000000
10
21.5007400796
20
-6.7962039526
30
0.0000000000
10
21.5024152463
20
-10.1932158714
30
0.0000000000
10
21.5047601787
20
-13.5889198532
30
0.0000000000
10
21.5077745759
20
-16.9828801644
30
0.0000000000
10
21.5102311200
20
-19.2448904801
30
0.0000000000
10
21.5115710390
20
-20.3755324027
30
0.0000000000
11
21.5115710390
21
20.3755324027
31
0.0000000000
11
21.5078871690
21
16.9836062535
31
0.0000000000
11
21.5048724490
21
13.5895008454
31
0.0000000000
11
21.5025272656
21
10.1936516652
31
0.0000000000
11
21.5008519198
21
6.7964945081
31
0.0000000000
11
21.4998466264
21
3.3984652875
31
0.0000000000
11
21.4995115142
21
-0.0000000001
31
0.0000000000
11
21.4998466264
21
-3.3984652876
31
0.0000000000
11
21.5008519198
21
-6.7964945083
31
0.0000000000
11
21.5025272656
21
-10.1936516653
31
0.0000000000
11
21.5048724490
21
-13.5895008456
31
0.0000000000
11
21.5078871690
21
-16.9836062536
31
0.0000000000
11
21.5115710390
21
-20.3755324027
31
0.0000000000
0
SPLINE
5
243
100
AcDbEntity
8
0
100
AcDbSpline
62
9
6
CONTINUOUS
70
0
71
3
72
19
73
15
74
13
42
0.0000001000
43
0.0000001000
44
0.0000000001
12
-0.0482938918
22
-40.6423760865
32
0.0000000000
13
0.0482938919
23
-40.6423760865
33
0.0000000000
40
0.0000000000
40
0.0000000000
40
0.0000000000
40
0.0000000000
40
0.0832352911
40
0.1665240612
40
0.2498556090
40
0.3332192438
40
0.4166042718
40
0.4999999973
40
0.5833957229
40
0.6667807509
40
0.7501443857
40
0.8334759335
40
0.9167647036
40
1.0000000000
40
1.0000000000
40
1.0000000000
40
1.0000000000
10
22.3114491951
20
20.3211976496
30
0.0000000000
10
22.3101092764
20
19.1935709810
30
0.0000000000
10
22.3076527324
20
16.9375928677
30
0.0000000000
10
22.3046383353
20
13.5526832564
30
0.0000000000
10
22.3022934027
20
10.1660343818
30
0.0000000000
10
22.3006182359
20
6.7780810578
30
0.0000000000
10
22.2996130498
20
3.3892580232
30
0.0000000000
10
22.2992779735
20
0.0000001078
30
0.0000000000
10
22.2996130498
20
-3.3892578076
30
0.0000000000
10
22.3006182358
20
-6.7780808424
30
0.0000000000
10
22.3022934025
20
-10.1660341667
30
0.0000000000
10
22.3046383351
20
-13.5526830416
30
0.0000000000
10
22.3076527322
20
-16.9375927246
30
0.0000000000
10
22.3101092763
20
-19.1935709095
30
0.0000000000
10
22.3114491951
20
-20.3211976496
30
0.0000000000
11
22.3114491951
21
20.3211976496
31
0.0000000000
11
22.3077653257
21
16.9383172613
31
0.0000000000
11
22.3047506055
21
13.5532626982
31
0.0000000000
11
22.3024054220
21
10.1664690126
31
0.0000000000
11
22.3007300761
21
6.7783708379
31
0.0000000000
11
22.2997247825
21
3.3894029250
31
0.0000000000
11
22.2993896704
21
0.0000001079
31
0.0000000000
11
22.2997247825
21
-3.3894027094
31
0.0000000000
11
22.3007300760
21
-6.7783706226
31
0.0000000000
11
22.3024054219
21
-10.1664687975
31
0.0000000000
11
22.3047506053
21
-13.5532624834
31
0.0000000000
11
22.3077653255
21
-16.9383170468
31
0.0000000000
11
22.3114491951
21
-20.3211976496
31
0.0000000000
0
SPLINE
5
244
100
AcDbEntity
8
0
100
AcDbSpline
62
9
6
CONTINUOUS
70
0
71
3
72
24
73
20
74
18
42
0.0000001000
43
0.0000001000
44
0.0000000001
12
-0.2000108317
22
-0.7802891311
32
0.0000000000
13
-0.8055150856
23
-0.0009527496
33
0.0000000000
40
0.0000000000
40
0.0000000000
40
0.0000000000
40
0.0000000000
40
0.0084036170
40
0.0236382959
40
0.0465188414
40
0.0770996629
40
0.1152229718
40
0.1606196764
40
0.2129396247
40
0.2717648223
40
0.3366174318
40
0.4069659980
40
0.4822311004
40
0.5617909014
40
0.6449867804
40
0.7311291219
40
0.8195032726
40
0.9093756541
40
1.0000000000
40
1.0000000000
40
1.0000000000
40
1.0000000000
10
22.3114491951
20
-20.3211976496
30
0.0000000000
10
22.3108889236
20
-20.3233834000
30
0.0000000000
10
22.3052151876
20
-20.3276595040
30
0.0000000000
10
22.2938374050
20
-20.3319106243
30
0.0000000000
10
22.2757968635
20
-20.3366291891
30
0.0000000000
10
22.2516842477
20
-20.3411275429
30
0.0000000000
10
22.2213421324
20
-20.3455896301
30
0.0000000000
10
22.1851241367
20
-20.3498539404
30
0.0000000000
10
22.1432827870
20
-20.3539104554
30
0.0000000000
10
22.0961784454
20
-20.3577061909
30
0.0000000000
10
22.0441977574
20
-20.3612096080
30
0.0000000000
10
21.9877750027
20
-20.3643876446
30
0.0000000000
10
21.9273799500
20
-20.3672124971
30
0.0000000000
10
21.8635163083
20
-20.3696593255
30
0.0000000000
10
21.7967166650
20
-20.3717069484
30
0.0000000000
10
21.7275382285
20
-20.3733377113
30
0.0000000000
10
21.6565580700
20
-20.3745376260
30
0.0000000000
10
21.5843683697
20
-20.3752964288
30
0.0000000000
10
21.5359041315
20
-20.3755036205
30
0.0000000000
10
21.5115710390
20
-20.3755324013
30
0.0000000000
11
22.3114491951
21
-20.3211976496
31
0.0000000000
11
22.3068411727
21
-20.3261563599
31
0.0000000000
11
22.2955976769
21
-20.3310736963
31
0.0000000000
11
22.2778125199
21
-20.3359086302
31
0.0000000000
11
22.2536340951
21
-20.3406208205
31
0.0000000000
11
22.2232641395
21
-20.3451709502
31
0.0000000000
11
22.1869560499
21
-20.3495210545
31
0.0000000000
11
22.1450127692
21
-20.3536348376
31
0.0000000000
11
22.0977842583
21
-20.3574779755
31
0.0000000000
11
22.0456645765
21
-20.3610184022
31
0.0000000000
11
21.9890885933
21
-20.3642265775
31
0.0000000000
11
21.9285283601
21
-20.3670757336
31
0.0000000000
11
21.8644891718
21
-20.3695420980
31
0.0000000000
11
21.7975053502
21
-20.3716050921
31
0.0000000000
11
21.7281357864
21
-20.3732475031
31
0.0000000000
11
21.6569592774
21
-20.3744556271
31
0.0000000000
11
21.5845696966
21
-20.3752193840
31
0.0000000000
11
21.5115710390
21
-20.3755324013
31
0.0000000000
0
SPLINE
5
245
100
AcDbEntity
8
0
100
AcDbSpline
62
9
6
CONTINUOUS
70
0
71
3
72
27
73
23
74
21
42
0.0000001000
43
0.0000001000
44
0.0000000001
12
0.0007751445
22
-1.3980632926
32
0.0000000000
13
0.5910451942
23
-1.2669834843
33
0.0000000000
40
0.0000000000
40
0.0000000000
40
0.0000000000
40
0.0000000000
40
0.0792244720
40
0.1576099414
40
0.2347253935
40
0.3101450975
40
0.3834535138
40
0.4542466388
40
0.5221340491
40
0.5867414889
40
0.6477128687
40
0.7047120817
40
0.7574248946
40
0.8055607253
40
0.8488542832
40
0.8870670525
40
0.9199885510
40
0.9474375782
40
0.9692635557
40
0.9853476796
40
0.9956052147
40
1.0000000000
40
1.0000000000
40
1.0000000000
40
1.0000000000
10
21.5115710390
20
-20.3755324027
30
0.0000000000
10
21.5115915091
20
-20.4124526781
30
0.0000000000
10
21.5116544586
20
-20.4859022257
30
0.0000000000
10
21.5118155481
20
-20.5952891161
30
0.0000000000
10
21.5120421225
20
-20.7029027850
30
0.0000000000
10
21.5123328698
20
-20.8081502770
30
0.0000000000
10
21.5126861802
20
-20.9104512228
30
0.0000000000
10
21.5131000475
20
-21.0092417047
30
0.0000000000
10
21.5135721391
20
-21.1039770386
30
0.0000000000
10
21.5140997609
20
-21.1941348679
30
0.0000000000
10
21.5146799221
20
-21.2792181264
30
0.0000000000
10
21.5153091816
20
-21.3587577578
30
0.0000000000
10
21.5159841555
20
-21.4323150533
30
0.0000000000
10
21.5166998201
20
-21.4994848251
30
0.0000000000
10
21.5174549251
20
-21.5598953845
30
0.0000000000
10
21.5182345967
20
-21.6132178441
30
0.0000000000
10
21.5190634383
20
-21.6591455099
30
0.0000000000
10
21.5198466134
20
-21.6974622538
30
0.0000000000
10
21.5208160723
20
-21.7278558387
30
0.0000000000
10
21.5213489739
20
-21.7504152310
30
0.0000000000
10
21.5227189020
20
-21.7644748449
30
0.0000000000
10
21.5226822884
20
-21.7715702433
30
0.0000000000
10
21.5235481273
20
-21.7734262834
30
0.0000000000
11
21.5115710390
21
-20.3755324027
31
0.0000000000
11
21.5116662185
21
-20.4862932050
31
0.0000000000
11
21.5118280716
21
-20.5958809498
31
0.0000000000
11
21.5120557242
21
-20.7036930088
31
0.0000000000
11
21.5123479057
21
-20.8091341399
31
0.0000000000
11
21.5127030146
21
-20.9116233464
31
0.0000000000
11
21.5131190905
21
-21.0105957564
31
0.0000000000
11
21.5135938410
21
-21.1055054800
31
0.0000000000
11
21.5141246482
21
-21.1958292243
31
0.0000000000
11
21.5147085869
21
-21.2810690853
31
0.0000000000
11
21.5153424382
21
-21.3607550839
31
0.0000000000
11
21.5160227077
21
-21.4344478042
31
0.0000000000
11
21.5167456450
21
-21.5017408694
31
0.0000000000
11
21.5175072643
21
-21.5622632209
31
0.0000000000
11
21.5183033680
21
-21.6156811671
31
0.0000000000
11
21.5191295655
21
-21.6617000969
31
0.0000000000
11
21.5199813031
21
-21.7000661269
31
0.0000000000
11
21.5208538753
21
-21.7305677510
31
0.0000000000
11
21.5217425023
21
-21.7530368126
31
0.0000000000
11
21.5226422074
21
-21.7673492473
31
0.0000000000
11
21.5235481273
21
-21.7734262834
31
0.0000000000
0
SPLINE
5
246
100
AcDbEntity
8
0
100
AcDbSpline
62
9
6
CONTINUOUS
70
0
71
3
72
27
73
23
74
21
42
0.0000001000
43
0.0000001000
44
0.0000000001
12
0.0007756567
22
-0.6527104875
32
0.0000000000
13
0.4614526205
23
-0.4616200399
33
0.0000000000
40
0.0000000000
40
0.0000000000
40
0.0000000000
40
0.0000000000
40
0.0791781946
40
0.1575318780
40
0.2346164459
40
0.3100064250
40
0.3832865491
40
0.4540530840
40
0.5219158840
40
0.5865009787
40
0.6474525655
40
0.7044348321
40
0.7571339163
40
0.8052596689
40
0.8485473291
40
0.8867590705
40
0.9196853811
40
0.9471465525
40
0.9689946111
40
0.9851160386
40
0.9954404202
40
1.0000000000
40
1.0000000000
40
1.0000000000
40
1.0000000000
10
22.3114491951
20
-20.3211976496
30
0.0000000000
10
22.3114696668
20
-20.3384244623
30
0.0000000000
10
22.3115325973
20
-20.3726986765
30
0.0000000000
10
22.3116936872
20
-20.4237440112
30
0.0000000000
10
22.3119202477
20
-20.4739648873
30
0.0000000000
10
22.3122110013
20
-20.5230815589
30
0.0000000000
10
22.3125643110
20
-20.5708231687
30
0.0000000000
10
22.3129781853
20
-20.6169265398
30
0.0000000000
10
22.3134502838
20
-20.6611374695
30
0.0000000000
10
22.3139779192
20
-20.7032121768
30
0.0000000000
10
22.3145580865
20
-20.7429186674
30
0.0000000000
10
22.3151873890
20
-20.7800380619
30
0.0000000000
10
22.3158622969
20
-20.8143655267
30
0.0000000000
10
22.3165782672
20
-20.8457123125
30
0.0000000000
10
22.3173325094
20
-20.8739039577
30
0.0000000000
10
22.3181149896
20
-20.8987903110
30
0.0000000000
10
22.3189356472
20
-20.9202184870
30
0.0000000000
10
22.3197423716
20
-20.9381167846
30
0.0000000000
10
22.3206501142
20
-20.9522611210
30
0.0000000000
10
22.3213301563
20
-20.9628953339
30
0.0000000000
10
22.3224261914
20
-20.9692900459
30
0.0000000000
10
22.3227249401
20
-20.9728465295
30
0.0000000000
10
22.3234262834
20
-20.9735481273
30
0.0000000000
11
22.3114491951
21
-20.3211976496
31
0.0000000000
11
22.3115443534
21
-20.3728780365
31
0.0000000000
11
22.3117062062
21
-20.4240200874
31
0.0000000000
11
22.3119338518
21
-20.4743335138
31
0.0000000000
11
22.3122260347
21
-20.5235405111
31
0.0000000000
11
22.3125811447
21
-20.5713699321
31
0.0000000000
11
22.3129972255
21
-20.6175581502
31
0.0000000000
11
22.3134719828
21
-20.6618503984
31
0.0000000000
11
22.3140027995
21
-20.7040024547
31
0.0000000000
11
22.3145867499
21
-20.7437819369
31
0.0000000000
11
22.3152206146
21
-20.7809694844
31
0.0000000000
11
22.3159008990
21
-20.8153600259
31
0.0000000000
11
22.3166238523
21
-20.8467639111
31
0.0000000000
11
22.3173854888
21
-20.8750079734
31
0.0000000000
11
22.3181816100
21
-20.8999364861
31
0.0000000000
11
22.3190078264
21
-20.9214119620
31
0.0000000000
11
22.3198595803
21
-20.9393159203
31
0.0000000000
11
22.3207321765
21
-20.9535496653
31
0.0000000000
11
22.3216208060
21
-20.9640347082
31
0.0000000000
11
22.3225205615
21
-20.9707132083
31
0.0000000000
11
22.3234262834
21
-20.9735481273
31
0.0000000000
0
SPLINE
5
247
100
AcDbEntity
8
0
100
AcDbSpline
62
9
6
CONTINUOUS
70
0
71
3
72
24
73
20
74
18
42
0.0000001000
43
0.0000001000
44
0.0000000001
12
-0.0003825233
22
-1.2558773180
32
0.0000000000
13
-1.2558773180
23
-0.0003825233
33
0.0000000000
40
0.0000000000
40
0.0000000000
40
0.0000000000
40
0.0000000000
40
0.0588186470
40
0.1176389184
40
0.1764607307
40
0.2352839479
40
0.2941083860
40
0.3529338199
40
0.4117599902
40
0.4705866126
40
0.5294133874
40
0.5882400098
40
0.6470661801
40
0.7058916140
40
0.7647160521
40
0.8235392693
40
0.8823610816
40
0.9411813530
40
1.0000000000
40
1.0000000000
40
1.0000000000
40
1.0000000000
10
22.3234262834
20
-20.9735481273
30
0.0000000000
10
22.3234187836
20
-20.9981711288
30
0.0000000000
10
22.3211265649
20
-21.0474474177
30
0.0000000000
10
22.3108862805
20
-21.1207062205
30
0.0000000000
10
22.2939313244
20
-21.1927164970
30
0.0000000000
10
22.2704063040
20
-21.2628558604
30
0.0000000000
10
22.2405118537
20
-21.3305283609
30
0.0000000000
10
22.2045029269
20
-21.3951562801
30
0.0000000000
10
22.1626866202
20
-21.4561886180
30
0.0000000000
10
22.1154195555
20
-21.5131048368
30
0.0000000000
10
22.0631048368
20
-21.5654195555
30
0.0000000000
10
22.0061886180
20
-21.6126866202
30
0.0000000000
10
21.9451562801
20
-21.6545029269
30
0.0000000000
10
21.8805283609
20
-21.6905118537
30
0.0000000000
10
21.8128558604
20
-21.7204063040
30
0.0000000000
10
21.7427164970
20
-21.7439313244
30
0.0000000000
10
21.6707062205
20
-21.7608862805
30
0.0000000000
10
21.5974474177
20
-21.7711265649
30
0.0000000000
10
21.5481711288
20
-21.7734187836
30
0.0000000000
10
21.5235481273
20
-21.7734262834
30
0.0000000000
11
22.3234262834
21
-20.9735481273
31
0.0000000000
11
22.3199929912
21
-21.0473373058
31
0.0000000000
11
22.3097673453
21
-21.1204971849
31
0.0000000000
11
22.2928365535
21
-21.1924038324
31
0.0000000000
11
22.2693450073
21
-21.2624440036
31
0.0000000000
11
22.2394930507
21
-21.3300203722
31
0.0000000000
11
22.2035352714
21
-21.3945566238
31
0.0000000000
11
22.1617783296
21
-21.4555023712
31
0.0000000000
11
22.1145783427
21
-21.5123378483
31
0.0000000000
11
22.0623378483
21
-21.5645783427
31
0.0000000000
11
22.0055023712
21
-21.6117783296
31
0.0000000000
11
21.9445566238
21
-21.6535352714
31
0.0000000000
11
21.8800203722
21
-21.6894930507
31
0.0000000000
11
21.8124440036
21
-21.7193450073
31
0.0000000000
11
21.7424038324
21
-21.7428365535
31
0.0000000000
11
21.6704971849
21
-21.7597673453
31
0.0000000000
11
21.5973373058
21
-21.7699929912
31
0.0000000000
11
21.5235481273
21
-21.7734262834
31
0.0000000000
0
SPLINE
5
248
100
AcDbEntity
8
0
100
AcDbSpline
62
9
6
CONTINUOUS
70
0
71
3
72
22
73
18
74
16
42
0.0000001000
43
0.0000001000
44
0.0000000001
12
6.9864894000
22
0.0000000000
32
0.0000000000
13
-6.9781471877
23
0.0000000000
33
-0.0000000000
40
0.0000000000
40
0.0000000000
40
0.0000000000
40
0.0000000000
40
0.0666666667
40
0.1333333333
40
0.2000000000
40
0.2666666667
40
0.3333333333
40
0.4000000000
40
0.4666666667
40
0.5333333333
40
0.6000000000
40
0.6666666667
40
0.7333333333
40
0.8000000000
40
0.8666666667
40
0.9333333333
40
1.0000000000
40
1.0000000000
40
1.0000000000
40
1.0000000000
10
-0.0000000000
20
-15.2000000000
30
5.3646858884
10
0.1552553200
20
-15.2000000000
30
5.3646858884
10
0.4584571913
20
-15.1679012444
30
5.3663168092
10
0.9000659916
20
-15.0253555454
30
5.3735142305
10
1.3022933877
20
-14.7929948854
30
5.3850973578
10
1.6454217785
20
-14.4846697716
30
5.4001862858
10
1.9195697835
20
-14.1074663601
30
5.4182049126
10
2.1071165290
20
-13.6867080512
30
5.4377364228
10
2.2042009481
20
-13.2299822930
30
5.4582561268
10
2.2041409512
20
-12.7695921281
30
5.4782246706
10
2.1070522247
20
-12.3130914698
30
5.4973153835
10
1.9194008591
20
-11.8922673865
30
5.5142866483
10
1.6454378405
20
-11.5153422943
30
5.5289796574
10
1.3020136329
20
-11.2067967480
30
5.5406468971
10
0.8999834897
20
-10.9746053647
30
5.5492154638
10
0.4580080253
20
-10.8319929039
30
5.5543869910
10
0.1550699375
20
-10.8000000000
30
5.5555369736
10
-0.0000000000
20
-10.8000000000
30
5.5555369736
11
-0.0000000000
21
-15.2000000000
31
5.3646858884
11
0.4562581902
21
-15.1521683168
31
5.3671086492
11
0.8935024242
21
-15.0103863852
31
5.3742451815
11
1.2924435535
21
-14.7803341431
31
5.3856816579
11
1.6339250475
21
-14.4731900553
31
5.4006745689
11
1.9051362403
21
-14.1002072105
31
5.4184570598
11
2.0920394746
21
-13.6807134763
31
5.4379011218
11
2.1880102121
21
-13.2293715585
31
5.4581642668
11
2.1879694963
21
-12.7702403792
31
5.4780783655
11
2.0919584516
21
-12.3190375657
31
5.4969621422
11
1.9050155836
21
-11.8995838850
31
5.5139069391
11
1.6338609757
21
-11.5267388853
31
5.5284753625
11
1.2922459770
21
-11.2195224419
31
5.5401304516
11
0.8933259362
21
-10.9895351852
31
5.5486492905
11
0.4559360808
21
-10.8477634214
31
5.5538125654
11
-0.0000000000
21
-10.8000000000
31
5.5555369736
0
SPLINE
5
249
100
AcDbEntity
8
0
100
AcDbSpline
62
9
6
CONTINUOUS
70
0
71
3
72
22
73
18
74
16
42
0.0000001000
43
0.0000001000
44
0.0000000001
12
-6.9862727785
22
0.0000000000
32
0.0000000000
13
6.9781612854
23
-0.0000000000
33
0.0000000000
40
0.0000000000
40
0.0000000000
40
0.0000000000
40
0.0000000000
40
0.0666666667
40
0.1333333333
40
0.2000000000
40
0.2666666667
40
0.3333333333
40
0.4000000000
40
0.4666666667
40
0.5333333333
40
0.6000000000
40
0.6666666667
40
0.7333333333
40
0.8000000000
40
0.8666666667
40
0.9333333333
40
1.0000000000
40
1.0000000000
40
1.0000000000
40
1.0000000000
10
-0.0000000000
20
-10.8000000000
30
5.5555369736
10
-0.1552505062
20
-10.8000000000
30
5.5555369736
10
-0.4584598796
20
-10.8320956880
30
5.5543832672
10
-0.9001537647
20
-10.9746742634
30
5.5492129874
10
-1.3024724020
20
-11.2071257584
30
5.5406345959
10
-1.6456188806
20
-11.5155445487
30
5.5289719376
10
-1.9197169646
20
-11.8927920862
30
5.5142658946
10
-2.1071912664
20
-12.3135342341
30
5.4972971963
10
-2.2042197519
20
-12.7702192820
30
5.4781980446
10
-2.2041221612
20
-13.2306110451
30
5.4582282792
10
-2.1069759712
20
-13.6871565015
30
5.4377159431
10
-1.9192479951
20
-14.1080016191
30
5.4181796530
10
-1.6452290090
20
-14.4848855408
30
5.4001758069
10
-1.3018165185
20
-14.7933372431
30
5.3850804565
10
-0.8998754256
20
-15.0254329986
30
5.3735102991
10
-0.4579935627
20
-15.1680057110
30
5.3663115302
10
-0.1550702508
20
-15.2000000000
30
5.3646858884
10
-0.0000000000
20
-15.2000000000
30
5.3646858884
11
-0.0000000000
21
-10.8000000000
31
5.5555369736
11
-0.4562731838
21
-10.8478348619
31
5.5538099805
11
-0.8935912234
21
-10.9896530833
31
5.5486449688
11
-1.2926103756
21
-11.2197869743
31
5.5401205514
11
-1.6341108148
21
-11.5270160066
31
5.5284647068
11
-1.9052796676
21
-11.9000411879
31
5.5138887854
11
-2.0921169637
21
-12.3195247174
31
5.4969421207
11
-2.1880320726
21
-12.7708370679
31
5.4780529423
11
-2.1879473947
21
-13.2299699940
31
5.4581378507
11
-2.0918790068
21
-13.6812064451
31
5.4378786174
11
-1.9048661601
21
-14.1006747531
31
5.4184350603
11
-1.6336634249
21
-14.4734801709
31
5.4006605562
11
-1.2920617514
21
-14.7806112519
31
5.3856679887
11
-0.8932186306
21
-15.0105124914
31
5.3742388639
11
-0.4559097119
21
-15.1522421645
31
5.3671049146
11
-0.0000000000
21
-15.2000000000
31
5.3646858884
0
SPLINE
5
24A
100
AcDbEntity
8
0
100
AcDbSpline
62
9
6
CONTINUOUS
70
0
71
3
72
23
73
19
74
17
42
0.0000001000
43
0.0000001000
44
0.0000000001
12
-13.9595451903
22
0.0000000000
32
0.0000000000
13
13.9701524825
23
0.0000000000
33
0.0000000000
40
0.0000000000
40
0.0000000000
40
0.0000000000
40
0.0000000000
40
0.0625000000
40
0.1250000000
40
0.1875000000
40
0.2500000000
40
0.3125000000
40
0.3750000000
40
0.4375000000
40
0.5000000000
40
0.5625000000
40
0.6250000000
40
0.6875000000
40
0.7500000000
40
0.8125000000
40
0.8750000000
40
0.9375000000
40
1.0000000000
40
1.0000000000
40
1.0000000000
40
1.0000000000
10
-0.0000000000
20
-17.4000000000
30
5.2449749161
10
-0.2908238581
20
-17.4000000000
30
5.2449749161
10
-0.8602343040
20
-17.3436436483
30
5.2482571893
10
-1.6936003655
20
-17.0919118100
30
5.2627745448
10
-2.4583423119
20
-16.6832124581
30
5.2858862614
10
-3.1297702116
20
-16.1329244314
30
5.3161098809
10
-3.6809423216
20
-15.4619577985
30
5.3515722884
10
-4.0907336714
20
-14.6960585749
30
5.3901866218
10
-4.3430936999
20
-13.8649730046
30
5.4298385297
10
-4.4283850046
20
-13.0006534833
30
5.4685941576
10
-4.3433659703
20
-12.1364686836
30
5.5048148196
10
-4.0913592307
20
-11.3054844634
30
5.5372601634
10
-3.6819485267
20
-10.5395518283
30
5.5650962393
10
-3.1309902982
20
-9.8682751453
30
5.5878603984
10
-2.4595016252
20
-9.3175211493
30
5.6053993614
10
-1.6943769265
20
-8.9083837569
30
5.6177646013
10
-0.8608333965
20
-8.6564537444
30
5.6250970572
10
-0.2910448434
20
-8.6000000000
30
5.6267079985
10
-0.0000000000
20
-8.6000000000
30
5.6267079985
11
-0.0000000000
21
-17.4000000000
31
5.2449749161
11
-0.8567760361
21
-17.3157774298
31
5.2498561803
11
-1.6821630130
21
-17.0657505577
31
5.2642069383
11
-2.4427899708
21
-16.6596143456
31
5.2870715786
11
-3.1097275800
21
-16.1128113304
31
5.3169830122
11
-3.6573788616
21
-15.4461357000
31
5.3520976094
11
-4.0644951178
21
-14.6851941838
31
5.3903595509
11
-4.3152489126
21
-13.8594340128
31
5.4296891497
11
-4.3999999481
21
-13.0006759369
31
5.4681716633
11
-4.3155346861
21
-12.1420021135
31
5.5041855999
11
-4.0651252366
21
-11.3163263942
31
5.5364919521
11
-3.6583572726
21
-10.5553278203
31
5.5642509198
11
-3.1109018908
21
-9.8883622598
31
5.5869895323
11
-2.4438956209
21
-9.3411239165
31
5.6045370742
11
-1.6829737879
21
-8.9345849869
31
5.6169258040
11
-0.8573101799
21
-8.6843286437
31
5.6242777165
11
-0.0000000000
21
-8.6000000000
31
5.6267079985
0
SPLINE
5
24B
100
AcDbEntity
8
0
100
AcDbSpline
62
9
6
CONTINUOUS
70
0
71
3
72
23
73
19
74
17
42
0.0000001000
43
0.0000001000
44
0.0000000001
12
13.9583802340
22
0.0000000000
32
0.0000000000
13
-13.9716649621
23
0.0000000000
33
0.0000000000
40
0.0000000000
40
0.0000000000
40
0.0000000000
40
0.0000000000
40
0.0625000000
40
0.1250000000
40
0.1875000000
40
0.2500000000
40
0.3125000000
40
0.3750000000
40
0.4375000000
40
0.5000000000
40
0.5625000000
40
0.6250000000
40
0.6875000000
40
0.7500000000
40
0.8125000000
40
0.8750000000
40
0.9375000000
40
1.0000000000
40
1.0000000000
40
1.0000000000
40
1.0000000000
10
-0.0000000000
20
-8.6000000000
30
5.6267079985
10
0.2907995882
20
-8.6000000000
30
5.6267079985
10
0.8602313297
20
-8.6563436592
30
5.6251002131
10
1.6939128520
20
-8.9081853567
30
5.6177704593
10
2.4590307290
20
-9.3172124051
30
5.6054088975
10
3.1305845478
20
-9.8678696700
30
5.5878736792
10
3.6816129651
20
-10.5390539049
30
5.5651136703
10
4.0911142084
20
-11.3048995954
30
5.5372821421
10
4.3432330514
20
-12.1358093073
30
5.5048414663
10
4.4283851876
20
-12.9999717011
30
5.4686237319
10
4.3432261983
20
-13.8643159582
30
5.4298689758
10
4.0909796851
20
-14.6954697310
30
5.3902155689
10
3.6812877337
20
-15.4614434074
30
5.3515988972
10
3.1302005739
20
-16.1324932851
30
5.3161331606
10
2.4588502652
20
-16.6828788160
30
5.2859049053
10
1.6941018905
20
-17.0916989673
30
5.2627867316
10
0.8608559225
20
-17.3435310729
30
5.2482637319
10
0.2910763534
20
-17.4000000000
30
5.2449749161
10
-0.0000000000
20
-17.4000000000
30
5.2449749161
11
-0.0000000000
21
-8.6000000000
31
5.6267079985
11
0.8568203147
21
-8.6842313607
31
5.6242805338
11
1.6824855778
21
-8.9343829152
31
5.6169318246
11
2.4434367193
21
-9.3408174412
31
5.6045466214
11
3.1104969809
21
-9.8879574984
31
5.5870028807
11
3.6580251028
21
-10.5548308142
31
5.5642684171
11
4.0648838084
21
-11.3157435989
31
5.5365139509
11
4.3154052669
21
-12.1413514209
31
5.5042119565
11
4.4000000000
21
-13.0000020116
31
5.4682008949
11
4.3153782777
21
-13.8587842108
31
5.4297192007
11
4.0647387787
21
-14.6846063816
31
5.3903883581
11
3.6577218656
21
-15.4456227742
31
5.3521240531
11
3.1101567157
21
-16.1123825606
31
5.3170060741
11
2.4432839209
21
-16.6592845861
31
5.2870899189
11
1.6826856250
21
-17.0655342930
31
5.2642192606
11
0.8572853582
21
-17.3156762870
31
5.2498620279
11
-0.0000000000
21
-17.4000000000
31
5.2449749161
0
ENDSEC
0
SECTION
2
OBJECTS
0
DICTIONARY
5
24C
100
AcDbDictionary
3
ACAD_GROUP
350
24D
3
ACAD_MLINESTYLE
350
24E
0
DICTIONARY
5
24D
102
{ACAD_REACTORS
330
24C
102
}
100
AcDbDictionary
0
DICTIONARY
5
24E
102
{ACAD_REACTORS
330
24C
102
}
100
AcDbDictionary
3
STANDARD
350
24F
0
MLINESTYLE
5
24F
102
{ACAD_REACTORS
330
24E
102
}
100
AcDbMlineStyle
2
STANDARD
70
0
3

62
256
51
90.0
52
90.0
71
2
49
0.5
62
256
6
BYLAYER
49
-0.5
62
256
6
BYLAYER
0
ENDSEC
0
EOF
