999
DXF file: zdi_ea169710200.dxf
999
Pro/ENGINEER 2004090 by Parametric Technology Corporation
0
SECTION
2
HEADER
9
$ACADVER
1
AC1014
9
$HANDSEED
5
       26E
9
$EXTMAX
10
297.0000000000
20
210.0000000000
9
$EXTMIN
10
0.0000000000
20
0.0000000000
9
$LIMMIN
10
0.0000000000
20
0.0000000000
9
$LIMMAX
10
297.0000000000
20
210.0000000000
9
$VIEWCTR
10
148.5000000000
20
105.0000000000
9
$VIEWSIZE
40
210.0000000000
9
$CLAYER
8
0
9
$LTSCALE
40
16.3350000000
9
$CELTYPE
6
BYLAYER
9
$DIMSCALE
40
1
9
$DIMASZ
40
3.0000000000
9
$DIMEXO
40
1.8562500000
9
$DIMDLI
40
11.2860000000
9
$DIMEXE
40
5.3460000000
9
$DIMCEN
40
2.6730000000
9
$DIMLFAC
40
1.0000000000
9
$DIMTXT
40
3.0000000000
9
$DIMTOL
70
1
9
$DIMLIM
70
0
9
$DIMTFAC
40
1.0000000000
9
$DIMTP
40
0.0100000000
9
$DIMTM
40
0.0100000000
9
$MEASUREMENT
70
1
0
ENDSEC
0
SECTION
2
CLASSES
0
ENDSEC
0
SECTION
2
TABLES
0
TABLE
2
VPORT
5
8
100
AcDbSymbolTable
70
2
0
VPORT
5
1F4
100
AcDbSymbolTableRecord
100
AcDbViewportTableRecord
2
*ACTIVE
70
0
10
0.0
20
0.0
11
1.0
21
1.0
12
148.5000000000
22
105.0000000000
13
0.0
23
0.0
14
1.0
24
1.0
15
0.0
25
0.0
16
0.0
26
0.0
36
1.0
17
0.0
27
0.0
37
0.0
40
210.0000000000
41
1.4142857143
42
50.0
43
0.0
44
0.0
50
0.0
51
0.0
71
0
72
100
73
1
74
1
75
0
76
0
77
0
78
0
0
ENDTAB
0
TABLE
2
LTYPE
5
5
100
AcDbSymbolTable
70
6
0
LTYPE
5
14
100
AcDbSymbolTableRecord
100
AcDbLinetypeTableRecord
2
BYBLOCK
70
0
3

72
65
73
0
40
0.0
0
LTYPE
5
15
100
AcDbSymbolTableRecord
100
AcDbLinetypeTableRecord
2
BYLAYER
70
0
3

72
65
73
0
40
0.0
0
LTYPE
5
16
100
AcDbSymbolTableRecord
100
AcDbLinetypeTableRecord
2
CONTINUOUS
70
64
3
Solid line
72
65
73
0
40
0
0
LTYPE
5
1F5
100
AcDbSymbolTableRecord
100
AcDbLinetypeTableRecord
2
CENTER
70
64
3
____ _ ____ _ ____ _ ____ _ ____ _ ____ _ ____
72
65
73
4
40
0.6
49
0.375
74
0
49
-0.075
74
0
49
0.075
74
0
49
-0.075
74
0
0
LTYPE
5
1F6
100
AcDbSymbolTableRecord
100
AcDbLinetypeTableRecord
2
HIDDEN
70
64
3
- - - - - - - - - - - - - - - - - - - -
72
65
73
2
40
0.2
49
0.1
74
0
49
-0.1
74
0
0
LTYPE
5
1F7
100
AcDbSymbolTableRecord
100
AcDbLinetypeTableRecord
2
PHANTOM
70
64
3
_____ _ _ _____ _ _ _____ _ _ _____
72
65
73
6
40
0.8
49
0.45
74
0
49
-0.05
74
0
49
0.1
74
0
49
-0.05
74
0
49
0.1
74
0
49
-0.05
74
0
0
LTYPE
5
1F8
100
AcDbSymbolTableRecord
100
AcDbLinetypeTableRecord
2
DOT
70
64
3
. . . . . . . . . . . . . . . . . . . .
72
65
73
2
40
0.2
49
0.1
74
0
49
-0.1
74
0
0
LTYPE
5
1F9
100
AcDbSymbolTableRecord
100
AcDbLinetypeTableRecord
2
DASHED
70
64
3
- - - - - - - - - - - - - - - - - - - -
72
65
73
2
40
0.2
49
0.1
74
0
49
-0.1
74
0
0
ENDTAB
0
TABLE
2
LAYER
5
2
100
AcDbSymbolTable
70
36
0
LAYER
5
10
100
AcDbSymbolTableRecord
100
AcDbLayerTableRecord
2
0
70
0
62
7
6
CONTINUOUS
0
LAYER
5
1FA
100
AcDbSymbolTableRecord
100
AcDbLayerTableRecord
2
DEFAULT_1
70
0
62
7
6
CENTER
0
LAYER
5
1FB
100
AcDbSymbolTableRecord
100
AcDbLayerTableRecord
2
DEFAULT_2
70
0
62
8
6
HIDDEN
0
LAYER
5
1FC
100
AcDbSymbolTableRecord
100
AcDbLayerTableRecord
2
DEFAULT_3
70
0
62
7
6
PHANTOM
0
LAYER
5
1FD
100
AcDbSymbolTableRecord
100
AcDbLayerTableRecord
2
ASSI
70
0
62
7
6
CONTINUOUS
0
LAYER
5
1FE
100
AcDbSymbolTableRecord
100
AcDbLayerTableRecord
2
COORDINATE
70
0
62
7
6
CONTINUOUS
0
LAYER
5
1FF
100
AcDbSymbolTableRecord
100
AcDbLayerTableRecord
2
COORD_ORIGINE
70
0
62
7
6
CONTINUOUS
0
LAYER
5
200
100
AcDbSymbolTableRecord
100
AcDbLayerTableRecord
2
CURVE
70
0
62
7
6
CONTINUOUS
0
LAYER
5
201
100
AcDbSymbolTableRecord
100
AcDbLayerTableRecord
2
CURVE_LED_TASTO
70
0
62
7
6
CONTINUOUS
0
LAYER
5
202
100
AcDbSymbolTableRecord
100
AcDbLayerTableRecord
2
DRAFT
70
0
62
7
6
CONTINUOUS
0
LAYER
5
203
100
AcDbSymbolTableRecord
100
AcDbLayerTableRecord
2
PIANI
70
0
62
7
6
CONTINUOUS
0
LAYER
5
204
100
AcDbSymbolTableRecord
100
AcDbLayerTableRecord
2
PIANI_ORIGINE
70
0
62
7
6
CONTINUOUS
0
LAYER
5
205
100
AcDbSymbolTableRecord
100
AcDbLayerTableRecord
2
PIANI_RIFERIMENTO
70
0
62
7
6
CONTINUOUS
0
LAYER
5
206
100
AcDbSymbolTableRecord
100
AcDbLayerTableRecord
2
PUNTI
70
0
62
7
6
CONTINUOUS
0
LAYER
5
207
100
AcDbSymbolTableRecord
100
AcDbLayerTableRecord
2
RACCORDO
70
0
62
7
6
CONTINUOUS
0
LAYER
5
208
100
AcDbSymbolTableRecord
100
AcDbLayerTableRecord
2
SCRITTE
70
0
62
7
6
CONTINUOUS
0
LAYER
5
209
100
AcDbSymbolTableRecord
100
AcDbLayerTableRecord
2
SUPERFICI
70
0
62
7
6
CONTINUOUS
0
LAYER
5
20A
100
AcDbSymbolTableRecord
100
AcDbLayerTableRecord
2
TRASH
70
0
62
7
6
CONTINUOUS
0
ENDTAB
0
TABLE
2
STYLE
5
3
100
AcDbSymbolTable
70
1
0
STYLE
5
11
100
AcDbSymbolTableRecord
100
AcDbTextStyleTableRecord
2
STANDARD
70
0
40
0.0
41
0.8000000000
50
0.0
71
0
42
0.2
3
txt
4

0
ENDTAB
0
TABLE
2
VIEW
5
6
100
AcDbSymbolTable
70
0
0
ENDTAB
0
TABLE
2
UCS
5
7
100
AcDbSymbolTable
70
0
0
ENDTAB
0
TABLE
2
APPID
5
9
100
AcDbSymbolTable
70
1
0
APPID
5
20B
100
AcDbSymbolTableRecord
100
AcDbRegAppTableRecord
2
ACAD
70
0
0
ENDTAB
0
TABLE
2
DIMSTYLE
5
A
100
AcDbSymbolTable
70
1
0
DIMSTYLE
105
20C
100
AcDbSymbolTableRecord
100
AcDbDimStyleTableRecord
2
STANDARD
70
0
3

4

5

6

7

40
1.0
41
3.0000000000
42
0.0625
43
0.38
44
0.18
45
0.0
46
0.0
47
0.0100000000
48
0.0100000000
140
3.0000000000
141
0.09
142
0.0
143
25.4
144
1.0000000000
145
0.0
146
1.0000000000
147
0.09
71
1
72
0
73
0
74
0
75
0
76
0
77
1
78
8
170
0
171
2
172
0
173
0
174
0
175
0
176
0
177
0
178
0
270
2
271
2
272
2
273
2
274
2
340
11
275
0
280
0
281
0
282
0
283
1
284
8
285
0
286
0
287
3
288
0
0
ENDTAB
0
TABLE
2
BLOCK_RECORD
5
1
100
AcDbSymbolTable
70
0
0
BLOCK_RECORD
5
1B
100
AcDbSymbolTableRecord
100
AcDbBlockTableRecord
2
*MODEL_SPACE
0
BLOCK_RECORD
5
1C
100
AcDbSymbolTableRecord
100
AcDbBlockTableRecord
2
*PAPER_SPACE
0
ENDTAB
0
ENDSEC
0
SECTION
2
BLOCKS
0
BLOCK
5
1E
100
AcDbEntity
8
0
100
AcDbBlockBegin
2
*MODEL_SPACE
70
0
10
0.0
20
0.0
30
0.0
3
*MODEL_SPACE
1

0
ENDBLK
5
1F
100
AcDbEntity
8
0
100
AcDbBlockEnd
0
BLOCK
5
20
100
AcDbEntity
8
0
100
AcDbBlockBegin
2
*PAPER_SPACE
70
0
10
0.0
20
0.0
30
0.0
3
*PAPER_SPACE
1

0
ENDBLK
5
21
100
AcDbEntity
8
0
100
AcDbBlockEnd
0
ENDSEC
0
SECTION
2
ENTITIES
0
LINE
5
20D
100
AcDbEntity
8
0
100
AcDbLine
62
7
6
CONTINUOUS
10
12.1008636137
20
-18.4000000000
11
-12.1008636137
21
-18.4000000000
0
LINE
5
20E
100
AcDbEntity
8
0
100
AcDbLine
62
9
6
CONTINUOUS
10
-11.9951136646
20
-17.3317387640
11
11.9951136646
21
-17.3317387640
0
LINE
5
20F
100
AcDbEntity
8
0
100
AcDbLine
62
9
6
CONTINUOUS
10
-11.9850259316
20
-16.3854850935
11
11.9850259316
21
-16.3854850935
0
LINE
5
210
100
AcDbEntity
8
0
100
AcDbLine
62
7
6
CONTINUOUS
10
-12.4000000000
20
18.0962952155
11
-12.4000000000
21
-18.0962952155
0
LINE
5
211
100
AcDbEntity
8
0
100
AcDbLine
62
9
6
CONTINUOUS
10
-11.9850259316
20
-16.3854850935
11
-11.9850259316
21
16.3854850935
0
LINE
5
212
100
AcDbEntity
8
0
100
AcDbLine
62
9
6
CONTINUOUS
10
-2.3999999666
20
-12.2000000000
11
-3.2399999750
21
-12.2000000000
0
LINE
5
213
100
AcDbEntity
8
0
100
AcDbLine
62
9
6
CONTINUOUS
10
-12.2950679731
20
17.0362964381
11
-12.4000000000
21
18.0962952155
0
LINE
5
214
100
AcDbEntity
8
0
100
AcDbLine
62
9
6
CONTINUOUS
10
-11.9951136646
20
17.3317387640
11
-12.1008636137
21
18.4000000000
0
LINE
5
215
100
AcDbEntity
8
0
100
AcDbLine
62
9
6
CONTINUOUS
10
-12.4000000000
20
-18.0962952155
11
-12.2950679731
21
-17.0362964381
0
LINE
5
216
100
AcDbEntity
8
0
100
AcDbLine
62
9
6
CONTINUOUS
10
-12.1008636137
20
-18.4000000000
11
-11.9951136646
21
-17.3317387640
0
LINE
5
217
100
AcDbEntity
8
0
100
AcDbLine
62
9
6
CONTINUOUS
10
-0.7200000668
20
-10.1999999106
11
0.9600000668
21
-10.1999999106
0
LINE
5
218
100
AcDbEntity
8
0
100
AcDbLine
62
9
6
CONTINUOUS
10
2.0800000000
20
-10.1999999106
11
3.7600001335
21
-10.1999999106
0
LINE
5
219
100
AcDbEntity
8
0
100
AcDbLine
62
9
6
CONTINUOUS
10
-3.2399999750
20
-8.7000000000
11
-2.3999999666
21
-8.7000000000
0
LINE
5
21A
100
AcDbEntity
8
0
100
AcDbLine
62
9
6
CONTINUOUS
10
-0.7200000668
20
-8.7000000000
11
0.9600000668
21
-8.7000000000
0
LINE
5
21B
100
AcDbEntity
8
0
100
AcDbLine
62
9
6
CONTINUOUS
10
2.0800000000
20
-8.7000000000
11
3.7600001335
21
-8.7000000000
0
LINE
5
21C
100
AcDbEntity
8
0
100
AcDbLine
62
9
6
CONTINUOUS
10
-3.7999999523
20
-11.7000001483
11
-3.7999999523
21
-9.2000001408
0
LINE
5
21D
100
AcDbEntity
8
0
100
AcDbLine
62
9
6
CONTINUOUS
10
-2.5000000000
20
9.2000000729
11
-2.5000000000
21
11.7000000803
0
LINE
5
21E
100
AcDbEntity
8
0
100
AcDbLine
62
9
6
CONTINUOUS
10
-1.8400000334
20
-9.2000000729
11
-1.8400000334
21
-11.7000000803
0
LINE
5
21F
100
AcDbEntity
8
0
100
AcDbLine
62
9
6
CONTINUOUS
10
-0.7200000882
20
-12.2000001606
11
-0.7200000882
21
-8.7000001606
0
LINE
5
220
100
AcDbEntity
8
0
100
AcDbLine
62
9
6
CONTINUOUS
10
-0.5400000215
20
11.7000001483
11
-0.5400000215
21
9.2000001408
0
LINE
5
221
100
AcDbEntity
8
0
100
AcDbLine
62
9
6
CONTINUOUS
10
0.5799999237
20
8.7000000554
11
0.5799999237
21
12.2000000554
0
LINE
5
222
100
AcDbEntity
8
0
100
AcDbLine
62
9
6
CONTINUOUS
10
2.0799999237
20
-12.2000001606
11
2.0799999237
21
-8.7000001606
0
LINE
5
223
100
AcDbEntity
8
0
100
AcDbLine
62
9
6
CONTINUOUS
10
2.5399999619
20
8.7000000554
11
2.5399999619
21
12.2000000554
0
LINE
5
224
100
AcDbEntity
8
0
100
AcDbLine
62
9
6
CONTINUOUS
10
-1.0999999666
20
8.7000000000
11
-1.9399999750
21
8.7000000000
0
LINE
5
225
100
AcDbEntity
8
0
100
AcDbLine
62
9
6
CONTINUOUS
10
11.9951136646
20
-17.3317387640
11
12.1008636137
21
-18.4000000000
0
LINE
5
226
100
AcDbEntity
8
0
100
AcDbLine
62
9
6
CONTINUOUS
10
12.1008636137
20
18.4000000000
11
11.9951136646
21
17.3317387640
0
LINE
5
227
100
AcDbEntity
8
0
100
AcDbLine
62
9
6
CONTINUOUS
10
12.2950679731
20
-17.0362964381
11
12.4000000000
21
-18.0962952155
0
LINE
5
228
100
AcDbEntity
8
0
100
AcDbLine
62
9
6
CONTINUOUS
10
11.9850259316
20
16.3854850935
11
11.9850259316
21
-16.3854850935
0
LINE
5
229
100
AcDbEntity
8
0
100
AcDbLine
62
9
6
CONTINUOUS
10
12.4000000000
20
18.0962952155
11
12.2950679731
21
17.0362964381
0
LINE
5
22A
100
AcDbEntity
8
0
100
AcDbLine
62
7
6
CONTINUOUS
10
12.4000000000
20
18.0962952155
11
12.4000000000
21
-18.0962952155
0
LINE
5
22B
100
AcDbEntity
8
0
100
AcDbLine
62
9
6
CONTINUOUS
10
-1.9399999750
20
12.2000000000
11
-1.0999999666
21
12.2000000000
0
LINE
5
22C
100
AcDbEntity
8
0
100
AcDbLine
62
9
6
CONTINUOUS
10
-11.9850259316
20
16.3854850935
11
11.9850259316
21
16.3854850935
0
LINE
5
22D
100
AcDbEntity
8
0
100
AcDbLine
62
9
6
CONTINUOUS
10
-11.9951136646
20
17.3317387640
11
11.9951136646
21
17.3317387640
0
LINE
5
22E
100
AcDbEntity
8
0
100
AcDbLine
62
7
6
CONTINUOUS
10
12.1008636137
20
18.4000000000
11
-12.1008636137
21
18.4000000000
0
CIRCLE
5
22F
100
AcDbEntity
8
0
100
AcDbCircle
62
7
6
CONTINUOUS
10
-0.0000000000
20
0.0000000000
40
1.2500000000
0
CIRCLE
5
230
100
AcDbEntity
8
0
100
AcDbCircle
62
9
6
CONTINUOUS
10
-0.0000000000
20
0.0000000000
40
1.1616160628
0
SPLINE
5
231
100
AcDbEntity
8
0
100
AcDbSpline
62
7
6
CONTINUOUS
70
0
71
3
72
22
73
18
74
16
42
0.0000001000
43
0.0000001000
44
0.0000000001
12
-0.4733254049
22
0.0000000000
32
0.0000000000
13
-0.0000000000
23
0.4733254049
33
0.0000000000
40
0.0000000000
40
0.0000000000
40
0.0000000000
40
0.0000000000
40
0.0654809971
40
0.1313652903
40
0.1972591280
40
0.2629096833
40
0.3289121847
40
0.3953241338
40
0.4617927791
40
0.5281157275
40
0.5949961533
40
0.6622740259
40
0.7295492765
40
0.7967420414
40
0.8644268450
40
0.9323328147
40
1.0000000000
40
1.0000000000
40
1.0000000000
40
1.0000000000
10
-12.1008636137
20
-18.4000000000
30
0.0000000000
10
-12.1111948868
20
-18.4000000000
30
0.0000000000
10
-12.1319374816
20
-18.3989110886
30
0.0000000000
10
-12.1627279798
20
-18.3940121733
30
0.0000000000
10
-12.1928600946
20
-18.3858886379
30
0.0000000000
10
-12.2219881351
20
-18.3746389715
30
0.0000000000
10
-12.2498494891
20
-18.3603595750
30
0.0000000000
10
-12.2761639596
20
-18.3431597337
30
0.0000000000
10
-12.3005646315
20
-18.3232585541
30
0.0000000000
10
-12.3228029304
20
-18.3008639511
30
0.0000000000
10
-12.3426632963
20
-18.2761708290
30
0.0000000000
10
-12.3599135769
20
-18.2494092599
30
0.0000000000
10
-12.3742975698
20
-18.2209493025
30
0.0000000000
10
-12.3856699991
20
-18.1910899367
30
0.0000000000
10
-12.3939076019
20
-18.1601136643
30
0.0000000000
10
-12.3988905424
20
-18.1283780465
30
0.0000000000
10
-12.4000000000
20
-18.1069714148
30
0.0000000000
10
-12.4000000000
20
-18.0962952155
30
0.0000000000
11
-12.1008636137
21
-18.4000000000
31
0.0000000000
11
-12.1318147720
21
-18.3983743790
31
0.0000000000
11
-12.1626122270
21
-18.3934751049
31
0.0000000000
11
-12.1927264411
21
-18.3853570992
31
0.0000000000
11
-12.2217142475
21
-18.3741631161
31
0.0000000000
11
-12.2495169715
21
-18.3599157509
31
0.0000000000
11
-12.2758305114
21
-18.3427191506
31
0.0000000000
11
-12.3002126062
21
-18.3228363249
31
0.0000000000
11
-12.3223343101
21
-18.3005628205
31
0.0000000000
11
-12.3421762894
21
-18.2758968287
31
0.0000000000
11
-12.3594314097
21
-18.2491326374
31
0.0000000000
11
-12.3737971976
21
-18.2207142241
31
0.0000000000
11
-12.3851189905
21
-18.1909936229
31
0.0000000000
11
-12.3933543974
21
-18.1600332706
31
0.0000000000
11
-12.3983409031
21
-18.1282808135
31
0.0000000000
11
-12.4000000000
21
-18.0962952155
31
0.0000000000
0
SPLINE
5
232
100
AcDbEntity
8
0
100
AcDbSpline
62
7
6
CONTINUOUS
70
0
71
3
72
22
73
18
74
16
42
0.0000001000
43
0.0000001000
44
0.0000000001
12
0.0000000000
22
0.4733254049
32
0.0000000000
13
0.4733254049
23
0.0000000000
33
0.0000000000
40
0.0000000000
40
0.0000000000
40
0.0000000000
40
0.0000000000
40
0.0676671853
40
0.1355731550
40
0.2032579586
40
0.2704507235
40
0.3377259741
40
0.4050038467
40
0.4718842725
40
0.5382072209
40
0.6046758662
40
0.6710878153
40
0.7370903167
40
0.8027408720
40
0.8686347097
40
0.9345190029
40
1.0000000000
40
1.0000000000
40
1.0000000000
40
1.0000000000
10
-12.4000000000
20
18.0962952155
30
0.0000000000
10
-12.4000000000
20
18.1069714148
30
0.0000000000
10
-12.3988905424
20
18.1283780465
30
0.0000000000
10
-12.3939076019
20
18.1601136643
30
0.0000000000
10
-12.3856699991
20
18.1910899367
30
0.0000000000
10
-12.3742975698
20
18.2209493025
30
0.0000000000
10
-12.3599135769
20
18.2494092599
30
0.0000000000
10
-12.3426632963
20
18.2761708290
30
0.0000000000
10
-12.3228029304
20
18.3008639511
30
0.0000000000
10
-12.3005646315
20
18.3232585541
30
0.0000000000
10
-12.2761639596
20
18.3431597337
30
0.0000000000
10
-12.2498494891
20
18.3603595750
30
0.0000000000
10
-12.2219881351
20
18.3746389715
30
0.0000000000
10
-12.1928600946
20
18.3858886379
30
0.0000000000
10
-12.1627279798
20
18.3940121733
30
0.0000000000
10
-12.1319374816
20
18.3989110886
30
0.0000000000
10
-12.1111948868
20
18.4000000000
30
0.0000000000
10
-12.1008636137
20
18.4000000000
30
0.0000000000
11
-12.4000000000
21
18.0962952155
31
0.0000000000
11
-12.3983409031
21
18.1282808135
31
0.0000000000
11
-12.3933543974
21
18.1600332706
31
0.0000000000
11
-12.3851189905
21
18.1909936229
31
0.0000000000
11
-12.3737971976
21
18.2207142241
31
0.0000000000
11
-12.3594314097
21
18.2491326374
31
0.0000000000
11
-12.3421762894
21
18.2758968287
31
0.0000000000
11
-12.3223343101
21
18.3005628205
31
0.0000000000
11
-12.3002126062
21
18.3228363249
31
0.0000000000
11
-12.2758305114
21
18.3427191506
31
0.0000000000
11
-12.2495169715
21
18.3599157509
31
0.0000000000
11
-12.2217142475
21
18.3741631161
31
0.0000000000
11
-12.1927264411
21
18.3853570992
31
0.0000000000
11
-12.1626122270
21
18.3934751049
31
0.0000000000
11
-12.1318147720
21
18.3983743790
31
0.0000000000
11
-12.1008636137
21
18.4000000000
31
0.0000000000
0
SPLINE
5
233
100
AcDbEntity
8
0
100
AcDbSpline
62
7
6
CONTINUOUS
70
0
71
3
72
22
73
18
74
16
42
0.0000001000
43
0.0000001000
44
0.0000000001
12
0.4733254049
22
0.0000000000
32
0.0000000000
13
0.0000000000
23
-0.4733254049
33
0.0000000000
40
0.0000000000
40
0.0000000000
40
0.0000000000
40
0.0000000000
40
0.0654809971
40
0.1313652903
40
0.1972591280
40
0.2629096833
40
0.3289121847
40
0.3953241338
40
0.4617927791
40
0.5281157275
40
0.5949961533
40
0.6622740259
40
0.7295492765
40
0.7967420414
40
0.8644268450
40
0.9323328147
40
1.0000000000
40
1.0000000000
40
1.0000000000
40
1.0000000000
10
12.1008636137
20
18.4000000000
30
0.0000000000
10
12.1111948868
20
18.4000000000
30
0.0000000000
10
12.1319374816
20
18.3989110886
30
0.0000000000
10
12.1627279798
20
18.3940121733
30
0.0000000000
10
12.1928600946
20
18.3858886379
30
0.0000000000
10
12.2219881351
20
18.3746389715
30
0.0000000000
10
12.2498494891
20
18.3603595750
30
0.0000000000
10
12.2761639596
20
18.3431597337
30
0.0000000000
10
12.3005646315
20
18.3232585541
30
0.0000000000
10
12.3228029304
20
18.3008639511
30
0.0000000000
10
12.3426632963
20
18.2761708290
30
0.0000000000
10
12.3599135769
20
18.2494092599
30
0.0000000000
10
12.3742975698
20
18.2209493025
30
0.0000000000
10
12.3856699991
20
18.1910899367
30
0.0000000000
10
12.3939076019
20
18.1601136643
30
0.0000000000
10
12.3988905424
20
18.1283780465
30
0.0000000000
10
12.4000000000
20
18.1069714148
30
0.0000000000
10
12.4000000000
20
18.0962952155
30
0.0000000000
11
12.1008636137
21
18.4000000000
31
0.0000000000
11
12.1318147720
21
18.3983743790
31
0.0000000000
11
12.1626122270
21
18.3934751049
31
0.0000000000
11
12.1927264411
21
18.3853570992
31
0.0000000000
11
12.2217142475
21
18.3741631161
31
0.0000000000
11
12.2495169715
21
18.3599157509
31
0.0000000000
11
12.2758305114
21
18.3427191506
31
0.0000000000
11
12.3002126062
21
18.3228363249
31
0.0000000000
11
12.3223343101
21
18.3005628205
31
0.0000000000
11
12.3421762894
21
18.2758968287
31
0.0000000000
11
12.3594314097
21
18.2491326374
31
0.0000000000
11
12.3737971976
21
18.2207142241
31
0.0000000000
11
12.3851189905
21
18.1909936229
31
0.0000000000
11
12.3933543974
21
18.1600332706
31
0.0000000000
11
12.3983409031
21
18.1282808135
31
0.0000000000
11
12.4000000000
21
18.0962952155
31
0.0000000000
0
SPLINE
5
234
100
AcDbEntity
8
0
100
AcDbSpline
62
7
6
CONTINUOUS
70
0
71
3
72
22
73
18
74
16
42
0.0000001000
43
0.0000001000
44
0.0000000001
12
0.0000000000
22
-0.4733254049
32
0.0000000000
13
-0.4733254049
23
0.0000000000
33
0.0000000000
40
0.0000000000
40
0.0000000000
40
0.0000000000
40
0.0000000000
40
0.0676671853
40
0.1355731550
40
0.2032579586
40
0.2704507235
40
0.3377259741
40
0.4050038467
40
0.4718842725
40
0.5382072209
40
0.6046758662
40
0.6710878153
40
0.7370903167
40
0.8027408720
40
0.8686347097
40
0.9345190029
40
1.0000000000
40
1.0000000000
40
1.0000000000
40
1.0000000000
10
12.4000000000
20
-18.0962952155
30
0.0000000000
10
12.4000000000
20
-18.1069714148
30
0.0000000000
10
12.3988905424
20
-18.1283780465
30
0.0000000000
10
12.3939076019
20
-18.1601136643
30
0.0000000000
10
12.3856699991
20
-18.1910899367
30
0.0000000000
10
12.3742975698
20
-18.2209493025
30
0.0000000000
10
12.3599135769
20
-18.2494092599
30
0.0000000000
10
12.3426632963
20
-18.2761708290
30
0.0000000000
10
12.3228029304
20
-18.3008639511
30
0.0000000000
10
12.3005646315
20
-18.3232585541
30
0.0000000000
10
12.2761639596
20
-18.3431597337
30
0.0000000000
10
12.2498494891
20
-18.3603595750
30
0.0000000000
10
12.2219881351
20
-18.3746389715
30
0.0000000000
10
12.1928600946
20
-18.3858886379
30
0.0000000000
10
12.1627279798
20
-18.3940121733
30
0.0000000000
10
12.1319374816
20
-18.3989110886
30
0.0000000000
10
12.1111948868
20
-18.4000000000
30
0.0000000000
10
12.1008636137
20
-18.4000000000
30
0.0000000000
11
12.4000000000
21
-18.0962952155
31
0.0000000000
11
12.3983409031
21
-18.1282808135
31
0.0000000000
11
12.3933543974
21
-18.1600332706
31
0.0000000000
11
12.3851189905
21
-18.1909936229
31
0.0000000000
11
12.3737971976
21
-18.2207142241
31
0.0000000000
11
12.3594314097
21
-18.2491326374
31
0.0000000000
11
12.3421762894
21
-18.2758968287
31
0.0000000000
11
12.3223343101
21
-18.3005628205
31
0.0000000000
11
12.3002126062
21
-18.3228363249
31
0.0000000000
11
12.2758305114
21
-18.3427191506
31
0.0000000000
11
12.2495169715
21
-18.3599157509
31
0.0000000000
11
12.2217142475
21
-18.3741631161
31
0.0000000000
11
12.1927264411
21
-18.3853570992
31
0.0000000000
11
12.1626122270
21
-18.3934751049
31
0.0000000000
11
12.1318147720
21
-18.3983743790
31
0.0000000000
11
12.1008636137
21
-18.4000000000
31
0.0000000000
0
SPLINE
5
235
100
AcDbEntity
8
0
100
AcDbSpline
62
7
6
CONTINUOUS
70
0
71
3
72
57
73
53
74
51
42
0.0000001000
43
0.0000001000
44
0.0000000001
12
0.0000000000
22
-7.8355163596
32
0.0000000000
13
0.0000000000
23
7.8355163596
33
0.0000000000
40
0.0000000000
40
0.0000000000
40
0.0000000000
40
0.0000000000
40
0.0199000596
40
0.0398086625
40
0.0597095877
40
0.0796281906
40
0.0995384065
40
0.1194692821
40
0.1393981664
40
0.1593428421
40
0.1792977335
40
0.1992575249
40
0.2192391103
40
0.2392195101
40
0.2592263127
40
0.2792319768
40
0.2992609953
40
0.3192948134
40
0.3393417715
40
0.3594027551
40
0.3794642209
40
0.3995459777
40
0.4196212316
40
0.4397163253
40
0.4598035523
40
0.4799037188
40
0.5000003544
40
0.5200969400
40
0.5401971510
40
0.5602843589
40
0.5803794513
40
0.6004547208
40
0.6205364320
40
0.6405979427
40
0.6606588493
40
0.6807058663
40
0.7007396384
40
0.7207686750
40
0.7407743510
40
0.7607811080
40
0.7807615675
40
0.8007430622
40
0.8207029339
40
0.8406577295
40
0.8606024639
40
0.8805313359
40
0.9004621810
40
0.9203724631
40
0.9402909634
40
0.9601919945
40
0.9801004703
40
1.0000000000
40
1.0000000000
40
1.0000000000
40
1.0000000000
10
2.5000000000
20
-0.0000000000
30
0.0000000000
10
2.5000000000
20
-0.0519757476
30
0.0000000000
10
2.4967267974
20
-0.1559792484
30
0.0000000000
10
2.4820160518
20
-0.3113341635
30
0.0000000000
10
2.4575560703
20
-0.4655104404
30
0.0000000000
10
2.4234473125
20
-0.6178457733
30
0.0000000000
10
2.3798048122
20
-0.7678101184
30
0.0000000000
10
2.3268104254
20
-0.9147590220
30
0.0000000000
10
2.2646461837
20
-1.0581678434
30
0.0000000000
10
2.1935622218
20
-1.1974416551
30
0.0000000000
10
2.1138236177
20
-1.3320415661
30
0.0000000000
10
2.0257310094
20
-1.4614449097
30
0.0000000000
10
1.9296414261
20
-1.5851107358
30
0.0000000000
10
1.8258930426
20
-1.7025889943
30
0.0000000000
10
1.7149274490
20
-1.8133648432
30
0.0000000000
10
1.5971305134
20
-1.9170389482
30
0.0000000000
10
1.4730024844
20
-2.0131580092
30
0.0000000000
10
1.3429973479
20
-2.1013575464
30
0.0000000000
10
1.2076426203
20
-2.1812690238
30
0.0000000000
10
1.0674765785
20
-2.2525638583
30
0.0000000000
10
0.9230315979
20
-2.3149632209
30
0.0000000000
10
0.7749224138
20
-2.3681937281
30
0.0000000000
10
0.6236828159
20
-2.4120571574
30
0.0000000000
10
0.4699765944
20
-2.4463554881
30
0.0000000000
10
0.3143583963
20
-2.4709604224
30
0.0000000000
10
0.1574997626
20
-2.4857627092
30
0.0000000000
10
-0.0000026494
20
-2.4907034668
30
0.0000000000
10
-0.1575051664
20
-2.4857623694
30
0.0000000000
10
-0.3143637054
20
-2.4709597550
30
0.0000000000
10
-0.4699819122
20
-2.4463544737
30
0.0000000000
10
-0.6236880483
20
-2.4120558175
30
0.0000000000
10
-0.7749274732
20
-2.3681920845
30
0.0000000000
10
-0.9230365810
20
-2.3149612513
30
0.0000000000
10
-1.0674812438
20
-2.2525616638
30
0.0000000000
10
-1.2076472000
20
-2.1812665087
30
0.0000000000
10
-1.3430016213
20
-2.1013548404
30
0.0000000000
10
-1.4730066426
20
-2.0131549905
30
0.0000000000
10
-1.5971344447
20
-1.9170357048
30
0.0000000000
10
-1.7149311357
20
-1.8133613833
30
0.0000000000
10
-1.8258965539
20
-1.7025852634
30
0.0000000000
10
-1.9296445662
20
-1.5851069427
30
0.0000000000
10
-2.0257339817
20
-1.4614408243
30
0.0000000000
10
-2.1138261789
20
-1.3320375349
30
0.0000000000
10
-2.1935645769
20
-1.1974373722
30
0.0000000000
10
-2.2646482164
20
-1.0581635401
30
0.0000000000
10
-2.3268121920
20
-0.9147545582
30
0.0000000000
10
-2.3798063194
20
-0.7678054969
30
0.0000000000
10
-2.4234484771
20
-0.6178412331
30
0.0000000000
10
-2.4575569841
20
-0.4655056595
30
0.0000000000
10
-2.4820166208
20
-0.3113296539
30
0.0000000000
10
-2.4967269387
20
-0.1559761460
30
0.0000000000
10
-2.5000000000
20
-0.0519743635
30
0.0000000000
10
-2.5000000000
20
-0.0000000000
30
0.0000000000
11
2.5000000000
21
-0.0000000000
31
0.0000000000
11
2.4950945708
21
-0.1558500620
31
0.0000000000
11
2.4803897990
21
-0.3111496273
31
0.0000000000
11
2.4559567300
21
-0.4651575664
31
0.0000000000
11
2.4218561858
21
-0.6174592084
31
0.0000000000
11
2.3782643354
21
-0.7672519963
31
0.0000000000
11
2.3252856676
21
-0.9141598729
31
0.0000000000
11
2.2631817612
21
-1.0574319745
31
0.0000000000
11
2.1921390148
21
-1.1966274363
31
0.0000000000
11
2.1124469054
21
-1.3311511931
31
0.0000000000
11
2.0244381485
21
-1.4604335966
31
0.0000000000
11
1.9283760917
21
-1.5840661398
31
0.0000000000
11
1.8247446140
21
-1.7014140525
31
0.0000000000
11
1.7138021364
21
-1.8121687459
31
0.0000000000
11
1.5961314918
21
-1.9157334981
31
0.0000000000
11
1.4720475872
21
-2.0118200586
31
0.0000000000
11
1.3421465688
21
-2.0999504918
31
0.0000000000
11
1.2068833232
21
-2.1798093459
31
0.0000000000
11
1.0667783113
21
-2.2510743799
31
0.0000000000
11
0.9224759348
21
-2.3134132218
31
0.0000000000
11
0.7743984443
21
-2.3666332665
31
0.0000000000
11
0.6233242183
21
-2.4104494965
31
0.0000000000
11
0.4696483818
21
-2.4447416446
31
0.0000000000
11
0.3141858660
21
-2.4693223931
31
0.0000000000
11
0.1573873163
21
-2.4841192667
31
0.0000000000
11
-0.0000027782
21
-2.4890565887
31
0.0000000000
11
-0.1573924703
21
-2.4841189430
31
0.0000000000
11
-0.3141913362
21
-2.4693217032
31
0.0000000000
11
-0.4696536510
21
-2.4447406412
31
0.0000000000
11
-0.6233294039
21
-2.4104481672
31
0.0000000000
11
-0.7744036530
21
-2.3666315770
31
0.0000000000
11
-0.9224806950
21
-2.3134113403
31
0.0000000000
11
-1.0667832628
21
-2.2510720539
31
0.0000000000
11
-1.2068875893
21
-2.1798070045
31
0.0000000000
11
-1.3421510703
21
-2.0999476399
31
0.0000000000
11
-1.4720516086
21
-2.0118171418
31
0.0000000000
11
-1.5961354311
21
-1.9157302446
31
0.0000000000
11
-1.7138059322
21
-1.8121651876
31
0.0000000000
11
-1.8247479338
21
-1.7014105231
31
0.0000000000
11
-1.9283794819
21
-1.5840620488
31
0.0000000000
11
-2.0244408570
21
-1.4604298749
31
0.0000000000
11
-2.1124497125
21
-1.3311467773
31
0.0000000000
11
-2.1921411764
21
-1.1966235109
31
0.0000000000
11
-2.2631838680
21
-1.0574275046
31
0.0000000000
11
-2.3252874536
21
-0.9141553695
31
0.0000000000
11
-2.3782657608
21
-0.7672476165
31
0.0000000000
11
-2.4218574621
21
-0.6174542458
31
0.0000000000
11
-2.4559575408
21
-0.4651533228
31
0.0000000000
11
-2.4803904456
21
-0.3111445176
31
0.0000000000
11
-2.4950948321
21
-0.1558459159
31
0.0000000000
11
-2.5000000000
21
-0.0000000000
31
0.0000000000
0
SPLINE
5
236
100
AcDbEntity
8
0
100
AcDbSpline
62
9
6
CONTINUOUS
70
0
71
3
72
22
73
18
74
16
42
0.0000001000
43
0.0000001000
44
0.0000000001
12
0.0014367926
22
-0.4669669341
32
0.0000000000
13
0.4669670641
23
-0.0013938929
33
0.0000000000
40
0.0000000000
40
0.0000000000
40
0.0000000000
40
0.0000000000
40
0.0661103930
40
0.1322638428
40
0.1984799513
40
0.2647755418
40
0.3311639233
40
0.3976543190
40
0.4642514785
40
0.5309554922
40
0.5977618086
40
0.6646614531
40
0.7316414334
40
0.7986853115
40
0.8657739179
40
0.9328861755
40
1.0000000000
40
1.0000000000
40
1.0000000000
40
1.0000000000
10
-12.2950679731
20
-17.0362964381
30
0.0000000000
10
-12.2950363108
20
-17.0465868939
30
0.0000000000
10
-12.2938787457
20
-17.0671878067
30
0.0000000000
10
-12.2888811198
20
-17.0977313591
30
0.0000000000
10
-12.2806765585
20
-17.1276071707
30
0.0000000000
10
-12.2693549185
20
-17.1564844311
30
0.0000000000
10
-12.2550401006
20
-17.1840491135
30
0.0000000000
10
-12.2378886848
20
-17.2100000750
30
0.0000000000
10
-12.2180881797
20
-17.2340543068
30
0.0000000000
10
-12.1958549501
20
-17.2559494796
30
0.0000000000
10
-12.1714318214
20
-17.2754469249
30
0.0000000000
10
-12.1450854501
20
-17.2923341731
30
0.0000000000
10
-12.1171032737
20
-17.3064272510
30
0.0000000000
10
-12.0877908790
20
-17.3175726546
30
0.0000000000
10
-12.0574668067
20
-17.3256490025
30
0.0000000000
10
-12.0264660900
20
-17.3305683171
30
0.0000000000
10
-12.0055603131
20
-17.3317075808
30
0.0000000000
10
-11.9951136646
20
-17.3317387640
30
0.0000000000
11
-12.2950679731
21
-17.0362964381
31
0.0000000000
11
-12.2933362830
21
-17.0671193452
31
0.0000000000
11
-12.2883497880
21
-17.0976058512
31
0.0000000000
11
-12.2801629107
21
-17.1274232259
31
0.0000000000
11
-12.2688650026
21
-17.1562460421
31
0.0000000000
11
-12.2545793690
21
-17.1837597273
31
0.0000000000
11
-12.2374619236
21
-17.2096639967
31
0.0000000000
11
-12.2176994861
21
-17.2336761308
31
0.0000000000
11
-12.1955077440
21
-17.2555340608
31
0.0000000000
11
-12.1711288982
21
-17.2749992288
31
0.0000000000
11
-12.1448290196
21
-17.2918591917
31
0.0000000000
11
-12.1168951455
21
-17.3059299395
31
0.0000000000
11
-12.0876321466
21
-17.3170579038
31
0.0000000000
11
-12.0573593996
21
-17.3251216339
31
0.0000000000
11
-12.0264073017
21
-17.3300331220
31
0.0000000000
11
-11.9951136646
21
-17.3317387640
31
0.0000000000
0
SPLINE
5
237
100
AcDbEntity
8
0
100
AcDbSpline
62
9
6
CONTINUOUS
70
0
71
3
72
25
73
21
74
19
42
0.0000001000
43
0.0000001000
44
0.0000000001
12
0.0654172135
22
0.9440976861
32
0.0000000000
13
0.0004462007
23
0.9463612701
33
0.0000000000
40
0.0000000000
40
0.0000000000
40
0.0000000000
40
0.0000000000
40
0.0168139800
40
0.0394426574
40
0.0677609164
40
0.1016088282
40
0.1407948368
40
0.1850966849
40
0.2342625483
40
0.2880129895
40
0.3460425649
40
0.4080213419
40
0.4735969130
40
0.5423965836
40
0.6140292037
40
0.6880872429
40
0.7641498830
40
0.8417850915
40
0.9205504175
40
1.0000000000
40
1.0000000000
40
1.0000000000
40
1.0000000000
10
-11.9951136646
20
-17.3317387640
30
0.0000000000
10
-11.9947470233
20
-17.3264474175
30
0.0000000000
10
-11.9940857197
20
-17.3140215134
30
0.0000000000
10
-11.9932302470
20
-17.2926631475
30
0.0000000000
10
-11.9923896915
20
-17.2659271668
30
0.0000000000
10
-11.9915694064
20
-17.2339656815
30
0.0000000000
10
-11.9907778155
20
-17.1969600342
30
0.0000000000
10
-11.9900201793
20
-17.1551207205
30
0.0000000000
10
-11.9893017131
20
-17.1086857086
30
0.0000000000
10
-11.9886269209
20
-17.0579191717
30
0.0000000000
10
-11.9879999649
20
-17.0031098600
30
0.0000000000
10
-11.9874246177
20
-16.9445695126
30
0.0000000000
10
-11.9869043019
20
-16.8826310595
30
0.0000000000
10
-11.9864420834
20
-16.8176467258
30
0.0000000000
10
-11.9860406707
20
-16.7499861141
30
0.0000000000
10
-11.9857024030
20
-16.6800339996
30
0.0000000000
10
-11.9854292482
20
-16.6081880483
30
0.0000000000
10
-11.9852227875
20
-16.5348569375
30
0.0000000000
10
-11.9850842187
20
-16.4604572424
30
0.0000000000
10
-11.9850377484
20
-16.4105477628
30
0.0000000000
10
-11.9850259316
20
-16.3854850935
30
0.0000000000
11
-11.9951136646
21
-17.3317387640
31
0.0000000000
11
-11.9942128936
21
-17.3158521792
31
0.0000000000
11
-11.9933293355
21
-17.2944555080
31
0.0000000000
11
-11.9924679756
21
-17.2676700476
31
0.0000000000
11
-11.9916337408
21
-17.2356485563
31
0.0000000000
11
-11.9908313648
21
-17.1985731126
31
0.0000000000
11
-11.9900654111
21
-17.1566545521
31
0.0000000000
11
-11.9893402378
21
-17.1101315295
31
0.0000000000
11
-11.9886599683
21
-17.0592687369
31
0.0000000000
11
-11.9880284688
21
-17.0043554192
31
0.0000000000
11
-11.9874493299
21
-16.9457039577
31
0.0000000000
11
-11.9869258440
21
-16.8836479780
31
0.0000000000
11
-11.9864609857
21
-16.8185402866
31
0.0000000000
11
-11.9860573976
21
-16.7507511431
31
0.0000000000
11
-11.9857173745
21
-16.6806663001
31
0.0000000000
11
-11.9854428480
21
-16.6086840789
31
0.0000000000
11
-11.9852353760
21
-16.5352134091
31
0.0000000000
11
-11.9850961418
21
-16.4606730769
31
0.0000000000
11
-11.9850259316
21
-16.3854850935
31
0.0000000000
0
SPLINE
5
238
100
AcDbEntity
8
0
100
AcDbSpline
62
9
6
CONTINUOUS
70
0
71
3
72
25
73
21
74
19
42
0.0000001000
43
0.0000001000
44
0.0000000001
12
0.0652641256
22
0.6593090502
32
0.0000000000
13
0.0004462608
23
0.6625312299
33
0.0000000000
40
0.0000000000
40
0.0000000000
40
0.0000000000
40
0.0000000000
40
0.0168354648
40
0.0394807871
40
0.0678104358
40
0.1016661312
40
0.1408571863
40
0.1851619255
40
0.2343289174
40
0.2880790161
40
0.3461070037
40
0.4080831309
40
0.4736551368
40
0.5424503962
40
0.6140778564
40
0.6881300891
40
0.7641863711
40
0.8418147683
40
0.9205729123
40
1.0000000000
40
1.0000000000
40
1.0000000000
40
1.0000000000
10
-12.2950679731
20
-17.0362964381
30
0.0000000000
10
-12.2947017225
20
-17.0325965133
30
0.0000000000
10
-12.2940404212
20
-17.0239008999
30
0.0000000000
10
-12.2931848666
20
-17.0089497645
30
0.0000000000
10
-12.2923442160
20
-16.9902338333
30
0.0000000000
10
-12.2915238812
20
-16.9678604031
30
0.0000000000
10
-12.2907322519
20
-16.9419560059
30
0.0000000000
10
-12.2899745842
20
-16.9126679746
30
0.0000000000
10
-12.2892560915
20
-16.8801628222
30
0.0000000000
10
-12.2885812757
20
-16.8446254595
30
0.0000000000
10
-12.2879542993
20
-16.8062580036
30
0.0000000000
10
-12.2873789345
20
-16.7652786764
30
0.0000000000
10
-12.2868586044
20
-16.7219205519
30
0.0000000000
10
-12.2863963751
20
-16.6764302202
30
0.0000000000
10
-12.2859949548
20
-16.6290664385
30
0.0000000000
10
-12.2856566840
20
-16.5800985742
30
0.0000000000
10
-12.2853835280
20
-16.5298050151
30
0.0000000000
10
-12.2851770727
20
-16.4784718589
30
0.0000000000
10
-12.2850385174
20
-16.4263940519
30
0.0000000000
10
-12.2849920552
20
-16.3914598441
30
0.0000000000
10
-12.2849802401
20
-16.3739188688
30
0.0000000000
11
-12.2950679731
21
-17.0362964381
31
0.0000000000
11
-12.2941674075
21
-17.0251788292
31
0.0000000000
11
-12.2932838185
21
-17.0102016339
31
0.0000000000
11
-12.2924224381
21
-16.9914521288
31
0.0000000000
11
-12.2915881781
21
-16.9690371879
31
0.0000000000
11
-12.2907857790
21
-16.9430842852
31
0.0000000000
11
-12.2900198024
21
-16.9137410010
31
0.0000000000
11
-12.2892946073
21
-16.8811743994
31
0.0000000000
11
-12.2886143175
21
-16.8455697707
31
0.0000000000
11
-12.2879827996
21
-16.8071295952
31
0.0000000000
11
-12.2874036445
21
-16.7660725507
31
0.0000000000
11
-12.2868801450
21
-16.7226321934
31
0.0000000000
11
-12.2864152764
21
-16.6770555459
31
0.0000000000
11
-12.2860116814
21
-16.6296018221
31
0.0000000000
11
-12.2856716551
21
-16.5805410724
31
0.0000000000
11
-12.2853971284
21
-16.5301521468
31
0.0000000000
11
-12.2851896608
21
-16.4787213161
31
0.0000000000
11
-12.2850504328
21
-16.4265417600
31
0.0000000000
11
-12.2849802401
21
-16.3739188688
31
0.0000000000
0
SPLINE
5
239
100
AcDbEntity
8
0
100
AcDbSpline
62
9
6
CONTINUOUS
70
0
71
3
72
21
73
17
74
15
42
0.0000001000
43
0.0000001000
44
0.0000000001
12
0.1238971533
22
-0.2739463655
32
0.0000000000
13
0.3006610631
23
-0.0002021836
33
0.0000000000
40
0.0000000000
40
0.0000000000
40
0.0000000000
40
0.0000000000
40
0.0091178633
40
0.0297823121
40
0.0621959371
40
0.1060527834
40
0.1608483737
40
0.2259261895
40
0.3004961055
40
0.3836477779
40
0.4743634213
40
0.5715311043
40
0.6739588503
40
0.7803895492
40
0.8895165812
40
1.0000000000
40
1.0000000000
40
1.0000000000
40
1.0000000000
10
-12.2849802401
20
-16.3739188688
30
0.0000000000
10
-12.2846036810
20
-16.3747514706
30
0.0000000000
10
-12.2811445546
20
-16.3755054035
30
0.0000000000
10
-12.2754990300
20
-16.3767823588
30
0.0000000000
10
-12.2655937441
20
-16.3778537713
30
0.0000000000
10
-12.2526146656
20
-16.3790303964
30
0.0000000000
10
-12.2362009944
20
-16.3801125953
30
0.0000000000
10
-12.2167546050
20
-16.3811466325
30
0.0000000000
10
-12.1944407280
20
-16.3820922156
30
0.0000000000
10
-12.1695580414
20
-16.3829439171
30
0.0000000000
10
-12.1424043707
20
-16.3836874993
30
0.0000000000
10
-12.1133160157
20
-16.3843139288
30
0.0000000000
10
-12.0826498886
20
-16.3848148030
30
0.0000000000
10
-12.0507832974
20
-16.3851837436
30
0.0000000000
10
-12.0181080536
20
-16.3854160112
30
0.0000000000
10
-11.9960986189
20
-16.3854776476
30
0.0000000000
10
-11.9850259316
20
-16.3854850935
30
0.0000000000
11
-12.2849802401
21
-16.3739188688
31
0.0000000000
11
-12.2825564942
21
-16.3751997510
31
0.0000000000
11
-12.2764736682
21
-16.3764648807
31
0.0000000000
11
-12.2668065695
21
-16.3776986991
31
0.0000000000
11
-12.2536740858
21
-16.3788860326
31
0.0000000000
11
-12.2372377226
21
-16.3800122790
31
0.0000000000
11
-12.2176996169
21
-16.3810635877
31
0.0000000000
11
-12.1953000517
21
-16.3820270295
31
0.0000000000
11
-12.1703145004
21
-16.3828907557
31
0.0000000000
11
-12.1430502396
21
-16.3836441442
31
0.0000000000
11
-12.1138425696
21
-16.3842779296
31
0.0000000000
11
-12.0830506913
21
-16.3847843176
31
0.0000000000
11
-12.0510532882
21
-16.3851570805
31
0.0000000000
11
-12.0182438697
21
-16.3853916340
31
0.0000000000
11
-11.9850259316
21
-16.3854850935
31
0.0000000000
0
SPLINE
5
23A
100
AcDbEntity
8
0
100
AcDbSpline
62
9
6
CONTINUOUS
70
0
71
3
72
17
73
13
74
11
42
0.0000001000
43
0.0000001000
44
0.0000000001
12
0.0220545085
22
32.7709652134
32
0.0000000000
13
-0.0220545084
23
32.7709652134
33
0.0000000000
40
0.0000000000
40
0.0000000000
40
0.0000000000
40
0.0000000000
40
0.0999643191
40
0.1999524246
40
0.2999583713
40
0.3999762122
40
0.5000000000
40
0.6000237878
40
0.7000416287
40
0.8000475754
40
0.9000356809
40
1.0000000000
40
1.0000000000
40
1.0000000000
40
1.0000000000
10
-11.9850259316
20
-16.3854850935
30
0.0000000000
10
-11.9842910436
20
-15.2935093523
30
0.0000000000
10
-11.9829682517
20
-13.1092979330
30
0.0000000000
10
-11.9814250864
20
-9.8326557609
30
0.0000000000
10
-11.9803227599
20
-6.5554287567
30
0.0000000000
10
-11.9796613377
20
-3.2778118533
30
0.0000000000
10
-11.9794408593
20
-0.0000000000
30
0.0000000000
10
-11.9796613377
20
3.2778118532
30
0.0000000000
10
-11.9803227599
20
6.5554287567
30
0.0000000000
10
-11.9814250864
20
9.8326557608
30
0.0000000000
10
-11.9829682517
20
13.1092979329
30
0.0000000000
10
-11.9842910436
20
15.2935093523
30
0.0000000000
10
-11.9850259316
20
16.3854850935
30
0.0000000000
11
-11.9850259316
21
-16.3854850935
31
0.0000000000
11
-11.9830419208
21
-13.1095577287
31
0.0000000000
11
-11.9814986790
21
-9.8328506215
31
0.0000000000
11
-11.9803962978
21
-6.5555586650
31
0.0000000000
11
-11.9797348429
21
-3.2778768057
31
0.0000000000
11
-11.9795143536
21
-0.0000000000
31
0.0000000000
11
-11.9797348429
21
3.2778768057
31
0.0000000000
11
-11.9803962978
21
6.5555586650
31
0.0000000000
11
-11.9814986790
21
9.8328506215
31
0.0000000000
11
-11.9830419208
21
13.1095577287
31
0.0000000000
11
-11.9850259316
21
16.3854850935
31
0.0000000000
0
SPLINE
5
23B
100
AcDbEntity
8
0
100
AcDbSpline
62
9
6
CONTINUOUS
70
0
71
3
72
21
73
17
74
15
42
0.0000001000
43
0.0000001000
44
0.0000000001
12
0.1238977282
22
0.2739461049
32
0.0000000000
13
0.3006610626
23
0.0002021835
33
0.0000000000
40
0.0000000000
40
0.0000000000
40
0.0000000000
40
0.0000000000
40
0.0091178719
40
0.0297823287
40
0.0621959602
40
0.1060528113
40
0.1608484048
40
0.2259262220
40
0.3004961378
40
0.3836478087
40
0.4743634491
40
0.5715311281
40
0.6739588690
40
0.7803895621
40
0.8895165878
40
1.0000000000
40
1.0000000000
40
1.0000000000
40
1.0000000000
10
-12.2849802401
20
16.3739188688
30
0.0000000000
10
-12.2846036789
20
16.3747514706
30
0.0000000000
10
-12.2811445527
20
16.3755054030
30
0.0000000000
10
-12.2754990240
20
16.3767823586
30
0.0000000000
10
-12.2655937371
20
16.3778537709
30
0.0000000000
10
-12.2526146568
20
16.3790303959
30
0.0000000000
10
-12.2362009849
20
16.3801125947
30
0.0000000000
10
-12.2167545950
20
16.3811466318
30
0.0000000000
10
-12.1944407181
20
16.3820922148
30
0.0000000000
10
-12.1695580320
20
16.3829439162
30
0.0000000000
10
-12.1424043621
20
16.3836874982
30
0.0000000000
10
-12.1133160085
20
16.3843139277
30
0.0000000000
10
-12.0826498829
20
16.3848148018
30
0.0000000000
10
-12.0507832935
20
16.3851837424
30
0.0000000000
10
-12.0181080515
20
16.3854160100
30
0.0000000000
10
-11.9960986183
20
16.3854776463
30
0.0000000000
10
-11.9850259316
20
16.3854850922
30
0.0000000000
11
-12.2849802401
21
16.3739188688
31
0.0000000000
11
-12.2825564913
21
16.3751997509
31
0.0000000000
11
-12.2764736627
21
16.3764648805
31
0.0000000000
11
-12.2668065621
21
16.3776986988
31
0.0000000000
11
-12.2536740770
21
16.3788860322
31
0.0000000000
11
-12.2372377128
21
16.3800122785
31
0.0000000000
11
-12.2176996067
21
16.3810635870
31
0.0000000000
11
-12.1953000416
21
16.3820270287
31
0.0000000000
11
-12.1703144908
21
16.3828907548
31
0.0000000000
11
-12.1430502310
21
16.3836441432
31
0.0000000000
11
-12.1138425623
21
16.3842779285
31
0.0000000000
11
-12.0830506855
21
16.3847843164
31
0.0000000000
11
-12.0510532842
21
16.3851570793
31
0.0000000000
11
-12.0182438677
21
16.3853916327
31
0.0000000000
11
-11.9850259316
21
16.3854850922
31
0.0000000000
0
SPLINE
5
23C
100
AcDbEntity
8
0
100
AcDbSpline
62
9
6
CONTINUOUS
70
0
71
3
72
25
73
21
74
19
42
0.0000001000
43
0.0000001000
44
0.0000000001
12
-0.0004462263
22
0.9463612702
32
0.0000000000
13
-0.0654163801
23
0.9440977439
33
0.0000000000
40
0.0000000000
40
0.0000000000
40
0.0000000000
40
0.0000000000
40
0.0794495423
40
0.1582148743
40
0.2358500854
40
0.3119127222
40
0.3859707669
40
0.4576033897
40
0.5264030587
40
0.5919786305
40
0.6539574094
40
0.7119869856
40
0.7657374290
40
0.8149032960
40
0.8592051448
40
0.8983911530
40
0.9322390689
40
0.9605573298
40
0.9831860090
40
1.0000000000
40
1.0000000000
40
1.0000000000
40
1.0000000000
10
-11.9850259316
20
16.3854850935
30
0.0000000000
10
-11.9850377490
20
16.4105477501
30
0.0000000000
10
-11.9850842179
20
16.4604572189
30
0.0000000000
10
-11.9852227878
20
16.5348569041
30
0.0000000000
10
-11.9854292477
20
16.6081880166
30
0.0000000000
10
-11.9857024026
20
16.6800339694
30
0.0000000000
10
-11.9860406700
20
16.7499860854
30
0.0000000000
10
-11.9864420826
20
16.8176466992
30
0.0000000000
10
-11.9869043008
20
16.8826310334
30
0.0000000000
10
-11.9874246164
20
16.9445694869
30
0.0000000000
10
-11.9879999635
20
17.0031098353
30
0.0000000000
10
-11.9886269194
20
17.0579191486
30
0.0000000000
10
-11.9893017116
20
17.1086856876
30
0.0000000000
10
-11.9900201777
20
17.1551207016
30
0.0000000000
10
-11.9907778138
20
17.1969600165
30
0.0000000000
10
-11.9915694051
20
17.2339656652
30
0.0000000000
10
-11.9923896890
20
17.2659271523
30
0.0000000000
10
-11.9932302475
20
17.2926631353
30
0.0000000000
10
-11.9940857140
20
17.3140215062
30
0.0000000000
10
-11.9947470277
20
17.3264474136
30
0.0000000000
10
-11.9951136646
20
17.3317387640
30
0.0000000000
11
-11.9850259316
21
16.3854850935
31
0.0000000000
11
-11.9850961415
21
16.4606730389
31
0.0000000000
11
-11.9852353760
21
16.5352133767
31
0.0000000000
11
-11.9854428477
21
16.6086840490
31
0.0000000000
11
-11.9857173740
21
16.6806662671
31
0.0000000000
11
-11.9860573970
21
16.7507511153
31
0.0000000000
11
-11.9864609849
21
16.8185402613
31
0.0000000000
11
-11.9869258429
21
16.8836479513
31
0.0000000000
11
-11.9874493286
21
16.9457039316
31
0.0000000000
11
-11.9880284674
21
17.0043553948
31
0.0000000000
11
-11.9886599667
21
17.0592687135
31
0.0000000000
11
-11.9893402362
21
17.1101315081
31
0.0000000000
11
-11.9900654096
21
17.1566545341
31
0.0000000000
11
-11.9908313632
21
17.1985730953
31
0.0000000000
11
-11.9916337392
21
17.2356485385
31
0.0000000000
11
-11.9924679739
21
17.2676700337
31
0.0000000000
11
-11.9933293342
21
17.2944554960
31
0.0000000000
11
-11.9942128917
21
17.3158521688
31
0.0000000000
11
-11.9951136646
21
17.3317387640
31
0.0000000000
0
SPLINE
5
23D
100
AcDbEntity
8
0
100
AcDbSpline
62
9
6
CONTINUOUS
70
0
71
3
72
25
73
21
74
19
42
0.0000001000
43
0.0000001000
44
0.0000000001
12
-0.0004462700
22
0.6625312298
32
0.0000000000
13
-0.0652644253
23
0.6593090205
33
0.0000000000
40
0.0000000000
40
0.0000000000
40
0.0000000000
40
0.0000000000
40
0.0794220638
40
0.1581801434
40
0.2358085054
40
0.3118647759
40
0.3859170398
40
0.4575445624
40
0.5263399164
40
0.5919120683
40
0.6538884451
40
0.7119167771
40
0.7656672946
40
0.8148347204
40
0.8591398904
40
0.8983313732
40
0.9321874924
40
0.9605175627
40
0.9831632770
40
1.0000000000
40
1.0000000000
40
1.0000000000
40
1.0000000000
10
-12.2849802401
20
16.3739188688
30
0.0000000000
10
-12.2849920547
20
16.3914587346
30
0.0000000000
10
-12.2850385135
20
16.4263918187
30
0.0000000000
10
-12.2851770618
20
16.4784684942
30
0.0000000000
10
-12.2853835120
20
16.5298016259
30
0.0000000000
10
-12.2856566633
20
16.5800951815
30
0.0000000000
10
-12.2859949289
20
16.6290630640
30
0.0000000000
10
-12.2863963442
20
16.6764268874
30
0.0000000000
10
-12.2868585683
20
16.7219172860
30
0.0000000000
10
-12.2873788935
20
16.7652755188
30
0.0000000000
10
-12.2879542539
20
16.8062550096
30
0.0000000000
10
-12.2885812269
20
16.8446226892
30
0.0000000000
10
-12.2892560401
20
16.8801603164
30
0.0000000000
10
-12.2899745310
20
16.9126657523
30
0.0000000000
10
-12.2907321974
20
16.9419540692
30
0.0000000000
10
-12.2915238256
20
16.9678587497
30
0.0000000000
10
-12.2923441607
20
16.9902324612
30
0.0000000000
10
-12.2931848097
20
17.0089486661
30
0.0000000000
10
-12.2940403796
20
17.0239002587
30
0.0000000000
10
-12.2947016934
20
17.0325962370
30
0.0000000000
10
-12.2950679731
20
17.0362964381
30
0.0000000000
11
-12.2849802401
21
16.3739188688
31
0.0000000000
11
-12.2850504261
21
16.4265384315
31
0.0000000000
11
-12.2851896496
21
16.4787179449
31
0.0000000000
11
-12.2853971124
21
16.5301487524
31
0.0000000000
11
-12.2856716341
21
16.5805376704
31
0.0000000000
11
-12.2860116554
21
16.6295984407
31
0.0000000000
11
-12.2864152453
21
16.6770522060
31
0.0000000000
11
-12.2868801086
21
16.7226289161
31
0.0000000000
11
-12.2874036030
21
16.7660693702
31
0.0000000000
11
-12.2879827537
21
16.8071265802
31
0.0000000000
11
-12.2886142681
21
16.8455669840
31
0.0000000000
11
-12.2892945555
21
16.8811718902
31
0.0000000000
11
-12.2900197488
21
16.9137387794
31
0.0000000000
11
-12.2907857241
21
16.9430823491
31
0.0000000000
11
-12.2915881221
21
16.9690355354
31
0.0000000000
11
-12.2924223815
21
16.9914507572
31
0.0000000000
11
-12.2932837617
21
17.0102005420
31
0.0000000000
11
-12.2941673508
21
17.0251779975
31
0.0000000000
11
-12.2950679731
21
17.0362964381
31
0.0000000000
0
SPLINE
5
23E
100
AcDbEntity
8
0
100
AcDbSpline
62
9
6
CONTINUOUS
70
0
71
3
72
22
73
18
74
16
42
0.0000001000
43
0.0000001000
44
0.0000000001
12
0.0014367926
22
0.4669669341
32
0.0000000000
13
0.4669670641
23
0.0013938929
33
0.0000000000
40
0.0000000000
40
0.0000000000
40
0.0000000000
40
0.0000000000
40
0.0661103978
40
0.1322638517
40
0.1984799636
40
0.2647755566
40
0.3311639400
40
0.3976543367
40
0.4642514965
40
0.5309555097
40
0.5977618250
40
0.6646614679
40
0.7316414458
40
0.7986853212
40
0.8657739246
40
0.9328861790
40
1.0000000000
40
1.0000000000
40
1.0000000000
40
1.0000000000
10
-12.2950679731
20
17.0362964381
30
0.0000000000
10
-12.2950363108
20
17.0465868947
30
0.0000000000
10
-12.2938787455
20
17.0671878088
30
0.0000000000
10
-12.2888811190
20
17.0977313631
30
0.0000000000
10
-12.2806765568
20
17.1276071760
30
0.0000000000
10
-12.2693549157
20
17.1564844374
30
0.0000000000
10
-12.2550400968
20
17.1840491202
30
0.0000000000
10
-12.2378886799
20
17.2100000816
30
0.0000000000
10
-12.2180881741
20
17.2340543129
30
0.0000000000
10
-12.1958549440
20
17.2559494849
30
0.0000000000
10
-12.1714318152
20
17.2754469293
30
0.0000000000
10
-12.1450854441
20
17.2923341765
30
0.0000000000
10
-12.1171032684
20
17.3064272533
30
0.0000000000
10
-12.0877908746
20
17.3175726560
30
0.0000000000
10
-12.0574668037
20
17.3256490031
30
0.0000000000
10
-12.0264660885
20
17.3305683173
30
0.0000000000
10
-12.0055603125
20
17.3317075808
30
0.0000000000
10
-11.9951136646
20
17.3317387640
30
0.0000000000
11
-12.2950679731
21
17.0362964381
31
0.0000000000
11
-12.2933362828
21
17.0671193475
31
0.0000000000
11
-12.2883497872
21
17.0976058552
31
0.0000000000
11
-12.2801629089
21
17.1274232313
31
0.0000000000
11
-12.2688649997
21
17.1562460484
31
0.0000000000
11
-12.2545793651
21
17.1837597340
31
0.0000000000
11
-12.2374619187
21
17.2096640034
31
0.0000000000
11
-12.2176994804
21
17.2336761370
31
0.0000000000
11
-12.1955077379
21
17.2555340662
31
0.0000000000
11
-12.1711288919
21
17.2749992333
31
0.0000000000
11
-12.1448290136
21
17.2918591951
31
0.0000000000
11
-12.1168951402
21
17.3059299418
31
0.0000000000
11
-12.0876321423
21
17.3170579052
31
0.0000000000
11
-12.0573593965
21
17.3251216346
31
0.0000000000
11
-12.0264073001
21
17.3300331222
31
0.0000000000
11
-11.9951136646
21
17.3317387640
31
0.0000000000
0
SPLINE
5
23F
100
AcDbEntity
8
0
100
AcDbSpline
62
9
6
CONTINUOUS
70
0
71
3
72
22
73
18
74
16
42
0.0000001000
43
0.0000001000
44
0.0000000001
12
-0.0014367926
22
0.4669669341
32
0.0000000000
13
-0.4669670641
23
0.0013938929
33
0.0000000000
40
0.0000000000
40
0.0000000000
40
0.0000000000
40
0.0000000000
40
0.0661103950
40
0.1322638465
40
0.1984799564
40
0.2647755480
40
0.3311639304
40
0.3976543265
40
0.4642514862
40
0.5309554997
40
0.5977618156
40
0.6646614594
40
0.7316414387
40
0.7986853157
40
0.8657739208
40
0.9328861770
40
1.0000000000
40
1.0000000000
40
1.0000000000
40
1.0000000000
10
12.2950679731
20
17.0362964381
30
0.0000000000
10
12.2950363108
20
17.0465868942
30
0.0000000000
10
12.2938787456
20
17.0671878076
30
0.0000000000
10
12.2888811195
20
17.0977313608
30
0.0000000000
10
12.2806765578
20
17.1276071729
30
0.0000000000
10
12.2693549173
20
17.1564844337
30
0.0000000000
10
12.2550400990
20
17.1840491163
30
0.0000000000
10
12.2378886827
20
17.2100000778
30
0.0000000000
10
12.2180881773
20
17.2340543094
30
0.0000000000
10
12.1958549475
20
17.2559494819
30
0.0000000000
10
12.1714318188
20
17.2754469268
30
0.0000000000
10
12.1450854475
20
17.2923341746
30
0.0000000000
10
12.1171032714
20
17.3064272520
30
0.0000000000
10
12.0877908771
20
17.3175726552
30
0.0000000000
10
12.0574668054
20
17.3256490027
30
0.0000000000
10
12.0264660894
20
17.3305683172
30
0.0000000000
10
12.0055603128
20
17.3317075808
30
0.0000000000
10
11.9951136646
20
17.3317387640
30
0.0000000000
11
12.2950679731
21
17.0362964381
31
0.0000000000
11
12.2933362829
21
17.0671193462
31
0.0000000000
11
12.2883497877
21
17.0976058529
31
0.0000000000
11
12.2801629100
21
17.1274232281
31
0.0000000000
11
12.2688650014
21
17.1562460447
31
0.0000000000
11
12.2545793674
21
17.1837597301
31
0.0000000000
11
12.2374619215
21
17.2096639995
31
0.0000000000
11
12.2176994837
21
17.2336761334
31
0.0000000000
11
12.1955077414
21
17.2555340631
31
0.0000000000
11
12.1711288955
21
17.2749992307
31
0.0000000000
11
12.1448290171
21
17.2918591931
31
0.0000000000
11
12.1168951432
21
17.3059299405
31
0.0000000000
11
12.0876321447
21
17.3170579044
31
0.0000000000
11
12.0573593983
21
17.3251216342
31
0.0000000000
11
12.0264073010
21
17.3300331221
31
0.0000000000
11
11.9951136646
21
17.3317387640
31
0.0000000000
0
SPLINE
5
240
100
AcDbEntity
8
0
100
AcDbSpline
62
9
6
CONTINUOUS
70
0
71
3
72
25
73
21
74
19
42
0.0000001000
43
0.0000001000
44
0.0000000001
12
-0.0654163802
22
-0.9440977439
32
0.0000000000
13
-0.0004462263
23
-0.9463612702
33
0.0000000000
40
0.0000000000
40
0.0000000000
40
0.0000000000
40
0.0000000000
40
0.0168139910
40
0.0394426702
40
0.0677609311
40
0.1016088470
40
0.1407948552
40
0.1850967040
40
0.2342625710
40
0.2880130144
40
0.3460425906
40
0.4080213695
40
0.4735969413
40
0.5423966103
40
0.6140292331
40
0.6880872778
40
0.7641499146
40
0.8417851257
40
0.9205504577
40
1.0000000000
40
1.0000000000
40
1.0000000000
40
1.0000000000
10
11.9951136646
20
17.3317387640
30
0.0000000000
10
11.9947470277
20
17.3264474136
30
0.0000000000
10
11.9940857140
20
17.3140215062
30
0.0000000000
10
11.9932302475
20
17.2926631353
30
0.0000000000
10
11.9923896890
20
17.2659271523
30
0.0000000000
10
11.9915694051
20
17.2339656652
30
0.0000000000
10
11.9907778138
20
17.1969600165
30
0.0000000000
10
11.9900201777
20
17.1551207016
30
0.0000000000
10
11.9893017116
20
17.1086856876
30
0.0000000000
10
11.9886269194
20
17.0579191486
30
0.0000000000
10
11.9879999635
20
17.0031098353
30
0.0000000000
10
11.9874246164
20
16.9445694869
30
0.0000000000
10
11.9869043008
20
16.8826310334
30
0.0000000000
10
11.9864420826
20
16.8176466992
30
0.0000000000
10
11.9860406700
20
16.7499860854
30
0.0000000000
10
11.9857024026
20
16.6800339694
30
0.0000000000
10
11.9854292477
20
16.6081880166
30
0.0000000000
10
11.9852227878
20
16.5348569041
30
0.0000000000
10
11.9850842179
20
16.4604572189
30
0.0000000000
10
11.9850377490
20
16.4105477501
30
0.0000000000
10
11.9850259316
20
16.3854850935
30
0.0000000000
11
11.9951136646
21
17.3317387640
31
0.0000000000
11
11.9942128917
21
17.3158521688
31
0.0000000000
11
11.9933293342
21
17.2944554960
31
0.0000000000
11
11.9924679739
21
17.2676700337
31
0.0000000000
11
11.9916337392
21
17.2356485385
31
0.0000000000
11
11.9908313632
21
17.1985730953
31
0.0000000000
11
11.9900654096
21
17.1566545341
31
0.0000000000
11
11.9893402362
21
17.1101315081
31
0.0000000000
11
11.9886599667
21
17.0592687135
31
0.0000000000
11
11.9880284674
21
17.0043553948
31
0.0000000000
11
11.9874493286
21
16.9457039316
31
0.0000000000
11
11.9869258429
21
16.8836479513
31
0.0000000000
11
11.9864609849
21
16.8185402613
31
0.0000000000
11
11.9860573970
21
16.7507511153
31
0.0000000000
11
11.9857173740
21
16.6806662671
31
0.0000000000
11
11.9854428477
21
16.6086840490
31
0.0000000000
11
11.9852353760
21
16.5352133767
31
0.0000000000
11
11.9850961415
21
16.4606730389
31
0.0000000000
11
11.9850259316
21
16.3854850935
31
0.0000000000
0
SPLINE
5
241
100
AcDbEntity
8
0
100
AcDbSpline
62
9
6
CONTINUOUS
70
0
71
3
72
25
73
21
74
19
42
0.0000001000
43
0.0000001000
44
0.0000000001
12
-0.0652644252
22
-0.6593090205
32
0.0000000000
13
-0.0004462700
23
-0.6625312298
33
0.0000000000
40
0.0000000000
40
0.0000000000
40
0.0000000000
40
0.0000000000
40
0.0168367230
40
0.0394824373
40
0.0678125076
40
0.1016686268
40
0.1408601096
40
0.1851652796
40
0.2343327054
40
0.2880832229
40
0.3461115549
40
0.4080879317
40
0.4736600836
40
0.5424554376
40
0.6140829602
40
0.6881352241
40
0.7641914946
40
0.8418198566
40
0.9205779362
40
1.0000000000
40
1.0000000000
40
1.0000000000
40
1.0000000000
10
12.2950679731
20
17.0362964381
30
0.0000000000
10
12.2947016934
20
17.0325962370
30
0.0000000000
10
12.2940403796
20
17.0239002587
30
0.0000000000
10
12.2931848097
20
17.0089486661
30
0.0000000000
10
12.2923441607
20
16.9902324612
30
0.0000000000
10
12.2915238256
20
16.9678587497
30
0.0000000000
10
12.2907321974
20
16.9419540692
30
0.0000000000
10
12.2899745310
20
16.9126657523
30
0.0000000000
10
12.2892560401
20
16.8801603164
30
0.0000000000
10
12.2885812269
20
16.8446226892
30
0.0000000000
10
12.2879542539
20
16.8062550096
30
0.0000000000
10
12.2873788935
20
16.7652755188
30
0.0000000000
10
12.2868585683
20
16.7219172860
30
0.0000000000
10
12.2863963442
20
16.6764268874
30
0.0000000000
10
12.2859949289
20
16.6290630640
30
0.0000000000
10
12.2856566633
20
16.5800951815
30
0.0000000000
10
12.2853835120
20
16.5298016259
30
0.0000000000
10
12.2851770618
20
16.4784684942
30
0.0000000000
10
12.2850385135
20
16.4263918187
30
0.0000000000
10
12.2849920547
20
16.3914587346
30
0.0000000000
10
12.2849802401
20
16.3739188688
30
0.0000000000
11
12.2950679731
21
17.0362964381
31
0.0000000000
11
12.2941673508
21
17.0251779975
31
0.0000000000
11
12.2932837617
21
17.0102005420
31
0.0000000000
11
12.2924223815
21
16.9914507572
31
0.0000000000
11
12.2915881221
21
16.9690355354
31
0.0000000000
11
12.2907857241
21
16.9430823491
31
0.0000000000
11
12.2900197488
21
16.9137387794
31
0.0000000000
11
12.2892945555
21
16.8811718902
31
0.0000000000
11
12.2886142681
21
16.8455669840
31
0.0000000000
11
12.2879827537
21
16.8071265802
31
0.0000000000
11
12.2874036030
21
16.7660693702
31
0.0000000000
11
12.2868801086
21
16.7226289161
31
0.0000000000
11
12.2864152453
21
16.6770522060
31
0.0000000000
11
12.2860116554
21
16.6295984407
31
0.0000000000
11
12.2856716341
21
16.5805376704
31
0.0000000000
11
12.2853971124
21
16.5301487524
31
0.0000000000
11
12.2851896496
21
16.4787179449
31
0.0000000000
11
12.2850504261
21
16.4265384315
31
0.0000000000
11
12.2849802401
21
16.3739188688
31
0.0000000000
0
SPLINE
5
242
100
AcDbEntity
8
0
100
AcDbSpline
62
9
6
CONTINUOUS
70
0
71
3
72
21
73
17
74
15
42
0.0000001000
43
0.0000001000
44
0.0000000001
12
-0.1238971534
22
0.2739463654
32
0.0000000000
13
-0.3006610631
23
0.0002021836
33
0.0000000000
40
0.0000000000
40
0.0000000000
40
0.0000000000
40
0.0000000000
40
0.0091178633
40
0.0297823121
40
0.0621959371
40
0.1060527834
40
0.1608483737
40
0.2259261895
40
0.3004961055
40
0.3836477779
40
0.4743634213
40
0.5715311044
40
0.6739588503
40
0.7803895492
40
0.8895165812
40
1.0000000000
40
1.0000000000
40
1.0000000000
40
1.0000000000
10
12.2849802401
20
16.3739188688
30
0.0000000000
10
12.2846036810
20
16.3747514706
30
0.0000000000
10
12.2811445546
20
16.3755054035
30
0.0000000000
10
12.2754990300
20
16.3767823588
30
0.0000000000
10
12.2655937441
20
16.3778537713
30
0.0000000000
10
12.2526146656
20
16.3790303964
30
0.0000000000
10
12.2362009944
20
16.3801125953
30
0.0000000000
10
12.2167546050
20
16.3811466325
30
0.0000000000
10
12.1944407280
20
16.3820922156
30
0.0000000000
10
12.1695580414
20
16.3829439171
30
0.0000000000
10
12.1424043707
20
16.3836874993
30
0.0000000000
10
12.1133160157
20
16.3843139288
30
0.0000000000
10
12.0826498886
20
16.3848148030
30
0.0000000000
10
12.0507832974
20
16.3851837436
30
0.0000000000
10
12.0181080536
20
16.3854160112
30
0.0000000000
10
11.9960986189
20
16.3854776476
30
0.0000000000
10
11.9850259316
20
16.3854850935
30
0.0000000000
11
12.2849802401
21
16.3739188688
31
0.0000000000
11
12.2825564942
21
16.3751997510
31
0.0000000000
11
12.2764736682
21
16.3764648807
31
0.0000000000
11
12.2668065695
21
16.3776986991
31
0.0000000000
11
12.2536740858
21
16.3788860326
31
0.0000000000
11
12.2372377226
21
16.3800122790
31
0.0000000000
11
12.2176996169
21
16.3810635877
31
0.0000000000
11
12.1953000517
21
16.3820270295
31
0.0000000000
11
12.1703145004
21
16.3828907557
31
0.0000000000
11
12.1430502396
21
16.3836441442
31
0.0000000000
11
12.1138425696
21
16.3842779296
31
0.0000000000
11
12.0830506913
21
16.3847843176
31
0.0000000000
11
12.0510532882
21
16.3851570805
31
0.0000000000
11
12.0182438697
21
16.3853916340
31
0.0000000000
11
11.9850259316
21
16.3854850935
31
0.0000000000
0
SPLINE
5
243
100
AcDbEntity
8
0
100
AcDbSpline
62
9
6
CONTINUOUS
70
0
71
3
72
17
73
13
74
11
42
0.0000001000
43
0.0000001000
44
0.0000000001
12
-0.0220545084
22
-32.7709652134
32
0.0000000000
13
0.0220545085
23
-32.7709652134
33
0.0000000000
40
0.0000000000
40
0.0000000000
40
0.0000000000
40
0.0000000000
40
0.0999643191
40
0.1999524246
40
0.2999583713
40
0.3999762122
40
0.5000000000
40
0.6000237878
40
0.7000416287
40
0.8000475754
40
0.9000356809
40
1.0000000000
40
1.0000000000
40
1.0000000000
40
1.0000000000
10
11.9850259316
20
16.3854850935
30
0.0000000000
10
11.9842910436
20
15.2935093523
30
0.0000000000
10
11.9829682517
20
13.1092979329
30
0.0000000000
10
11.9814250864
20
9.8326557608
30
0.0000000000
10
11.9803227599
20
6.5554287567
30
0.0000000000
10
11.9796613377
20
3.2778118532
30
0.0000000000
10
11.9794408593
20
-0.0000000000
30
0.0000000000
10
11.9796613377
20
-3.2778118533
30
0.0000000000
10
11.9803227599
20
-6.5554287567
30
0.0000000000
10
11.9814250864
20
-9.8326557609
30
0.0000000000
10
11.9829682517
20
-13.1092979330
30
0.0000000000
10
11.9842910436
20
-15.2935093523
30
0.0000000000
10
11.9850259316
20
-16.3854850935
30
0.0000000000
11
11.9850259316
21
16.3854850935
31
0.0000000000
11
11.9830419208
21
13.1095577287
31
0.0000000000
11
11.9814986790
21
9.8328506215
31
0.0000000000
11
11.9803962978
21
6.5555586650
31
0.0000000000
11
11.9797348429
21
3.2778768057
31
0.0000000000
11
11.9795143536
21
-0.0000000000
31
0.0000000000
11
11.9797348429
21
-3.2778768057
31
0.0000000000
11
11.9803962978
21
-6.5555586650
31
0.0000000000
11
11.9814986790
21
-9.8328506215
31
0.0000000000
11
11.9830419208
21
-13.1095577287
31
0.0000000000
11
11.9850259316
21
-16.3854850935
31
0.0000000000
0
SPLINE
5
244
100
AcDbEntity
8
0
100
AcDbSpline
62
9
6
CONTINUOUS
70
0
71
3
72
21
73
17
74
15
42
0.0000001000
43
0.0000001000
44
0.0000000001
12
-0.1238975147
22
-0.2739462016
32
0.0000000000
13
-0.3006610628
23
-0.0002021835
33
0.0000000000
40
0.0000000000
40
0.0000000000
40
0.0000000000
40
0.0000000000
40
0.0091178687
40
0.0297823226
40
0.0621959516
40
0.1060528010
40
0.1608483933
40
0.2259262100
40
0.3004961259
40
0.3836477973
40
0.4743634388
40
0.5715311193
40
0.6739588621
40
0.7803895573
40
0.8895165853
40
1.0000000000
40
1.0000000000
40
1.0000000000
40
1.0000000000
10
12.2849802401
20
-16.3739188688
30
0.0000000000
10
12.2846036797
20
-16.3747514706
30
0.0000000000
10
12.2811445534
20
-16.3755054032
30
0.0000000000
10
12.2754990262
20
-16.3767823587
30
0.0000000000
10
12.2655937397
20
-16.3778537711
30
0.0000000000
10
12.2526146600
20
-16.3790303961
30
0.0000000000
10
12.2362009884
20
-16.3801125949
30
0.0000000000
10
12.2167545987
20
-16.3811466321
30
0.0000000000
10
12.1944407218
20
-16.3820922152
30
0.0000000000
10
12.1695580355
20
-16.3829439166
30
0.0000000000
10
12.1424043653
20
-16.3836874987
30
0.0000000000
10
12.1133160112
20
-16.3843139281
30
0.0000000000
10
12.0826498850
20
-16.3848148023
30
0.0000000000
10
12.0507832949
20
-16.3851837429
30
0.0000000000
10
12.0181080523
20
-16.3854160105
30
0.0000000000
10
11.9960986185
20
-16.3854776468
30
0.0000000000
10
11.9850259316
20
-16.3854850928
30
0.0000000000
11
12.2849802401
21
-16.3739188688
31
0.0000000000
11
12.2825564924
21
-16.3751997509
31
0.0000000000
11
12.2764736648
21
-16.3764648806
31
0.0000000000
11
12.2668065649
21
-16.3776986990
31
0.0000000000
11
12.2536740803
21
-16.3788860323
31
0.0000000000
11
12.2372377165
21
-16.3800122787
31
0.0000000000
11
12.2176996105
21
-16.3810635873
31
0.0000000000
11
12.1953000453
21
-16.3820270290
31
0.0000000000
11
12.1703144944
21
-16.3828907552
31
0.0000000000
11
12.1430502342
21
-16.3836441436
31
0.0000000000
11
12.1138425650
21
-16.3842779290
31
0.0000000000
11
12.0830506877
21
-16.3847843169
31
0.0000000000
11
12.0510532857
21
-16.3851570798
31
0.0000000000
11
12.0182438685
21
-16.3853916332
31
0.0000000000
11
11.9850259316
21
-16.3854850928
31
0.0000000000
0
SPLINE
5
245
100
AcDbEntity
8
0
100
AcDbSpline
62
9
6
CONTINUOUS
70
0
71
3
72
25
73
21
74
19
42
0.0000001000
43
0.0000001000
44
0.0000000001
12
0.0004462007
22
-0.9463612701
32
0.0000000000
13
0.0654172135
23
-0.9440976861
33
0.0000000000
40
0.0000000000
40
0.0000000000
40
0.0000000000
40
0.0000000000
40
0.0794495825
40
0.1582149085
40
0.2358501170
40
0.3119127571
40
0.3859707963
40
0.4576034164
40
0.5264030870
40
0.5919786581
40
0.6539574351
40
0.7119870105
40
0.7657374517
40
0.8149033151
40
0.8592051632
40
0.8983911718
40
0.9322390836
40
0.9605573426
40
0.9831860200
40
1.0000000000
40
1.0000000000
40
1.0000000000
40
1.0000000000
10
11.9850259316
20
-16.3854850935
30
0.0000000000
10
11.9850377484
20
-16.4105477628
30
0.0000000000
10
11.9850842187
20
-16.4604572424
30
0.0000000000
10
11.9852227875
20
-16.5348569375
30
0.0000000000
10
11.9854292482
20
-16.6081880483
30
0.0000000000
10
11.9857024030
20
-16.6800339996
30
0.0000000000
10
11.9860406707
20
-16.7499861141
30
0.0000000000
10
11.9864420834
20
-16.8176467258
30
0.0000000000
10
11.9869043019
20
-16.8826310595
30
0.0000000000
10
11.9874246177
20
-16.9445695126
30
0.0000000000
10
11.9879999649
20
-17.0031098600
30
0.0000000000
10
11.9886269209
20
-17.0579191717
30
0.0000000000
10
11.9893017131
20
-17.1086857086
30
0.0000000000
10
11.9900201793
20
-17.1551207205
30
0.0000000000
10
11.9907778155
20
-17.1969600342
30
0.0000000000
10
11.9915694064
20
-17.2339656815
30
0.0000000000
10
11.9923896915
20
-17.2659271668
30
0.0000000000
10
11.9932302470
20
-17.2926631475
30
0.0000000000
10
11.9940857197
20
-17.3140215134
30
0.0000000000
10
11.9947470233
20
-17.3264474175
30
0.0000000000
10
11.9951136646
20
-17.3317387640
30
0.0000000000
11
11.9850259316
21
-16.3854850935
31
0.0000000000
11
11.9850961418
21
-16.4606730769
31
0.0000000000
11
11.9852353760
21
-16.5352134091
31
0.0000000000
11
11.9854428480
21
-16.6086840789
31
0.0000000000
11
11.9857173745
21
-16.6806663001
31
0.0000000000
11
11.9860573976
21
-16.7507511431
31
0.0000000000
11
11.9864609857
21
-16.8185402866
31
0.0000000000
11
11.9869258440
21
-16.8836479780
31
0.0000000000
11
11.9874493299
21
-16.9457039577
31
0.0000000000
11
11.9880284688
21
-17.0043554192
31
0.0000000000
11
11.9886599683
21
-17.0592687369
31
0.0000000000
11
11.9893402378
21
-17.1101315295
31
0.0000000000
11
11.9900654111
21
-17.1566545521
31
0.0000000000
11
11.9908313648
21
-17.1985731126
31
0.0000000000
11
11.9916337408
21
-17.2356485563
31
0.0000000000
11
11.9924679756
21
-17.2676700476
31
0.0000000000
11
11.9933293355
21
-17.2944555080
31
0.0000000000
11
11.9942128936
21
-17.3158521792
31
0.0000000000
11
11.9951136646
21
-17.3317387640
31
0.0000000000
0
SPLINE
5
246
100
AcDbEntity
8
0
100
AcDbSpline
62
9
6
CONTINUOUS
70
0
71
3
72
25
73
21
74
19
42
0.0000001000
43
0.0000001000
44
0.0000000001
12
0.0004462608
22
-0.6625312299
32
0.0000000000
13
0.0652641256
23
-0.6593090502
33
0.0000000000
40
0.0000000000
40
0.0000000000
40
0.0000000000
40
0.0000000000
40
0.0794270877
40
0.1581852317
40
0.2358136289
40
0.3118699109
40
0.3859221436
40
0.4575496038
40
0.5263448632
40
0.5919168691
40
0.6538929963
40
0.7119209839
40
0.7656710826
40
0.8148380745
40
0.8591428137
40
0.8983338688
40
0.9321895642
40
0.9605192129
40
0.9831645352
40
1.0000000000
40
1.0000000000
40
1.0000000000
40
1.0000000000
10
12.2849802401
20
-16.3739188688
30
0.0000000000
10
12.2849920552
20
-16.3914598441
30
0.0000000000
10
12.2850385174
20
-16.4263940519
30
0.0000000000
10
12.2851770727
20
-16.4784718589
30
0.0000000000
10
12.2853835280
20
-16.5298050151
30
0.0000000000
10
12.2856566840
20
-16.5800985742
30
0.0000000000
10
12.2859949548
20
-16.6290664385
30
0.0000000000
10
12.2863963751
20
-16.6764302202
30
0.0000000000
10
12.2868586044
20
-16.7219205519
30
0.0000000000
10
12.2873789345
20
-16.7652786764
30
0.0000000000
10
12.2879542993
20
-16.8062580036
30
0.0000000000
10
12.2885812757
20
-16.8446254595
30
0.0000000000
10
12.2892560915
20
-16.8801628222
30
0.0000000000
10
12.2899745842
20
-16.9126679746
30
0.0000000000
10
12.2907322519
20
-16.9419560059
30
0.0000000000
10
12.2915238812
20
-16.9678604031
30
0.0000000000
10
12.2923442160
20
-16.9902338333
30
0.0000000000
10
12.2931848666
20
-17.0089497645
30
0.0000000000
10
12.2940404212
20
-17.0239008999
30
0.0000000000
10
12.2947017225
20
-17.0325965133
30
0.0000000000
10
12.2950679731
20
-17.0362964381
30
0.0000000000
11
12.2849802401
21
-16.3739188688
31
0.0000000000
11
12.2850504328
21
-16.4265417600
31
0.0000000000
11
12.2851896608
21
-16.4787213161
31
0.0000000000
11
12.2853971284
21
-16.5301521468
31
0.0000000000
11
12.2856716551
21
-16.5805410724
31
0.0000000000
11
12.2860116814
21
-16.6296018221
31
0.0000000000
11
12.2864152764
21
-16.6770555459
31
0.0000000000
11
12.2868801450
21
-16.7226321934
31
0.0000000000
11
12.2874036445
21
-16.7660725507
31
0.0000000000
11
12.2879827996
21
-16.8071295952
31
0.0000000000
11
12.2886143175
21
-16.8455697707
31
0.0000000000
11
12.2892946073
21
-16.8811743994
31
0.0000000000
11
12.2900198024
21
-16.9137410010
31
0.0000000000
11
12.2907857790
21
-16.9430842852
31
0.0000000000
11
12.2915881781
21
-16.9690371879
31
0.0000000000
11
12.2924224381
21
-16.9914521288
31
0.0000000000
11
12.2932838185
21
-17.0102016339
31
0.0000000000
11
12.2941674075
21
-17.0251788292
31
0.0000000000
11
12.2950679731
21
-17.0362964381
31
0.0000000000
0
SPLINE
5
247
100
AcDbEntity
8
0
100
AcDbSpline
62
9
6
CONTINUOUS
70
0
71
3
72
22
73
18
74
16
42
0.0000001000
43
0.0000001000
44
0.0000000001
12
-0.0014367926
22
-0.4669669341
32
0.0000000000
13
-0.4669670641
23
-0.0013938929
33
0.0000000000
40
0.0000000000
40
0.0000000000
40
0.0000000000
40
0.0000000000
40
0.0661103978
40
0.1322638517
40
0.1984799636
40
0.2647755566
40
0.3311639400
40
0.3976543367
40
0.4642514965
40
0.5309555097
40
0.5977618250
40
0.6646614679
40
0.7316414458
40
0.7986853212
40
0.8657739246
40
0.9328861790
40
1.0000000000
40
1.0000000000
40
1.0000000000
40
1.0000000000
10
12.2950679731
20
-17.0362964381
30
0.0000000000
10
12.2950363108
20
-17.0465868947
30
0.0000000000
10
12.2938787455
20
-17.0671878088
30
0.0000000000
10
12.2888811190
20
-17.0977313631
30
0.0000000000
10
12.2806765568
20
-17.1276071760
30
0.0000000000
10
12.2693549157
20
-17.1564844374
30
0.0000000000
10
12.2550400968
20
-17.1840491202
30
0.0000000000
10
12.2378886799
20
-17.2100000816
30
0.0000000000
10
12.2180881741
20
-17.2340543129
30
0.0000000000
10
12.1958549440
20
-17.2559494849
30
0.0000000000
10
12.1714318152
20
-17.2754469293
30
0.0000000000
10
12.1450854441
20
-17.2923341765
30
0.0000000000
10
12.1171032684
20
-17.3064272533
30
0.0000000000
10
12.0877908746
20
-17.3175726560
30
0.0000000000
10
12.0574668037
20
-17.3256490031
30
0.0000000000
10
12.0264660885
20
-17.3305683173
30
0.0000000000
10
12.0055603125
20
-17.3317075808
30
0.0000000000
10
11.9951136646
20
-17.3317387640
30
0.0000000000
11
12.2950679731
21
-17.0362964381
31
0.0000000000
11
12.2933362828
21
-17.0671193475
31
0.0000000000
11
12.2883497872
21
-17.0976058552
31
0.0000000000
11
12.2801629089
21
-17.1274232313
31
0.0000000000
11
12.2688649997
21
-17.1562460484
31
0.0000000000
11
12.2545793651
21
-17.1837597340
31
0.0000000000
11
12.2374619187
21
-17.2096640034
31
0.0000000000
11
12.2176994804
21
-17.2336761370
31
0.0000000000
11
12.1955077379
21
-17.2555340662
31
0.0000000000
11
12.1711288919
21
-17.2749992333
31
0.0000000000
11
12.1448290136
21
-17.2918591951
31
0.0000000000
11
12.1168951402
21
-17.3059299418
31
0.0000000000
11
12.0876321423
21
-17.3170579052
31
0.0000000000
11
12.0573593965
21
-17.3251216346
31
0.0000000000
11
12.0264073001
21
-17.3300331222
31
0.0000000000
11
11.9951136646
21
-17.3317387640
31
0.0000000000
0
SPLINE
5
248
100
AcDbEntity
8
0
100
AcDbSpline
62
7
6
CONTINUOUS
70
0
71
3
72
57
73
53
74
51
42
0.0000001000
43
0.0000001000
44
0.0000000001
12
0.0000000000
22
7.8355163596
32
0.0000000000
13
0.0000000000
23
-7.8355163596
33
0.0000000000
40
0.0000000000
40
0.0000000000
40
0.0000000000
40
0.0000000000
40
0.0199000596
40
0.0398086625
40
0.0597095877
40
0.0796281906
40
0.0995384065
40
0.1194692821
40
0.1393981664
40
0.1593428421
40
0.1792977335
40
0.1992575249
40
0.2192391103
40
0.2392195101
40
0.2592263127
40
0.2792319768
40
0.2992609953
40
0.3192948134
40
0.3393417715
40
0.3594027551
40
0.3794642209
40
0.3995459777
40
0.4196212316
40
0.4397163253
40
0.4598035523
40
0.4799037188
40
0.5000003544
40
0.5200969400
40
0.5401971510
40
0.5602843589
40
0.5803794513
40
0.6004547208
40
0.6205364320
40
0.6405979427
40
0.6606588493
40
0.6807058663
40
0.7007396384
40
0.7207686750
40
0.7407743510
40
0.7607811080
40
0.7807615675
40
0.8007430622
40
0.8207029339
40
0.8406577295
40
0.8606024639
40
0.8805313359
40
0.9004621810
40
0.9203724631
40
0.9402909634
40
0.9601919945
40
0.9801004703
40
1.0000000000
40
1.0000000000
40
1.0000000000
40
1.0000000000
10
-2.5000000000
20
-0.0000000000
30
0.0000000000
10
-2.5000000000
20
0.0519757476
30
0.0000000000
10
-2.4967267974
20
0.1559792484
30
0.0000000000
10
-2.4820160518
20
0.3113341635
30
0.0000000000
10
-2.4575560703
20
0.4655104404
30
0.0000000000
10
-2.4234473125
20
0.6178457733
30
0.0000000000
10
-2.3798048122
20
0.7678101184
30
0.0000000000
10
-2.3268104254
20
0.9147590220
30
0.0000000000
10
-2.2646461837
20
1.0581678434
30
0.0000000000
10
-2.1935622218
20
1.1974416551
30
0.0000000000
10
-2.1138236177
20
1.3320415661
30
0.0000000000
10
-2.0257310094
20
1.4614449097
30
0.0000000000
10
-1.9296414261
20
1.5851107358
30
0.0000000000
10
-1.8258930426
20
1.7025889943
30
0.0000000000
10
-1.7149274490
20
1.8133648432
30
0.0000000000
10
-1.5971305134
20
1.9170389482
30
0.0000000000
10
-1.4730024844
20
2.0131580092
30
0.0000000000
10
-1.3429973479
20
2.1013575464
30
0.0000000000
10
-1.2076426203
20
2.1812690238
30
0.0000000000
10
-1.0674765785
20
2.2525638583
30
0.0000000000
10
-0.9230315979
20
2.3149632209
30
0.0000000000
10
-0.7749224138
20
2.3681937281
30
0.0000000000
10
-0.6236828159
20
2.4120571574
30
0.0000000000
10
-0.4699765944
20
2.4463554881
30
0.0000000000
10
-0.3143583963
20
2.4709604224
30
0.0000000000
10
-0.1574997626
20
2.4857627092
30
0.0000000000
10
0.0000026494
20
2.4907034668
30
0.0000000000
10
0.1575051664
20
2.4857623694
30
0.0000000000
10
0.3143637054
20
2.4709597550
30
0.0000000000
10
0.4699819122
20
2.4463544737
30
0.0000000000
10
0.6236880483
20
2.4120558175
30
0.0000000000
10
0.7749274732
20
2.3681920845
30
0.0000000000
10
0.9230365810
20
2.3149612513
30
0.0000000000
10
1.0674812438
20
2.2525616638
30
0.0000000000
10
1.2076472000
20
2.1812665087
30
0.0000000000
10
1.3430016213
20
2.1013548404
30
0.0000000000
10
1.4730066426
20
2.0131549905
30
0.0000000000
10
1.5971344447
20
1.9170357048
30
0.0000000000
10
1.7149311357
20
1.8133613833
30
0.0000000000
10
1.8258965539
20
1.7025852634
30
0.0000000000
10
1.9296445662
20
1.5851069427
30
0.0000000000
10
2.0257339817
20
1.4614408243
30
0.0000000000
10
2.1138261789
20
1.3320375349
30
0.0000000000
10
2.1935645769
20
1.1974373722
30
0.0000000000
10
2.2646482164
20
1.0581635401
30
0.0000000000
10
2.3268121920
20
0.9147545582
30
0.0000000000
10
2.3798063194
20
0.7678054969
30
0.0000000000
10
2.4234484771
20
0.6178412331
30
0.0000000000
10
2.4575569841
20
0.4655056595
30
0.0000000000
10
2.4820166208
20
0.3113296539
30
0.0000000000
10
2.4967269387
20
0.1559761460
30
0.0000000000
10
2.5000000000
20
0.0519743635
30
0.0000000000
10
2.5000000000
20
-0.0000000000
30
0.0000000000
11
-2.5000000000
21
-0.0000000000
31
0.0000000000
11
-2.4950945708
21
0.1558500620
31
0.0000000000
11
-2.4803897990
21
0.3111496273
31
0.0000000000
11
-2.4559567300
21
0.4651575664
31
0.0000000000
11
-2.4218561858
21
0.6174592084
31
0.0000000000
11
-2.3782643354
21
0.7672519963
31
0.0000000000
11
-2.3252856676
21
0.9141598729
31
0.0000000000
11
-2.2631817612
21
1.0574319745
31
0.0000000000
11
-2.1921390148
21
1.1966274363
31
0.0000000000
11
-2.1124469054
21
1.3311511931
31
0.0000000000
11
-2.0244381485
21
1.4604335966
31
0.0000000000
11
-1.9283760917
21
1.5840661398
31
0.0000000000
11
-1.8247446140
21
1.7014140525
31
0.0000000000
11
-1.7138021364
21
1.8121687459
31
0.0000000000
11
-1.5961314918
21
1.9157334981
31
0.0000000000
11
-1.4720475872
21
2.0118200586
31
0.0000000000
11
-1.3421465688
21
2.0999504918
31
0.0000000000
11
-1.2068833232
21
2.1798093459
31
0.0000000000
11
-1.0667783113
21
2.2510743799
31
0.0000000000
11
-0.9224759348
21
2.3134132218
31
0.0000000000
11
-0.7743984443
21
2.3666332665
31
0.0000000000
11
-0.6233242183
21
2.4104494965
31
0.0000000000
11
-0.4696483818
21
2.4447416446
31
0.0000000000
11
-0.3141858660
21
2.4693223931
31
0.0000000000
11
-0.1573873163
21
2.4841192667
31
0.0000000000
11
0.0000027782
21
2.4890565887
31
0.0000000000
11
0.1573924703
21
2.4841189430
31
0.0000000000
11
0.3141913362
21
2.4693217032
31
0.0000000000
11
0.4696536510
21
2.4447406412
31
0.0000000000
11
0.6233294039
21
2.4104481672
31
0.0000000000
11
0.7744036530
21
2.3666315770
31
0.0000000000
11
0.9224806950
21
2.3134113403
31
0.0000000000
11
1.0667832628
21
2.2510720539
31
0.0000000000
11
1.2068875893
21
2.1798070045
31
0.0000000000
11
1.3421510703
21
2.0999476399
31
0.0000000000
11
1.4720516086
21
2.0118171418
31
0.0000000000
11
1.5961354311
21
1.9157302446
31
0.0000000000
11
1.7138059322
21
1.8121651876
31
0.0000000000
11
1.8247479338
21
1.7014105231
31
0.0000000000
11
1.9283794819
21
1.5840620488
31
0.0000000000
11
2.0244408570
21
1.4604298749
31
0.0000000000
11
2.1124497125
21
1.3311467773
31
0.0000000000
11
2.1921411764
21
1.1966235109
31
0.0000000000
11
2.2631838680
21
1.0574275046
31
0.0000000000
11
2.3252874536
21
0.9141553695
31
0.0000000000
11
2.3782657608
21
0.7672476165
31
0.0000000000
11
2.4218574621
21
0.6174542458
31
0.0000000000
11
2.4559575408
21
0.4651533228
31
0.0000000000
11
2.4803904456
21
0.3111445176
31
0.0000000000
11
2.4950948321
21
0.1558459159
31
0.0000000000
11
2.5000000000
21
-0.0000000000
31
0.0000000000
0
SPLINE
5
249
100
AcDbEntity
8
0
100
AcDbSpline
62
9
6
CONTINUOUS
70
0
71
3
72
8
73
4
74
2
42
0.0000001000
43
0.0000001000
44
0.0000000001
12
-0.5600091716
22
-0.5000082411
32
-0.0137701517
13
-0.5599906324
23
-0.4999916882
33
-0.0143586197
40
0.0000000000
40
0.0000000000
40
0.0000000000
40
0.0000000000
40
1.0000000000
40
1.0000000000
40
1.0000000000
40
1.0000000000
10
-1.8400000000
20
-11.6999999776
30
5.8389224171
10
-2.0266697239
20
-11.8666693913
30
5.8343323665
10
-2.2133364225
20
-12.0333361039
30
5.8296442363
10
-2.3999999666
20
-12.2000000000
30
5.8248580298
11
-1.8400000000
21
-11.6999999776
31
5.8389224171
11
-2.3999999666
21
-12.2000000000
31
5.8248580298
0
SPLINE
5
24A
100
AcDbEntity
8
0
100
AcDbSpline
62
9
6
CONTINUOUS
70
0
71
3
72
8
73
4
74
2
42
0.0000001000
43
0.0000001000
44
0.0000000001
12
0.5600068421
22
-0.5000061090
32
-0.0102375644
13
0.5599929619
23
-0.4999937160
33
-0.0108259301
40
0.0000000000
40
0.0000000000
40
0.0000000000
40
0.0000000000
40
1.0000000000
40
1.0000000000
40
1.0000000000
40
1.0000000000
10
-2.3999999666
20
-8.7000000000
30
5.9109436105
10
-2.2133310193
20
-8.8666687030
30
5.9075310891
10
-2.0266643206
20
-9.0333353982
30
5.9040205054
10
-1.8400000000
20
-9.1999999702
30
5.9004118621
11
-2.3999999666
21
-8.7000000000
31
5.9109436105
11
-1.8400000000
21
-9.1999999702
31
5.9004118621
0
SPLINE
5
24B
100
AcDbEntity
8
0
100
AcDbSpline
62
9
6
CONTINUOUS
70
0
71
3
72
8
73
4
74
2
42
0.0000001000
43
0.0000001000
44
0.0000000001
12
0.5599930203
22
0.4999937160
32
0.0108259301
13
0.5600069005
23
0.5000061090
33
0.0102375644
40
0.0000000000
40
0.0000000000
40
0.0000000000
40
0.0000000000
40
1.0000000000
40
1.0000000000
40
1.0000000000
40
1.0000000000
10
-3.8000000000
20
-9.1999999702
30
5.9004118621
10
-3.6133356599
20
-9.0333353982
30
5.9040205054
10
-3.4266689418
20
-8.8666687030
30
5.9075310891
10
-3.2399999750
20
-8.7000000000
30
5.9109436105
11
-3.8000000000
21
-9.1999999702
31
5.9004118621
11
-3.2399999750
21
-8.7000000000
31
5.9109436105
0
SPLINE
5
24C
100
AcDbEntity
8
0
100
AcDbSpline
62
9
6
CONTINUOUS
70
0
71
3
72
8
73
4
74
2
42
0.0000001000
43
0.0000001000
44
0.0000000001
12
-0.5599906908
22
0.4999916882
32
0.0143586197
13
-0.5600092300
23
0.5000082411
33
0.0137701517
40
0.0000000000
40
0.0000000000
40
0.0000000000
40
0.0000000000
40
1.0000000000
40
1.0000000000
40
1.0000000000
40
1.0000000000
10
-3.2399999750
20
-12.2000000000
30
5.8248580298
10
-3.4266635386
20
-12.0333361039
30
5.8296442363
10
-3.6133302567
20
-11.8666693913
30
5.8343323665
10
-3.8000000000
20
-11.6999999776
30
5.8389224171
11
-3.2399999750
21
-12.2000000000
31
5.8248580298
11
-3.8000000000
21
-11.6999999776
31
5.8389224171
0
SPLINE
5
24D
100
AcDbEntity
8
0
100
AcDbSpline
62
9
6
CONTINUOUS
70
0
71
3
72
8
73
4
74
2
42
0.0000001000
43
0.0000001000
44
0.0000000001
12
1.9597903521
22
-3.4996256288
32
0.1005012580
13
1.9601874798
23
-3.5003347853
33
0.0716689299
40
0.0000000000
40
0.0000000000
40
0.0000000000
40
0.0000000000
40
1.0000000000
40
1.0000000000
40
1.0000000000
40
1.0000000000
10
0.5799999332
20
12.2000000000
30
5.8248580298
10
1.2332633840
20
11.0334581237
30
5.8583584491
10
1.8866041067
20
9.8667782618
30
5.8870539672
10
2.5399999332
20
8.7000000000
30
5.9109436105
11
0.5799999332
21
12.2000000000
31
5.8248580298
11
2.5399999332
21
8.7000000000
31
5.9109436105
0
SPLINE
5
24E
100
AcDbEntity
8
0
100
AcDbSpline
62
9
6
CONTINUOUS
70
0
71
3
72
8
73
4
74
2
42
0.0000001000
43
0.0000001000
44
0.0000000001
12
-0.5599929619
22
-0.4999937681
32
0.0108259313
13
-0.5600068421
23
-0.5000061612
33
0.0102375655
40
0.0000000000
40
0.0000000000
40
0.0000000000
40
0.0000000000
40
1.0000000000
40
1.0000000000
40
1.0000000000
40
1.0000000000
10
-0.5400000000
20
9.2000000224
30
5.9004118609
10
-0.7266643206
20
9.0333354330
30
5.9040205047
10
-0.9133310193
20
8.8666687204
30
5.9075310887
10
-1.0999999666
20
8.7000000000
30
5.9109436105
11
-0.5400000000
21
9.2000000224
31
5.9004118609
11
-1.0999999666
21
8.7000000000
31
5.9109436105
0
SPLINE
5
24F
100
AcDbEntity
8
0
100
AcDbSpline
62
9
6
CONTINUOUS
70
0
71
3
72
8
73
4
74
2
42
0.0000001000
43
0.0000001000
44
0.0000000001
12
0.5599906324
22
-0.4999916360
32
0.0143586183
13
0.5600091716
23
-0.5000081889
33
0.0137701503
40
0.0000000000
40
0.0000000000
40
0.0000000000
40
0.0000000000
40
1.0000000000
40
1.0000000000
40
1.0000000000
40
1.0000000000
10
-1.0999999666
20
12.2000000000
30
5.8248580298
10
-0.9133364225
20
12.0333361213
30
5.8296442358
10
-0.7266697239
20
11.8666694261
30
5.8343323656
10
-0.5400000000
20
11.7000000298
30
5.8389224157
11
-1.0999999666
21
12.2000000000
31
5.8248580298
11
-0.5400000000
21
11.7000000298
31
5.8389224157
0
SPLINE
5
250
100
AcDbEntity
8
0
100
AcDbSpline
62
9
6
CONTINUOUS
70
0
71
3
72
8
73
4
74
2
42
0.0000001000
43
0.0000001000
44
0.0000000001
12
0.5600092300
22
0.5000081889
32
-0.0137701503
13
0.5599906908
23
0.4999916360
33
-0.0143586183
40
0.0000000000
40
0.0000000000
40
0.0000000000
40
0.0000000000
40
1.0000000000
40
1.0000000000
40
1.0000000000
40
1.0000000000
10
-2.5000000000
20
11.7000000298
30
5.8389224157
10
-2.3133302567
20
11.8666694261
30
5.8343323656
10
-2.1266635386
20
12.0333361213
30
5.8296442358
10
-1.9399999750
20
12.2000000000
30
5.8248580298
11
-2.5000000000
21
11.7000000298
31
5.8389224157
11
-1.9399999750
21
12.2000000000
31
5.8248580298
0
SPLINE
5
251
100
AcDbEntity
8
0
100
AcDbSpline
62
9
6
CONTINUOUS
70
0
71
3
72
8
73
4
74
2
42
0.0000001000
43
0.0000001000
44
0.0000000001
12
-0.5600069005
22
0.5000061612
32
-0.0102375655
13
-0.5599930203
23
0.4999937681
33
-0.0108259313
40
0.0000000000
40
0.0000000000
40
0.0000000000
40
0.0000000000
40
1.0000000000
40
1.0000000000
40
1.0000000000
40
1.0000000000
10
-1.9399999750
20
8.7000000000
30
5.9109436105
10
-2.1266689418
20
8.8666687204
30
5.9075310887
10
-2.3133356599
20
9.0333354330
30
5.9040205047
10
-2.5000000000
20
9.2000000224
30
5.9004118609
11
-1.9399999750
21
8.7000000000
31
5.9109436105
11
-2.5000000000
21
9.2000000224
31
5.9004118609
0
SPLINE
5
252
100
AcDbEntity
8
0
100
AcDbSpline
62
7
6
CONTINUOUS
70
0
71
3
72
22
73
18
74
16
42
0.0000001000
43
0.0000001000
44
0.0000000001
12
0.0000000000
22
0.4733254049
32
0.0000000000
13
0.4733254049
23
0.0000000000
33
0.0000000000
40
0.0000000000
40
0.0000000000
40
0.0000000000
40
0.0000000000
40
0.0676671853
40
0.1355731550
40
0.2032579586
40
0.2704507235
40
0.3377259741
40
0.4050038467
40
0.4718842725
40
0.5382072209
40
0.6046758662
40
0.6710878153
40
0.7370903167
40
0.8027408720
40
0.8686347097
40
0.9345190029
40
1.0000000000
40
1.0000000000
40
1.0000000000
40
1.0000000000
10
-12.4000000000
20
18.0962952155
30
0.0000000000
10
-12.4000000000
20
18.1069714148
30
0.0000000000
10
-12.3988905424
20
18.1283780465
30
0.0000000000
10
-12.3939076019
20
18.1601136643
30
0.0000000000
10
-12.3856699991
20
18.1910899367
30
0.0000000000
10
-12.3742975698
20
18.2209493025
30
0.0000000000
10
-12.3599135769
20
18.2494092599
30
0.0000000000
10
-12.3426632963
20
18.2761708290
30
0.0000000000
10
-12.3228029304
20
18.3008639511
30
0.0000000000
10
-12.3005646315
20
18.3232585541
30
0.0000000000
10
-12.2761639596
20
18.3431597337
30
0.0000000000
10
-12.2498494891
20
18.3603595750
30
0.0000000000
10
-12.2219881351
20
18.3746389715
30
0.0000000000
10
-12.1928600946
20
18.3858886379
30
0.0000000000
10
-12.1627279798
20
18.3940121733
30
0.0000000000
10
-12.1319374816
20
18.3989110886
30
0.0000000000
10
-12.1111948868
20
18.4000000000
30
0.0000000000
10
-12.1008636137
20
18.4000000000
30
0.0000000000
11
-12.4000000000
21
18.0962952155
31
0.0000000000
11
-12.3983409031
21
18.1282808135
31
0.0000000000
11
-12.3933543974
21
18.1600332706
31
0.0000000000
11
-12.3851189905
21
18.1909936229
31
0.0000000000
11
-12.3737971976
21
18.2207142241
31
0.0000000000
11
-12.3594314097
21
18.2491326374
31
0.0000000000
11
-12.3421762894
21
18.2758968287
31
0.0000000000
11
-12.3223343101
21
18.3005628205
31
0.0000000000
11
-12.3002126062
21
18.3228363249
31
0.0000000000
11
-12.2758305114
21
18.3427191506
31
0.0000000000
11
-12.2495169715
21
18.3599157509
31
0.0000000000
11
-12.2217142475
21
18.3741631161
31
0.0000000000
11
-12.1927264411
21
18.3853570992
31
0.0000000000
11
-12.1626122270
21
18.3934751049
31
0.0000000000
11
-12.1318147720
21
18.3983743790
31
0.0000000000
11
-12.1008636137
21
18.4000000000
31
0.0000000000
0
SPLINE
5
253
100
AcDbEntity
8
0
100
AcDbSpline
62
7
6
CONTINUOUS
70
0
71
3
72
22
73
18
74
16
42
0.0000001000
43
0.0000001000
44
0.0000000001
12
0.0000000000
22
-0.4733254049
32
0.0000000000
13
-0.4733254049
23
0.0000000000
33
0.0000000000
40
0.0000000000
40
0.0000000000
40
0.0000000000
40
0.0000000000
40
0.0676671853
40
0.1355731550
40
0.2032579586
40
0.2704507235
40
0.3377259741
40
0.4050038467
40
0.4718842725
40
0.5382072209
40
0.6046758662
40
0.6710878153
40
0.7370903167
40
0.8027408720
40
0.8686347097
40
0.9345190029
40
1.0000000000
40
1.0000000000
40
1.0000000000
40
1.0000000000
10
12.4000000000
20
-18.0962952155
30
0.0000000000
10
12.4000000000
20
-18.1069714148
30
0.0000000000
10
12.3988905424
20
-18.1283780465
30
0.0000000000
10
12.3939076019
20
-18.1601136643
30
0.0000000000
10
12.3856699991
20
-18.1910899367
30
0.0000000000
10
12.3742975698
20
-18.2209493025
30
0.0000000000
10
12.3599135769
20
-18.2494092599
30
0.0000000000
10
12.3426632963
20
-18.2761708290
30
0.0000000000
10
12.3228029304
20
-18.3008639511
30
0.0000000000
10
12.3005646315
20
-18.3232585541
30
0.0000000000
10
12.2761639596
20
-18.3431597337
30
0.0000000000
10
12.2498494891
20
-18.3603595750
30
0.0000000000
10
12.2219881351
20
-18.3746389715
30
0.0000000000
10
12.1928600946
20
-18.3858886379
30
0.0000000000
10
12.1627279798
20
-18.3940121733
30
0.0000000000
10
12.1319374816
20
-18.3989110886
30
0.0000000000
10
12.1111948868
20
-18.4000000000
30
0.0000000000
10
12.1008636137
20
-18.4000000000
30
0.0000000000
11
12.4000000000
21
-18.0962952155
31
0.0000000000
11
12.3983409031
21
-18.1282808135
31
0.0000000000
11
12.3933543974
21
-18.1600332706
31
0.0000000000
11
12.3851189905
21
-18.1909936229
31
0.0000000000
11
12.3737971976
21
-18.2207142241
31
0.0000000000
11
12.3594314097
21
-18.2491326374
31
0.0000000000
11
12.3421762894
21
-18.2758968287
31
0.0000000000
11
12.3223343101
21
-18.3005628205
31
0.0000000000
11
12.3002126062
21
-18.3228363249
31
0.0000000000
11
12.2758305114
21
-18.3427191506
31
0.0000000000
11
12.2495169715
21
-18.3599157509
31
0.0000000000
11
12.2217142475
21
-18.3741631161
31
0.0000000000
11
12.1927264411
21
-18.3853570992
31
0.0000000000
11
12.1626122270
21
-18.3934751049
31
0.0000000000
11
12.1318147720
21
-18.3983743790
31
0.0000000000
11
12.1008636137
21
-18.4000000000
31
0.0000000000
0
SPLINE
5
254
100
AcDbEntity
8
0
100
AcDbSpline
62
7
6
CONTINUOUS
70
0
71
3
72
22
73
18
74
16
42
0.0000001000
43
0.0000001000
44
0.0000000001
12
0.4733254049
22
0.0000000000
32
0.0000000000
13
0.0000000000
23
-0.4733254049
33
0.0000000000
40
0.0000000000
40
0.0000000000
40
0.0000000000
40
0.0000000000
40
0.0654809971
40
0.1313652903
40
0.1972591280
40
0.2629096833
40
0.3289121847
40
0.3953241338
40
0.4617927791
40
0.5281157275
40
0.5949961533
40
0.6622740259
40
0.7295492765
40
0.7967420414
40
0.8644268450
40
0.9323328147
40
1.0000000000
40
1.0000000000
40
1.0000000000
40
1.0000000000
10
12.1008636137
20
18.4000000000
30
0.0000000000
10
12.1111948868
20
18.4000000000
30
0.0000000000
10
12.1319374816
20
18.3989110886
30
0.0000000000
10
12.1627279798
20
18.3940121733
30
0.0000000000
10
12.1928600946
20
18.3858886379
30
0.0000000000
10
12.2219881351
20
18.3746389715
30
0.0000000000
10
12.2498494891
20
18.3603595750
30
0.0000000000
10
12.2761639596
20
18.3431597337
30
0.0000000000
10
12.3005646315
20
18.3232585541
30
0.0000000000
10
12.3228029304
20
18.3008639511
30
0.0000000000
10
12.3426632963
20
18.2761708290
30
0.0000000000
10
12.3599135769
20
18.2494092599
30
0.0000000000
10
12.3742975698
20
18.2209493025
30
0.0000000000
10
12.3856699991
20
18.1910899367
30
0.0000000000
10
12.3939076019
20
18.1601136643
30
0.0000000000
10
12.3988905424
20
18.1283780465
30
0.0000000000
10
12.4000000000
20
18.1069714148
30
0.0000000000
10
12.4000000000
20
18.0962952155
30
0.0000000000
11
12.1008636137
21
18.4000000000
31
0.0000000000
11
12.1318147720
21
18.3983743790
31
0.0000000000
11
12.1626122270
21
18.3934751049
31
0.0000000000
11
12.1927264411
21
18.3853570992
31
0.0000000000
11
12.2217142475
21
18.3741631161
31
0.0000000000
11
12.2495169715
21
18.3599157509
31
0.0000000000
11
12.2758305114
21
18.3427191506
31
0.0000000000
11
12.3002126062
21
18.3228363249
31
0.0000000000
11
12.3223343101
21
18.3005628205
31
0.0000000000
11
12.3421762894
21
18.2758968287
31
0.0000000000
11
12.3594314097
21
18.2491326374
31
0.0000000000
11
12.3737971976
21
18.2207142241
31
0.0000000000
11
12.3851189905
21
18.1909936229
31
0.0000000000
11
12.3933543974
21
18.1600332706
31
0.0000000000
11
12.3983409031
21
18.1282808135
31
0.0000000000
11
12.4000000000
21
18.0962952155
31
0.0000000000
0
SPLINE
5
255
100
AcDbEntity
8
0
100
AcDbSpline
62
7
6
CONTINUOUS
70
0
71
3
72
22
73
18
74
16
42
0.0000001000
43
0.0000001000
44
0.0000000001
12
-0.4733254049
22
0.0000000000
32
0.0000000000
13
-0.0000000000
23
0.4733254049
33
0.0000000000
40
0.0000000000
40
0.0000000000
40
0.0000000000
40
0.0000000000
40
0.0654809971
40
0.1313652903
40
0.1972591280
40
0.2629096833
40
0.3289121847
40
0.3953241338
40
0.4617927791
40
0.5281157275
40
0.5949961533
40
0.6622740259
40
0.7295492765
40
0.7967420414
40
0.8644268450
40
0.9323328147
40
1.0000000000
40
1.0000000000
40
1.0000000000
40
1.0000000000
10
-12.1008636137
20
-18.4000000000
30
0.0000000000
10
-12.1111948868
20
-18.4000000000
30
0.0000000000
10
-12.1319374816
20
-18.3989110886
30
0.0000000000
10
-12.1627279798
20
-18.3940121733
30
0.0000000000
10
-12.1928600946
20
-18.3858886379
30
0.0000000000
10
-12.2219881351
20
-18.3746389715
30
0.0000000000
10
-12.2498494891
20
-18.3603595750
30
0.0000000000
10
-12.2761639596
20
-18.3431597337
30
0.0000000000
10
-12.3005646315
20
-18.3232585541
30
0.0000000000
10
-12.3228029304
20
-18.3008639511
30
0.0000000000
10
-12.3426632963
20
-18.2761708290
30
0.0000000000
10
-12.3599135769
20
-18.2494092599
30
0.0000000000
10
-12.3742975698
20
-18.2209493025
30
0.0000000000
10
-12.3856699991
20
-18.1910899367
30
0.0000000000
10
-12.3939076019
20
-18.1601136643
30
0.0000000000
10
-12.3988905424
20
-18.1283780465
30
0.0000000000
10
-12.4000000000
20
-18.1069714148
30
0.0000000000
10
-12.4000000000
20
-18.0962952155
30
0.0000000000
11
-12.1008636137
21
-18.4000000000
31
0.0000000000
11
-12.1318147720
21
-18.3983743790
31
0.0000000000
11
-12.1626122270
21
-18.3934751049
31
0.0000000000
11
-12.1927264411
21
-18.3853570992
31
0.0000000000
11
-12.2217142475
21
-18.3741631161
31
0.0000000000
11
-12.2495169715
21
-18.3599157509
31
0.0000000000
11
-12.2758305114
21
-18.3427191506
31
0.0000000000
11
-12.3002126062
21
-18.3228363249
31
0.0000000000
11
-12.3223343101
21
-18.3005628205
31
0.0000000000
11
-12.3421762894
21
-18.2758968287
31
0.0000000000
11
-12.3594314097
21
-18.2491326374
31
0.0000000000
11
-12.3737971976
21
-18.2207142241
31
0.0000000000
11
-12.3851189905
21
-18.1909936229
31
0.0000000000
11
-12.3933543974
21
-18.1600332706
31
0.0000000000
11
-12.3983409031
21
-18.1282808135
31
0.0000000000
11
-12.4000000000
21
-18.0962952155
31
0.0000000000
0
SPLINE
5
256
100
AcDbEntity
8
0
100
AcDbSpline
62
7
6
CONTINUOUS
70
0
71
3
72
57
73
53
74
51
42
0.0000001000
43
0.0000001000
44
0.0000000001
12
0.0000000000
22
-7.8355163596
32
0.0000000000
13
-0.0000000000
23
7.8355163596
33
0.0000000000
40
0.0000000000
40
0.0000000000
40
0.0000000000
40
0.0000000000
40
0.0199000596
40
0.0398086625
40
0.0597095877
40
0.0796281906
40
0.0995384065
40
0.1194692821
40
0.1393981664
40
0.1593428421
40
0.1792977335
40
0.1992575249
40
0.2192391103
40
0.2392195101
40
0.2592263127
40
0.2792319768
40
0.2992609953
40
0.3192948134
40
0.3393417715
40
0.3594027551
40
0.3794642209
40
0.3995459777
40
0.4196212316
40
0.4397163253
40
0.4598035523
40
0.4799037188
40
0.5000003544
40
0.5200969400
40
0.5401971510
40
0.5602843589
40
0.5803794513
40
0.6004547208
40
0.6205364320
40
0.6405979427
40
0.6606588493
40
0.6807058663
40
0.7007396384
40
0.7207686750
40
0.7407743510
40
0.7607811080
40
0.7807615675
40
0.8007430622
40
0.8207029339
40
0.8406577295
40
0.8606024639
40
0.8805313359
40
0.9004621810
40
0.9203724631
40
0.9402909634
40
0.9601919945
40
0.9801004703
40
1.0000000000
40
1.0000000000
40
1.0000000000
40
1.0000000000
10
2.5000000000
20
-0.0000000000
30
0.0000000000
10
2.5000000000
20
-0.0519757476
30
0.0000000000
10
2.4967267974
20
-0.1559792484
30
0.0000000000
10
2.4820160518
20
-0.3113341635
30
0.0000000000
10
2.4575560703
20
-0.4655104404
30
0.0000000000
10
2.4234473125
20
-0.6178457733
30
0.0000000000
10
2.3798048122
20
-0.7678101184
30
0.0000000000
10
2.3268104254
20
-0.9147590220
30
0.0000000000
10
2.2646461837
20
-1.0581678434
30
0.0000000000
10
2.1935622218
20
-1.1974416551
30
0.0000000000
10
2.1138236177
20
-1.3320415661
30
0.0000000000
10
2.0257310094
20
-1.4614449097
30
0.0000000000
10
1.9296414261
20
-1.5851107358
30
0.0000000000
10
1.8258930426
20
-1.7025889943
30
0.0000000000
10
1.7149274490
20
-1.8133648432
30
0.0000000000
10
1.5971305134
20
-1.9170389482
30
0.0000000000
10
1.4730024844
20
-2.0131580092
30
0.0000000000
10
1.3429973479
20
-2.1013575464
30
0.0000000000
10
1.2076426203
20
-2.1812690238
30
0.0000000000
10
1.0674765785
20
-2.2525638583
30
0.0000000000
10
0.9230315979
20
-2.3149632209
30
0.0000000000
10
0.7749224138
20
-2.3681937281
30
0.0000000000
10
0.6236828159
20
-2.4120571574
30
0.0000000000
10
0.4699765944
20
-2.4463554881
30
0.0000000000
10
0.3143583963
20
-2.4709604224
30
0.0000000000
10
0.1574997626
20
-2.4857627092
30
0.0000000000
10
-0.0000026494
20
-2.4907034668
30
0.0000000000
10
-0.1575051664
20
-2.4857623694
30
0.0000000000
10
-0.3143637054
20
-2.4709597550
30
0.0000000000
10
-0.4699819122
20
-2.4463544737
30
0.0000000000
10
-0.6236880483
20
-2.4120558175
30
0.0000000000
10
-0.7749274732
20
-2.3681920845
30
0.0000000000
10
-0.9230365810
20
-2.3149612513
30
0.0000000000
10
-1.0674812438
20
-2.2525616638
30
0.0000000000
10
-1.2076472000
20
-2.1812665087
30
0.0000000000
10
-1.3430016213
20
-2.1013548404
30
0.0000000000
10
-1.4730066426
20
-2.0131549905
30
0.0000000000
10
-1.5971344447
20
-1.9170357048
30
0.0000000000
10
-1.7149311357
20
-1.8133613833
30
0.0000000000
10
-1.8258965539
20
-1.7025852634
30
0.0000000000
10
-1.9296445662
20
-1.5851069427
30
0.0000000000
10
-2.0257339817
20
-1.4614408243
30
0.0000000000
10
-2.1138261789
20
-1.3320375349
30
0.0000000000
10
-2.1935645769
20
-1.1974373722
30
0.0000000000
10
-2.2646482164
20
-1.0581635401
30
0.0000000000
10
-2.3268121920
20
-0.9147545582
30
0.0000000000
10
-2.3798063194
20
-0.7678054969
30
0.0000000000
10
-2.4234484771
20
-0.6178412331
30
0.0000000000
10
-2.4575569841
20
-0.4655056595
30
0.0000000000
10
-2.4820166208
20
-0.3113296539
30
0.0000000000
10
-2.4967269387
20
-0.1559761460
30
0.0000000000
10
-2.5000000000
20
-0.0519743635
30
0.0000000000
10
-2.5000000000
20
-0.0000000000
30
0.0000000000
11
2.5000000000
21
-0.0000000000
31
0.0000000000
11
2.4950945708
21
-0.1558500620
31
0.0000000000
11
2.4803897990
21
-0.3111496273
31
0.0000000000
11
2.4559567300
21
-0.4651575664
31
0.0000000000
11
2.4218561858
21
-0.6174592084
31
0.0000000000
11
2.3782643354
21
-0.7672519963
31
0.0000000000
11
2.3252856676
21
-0.9141598729
31
0.0000000000
11
2.2631817612
21
-1.0574319745
31
0.0000000000
11
2.1921390148
21
-1.1966274363
31
0.0000000000
11
2.1124469054
21
-1.3311511931
31
0.0000000000
11
2.0244381485
21
-1.4604335966
31
0.0000000000
11
1.9283760917
21
-1.5840661398
31
0.0000000000
11
1.8247446140
21
-1.7014140525
31
0.0000000000
11
1.7138021364
21
-1.8121687459
31
0.0000000000
11
1.5961314918
21
-1.9157334981
31
0.0000000000
11
1.4720475872
21
-2.0118200586
31
0.0000000000
11
1.3421465688
21
-2.0999504918
31
0.0000000000
11
1.2068833232
21
-2.1798093459
31
0.0000000000
11
1.0667783113
21
-2.2510743799
31
0.0000000000
11
0.9224759348
21
-2.3134132218
31
0.0000000000
11
0.7743984443
21
-2.3666332665
31
0.0000000000
11
0.6233242183
21
-2.4104494965
31
0.0000000000
11
0.4696483818
21
-2.4447416446
31
0.0000000000
11
0.3141858660
21
-2.4693223931
31
0.0000000000
11
0.1573873163
21
-2.4841192667
31
0.0000000000
11
-0.0000027782
21
-2.4890565887
31
0.0000000000
11
-0.1573924703
21
-2.4841189430
31
0.0000000000
11
-0.3141913362
21
-2.4693217032
31
0.0000000000
11
-0.4696536510
21
-2.4447406412
31
0.0000000000
11
-0.6233294039
21
-2.4104481672
31
0.0000000000
11
-0.7744036530
21
-2.3666315770
31
0.0000000000
11
-0.9224806950
21
-2.3134113403
31
0.0000000000
11
-1.0667832628
21
-2.2510720539
31
0.0000000000
11
-1.2068875893
21
-2.1798070045
31
0.0000000000
11
-1.3421510703
21
-2.0999476399
31
0.0000000000
11
-1.4720516086
21
-2.0118171418
31
0.0000000000
11
-1.5961354311
21
-1.9157302446
31
0.0000000000
11
-1.7138059322
21
-1.8121651876
31
0.0000000000
11
-1.8247479338
21
-1.7014105231
31
0.0000000000
11
-1.9283794819
21
-1.5840620488
31
0.0000000000
11
-2.0244408570
21
-1.4604298749
31
0.0000000000
11
-2.1124497125
21
-1.3311467773
31
0.0000000000
11
-2.1921411764
21
-1.1966235109
31
0.0000000000
11
-2.2631838680
21
-1.0574275046
31
0.0000000000
11
-2.3252874536
21
-0.9141553695
31
0.0000000000
11
-2.3782657608
21
-0.7672476165
31
0.0000000000
11
-2.4218574621
21
-0.6174542458
31
0.0000000000
11
-2.4559575408
21
-0.4651533228
31
0.0000000000
11
-2.4803904456
21
-0.3111445176
31
0.0000000000
11
-2.4950948321
21
-0.1558459159
31
0.0000000000
11
-2.5000000000
21
-0.0000000000
31
0.0000000000
0
SPLINE
5
257
100
AcDbEntity
8
0
100
AcDbSpline
62
7
6
CONTINUOUS
70
0
71
3
72
57
73
53
74
51
42
0.0000001000
43
0.0000001000
44
0.0000000001
12
0.0000000000
22
7.8355163596
32
0.0000000000
13
0.0000000000
23
-7.8355163596
33
0.0000000000
40
0.0000000000
40
0.0000000000
40
0.0000000000
40
0.0000000000
40
0.0199000596
40
0.0398086625
40
0.0597095877
40
0.0796281906
40
0.0995384065
40
0.1194692821
40
0.1393981664
40
0.1593428421
40
0.1792977335
40
0.1992575249
40
0.2192391103
40
0.2392195101
40
0.2592263127
40
0.2792319768
40
0.2992609953
40
0.3192948134
40
0.3393417715
40
0.3594027551
40
0.3794642209
40
0.3995459777
40
0.4196212316
40
0.4397163253
40
0.4598035523
40
0.4799037188
40
0.5000003544
40
0.5200969400
40
0.5401971510
40
0.5602843589
40
0.5803794513
40
0.6004547208
40
0.6205364320
40
0.6405979427
40
0.6606588493
40
0.6807058663
40
0.7007396384
40
0.7207686750
40
0.7407743510
40
0.7607811080
40
0.7807615675
40
0.8007430622
40
0.8207029339
40
0.8406577295
40
0.8606024639
40
0.8805313359
40
0.9004621810
40
0.9203724631
40
0.9402909634
40
0.9601919945
40
0.9801004703
40
1.0000000000
40
1.0000000000
40
1.0000000000
40
1.0000000000
10
-2.5000000000
20
-0.0000000000
30
0.0000000000
10
-2.5000000000
20
0.0519757476
30
0.0000000000
10
-2.4967267974
20
0.1559792484
30
0.0000000000
10
-2.4820160518
20
0.3113341635
30
0.0000000000
10
-2.4575560703
20
0.4655104404
30
0.0000000000
10
-2.4234473125
20
0.6178457733
30
0.0000000000
10
-2.3798048122
20
0.7678101184
30
0.0000000000
10
-2.3268104254
20
0.9147590220
30
0.0000000000
10
-2.2646461837
20
1.0581678434
30
0.0000000000
10
-2.1935622218
20
1.1974416551
30
0.0000000000
10
-2.1138236177
20
1.3320415661
30
0.0000000000
10
-2.0257310094
20
1.4614449097
30
0.0000000000
10
-1.9296414261
20
1.5851107358
30
0.0000000000
10
-1.8258930426
20
1.7025889943
30
0.0000000000
10
-1.7149274490
20
1.8133648432
30
0.0000000000
10
-1.5971305134
20
1.9170389482
30
0.0000000000
10
-1.4730024844
20
2.0131580092
30
0.0000000000
10
-1.3429973479
20
2.1013575464
30
0.0000000000
10
-1.2076426203
20
2.1812690238
30
0.0000000000
10
-1.0674765785
20
2.2525638583
30
0.0000000000
10
-0.9230315979
20
2.3149632209
30
0.0000000000
10
-0.7749224138
20
2.3681937281
30
0.0000000000
10
-0.6236828159
20
2.4120571574
30
0.0000000000
10
-0.4699765944
20
2.4463554881
30
0.0000000000
10
-0.3143583963
20
2.4709604224
30
0.0000000000
10
-0.1574997626
20
2.4857627092
30
0.0000000000
10
0.0000026494
20
2.4907034668
30
0.0000000000
10
0.1575051664
20
2.4857623694
30
0.0000000000
10
0.3143637054
20
2.4709597550
30
0.0000000000
10
0.4699819122
20
2.4463544737
30
0.0000000000
10
0.6236880483
20
2.4120558175
30
0.0000000000
10
0.7749274732
20
2.3681920845
30
0.0000000000
10
0.9230365810
20
2.3149612513
30
0.0000000000
10
1.0674812438
20
2.2525616638
30
0.0000000000
10
1.2076472000
20
2.1812665087
30
0.0000000000
10
1.3430016213
20
2.1013548404
30
0.0000000000
10
1.4730066426
20
2.0131549905
30
0.0000000000
10
1.5971344447
20
1.9170357048
30
0.0000000000
10
1.7149311357
20
1.8133613833
30
0.0000000000
10
1.8258965539
20
1.7025852634
30
0.0000000000
10
1.9296445662
20
1.5851069427
30
0.0000000000
10
2.0257339817
20
1.4614408243
30
0.0000000000
10
2.1138261789
20
1.3320375349
30
0.0000000000
10
2.1935645769
20
1.1974373722
30
0.0000000000
10
2.2646482164
20
1.0581635401
30
0.0000000000
10
2.3268121920
20
0.9147545582
30
0.0000000000
10
2.3798063194
20
0.7678054969
30
0.0000000000
10
2.4234484771
20
0.6178412331
30
0.0000000000
10
2.4575569841
20
0.4655056595
30
0.0000000000
10
2.4820166208
20
0.3113296539
30
0.0000000000
10
2.4967269387
20
0.1559761460
30
0.0000000000
10
2.5000000000
20
0.0519743635
30
0.0000000000
10
2.5000000000
20
-0.0000000000
30
0.0000000000
11
-2.5000000000
21
-0.0000000000
31
0.0000000000
11
-2.4950945708
21
0.1558500620
31
0.0000000000
11
-2.4803897990
21
0.3111496273
31
0.0000000000
11
-2.4559567300
21
0.4651575664
31
0.0000000000
11
-2.4218561858
21
0.6174592084
31
0.0000000000
11
-2.3782643354
21
0.7672519963
31
0.0000000000
11
-2.3252856676
21
0.9141598729
31
0.0000000000
11
-2.2631817612
21
1.0574319745
31
0.0000000000
11
-2.1921390148
21
1.1966274363
31
0.0000000000
11
-2.1124469054
21
1.3311511931
31
0.0000000000
11
-2.0244381485
21
1.4604335966
31
0.0000000000
11
-1.9283760917
21
1.5840661398
31
0.0000000000
11
-1.8247446140
21
1.7014140525
31
0.0000000000
11
-1.7138021364
21
1.8121687459
31
0.0000000000
11
-1.5961314918
21
1.9157334981
31
0.0000000000
11
-1.4720475872
21
2.0118200586
31
0.0000000000
11
-1.3421465688
21
2.0999504918
31
0.0000000000
11
-1.2068833232
21
2.1798093459
31
0.0000000000
11
-1.0667783113
21
2.2510743799
31
0.0000000000
11
-0.9224759348
21
2.3134132218
31
0.0000000000
11
-0.7743984443
21
2.3666332665
31
0.0000000000
11
-0.6233242183
21
2.4104494965
31
0.0000000000
11
-0.4696483818
21
2.4447416446
31
0.0000000000
11
-0.3141858660
21
2.4693223931
31
0.0000000000
11
-0.1573873163
21
2.4841192667
31
0.0000000000
11
0.0000027782
21
2.4890565887
31
0.0000000000
11
0.1573924703
21
2.4841189430
31
0.0000000000
11
0.3141913362
21
2.4693217032
31
0.0000000000
11
0.4696536510
21
2.4447406412
31
0.0000000000
11
0.6233294039
21
2.4104481672
31
0.0000000000
11
0.7744036530
21
2.3666315770
31
0.0000000000
11
0.9224806950
21
2.3134113403
31
0.0000000000
11
1.0667832628
21
2.2510720539
31
0.0000000000
11
1.2068875893
21
2.1798070045
31
0.0000000000
11
1.3421510703
21
2.0999476399
31
0.0000000000
11
1.4720516086
21
2.0118171418
31
0.0000000000
11
1.5961354311
21
1.9157302446
31
0.0000000000
11
1.7138059322
21
1.8121651876
31
0.0000000000
11
1.8247479338
21
1.7014105231
31
0.0000000000
11
1.9283794819
21
1.5840620488
31
0.0000000000
11
2.0244408570
21
1.4604298749
31
0.0000000000
11
2.1124497125
21
1.3311467773
31
0.0000000000
11
2.1921411764
21
1.1966235109
31
0.0000000000
11
2.2631838680
21
1.0574275046
31
0.0000000000
11
2.3252874536
21
0.9141553695
31
0.0000000000
11
2.3782657608
21
0.7672476165
31
0.0000000000
11
2.4218574621
21
0.6174542458
31
0.0000000000
11
2.4559575408
21
0.4651533228
31
0.0000000000
11
2.4803904456
21
0.3111445176
31
0.0000000000
11
2.4950948321
21
0.1558459159
31
0.0000000000
11
2.5000000000
21
-0.0000000000
31
0.0000000000
0
SPLINE
5
258
100
AcDbEntity
8
0
100
AcDbSpline
62
9
6
CONTINUOUS
70
0
71
3
72
22
73
18
74
16
42
0.0000001000
43
0.0000001000
44
0.0000000001
12
0.0014367926
22
0.4669669341
32
0.0000000000
13
0.4669670641
23
0.0013938929
33
0.0000000000
40
0.0000000000
40
0.0000000000
40
0.0000000000
40
0.0000000000
40
0.0661103978
40
0.1322638517
40
0.1984799636
40
0.2647755566
40
0.3311639400
40
0.3976543367
40
0.4642514965
40
0.5309555097
40
0.5977618250
40
0.6646614679
40
0.7316414458
40
0.7986853212
40
0.8657739246
40
0.9328861790
40
1.0000000000
40
1.0000000000
40
1.0000000000
40
1.0000000000
10
-12.2950679731
20
17.0362964381
30
0.0000000000
10
-12.2950363108
20
17.0465868947
30
0.0000000000
10
-12.2938787455
20
17.0671878088
30
0.0000000000
10
-12.2888811190
20
17.0977313631
30
0.0000000000
10
-12.2806765568
20
17.1276071760
30
0.0000000000
10
-12.2693549157
20
17.1564844374
30
0.0000000000
10
-12.2550400968
20
17.1840491202
30
0.0000000000
10
-12.2378886799
20
17.2100000816
30
0.0000000000
10
-12.2180881741
20
17.2340543129
30
0.0000000000
10
-12.1958549440
20
17.2559494849
30
0.0000000000
10
-12.1714318152
20
17.2754469293
30
0.0000000000
10
-12.1450854441
20
17.2923341765
30
0.0000000000
10
-12.1171032684
20
17.3064272533
30
0.0000000000
10
-12.0877908746
20
17.3175726560
30
0.0000000000
10
-12.0574668037
20
17.3256490031
30
0.0000000000
10
-12.0264660885
20
17.3305683173
30
0.0000000000
10
-12.0055603125
20
17.3317075808
30
0.0000000000
10
-11.9951136646
20
17.3317387640
30
0.0000000000
11
-12.2950679731
21
17.0362964381
31
0.0000000000
11
-12.2933362828
21
17.0671193475
31
0.0000000000
11
-12.2883497872
21
17.0976058552
31
0.0000000000
11
-12.2801629089
21
17.1274232313
31
0.0000000000
11
-12.2688649997
21
17.1562460484
31
0.0000000000
11
-12.2545793651
21
17.1837597340
31
0.0000000000
11
-12.2374619187
21
17.2096640034
31
0.0000000000
11
-12.2176994804
21
17.2336761370
31
0.0000000000
11
-12.1955077379
21
17.2555340662
31
0.0000000000
11
-12.1711288919
21
17.2749992333
31
0.0000000000
11
-12.1448290136
21
17.2918591951
31
0.0000000000
11
-12.1168951402
21
17.3059299418
31
0.0000000000
11
-12.0876321423
21
17.3170579052
31
0.0000000000
11
-12.0573593965
21
17.3251216346
31
0.0000000000
11
-12.0264073001
21
17.3300331222
31
0.0000000000
11
-11.9951136646
21
17.3317387640
31
0.0000000000
0
SPLINE
5
259
100
AcDbEntity
8
0
100
AcDbSpline
62
9
6
CONTINUOUS
70
0
71
3
72
21
73
17
74
15
42
0.0000001000
43
0.0000001000
44
0.0000000001
12
0.1238977282
22
0.2739461049
32
0.0000000000
13
0.3006610626
23
0.0002021835
33
0.0000000000
40
0.0000000000
40
0.0000000000
40
0.0000000000
40
0.0000000000
40
0.0091178719
40
0.0297823287
40
0.0621959602
40
0.1060528113
40
0.1608484048
40
0.2259262220
40
0.3004961378
40
0.3836478087
40
0.4743634491
40
0.5715311281
40
0.6739588690
40
0.7803895621
40
0.8895165878
40
1.0000000000
40
1.0000000000
40
1.0000000000
40
1.0000000000
10
-12.2849802401
20
16.3739188688
30
0.0000000000
10
-12.2846036789
20
16.3747514706
30
0.0000000000
10
-12.2811445527
20
16.3755054030
30
0.0000000000
10
-12.2754990240
20
16.3767823586
30
0.0000000000
10
-12.2655937371
20
16.3778537709
30
0.0000000000
10
-12.2526146568
20
16.3790303959
30
0.0000000000
10
-12.2362009849
20
16.3801125947
30
0.0000000000
10
-12.2167545950
20
16.3811466318
30
0.0000000000
10
-12.1944407181
20
16.3820922148
30
0.0000000000
10
-12.1695580320
20
16.3829439162
30
0.0000000000
10
-12.1424043621
20
16.3836874982
30
0.0000000000
10
-12.1133160085
20
16.3843139277
30
0.0000000000
10
-12.0826498829
20
16.3848148018
30
0.0000000000
10
-12.0507832935
20
16.3851837424
30
0.0000000000
10
-12.0181080515
20
16.3854160100
30
0.0000000000
10
-11.9960986183
20
16.3854776463
30
0.0000000000
10
-11.9850259316
20
16.3854850922
30
0.0000000000
11
-12.2849802401
21
16.3739188688
31
0.0000000000
11
-12.2825564913
21
16.3751997509
31
0.0000000000
11
-12.2764736627
21
16.3764648805
31
0.0000000000
11
-12.2668065621
21
16.3776986988
31
0.0000000000
11
-12.2536740770
21
16.3788860322
31
0.0000000000
11
-12.2372377128
21
16.3800122785
31
0.0000000000
11
-12.2176996067
21
16.3810635870
31
0.0000000000
11
-12.1953000416
21
16.3820270287
31
0.0000000000
11
-12.1703144908
21
16.3828907548
31
0.0000000000
11
-12.1430502310
21
16.3836441432
31
0.0000000000
11
-12.1138425623
21
16.3842779285
31
0.0000000000
11
-12.0830506855
21
16.3847843164
31
0.0000000000
11
-12.0510532842
21
16.3851570793
31
0.0000000000
11
-12.0182438677
21
16.3853916327
31
0.0000000000
11
-11.9850259316
21
16.3854850922
31
0.0000000000
0
SPLINE
5
25A
100
AcDbEntity
8
0
100
AcDbSpline
62
9
6
CONTINUOUS
70
0
71
3
72
25
73
21
74
19
42
0.0000001000
43
0.0000001000
44
0.0000000001
12
-0.0004462263
22
0.9463612702
32
0.0000000000
13
-0.0654163801
23
0.9440977439
33
0.0000000000
40
0.0000000000
40
0.0000000000
40
0.0000000000
40
0.0000000000
40
0.0794495423
40
0.1582148743
40
0.2358500854
40
0.3119127222
40
0.3859707669
40
0.4576033897
40
0.5264030587
40
0.5919786305
40
0.6539574094
40
0.7119869856
40
0.7657374290
40
0.8149032960
40
0.8592051448
40
0.8983911530
40
0.9322390689
40
0.9605573298
40
0.9831860090
40
1.0000000000
40
1.0000000000
40
1.0000000000
40
1.0000000000
10
-11.9850259316
20
16.3854850935
30
0.0000000000
10
-11.9850377490
20
16.4105477501
30
0.0000000000
10
-11.9850842179
20
16.4604572189
30
0.0000000000
10
-11.9852227878
20
16.5348569041
30
0.0000000000
10
-11.9854292477
20
16.6081880166
30
0.0000000000
10
-11.9857024026
20
16.6800339694
30
0.0000000000
10
-11.9860406700
20
16.7499860854
30
0.0000000000
10
-11.9864420826
20
16.8176466992
30
0.0000000000
10
-11.9869043008
20
16.8826310334
30
0.0000000000
10
-11.9874246164
20
16.9445694869
30
0.0000000000
10
-11.9879999635
20
17.0031098353
30
0.0000000000
10
-11.9886269194
20
17.0579191486
30
0.0000000000
10
-11.9893017116
20
17.1086856876
30
0.0000000000
10
-11.9900201777
20
17.1551207016
30
0.0000000000
10
-11.9907778138
20
17.1969600165
30
0.0000000000
10
-11.9915694051
20
17.2339656652
30
0.0000000000
10
-11.9923896890
20
17.2659271523
30
0.0000000000
10
-11.9932302475
20
17.2926631353
30
0.0000000000
10
-11.9940857140
20
17.3140215062
30
0.0000000000
10
-11.9947470277
20
17.3264474136
30
0.0000000000
10
-11.9951136646
20
17.3317387640
30
0.0000000000
11
-11.9850259316
21
16.3854850935
31
0.0000000000
11
-11.9850961415
21
16.4606730389
31
0.0000000000
11
-11.9852353760
21
16.5352133767
31
0.0000000000
11
-11.9854428477
21
16.6086840490
31
0.0000000000
11
-11.9857173740
21
16.6806662671
31
0.0000000000
11
-11.9860573970
21
16.7507511153
31
0.0000000000
11
-11.9864609849
21
16.8185402613
31
0.0000000000
11
-11.9869258429
21
16.8836479513
31
0.0000000000
11
-11.9874493286
21
16.9457039316
31
0.0000000000
11
-11.9880284674
21
17.0043553948
31
0.0000000000
11
-11.9886599667
21
17.0592687135
31
0.0000000000
11
-11.9893402362
21
17.1101315081
31
0.0000000000
11
-11.9900654096
21
17.1566545341
31
0.0000000000
11
-11.9908313632
21
17.1985730953
31
0.0000000000
11
-11.9916337392
21
17.2356485385
31
0.0000000000
11
-11.9924679739
21
17.2676700337
31
0.0000000000
11
-11.9933293342
21
17.2944554960
31
0.0000000000
11
-11.9942128917
21
17.3158521688
31
0.0000000000
11
-11.9951136646
21
17.3317387640
31
0.0000000000
0
SPLINE
5
25B
100
AcDbEntity
8
0
100
AcDbSpline
62
9
6
CONTINUOUS
70
0
71
3
72
25
73
21
74
19
42
0.0000001000
43
0.0000001000
44
0.0000000001
12
-0.0004462700
22
0.6625312298
32
0.0000000000
13
-0.0652644253
23
0.6593090205
33
0.0000000000
40
0.0000000000
40
0.0000000000
40
0.0000000000
40
0.0000000000
40
0.0794220638
40
0.1581801434
40
0.2358085054
40
0.3118647759
40
0.3859170398
40
0.4575445624
40
0.5263399164
40
0.5919120683
40
0.6538884451
40
0.7119167771
40
0.7656672946
40
0.8148347204
40
0.8591398904
40
0.8983313732
40
0.9321874924
40
0.9605175627
40
0.9831632770
40
1.0000000000
40
1.0000000000
40
1.0000000000
40
1.0000000000
10
-12.2849802401
20
16.3739188688
30
0.0000000000
10
-12.2849920547
20
16.3914587346
30
0.0000000000
10
-12.2850385135
20
16.4263918187
30
0.0000000000
10
-12.2851770618
20
16.4784684942
30
0.0000000000
10
-12.2853835120
20
16.5298016259
30
0.0000000000
10
-12.2856566633
20
16.5800951815
30
0.0000000000
10
-12.2859949289
20
16.6290630640
30
0.0000000000
10
-12.2863963442
20
16.6764268874
30
0.0000000000
10
-12.2868585683
20
16.7219172860
30
0.0000000000
10
-12.2873788935
20
16.7652755188
30
0.0000000000
10
-12.2879542539
20
16.8062550096
30
0.0000000000
10
-12.2885812269
20
16.8446226892
30
0.0000000000
10
-12.2892560401
20
16.8801603164
30
0.0000000000
10
-12.2899745310
20
16.9126657523
30
0.0000000000
10
-12.2907321974
20
16.9419540692
30
0.0000000000
10
-12.2915238256
20
16.9678587497
30
0.0000000000
10
-12.2923441607
20
16.9902324612
30
0.0000000000
10
-12.2931848097
20
17.0089486661
30
0.0000000000
10
-12.2940403796
20
17.0239002587
30
0.0000000000
10
-12.2947016934
20
17.0325962370
30
0.0000000000
10
-12.2950679731
20
17.0362964381
30
0.0000000000
11
-12.2849802401
21
16.3739188688
31
0.0000000000
11
-12.2850504261
21
16.4265384315
31
0.0000000000
11
-12.2851896496
21
16.4787179449
31
0.0000000000
11
-12.2853971124
21
16.5301487524
31
0.0000000000
11
-12.2856716341
21
16.5805376704
31
0.0000000000
11
-12.2860116554
21
16.6295984407
31
0.0000000000
11
-12.2864152453
21
16.6770522060
31
0.0000000000
11
-12.2868801086
21
16.7226289161
31
0.0000000000
11
-12.2874036030
21
16.7660693702
31
0.0000000000
11
-12.2879827537
21
16.8071265802
31
0.0000000000
11
-12.2886142681
21
16.8455669840
31
0.0000000000
11
-12.2892945555
21
16.8811718902
31
0.0000000000
11
-12.2900197488
21
16.9137387794
31
0.0000000000
11
-12.2907857241
21
16.9430823491
31
0.0000000000
11
-12.2915881221
21
16.9690355354
31
0.0000000000
11
-12.2924223815
21
16.9914507572
31
0.0000000000
11
-12.2932837617
21
17.0102005420
31
0.0000000000
11
-12.2941673508
21
17.0251779975
31
0.0000000000
11
-12.2950679731
21
17.0362964381
31
0.0000000000
0
SPLINE
5
25C
100
AcDbEntity
8
0
100
AcDbSpline
62
9
6
CONTINUOUS
70
0
71
3
72
21
73
17
74
15
42
0.0000001000
43
0.0000001000
44
0.0000000001
12
0.1238971533
22
-0.2739463655
32
0.0000000000
13
0.3006610631
23
-0.0002021836
33
0.0000000000
40
0.0000000000
40
0.0000000000
40
0.0000000000
40
0.0000000000
40
0.0091178633
40
0.0297823121
40
0.0621959371
40
0.1060527834
40
0.1608483737
40
0.2259261895
40
0.3004961055
40
0.3836477779
40
0.4743634213
40
0.5715311043
40
0.6739588503
40
0.7803895492
40
0.8895165812
40
1.0000000000
40
1.0000000000
40
1.0000000000
40
1.0000000000
10
-12.2849802401
20
-16.3739188688
30
0.0000000000
10
-12.2846036810
20
-16.3747514706
30
0.0000000000
10
-12.2811445546
20
-16.3755054035
30
0.0000000000
10
-12.2754990300
20
-16.3767823588
30
0.0000000000
10
-12.2655937441
20
-16.3778537713
30
0.0000000000
10
-12.2526146656
20
-16.3790303964
30
0.0000000000
10
-12.2362009944
20
-16.3801125953
30
0.0000000000
10
-12.2167546050
20
-16.3811466325
30
0.0000000000
10
-12.1944407280
20
-16.3820922156
30
0.0000000000
10
-12.1695580414
20
-16.3829439171
30
0.0000000000
10
-12.1424043707
20
-16.3836874993
30
0.0000000000
10
-12.1133160157
20
-16.3843139288
30
0.0000000000
10
-12.0826498886
20
-16.3848148030
30
0.0000000000
10
-12.0507832974
20
-16.3851837436
30
0.0000000000
10
-12.0181080536
20
-16.3854160112
30
0.0000000000
10
-11.9960986189
20
-16.3854776476
30
0.0000000000
10
-11.9850259316
20
-16.3854850935
30
0.0000000000
11
-12.2849802401
21
-16.3739188688
31
0.0000000000
11
-12.2825564942
21
-16.3751997510
31
0.0000000000
11
-12.2764736682
21
-16.3764648807
31
0.0000000000
11
-12.2668065695
21
-16.3776986991
31
0.0000000000
11
-12.2536740858
21
-16.3788860326
31
0.0000000000
11
-12.2372377226
21
-16.3800122790
31
0.0000000000
11
-12.2176996169
21
-16.3810635877
31
0.0000000000
11
-12.1953000517
21
-16.3820270295
31
0.0000000000
11
-12.1703145004
21
-16.3828907557
31
0.0000000000
11
-12.1430502396
21
-16.3836441442
31
0.0000000000
11
-12.1138425696
21
-16.3842779296
31
0.0000000000
11
-12.0830506913
21
-16.3847843176
31
0.0000000000
11
-12.0510532882
21
-16.3851570805
31
0.0000000000
11
-12.0182438697
21
-16.3853916340
31
0.0000000000
11
-11.9850259316
21
-16.3854850935
31
0.0000000000
0
SPLINE
5
25D
100
AcDbEntity
8
0
100
AcDbSpline
62
9
6
CONTINUOUS
70
0
71
3
72
17
73
13
74
11
42
0.0000001000
43
0.0000001000
44
0.0000000001
12
0.0220545084
22
32.7478327603
32
0.0000000000
13
-0.0220545084
23
32.7478327603
33
0.0000000000
40
0.0000000000
40
0.0000000000
40
0.0000000000
40
0.0000000000
40
0.0999643152
40
0.1999524220
40
0.2999583699
40
0.3999762120
40
0.5000000011
40
0.6000237902
40
0.7000416323
40
0.8000475802
40
0.9000356870
40
1.0000000000
40
1.0000000000
40
1.0000000000
40
1.0000000000
10
-12.2849802401
20
-16.3739188688
30
0.0000000000
10
-12.2842453522
20
-15.2827139771
30
0.0000000000
10
-12.2829225603
20
-13.1000443836
30
0.0000000000
10
-12.2813793949
20
-9.8257151510
30
0.0000000000
10
-12.2802770684
20
-6.5508014422
30
0.0000000000
10
-12.2796156463
20
-3.2754981093
30
0.0000000000
10
-12.2793951679
20
0.0000000358
30
0.0000000000
10
-12.2796156463
20
3.2754981809
30
0.0000000000
10
-12.2802770684
20
6.5508015138
30
0.0000000000
10
-12.2813793950
20
9.8257152225
30
0.0000000000
10
-12.2829225603
20
13.1000444312
30
0.0000000000
10
-12.2842453522
20
15.2827140010
30
0.0000000000
10
-12.2849802401
20
16.3739188688
30
0.0000000000
11
-12.2849802401
21
-16.3739188688
31
0.0000000000
11
-12.2829962294
21
-13.1003040527
31
0.0000000000
11
-12.2814529875
21
-9.8259098740
31
0.0000000000
11
-12.2803506064
21
-6.5509312587
31
0.0000000000
11
-12.2796891515
21
-3.2755630158
31
0.0000000000
11
-12.2794686621
21
0.0000000358
31
0.0000000000
11
-12.2796891515
21
3.2755630875
31
0.0000000000
11
-12.2803506064
21
6.5509313303
31
0.0000000000
11
-12.2814529876
21
9.8259099455
31
0.0000000000
11
-12.2829962294
21
13.1003041242
31
0.0000000000
11
-12.2849802401
21
16.3739188688
31
0.0000000000
0
SPLINE
5
25E
100
AcDbEntity
8
0
100
AcDbSpline
62
9
6
CONTINUOUS
70
0
71
3
72
22
73
18
74
16
42
0.0000001000
43
0.0000001000
44
0.0000000001
12
-0.0014367926
22
-0.4669669341
32
0.0000000000
13
-0.4669670641
23
-0.0013938929
33
0.0000000000
40
0.0000000000
40
0.0000000000
40
0.0000000000
40
0.0000000000
40
0.0661103978
40
0.1322638517
40
0.1984799636
40
0.2647755566
40
0.3311639400
40
0.3976543367
40
0.4642514965
40
0.5309555097
40
0.5977618250
40
0.6646614679
40
0.7316414458
40
0.7986853212
40
0.8657739246
40
0.9328861790
40
1.0000000000
40
1.0000000000
40
1.0000000000
40
1.0000000000
10
12.2950679731
20
-17.0362964381
30
0.0000000000
10
12.2950363108
20
-17.0465868947
30
0.0000000000
10
12.2938787455
20
-17.0671878088
30
0.0000000000
10
12.2888811190
20
-17.0977313631
30
0.0000000000
10
12.2806765568
20
-17.1276071760
30
0.0000000000
10
12.2693549157
20
-17.1564844374
30
0.0000000000
10
12.2550400968
20
-17.1840491202
30
0.0000000000
10
12.2378886799
20
-17.2100000816
30
0.0000000000
10
12.2180881741
20
-17.2340543129
30
0.0000000000
10
12.1958549440
20
-17.2559494849
30
0.0000000000
10
12.1714318152
20
-17.2754469293
30
0.0000000000
10
12.1450854441
20
-17.2923341765
30
0.0000000000
10
12.1171032684
20
-17.3064272533
30
0.0000000000
10
12.0877908746
20
-17.3175726560
30
0.0000000000
10
12.0574668037
20
-17.3256490031
30
0.0000000000
10
12.0264660885
20
-17.3305683173
30
0.0000000000
10
12.0055603125
20
-17.3317075808
30
0.0000000000
10
11.9951136646
20
-17.3317387640
30
0.0000000000
11
12.2950679731
21
-17.0362964381
31
0.0000000000
11
12.2933362828
21
-17.0671193475
31
0.0000000000
11
12.2883497872
21
-17.0976058552
31
0.0000000000
11
12.2801629089
21
-17.1274232313
31
0.0000000000
11
12.2688649997
21
-17.1562460484
31
0.0000000000
11
12.2545793651
21
-17.1837597340
31
0.0000000000
11
12.2374619187
21
-17.2096640034
31
0.0000000000
11
12.2176994804
21
-17.2336761370
31
0.0000000000
11
12.1955077379
21
-17.2555340662
31
0.0000000000
11
12.1711288919
21
-17.2749992333
31
0.0000000000
11
12.1448290136
21
-17.2918591951
31
0.0000000000
11
12.1168951402
21
-17.3059299418
31
0.0000000000
11
12.0876321423
21
-17.3170579052
31
0.0000000000
11
12.0573593965
21
-17.3251216346
31
0.0000000000
11
12.0264073001
21
-17.3300331222
31
0.0000000000
11
11.9951136646
21
-17.3317387640
31
0.0000000000
0
SPLINE
5
25F
100
AcDbEntity
8
0
100
AcDbSpline
62
9
6
CONTINUOUS
70
0
71
3
72
25
73
21
74
19
42
0.0000001000
43
0.0000001000
44
0.0000000001
12
0.0004462608
22
-0.6625312299
32
0.0000000000
13
0.0652641256
23
-0.6593090502
33
0.0000000000
40
0.0000000000
40
0.0000000000
40
0.0000000000
40
0.0000000000
40
0.0794270877
40
0.1581852317
40
0.2358136289
40
0.3118699109
40
0.3859221436
40
0.4575496038
40
0.5263448632
40
0.5919168691
40
0.6538929963
40
0.7119209839
40
0.7656710826
40
0.8148380745
40
0.8591428137
40
0.8983338688
40
0.9321895642
40
0.9605192129
40
0.9831645352
40
1.0000000000
40
1.0000000000
40
1.0000000000
40
1.0000000000
10
12.2849802401
20
-16.3739188688
30
0.0000000000
10
12.2849920552
20
-16.3914598441
30
0.0000000000
10
12.2850385174
20
-16.4263940519
30
0.0000000000
10
12.2851770727
20
-16.4784718589
30
0.0000000000
10
12.2853835280
20
-16.5298050151
30
0.0000000000
10
12.2856566840
20
-16.5800985742
30
0.0000000000
10
12.2859949548
20
-16.6290664385
30
0.0000000000
10
12.2863963751
20
-16.6764302202
30
0.0000000000
10
12.2868586044
20
-16.7219205519
30
0.0000000000
10
12.2873789345
20
-16.7652786764
30
0.0000000000
10
12.2879542993
20
-16.8062580036
30
0.0000000000
10
12.2885812757
20
-16.8446254595
30
0.0000000000
10
12.2892560915
20
-16.8801628222
30
0.0000000000
10
12.2899745842
20
-16.9126679746
30
0.0000000000
10
12.2907322519
20
-16.9419560059
30
0.0000000000
10
12.2915238812
20
-16.9678604031
30
0.0000000000
10
12.2923442160
20
-16.9902338333
30
0.0000000000
10
12.2931848666
20
-17.0089497645
30
0.0000000000
10
12.2940404212
20
-17.0239008999
30
0.0000000000
10
12.2947017225
20
-17.0325965133
30
0.0000000000
10
12.2950679731
20
-17.0362964381
30
0.0000000000
11
12.2849802401
21
-16.3739188688
31
0.0000000000
11
12.2850504328
21
-16.4265417600
31
0.0000000000
11
12.2851896608
21
-16.4787213161
31
0.0000000000
11
12.2853971284
21
-16.5301521468
31
0.0000000000
11
12.2856716551
21
-16.5805410724
31
0.0000000000
11
12.2860116814
21
-16.6296018221
31
0.0000000000
11
12.2864152764
21
-16.6770555459
31
0.0000000000
11
12.2868801450
21
-16.7226321934
31
0.0000000000
11
12.2874036445
21
-16.7660725507
31
0.0000000000
11
12.2879827996
21
-16.8071295952
31
0.0000000000
11
12.2886143175
21
-16.8455697707
31
0.0000000000
11
12.2892946073
21
-16.8811743994
31
0.0000000000
11
12.2900198024
21
-16.9137410010
31
0.0000000000
11
12.2907857790
21
-16.9430842852
31
0.0000000000
11
12.2915881781
21
-16.9690371879
31
0.0000000000
11
12.2924224381
21
-16.9914521288
31
0.0000000000
11
12.2932838185
21
-17.0102016339
31
0.0000000000
11
12.2941674075
21
-17.0251788292
31
0.0000000000
11
12.2950679731
21
-17.0362964381
31
0.0000000000
0
SPLINE
5
260
100
AcDbEntity
8
0
100
AcDbSpline
62
9
6
CONTINUOUS
70
0
71
3
72
25
73
21
74
19
42
0.0000001000
43
0.0000001000
44
0.0000000001
12
0.0004462007
22
-0.9463612701
32
0.0000000000
13
0.0654172135
23
-0.9440976861
33
0.0000000000
40
0.0000000000
40
0.0000000000
40
0.0000000000
40
0.0000000000
40
0.0794495825
40
0.1582149085
40
0.2358501170
40
0.3119127571
40
0.3859707963
40
0.4576034164
40
0.5264030870
40
0.5919786581
40
0.6539574351
40
0.7119870105
40
0.7657374517
40
0.8149033151
40
0.8592051632
40
0.8983911718
40
0.9322390836
40
0.9605573426
40
0.9831860200
40
1.0000000000
40
1.0000000000
40
1.0000000000
40
1.0000000000
10
11.9850259316
20
-16.3854850935
30
0.0000000000
10
11.9850377484
20
-16.4105477628
30
0.0000000000
10
11.9850842187
20
-16.4604572424
30
0.0000000000
10
11.9852227875
20
-16.5348569375
30
0.0000000000
10
11.9854292482
20
-16.6081880483
30
0.0000000000
10
11.9857024030
20
-16.6800339996
30
0.0000000000
10
11.9860406707
20
-16.7499861141
30
0.0000000000
10
11.9864420834
20
-16.8176467258
30
0.0000000000
10
11.9869043019
20
-16.8826310595
30
0.0000000000
10
11.9874246177
20
-16.9445695126
30
0.0000000000
10
11.9879999649
20
-17.0031098600
30
0.0000000000
10
11.9886269209
20
-17.0579191717
30
0.0000000000
10
11.9893017131
20
-17.1086857086
30
0.0000000000
10
11.9900201793
20
-17.1551207205
30
0.0000000000
10
11.9907778155
20
-17.1969600342
30
0.0000000000
10
11.9915694064
20
-17.2339656815
30
0.0000000000
10
11.9923896915
20
-17.2659271668
30
0.0000000000
10
11.9932302470
20
-17.2926631475
30
0.0000000000
10
11.9940857197
20
-17.3140215134
30
0.0000000000
10
11.9947470233
20
-17.3264474175
30
0.0000000000
10
11.9951136646
20
-17.3317387640
30
0.0000000000
11
11.9850259316
21
-16.3854850935
31
0.0000000000
11
11.9850961418
21
-16.4606730769
31
0.0000000000
11
11.9852353760
21
-16.5352134091
31
0.0000000000
11
11.9854428480
21
-16.6086840789
31
0.0000000000
11
11.9857173745
21
-16.6806663001
31
0.0000000000
11
11.9860573976
21
-16.7507511431
31
0.0000000000
11
11.9864609857
21
-16.8185402866
31
0.0000000000
11
11.9869258440
21
-16.8836479780
31
0.0000000000
11
11.9874493299
21
-16.9457039577
31
0.0000000000
11
11.9880284688
21
-17.0043554192
31
0.0000000000
11
11.9886599683
21
-17.0592687369
31
0.0000000000
11
11.9893402378
21
-17.1101315295
31
0.0000000000
11
11.9900654111
21
-17.1566545521
31
0.0000000000
11
11.9908313648
21
-17.1985731126
31
0.0000000000
11
11.9916337408
21
-17.2356485563
31
0.0000000000
11
11.9924679756
21
-17.2676700476
31
0.0000000000
11
11.9933293355
21
-17.2944555080
31
0.0000000000
11
11.9942128936
21
-17.3158521792
31
0.0000000000
11
11.9951136646
21
-17.3317387640
31
0.0000000000
0
SPLINE
5
261
100
AcDbEntity
8
0
100
AcDbSpline
62
9
6
CONTINUOUS
70
0
71
3
72
21
73
17
74
15
42
0.0000001000
43
0.0000001000
44
0.0000000001
12
-0.1238975147
22
-0.2739462016
32
0.0000000000
13
-0.3006610628
23
-0.0002021835
33
0.0000000000
40
0.0000000000
40
0.0000000000
40
0.0000000000
40
0.0000000000
40
0.0091178687
40
0.0297823226
40
0.0621959516
40
0.1060528010
40
0.1608483933
40
0.2259262100
40
0.3004961259
40
0.3836477973
40
0.4743634388
40
0.5715311193
40
0.6739588621
40
0.7803895573
40
0.8895165853
40
1.0000000000
40
1.0000000000
40
1.0000000000
40
1.0000000000
10
12.2849802401
20
-16.3739188688
30
0.0000000000
10
12.2846036797
20
-16.3747514706
30
0.0000000000
10
12.2811445534
20
-16.3755054032
30
0.0000000000
10
12.2754990262
20
-16.3767823587
30
0.0000000000
10
12.2655937397
20
-16.3778537711
30
0.0000000000
10
12.2526146600
20
-16.3790303961
30
0.0000000000
10
12.2362009884
20
-16.3801125949
30
0.0000000000
10
12.2167545987
20
-16.3811466321
30
0.0000000000
10
12.1944407218
20
-16.3820922152
30
0.0000000000
10
12.1695580355
20
-16.3829439166
30
0.0000000000
10
12.1424043653
20
-16.3836874987
30
0.0000000000
10
12.1133160112
20
-16.3843139281
30
0.0000000000
10
12.0826498850
20
-16.3848148023
30
0.0000000000
10
12.0507832949
20
-16.3851837429
30
0.0000000000
10
12.0181080523
20
-16.3854160105
30
0.0000000000
10
11.9960986185
20
-16.3854776468
30
0.0000000000
10
11.9850259316
20
-16.3854850928
30
0.0000000000
11
12.2849802401
21
-16.3739188688
31
0.0000000000
11
12.2825564924
21
-16.3751997509
31
0.0000000000
11
12.2764736648
21
-16.3764648806
31
0.0000000000
11
12.2668065649
21
-16.3776986990
31
0.0000000000
11
12.2536740803
21
-16.3788860323
31
0.0000000000
11
12.2372377165
21
-16.3800122787
31
0.0000000000
11
12.2176996105
21
-16.3810635873
31
0.0000000000
11
12.1953000453
21
-16.3820270290
31
0.0000000000
11
12.1703144944
21
-16.3828907552
31
0.0000000000
11
12.1430502342
21
-16.3836441436
31
0.0000000000
11
12.1138425650
21
-16.3842779290
31
0.0000000000
11
12.0830506877
21
-16.3847843169
31
0.0000000000
11
12.0510532857
21
-16.3851570798
31
0.0000000000
11
12.0182438685
21
-16.3853916332
31
0.0000000000
11
11.9850259316
21
-16.3854850928
31
0.0000000000
0
SPLINE
5
262
100
AcDbEntity
8
0
100
AcDbSpline
62
9
6
CONTINUOUS
70
0
71
3
72
17
73
13
74
11
42
0.0000001000
43
0.0000001000
44
0.0000000001
12
-0.0220545084
22
-32.7478327603
32
0.0000000000
13
0.0220545084
23
-32.7478327603
33
0.0000000000
40
0.0000000000
40
0.0000000000
40
0.0000000000
40
0.0000000000
40
0.0999643130
40
0.1999524198
40
0.2999583677
40
0.3999762098
40
0.4999999989
40
0.6000237880
40
0.7000416301
40
0.8000475780
40
0.9000356848
40
1.0000000000
40
1.0000000000
40
1.0000000000
40
1.0000000000
10
12.2849802401
20
16.3739188688
30
0.0000000000
10
12.2842453522
20
15.2827140010
30
0.0000000000
10
12.2829225603
20
13.1000444312
30
0.0000000000
10
12.2813793950
20
9.8257152225
30
0.0000000000
10
12.2802770684
20
6.5508015138
30
0.0000000000
10
12.2796156463
20
3.2754981809
30
0.0000000000
10
12.2793951679
20
0.0000000358
30
0.0000000000
10
12.2796156463
20
-3.2754981093
30
0.0000000000
10
12.2802770684
20
-6.5508014422
30
0.0000000000
10
12.2813793949
20
-9.8257151510
30
0.0000000000
10
12.2829225603
20
-13.1000443836
30
0.0000000000
10
12.2842453522
20
-15.2827139771
30
0.0000000000
10
12.2849802401
20
-16.3739188688
30
0.0000000000
11
12.2849802401
21
16.3739188688
31
0.0000000000
11
12.2829962294
21
13.1003041242
31
0.0000000000
11
12.2814529876
21
9.8259099455
31
0.0000000000
11
12.2803506064
21
6.5509313303
31
0.0000000000
11
12.2796891515
21
3.2755630875
31
0.0000000000
11
12.2794686621
21
0.0000000358
31
0.0000000000
11
12.2796891515
21
-3.2755630158
31
0.0000000000
11
12.2803506064
21
-6.5509312587
31
0.0000000000
11
12.2814529875
21
-9.8259098740
31
0.0000000000
11
12.2829962294
21
-13.1003040527
31
0.0000000000
11
12.2849802401
21
-16.3739188688
31
0.0000000000
0
SPLINE
5
263
100
AcDbEntity
8
0
100
AcDbSpline
62
9
6
CONTINUOUS
70
0
71
3
72
21
73
17
74
15
42
0.0000001000
43
0.0000001000
44
0.0000000001
12
-0.1238971534
22
0.2739463654
32
0.0000000000
13
-0.3006610631
23
0.0002021836
33
0.0000000000
40
0.0000000000
40
0.0000000000
40
0.0000000000
40
0.0000000000
40
0.0091178633
40
0.0297823121
40
0.0621959371
40
0.1060527834
40
0.1608483737
40
0.2259261895
40
0.3004961055
40
0.3836477779
40
0.4743634213
40
0.5715311044
40
0.6739588503
40
0.7803895492
40
0.8895165812
40
1.0000000000
40
1.0000000000
40
1.0000000000
40
1.0000000000
10
12.2849802401
20
16.3739188688
30
0.0000000000
10
12.2846036810
20
16.3747514706
30
0.0000000000
10
12.2811445546
20
16.3755054035
30
0.0000000000
10
12.2754990300
20
16.3767823588
30
0.0000000000
10
12.2655937441
20
16.3778537713
30
0.0000000000
10
12.2526146656
20
16.3790303964
30
0.0000000000
10
12.2362009944
20
16.3801125953
30
0.0000000000
10
12.2167546050
20
16.3811466325
30
0.0000000000
10
12.1944407280
20
16.3820922156
30
0.0000000000
10
12.1695580414
20
16.3829439171
30
0.0000000000
10
12.1424043707
20
16.3836874993
30
0.0000000000
10
12.1133160157
20
16.3843139288
30
0.0000000000
10
12.0826498886
20
16.3848148030
30
0.0000000000
10
12.0507832974
20
16.3851837436
30
0.0000000000
10
12.0181080536
20
16.3854160112
30
0.0000000000
10
11.9960986189
20
16.3854776476
30
0.0000000000
10
11.9850259316
20
16.3854850935
30
0.0000000000
11
12.2849802401
21
16.3739188688
31
0.0000000000
11
12.2825564942
21
16.3751997510
31
0.0000000000
11
12.2764736682
21
16.3764648807
31
0.0000000000
11
12.2668065695
21
16.3776986991
31
0.0000000000
11
12.2536740858
21
16.3788860326
31
0.0000000000
11
12.2372377226
21
16.3800122790
31
0.0000000000
11
12.2176996169
21
16.3810635877
31
0.0000000000
11
12.1953000517
21
16.3820270295
31
0.0000000000
11
12.1703145004
21
16.3828907557
31
0.0000000000
11
12.1430502396
21
16.3836441442
31
0.0000000000
11
12.1138425696
21
16.3842779296
31
0.0000000000
11
12.0830506913
21
16.3847843176
31
0.0000000000
11
12.0510532882
21
16.3851570805
31
0.0000000000
11
12.0182438697
21
16.3853916340
31
0.0000000000
11
11.9850259316
21
16.3854850935
31
0.0000000000
0
SPLINE
5
264
100
AcDbEntity
8
0
100
AcDbSpline
62
9
6
CONTINUOUS
70
0
71
3
72
25
73
21
74
19
42
0.0000001000
43
0.0000001000
44
0.0000000001
12
-0.0652644252
22
-0.6593090205
32
0.0000000000
13
-0.0004462700
23
-0.6625312298
33
0.0000000000
40
0.0000000000
40
0.0000000000
40
0.0000000000
40
0.0000000000
40
0.0168367230
40
0.0394824373
40
0.0678125076
40
0.1016686268
40
0.1408601096
40
0.1851652796
40
0.2343327054
40
0.2880832229
40
0.3461115549
40
0.4080879317
40
0.4736600836
40
0.5424554376
40
0.6140829602
40
0.6881352241
40
0.7641914946
40
0.8418198566
40
0.9205779362
40
1.0000000000
40
1.0000000000
40
1.0000000000
40
1.0000000000
10
12.2950679731
20
17.0362964381
30
0.0000000000
10
12.2947016934
20
17.0325962370
30
0.0000000000
10
12.2940403796
20
17.0239002587
30
0.0000000000
10
12.2931848097
20
17.0089486661
30
0.0000000000
10
12.2923441607
20
16.9902324612
30
0.0000000000
10
12.2915238256
20
16.9678587497
30
0.0000000000
10
12.2907321974
20
16.9419540692
30
0.0000000000
10
12.2899745310
20
16.9126657523
30
0.0000000000
10
12.2892560401
20
16.8801603164
30
0.0000000000
10
12.2885812269
20
16.8446226892
30
0.0000000000
10
12.2879542539
20
16.8062550096
30
0.0000000000
10
12.2873788935
20
16.7652755188
30
0.0000000000
10
12.2868585683
20
16.7219172860
30
0.0000000000
10
12.2863963442
20
16.6764268874
30
0.0000000000
10
12.2859949289
20
16.6290630640
30
0.0000000000
10
12.2856566633
20
16.5800951815
30
0.0000000000
10
12.2853835120
20
16.5298016259
30
0.0000000000
10
12.2851770618
20
16.4784684942
30
0.0000000000
10
12.2850385135
20
16.4263918187
30
0.0000000000
10
12.2849920547
20
16.3914587346
30
0.0000000000
10
12.2849802401
20
16.3739188688
30
0.0000000000
11
12.2950679731
21
17.0362964381
31
0.0000000000
11
12.2941673508
21
17.0251779975
31
0.0000000000
11
12.2932837617
21
17.0102005420
31
0.0000000000
11
12.2924223815
21
16.9914507572
31
0.0000000000
11
12.2915881221
21
16.9690355354
31
0.0000000000
11
12.2907857241
21
16.9430823491
31
0.0000000000
11
12.2900197488
21
16.9137387794
31
0.0000000000
11
12.2892945555
21
16.8811718902
31
0.0000000000
11
12.2886142681
21
16.8455669840
31
0.0000000000
11
12.2879827537
21
16.8071265802
31
0.0000000000
11
12.2874036030
21
16.7660693702
31
0.0000000000
11
12.2868801086
21
16.7226289161
31
0.0000000000
11
12.2864152453
21
16.6770522060
31
0.0000000000
11
12.2860116554
21
16.6295984407
31
0.0000000000
11
12.2856716341
21
16.5805376704
31
0.0000000000
11
12.2853971124
21
16.5301487524
31
0.0000000000
11
12.2851896496
21
16.4787179449
31
0.0000000000
11
12.2850504261
21
16.4265384315
31
0.0000000000
11
12.2849802401
21
16.3739188688
31
0.0000000000
0
SPLINE
5
265
100
AcDbEntity
8
0
100
AcDbSpline
62
9
6
CONTINUOUS
70
0
71
3
72
25
73
21
74
19
42
0.0000001000
43
0.0000001000
44
0.0000000001
12
-0.0654163802
22
-0.9440977439
32
0.0000000000
13
-0.0004462263
23
-0.9463612702
33
0.0000000000
40
0.0000000000
40
0.0000000000
40
0.0000000000
40
0.0000000000
40
0.0168139910
40
0.0394426702
40
0.0677609311
40
0.1016088470
40
0.1407948552
40
0.1850967040
40
0.2342625710
40
0.2880130144
40
0.3460425906
40
0.4080213695
40
0.4735969413
40
0.5423966103
40
0.6140292331
40
0.6880872778
40
0.7641499146
40
0.8417851257
40
0.9205504577
40
1.0000000000
40
1.0000000000
40
1.0000000000
40
1.0000000000
10
11.9951136646
20
17.3317387640
30
0.0000000000
10
11.9947470277
20
17.3264474136
30
0.0000000000
10
11.9940857140
20
17.3140215062
30
0.0000000000
10
11.9932302475
20
17.2926631353
30
0.0000000000
10
11.9923896890
20
17.2659271523
30
0.0000000000
10
11.9915694051
20
17.2339656652
30
0.0000000000
10
11.9907778138
20
17.1969600165
30
0.0000000000
10
11.9900201777
20
17.1551207016
30
0.0000000000
10
11.9893017116
20
17.1086856876
30
0.0000000000
10
11.9886269194
20
17.0579191486
30
0.0000000000
10
11.9879999635
20
17.0031098353
30
0.0000000000
10
11.9874246164
20
16.9445694869
30
0.0000000000
10
11.9869043008
20
16.8826310334
30
0.0000000000
10
11.9864420826
20
16.8176466992
30
0.0000000000
10
11.9860406700
20
16.7499860854
30
0.0000000000
10
11.9857024026
20
16.6800339694
30
0.0000000000
10
11.9854292477
20
16.6081880166
30
0.0000000000
10
11.9852227878
20
16.5348569041
30
0.0000000000
10
11.9850842179
20
16.4604572189
30
0.0000000000
10
11.9850377490
20
16.4105477501
30
0.0000000000
10
11.9850259316
20
16.3854850935
30
0.0000000000
11
11.9951136646
21
17.3317387640
31
0.0000000000
11
11.9942128917
21
17.3158521688
31
0.0000000000
11
11.9933293342
21
17.2944554960
31
0.0000000000
11
11.9924679739
21
17.2676700337
31
0.0000000000
11
11.9916337392
21
17.2356485385
31
0.0000000000
11
11.9908313632
21
17.1985730953
31
0.0000000000
11
11.9900654096
21
17.1566545341
31
0.0000000000
11
11.9893402362
21
17.1101315081
31
0.0000000000
11
11.9886599667
21
17.0592687135
31
0.0000000000
11
11.9880284674
21
17.0043553948
31
0.0000000000
11
11.9874493286
21
16.9457039316
31
0.0000000000
11
11.9869258429
21
16.8836479513
31
0.0000000000
11
11.9864609849
21
16.8185402613
31
0.0000000000
11
11.9860573970
21
16.7507511153
31
0.0000000000
11
11.9857173740
21
16.6806662671
31
0.0000000000
11
11.9854428477
21
16.6086840490
31
0.0000000000
11
11.9852353760
21
16.5352133767
31
0.0000000000
11
11.9850961415
21
16.4606730389
31
0.0000000000
11
11.9850259316
21
16.3854850935
31
0.0000000000
0
SPLINE
5
266
100
AcDbEntity
8
0
100
AcDbSpline
62
9
6
CONTINUOUS
70
0
71
3
72
22
73
18
74
16
42
0.0000001000
43
0.0000001000
44
0.0000000001
12
-0.0014367926
22
0.4669669341
32
0.0000000000
13
-0.4669670641
23
0.0013938929
33
0.0000000000
40
0.0000000000
40
0.0000000000
40
0.0000000000
40
0.0000000000
40
0.0661103950
40
0.1322638465
40
0.1984799564
40
0.2647755480
40
0.3311639304
40
0.3976543265
40
0.4642514862
40
0.5309554997
40
0.5977618156
40
0.6646614594
40
0.7316414387
40
0.7986853157
40
0.8657739208
40
0.9328861770
40
1.0000000000
40
1.0000000000
40
1.0000000000
40
1.0000000000
10
12.2950679731
20
17.0362964381
30
0.0000000000
10
12.2950363108
20
17.0465868942
30
0.0000000000
10
12.2938787456
20
17.0671878076
30
0.0000000000
10
12.2888811195
20
17.0977313608
30
0.0000000000
10
12.2806765578
20
17.1276071729
30
0.0000000000
10
12.2693549173
20
17.1564844337
30
0.0000000000
10
12.2550400990
20
17.1840491163
30
0.0000000000
10
12.2378886827
20
17.2100000778
30
0.0000000000
10
12.2180881773
20
17.2340543094
30
0.0000000000
10
12.1958549475
20
17.2559494819
30
0.0000000000
10
12.1714318188
20
17.2754469268
30
0.0000000000
10
12.1450854475
20
17.2923341746
30
0.0000000000
10
12.1171032714
20
17.3064272520
30
0.0000000000
10
12.0877908771
20
17.3175726552
30
0.0000000000
10
12.0574668054
20
17.3256490027
30
0.0000000000
10
12.0264660894
20
17.3305683172
30
0.0000000000
10
12.0055603128
20
17.3317075808
30
0.0000000000
10
11.9951136646
20
17.3317387640
30
0.0000000000
11
12.2950679731
21
17.0362964381
31
0.0000000000
11
12.2933362829
21
17.0671193462
31
0.0000000000
11
12.2883497877
21
17.0976058529
31
0.0000000000
11
12.2801629100
21
17.1274232281
31
0.0000000000
11
12.2688650014
21
17.1562460447
31
0.0000000000
11
12.2545793674
21
17.1837597301
31
0.0000000000
11
12.2374619215
21
17.2096639995
31
0.0000000000
11
12.2176994837
21
17.2336761334
31
0.0000000000
11
12.1955077414
21
17.2555340631
31
0.0000000000
11
12.1711288955
21
17.2749992307
31
0.0000000000
11
12.1448290171
21
17.2918591931
31
0.0000000000
11
12.1168951432
21
17.3059299405
31
0.0000000000
11
12.0876321447
21
17.3170579044
31
0.0000000000
11
12.0573593983
21
17.3251216342
31
0.0000000000
11
12.0264073010
21
17.3300331221
31
0.0000000000
11
11.9951136646
21
17.3317387640
31
0.0000000000
0
SPLINE
5
267
100
AcDbEntity
8
0
100
AcDbSpline
62
9
6
CONTINUOUS
70
0
71
3
72
25
73
21
74
19
42
0.0000001000
43
0.0000001000
44
0.0000000001
12
0.0652641256
22
0.6593090502
32
0.0000000000
13
0.0004462608
23
0.6625312299
33
0.0000000000
40
0.0000000000
40
0.0000000000
40
0.0000000000
40
0.0000000000
40
0.0168354648
40
0.0394807871
40
0.0678104358
40
0.1016661312
40
0.1408571863
40
0.1851619255
40
0.2343289174
40
0.2880790161
40
0.3461070037
40
0.4080831309
40
0.4736551368
40
0.5424503962
40
0.6140778564
40
0.6881300891
40
0.7641863711
40
0.8418147683
40
0.9205729123
40
1.0000000000
40
1.0000000000
40
1.0000000000
40
1.0000000000
10
-12.2950679731
20
-17.0362964381
30
0.0000000000
10
-12.2947017225
20
-17.0325965133
30
0.0000000000
10
-12.2940404212
20
-17.0239008999
30
0.0000000000
10
-12.2931848666
20
-17.0089497645
30
0.0000000000
10
-12.2923442160
20
-16.9902338333
30
0.0000000000
10
-12.2915238812
20
-16.9678604031
30
0.0000000000
10
-12.2907322519
20
-16.9419560059
30
0.0000000000
10
-12.2899745842
20
-16.9126679746
30
0.0000000000
10
-12.2892560915
20
-16.8801628222
30
0.0000000000
10
-12.2885812757
20
-16.8446254595
30
0.0000000000
10
-12.2879542993
20
-16.8062580036
30
0.0000000000
10
-12.2873789345
20
-16.7652786764
30
0.0000000000
10
-12.2868586044
20
-16.7219205519
30
0.0000000000
10
-12.2863963751
20
-16.6764302202
30
0.0000000000
10
-12.2859949548
20
-16.6290664385
30
0.0000000000
10
-12.2856566840
20
-16.5800985742
30
0.0000000000
10
-12.2853835280
20
-16.5298050151
30
0.0000000000
10
-12.2851770727
20
-16.4784718589
30
0.0000000000
10
-12.2850385174
20
-16.4263940519
30
0.0000000000
10
-12.2849920552
20
-16.3914598441
30
0.0000000000
10
-12.2849802401
20
-16.3739188688
30
0.0000000000
11
-12.2950679731
21
-17.0362964381
31
0.0000000000
11
-12.2941674075
21
-17.0251788292
31
0.0000000000
11
-12.2932838185
21
-17.0102016339
31
0.0000000000
11
-12.2924224381
21
-16.9914521288
31
0.0000000000
11
-12.2915881781
21
-16.9690371879
31
0.0000000000
11
-12.2907857790
21
-16.9430842852
31
0.0000000000
11
-12.2900198024
21
-16.9137410010
31
0.0000000000
11
-12.2892946073
21
-16.8811743994
31
0.0000000000
11
-12.2886143175
21
-16.8455697707
31
0.0000000000
11
-12.2879827996
21
-16.8071295952
31
0.0000000000
11
-12.2874036445
21
-16.7660725507
31
0.0000000000
11
-12.2868801450
21
-16.7226321934
31
0.0000000000
11
-12.2864152764
21
-16.6770555459
31
0.0000000000
11
-12.2860116814
21
-16.6296018221
31
0.0000000000
11
-12.2856716551
21
-16.5805410724
31
0.0000000000
11
-12.2853971284
21
-16.5301521468
31
0.0000000000
11
-12.2851896608
21
-16.4787213161
31
0.0000000000
11
-12.2850504328
21
-16.4265417600
31
0.0000000000
11
-12.2849802401
21
-16.3739188688
31
0.0000000000
0
SPLINE
5
268
100
AcDbEntity
8
0
100
AcDbSpline
62
9
6
CONTINUOUS
70
0
71
3
72
25
73
21
74
19
42
0.0000001000
43
0.0000001000
44
0.0000000001
12
0.0654172135
22
0.9440976861
32
0.0000000000
13
0.0004462007
23
0.9463612701
33
0.0000000000
40
0.0000000000
40
0.0000000000
40
0.0000000000
40
0.0000000000
40
0.0168139800
40
0.0394426574
40
0.0677609164
40
0.1016088282
40
0.1407948368
40
0.1850966849
40
0.2342625483
40
0.2880129895
40
0.3460425649
40
0.4080213419
40
0.4735969130
40
0.5423965836
40
0.6140292037
40
0.6880872429
40
0.7641498830
40
0.8417850915
40
0.9205504175
40
1.0000000000
40
1.0000000000
40
1.0000000000
40
1.0000000000
10
-11.9951136646
20
-17.3317387640
30
0.0000000000
10
-11.9947470233
20
-17.3264474175
30
0.0000000000
10
-11.9940857197
20
-17.3140215134
30
0.0000000000
10
-11.9932302470
20
-17.2926631475
30
0.0000000000
10
-11.9923896915
20
-17.2659271668
30
0.0000000000
10
-11.9915694064
20
-17.2339656815
30
0.0000000000
10
-11.9907778155
20
-17.1969600342
30
0.0000000000
10
-11.9900201793
20
-17.1551207205
30
0.0000000000
10
-11.9893017131
20
-17.1086857086
30
0.0000000000
10
-11.9886269209
20
-17.0579191717
30
0.0000000000
10
-11.9879999649
20
-17.0031098600
30
0.0000000000
10
-11.9874246177
20
-16.9445695126
30
0.0000000000
10
-11.9869043019
20
-16.8826310595
30
0.0000000000
10
-11.9864420834
20
-16.8176467258
30
0.0000000000
10
-11.9860406707
20
-16.7499861141
30
0.0000000000
10
-11.9857024030
20
-16.6800339996
30
0.0000000000
10
-11.9854292482
20
-16.6081880483
30
0.0000000000
10
-11.9852227875
20
-16.5348569375
30
0.0000000000
10
-11.9850842187
20
-16.4604572424
30
0.0000000000
10
-11.9850377484
20
-16.4105477628
30
0.0000000000
10
-11.9850259316
20
-16.3854850935
30
0.0000000000
11
-11.9951136646
21
-17.3317387640
31
0.0000000000
11
-11.9942128936
21
-17.3158521792
31
0.0000000000
11
-11.9933293355
21
-17.2944555080
31
0.0000000000
11
-11.9924679756
21
-17.2676700476
31
0.0000000000
11
-11.9916337408
21
-17.2356485563
31
0.0000000000
11
-11.9908313648
21
-17.1985731126
31
0.0000000000
11
-11.9900654111
21
-17.1566545521
31
0.0000000000
11
-11.9893402378
21
-17.1101315295
31
0.0000000000
11
-11.9886599683
21
-17.0592687369
31
0.0000000000
11
-11.9880284688
21
-17.0043554192
31
0.0000000000
11
-11.9874493299
21
-16.9457039577
31
0.0000000000
11
-11.9869258440
21
-16.8836479780
31
0.0000000000
11
-11.9864609857
21
-16.8185402866
31
0.0000000000
11
-11.9860573976
21
-16.7507511431
31
0.0000000000
11
-11.9857173745
21
-16.6806663001
31
0.0000000000
11
-11.9854428480
21
-16.6086840789
31
0.0000000000
11
-11.9852353760
21
-16.5352134091
31
0.0000000000
11
-11.9850961418
21
-16.4606730769
31
0.0000000000
11
-11.9850259316
21
-16.3854850935
31
0.0000000000
0
SPLINE
5
269
100
AcDbEntity
8
0
100
AcDbSpline
62
9
6
CONTINUOUS
70
0
71
3
72
22
73
18
74
16
42
0.0000001000
43
0.0000001000
44
0.0000000001
12
0.0014367926
22
-0.4669669341
32
0.0000000000
13
0.4669670641
23
-0.0013938929
33
0.0000000000
40
0.0000000000
40
0.0000000000
40
0.0000000000
40
0.0000000000
40
0.0661103930
40
0.1322638428
40
0.1984799513
40
0.2647755418
40
0.3311639233
40
0.3976543190
40
0.4642514785
40
0.5309554922
40
0.5977618086
40
0.6646614531
40
0.7316414334
40
0.7986853115
40
0.8657739179
40
0.9328861755
40
1.0000000000
40
1.0000000000
40
1.0000000000
40
1.0000000000
10
-12.2950679731
20
-17.0362964381
30
0.0000000000
10
-12.2950363108
20
-17.0465868939
30
0.0000000000
10
-12.2938787457
20
-17.0671878067
30
0.0000000000
10
-12.2888811198
20
-17.0977313591
30
0.0000000000
10
-12.2806765585
20
-17.1276071707
30
0.0000000000
10
-12.2693549185
20
-17.1564844311
30
0.0000000000
10
-12.2550401006
20
-17.1840491135
30
0.0000000000
10
-12.2378886848
20
-17.2100000750
30
0.0000000000
10
-12.2180881797
20
-17.2340543068
30
0.0000000000
10
-12.1958549501
20
-17.2559494796
30
0.0000000000
10
-12.1714318214
20
-17.2754469249
30
0.0000000000
10
-12.1450854501
20
-17.2923341731
30
0.0000000000
10
-12.1171032737
20
-17.3064272510
30
0.0000000000
10
-12.0877908790
20
-17.3175726546
30
0.0000000000
10
-12.0574668067
20
-17.3256490025
30
0.0000000000
10
-12.0264660900
20
-17.3305683171
30
0.0000000000
10
-12.0055603131
20
-17.3317075808
30
0.0000000000
10
-11.9951136646
20
-17.3317387640
30
0.0000000000
11
-12.2950679731
21
-17.0362964381
31
0.0000000000
11
-12.2933362830
21
-17.0671193452
31
0.0000000000
11
-12.2883497880
21
-17.0976058512
31
0.0000000000
11
-12.2801629107
21
-17.1274232259
31
0.0000000000
11
-12.2688650026
21
-17.1562460421
31
0.0000000000
11
-12.2545793690
21
-17.1837597273
31
0.0000000000
11
-12.2374619236
21
-17.2096639967
31
0.0000000000
11
-12.2176994861
21
-17.2336761308
31
0.0000000000
11
-12.1955077440
21
-17.2555340608
31
0.0000000000
11
-12.1711288982
21
-17.2749992288
31
0.0000000000
11
-12.1448290196
21
-17.2918591917
31
0.0000000000
11
-12.1168951455
21
-17.3059299395
31
0.0000000000
11
-12.0876321466
21
-17.3170579038
31
0.0000000000
11
-12.0573593996
21
-17.3251216339
31
0.0000000000
11
-12.0264073017
21
-17.3300331220
31
0.0000000000
11
-11.9951136646
21
-17.3317387640
31
0.0000000000
0
ENDSEC
0
SECTION
2
OBJECTS
0
DICTIONARY
5
26A
100
AcDbDictionary
3
ACAD_GROUP
350
26B
3
ACAD_MLINESTYLE
350
26C
0
DICTIONARY
5
26B
102
{ACAD_REACTORS
330
26A
102
}
100
AcDbDictionary
0
DICTIONARY
5
26C
102
{ACAD_REACTORS
330
26A
102
}
100
AcDbDictionary
3
STANDARD
350
26D
0
MLINESTYLE
5
26D
102
{ACAD_REACTORS
330
26C
102
}
100
AcDbMlineStyle
2
STANDARD
70
0
3

62
256
51
90.0
52
90.0
71
2
49
0.5
62
256
6
BYLAYER
49
-0.5
62
256
6
BYLAYER
0
ENDSEC
0
EOF
